  0
SECTION
  2
HEADER
  9
$ACADVER
  1
AC1015
  9
$ACADMAINTVER
 70
     6
  9
$DWGCODEPAGE
  3
ANSI_932
  9
$INSBASE
 10
3622.951418059088
 20
2364.273118638839
 30
0.0
  9
$EXTMIN
 10
272.2362785945295
 20
12.59408140603989
 30
0.0
  9
$EXTMAX
 10
2258.026401026495
 20
1555.786324857846
 30
0.0
  9
$LIMMIN
 10
0.0
 20
0.0
  9
$LIMMAX
 10
816.5000000000001
 20
565.0
  9
$ORTHOMODE
 70
     1
  9
$REGENMODE
 70
     1
  9
$FILLMODE
 70
     1
  9
$QTEXTMODE
 70
     0
  9
$MIRRTEXT
 70
     1
  9
$LTSCALE
 40
20.0
  9
$ATTMODE
 70
     1
  9
$TEXTSIZE
 40
18.0
  9
$TRACEWID
 40
0.05
  9
$TEXTSTYLE
  7
KANJI
  9
$CLAYER
  8
2
  9
$CELTYPE
  6
BYLAYER
  9
$CECOLOR
 62
   256
  9
$CELTSCALE
 40
1.0
  9
$DISPSILH
 70
     0
  9
$DIMSCALE
 40
6.0
  9
$DIMASZ
 40
2.0
  9
$DIMEXO
 40
0.5
  9
$DIMDLI
 40
0.0
  9
$DIMRND
 40
0.0
  9
$DIMDLE
 40
0.0
  9
$DIMEXE
 40
1.0
  9
$DIMTP
 40
0.0
  9
$DIMTM
 40
0.0
  9
$DIMTXT
 40
3.0
  9
$DIMCEN
 40
0.09
  9
$DIMTSZ
 40
0.0
  9
$DIMTOL
 70
     0
  9
$DIMLIM
 70
     0
  9
$DIMTIH
 70
     0
  9
$DIMTOH
 70
     0
  9
$DIMSE1
 70
     0
  9
$DIMSE2
 70
     0
  9
$DIMTAD
 70
     0
  9
$DIMZIN
 70
     8
  9
$DIMBLK
  1

  9
$DIMASO
 70
     0
  9
$DIMSHO
 70
     0
  9
$DIMPOST
  1

  9
$DIMAPOST
  1

  9
$DIMALT
 70
     0
  9
$DIMALTD
 70
     2
  9
$DIMALTF
 40
25.4
  9
$DIMLFAC
 40
1.0
  9
$DIMTOFL
 70
     1
  9
$DIMTVP
 40
1.0
  9
$DIMTIX
 70
     1
  9
$DIMSOXD
 70
     1
  9
$DIMSAH
 70
     0
  9
$DIMBLK1
  1

  9
$DIMBLK2
  1

  9
$DIMSTYLE
  2
STANDARD
  9
$DIMCLRD
 70
   256
  9
$DIMCLRE
 70
   256
  9
$DIMCLRT
 70
   256
  9
$DIMTFAC
 40
1.0
  9
$DIMGAP
 40
0.09
  9
$DIMJUST
 70
     0
  9
$DIMSD1
 70
     0
  9
$DIMSD2
 70
     0
  9
$DIMTOLJ
 70
     1
  9
$DIMTZIN
 70
     0
  9
$DIMALTZ
 70
     0
  9
$DIMALTTZ
 70
     0
  9
$DIMUPT
 70
     0
  9
$DIMDEC
 70
     1
  9
$DIMTDEC
 70
     4
  9
$DIMALTU
 70
     2
  9
$DIMALTTD
 70
     2
  9
$DIMTXSTY
  7
STANDARD
  9
$DIMAUNIT
 70
     0
  9
$DIMADEC
 70
     0
  9
$DIMALTRND
 40
0.0
  9
$DIMAZIN
 70
     0
  9
$DIMDSEP
 70
    46
  9
$DIMATFIT
 70
     3
  9
$DIMFRAC
 70
     0
  9
$DIMLDRBLK
  1

  9
$DIMLUNIT
 70
     2
  9
$DIMLWD
 70
    -2
  9
$DIMLWE
 70
    -2
  9
$DIMTMOVE
 70
     0
  9
$LUNITS
 70
     2
  9
$LUPREC
 70
     3
  9
$SKETCHINC
 40
0.1
  9
$FILLETRAD
 40
1.0
  9
$AUNITS
 70
     0
  9
$AUPREC
 70
     3
  9
$MENU
  1
C:\R13\WIN\SUPPORT\ACADFULL
  9
$ELEVATION
 40
0.0
  9
$PELEVATION
 40
0.0
  9
$THICKNESS
 40
0.0
  9
$LIMCHECK
 70
     0
  9
$CHAMFERA
 40
0.0
  9
$CHAMFERB
 40
0.0
  9
$CHAMFERC
 40
0.0
  9
$CHAMFERD
 40
0.0
  9
$SKPOLY
 70
     0
  9
$TDCREATE
 40
2457541.441115058
  9
$TDUCREATE
 40
2457541.066115058
  9
$TDUPDATE
 40
2458110.618397812
  9
$TDUUPDATE
 40
2458110.243397812
  9
$TDINDWG
 40
0.0319909722
  9
$TDUSRTIMER
 40
0.0319902431
  9
$USRTIMER
 70
     1
  9
$ANGBASE
 50
0.0
  9
$ANGDIR
 70
     0
  9
$PDMODE
 70
     0
  9
$PDSIZE
 40
0.0
  9
$PLINEWID
 40
0.0
  9
$SPLFRAME
 70
     0
  9
$SPLINETYPE
 70
     6
  9
$SPLINESEGS
 70
     8
  9
$HANDSEED
  5
A10
  9
$SURFTAB1
 70
     6
  9
$SURFTAB2
 70
     6
  9
$SURFTYPE
 70
     6
  9
$SURFU
 70
     6
  9
$SURFV
 70
     6
  9
$UCSBASE
  2

  9
$UCSNAME
  2

  9
$UCSORG
 10
0.0
 20
0.0
 30
0.0
  9
$UCSXDIR
 10
1.0
 20
0.0
 30
0.0
  9
$UCSYDIR
 10
0.0
 20
1.0
 30
0.0
  9
$UCSORTHOREF
  2

  9
$UCSORTHOVIEW
 70
     0
  9
$UCSORGTOP
 10
0.0
 20
0.0
 30
0.0
  9
$UCSORGBOTTOM
 10
0.0
 20
0.0
 30
0.0
  9
$UCSORGLEFT
 10
0.0
 20
0.0
 30
0.0
  9
$UCSORGRIGHT
 10
0.0
 20
0.0
 30
0.0
  9
$UCSORGFRONT
 10
0.0
 20
0.0
 30
0.0
  9
$UCSORGBACK
 10
0.0
 20
0.0
 30
0.0
  9
$PUCSBASE
  2

  9
$PUCSNAME
  2

  9
$PUCSORG
 10
0.0
 20
0.0
 30
0.0
  9
$PUCSXDIR
 10
1.0
 20
0.0
 30
0.0
  9
$PUCSYDIR
 10
0.0
 20
1.0
 30
0.0
  9
$PUCSORTHOREF
  2

  9
$PUCSORTHOVIEW
 70
     0
  9
$PUCSORGTOP
 10
0.0
 20
0.0
 30
0.0
  9
$PUCSORGBOTTOM
 10
0.0
 20
0.0
 30
0.0
  9
$PUCSORGLEFT
 10
0.0
 20
0.0
 30
0.0
  9
$PUCSORGRIGHT
 10
0.0
 20
0.0
 30
0.0
  9
$PUCSORGFRONT
 10
0.0
 20
0.0
 30
0.0
  9
$PUCSORGBACK
 10
0.0
 20
0.0
 30
0.0
  9
$USERI1
 70
     0
  9
$USERI2
 70
     0
  9
$USERI3
 70
     0
  9
$USERI4
 70
     0
  9
$USERI5
 70
     0
  9
$USERR1
 40
0.0
  9
$USERR2
 40
0.0
  9
$USERR3
 40
0.0
  9
$USERR4
 40
2448925.372986111
  9
$USERR5
 40
0.04166667
  9
$WORLDVIEW
 70
     1
  9
$SHADEDGE
 70
     3
  9
$SHADEDIF
 70
    70
  9
$TILEMODE
 70
     1
  9
$MAXACTVP
 70
    16
  9
$PINSBASE
 10
0.0
 20
0.0
 30
0.0
  9
$PLIMCHECK
 70
     0
  9
$PEXTMIN
 10
1000000000000000E+20
 20
1000000000000000E+20
 30
1000000000000000E+20
  9
$PEXTMAX
 10
-1000000000000000E+20
 20
-1000000000000000E+20
 30
-1000000000000000E+20
  9
$PLIMMIN
 10
0.0
 20
0.0
  9
$PLIMMAX
 10
12.0
 20
9.0
  9
$UNITMODE
 70
     0
  9
$VISRETAIN
 70
     0
  9
$PLINEGEN
 70
     0
  9
$PSLTSCALE
 70
     0
  9
$TREEDEPTH
 70
  3020
  9
$CMLSTYLE
  2
STANDARD
  9
$CMLJUST
 70
     0
  9
$CMLSCALE
 40
1.0
  9
$PROXYGRAPHICS
 70
     1
  9
$MEASUREMENT
 70
     0
  9
$CELWEIGHT
370
    -1
  9
$ENDCAPS
280
     0
  9
$JOINSTYLE
280
     0
  9
$LWDISPLAY
290
     0
  9
$INSUNITS
 70
     0
  9
$HYPERLINKBASE
  1

  9
$STYLESHEET
  1

  9
$XEDIT
290
     1
  9
$CEPSNTYPE
380
     0
  9
$PSTYLEMODE
290
     1
  9
$FINGERPRINTGUID
  2
{D96F28DB-B2DB-4AD8-9AEF-0C04C20878B1}
  9
$VERSIONGUID
  2
{6E15CFCB-A786-48F2-8C2A-AE2ED21AEAE9}
  9
$EXTNAMES
290
     1
  9
$PSVPSCALE
 40
0.0
  9
$OLESTARTUP
290
     0
  0
ENDSEC
  0
SECTION
  2
CLASSES
  0
CLASS
  1
ACDBDICTIONARYWDFLT
  2
AcDbDictionaryWithDefault
  3
ObjectDBX Classes
 90
        0
280
     0
281
     0
  0
CLASS
  1
MATERIAL
  2
AcDbMaterial
  3
ObjectDBX Classes
 90
     1153
280
     0
281
     0
  0
CLASS
  1
SORTENTSTABLE
  2
AcDbSortentsTable
  3
ObjectDBX Classes
 90
        0
280
     0
281
     0
  0
CLASS
  1
SCALE
  2
AcDbScale
  3
ObjectDBX Classes
 90
     1153
280
     0
281
     0
  0
CLASS
  1
DICTIONARYVAR
  2
AcDbDictionaryVar
  3
ObjectDBX Classes
 90
        0
280
     0
281
     0
  0
CLASS
  1
VISUALSTYLE
  2
AcDbVisualStyle
  3
ObjectDBX Classes
 90
     4095
280
     0
281
     0
  0
CLASS
  1
MLEADERSTYLE
  2
AcDbMLeaderStyle
  3
ACDB_MLEADERSTYLE_CLASS
 90
     4095
280
     0
281
     0
  0
CLASS
  1
ACDBPLACEHOLDER
  2
AcDbPlaceHolder
  3
ObjectDBX Classes
 90
        0
280
     0
281
     0
  0
CLASS
  1
LAYOUT
  2
AcDbLayout
  3
ObjectDBX Classes
 90
        0
280
     0
281
     0
  0
ENDSEC
  0
SECTION
  2
TABLES
  0
TABLE
  2
VPORT
  5
26
102
{ACAD_XDICTIONARY
360
9D5
102
}
330
0
100
AcDbSymbolTable
 70
     2
  0
VPORT
  5
2B
330
26
100
AcDbSymbolTableRecord
100
AcDbViewportTableRecord
  2
*ACTIVE
 70
     0
 10
0.0
 20
0.0
 11
1.0
 21
1.0
 12
1634.092188848914
 22
751.6988255352308
 13
0.0
 23
0.0
 14
1.0
 24
1.0
 15
50.0
 25
50.0
 16
0.0
 26
0.0
 36
1.0
 17
0.0
 27
0.0
 37
0.0
 40
1706.600129824895
 41
1.82716049382716
 42
50.0
 43
0.0
 44
0.0
 50
0.0
 51
0.0
 71
     0
 72
  5000
 73
     1
 74
     0
 75
     0
 76
     0
 77
     0
 78
     0
281
     0
 65
     1
110
0.0
120
0.0
130
0.0
111
1.0
121
0.0
131
0.0
112
0.0
122
1.0
132
0.0
 79
     0
146
0.0
  0
ENDTAB
  0
TABLE
  2
LTYPE
  5
B
330
0
100
AcDbSymbolTable
 70
     2
  0
LTYPE
  5
C
330
B
100
AcDbSymbolTableRecord
100
AcDbLinetypeTableRecord
  2
BYBLOCK
 70
     0
  3

 72
    65
 73
     0
 40
0.0
  0
LTYPE
  5
D
330
B
100
AcDbSymbolTableRecord
100
AcDbLinetypeTableRecord
  2
BYLAYER
 70
     0
  3

 72
    65
 73
     0
 40
0.0
  0
LTYPE
  5
A
330
B
100
AcDbSymbolTableRecord
100
AcDbLinetypeTableRecord
  2
CONTINUOUS
 70
     0
  3
Solid line
 72
    65
 73
     0
 40
0.0
  0
LTYPE
  5
5A
330
B
100
AcDbSymbolTableRecord
100
AcDbLinetypeTableRecord
  2
CENTER
 70
     0
  3
____ _ ____ _ ____ _ ____ _ ____ _ ____ _ ____
 72
    65
 73
     4
 40
2.0
 49
1.25
 74
     0
 49
-0.25
 74
     0
 49
0.25
 74
     0
 49
-0.25
 74
     0
  0
ENDTAB
  0
TABLE
  2
LAYER
  5
2
330
0
100
AcDbSymbolTable
 70
    10
  0
LAYER
  5
1B
330
2
100
AcDbSymbolTableRecord
100
AcDbLayerTableRecord
  2
0
 70
     0
 62
     7
  6
CONTINUOUS
370
    -3
390
3
  0
LAYER
  5
882
330
2
100
AcDbSymbolTableRecord
100
AcDbLayerTableRecord
  2
1
 70
     0
 62
     9
  6
CONTINUOUS
370
    -3
390
3
  0
LAYER
  5
1
330
2
100
AcDbSymbolTableRecord
100
AcDbLayerTableRecord
  2
2
 70
     0
 62
     4
  6
CONTINUOUS
370
    -3
390
3
  0
LAYER
  5
52
330
2
100
AcDbSymbolTableRecord
100
AcDbLayerTableRecord
  2
4
 70
     0
 62
     3
  6
CONTINUOUS
370
    -3
390
3
  0
LAYER
  5
59
330
2
100
AcDbSymbolTableRecord
100
AcDbLayerTableRecord
  2
L-CENTER
 70
     0
 62
     1
  6
CENTER
370
    -3
390
3
  0
LAYER
  5
288
330
2
100
AcDbSymbolTableRecord
100
AcDbLayerTableRecord
  2
3
 70
     0
 62
     2
  6
CONTINUOUS
370
    -3
390
3
  0
LAYER
  5
87C
330
2
100
AcDbSymbolTableRecord
100
AcDbLayerTableRecord
  2
5
 70
     0
 62
     6
  6
CONTINUOUS
370
    -3
390
3
  0
LAYER
  5
22B
102
{ACAD_XDICTIONARY
360
22C
102
}
330
2
100
AcDbSymbolTableRecord
100
AcDbLayerTableRecord
  2
CENTER
 70
     0
 62
     1
  6
CENTER
370
    -3
390
3
  0
LAYER
  5
984
330
2
100
AcDbSymbolTableRecord
100
AcDbLayerTableRecord
  2
Defpoints
 70
     0
 62
     7
  6
CONTINUOUS
290
     0
370
    -3
390
3
  0
ENDTAB
  0
TABLE
  2
STYLE
  5
F
330
0
100
AcDbSymbolTable
 70
     2
  0
STYLE
  5
13
330
F
100
AcDbSymbolTableRecord
100
AcDbTextStyleTableRecord
  2
STANDARD
 70
     0
 40
0.0
 41
1.0
 50
0.0
 71
     0
 42
10.79999999999999
  3
TXT
  4

  0
STYLE
  5
E
330
F
100
AcDbSymbolTableRecord
100
AcDbTextStyleTableRecord
  2
KANJI
 70
     0
 40
0.0
 41
1.0
 50
0.0
 71
     0
 42
18.0
  3
TXT
  4
BIGFONT
  0
ENDTAB
  0
TABLE
  2
VIEW
  5
24
330
0
100
AcDbSymbolTable
 70
     0
  0
ENDTAB
  0
TABLE
  2
UCS
  5
25
330
0
100
AcDbSymbolTable
 70
     0
  0
ENDTAB
  0
TABLE
  2
APPID
  5
9
330
0
100
AcDbSymbolTable
 70
     3
  0
APPID
  5
8
330
9
100
AcDbSymbolTableRecord
100
AcDbRegAppTableRecord
  2
ACAD
 70
     0
  0
APPID
  5
1F
330
9
100
AcDbSymbolTableRecord
100
AcDbRegAppTableRecord
  2
ACAD_PSEXT
 70
     0
  0
APPID
  5
96E
330
9
100
AcDbSymbolTableRecord
100
AcDbRegAppTableRecord
  2
ACAD_MLEADERVER
 70
     0
  0
ENDTAB
  0
TABLE
  2
DIMSTYLE
  5
12
330
0
100
AcDbSymbolTable
 70
     1
100
AcDbDimStyleTable
  0
DIMSTYLE
105
11
330
12
100
AcDbSymbolTableRecord
100
AcDbDimStyleTableRecord
  2
STANDARD
 70
     0
178
     0
340
13
  0
ENDTAB
  0
TABLE
  2
BLOCK_RECORD
  5
16
330
0
100
AcDbSymbolTable
 70
     0
  0
BLOCK_RECORD
  5
17
102
{ACAD_XDICTIONARY
360
18
102
}
330
16
100
AcDbSymbolTableRecord
100
AcDbBlockTableRecord
  2
*MODEL_SPACE
340
1D
  0
BLOCK_RECORD
  5
20
330
16
100
AcDbSymbolTableRecord
100
AcDbBlockTableRecord
  2
*PAPER_SPACE
340
23
  0
ENDTAB
  0
ENDSEC
  0
SECTION
  2
BLOCKS
  0
BLOCK
  5
1A
330
17
100
AcDbEntity
  8
0
100
AcDbBlockBegin
  2
*MODEL_SPACE
 70
     0
 10
0.0
 20
0.0
 30
0.0
  3
*MODEL_SPACE
  1

  0
ENDBLK
  5
1C
330
17
100
AcDbEntity
  8
0
100
AcDbBlockEnd
  0
BLOCK
  5
21
330
20
100
AcDbEntity
 67
     1
  8
0
100
AcDbBlockBegin
  2
*PAPER_SPACE
 70
     0
 10
0.0
 20
0.0
 30
0.0
  3
*PAPER_SPACE
  1

  0
ENDBLK
  5
22
330
20
100
AcDbEntity
 67
     1
  8
0
100
AcDbBlockEnd
  0
ENDSEC
  0
SECTION
  2
ENTITIES
  0
LINE
  5
58
330
17
100
AcDbEntity
  8
L-CENTER
100
AcDbLine
 10
578.3673949472714
 20
1314.53850371171
 30
0.0
 11
578.3673949472714
 21
1358.879119413986
 31
0.0
  0
LINE
  5
5B
330
17
100
AcDbEntity
  8
4
100
AcDbLine
 10
588.1823495234948
 20
1355.107614213553
 30
0.0
 11
588.1823495234948
 21
1346.511141159406
 31
0.0
  0
LINE
  5
5C
330
17
100
AcDbEntity
  8
4
100
AcDbLine
 10
568.5524403710479
 20
1346.511141159406
 30
0.0
 11
568.5524403710479
 21
1355.107614213553
 31
0.0
  0
LINE
  5
5D
330
17
100
AcDbEntity
  8
4
100
AcDbLine
 10
583.2748722353836
 20
1355.107614213553
 30
0.0
 11
583.2748722353836
 21
1349.011141159406
 31
0.0
  0
ARC
  5
5E
330
17
100
AcDbEntity
  8
4
100
AcDbCircle
 10
585.7286108794397
 20
1352.227527230346
 30
0.0
 40
3.783613929059507
100
AcDbArc
 50
49.57010315517826
 51
130.4298968448217
  0
LINE
  5
5F
330
17
100
AcDbEntity
  8
4
100
AcDbLine
 10
571.006179015104
 20
1356.011141159406
 30
0.0
 11
585.7286108794397
 21
1356.011141159406
 31
0.0
  0
ARC
  5
60
330
17
100
AcDbEntity
  8
4
100
AcDbCircle
 10
578.3673949472714
 20
1342.231975861946
 30
0.0
 40
13.77916529745958
100
AcDbArc
 50
69.13593563608075
 51
110.8640643639193
  0
LINE
  5
61
330
17
100
AcDbEntity
  8
4
100
AcDbLine
 10
573.45991765916
 20
1355.107614213553
 30
0.0
 11
573.45991765916
 21
1349.011141159406
 31
0.0
  0
LINE
  5
62
330
17
100
AcDbEntity
  8
4
100
AcDbLine
 10
588.1823495234948
 20
1346.511141159406
 30
0.0
 11
568.5524403710479
 21
1346.511141159406
 31
0.0
  0
LINE
  5
63
330
17
100
AcDbEntity
  8
4
100
AcDbLine
 10
588.1823495234948
 20
1349.011141159406
 30
0.0
 11
568.5524403710479
 21
1349.011141159406
 31
0.0
  0
ARC
  5
64
330
17
100
AcDbEntity
  8
4
100
AcDbCircle
 10
571.006179015104
 20
1352.227527230346
 30
0.0
 40
3.783613929059507
100
AcDbArc
 50
49.57010315517826
 51
130.4298968448217
  0
LINE
  5
65
330
17
100
AcDbEntity
  8
L-CENTER
100
AcDbLine
 10
635.6622966347863
 20
1314.53850371171
 30
0.0
 11
635.6622966347863
 21
1358.879119413986
 31
0.0
  0
LINE
  5
66
330
17
100
AcDbEntity
  8
4
100
AcDbLine
 10
645.4772512110098
 20
1355.107614213553
 30
0.0
 11
645.4772512110098
 21
1346.511141159406
 31
0.0
  0
LINE
  5
67
330
17
100
AcDbEntity
  8
4
100
AcDbLine
 10
625.8473420585628
 20
1346.511141159406
 30
0.0
 11
625.8473420585628
 21
1355.107614213553
 31
0.0
  0
LINE
  5
68
330
17
100
AcDbEntity
  8
4
100
AcDbLine
 10
640.5697739228985
 20
1355.107614213553
 30
0.0
 11
640.5697739228985
 21
1349.011141159406
 31
0.0
  0
ARC
  5
69
330
17
100
AcDbEntity
  8
4
100
AcDbCircle
 10
643.0235125669547
 20
1352.227527230346
 30
0.0
 40
3.783613929059507
100
AcDbArc
 50
49.57010315517826
 51
130.4298968448217
  0
LINE
  5
6A
330
17
100
AcDbEntity
  8
4
100
AcDbLine
 10
628.301080702619
 20
1356.011141159406
 30
0.0
 11
643.0235125669547
 21
1356.011141159406
 31
0.0
  0
ARC
  5
6B
330
17
100
AcDbEntity
  8
4
100
AcDbCircle
 10
635.6622966347863
 20
1342.231975861946
 30
0.0
 40
13.77916529745958
100
AcDbArc
 50
69.13593563608075
 51
110.8640643639193
  0
LINE
  5
6C
330
17
100
AcDbEntity
  8
4
100
AcDbLine
 10
630.754819346675
 20
1355.107614213553
 30
0.0
 11
630.754819346675
 21
1349.011141159406
 31
0.0
  0
LINE
  5
6D
330
17
100
AcDbEntity
  8
4
100
AcDbLine
 10
645.4772512110098
 20
1346.511141159406
 30
0.0
 11
625.8473420585628
 21
1346.511141159406
 31
0.0
  0
LINE
  5
6E
330
17
100
AcDbEntity
  8
4
100
AcDbLine
 10
645.4772512110098
 20
1349.011141159406
 30
0.0
 11
625.8473420585628
 21
1349.011141159406
 31
0.0
  0
ARC
  5
6F
330
17
100
AcDbEntity
  8
4
100
AcDbCircle
 10
628.301080702619
 20
1352.227527230346
 30
0.0
 40
3.783613929059507
100
AcDbArc
 50
49.57010315517826
 51
130.4298968448217
  0
LINE
  5
70
330
17
100
AcDbEntity
  8
L-CENTER
100
AcDbLine
 10
785.6622966347868
 20
1314.53850371171
 30
0.0
 11
785.6622966347868
 21
1358.879119413986
 31
0.0
  0
LINE
  5
71
330
17
100
AcDbEntity
  8
4
100
AcDbLine
 10
795.4772512110103
 20
1355.107614213553
 30
0.0
 11
795.4772512110103
 21
1346.511141159406
 31
0.0
  0
LINE
  5
72
330
17
100
AcDbEntity
  8
4
100
AcDbLine
 10
775.8473420585633
 20
1346.511141159406
 30
0.0
 11
775.8473420585633
 21
1355.107614213553
 31
0.0
  0
LINE
  5
73
330
17
100
AcDbEntity
  8
4
100
AcDbLine
 10
790.569773922899
 20
1355.107614213553
 30
0.0
 11
790.569773922899
 21
1349.011141159406
 31
0.0
  0
ARC
  5
74
330
17
100
AcDbEntity
  8
4
100
AcDbCircle
 10
793.0235125669551
 20
1352.227527230346
 30
0.0
 40
3.783613929059507
100
AcDbArc
 50
49.57010315517826
 51
130.4298968448217
  0
LINE
  5
75
330
17
100
AcDbEntity
  8
4
100
AcDbLine
 10
778.3010807026194
 20
1356.011141159406
 30
0.0
 11
793.0235125669551
 21
1356.011141159406
 31
0.0
  0
ARC
  5
76
330
17
100
AcDbEntity
  8
4
100
AcDbCircle
 10
785.6622966347868
 20
1342.231975861946
 30
0.0
 40
13.77916529745958
100
AcDbArc
 50
69.13593563608075
 51
110.8640643639193
  0
LINE
  5
77
330
17
100
AcDbEntity
  8
4
100
AcDbLine
 10
780.7548193466755
 20
1355.107614213553
 30
0.0
 11
780.7548193466755
 21
1349.011141159406
 31
0.0
  0
LINE
  5
78
330
17
100
AcDbEntity
  8
4
100
AcDbLine
 10
795.4772512110103
 20
1346.511141159406
 30
0.0
 11
775.8473420585633
 21
1346.511141159406
 31
0.0
  0
LINE
  5
79
330
17
100
AcDbEntity
  8
4
100
AcDbLine
 10
795.4772512110103
 20
1349.011141159406
 30
0.0
 11
775.8473420585633
 21
1349.011141159406
 31
0.0
  0
ARC
  5
7A
330
17
100
AcDbEntity
  8
4
100
AcDbCircle
 10
778.3010807026194
 20
1352.227527230346
 30
0.0
 40
3.783613929059507
100
AcDbArc
 50
49.57010315517826
 51
130.4298968448217
  0
LINE
  5
7B
330
17
100
AcDbEntity
  8
L-CENTER
100
AcDbLine
 10
971.0724932597559
 20
1314.53850371171
 30
0.0
 11
971.0724932597559
 21
1358.879119413986
 31
0.0
  0
LINE
  5
7C
330
17
100
AcDbEntity
  8
4
100
AcDbLine
 10
980.8874478359794
 20
1355.107614213553
 30
0.0
 11
980.8874478359794
 21
1346.511141159406
 31
0.0
  0
LINE
  5
7D
330
17
100
AcDbEntity
  8
4
100
AcDbLine
 10
961.2575386835324
 20
1346.511141159406
 30
0.0
 11
961.2575386835324
 21
1355.107614213553
 31
0.0
  0
LINE
  5
7E
330
17
100
AcDbEntity
  8
4
100
AcDbLine
 10
975.9799705478681
 20
1355.107614213553
 30
0.0
 11
975.9799705478681
 21
1349.011141159406
 31
0.0
  0
ARC
  5
7F
330
17
100
AcDbEntity
  8
4
100
AcDbCircle
 10
978.4337091919242
 20
1352.227527230346
 30
0.0
 40
3.783613929059507
100
AcDbArc
 50
49.57010315517826
 51
130.4298968448217
  0
LINE
  5
80
330
17
100
AcDbEntity
  8
4
100
AcDbLine
 10
963.7112773275885
 20
1356.011141159406
 30
0.0
 11
978.4337091919242
 21
1356.011141159406
 31
0.0
  0
ARC
  5
81
330
17
100
AcDbEntity
  8
4
100
AcDbCircle
 10
971.0724932597559
 20
1342.231975861946
 30
0.0
 40
13.77916529745958
100
AcDbArc
 50
69.13593563608075
 51
110.8640643639193
  0
LINE
  5
82
330
17
100
AcDbEntity
  8
4
100
AcDbLine
 10
966.1650159716446
 20
1355.107614213553
 30
0.0
 11
966.1650159716446
 21
1349.011141159406
 31
0.0
  0
LINE
  5
83
330
17
100
AcDbEntity
  8
4
100
AcDbLine
 10
980.8874478359794
 20
1346.511141159406
 30
0.0
 11
961.2575386835324
 21
1346.511141159406
 31
0.0
  0
LINE
  5
84
330
17
100
AcDbEntity
  8
4
100
AcDbLine
 10
980.8874478359794
 20
1349.011141159406
 30
0.0
 11
961.2575386835324
 21
1349.011141159406
 31
0.0
  0
ARC
  5
85
330
17
100
AcDbEntity
  8
4
100
AcDbCircle
 10
963.7112773275885
 20
1352.227527230346
 30
0.0
 40
3.783613929059507
100
AcDbArc
 50
49.57010315517826
 51
130.4298968448217
  0
LINE
  5
86
330
17
100
AcDbEntity
  8
L-CENTER
100
AcDbLine
 10
1121.072493259756
 20
1314.53850371171
 30
0.0
 11
1121.072493259756
 21
1358.879119413986
 31
0.0
  0
LINE
  5
87
330
17
100
AcDbEntity
  8
4
100
AcDbLine
 10
1130.88744783598
 20
1355.107614213553
 30
0.0
 11
1130.88744783598
 21
1346.511141159406
 31
0.0
  0
LINE
  5
88
330
17
100
AcDbEntity
  8
4
100
AcDbLine
 10
1111.257538683533
 20
1346.511141159406
 30
0.0
 11
1111.257538683533
 21
1355.107614213553
 31
0.0
  0
LINE
  5
89
330
17
100
AcDbEntity
  8
4
100
AcDbLine
 10
1125.979970547869
 20
1355.107614213553
 30
0.0
 11
1125.979970547869
 21
1349.011141159406
 31
0.0
  0
ARC
  5
8A
330
17
100
AcDbEntity
  8
4
100
AcDbCircle
 10
1128.433709191925
 20
1352.227527230346
 30
0.0
 40
3.783613929059507
100
AcDbArc
 50
49.57010315517826
 51
130.4298968448217
  0
LINE
  5
8B
330
17
100
AcDbEntity
  8
4
100
AcDbLine
 10
1113.711277327589
 20
1356.011141159406
 30
0.0
 11
1128.433709191925
 21
1356.011141159406
 31
0.0
  0
ARC
  5
8C
330
17
100
AcDbEntity
  8
4
100
AcDbCircle
 10
1121.072493259756
 20
1342.231975861946
 30
0.0
 40
13.77916529745958
100
AcDbArc
 50
69.13593563608075
 51
110.8640643639193
  0
LINE
  5
8D
330
17
100
AcDbEntity
  8
4
100
AcDbLine
 10
1116.165015971645
 20
1355.107614213553
 30
0.0
 11
1116.165015971645
 21
1349.011141159406
 31
0.0
  0
LINE
  5
8E
330
17
100
AcDbEntity
  8
4
100
AcDbLine
 10
1130.88744783598
 20
1346.511141159406
 30
0.0
 11
1111.257538683533
 21
1346.511141159406
 31
0.0
  0
LINE
  5
8F
330
17
100
AcDbEntity
  8
4
100
AcDbLine
 10
1130.88744783598
 20
1349.011141159406
 30
0.0
 11
1111.257538683533
 21
1349.011141159406
 31
0.0
  0
ARC
  5
90
330
17
100
AcDbEntity
  8
4
100
AcDbCircle
 10
1113.711277327589
 20
1352.227527230346
 30
0.0
 40
3.783613929059507
100
AcDbArc
 50
49.57010315517826
 51
130.4298968448217
  0
LINE
  5
91
330
17
100
AcDbEntity
  8
L-CENTER
100
AcDbLine
 10
1178.367394947271
 20
1314.53850371171
 30
0.0
 11
1178.367394947271
 21
1358.879119413986
 31
0.0
  0
LINE
  5
92
330
17
100
AcDbEntity
  8
4
100
AcDbLine
 10
1188.182349523495
 20
1355.107614213553
 30
0.0
 11
1188.182349523495
 21
1346.511141159406
 31
0.0
  0
LINE
  5
93
330
17
100
AcDbEntity
  8
4
100
AcDbLine
 10
1168.552440371048
 20
1346.511141159406
 30
0.0
 11
1168.552440371048
 21
1355.107614213553
 31
0.0
  0
LINE
  5
94
330
17
100
AcDbEntity
  8
4
100
AcDbLine
 10
1183.274872235384
 20
1355.107614213553
 30
0.0
 11
1183.274872235384
 21
1349.011141159406
 31
0.0
  0
ARC
  5
95
330
17
100
AcDbEntity
  8
4
100
AcDbCircle
 10
1185.72861087944
 20
1352.227527230346
 30
0.0
 40
3.783613929059507
100
AcDbArc
 50
49.57010315517826
 51
130.4298968448217
  0
LINE
  5
96
330
17
100
AcDbEntity
  8
4
100
AcDbLine
 10
1171.006179015104
 20
1356.011141159406
 30
0.0
 11
1185.72861087944
 21
1356.011141159406
 31
0.0
  0
ARC
  5
97
330
17
100
AcDbEntity
  8
4
100
AcDbCircle
 10
1178.367394947271
 20
1342.231975861946
 30
0.0
 40
13.77916529745958
100
AcDbArc
 50
69.13593563608075
 51
110.8640643639193
  0
LINE
  5
98
330
17
100
AcDbEntity
  8
4
100
AcDbLine
 10
1173.45991765916
 20
1355.107614213553
 30
0.0
 11
1173.45991765916
 21
1349.011141159406
 31
0.0
  0
LINE
  5
99
330
17
100
AcDbEntity
  8
4
100
AcDbLine
 10
1188.182349523495
 20
1346.511141159406
 30
0.0
 11
1168.552440371048
 21
1346.511141159406
 31
0.0
  0
LINE
  5
9A
330
17
100
AcDbEntity
  8
4
100
AcDbLine
 10
1188.182349523495
 20
1349.011141159406
 30
0.0
 11
1168.552440371048
 21
1349.011141159406
 31
0.0
  0
ARC
  5
9B
330
17
100
AcDbEntity
  8
4
100
AcDbCircle
 10
1171.006179015104
 20
1352.227527230346
 30
0.0
 40
3.783613929059507
100
AcDbArc
 50
49.57010315517826
 51
130.4298968448217
  0
LINE
  5
9C
330
17
100
AcDbEntity
  8
4
100
AcDbLine
 10
563.651496947271
 20
1321.111141159404
 30
0.0
 11
1193.651496947271
 21
1321.111141159404
 31
0.0
  0
LINE
  5
9D
330
17
100
AcDbEntity
  8
L-CENTER
100
AcDbLine
 10
527.6514969472701
 20
1213.111141159404
 30
0.0
 11
1229.651496947271
 21
1213.111141159404
 31
0.0
  0
LINE
  5
9E
330
17
100
AcDbEntity
  8
4
100
AcDbLine
 10
667.0194969472705
 20
1071.111141159404
 30
0.0
 11
897.0194969472709
 21
1071.111141159404
 31
0.0
  0
LINE
  5
9F
330
17
100
AcDbEntity
  8
4
100
AcDbLine
 10
547.6514969472719
 20
1028.111141159404
 30
0.0
 11
547.6514969472701
 21
1398.111141159404
 31
0.0
  0
LINE
  5
A0
330
17
100
AcDbEntity
  8
4
100
AcDbLine
 10
542.6514969472701
 20
1094.111141159404
 30
0.0
 11
542.651496947271
 21
1238.111141159404
 31
0.0
  0
LINE
  5
A1
330
17
100
AcDbEntity
  8
4
100
AcDbLine
 10
689.6297808836125
 20
1018.111141159404
 30
0.0
 11
557.6514969472719
 21
1018.111141159404
 31
0.0
  0
ARC
  5
A2
330
17
100
AcDbEntity
  8
4
100
AcDbCircle
 10
878.6514969472719
 20
7878.136089597556
 30
0.0
 40
6803.0
100
AcDbArc
 50
267.5989890658384
 51
272.4010109341617
  0
LINE
  5
A3
330
17
100
AcDbEntity
  8
L-CENTER
100
AcDbLine
 10
623.6514969472719
 20
1033.111141159403
 30
0.0
 11
623.651496947271
 21
1083.111141159406
 31
0.0
  0
LINE
  5
A4
330
17
100
AcDbEntity
  8
4
100
AcDbLine
 10
569.6514969472701
 20
1058.111141159404
 30
0.0
 11
569.6514969472701
 21
1087.111141159404
 31
0.0
  0
CIRCLE
  5
A5
330
17
100
AcDbEntity
  8
4
100
AcDbCircle
 10
623.651496947271
 20
1058.111141159404
 30
0.0
 40
11.0
  0
LINE
  5
A6
330
17
100
AcDbEntity
  8
4
100
AcDbLine
 10
569.6514969472701
 20
1058.111141159404
 30
0.0
 11
547.6514969472701
 21
1058.111141159404
 31
0.0
  0
ARC
  5
A7
330
17
100
AcDbEntity
  8
4
100
AcDbCircle
 10
557.6514969472719
 20
1028.111141159404
 30
0.0
 40
10.0
100
AcDbArc
 50
180.0
 51
270.0
  0
LINE
  5
A8
330
17
100
AcDbEntity
  8
L-CENTER
100
AcDbLine
 10
648.6514969472728
 20
1058.111141159404
 30
0.0
 11
598.6514969472701
 21
1058.111141159404
 31
0.0
  0
ARC
  5
A9
330
17
100
AcDbEntity
  8
4
100
AcDbCircle
 10
590.651496947271
 20
1084.111141159404
 30
0.0
 40
3.0
100
AcDbArc
 50
0.0
 51
90.0
  0
ARC
  5
AA
330
17
100
AcDbEntity
  8
4
100
AcDbCircle
 10
549.6514969472719
 20
1110.111141159404
 30
0.0
 40
2.0
100
AcDbArc
 50
180.0
 51
270.0
  0
LINE
  5
AB
330
17
100
AcDbEntity
  8
4
100
AcDbLine
 10
549.6514969472719
 20
1108.111141159404
 30
0.0
 11
1207.651496947271
 21
1108.111141159405
 31
0.0
  0
ARC
  5
AC
330
17
100
AcDbEntity
  8
4
100
AcDbCircle
 10
561.651496947271
 20
1106.111141159404
 30
0.0
 40
2.0
100
AcDbArc
 50
0.0
 51
90.0
  0
LINE
  5
AD
330
17
100
AcDbEntity
  8
4
100
AcDbLine
 10
542.6514969472701
 20
1094.111141159404
 30
0.0
 11
544.6514969472719
 21
1094.111141159404
 31
0.0
  0
ARC
  5
AE
330
17
100
AcDbEntity
  8
4
100
AcDbCircle
 10
544.6514969472719
 20
1091.111141159404
 30
0.0
 40
3.0
100
AcDbArc
 50
0.0
 51
90.0
  0
ARC
  5
AF
330
17
100
AcDbEntity
  8
4
100
AcDbCircle
 10
565.651496947271
 20
1089.111141159404
 30
0.0
 40
2.0
100
AcDbArc
 50
180.0
 51
270.0
  0
LINE
  5
B0
330
17
100
AcDbEntity
  8
4
100
AcDbLine
 10
565.651496947271
 20
1087.111141159404
 30
0.0
 11
1191.651496947271
 21
1087.111141159404
 31
0.0
  0
LINE
  5
B1
330
17
100
AcDbEntity
  8
4
100
AcDbLine
 10
563.651496947271
 20
1106.111141159404
 30
0.0
 11
563.651496947271
 21
1089.111141159404
 31
0.0
  0
LINE
  5
B2
330
17
100
AcDbEntity
  8
4
100
AcDbLine
 10
593.651496947271
 20
1084.111141159404
 30
0.0
 11
593.651496947271
 21
1081.10850395396
 31
0.0
  0
LINE
  5
B3
330
17
100
AcDbEntity
  8
4
100
AcDbLine
 10
706.0959413917162
 20
1056.111141159405
 30
0.0
 11
699.3916514854518
 21
1025.941836581218
 31
0.0
  0
ARC
  5
B4
330
17
100
AcDbEntity
  8
4
100
AcDbCircle
 10
689.6297808836125
 20
1028.111141159404
 30
0.0
 40
10.0
100
AcDbArc
 50
270.0
 51
347.4711922908477
  0
ARC
  5
B5
330
17
100
AcDbEntity
  8
4
100
AcDbCircle
 10
664.0194969472705
 20
1075.521217022746
 30
0.0
 40
3.0
100
AcDbArc
 50
0.0
 51
88.19283764707886
  0
LINE
  5
B6
330
17
100
AcDbEntity
  8
4
100
AcDbLine
 10
667.0194969472705
 20
1075.521217022746
 30
0.0
 11
667.0194969472705
 21
1071.111141159405
 31
0.0
  0
LINE
  5
B7
330
17
100
AcDbEntity
  8
4
100
AcDbLine
 10
542.6514969472701
 20
1238.111141159404
 30
0.0
 11
544.6514969472719
 21
1238.111141159404
 31
0.0
  0
ARC
  5
B8
330
17
100
AcDbEntity
  8
4
100
AcDbCircle
 10
544.6514969472719
 20
1241.111141159404
 30
0.0
 40
3.0
100
AcDbArc
 50
270.0
 51
0.0
  0
LINE
  5
B9
330
17
100
AcDbEntity
  8
4
100
AcDbLine
 10
557.6514969472701
 20
1408.111141159404
 30
0.0
 11
689.6297808836116
 21
1408.111141159404
 31
0.0
  0
LINE
  5
BA
330
17
100
AcDbEntity
  8
L-CENTER
100
AcDbLine
 10
623.6514969472719
 20
1393.111141159406
 30
0.0
 11
623.651496947271
 21
1343.111141159402
 31
0.0
  0
LINE
  5
BB
330
17
100
AcDbEntity
  8
4
100
AcDbLine
 10
569.6514969472714
 20
1346.511141159406
 30
0.0
 11
569.6514969472719
 21
1368.111141159404
 31
0.0
  0
ARC
  5
BC
330
17
100
AcDbEntity
  8
4
100
AcDbCircle
 10
549.6514969472719
 20
1316.111141159404
 30
0.0
 40
2.0
100
AcDbArc
 50
90.0
 51
180.0
  0
LINE
  5
BD
330
17
100
AcDbEntity
  8
4
100
AcDbLine
 10
563.651496947271
 20
1321.111141159405
 30
0.0
 11
563.651496947271
 21
1318.111141159404
 31
0.0
  0
LINE
  5
BE
330
17
100
AcDbEntity
  8
4
100
AcDbLine
 10
549.6514969472719
 20
1318.111141159404
 30
0.0
 11
1207.651496947271
 21
1318.111141159404
 31
0.0
  0
ARC
  5
BF
330
17
100
AcDbEntity
  8
4
100
AcDbCircle
 10
557.6514969472701
 20
1398.111141159404
 30
0.0
 40
10.0
100
AcDbArc
 50
90.0
 51
180.0
  0
LINE
  5
C0
330
17
100
AcDbEntity
  8
4
100
AcDbLine
 10
569.6514969472719
 20
1368.111141159404
 30
0.0
 11
547.6514969472719
 21
1368.111141159404
 31
0.0
  0
LINE
  5
C1
330
17
100
AcDbEntity
  8
L-CENTER
100
AcDbLine
 10
648.6514969472728
 20
1368.111141159404
 30
0.0
 11
598.6514969472701
 21
1368.111141159404
 31
0.0
  0
CIRCLE
  5
C2
330
17
100
AcDbEntity
  8
4
100
AcDbCircle
 10
623.651496947271
 20
1368.111141159404
 30
0.0
 40
11.0
  0
LINE
  5
C3
330
17
100
AcDbEntity
  8
4
100
AcDbLine
 10
699.39165148545
 20
1400.280445737591
 30
0.0
 11
703.8991991732391
 21
1379.996481142541
 31
0.0
  0
ARC
  5
C4
330
17
100
AcDbEntity
  8
4
100
AcDbCircle
 10
689.6297808836116
 20
1398.111141159404
 30
0.0
 40
10.0
100
AcDbArc
 50
12.52880770915234
 51
90.0
  0
LINE
  5
C5
330
17
100
AcDbEntity
  8
4
100
AcDbLine
 10
1209.651496947271
 20
1028.111141159404
 30
0.0
 11
1209.651496947271
 21
1398.111141159404
 31
0.0
  0
LINE
  5
C6
330
17
100
AcDbEntity
  8
L-CENTER
100
AcDbLine
 10
878.651496947271
 20
1371.009221468271
 30
0.0
 11
878.651496947271
 21
1051.111141159404
 31
0.0
  0
LINE
  5
C7
330
17
100
AcDbEntity
  8
4
100
AcDbLine
 10
914.0194969472709
 20
1071.111141159404
 30
0.0
 11
1094.019496947271
 21
1071.111141159405
 31
0.0
  0
ARC
  5
C8
330
17
100
AcDbEntity
  8
4
100
AcDbCircle
 10
900.0194969472709
 20
1072.169632982008
 30
0.0
 40
3.0
100
AcDbArc
 50
90.17988513487896
 51
180.0
  0
LINE
  5
C9
330
17
100
AcDbEntity
  8
4
100
AcDbLine
 10
897.0194969472709
 20
1072.169632982008
 30
0.0
 11
897.0194969472709
 21
1071.111141159405
 31
0.0
  0
ARC
  5
CA
330
17
100
AcDbEntity
  8
4
100
AcDbCircle
 10
911.0194969472709
 20
1072.213057959892
 30
0.0
 40
3.0
100
AcDbArc
 50
0.0
 51
90.27248850750303
  0
LINE
  5
CB
330
17
100
AcDbEntity
  8
4
100
AcDbLine
 10
914.0194969472709
 20
1072.213057959892
 30
0.0
 11
914.0194969472709
 21
1071.111141159405
 31
0.0
  0
LINE
  5
CC
330
17
100
AcDbEntity
  8
4
100
AcDbLine
 10
1214.651496947271
 20
1094.111141159404
 30
0.0
 11
1214.651496947271
 21
1238.111141159404
 31
0.0
  0
LINE
  5
CD
330
17
100
AcDbEntity
  8
4
100
AcDbLine
 10
1199.651496947271
 20
1018.111141159404
 30
0.0
 11
1067.67321301093
 21
1018.111141159404
 31
0.0
  0
CIRCLE
  5
CE
330
17
100
AcDbEntity
  8
4
100
AcDbCircle
 10
1133.651496947271
 20
1058.111141159404
 30
0.0
 40
11.0
  0
LINE
  5
CF
330
17
100
AcDbEntity
  8
L-CENTER
100
AcDbLine
 10
1133.651496947271
 20
1033.111141159403
 30
0.0
 11
1133.651496947271
 21
1083.111141159406
 31
0.0
  0
LINE
  5
D0
330
17
100
AcDbEntity
  8
4
100
AcDbLine
 10
1053.318163613939
 20
1046.611141159404
 30
0.0
 11
1057.911342409091
 21
1025.941836581218
 31
0.0
  0
ARC
  5
D1
330
17
100
AcDbEntity
  8
4
100
AcDbCircle
 10
1067.67321301093
 20
1028.111141159404
 30
0.0
 40
10.0
100
AcDbArc
 50
192.5288077091523
 51
270.0
  0
LINE
  5
D2
330
17
100
AcDbEntity
  8
L-CENTER
100
AcDbLine
 10
1108.651496947269
 20
1058.111141159404
 30
0.0
 11
1158.651496947273
 21
1058.111141159404
 31
0.0
  0
ARC
  5
D3
330
17
100
AcDbEntity
  8
4
100
AcDbCircle
 10
1097.019496947271
 20
1075.640119986401
 30
0.0
 40
3.0
100
AcDbArc
 50
91.8386295021807
 51
180.0
  0
LINE
  5
D4
330
17
100
AcDbEntity
  8
4
100
AcDbLine
 10
1094.019496947271
 20
1075.640119986401
 30
0.0
 11
1094.019496947271
 21
1071.111141159405
 31
0.0
  0
LINE
  5
D5
330
17
100
AcDbEntity
  8
4
100
AcDbLine
 10
1187.651496947271
 20
1058.111141159404
 30
0.0
 11
1187.651496947271
 21
1087.111141159404
 31
0.0
  0
LINE
  5
D6
330
17
100
AcDbEntity
  8
4
100
AcDbLine
 10
1187.651496947271
 20
1058.111141159404
 30
0.0
 11
1209.651496947271
 21
1058.111141159404
 31
0.0
  0
ARC
  5
D7
330
17
100
AcDbEntity
  8
4
100
AcDbCircle
 10
1199.651496947271
 20
1028.111141159404
 30
0.0
 40
10.0
100
AcDbArc
 50
270.0
 51
0.0
  0
ARC
  5
D8
330
17
100
AcDbEntity
  8
4
100
AcDbCircle
 10
1195.651496947271
 20
1106.111141159404
 30
0.0
 40
2.0
100
AcDbArc
 50
90.0
 51
180.0
  0
ARC
  5
D9
330
17
100
AcDbEntity
  8
4
100
AcDbCircle
 10
1212.651496947271
 20
1091.111141159404
 30
0.0
 40
3.0
100
AcDbArc
 50
90.0
 51
180.0
  0
LINE
  5
DA
330
17
100
AcDbEntity
  8
4
100
AcDbLine
 10
1214.651496947271
 20
1094.111141159404
 30
0.0
 11
1212.651496947271
 21
1094.111141159404
 31
0.0
  0
ARC
  5
DB
330
17
100
AcDbEntity
  8
4
100
AcDbCircle
 10
1207.651496947271
 20
1110.111141159404
 30
0.0
 40
2.0
100
AcDbArc
 50
270.0
 51
0.0
  0
ARC
  5
DC
330
17
100
AcDbEntity
  8
4
100
AcDbCircle
 10
1191.651496947271
 20
1089.111141159404
 30
0.0
 40
2.0
100
AcDbArc
 50
270.0
 51
0.0
  0
ARC
  5
DD
330
17
100
AcDbEntity
  8
4
100
AcDbCircle
 10
1166.651496947271
 20
1084.111141159404
 30
0.0
 40
3.0
100
AcDbArc
 50
90.0
 51
180.0
  0
LINE
  5
DE
330
17
100
AcDbEntity
  8
4
100
AcDbLine
 10
1163.651496947271
 20
1084.111141159404
 30
0.0
 11
1163.651496947271
 21
1081.10850395396
 31
0.0
  0
LINE
  5
DF
330
17
100
AcDbEntity
  8
4
100
AcDbLine
 10
1193.651496947271
 20
1106.111141159404
 30
0.0
 11
1193.651496947271
 21
1089.111141159404
 31
0.0
  0
ARC
  5
E0
330
17
100
AcDbEntity
  8
4
100
AcDbCircle
 10
1212.651496947271
 20
1241.111141159404
 30
0.0
 40
3.0
100
AcDbArc
 50
180.0
 51
270.0
  0
LINE
  5
E1
330
17
100
AcDbEntity
  8
4
100
AcDbLine
 10
1214.651496947271
 20
1238.111141159404
 30
0.0
 11
1212.651496947271
 21
1238.111141159404
 31
0.0
  0
LINE
  5
E2
330
17
100
AcDbEntity
  8
4
100
AcDbLine
 10
1067.673213010929
 20
1408.111141159404
 30
0.0
 11
1199.651496947271
 21
1408.111141159404
 31
0.0
  0
LINE
  5
E3
330
17
100
AcDbEntity
  8
4
100
AcDbLine
 10
1057.91134240909
 20
1400.280445737591
 30
0.0
 11
1053.407052502826
 21
1380.011141159406
 31
0.0
  0
LINE
  5
E4
330
17
100
AcDbEntity
  8
L-CENTER
100
AcDbLine
 10
1133.651496947271
 20
1393.111141159406
 30
0.0
 11
1133.651496947271
 21
1343.111141159402
 31
0.0
  0
ARC
  5
E5
330
17
100
AcDbEntity
  8
4
100
AcDbCircle
 10
1067.673213010929
 20
1398.111141159404
 30
0.0
 40
10.0
100
AcDbArc
 50
90.0
 51
167.4711922908477
  0
CIRCLE
  5
E6
330
17
100
AcDbEntity
  8
4
100
AcDbCircle
 10
1133.651496947271
 20
1368.111141159404
 30
0.0
 40
11.0
  0
LINE
  5
E7
330
17
100
AcDbEntity
  8
L-CENTER
100
AcDbLine
 10
1108.651496947269
 20
1368.111141159404
 30
0.0
 11
1158.651496947273
 21
1368.111141159404
 31
0.0
  0
LINE
  5
E8
330
17
100
AcDbEntity
  8
4
100
AcDbLine
 10
1187.651496947271
 20
1355.486091873608
 30
0.0
 11
1187.651496947271
 21
1368.111141159404
 31
0.0
  0
LINE
  5
E9
330
17
100
AcDbEntity
  8
4
100
AcDbLine
 10
1193.651496947271
 20
1321.111141159405
 30
0.0
 11
1193.651496947271
 21
1318.111141159404
 31
0.0
  0
ARC
  5
EA
330
17
100
AcDbEntity
  8
4
100
AcDbCircle
 10
1207.651496947271
 20
1316.111141159404
 30
0.0
 40
2.0
100
AcDbArc
 50
0.0
 51
90.0
  0
ARC
  5
EB
330
17
100
AcDbEntity
  8
4
100
AcDbCircle
 10
1199.651496947271
 20
1398.111141159404
 30
0.0
 40
10.0
100
AcDbArc
 50
0.0
 51
90.0
  0
LINE
  5
EC
330
17
100
AcDbEntity
  8
4
100
AcDbLine
 10
1187.651496947271
 20
1368.111141159404
 30
0.0
 11
1209.651496947271
 21
1368.111141159404
 31
0.0
  0
LINE
  5
ED
330
17
100
AcDbEntity
  8
L-CENTER
100
AcDbLine
 10
407.139536930561
 20
1166.111141159404
 30
0.0
 11
1235.288939006947
 21
1166.111141159404
 31
0.0
  0
ARC
  5
EE
330
17
100
AcDbEntity
  8
4
100
AcDbCircle
 10
895.651496947271
 20
1169.111141159404
 30
0.0
 40
3.0
100
AcDbArc
 50
270.0
 51
0.0
  0
LINE
  5
EF
330
17
100
AcDbEntity
  8
4
100
AcDbLine
 10
898.651496947271
 20
1169.111141159404
 30
0.0
 11
898.651496947271
 21
1257.111141159404
 31
0.0
  0
LINE
  5
F0
330
17
100
AcDbEntity
  8
4
100
AcDbLine
 10
861.651496947271
 20
1166.111141159404
 30
0.0
 11
895.651496947271
 21
1166.111141159404
 31
0.0
  0
LINE
  5
F1
330
17
100
AcDbEntity
  8
4
100
AcDbLine
 10
858.651496947271
 20
1169.111141159404
 30
0.0
 11
858.651496947271
 21
1257.111141159404
 31
0.0
  0
ARC
  5
F2
330
17
100
AcDbEntity
  8
4
100
AcDbCircle
 10
861.651496947271
 20
1169.111141159404
 30
0.0
 40
3.0
100
AcDbArc
 50
180.0
 51
270.0
  0
LINE
  5
F3
330
17
100
AcDbEntity
  8
4
100
AcDbLine
 10
861.651496947271
 20
1260.111141159404
 30
0.0
 11
895.651496947271
 21
1260.111141159404
 31
0.0
  0
ARC
  5
F4
330
17
100
AcDbEntity
  8
4
100
AcDbCircle
 10
861.651496947271
 20
1257.111141159404
 30
0.0
 40
3.0
100
AcDbArc
 50
90.0
 51
180.0
  0
ARC
  5
F5
330
17
100
AcDbEntity
  8
4
100
AcDbCircle
 10
895.651496947271
 20
1257.111141159404
 30
0.0
 40
3.0
100
AcDbArc
 50
0.0
 51
90.0
  0
CIRCLE
  5
F6
330
17
100
AcDbEntity
  8
4
100
AcDbCircle
 10
683.651496947271
 20
1213.111141159404
 30
0.0
 40
25.0
  0
LINE
  5
F7
330
17
100
AcDbEntity
  8
L-CENTER
100
AcDbLine
 10
683.651496947271
 20
1178.111141159406
 30
0.0
 11
683.651496947271
 21
1248.111141159403
 31
0.0
  0
ARC
  5
F8
330
17
100
AcDbEntity
  8
4
100
AcDbCircle
 10
878.6514969472714
 20
-5451.513807278746
 30
0.0
 40
6803.0
100
AcDbArc
 50
92.12964087392041
 51
92.19135459156894
  0
ARC
  5
F9
330
17
100
AcDbEntity
  8
4
100
AcDbCircle
 10
878.6514969472714
 20
-5451.513807278746
 30
0.0
 40
6803.0
100
AcDbArc
 50
90.86586335402778
 51
91.96420952546504
  0
ARC
  5
FA
330
17
100
AcDbEntity
  8
4
100
AcDbCircle
 10
878.6514969472714
 20
-5451.513807278746
 30
0.0
 40
6803.0
100
AcDbArc
 50
89.3042637265186
 51
90.7005221191324
  0
ARC
  5
FB
330
17
100
AcDbEntity
  8
4
100
AcDbCircle
 10
878.6514969472714
 20
-5451.513807278746
 30
0.0
 40
6803.0
100
AcDbArc
 50
88.04057877151865
 51
89.13892267984498
  0
ARC
  5
FC
330
17
100
AcDbEntity
  8
4
100
AcDbCircle
 10
878.6514969472714
 20
-5451.513807278746
 30
0.0
 40
6803.0
100
AcDbArc
 50
87.80864540843123
 51
87.87514791664329
  0
LINE
  5
FD
330
17
100
AcDbEntity
  8
4
100
AcDbLine
 10
563.5264091935251
 20
1321.511141159405
 30
0.0
 11
1193.941709564923
 21
1321.511141159405
 31
0.0
  0
LINE
  5
FE
330
17
100
AcDbEntity
  8
4
100
AcDbLine
 10
565.526409193526
 20
1346.511141159406
 30
0.0
 11
1191.941709564923
 21
1346.511141159406
 31
0.0
  0
LINE
  5
FF
330
17
100
AcDbEntity
  8
4
100
AcDbLine
 10
914.0194969472714
 20
1355.511141159406
 30
0.0
 11
1094.019496947271
 21
1355.511141159405
 31
0.0
  0
ARC
  5
100
330
17
100
AcDbEntity
  8
4
100
AcDbCircle
 10
878.6514969472714
 20
-5451.513807278746
 30
0.0
 40
6800.0
100
AcDbArc
 50
90.86624538166811
 51
91.38096574237609
  0
ARC
  5
101
330
17
100
AcDbEntity
  8
4
100
AcDbCircle
 10
878.6514969472714
 20
-5451.513807278746
 30
0.0
 40
6800.0
100
AcDbArc
 50
89.30395676894861
 51
90.70083118841946
  0
ARC
  5
102
330
17
100
AcDbEntity
  8
4
100
AcDbCircle
 10
878.6514969472714
 20
-5451.513807278746
 30
0.0
 40
6800.0
100
AcDbArc
 50
88.61903425762404
 51
89.13854276416987
  0
LINE
  5
103
330
17
100
AcDbEntity
  8
4
100
AcDbLine
 10
794.9033034939107
 20
1355.511141159406
 30
0.0
 11
897.0194969472714
 21
1355.511141159406
 31
0.0
  0
LINE
  5
104
330
17
100
AcDbEntity
  8
4
100
AcDbLine
 10
667.0194969472714
 20
1355.511141159406
 30
0.0
 11
776.4212897756638
 21
1355.511141159406
 31
0.0
  0
ARC
  5
105
330
17
100
AcDbEntity
  8
4
100
AcDbCircle
 10
565.526409193526
 20
1344.511141159406
 30
0.0
 40
2.0
100
AcDbArc
 50
90.0
 51
180.0
  0
LINE
  5
106
330
17
100
AcDbEntity
  8
4
100
AcDbLine
 10
563.526409193526
 20
1321.511141159405
 30
0.0
 11
563.526409193526
 21
1344.511141159406
 31
0.0
  0
LINE
  5
107
330
17
100
AcDbEntity
  8
4
100
AcDbLine
 10
667.0194969472714
 20
1351.101065296064
 30
0.0
 11
667.0194969472714
 21
1355.511141159405
 31
0.0
  0
ARC
  5
108
330
17
100
AcDbEntity
  8
4
100
AcDbCircle
 10
664.0194969472714
 20
1351.101065296064
 30
0.0
 40
3.0
100
AcDbArc
 50
271.8071623529211
 51
0.0
  0
LINE
  5
109
330
17
100
AcDbEntity
  8
L-CENTER
100
AcDbLine
 10
782.0194969472714
 20
1555.786324857846
 30
0.0
 11
782.0194969472714
 21
1041.49187181033
 31
0.0
  0
ARC
  5
10A
330
17
100
AcDbEntity
  8
4
100
AcDbCircle
 10
911.0194969472714
 20
1354.409224358918
 30
0.0
 40
3.0
100
AcDbArc
 50
269.7275114924969
 51
0.0
  0
LINE
  5
10B
330
17
100
AcDbEntity
  8
4
100
AcDbLine
 10
914.0194969472714
 20
1354.409224358918
 30
0.0
 11
914.0194969472714
 21
1355.511141159405
 31
0.0
  0
LINE
  5
10C
330
17
100
AcDbEntity
  8
4
100
AcDbLine
 10
897.0194969472714
 20
1354.452649336803
 30
0.0
 11
897.0194969472714
 21
1355.511141159405
 31
0.0
  0
ARC
  5
10D
330
17
100
AcDbEntity
  8
4
100
AcDbCircle
 10
900.0194969472714
 20
1354.452649336803
 30
0.0
 40
3.0
100
AcDbArc
 50
180.0
 51
269.8201148651211
  0
LINE
  5
10E
330
17
100
AcDbEntity
  8
L-CENTER
100
AcDbLine
 10
1004.019496947271
 20
1391.226292366436
 30
0.0
 11
1004.019496947271
 21
1039.889760609019
 31
0.0
  0
LINE
  5
10F
330
17
100
AcDbEntity
  8
4
100
AcDbLine
 10
1094.019496947271
 20
1350.982162332409
 30
0.0
 11
1094.019496947271
 21
1355.511141159405
 31
0.0
  0
ARC
  5
110
330
17
100
AcDbEntity
  8
4
100
AcDbCircle
 10
1097.019496947271
 20
1350.982162332409
 30
0.0
 40
3.0
100
AcDbArc
 50
180.0
 51
268.1613704978106
  0
ARC
  5
111
330
17
100
AcDbEntity
  8
4
100
AcDbCircle
 10
1191.941709564923
 20
1344.511141159406
 30
0.0
 40
2.0
100
AcDbArc
 50
0.0
 51
90.0
  0
LINE
  5
112
330
17
100
AcDbEntity
  8
4
100
AcDbLine
 10
1193.941709564923
 20
1321.511141159407
 30
0.0
 11
1193.941709564923
 21
1344.511141159406
 31
0.0
  0
LINE
  5
113
330
17
100
AcDbEntity
  8
4
100
AcDbLine
 10
667.0194969472705
 20
1056.111141159404
 30
0.0
 11
897.0194969472709
 21
1056.111141159404
 31
0.0
  0
LINE
  5
114
330
17
100
AcDbEntity
  8
4
100
AcDbLine
 10
667.0194969472714
 20
1370.511141159406
 30
0.0
 11
897.0194969472714
 21
1370.511141159406
 31
0.0
  0
LINE
  5
115
330
17
100
AcDbEntity
  8
4
100
AcDbLine
 10
667.0194969472714
 20
1370.511141159406
 30
0.0
 11
667.0194969472714
 21
1355.511141159405
 31
0.0
  0
LINE
  5
116
330
17
100
AcDbEntity
  8
4
100
AcDbLine
 10
897.0194969472714
 20
1370.511141159406
 30
0.0
 11
897.0194969472714
 21
1355.511141159406
 31
0.0
  0
LINE
  5
117
330
17
100
AcDbEntity
  8
4
100
AcDbLine
 10
667.0194969472705
 20
1056.111141159404
 30
0.0
 11
667.0194969472705
 21
1071.111141159404
 31
0.0
  0
LINE
  5
118
330
17
100
AcDbEntity
  8
4
100
AcDbLine
 10
897.0194969472709
 20
1056.111141159404
 30
0.0
 11
897.0194969472709
 21
1071.111141159404
 31
0.0
  0
LINE
  5
119
330
17
100
AcDbEntity
  8
4
100
AcDbLine
 10
667.0194969472705
 20
1070.711141159405
 30
0.0
 11
897.0194969472709
 21
1070.711141159405
 31
0.0
  0
LINE
  5
11A
330
17
100
AcDbEntity
  8
4
100
AcDbLine
 10
793.887643798781
 20
1355.911141159405
 30
0.0
 11
897.0194969472714
 21
1355.911141159405
 31
0.0
  0
LINE
  5
11B
330
17
100
AcDbEntity
  8
4
100
AcDbLine
 10
667.0194969472714
 20
1355.911141159405
 30
0.0
 11
777.4369494707935
 21
1355.911141159405
 31
0.0
  0
LINE
  5
11C
330
17
100
AcDbEntity
  8
4
100
AcDbLine
 10
914.0194969472709
 20
1056.111141159404
 30
0.0
 11
1094.019496947271
 21
1056.111141159405
 31
0.0
  0
LINE
  5
11D
330
17
100
AcDbEntity
  8
4
100
AcDbLine
 10
914.0194969472714
 20
1370.511141159406
 30
0.0
 11
1094.019496947271
 21
1370.511141159405
 31
0.0
  0
LINE
  5
11E
330
17
100
AcDbEntity
  8
4
100
AcDbLine
 10
914.0194969472714
 20
1370.511141159406
 30
0.0
 11
914.0194969472714
 21
1355.511141159406
 31
0.0
  0
LINE
  5
11F
330
17
100
AcDbEntity
  8
4
100
AcDbLine
 10
1094.019496947271
 20
1370.511141159405
 30
0.0
 11
1094.019496947271
 21
1355.511141159405
 31
0.0
  0
LINE
  5
120
330
17
100
AcDbEntity
  8
4
100
AcDbLine
 10
1094.019496947271
 20
1071.111141159405
 30
0.0
 11
1094.019496947271
 21
1056.111141159405
 31
0.0
  0
LINE
  5
121
330
17
100
AcDbEntity
  8
4
100
AcDbLine
 10
914.0194969472709
 20
1071.111141159404
 30
0.0
 11
914.0194969472709
 21
1056.111141159404
 31
0.0
  0
LINE
  5
122
330
17
100
AcDbEntity
  8
4
100
AcDbLine
 10
914.0194969472709
 20
1070.711141159405
 30
0.0
 11
1094.019496947271
 21
1070.711141159405
 31
0.0
  0
LINE
  5
123
330
17
100
AcDbEntity
  8
4
100
AcDbLine
 10
914.0194969472714
 20
1355.911141159405
 30
0.0
 11
1094.019496947271
 21
1355.911141159404
 31
0.0
  0
LINE
  5
124
330
17
100
AcDbEntity
  8
4
100
AcDbLine
 10
1226.651496947271
 20
1094.111141159404
 30
0.0
 11
1226.651496947271
 21
1238.111141159404
 31
0.0
  0
LINE
  5
125
330
17
100
AcDbEntity
  8
4
100
AcDbLine
 10
530.6514969472701
 20
1094.111141159404
 30
0.0
 11
530.651496947271
 21
1238.111141159404
 31
0.0
  0
LINE
  5
126
330
17
100
AcDbEntity
  8
4
100
AcDbLine
 10
1214.651496947271
 20
1238.111141159404
 30
0.0
 11
1226.651496947271
 21
1238.111141159404
 31
0.0
  0
LINE
  5
127
330
17
100
AcDbEntity
  8
4
100
AcDbLine
 10
1226.651496947271
 20
1094.111141159404
 30
0.0
 11
1214.651496947271
 21
1094.111141159404
 31
0.0
  0
LINE
  5
128
330
17
100
AcDbEntity
  8
4
100
AcDbLine
 10
530.651496947271
 20
1238.111141159404
 30
0.0
 11
542.6514969472701
 21
1238.111141159404
 31
0.0
  0
LINE
  5
129
330
17
100
AcDbEntity
  8
4
100
AcDbLine
 10
530.6514969472701
 20
1094.111141159404
 30
0.0
 11
542.6514969472701
 21
1094.111141159404
 31
0.0
  0
LINE
  5
12A
330
17
100
AcDbEntity
  8
4
100
AcDbLine
 10
1215.051496947271
 20
1094.111141159404
 30
0.0
 11
1215.051496947271
 21
1238.111141159404
 31
0.0
  0
LINE
  5
12B
330
17
100
AcDbEntity
  8
4
100
AcDbLine
 10
542.2514969472704
 20
1094.111141159404
 30
0.0
 11
542.2514969472713
 21
1238.111141159404
 31
0.0
  0
LINE
  5
12C
330
17
100
AcDbEntity
  8
4
100
AcDbLine
 10
721.4081169910442
 20
1371.511141159406
 30
0.0
 11
842.6308769034986
 21
1371.511141159406
 31
0.0
  0
LINE
  5
13F
330
17
100
AcDbEntity
  8
4
100
AcDbLine
 10
794.0194969472714
 20
1408.111141159404
 30
0.0
 11
794.0194969472714
 21
1546.111141159404
 31
0.0
  0
LINE
  5
140
330
17
100
AcDbEntity
  8
4
100
AcDbLine
 10
770.0194969472714
 20
1408.111141159404
 30
0.0
 11
770.0194969472714
 21
1546.111141159404
 31
0.0
  0
LINE
  5
141
330
17
100
AcDbEntity
  8
4
100
AcDbLine
 10
827.0194969472714
 20
1388.111141159404
 30
0.0
 11
827.0194969472714
 21
1545.111141159404
 31
0.0
  0
LINE
  5
142
330
17
100
AcDbEntity
  8
4
100
AcDbLine
 10
737.0194969472714
 20
1388.111141159404
 30
0.0
 11
737.0194969472714
 21
1545.111141159404
 31
0.0
  0
LINE
  5
143
330
17
100
AcDbEntity
  8
4
100
AcDbLine
 10
734.5194969472714
 20
1386.111141159404
 30
0.0
 11
829.5194969472714
 21
1386.111141159404
 31
0.0
  0
LINE
  5
144
330
17
100
AcDbEntity
  8
4
100
AcDbLine
 10
782.0194969472714
 20
1396.111141159404
 30
0.0
 11
782.0194969472714
 21
1396.111141159404
 31
0.0
  0
ARC
  5
145
330
17
100
AcDbEntity
  8
4
100
AcDbCircle
 10
782.0194969472714
 20
1408.111141159404
 30
0.0
 40
12.0
100
AcDbArc
 50
270.0
 51
0.0
  0
ARC
  5
146
330
17
100
AcDbEntity
  8
4
100
AcDbCircle
 10
782.0194969472714
 20
1408.111141159404
 30
0.0
 40
12.0
100
AcDbArc
 50
180.0
 51
270.0
  0
ARC
  5
147
330
17
100
AcDbEntity
  8
4
100
AcDbCircle
 10
829.0194969472714
 20
1388.111141159404
 30
0.0
 40
2.0
100
AcDbArc
 50
180.0
 51
270.0
  0
ARC
  5
148
330
17
100
AcDbEntity
  8
4
100
AcDbCircle
 10
735.0194969472714
 20
1388.111141159404
 30
0.0
 40
2.0
100
AcDbArc
 50
270.0
 51
0.0
  0
LINE
  5
149
330
17
100
AcDbEntity
  8
4
100
AcDbLine
 10
737.0194969472714
 20
1545.111141159404
 30
0.0
 11
770.0194969472714
 21
1545.111141159404
 31
0.0
  0
LINE
  5
14A
330
17
100
AcDbEntity
  8
4
100
AcDbLine
 10
738.0194969472714
 20
1546.111141159404
 30
0.0
 11
826.0194969472714
 21
1546.111141159404
 31
0.0
  0
LINE
  5
14B
330
17
100
AcDbEntity
  8
4
100
AcDbLine
 10
826.0194969472714
 20
1546.111141159404
 30
0.0
 11
827.0194969472714
 21
1545.111141159404
 31
0.0
  0
LINE
  5
14C
330
17
100
AcDbEntity
  8
4
100
AcDbLine
 10
794.0194969472714
 20
1545.111141159404
 30
0.0
 11
827.0194969472714
 21
1545.111141159404
 31
0.0
  0
LINE
  5
14D
330
17
100
AcDbEntity
  8
4
100
AcDbLine
 10
737.0194969472714
 20
1545.111141159404
 30
0.0
 11
738.0194969472714
 21
1546.111141159404
 31
0.0
  0
LINE
  5
14E
330
17
100
AcDbEntity
  8
4
100
AcDbLine
 10
734.5194969472714
 20
1386.111141159404
 30
0.0
 11
734.5194969472714
 21
1371.511141159405
 31
0.0
  0
LINE
  5
14F
330
17
100
AcDbEntity
  8
4
100
AcDbLine
 10
829.5194969472714
 20
1386.111141159404
 30
0.0
 11
829.5194969472714
 21
1371.511141159405
 31
0.0
  0
ARC
  5
150
330
17
100
AcDbEntity
  8
4
100
AcDbCircle
 10
718.9543783469871
 20
1376.227527230346
 30
0.0
 40
3.783613929059507
100
AcDbArc
 50
49.57010315516725
 51
130.4298968448107
  0
LINE
  5
151
330
17
100
AcDbEntity
  8
4
100
AcDbLine
 10
701.7782078385972
 20
1373.011141159406
 30
0.0
 11
721.4081169910442
 21
1373.011141159406
 31
0.0
  0
LINE
  5
152
330
17
100
AcDbEntity
  8
4
100
AcDbLine
 10
701.7782078385972
 20
1370.511141159406
 30
0.0
 11
721.4081169910442
 21
1370.511141159406
 31
0.0
  0
LINE
  5
153
330
17
100
AcDbEntity
  8
L-CENTER
100
AcDbLine
 10
711.5931624148207
 20
1338.53850371171
 30
0.0
 11
711.5931624148207
 21
1382.879119413986
 31
0.0
  0
LINE
  5
154
330
17
100
AcDbEntity
  8
4
100
AcDbLine
 10
716.500639702932
 20
1379.107614213553
 30
0.0
 11
716.500639702932
 21
1373.011141159406
 31
0.0
  0
ARC
  5
155
330
17
100
AcDbEntity
  8
4
100
AcDbCircle
 10
711.5931624148197
 20
1366.231975861946
 30
0.0
 40
13.77916529745958
100
AcDbArc
 50
69.13593563607742
 51
110.8640643639175
  0
LINE
  5
156
330
17
100
AcDbEntity
  8
4
100
AcDbLine
 10
718.954378346988
 20
1380.011141159406
 30
0.0
 11
704.2319464826523
 21
1380.011141159406
 31
0.0
  0
ARC
  5
157
330
17
100
AcDbEntity
  8
4
100
AcDbCircle
 10
704.2319464826523
 20
1376.227527230346
 30
0.0
 40
3.783613929059507
100
AcDbArc
 50
49.57010315518929
 51
130.4298968448327
  0
LINE
  5
158
330
17
100
AcDbEntity
  8
4
100
AcDbLine
 10
701.7782078385972
 20
1379.107614213553
 30
0.0
 11
701.7782078385972
 21
1370.511141159406
 31
0.0
  0
LINE
  5
159
330
17
100
AcDbEntity
  8
4
100
AcDbLine
 10
706.6856851267084
 20
1379.107614213553
 30
0.0
 11
706.6856851267084
 21
1373.011141159406
 31
0.0
  0
LINE
  5
15A
330
17
100
AcDbEntity
  8
4
100
AcDbLine
 10
721.4081169910442
 20
1370.511141159406
 30
0.0
 11
721.4081169910442
 21
1379.107614213553
 31
0.0
  0
LINE
  5
15B
330
17
100
AcDbEntity
  8
L-CENTER
100
AcDbLine
 10
852.4458314797225
 20
1338.53850371171
 30
0.0
 11
852.4458314797225
 21
1382.879119413986
 31
0.0
  0
LINE
  5
15C
330
17
100
AcDbEntity
  8
4
100
AcDbLine
 10
842.630876903499
 20
1370.511141159406
 30
0.0
 11
842.630876903499
 21
1379.107614213553
 31
0.0
  0
LINE
  5
15D
330
17
100
AcDbEntity
  8
4
100
AcDbLine
 10
857.3533087678347
 20
1379.107614213553
 30
0.0
 11
857.3533087678347
 21
1373.011141159406
 31
0.0
  0
LINE
  5
15E
330
17
100
AcDbEntity
  8
4
100
AcDbLine
 10
862.260786055946
 20
1379.107614213553
 30
0.0
 11
862.260786055946
 21
1370.511141159406
 31
0.0
  0
ARC
  5
15F
330
17
100
AcDbEntity
  8
4
100
AcDbCircle
 10
859.8070474118908
 20
1376.227527230346
 30
0.0
 40
3.783613929059507
100
AcDbArc
 50
49.57010315516725
 51
130.4298968448327
  0
LINE
  5
160
330
17
100
AcDbEntity
  8
4
100
AcDbLine
 10
845.0846155475551
 20
1380.011141159406
 30
0.0
 11
859.8070474118908
 21
1380.011141159406
 31
0.0
  0
ARC
  5
161
330
17
100
AcDbEntity
  8
4
100
AcDbCircle
 10
852.4458314797225
 20
1366.231975861946
 30
0.0
 40
13.77916529745958
100
AcDbArc
 50
69.13593563608075
 51
110.8640643639193
  0
LINE
  5
162
330
17
100
AcDbEntity
  8
4
100
AcDbLine
 10
847.5383541916112
 20
1379.107614213553
 30
0.0
 11
847.5383541916112
 21
1373.011141159406
 31
0.0
  0
LINE
  5
163
330
17
100
AcDbEntity
  8
4
100
AcDbLine
 10
862.260786055946
 20
1370.511141159406
 30
0.0
 11
842.630876903499
 21
1370.511141159406
 31
0.0
  0
LINE
  5
164
330
17
100
AcDbEntity
  8
4
100
AcDbLine
 10
862.260786055946
 20
1373.011141159406
 30
0.0
 11
842.630876903499
 21
1373.011141159406
 31
0.0
  0
ARC
  5
165
330
17
100
AcDbEntity
  8
4
100
AcDbCircle
 10
845.0846155475551
 20
1376.227527230346
 30
0.0
 40
3.783613929059507
100
AcDbArc
 50
49.57010315516725
 51
130.4298968448327
  0
LINE
  5
166
330
17
100
AcDbEntity
  8
4
100
AcDbLine
 10
721.4081169910442
 20
1056.111141159404
 30
0.0
 11
721.4081169910442
 21
1047.514668105256
 31
0.0
  0
LINE
  5
167
330
17
100
AcDbEntity
  8
4
100
AcDbLine
 10
706.6856851267084
 20
1047.514668105256
 30
0.0
 11
706.6856851267084
 21
1053.611141159404
 31
0.0
  0
LINE
  5
168
330
17
100
AcDbEntity
  8
4
100
AcDbLine
 10
701.7782078385972
 20
1047.514668105256
 30
0.0
 11
701.7782078385972
 21
1056.111141159404
 31
0.0
  0
ARC
  5
169
330
17
100
AcDbEntity
  8
4
100
AcDbCircle
 10
704.2319464826523
 20
1050.394755088463
 30
0.0
 40
3.783613929059507
100
AcDbArc
 50
229.5701031551686
 51
310.4298968448156
  0
LINE
  5
16A
330
17
100
AcDbEntity
  8
4
100
AcDbLine
 10
718.954378346988
 20
1046.611141159404
 30
0.0
 11
704.2319464826523
 21
1046.611141159404
 31
0.0
  0
ARC
  5
16B
330
17
100
AcDbEntity
  8
4
100
AcDbCircle
 10
711.5931624148197
 20
1060.390306456863
 30
0.0
 40
13.77916529745958
100
AcDbArc
 50
249.1359356360825
 51
290.8640643639221
  0
LINE
  5
16C
330
17
100
AcDbEntity
  8
4
100
AcDbLine
 10
716.500639702932
 20
1047.514668105256
 30
0.0
 11
716.500639702932
 21
1053.611141159404
 31
0.0
  0
LINE
  5
16D
330
17
100
AcDbEntity
  8
4
100
AcDbLine
 10
701.7782078385972
 20
1056.111141159404
 30
0.0
 11
721.4081169910442
 21
1056.111141159404
 31
0.0
  0
LINE
  5
16E
330
17
100
AcDbEntity
  8
4
100
AcDbLine
 10
701.7782078385972
 20
1053.611141159404
 30
0.0
 11
721.4081169910442
 21
1053.611141159404
 31
0.0
  0
ARC
  5
16F
330
17
100
AcDbEntity
  8
4
100
AcDbCircle
 10
718.9543783469871
 20
1050.394755088463
 30
0.0
 40
3.783613929059507
100
AcDbArc
 50
229.5701031551844
 51
310.4298968448314
  0
LINE
  5
170
330
17
100
AcDbEntity
  8
L-CENTER
100
AcDbLine
 10
711.5931624148207
 20
1088.083778607099
 30
0.0
 11
711.5931624148207
 21
1043.743162904823
 31
0.0
  0
LINE
  5
171
330
17
100
AcDbEntity
  8
4
100
AcDbLine
 10
862.260786055946
 20
1053.611141159404
 30
0.0
 11
842.630876903499
 21
1053.611141159404
 31
0.0
  0
LINE
  5
172
330
17
100
AcDbEntity
  8
4
100
AcDbLine
 10
862.260786055946
 20
1056.111141159404
 30
0.0
 11
842.630876903499
 21
1056.111141159404
 31
0.0
  0
ARC
  5
173
330
17
100
AcDbEntity
  8
4
100
AcDbCircle
 10
852.4458314797225
 20
1060.390306456863
 30
0.0
 40
13.77916529745958
100
AcDbArc
 50
249.1359356360807
 51
290.8640643639193
  0
LINE
  5
174
330
17
100
AcDbEntity
  8
4
100
AcDbLine
 10
845.0846155475551
 20
1046.611141159404
 30
0.0
 11
859.8070474118908
 21
1046.611141159404
 31
0.0
  0
ARC
  5
175
330
17
100
AcDbEntity
  8
4
100
AcDbCircle
 10
845.0846155475551
 20
1050.394755088463
 30
0.0
 40
3.783613929059507
100
AcDbArc
 50
229.5701031551782
 51
310.4298968448218
  0
LINE
  5
176
330
17
100
AcDbEntity
  8
4
100
AcDbLine
 10
847.5383541916112
 20
1047.514668105256
 30
0.0
 11
847.5383541916112
 21
1053.611141159404
 31
0.0
  0
LINE
  5
177
330
17
100
AcDbEntity
  8
4
100
AcDbLine
 10
842.630876903499
 20
1056.111141159404
 30
0.0
 11
842.630876903499
 21
1047.514668105256
 31
0.0
  0
ARC
  5
178
330
17
100
AcDbEntity
  8
4
100
AcDbCircle
 10
859.8070474118908
 20
1050.394755088463
 30
0.0
 40
3.783613929059507
100
AcDbArc
 50
229.5701031551782
 51
310.4298968448218
  0
LINE
  5
179
330
17
100
AcDbEntity
  8
4
100
AcDbLine
 10
862.260786055946
 20
1047.514668105256
 30
0.0
 11
862.260786055946
 21
1056.111141159404
 31
0.0
  0
LINE
  5
17A
330
17
100
AcDbEntity
  8
4
100
AcDbLine
 10
857.3533087678347
 20
1047.514668105256
 30
0.0
 11
857.3533087678347
 21
1053.611141159404
 31
0.0
  0
LINE
  5
17B
330
17
100
AcDbEntity
  8
L-CENTER
100
AcDbLine
 10
852.4458314797225
 20
1088.083778607099
 30
0.0
 11
852.4458314797225
 21
1043.743162904823
 31
0.0
  0
ARC
  5
17C
330
17
100
AcDbEntity
  8
4
100
AcDbCircle
 10
957.9797034904473
 20
1376.227527230346
 30
0.0
 40
3.783613929059507
100
AcDbArc
 50
49.57010315516725
 51
130.4298968448327
  0
LINE
  5
17D
330
17
100
AcDbEntity
  8
4
100
AcDbLine
 10
940.8035329820564
 20
1373.011141159406
 30
0.0
 11
960.4334421345034
 21
1373.011141159406
 31
0.0
  0
LINE
  5
17E
330
17
100
AcDbEntity
  8
4
100
AcDbLine
 10
940.8035329820564
 20
1370.511141159406
 30
0.0
 11
960.4334421345034
 21
1370.511141159406
 31
0.0
  0
LINE
  5
17F
330
17
100
AcDbEntity
  8
L-CENTER
100
AcDbLine
 10
950.6184875582799
 20
1338.53850371171
 30
0.0
 11
950.6184875582799
 21
1382.879119413986
 31
0.0
  0
LINE
  5
180
330
17
100
AcDbEntity
  8
4
100
AcDbLine
 10
955.5259648463912
 20
1379.107614213553
 30
0.0
 11
955.5259648463912
 21
1373.011141159406
 31
0.0
  0
ARC
  5
181
330
17
100
AcDbEntity
  8
4
100
AcDbCircle
 10
950.6184875582799
 20
1366.231975861946
 30
0.0
 40
13.77916529745958
100
AcDbArc
 50
69.13593563608075
 51
110.8640643639193
  0
LINE
  5
182
330
17
100
AcDbEntity
  8
4
100
AcDbLine
 10
957.9797034904473
 20
1380.011141159406
 30
0.0
 11
943.2572716261116
 21
1380.011141159406
 31
0.0
  0
ARC
  5
183
330
17
100
AcDbEntity
  8
4
100
AcDbCircle
 10
943.2572716261116
 20
1376.227527230346
 30
0.0
 40
3.783613929059507
100
AcDbArc
 50
49.57010315516725
 51
130.4298968448327
  0
LINE
  5
184
330
17
100
AcDbEntity
  8
4
100
AcDbLine
 10
945.7110102701677
 20
1379.107614213553
 30
0.0
 11
945.7110102701677
 21
1373.011141159406
 31
0.0
  0
LINE
  5
185
330
17
100
AcDbEntity
  8
4
100
AcDbLine
 10
960.4334421345034
 20
1370.511141159406
 30
0.0
 11
960.4334421345034
 21
1379.107614213553
 31
0.0
  0
LINE
  5
186
330
17
100
AcDbEntity
  8
4
100
AcDbLine
 10
940.8035329820564
 20
1379.107614213553
 30
0.0
 11
940.8035329820564
 21
1370.511141159406
 31
0.0
  0
LINE
  5
187
330
17
100
AcDbEntity
  8
L-CENTER
100
AcDbLine
 10
1057.420506336263
 20
1338.53850371171
 30
0.0
 11
1057.420506336263
 21
1382.879119413986
 31
0.0
  0
LINE
  5
188
330
17
100
AcDbEntity
  8
4
100
AcDbLine
 10
1067.235460912486
 20
1379.107614213553
 30
0.0
 11
1067.235460912486
 21
1370.511141159406
 31
0.0
  0
LINE
  5
189
330
17
100
AcDbEntity
  8
4
100
AcDbLine
 10
1047.605551760039
 20
1370.511141159406
 30
0.0
 11
1047.605551760039
 21
1379.107614213553
 31
0.0
  0
LINE
  5
18A
330
17
100
AcDbEntity
  8
4
100
AcDbLine
 10
1062.327983624375
 20
1379.107614213553
 30
0.0
 11
1062.327983624375
 21
1373.011141159406
 31
0.0
  0
ARC
  5
18B
330
17
100
AcDbEntity
  8
4
100
AcDbCircle
 10
1064.781722268431
 20
1376.227527230346
 30
0.0
 40
3.783613929059507
100
AcDbArc
 50
49.57010315516371
 51
130.4298968448363
  0
LINE
  5
18C
330
17
100
AcDbEntity
  8
4
100
AcDbLine
 10
1050.059290404095
 20
1380.011141159406
 30
0.0
 11
1064.781722268431
 21
1380.011141159406
 31
0.0
  0
ARC
  5
18D
330
17
100
AcDbEntity
  8
4
100
AcDbCircle
 10
1057.420506336263
 20
1366.231975861946
 30
0.0
 40
13.77916529745958
100
AcDbArc
 50
69.13593563608075
 51
110.8640643639193
  0
LINE
  5
18E
330
17
100
AcDbEntity
  8
4
100
AcDbLine
 10
1052.513029048152
 20
1379.107614213553
 30
0.0
 11
1052.513029048152
 21
1373.011141159406
 31
0.0
  0
LINE
  5
18F
330
17
100
AcDbEntity
  8
4
100
AcDbLine
 10
1067.235460912486
 20
1370.511141159406
 30
0.0
 11
1047.605551760039
 21
1370.511141159406
 31
0.0
  0
LINE
  5
190
330
17
100
AcDbEntity
  8
4
100
AcDbLine
 10
1067.235460912486
 20
1373.011141159406
 30
0.0
 11
1047.605551760039
 21
1373.011141159406
 31
0.0
  0
ARC
  5
191
330
17
100
AcDbEntity
  8
4
100
AcDbCircle
 10
1050.059290404095
 20
1376.227527230346
 30
0.0
 40
3.783613929059507
100
AcDbArc
 50
49.57010315516371
 51
130.4298968448363
  0
LINE
  5
192
330
17
100
AcDbEntity
  8
4
100
AcDbLine
 10
940.8035329820564
 20
1047.514668105256
 30
0.0
 11
940.8035329820564
 21
1056.111141159404
 31
0.0
  0
LINE
  5
193
330
17
100
AcDbEntity
  8
4
100
AcDbLine
 10
960.4334421345034
 20
1056.111141159404
 30
0.0
 11
960.4334421345034
 21
1047.514668105256
 31
0.0
  0
LINE
  5
194
330
17
100
AcDbEntity
  8
4
100
AcDbLine
 10
945.7110102701677
 20
1047.514668105256
 30
0.0
 11
945.7110102701677
 21
1053.611141159404
 31
0.0
  0
ARC
  5
195
330
17
100
AcDbEntity
  8
4
100
AcDbCircle
 10
943.2572716261116
 20
1050.394755088463
 30
0.0
 40
3.783613929059507
100
AcDbArc
 50
229.5701031551782
 51
310.4298968448218
  0
LINE
  5
196
330
17
100
AcDbEntity
  8
4
100
AcDbLine
 10
957.9797034904473
 20
1046.611141159404
 30
0.0
 11
943.2572716261116
 21
1046.611141159404
 31
0.0
  0
ARC
  5
197
330
17
100
AcDbEntity
  8
4
100
AcDbCircle
 10
950.6184875582799
 20
1060.390306456863
 30
0.0
 40
13.77916529745958
100
AcDbArc
 50
249.1359356360807
 51
290.8640643639193
  0
LINE
  5
198
330
17
100
AcDbEntity
  8
4
100
AcDbLine
 10
955.5259648463912
 20
1047.514668105256
 30
0.0
 11
955.5259648463912
 21
1053.611141159404
 31
0.0
  0
LINE
  5
199
330
17
100
AcDbEntity
  8
4
100
AcDbLine
 10
940.8035329820564
 20
1056.111141159404
 30
0.0
 11
960.4334421345034
 21
1056.111141159404
 31
0.0
  0
LINE
  5
19A
330
17
100
AcDbEntity
  8
4
100
AcDbLine
 10
940.8035329820564
 20
1053.611141159404
 30
0.0
 11
960.4334421345034
 21
1053.611141159404
 31
0.0
  0
ARC
  5
19B
330
17
100
AcDbEntity
  8
4
100
AcDbCircle
 10
957.9797034904473
 20
1050.394755088463
 30
0.0
 40
3.783613929059507
100
AcDbArc
 50
229.5701031551782
 51
310.4298968448218
  0
LINE
  5
19C
330
17
100
AcDbEntity
  8
L-CENTER
100
AcDbLine
 10
950.6184875582799
 20
1088.083778607099
 30
0.0
 11
950.6184875582799
 21
1043.743162904823
 31
0.0
  0
LINE
  5
19D
330
17
100
AcDbEntity
  8
L-CENTER
100
AcDbLine
 10
1057.420506336263
 20
1088.083778607099
 30
0.0
 11
1057.420506336263
 21
1043.743162904823
 31
0.0
  0
ARC
  5
19E
330
17
100
AcDbEntity
  8
4
100
AcDbCircle
 10
1050.059290404095
 20
1050.394755088463
 30
0.0
 40
3.783613929059507
100
AcDbArc
 50
229.5701031551782
 51
310.4298968448218
  0
LINE
  5
19F
330
17
100
AcDbEntity
  8
4
100
AcDbLine
 10
1067.235460912486
 20
1053.611141159404
 30
0.0
 11
1047.605551760039
 21
1053.611141159404
 31
0.0
  0
LINE
  5
1A0
330
17
100
AcDbEntity
  8
4
100
AcDbLine
 10
1067.235460912486
 20
1056.111141159404
 30
0.0
 11
1047.605551760039
 21
1056.111141159404
 31
0.0
  0
LINE
  5
1A1
330
17
100
AcDbEntity
  8
4
100
AcDbLine
 10
1052.513029048152
 20
1047.514668105256
 30
0.0
 11
1052.513029048152
 21
1053.611141159404
 31
0.0
  0
ARC
  5
1A2
330
17
100
AcDbEntity
  8
4
100
AcDbCircle
 10
1057.420506336263
 20
1060.390306456863
 30
0.0
 40
13.77916529745958
100
AcDbArc
 50
249.1359356360807
 51
290.8640643639193
  0
LINE
  5
1A3
330
17
100
AcDbEntity
  8
4
100
AcDbLine
 10
1050.059290404095
 20
1046.611141159404
 30
0.0
 11
1064.781722268431
 21
1046.611141159404
 31
0.0
  0
ARC
  5
1A4
330
17
100
AcDbEntity
  8
4
100
AcDbCircle
 10
1064.781722268431
 20
1050.394755088463
 30
0.0
 40
3.783613929059507
100
AcDbArc
 50
229.5701031551782
 51
310.4298968448218
  0
LINE
  5
1A5
330
17
100
AcDbEntity
  8
4
100
AcDbLine
 10
1062.327983624375
 20
1047.514668105256
 30
0.0
 11
1062.327983624375
 21
1053.611141159404
 31
0.0
  0
LINE
  5
1A6
330
17
100
AcDbEntity
  8
4
100
AcDbLine
 10
1047.605551760039
 20
1056.111141159404
 30
0.0
 11
1047.605551760039
 21
1047.514668105256
 31
0.0
  0
LINE
  5
1A7
330
17
100
AcDbEntity
  8
4
100
AcDbLine
 10
1067.235460912486
 20
1047.514668105256
 30
0.0
 11
1067.235460912486
 21
1056.111141159404
 31
0.0
  0
CIRCLE
  5
1A8
330
17
100
AcDbEntity
  8
4
100
AcDbCircle
 10
683.651496947271
 20
1213.111141159404
 30
0.0
 40
23.0
  0
LWPOLYLINE
  5
1A9
330
17
100
AcDbEntity
  8
4
100
AcDbPolyline
 90
        6
 70
     1
 43
0.0
 10
706.651496947271
 20
1213.111141159404
 10
695.151496947271
 20
1233.029725446446
 10
672.151496947271
 20
1233.029725446446
 10
660.651496947271
 20
1213.111141159404
 10
672.151496947271
 20
1193.192556872363
 10
695.151496947271
 20
1193.192556872363
  0
LINE
  5
1AA
330
17
100
AcDbEntity
  8
4
100
AcDbLine
 10
884.901496947271
 20
1189.361141159404
 30
0.0
 11
884.901496947271
 21
1236.861141159404
 31
0.0
  0
ARC
  5
1AB
330
17
100
AcDbEntity
  8
4
100
AcDbCircle
 10
878.651496947271
 20
1213.111141159404
 30
0.0
 40
13.5
100
AcDbArc
 50
297.5784679781254
 51
62.42153202187714
  0
LINE
  5
1AC
330
17
100
AcDbEntity
  8
4
100
AcDbLine
 10
872.401496947271
 20
1189.361141159404
 30
0.0
 11
872.401496947271
 21
1236.861141159404
 31
0.0
  0
ARC
  5
1AD
330
17
100
AcDbEntity
  8
4
100
AcDbCircle
 10
878.651496947271
 20
1189.361141159404
 30
0.0
 40
6.25
100
AcDbArc
 50
180.0
 51
0.0
  0
ARC
  5
1AE
330
17
100
AcDbEntity
  8
4
100
AcDbCircle
 10
878.651496947271
 20
1236.861141159404
 30
0.0
 40
6.25
100
AcDbArc
 50
0.0
 51
180.0
  0
ARC
  5
1AF
330
17
100
AcDbEntity
  8
4
100
AcDbCircle
 10
878.651496947271
 20
1213.111141159404
 30
0.0
 40
15.0
100
AcDbArc
 50
294.6243183521658
 51
65.37568164783578
  0
ARC
  5
1B0
330
17
100
AcDbEntity
  8
4
100
AcDbCircle
 10
878.651496947271
 20
1213.111141159404
 30
0.0
 40
13.5
100
AcDbArc
 50
117.5784679781212
 51
242.4215320218788
  0
ARC
  5
1B1
330
17
100
AcDbEntity
  8
4
100
AcDbCircle
 10
878.651496947271
 20
1213.111141159404
 30
0.0
 40
15.0
100
AcDbArc
 50
114.6243183521615
 51
245.3756816478377
  0
LINE
  5
1B2
330
17
100
AcDbEntity
  8
4
100
AcDbLine
 10
1235.247970001418
 20
1124.660855513817
 30
0.0
 11
1226.651496947271
 21
1124.660855513817
 31
0.0
  0
LINE
  5
1B3
330
17
100
AcDbEntity
  8
4
100
AcDbLine
 10
1235.247970001418
 20
1109.938423649482
 30
0.0
 11
1229.151496947271
 21
1109.938423649482
 31
0.0
  0
LINE
  5
1B4
330
17
100
AcDbEntity
  8
4
100
AcDbLine
 10
1235.247970001418
 20
1119.753378225706
 30
0.0
 11
1229.151496947271
 21
1119.753378225706
 31
0.0
  0
LINE
  5
1B5
330
17
100
AcDbEntity
  8
4
100
AcDbLine
 10
1226.651496947271
 20
1105.03094636137
 30
0.0
 11
1235.247970001418
 21
1105.03094636137
 31
0.0
  0
LINE
  5
1B6
330
17
100
AcDbEntity
  8
L-CENTER
100
AcDbLine
 10
1194.678859499575
 20
1114.845900937594
 30
0.0
 11
1239.019475201851
 21
1114.845900937594
 31
0.0
  0
LINE
  5
1B7
330
17
100
AcDbEntity
  8
4
100
AcDbLine
 10
1229.151496947271
 20
1124.660855513817
 30
0.0
 11
1229.151496947271
 21
1105.03094636137
 31
0.0
  0
ARC
  5
1B8
330
17
100
AcDbEntity
  8
4
100
AcDbCircle
 10
1232.367883018212
 20
1122.207116869762
 30
0.0
 40
3.783613929059507
100
AcDbArc
 50
319.5701031551782
 51
40.42989684482174
  0
ARC
  5
1B9
330
17
100
AcDbEntity
  8
4
100
AcDbCircle
 10
1232.367883018212
 20
1107.484685005426
 30
0.0
 40
3.783613929059507
100
AcDbArc
 50
319.5701031551782
 51
40.42989684482174
  0
ARC
  5
1BA
330
17
100
AcDbEntity
  8
4
100
AcDbCircle
 10
1222.372331649812
 20
1114.845900937594
 30
0.0
 40
13.77916529745958
100
AcDbArc
 50
339.1359356360808
 51
20.86406436391924
  0
LINE
  5
1BB
330
17
100
AcDbEntity
  8
4
100
AcDbLine
 10
1236.151496947271
 20
1107.484685005426
 30
0.0
 11
1236.151496947271
 21
1122.207116869762
 31
0.0
  0
LINE
  5
1BC
330
17
100
AcDbEntity
  8
L-CENTER
100
AcDbLine
 10
1194.678859499575
 20
1217.376381381215
 30
0.0
 11
1239.019475201851
 21
1217.376381381215
 31
0.0
  0
LINE
  5
1BD
330
17
100
AcDbEntity
  8
4
100
AcDbLine
 10
1226.651496947271
 20
1227.191335957439
 30
0.0
 11
1235.247970001418
 21
1227.191335957439
 31
0.0
  0
LINE
  5
1BE
330
17
100
AcDbEntity
  8
4
100
AcDbLine
 10
1235.247970001418
 20
1212.468904093103
 30
0.0
 11
1229.151496947271
 21
1212.468904093103
 31
0.0
  0
LINE
  5
1BF
330
17
100
AcDbEntity
  8
4
100
AcDbLine
 10
1235.247970001418
 20
1222.283858669327
 30
0.0
 11
1229.151496947271
 21
1222.283858669327
 31
0.0
  0
LINE
  5
1C0
330
17
100
AcDbEntity
  8
4
100
AcDbLine
 10
1236.151496947271
 20
1224.737597313383
 30
0.0
 11
1236.151496947271
 21
1210.015165449047
 31
0.0
  0
ARC
  5
1C1
330
17
100
AcDbEntity
  8
4
100
AcDbCircle
 10
1222.372331649812
 20
1217.376381381215
 30
0.0
 40
13.77916529745958
100
AcDbArc
 50
339.1359356360808
 51
20.86406436391924
  0
ARC
  5
1C2
330
17
100
AcDbEntity
  8
4
100
AcDbCircle
 10
1232.367883018212
 20
1224.737597313383
 30
0.0
 40
3.783613929059507
100
AcDbArc
 50
319.5701031551782
 51
40.42989684482174
  0
LINE
  5
1C3
330
17
100
AcDbEntity
  8
4
100
AcDbLine
 10
1235.247970001418
 20
1207.561426804992
 30
0.0
 11
1226.651496947271
 21
1207.561426804992
 31
0.0
  0
LINE
  5
1C4
330
17
100
AcDbEntity
  8
4
100
AcDbLine
 10
1229.151496947271
 20
1207.561426804992
 30
0.0
 11
1229.151496947271
 21
1227.191335957439
 31
0.0
  0
LINE
  5
1C5
330
17
100
AcDbEntity
  8
L-CENTER
100
AcDbLine
 10
562.6241343949669
 20
1114.845900937594
 30
0.0
 11
518.2835186926904
 21
1114.845900937594
 31
0.0
  0
LINE
  5
1C6
330
17
100
AcDbEntity
  8
4
100
AcDbLine
 10
521.151496947271
 20
1107.484685005426
 30
0.0
 11
521.151496947271
 21
1122.207116869762
 31
0.0
  0
ARC
  5
1C7
330
17
100
AcDbEntity
  8
4
100
AcDbCircle
 10
534.9306622447302
 20
1114.845900937594
 30
0.0
 40
13.77916529745958
100
AcDbArc
 50
159.1359356360806
 51
200.8640643639194
  0
ARC
  5
1C8
330
17
100
AcDbEntity
  8
4
100
AcDbCircle
 10
524.9351108763303
 20
1107.484685005426
 30
0.0
 40
3.783613929059507
100
AcDbArc
 50
139.5701031551783
 51
220.4298968448217
  0
ARC
  5
1C9
330
17
100
AcDbEntity
  8
4
100
AcDbCircle
 10
524.9351108763303
 20
1122.207116869762
 30
0.0
 40
3.783613929059507
100
AcDbArc
 50
139.5701031551783
 51
220.4298968448217
  0
LINE
  5
1CA
330
17
100
AcDbEntity
  8
4
100
AcDbLine
 10
528.151496947271
 20
1124.660855513817
 30
0.0
 11
528.151496947271
 21
1105.03094636137
 31
0.0
  0
LINE
  5
1CB
330
17
100
AcDbEntity
  8
4
100
AcDbLine
 10
530.651496947271
 20
1105.03094636137
 30
0.0
 11
522.0550238931237
 21
1105.03094636137
 31
0.0
  0
LINE
  5
1CC
330
17
100
AcDbEntity
  8
4
100
AcDbLine
 10
522.0550238931237
 20
1119.753378225706
 30
0.0
 11
528.151496947271
 21
1119.753378225706
 31
0.0
  0
LINE
  5
1CD
330
17
100
AcDbEntity
  8
4
100
AcDbLine
 10
522.0550238931237
 20
1109.938423649482
 30
0.0
 11
528.151496947271
 21
1109.938423649482
 31
0.0
  0
LINE
  5
1CE
330
17
100
AcDbEntity
  8
4
100
AcDbLine
 10
522.0550238931237
 20
1124.660855513817
 30
0.0
 11
530.651496947271
 21
1124.660855513817
 31
0.0
  0
LINE
  5
1CF
330
17
100
AcDbEntity
  8
L-CENTER
100
AcDbLine
 10
562.6241343949669
 20
1217.376381381215
 30
0.0
 11
518.2835186926904
 21
1217.376381381215
 31
0.0
  0
ARC
  5
1D0
330
17
100
AcDbEntity
  8
4
100
AcDbCircle
 10
524.9351108763303
 20
1224.737597313383
 30
0.0
 40
3.783613929059507
100
AcDbArc
 50
139.5701031551783
 51
220.4298968448217
  0
ARC
  5
1D1
330
17
100
AcDbEntity
  8
4
100
AcDbCircle
 10
534.9306622447302
 20
1217.376381381215
 30
0.0
 40
13.77916529745958
100
AcDbArc
 50
159.1359356360806
 51
200.8640643639194
  0
LINE
  5
1D2
330
17
100
AcDbEntity
  8
4
100
AcDbLine
 10
521.151496947271
 20
1224.737597313383
 30
0.0
 11
521.151496947271
 21
1210.015165449047
 31
0.0
  0
ARC
  5
1D3
330
17
100
AcDbEntity
  8
4
100
AcDbCircle
 10
524.9351108763303
 20
1210.015165449047
 30
0.0
 40
3.783613929059507
100
AcDbArc
 50
139.5701031551783
 51
220.4298968448217
  0
LINE
  5
1D4
330
17
100
AcDbEntity
  8
4
100
AcDbLine
 10
528.151496947271
 20
1207.561426804992
 30
0.0
 11
528.151496947271
 21
1227.191335957439
 31
0.0
  0
LINE
  5
1D5
330
17
100
AcDbEntity
  8
4
100
AcDbLine
 10
530.651496947271
 20
1207.561426804992
 30
0.0
 11
530.651496947271
 21
1227.191335957439
 31
0.0
  0
LINE
  5
1D6
330
17
100
AcDbEntity
  8
4
100
AcDbLine
 10
522.0550238931237
 20
1222.283858669327
 30
0.0
 11
528.151496947271
 21
1222.283858669327
 31
0.0
  0
LINE
  5
1D7
330
17
100
AcDbEntity
  8
4
100
AcDbLine
 10
522.0550238931237
 20
1212.468904093103
 30
0.0
 11
528.151496947271
 21
1212.468904093103
 31
0.0
  0
LINE
  5
1D8
330
17
100
AcDbEntity
  8
4
100
AcDbLine
 10
530.651496947271
 20
1227.191335957439
 30
0.0
 11
522.0550238931237
 21
1227.191335957439
 31
0.0
  0
LINE
  5
1D9
330
17
100
AcDbEntity
  8
4
100
AcDbLine
 10
522.0550238931237
 20
1207.561426804992
 30
0.0
 11
530.651496947271
 21
1207.561426804992
 31
0.0
  0
LINE
  5
4D8
330
17
100
AcDbEntity
  8
L-CENTER
100
AcDbLine
 10
878.3673949472714
 20
63.84102582183766
 30
0.0
 11
878.3673949472714
 21
795.4647471746307
 31
0.0
  0
LINE
  5
4D9
330
17
100
AcDbEntity
  8
4
100
AcDbLine
 10
547.3673989472713
 20
399.0294598218377
 30
0.0
 11
547.3673989472713
 21
66.02945982183769
 31
0.0
  0
LINE
  5
4DA
330
17
100
AcDbEntity
  8
4
100
AcDbLine
 10
1209.367390947271
 20
399.0294598218377
 30
0.0
 11
1209.367390947271
 21
66.02945982183769
 31
0.0
  0
CIRCLE
  5
4DB
330
17
100
AcDbEntity
  8
4
100
AcDbCircle
 10
878.3673949472714
 20
399.0294598218377
 30
0.0
 40
315.0
  0
LINE
  5
4DC
330
17
100
AcDbEntity
  8
L-CENTER
100
AcDbLine
 10
623.3673949472714
 20
46.02945982183769
 30
0.0
 11
623.3673949472714
 21
126.0294618218377
 31
0.0
  0
LINE
  5
4DD
330
17
100
AcDbEntity
  8
4
100
AcDbLine
 10
717.3673969472711
 20
103.0294618218377
 30
0.0
 11
717.3673969472711
 21
66.02945982183769
 31
0.0
  0
LINE
  5
4DE
330
17
100
AcDbEntity
  8
4
100
AcDbLine
 10
697.3673929472716
 20
103.0294618218377
 30
0.0
 11
697.3673929472716
 21
66.02945982183769
 31
0.0
  0
LINE
  5
4DF
330
17
100
AcDbEntity
  8
L-CENTER
100
AcDbLine
 10
1133.367394947271
 20
46.02945982183769
 30
0.0
 11
1133.367394947271
 21
126.0294618218377
 31
0.0
  0
LINE
  5
4E0
330
17
100
AcDbEntity
  8
4
100
AcDbLine
 10
1059.367396947271
 20
103.0294618218377
 30
0.0
 11
1059.367396947271
 21
66.02945982183769
 31
0.0
  0
LINE
  5
4E1
330
17
100
AcDbEntity
  8
4
100
AcDbLine
 10
1039.367392947271
 20
103.0294618218377
 30
0.0
 11
1039.367392947271
 21
66.02945982183769
 31
0.0
  0
LINE
  5
4E5
330
17
100
AcDbEntity
  8
4
100
AcDbLine
 10
717.3673969472711
 20
66.02945982183769
 30
0.0
 11
547.3673989472713
 21
66.02945982183769
 31
0.0
  0
LINE
  5
4F8
330
17
100
AcDbEntity
  8
L-CENTER
100
AcDbLine
 10
306.8832485945293
 20
171.3824878218378
 30
0.0
 11
306.8832485945293
 21
240.6764278218378
 31
0.0
  0
ARC
  5
4F9
330
17
100
AcDbEntity
  8
4
100
AcDbCircle
 10
306.8832485945293
 20
206.0294578218378
 30
0.0
 40
23.00001
100
AcDbArc
 50
105.1216579999996
 51
74.87834199999975
  0
LINE
  5
4FA
330
17
100
AcDbEntity
  8
L-CENTER
100
AcDbLine
 10
341.5302185945295
 20
206.0294578218378
 30
0.0
 11
272.2362785945295
 21
206.0294578218378
 31
0.0
  0
LINE
  5
4FB
330
17
100
AcDbEntity
  8
4
100
AcDbLine
 10
312.8832425945295
 20
224.5294558218378
 30
0.0
 11
300.8832485945293
 21
224.5294558218378
 31
0.0
  0
LINE
  5
4FC
330
17
100
AcDbEntity
  8
4
100
AcDbLine
 10
312.8832425945295
 20
232.5294598218378
 30
0.0
 11
300.8832485945293
 21
232.5294598218378
 31
0.0
  0
LINE
  5
500
330
17
100
AcDbEntity
  8
4
100
AcDbLine
 10
300.8832485945293
 20
232.5294598218378
 30
0.0
 11
300.8832485945293
 21
224.5294558218378
 31
0.0
  0
LINE
  5
502
330
17
100
AcDbEntity
  8
4
100
AcDbLine
 10
312.8832425945295
 20
224.5294558218378
 30
0.0
 11
312.8832425945295
 21
232.5294598218378
 31
0.0
  0
LINE
  5
511
330
17
100
AcDbEntity
  8
4
100
AcDbLine
 10
1039.367392947271
 20
66.02945982183769
 30
0.0
 11
1209.367390947271
 21
66.02945982183769
 31
0.0
  0
LINE
  5
51A
330
17
100
AcDbEntity
  8
L-CENTER
100
AcDbLine
 10
2197.094793026494
 20
328.0978498218376
 30
0.0
 11
2197.094793026494
 21
449.9610658218378
 31
0.0
  0
LINE
  5
51B
330
17
100
AcDbEntity
  8
4
100
AcDbLine
 10
2185.094793026494
 20
426.0294598218377
 30
0.0
 11
2185.094793026494
 21
442.0294558218377
 31
0.0
  0
LINE
  5
51C
330
17
100
AcDbEntity
  8
4
100
AcDbLine
 10
2209.094793026494
 20
442.0294558218377
 30
0.0
 11
2209.094793026494
 21
426.0294598218377
 31
0.0
  0
ARC
  5
520
330
17
100
AcDbEntity
  8
4
100
AcDbCircle
 10
2197.094793026494
 20
389.0294578218377
 30
0.0
 40
45.000102
100
AcDbArc
 50
105.4659730000001
 51
74.53402700000046
  0
LINE
  5
521
330
17
100
AcDbEntity
  8
L-CENTER
100
AcDbLine
 10
2258.026401026495
 20
389.0294578218377
 30
0.0
 11
2136.163185026494
 21
389.0294578218377
 31
0.0
  0
LINE
  5
526
330
17
100
AcDbEntity
  8
4
100
AcDbLine
 10
2209.094793026494
 20
426.0294598218377
 30
0.0
 11
2185.094793026494
 21
426.0294598218377
 31
0.0
  0
LINE
  5
52F
330
17
100
AcDbEntity
  8
4
100
AcDbLine
 10
2209.094793026494
 20
442.0294558218377
 30
0.0
 11
2185.094793026494
 21
442.0294558218377
 31
0.0
  0
LINE
  5
533
330
17
100
AcDbEntity
  8
4
100
AcDbLine
 10
723.3673969472711
 20
78.02945982183769
 30
0.0
 11
1033.367392947271
 21
78.02945982183769
 31
0.0
  0
ARC
  5
537
330
17
100
AcDbEntity
  8
4
100
AcDbCircle
 10
723.3673969472711
 20
72.02945982183769
 30
0.0
 40
6.0
100
AcDbArc
 50
90.0
 51
180.0
  0
ARC
  5
539
330
17
100
AcDbEntity
  8
4
100
AcDbCircle
 10
1033.367392947271
 20
72.02945982183769
 30
0.0
 40
6.0
100
AcDbArc
 50
0.0
 51
90.0
  0
LINE
  5
541
330
17
100
AcDbEntity
  8
L-CENTER
100
AcDbLine
 10
1235.288939006947
 20
206.0294578218377
 30
0.0
 11
406.8554349305614
 21
206.0294578218378
 31
0.0
  0
ARC
  5
542
330
17
100
AcDbEntity
  8
4
100
AcDbCircle
 10
878.3673949472714
 20
399.0294598218377
 30
0.0
 40
285.000018
100
AcDbArc
 50
273.988196
 51
266.012937
  0
LINE
  5
543
330
17
100
AcDbEntity
  8
4
100
AcDbLine
 10
550.3673989472713
 20
106.0294618218377
 30
0.0
 11
714.3673969472711
 21
106.0294618218377
 31
0.0
  0
LINE
  5
544
330
17
100
AcDbEntity
  8
4
100
AcDbLine
 10
569.3673949472714
 20
131.0294578218377
 30
0.0
 11
712.8349249472712
 21
131.0294578218377
 31
0.0
  0
LINE
  5
545
330
17
100
AcDbEntity
  8
4
100
AcDbLine
 10
569.3673949472714
 20
134.0294578218377
 30
0.0
 11
708.0734509472713
 21
134.0294578218377
 31
0.0
  0
LINE
  5
546
330
17
100
AcDbEntity
  8
L-CENTER
100
AcDbLine
 10
534.4696879839485
 20
399.0294598218377
 30
0.0
 11
1222.265101910594
 21
399.0294598218377
 31
0.0
  0
ARC
  5
547
330
17
100
AcDbEntity
  8
4
100
AcDbCircle
 10
878.3673949472714
 20
-448.9705381781623
 30
0.0
 40
1000.000008
100
AcDbArc
 50
74.95685300000001
 51
105.043554
  0
ARC
  5
548
330
17
100
AcDbEntity
  8
4
100
AcDbCircle
 10
878.3673949472714
 20
-779.9705401781623
 30
0.0
 40
1499.99997
100
AcDbArc
 50
78.53761300000001
 51
101.462408
  0
LINE
  5
549
330
17
100
AcDbEntity
  8
L-CENTER
100
AcDbLine
 10
917.9411269472714
 20
389.0294578218377
 30
0.0
 11
646.0978669472713
 21
389.0294578218377
 31
0.0
  0
ARC
  5
54A
330
17
100
AcDbEntity
  8
4
100
AcDbCircle
 10
878.3673949472714
 20
1227.029453821838
 30
0.0
 40
999.9999360000002
100
AcDbArc
 50
255.654203
 51
268.888258
  0
LINE
  5
54B
330
17
100
AcDbEntity
  8
4
100
AcDbLine
 10
660.3673969472711
 20
713.8649038218377
 30
0.0
 11
706.3673929472716
 21
713.8649038218377
 31
0.0
  0
LINE
  5
54C
330
17
100
AcDbEntity
  8
4
100
AcDbLine
 10
660.3673969472711
 20
717.8649058218377
 30
0.0
 11
706.3673929472716
 21
717.8649058218377
 31
0.0
  0
LINE
  5
54D
330
17
100
AcDbEntity
  8
4
100
AcDbLine
 10
660.3673969472711
 20
722.8649038218377
 30
0.0
 11
706.3673929472716
 21
722.8649038218377
 31
0.0
  0
LINE
  5
54E
330
17
100
AcDbEntity
  8
4
100
AcDbLine
 10
708.3673969472711
 20
712.3649038218377
 30
0.0
 11
658.3673929472716
 21
712.3649038218377
 31
0.0
  0
ARC
  5
550
330
17
100
AcDbEntity
  8
4
100
AcDbCircle
 10
2047.367392947271
 20
399.0292138218376
 30
0.0
 40
1500.000018
100
AcDbArc
 50
169.026148
 51
180.0004010010402
  0
LINE
  5
551
330
17
100
AcDbEntity
  8
4
100
AcDbLine
 10
542.3673949472714
 20
134.0294578218377
 30
0.0
 11
542.3673949472714
 21
278.0294578218377
 31
0.0
  0
LINE
  5
552
330
17
100
AcDbEntity
  8
4
100
AcDbLine
 10
530.3673949472714
 20
277.0294558218377
 30
0.0
 11
530.3673949472714
 21
135.0294598218377
 31
0.0
  0
ARC
  5
553
330
17
100
AcDbEntity
  8
4
100
AcDbCircle
 10
550.3673989472713
 20
103.0294618218377
 30
0.0
 40
3.0
100
AcDbArc
 50
90.0
 51
180.0
  0
ARC
  5
554
330
17
100
AcDbEntity
  8
4
100
AcDbCircle
 10
544.3673989472713
 20
131.0294578218377
 30
0.0
 40
3.0
100
AcDbArc
 50
0.0
 51
90.0
  0
LINE
  5
555
330
17
100
AcDbEntity
  8
4
100
AcDbLine
 10
542.3673949472714
 20
134.0294578218377
 30
0.0
 11
544.3673989472713
 21
134.0294578218377
 31
0.0
  0
ARC
  5
556
330
17
100
AcDbEntity
  8
4
100
AcDbCircle
 10
531.3673969472711
 20
135.0294598218377
 30
0.0
 40
1.000002
100
AcDbArc
 50
180.0
 51
270.0
  0
LINE
  5
557
330
17
100
AcDbEntity
  8
4
100
AcDbLine
 10
531.3673969472711
 20
134.0294578218377
 30
0.0
 11
542.3673949472714
 21
134.0294578218377
 31
0.0
  0
LINE
  5
558
330
17
100
AcDbEntity
  8
4
100
AcDbLine
 10
569.3673949472714
 20
114.0294598218377
 30
0.0
 11
569.3673949472714
 21
206.0294578218377
 31
0.0
  0
ARC
  5
559
330
17
100
AcDbEntity
  8
4
100
AcDbCircle
 10
577.3673929472716
 20
114.0294598218377
 30
0.0
 40
7.999998000000001
100
AcDbArc
 50
180.0
 51
270.0
  0
ARC
  5
55A
330
17
100
AcDbEntity
  8
4
100
AcDbCircle
 10
573.3673969472711
 20
206.0294578218377
 30
0.0
 40
4.000002
100
AcDbArc
 50
90.0
 51
180.0
  0
LINE
  5
55B
330
17
100
AcDbEntity
  8
4
100
AcDbLine
 10
577.5402469472715
 20
281.0294578218377
 30
0.0
 11
547.3673989472713
 21
281.0294578218377
 31
0.0
  0
LINE
  5
55C
330
17
100
AcDbEntity
  8
4
100
AcDbLine
 10
578.6742829472714
 20
278.0294578218377
 30
0.0
 11
547.3673989472713
 21
278.0294578218377
 31
0.0
  0
ARC
  5
55D
330
17
100
AcDbEntity
  8
4
100
AcDbCircle
 10
544.3673989472713
 20
281.0294578218377
 30
0.0
 40
3.0
100
AcDbArc
 50
270.0
 51
0.0
  0
LINE
  5
55E
330
17
100
AcDbEntity
  8
4
100
AcDbLine
 10
542.3673949472714
 20
278.0294578218377
 30
0.0
 11
544.3673989472713
 21
278.0294578218377
 31
0.0
  0
ARC
  5
55F
330
17
100
AcDbEntity
  8
4
100
AcDbCircle
 10
531.3673969472711
 20
277.0294558218377
 30
0.0
 40
1.000002
100
AcDbArc
 50
90.0
 51
180.0
  0
LINE
  5
560
330
17
100
AcDbEntity
  8
4
100
AcDbLine
 10
531.3673969472711
 20
278.0294578218377
 30
0.0
 11
542.3673949472714
 21
278.0294578218377
 31
0.0
  0
ARC
  5
561
330
17
100
AcDbEntity
  8
4
100
AcDbCircle
 10
578.6742829472714
 20
284.0294578218377
 30
0.0
 40
6.000005999999999
100
AcDbArc
 50
270.0
 51
20.99181699999981
  0
ARC
  5
562
330
17
100
AcDbEntity
  8
4
100
AcDbCircle
 10
577.5402469472715
 20
287.0294578218377
 30
0.0
 40
5.999946
100
AcDbArc
 50
270.0
 51
20.4215229999994
  0
ARC
  5
563
330
17
100
AcDbEntity
  8
4
100
AcDbCircle
 10
581.6708629472714
 20
683.2518658218378
 30
0.0
 40
7.000044
100
AcDbArc
 50
101.46278
 51
169.0243550000008
  0
LINE
  5
564
330
17
100
AcDbEntity
  8
4
100
AcDbLine
 10
660.3673969472711
 20
713.8649038218377
 30
0.0
 11
660.3673969472711
 21
722.8649038218377
 31
0.0
  0
LINE
  5
565
330
17
100
AcDbEntity
  8
4
100
AcDbLine
 10
658.3673929472716
 20
703.8085078218378
 30
0.0
 11
658.3673929472716
 21
712.3649038218377
 31
0.0
  0
ARC
  5
569
330
17
100
AcDbEntity
  8
4
100
AcDbCircle
 10
-290.6326030527284
 20
399.0292138218376
 30
0.0
 40
1499.999976
100
AcDbArc
 50
0.0000089950635202
 51
10.97442300000002
  0
LINE
  5
56D
330
17
100
AcDbEntity
  8
4
100
AcDbLine
 10
1187.367394947271
 20
134.0294578218377
 30
0.0
 11
1048.661338947271
 21
134.0294578218377
 31
0.0
  0
LINE
  5
56E
330
17
100
AcDbEntity
  8
4
100
AcDbLine
 10
1187.367394947271
 20
131.0294578218377
 30
0.0
 11
1043.899864947271
 21
131.0294578218377
 31
0.0
  0
LINE
  5
56F
330
17
100
AcDbEntity
  8
4
100
AcDbLine
 10
1206.367390947271
 20
106.0294618218377
 30
0.0
 11
1042.367392947271
 21
106.0294618218377
 31
0.0
  0
LINE
  5
570
330
17
100
AcDbEntity
  8
L-CENTER
100
AcDbLine
 10
1115.402062947271
 20
406.0294558218377
 30
0.0
 11
891.3327229472713
 21
406.0294558218377
 31
0.0
  0
ARC
  5
571
330
17
100
AcDbEntity
  8
4
100
AcDbCircle
 10
878.3673949472714
 20
1227.029453821838
 30
0.0
 40
1000.000038
100
AcDbArc
 50
271.112777
 51
284.346835
  0
CIRCLE
  5
572
330
17
100
AcDbEntity
  8
4
100
AcDbCircle
 10
1003.367392947271
 20
406.0294558218377
 30
0.0
 40
90.0
  0
CIRCLE
  5
573
330
17
100
AcDbEntity
  8
L-CENTER
100
AcDbCircle
 10
1003.367392947271
 20
406.0294558218377
 30
0.0
 40
75.0
  0
CIRCLE
  5
574
330
17
100
AcDbEntity
  8
4
100
AcDbCircle
 10
1003.367392947271
 20
406.0294558218377
 30
0.0
 40
52.5
  0
LINE
  5
575
330
17
100
AcDbEntity
  8
L-CENTER
100
AcDbLine
 10
782.0194969472714
 20
524.9510878218377
 30
0.0
 11
782.0194969472714
 21
253.1078278218376
 31
0.0
  0
CIRCLE
  5
576
330
17
100
AcDbEntity
  8
L-CENTER
100
AcDbCircle
 10
782.0194969472714
 20
389.0294578218377
 30
0.0
 40
100.000002
  0
CIRCLE
  5
577
330
17
100
AcDbEntity
  8
4
100
AcDbCircle
 10
782.0194969472714
 20
389.0294578218377
 30
0.0
 40
115.000002
  0
CIRCLE
  5
578
330
17
100
AcDbEntity
  8
4
100
AcDbCircle
 10
782.0194969472714
 20
389.0294578218377
 30
0.0
 40
75.0
  0
LINE
  5
579
330
17
100
AcDbEntity
  8
L-CENTER
100
AcDbLine
 10
1003.367392947271
 20
518.0641258218377
 30
0.0
 11
1003.367392947271
 21
293.9947858218377
 31
0.0
  0
LINE
  5
57A
330
17
100
AcDbEntity
  8
L-CENTER
100
AcDbLine
 10
854.7388249472715
 20
112.0294618218377
 30
0.0
 11
901.9959649472712
 21
112.0294618218377
 31
0.0
  0
ARC
  5
57B
330
17
100
AcDbEntity
  8
4
100
AcDbCircle
 10
878.3673949472714
 20
112.0294618218377
 30
0.0
 40
20.000064
100
AcDbArc
 50
7.729509999999903
 51
172.2711849999999
  0
CIRCLE
  5
57C
330
17
100
AcDbEntity
  8
2
100
AcDbCircle
 10
878.3673949472714
 20
112.0294618218377
 30
0.0
 40
8.331054
  0
LINE
  5
57D
330
17
100
AcDbEntity
  8
2
100
AcDbLine
 10
872.1525229472713
 20
108.4412278218377
 30
0.0
 11
878.3673949472714
 21
104.8531018218376
 31
0.0
  0
LINE
  5
57E
330
17
100
AcDbEntity
  8
2
100
AcDbLine
 10
878.3673949472714
 20
119.2058158218376
 30
0.0
 11
872.1525229472713
 21
115.6176898218378
 31
0.0
  0
LINE
  5
57F
330
17
100
AcDbEntity
  8
L-CENTER
100
AcDbLine
 10
908.8701216739015
 20
232.0294558218377
 30
0.0
 11
847.8646682206412
 21
232.0294558218377
 31
0.0
  0
CIRCLE
  5
580
330
17
100
AcDbEntity
  8
4
100
AcDbCircle
 10
878.3673949472714
 20
232.0294558218377
 30
0.0
 40
18.0
  0
LINE
  5
581
330
17
100
AcDbEntity
  8
4
100
AcDbLine
 10
878.3673949472714
 20
250.0294558218377
 30
0.0
 11
862.7787709472714
 21
241.0294558218377
 31
0.0
  0
LINE
  5
582
330
17
100
AcDbEntity
  8
4
100
AcDbLine
 10
862.7787709472714
 20
223.0294558218377
 30
0.0
 11
878.3673949472714
 21
214.0294558218377
 31
0.0
  0
CIRCLE
  5
583
330
17
100
AcDbEntity
  8
4
100
AcDbCircle
 10
878.3673949472714
 20
232.0294558218377
 30
0.0
 40
19.999998
  0
ARC
  5
584
330
17
100
AcDbEntity
  8
4
100
AcDbCircle
 10
694.3673929472716
 20
103.0294618218377
 30
0.0
 40
3.0
100
AcDbArc
 50
0.0
 51
90.0
  0
ARC
  5
585
330
17
100
AcDbEntity
  8
4
100
AcDbCircle
 10
714.3673969472711
 20
103.0294618218377
 30
0.0
 40
3.0
100
AcDbArc
 50
0.0
 51
90.0
  0
LINE
  5
586
330
17
100
AcDbEntity
  8
2
100
AcDbLine
 10
872.1525229472713
 20
115.6176898218378
 30
0.0
 11
872.1525229472713
 21
108.4412278218377
 31
0.0
  0
LINE
  5
587
330
17
100
AcDbEntity
  8
4
100
AcDbLine
 10
862.7787709472714
 20
223.0294558218377
 30
0.0
 11
862.7787709472714
 21
241.0294558218377
 31
0.0
  0
LINE
  5
588
330
17
100
AcDbEntity
  8
L-CENTER
100
AcDbLine
 10
696.7981615005787
 20
303.8083675469887
 30
0.0
 11
725.8194381439383
 21
332.8296503467117
 31
0.0
  0
CIRCLE
  5
589
330
17
100
AcDbEntity
  8
4
100
AcDbCircle
 10
711.3088009472713
 20
318.3190078218377
 30
0.0
 40
8.660154
  0
LINE
  5
58A
330
17
100
AcDbEntity
  8
4
100
AcDbLine
 10
720.9679789472711
 20
315.7311178218376
 30
0.0
 11
713.8971829472712
 21
308.6598298218377
 31
0.0
  0
LINE
  5
58B
330
17
100
AcDbEntity
  8
4
100
AcDbLine
 10
704.2379989472715
 20
311.2477198218377
 30
0.0
 11
701.6496229472714
 21
320.9068978218377
 31
0.0
  0
LINE
  5
58C
330
17
100
AcDbEntity
  8
4
100
AcDbLine
 10
713.8971829472712
 20
308.6598298218377
 30
0.0
 11
704.2379989472715
 21
311.2477198218377
 31
0.0
  0
LINE
  5
58D
330
17
100
AcDbEntity
  8
4
100
AcDbLine
 10
708.7204249472716
 20
327.9781918218378
 30
0.0
 11
718.3798489472715
 21
325.3902958218378
 31
0.0
  0
LINE
  5
58E
330
17
100
AcDbEntity
  8
4
100
AcDbLine
 10
701.6496229472714
 20
320.9068978218377
 30
0.0
 11
708.7204249472716
 21
327.9781918218378
 31
0.0
  0
LINE
  5
58F
330
17
100
AcDbEntity
  8
4
100
AcDbLine
 10
718.3798489472715
 20
325.3902958218378
 30
0.0
 11
720.9679789472711
 21
315.7311178218376
 31
0.0
  0
LINE
  5
590
330
17
100
AcDbEntity
  8
L-CENTER
100
AcDbLine
 10
867.2409393408034
 20
303.8082614283055
 30
0.0
 11
838.2196596192618
 21
332.8295411498473
 31
0.0
  0
CIRCLE
  5
591
330
17
100
AcDbEntity
  8
4
100
AcDbCircle
 10
852.7301869472712
 20
318.3190078218377
 30
0.0
 40
8.660154
  0
LINE
  5
592
330
17
100
AcDbEntity
  8
4
100
AcDbLine
 10
862.3893649472714
 20
320.9068978218377
 30
0.0
 11
859.8009889472714
 21
311.2477198218377
 31
0.0
  0
LINE
  5
593
330
17
100
AcDbEntity
  8
4
100
AcDbLine
 10
850.1418109472713
 20
308.6598298218377
 30
0.0
 11
843.0710089472714
 21
315.7311178218376
 31
0.0
  0
LINE
  5
594
330
17
100
AcDbEntity
  8
4
100
AcDbLine
 10
859.8009889472714
 20
311.2477198218377
 30
0.0
 11
850.1418109472713
 21
308.6598298218377
 31
0.0
  0
LINE
  5
595
330
17
100
AcDbEntity
  8
4
100
AcDbLine
 10
845.6591449472712
 20
325.3902958218378
 30
0.0
 11
855.3185689472714
 21
327.9781918218378
 31
0.0
  0
LINE
  5
596
330
17
100
AcDbEntity
  8
4
100
AcDbLine
 10
843.0710089472714
 20
315.7311178218376
 30
0.0
 11
845.6591449472712
 21
325.3902958218378
 31
0.0
  0
LINE
  5
597
330
17
100
AcDbEntity
  8
4
100
AcDbLine
 10
855.3185689472714
 20
327.9781918218378
 30
0.0
 11
862.3893649472714
 21
320.9068978218377
 31
0.0
  0
LINE
  5
598
330
17
100
AcDbEntity
  8
4
100
AcDbLine
 10
893.9557729472713
 20
241.0294558218377
 30
0.0
 11
878.3673949472714
 21
250.0294558218377
 31
0.0
  0
LINE
  5
599
330
17
100
AcDbEntity
  8
2
100
AcDbLine
 10
884.5822669472714
 20
108.4412278218377
 30
0.0
 11
878.3673949472714
 21
104.8531018218376
 31
0.0
  0
LINE
  5
59A
330
17
100
AcDbEntity
  8
2
100
AcDbLine
 10
884.5822669472714
 20
115.6176898218378
 30
0.0
 11
884.5822669472714
 21
108.4412278218377
 31
0.0
  0
LINE
  5
59B
330
17
100
AcDbEntity
  8
2
100
AcDbLine
 10
878.3673949472714
 20
119.2058158218376
 30
0.0
 11
884.5822669472714
 21
115.6176898218378
 31
0.0
  0
LINE
  5
59C
330
17
100
AcDbEntity
  8
4
100
AcDbLine
 10
878.3673949472714
 20
214.0294558218377
 30
0.0
 11
893.9557729472713
 21
223.0294558218377
 31
0.0
  0
LINE
  5
59D
330
17
100
AcDbEntity
  8
4
100
AcDbLine
 10
893.9557729472713
 20
223.0294558218377
 30
0.0
 11
893.9557729472713
 21
241.0294558218377
 31
0.0
  0
ARC
  5
59E
330
17
100
AcDbEntity
  8
4
100
AcDbCircle
 10
1062.367396947271
 20
103.0294618218377
 30
0.0
 40
3.0
100
AcDbArc
 50
90.0
 51
180.0
  0
ARC
  5
59F
330
17
100
AcDbEntity
  8
4
100
AcDbCircle
 10
1042.367392947271
 20
103.0294618218377
 30
0.0
 40
3.0
100
AcDbArc
 50
90.0
 51
180.0
  0
LINE
  5
5A0
330
17
100
AcDbEntity
  8
L-CENTER
100
AcDbLine
 10
935.8237970865005
 20
338.4858599610668
 30
0.0
 11
964.845076808042
 21
367.5071396826086
 31
0.0
  0
CIRCLE
  5
5A1
330
17
100
AcDbEntity
  8
4
100
AcDbCircle
 10
950.3344369472713
 20
352.9964998218377
 30
0.0
 40
8.660154
  0
LINE
  5
5A2
330
17
100
AcDbEntity
  8
4
100
AcDbLine
 10
959.9936149472712
 20
350.4086098218377
 30
0.0
 11
952.9228129472713
 21
343.3373218218378
 31
0.0
  0
LINE
  5
5A3
330
17
100
AcDbEntity
  8
4
100
AcDbLine
 10
943.2636349472714
 20
345.9252118218376
 30
0.0
 11
940.6752529472715
 21
355.5843898218377
 31
0.0
  0
LINE
  5
5A4
330
17
100
AcDbEntity
  8
4
100
AcDbLine
 10
952.9228129472713
 20
343.3373218218378
 30
0.0
 11
943.2636349472714
 21
345.9252118218376
 31
0.0
  0
LINE
  5
5A5
330
17
100
AcDbEntity
  8
4
100
AcDbLine
 10
947.7460549472712
 20
362.6556778218378
 30
0.0
 11
957.4054789472714
 21
360.0677878218376
 31
0.0
  0
LINE
  5
5A6
330
17
100
AcDbEntity
  8
4
100
AcDbLine
 10
940.6752529472715
 20
355.5843898218377
 30
0.0
 11
947.7460549472712
 21
362.6556778218378
 31
0.0
  0
LINE
  5
5A7
330
17
100
AcDbEntity
  8
4
100
AcDbLine
 10
957.4054789472714
 20
360.0677878218376
 30
0.0
 11
959.9936149472712
 21
350.4086098218377
 31
0.0
  0
LINE
  5
5A8
330
17
100
AcDbEntity
  8
L-CENTER
100
AcDbLine
 10
1070.910991366362
 20
338.4858565193874
 30
0.0
 11
1041.889714928192
 21
367.5071395242994
 31
0.0
  0
CIRCLE
  5
5A9
330
17
100
AcDbEntity
  8
4
100
AcDbCircle
 10
1056.400354947271
 20
352.9964998218377
 30
0.0
 40
8.660154
  0
LINE
  5
5AA
330
17
100
AcDbEntity
  8
4
100
AcDbLine
 10
1066.059532947271
 20
355.5843898218377
 30
0.0
 11
1063.471156947271
 21
345.9252118218376
 31
0.0
  0
LINE
  5
5AB
330
17
100
AcDbEntity
  8
4
100
AcDbLine
 10
1053.811972947271
 20
343.3373218218378
 30
0.0
 11
1046.741170947271
 21
350.4086098218377
 31
0.0
  0
LINE
  5
5AC
330
17
100
AcDbEntity
  8
4
100
AcDbLine
 10
1063.471156947271
 20
345.9252118218376
 30
0.0
 11
1053.811972947271
 21
343.3373218218378
 31
0.0
  0
LINE
  5
5AD
330
17
100
AcDbEntity
  8
4
100
AcDbLine
 10
1049.329306947271
 20
360.0677878218376
 30
0.0
 11
1058.988730947271
 21
362.6556778218378
 31
0.0
  0
LINE
  5
5AE
330
17
100
AcDbEntity
  8
4
100
AcDbLine
 10
1046.741170947271
 20
350.4086098218377
 30
0.0
 11
1049.329306947271
 21
360.0677878218376
 31
0.0
  0
LINE
  5
5AF
330
17
100
AcDbEntity
  8
4
100
AcDbLine
 10
1058.988730947271
 20
362.6556778218378
 30
0.0
 11
1066.059532947271
 21
355.5843898218377
 31
0.0
  0
LINE
  5
5B2
330
17
100
AcDbEntity
  8
L-CENTER
100
AcDbLine
 10
696.7984205540498
 20
474.2510202150595
 30
0.0
 11
725.8197002755915
 21
445.229740493518
 31
0.0
  0
CIRCLE
  5
5B3
330
17
100
AcDbEntity
  8
4
100
AcDbCircle
 10
711.3090469472713
 20
459.7403938218376
 30
0.0
 40
8.660154
  0
LINE
  5
5B4
330
17
100
AcDbEntity
  8
4
100
AcDbLine
 10
718.3798489472715
 20
452.6691058218378
 30
0.0
 11
708.7206649472714
 21
450.0812158218378
 31
0.0
  0
LINE
  5
5B5
330
17
100
AcDbEntity
  8
4
100
AcDbLine
 10
708.7206649472714
 20
450.0812158218378
 30
0.0
 11
701.6498689472714
 21
457.1525038218376
 31
0.0
  0
LINE
  5
5B6
330
17
100
AcDbEntity
  8
4
100
AcDbLine
 10
704.2379989472715
 20
466.8116818218377
 30
0.0
 11
713.8974229472715
 21
469.3995718218378
 31
0.0
  0
LINE
  5
5B7
330
17
100
AcDbEntity
  8
4
100
AcDbLine
 10
701.6498689472714
 20
457.1525038218376
 30
0.0
 11
704.2379989472715
 21
466.8116818218377
 31
0.0
  0
LINE
  5
5B8
330
17
100
AcDbEntity
  8
4
100
AcDbLine
 10
713.8974229472715
 20
469.3995718218378
 30
0.0
 11
720.9682249472717
 21
462.3282838218377
 31
0.0
  0
LINE
  5
5B9
330
17
100
AcDbEntity
  8
4
100
AcDbLine
 10
720.9682249472717
 20
462.3282838218377
 30
0.0
 11
718.3798489472715
 21
452.6691058218378
 31
0.0
  0
LINE
  5
5BA
330
17
100
AcDbEntity
  8
L-CENTER
100
AcDbLine
 10
867.2405808080423
 20
474.2510336826083
 30
0.0
 11
838.2193010865005
 21
445.229753961067
 31
0.0
  0
CIRCLE
  5
5BB
330
17
100
AcDbEntity
  8
4
100
AcDbCircle
 10
852.7299409472714
 20
459.7403938218376
 30
0.0
 40
8.660154
  0
LINE
  5
5BC
330
17
100
AcDbEntity
  8
4
100
AcDbLine
 10
862.3891249472713
 20
457.1525038218376
 30
0.0
 11
855.3183229472713
 21
450.0812158218378
 31
0.0
  0
LINE
  5
5BD
330
17
100
AcDbEntity
  8
4
100
AcDbLine
 10
855.3183229472713
 20
450.0812158218378
 30
0.0
 11
845.6591449472712
 21
452.6691058218378
 31
0.0
  0
LINE
  5
5BE
330
17
100
AcDbEntity
  8
4
100
AcDbLine
 10
843.0707629472713
 20
462.3282838218377
 30
0.0
 11
850.1415649472713
 21
469.3995718218378
 31
0.0
  0
LINE
  5
5BF
330
17
100
AcDbEntity
  8
4
100
AcDbLine
 10
845.6591449472712
 20
452.6691058218378
 30
0.0
 11
843.0707629472713
 21
462.3282838218377
 31
0.0
  0
LINE
  5
5C0
330
17
100
AcDbEntity
  8
4
100
AcDbLine
 10
859.8009889472714
 20
466.8116818218377
 30
0.0
 11
862.3891249472713
 21
457.1525038218376
 31
0.0
  0
LINE
  5
5C1
330
17
100
AcDbEntity
  8
4
100
AcDbLine
 10
850.1415649472713
 20
469.3995718218378
 30
0.0
 11
859.8009889472714
 21
466.8116818218377
 31
0.0
  0
LINE
  5
5C4
330
17
100
AcDbEntity
  8
L-CENTER
100
AcDbLine
 10
935.8237440558241
 20
473.5731038299139
 30
0.0
 11
964.8450270607365
 21
444.5518273917432
 31
0.0
  0
CIRCLE
  5
5C5
330
17
100
AcDbEntity
  8
4
100
AcDbCircle
 10
950.3344369472713
 20
459.0624178218377
 30
0.0
 40
8.660154
  0
LINE
  5
5C6
330
17
100
AcDbEntity
  8
4
100
AcDbLine
 10
947.7460549472712
 20
449.4032398218376
 30
0.0
 11
940.6752529472715
 21
456.4745278218377
 31
0.0
  0
LINE
  5
5C7
330
17
100
AcDbEntity
  8
4
100
AcDbLine
 10
957.4052389472713
 20
451.9911298218376
 30
0.0
 11
947.7460549472712
 21
449.4032398218376
 31
0.0
  0
LINE
  5
5C8
330
17
100
AcDbEntity
  8
4
100
AcDbLine
 10
943.2633889472713
 20
466.1337058218378
 30
0.0
 11
952.9228129472713
 21
468.7215958218376
 31
0.0
  0
LINE
  5
5C9
330
17
100
AcDbEntity
  8
4
100
AcDbLine
 10
940.6752529472715
 20
456.4745278218377
 30
0.0
 11
943.2633889472713
 21
466.1337058218378
 31
0.0
  0
LINE
  5
5CA
330
17
100
AcDbEntity
  8
4
100
AcDbLine
 10
959.9936149472712
 20
461.6503078218377
 30
0.0
 11
957.4052389472713
 21
451.9911298218376
 31
0.0
  0
LINE
  5
5CB
330
17
100
AcDbEntity
  8
4
100
AcDbLine
 10
952.9228129472713
 20
468.7215958218376
 30
0.0
 11
959.9936149472712
 21
461.6503078218377
 31
0.0
  0
LINE
  5
5CC
330
17
100
AcDbEntity
  8
L-CENTER
100
AcDbLine
 10
1070.910994808042
 20
473.5730576826084
 30
0.0
 11
1041.8897150865
 21
444.5517779610668
 31
0.0
  0
CIRCLE
  5
5CD
330
17
100
AcDbEntity
  8
4
100
AcDbCircle
 10
1056.400354947271
 20
459.0624178218377
 30
0.0
 40
8.660154
  0
LINE
  5
5CE
330
17
100
AcDbEntity
  8
4
100
AcDbLine
 10
1066.059532947271
 20
456.4745278218377
 30
0.0
 11
1058.988730947271
 21
449.4032398218376
 31
0.0
  0
LINE
  5
5CF
330
17
100
AcDbEntity
  8
4
100
AcDbLine
 10
1058.988730947271
 20
449.4032398218376
 30
0.0
 11
1049.329552947271
 21
451.9911298218376
 31
0.0
  0
LINE
  5
5D0
330
17
100
AcDbEntity
  8
4
100
AcDbLine
 10
1053.811972947271
 20
468.7215958218376
 30
0.0
 11
1063.471396947271
 21
466.1337058218378
 31
0.0
  0
LINE
  5
5D1
330
17
100
AcDbEntity
  8
4
100
AcDbLine
 10
1049.329552947271
 20
451.9911298218376
 30
0.0
 11
1046.741170947271
 21
461.6503078218377
 31
0.0
  0
LINE
  5
5D2
330
17
100
AcDbEntity
  8
4
100
AcDbLine
 10
1046.741170947271
 20
461.6503078218377
 30
0.0
 11
1053.811972947271
 21
468.7215958218376
 31
0.0
  0
LINE
  5
5D3
330
17
100
AcDbEntity
  8
4
100
AcDbLine
 10
1063.471396947271
 20
466.1337058218378
 30
0.0
 11
1066.059532947271
 21
456.4745278218377
 31
0.0
  0
LINE
  5
5DC
330
17
100
AcDbEntity
  8
4
100
AcDbLine
 10
1214.367394947271
 20
134.0294578218377
 30
0.0
 11
1214.367394947271
 21
278.0294578218377
 31
0.0
  0
LINE
  5
5DD
330
17
100
AcDbEntity
  8
4
100
AcDbLine
 10
1226.367394947271
 20
277.0294558218377
 30
0.0
 11
1226.367394947271
 21
135.0294598218377
 31
0.0
  0
LINE
  5
5E0
330
17
100
AcDbEntity
  8
4
100
AcDbLine
 10
1187.367394947271
 20
114.0294598218377
 30
0.0
 11
1187.367394947271
 21
206.0294578218377
 31
0.0
  0
ARC
  5
5E1
330
17
100
AcDbEntity
  8
4
100
AcDbCircle
 10
1179.367390947271
 20
114.0294598218377
 30
0.0
 40
7.999998000000001
100
AcDbArc
 50
270.0017479999999
 51
0.0
  0
ARC
  5
5E2
330
17
100
AcDbEntity
  8
4
100
AcDbCircle
 10
1183.367392947271
 20
206.0294578218377
 30
0.0
 40
4.000002
100
AcDbArc
 50
0.0
 51
90.0
  0
LINE
  5
5E3
330
17
100
AcDbEntity
  8
4
100
AcDbLine
 10
1225.367392947271
 20
134.0294578218377
 30
0.0
 11
1214.367394947271
 21
134.0294578218377
 31
0.0
  0
ARC
  5
5E4
330
17
100
AcDbEntity
  8
4
100
AcDbCircle
 10
1212.367390947271
 20
131.0294578218377
 30
0.0
 40
3.0
100
AcDbArc
 50
90.0
 51
180.0
  0
ARC
  5
5E5
330
17
100
AcDbEntity
  8
4
100
AcDbCircle
 10
1206.367390947271
 20
103.0294618218377
 30
0.0
 40
3.0
100
AcDbArc
 50
0.0
 51
90.0
  0
LINE
  5
5E6
330
17
100
AcDbEntity
  8
4
100
AcDbLine
 10
1214.367394947271
 20
134.0294578218377
 30
0.0
 11
1212.367390947271
 21
134.0294578218377
 31
0.0
  0
ARC
  5
5E7
330
17
100
AcDbEntity
  8
4
100
AcDbCircle
 10
1225.367392947271
 20
135.0294598218377
 30
0.0
 40
1.000002
100
AcDbArc
 50
270.0
 51
0.0
  0
LINE
  5
5ED
330
17
100
AcDbEntity
  8
4
100
AcDbLine
 10
1178.060506947271
 20
278.0294578218377
 30
0.0
 11
1209.367390947271
 21
278.0294578218377
 31
0.0
  0
LINE
  5
5EE
330
17
100
AcDbEntity
  8
4
100
AcDbLine
 10
1179.194542947271
 20
281.0294578218377
 30
0.0
 11
1209.367390947271
 21
281.0294578218377
 31
0.0
  0
ARC
  5
5EF
330
17
100
AcDbEntity
  8
4
100
AcDbCircle
 10
1178.060506947271
 20
284.0294578218377
 30
0.0
 40
6.000005999999999
100
AcDbArc
 50
159.0081830000002
 51
270.0
  0
ARC
  5
5F0
330
17
100
AcDbEntity
  8
4
100
AcDbCircle
 10
1179.194542947271
 20
287.0294578218377
 30
0.0
 40
6.00006
100
AcDbArc
 50
159.5792900000008
 51
270.0
  0
LINE
  5
5F3
330
17
100
AcDbEntity
  8
4
100
AcDbLine
 10
1225.367392947271
 20
278.0294578218377
 30
0.0
 11
1214.367394947271
 21
278.0294578218377
 31
0.0
  0
ARC
  5
5F4
330
17
100
AcDbEntity
  8
4
100
AcDbCircle
 10
1212.367390947271
 20
281.0294578218377
 30
0.0
 40
3.0
100
AcDbArc
 50
180.0
 51
270.0
  0
LINE
  5
5F5
330
17
100
AcDbEntity
  8
4
100
AcDbLine
 10
1214.367394947271
 20
278.0294578218377
 30
0.0
 11
1212.367390947271
 21
278.0294578218377
 31
0.0
  0
ARC
  5
5F6
330
17
100
AcDbEntity
  8
4
100
AcDbCircle
 10
1225.367392947271
 20
277.0294558218377
 30
0.0
 40
1.000002
100
AcDbArc
 50
0.0
 51
90.0
  0
LINE
  5
606
330
17
100
AcDbEntity
  8
4
100
AcDbLine
 10
858.3673969472713
 20
722.0294578218377
 30
0.0
 11
898.3673929472714
 21
722.0294578218377
 31
0.0
  0
LINE
  5
607
330
17
100
AcDbEntity
  8
4
100
AcDbLine
 10
873.3673969472713
 20
732.2089018218376
 30
0.0
 11
866.1816049472714
 21
731.0294578218377
 31
0.0
  0
LINE
  5
608
330
17
100
AcDbEntity
  8
4
100
AcDbLine
 10
866.1816049472714
 20
731.0294578218377
 30
0.0
 11
873.3673969472713
 21
731.0294578218377
 31
0.0
  0
ARC
  5
609
330
17
100
AcDbEntity
  8
4
100
AcDbCircle
 10
872.3673949472714
 20
725.0294578218377
 30
0.0
 40
1.000002
100
AcDbArc
 50
270.0
 51
0.0
  0
LINE
  5
60C
330
17
100
AcDbEntity
  8
L-CENTER
100
AcDbLine
 10
683.3673949472714
 20
728.8671718218377
 30
0.0
 11
683.3673949472714
 21
676.0367890242512
 31
0.0
  0
LINE
  5
60D
330
17
100
AcDbEntity
  8
4
100
AcDbLine
 10
661.3673929472716
 20
713.8649038218377
 30
0.0
 11
661.3673929472716
 21
712.3649038218377
 31
0.0
  0
LINE
  5
60E
330
17
100
AcDbEntity
  8
4
100
AcDbLine
 10
671.8673929472716
 20
717.8649058218377
 30
0.0
 11
671.8673929472716
 21
722.8649038218377
 31
0.0
  0
LINE
  5
60F
330
17
100
AcDbEntity
  8
4
100
AcDbLine
 10
705.3673969472711
 20
713.8649038218377
 30
0.0
 11
705.3673969472711
 21
712.3649038218377
 31
0.0
  0
LINE
  5
610
330
17
100
AcDbEntity
  8
4
100
AcDbLine
 10
706.3673929472716
 20
713.8649038218377
 30
0.0
 11
706.3673929472716
 21
722.8649038218377
 31
0.0
  0
LINE
  5
611
330
17
100
AcDbEntity
  8
4
100
AcDbLine
 10
694.8673969472711
 20
717.8649058218377
 30
0.0
 11
694.8673969472711
 21
722.8649038218377
 31
0.0
  0
LINE
  5
612
330
17
100
AcDbEntity
  8
4
100
AcDbLine
 10
708.3673969472711
 20
712.3649038218377
 30
0.0
 11
708.3673969472711
 21
710.3649058218377
 31
0.0
  0
LINE
  5
613
330
17
100
AcDbEntity
  8
4
100
AcDbLine
 10
866.1816049472714
 20
731.0294578218377
 30
0.0
 11
865.8673969472713
 21
722.0294578218377
 31
0.0
  0
LINE
  5
614
330
17
100
AcDbEntity
  8
4
100
AcDbLine
 10
858.3673969472713
 20
719.8961578218377
 30
0.0
 11
858.3673969472713
 21
722.0294578218377
 31
0.0
  0
LINE
  5
619
330
17
100
AcDbEntity
  8
4
100
AcDbLine
 10
883.3673929472714
 20
725.0294578218377
 30
0.0
 11
883.3673929472714
 21
777.0294538218377
 31
0.0
  0
LINE
  5
61A
330
17
100
AcDbEntity
  8
4
100
AcDbLine
 10
873.3673969472713
 20
725.0294578218377
 30
0.0
 11
873.3673969472713
 21
777.0294538218377
 31
0.0
  0
LINE
  5
61B
330
17
100
AcDbEntity
  8
4
100
AcDbLine
 10
883.3673929472714
 20
732.2089018218376
 30
0.0
 11
890.5531849472713
 21
731.0294578218377
 31
0.0
  0
LINE
  5
61C
330
17
100
AcDbEntity
  8
4
100
AcDbLine
 10
890.5531849472713
 20
731.0294578218377
 30
0.0
 11
890.8673929472714
 21
722.0294578218377
 31
0.0
  0
LINE
  5
61D
330
17
100
AcDbEntity
  8
4
100
AcDbLine
 10
883.3673929472714
 20
731.0294578218377
 30
0.0
 11
890.5531849472713
 21
731.0294578218377
 31
0.0
  0
ARC
  5
61E
330
17
100
AcDbEntity
  8
4
100
AcDbCircle
 10
884.3673949472714
 20
725.0294578218377
 30
0.0
 40
1.000002
100
AcDbArc
 50
180.0
 51
270.0
  0
LINE
  5
61F
330
17
100
AcDbEntity
  8
4
100
AcDbLine
 10
898.3673929472714
 20
719.8961578218377
 30
0.0
 11
898.3673929472714
 21
722.0294578218377
 31
0.0
  0
ARC
  5
620
330
17
100
AcDbEntity
  8
4
100
AcDbCircle
 10
878.3673949472714
 20
777.0294538218377
 30
0.0
 40
4.999998
100
AcDbArc
 50
0.0
 51
180.0
  0
ARC
  5
625
330
17
100
AcDbEntity
  8
4
100
AcDbCircle
 10
1175.063926947271
 20
683.2518658218378
 30
0.0
 40
7.000044
100
AcDbArc
 50
10.97564600000024
 51
78.53722799999996
  0
LINE
  5
62A
330
17
100
AcDbEntity
  8
L-CENTER
100
AcDbLine
 10
1734.440882143078
 20
797.3541658218378
 30
0.0
 11
1734.440882143078
 21
55.01129982183772
 31
0.0
  0
LINE
  5
62B
330
17
100
AcDbEntity
  8
L-CENTER
100
AcDbLine
 10
1579.440884143078
 20
46.02945982183769
 30
0.0
 11
1579.440884143078
 21
126.0294618218377
 31
0.0
  0
LINE
  5
62C
330
17
100
AcDbEntity
  8
4
100
AcDbLine
 10
1539.440882143078
 20
103.0294618218377
 30
0.0
 11
1539.440882143078
 21
66.02945982183769
 31
0.0
  0
LWPOLYLINE
  5
62D
330
17
100
AcDbEntity
  8
4
100
AcDbPolyline
 90
       43
 70
     0
 43
0.0
 10
1862.927582143078
 20
105.9497698218377
 10
1863.421952143078
 20
105.3464458218377
 10
1863.903392143078
 20
104.7425818218377
 10
1864.358990143078
 20
104.1376378218376
 10
1865.441444143078
 20
102.3109438218377
 10
1865.664410143078
 20
101.6962978218377
 10
1865.796902143078
 20
101.0778718218377
 10
1865.826008143078
 20
100.4551318218378
 10
1865.757344143078
 20
99.8877958218377
 10
1865.612876143078
 20
99.31569582183772
 10
1865.411882143078
 20
98.73800982183775
 10
1864.662746143078
 20
96.96346182183765
 10
1864.428620143078
 20
96.35542782183768
 10
1864.234442143078
 20
95.73779382183773
 10
1864.099502143078
 20
95.10975582183767
 10
1864.033826143078
 20
94.16009382183768
 10
1864.108322143078
 20
93.1928638218377
 10
1864.290812143078
 20
92.21509182183763
 10
1865.164328143078
 20
89.28878982183767
 10
1865.850950143078
 20
86.52059982183766
 10
1865.888078143078
 20
85.6658038218377
 10
1865.775686143078
 20
84.85668582183769
 10
1865.481584143078
 20
84.10027182183774
 10
1864.999406143078
 20
83.41327182183772
 10
1864.362200143078
 20
82.7691898218377
 10
1863.620432143078
 20
82.1535538218377
 10
1861.272500143078
 20
80.33268582183769
 10
1860.617210143078
 20
79.68617382183766
 10
1860.109724143078
 20
78.99576582183772
 10
1859.800508143078
 20
78.24700182183767
 10
1859.724044143078
 20
77.41081182183768
 10
1859.854430143078
 20
76.5169378218377
 10
1860.137984143078
 20
75.58397982183772
 10
1861.370654143078
 20
72.7365898218377
 10
1861.729892143078
 20
71.83328982183775
 10
1861.973816143078
 20
70.98391182183764
 10
1862.048726143078
 20
70.20705582183768
 10
1861.711040143078
 20
69.10582782183769
 10
1860.852074143078
 20
68.21787582183765
 10
1859.565866143078
 20
67.50473982183769
 10
1857.946430143078
 20
66.92792982183767
 10
1856.087792143078
 20
66.44899782183768
 10
1854.083978143078
 20
66.02945982183769
  0
LINE
  5
62E
330
17
100
AcDbEntity
  8
4
100
AcDbLine
 10
1900.440884143078
 20
106.0294618218377
 30
0.0
 11
1900.440884143078
 21
66.02945982183769
 31
0.0
  0
LINE
  5
62F
330
17
100
AcDbEntity
  8
4
100
AcDbLine
 10
1878.440882143078
 20
106.0294618218377
 30
0.0
 11
1878.440882143078
 21
66.02945982183769
 31
0.0
  0
LINE
  5
630
330
17
100
AcDbEntity
  8
L-CENTER
100
AcDbLine
 10
1889.440880143078
 20
46.02945982183769
 30
0.0
 11
1889.440880143078
 21
126.0294618218377
 31
0.0
  0
LINE
  5
631
330
17
100
AcDbEntity
  8
4
100
AcDbLine
 10
1929.440882143078
 20
103.0294618218377
 30
0.0
 11
1929.440882143078
 21
66.02945982183769
 31
0.0
  0
TEXT
  5
636
330
17
100
AcDbEntity
  8
3
100
AcDbText
 10
1317.991511373298
 20
12.59408140603989
 30
0.0
 40
17.85075324173629
  1
LD8-01
  7
KANJI
100
AcDbText
  0
LINE
  5
638
330
17
100
AcDbEntity
  8
4
100
AcDbLine
 10
1929.440882143078
 20
66.02945982183769
 30
0.0
 11
1539.440882143078
 21
66.02945982183769
 31
0.0
  0
LINE
  5
64F
330
17
100
AcDbEntity
  8
L-CENTER
100
AcDbLine
 10
2080.472354143078
 20
389.0294578218377
 30
0.0
 11
1568.919300656963
 21
389.0294578218377
 31
0.0
  0
LINE
  5
650
330
17
100
AcDbEntity
  8
4
100
AcDbLine
 10
2067.440882143078
 20
442.0294558218377
 30
0.0
 11
1917.440882143078
 21
442.0294558218377
 31
0.0
  0
LINE
  5
651
330
17
100
AcDbEntity
  8
4
100
AcDbLine
 10
2066.440880143078
 20
344.0294578218377
 30
0.0
 11
1907.440880143078
 21
344.0294578218377
 31
0.0
  0
LINE
  5
652
330
17
100
AcDbEntity
  8
4
100
AcDbLine
 10
2066.440880143078
 20
434.0294578218377
 30
0.0
 11
1907.440880143078
 21
434.0294578218377
 31
0.0
  0
LINE
  5
655
330
17
100
AcDbEntity
  8
4
100
AcDbLine
 10
1867.440884143078
 20
712.0294558218377
 30
0.0
 11
1867.440884143078
 21
150.0294598218377
 31
0.0
  0
LINE
  5
656
330
17
100
AcDbEntity
  8
4
100
AcDbLine
 10
1839.440882143078
 20
718.0294558218377
 30
0.0
 11
1839.440882143078
 21
126.0294598218377
 31
0.0
  0
LINE
  5
657
330
17
100
AcDbEntity
  8
4
100
AcDbLine
 10
1608.440882143078
 20
712.0294558218377
 30
0.0
 11
1608.440882143078
 21
193.9083658218377
 31
0.0
  0
LINE
  5
658
330
17
100
AcDbEntity
  8
4
100
AcDbLine
 10
1605.409388143078
 20
184.7218438218376
 30
0.0
 11
1605.409388143078
 21
684.0294538218377
 31
0.0
  0
ARC
  5
659
330
17
100
AcDbEntity
  8
4
100
AcDbCircle
 10
8399.434262143077
 20
399.0294598218377
 30
0.0
 40
6799.999968
100
AcDbArc
 50
177.5984690000001
 51
181.866518
  0
LINE
  5
65A
330
17
100
AcDbEntity
  8
4
100
AcDbLine
 10
1842.440882143078
 20
115.4938138218376
 30
0.0
 11
1842.440882143078
 21
714.0294538218377
 31
0.0
  0
LINE
  5
65B
330
17
100
AcDbEntity
  8
4
100
AcDbLine
 10
1629.440882143078
 20
718.0294558218377
 30
0.0
 11
1629.440882143078
 21
281.0992798218377
 31
0.0
  0
CIRCLE
  5
65E
330
17
100
AcDbEntity
  8
L-CENTER
100
AcDbCircle
 10
1687.440884143078
 20
206.0294578218377
 30
0.0
 40
72.499998
  0
LINE
  5
65F
330
17
100
AcDbEntity
  8
4
100
AcDbLine
 10
1926.440882143078
 20
106.0294618218377
 30
0.0
 11
1542.440882143078
 21
106.0294618218377
 31
0.0
  0
LINE
  5
660
330
17
100
AcDbEntity
  8
L-CENTER
100
AcDbLine
 10
1771.449494143078
 20
206.0294578218377
 30
0.0
 11
1603.432274143078
 21
206.0294578218377
 31
0.0
  0
ARC
  5
661
330
17
100
AcDbEntity
  8
4
100
AcDbCircle
 10
1687.440638143078
 20
534.0296998218378
 30
0.0
 40
399.9999240000001
100
AcDbArc
 50
260.956666
 51
279.044432
  0
LINE
  5
662
330
17
100
AcDbEntity
  8
L-CENTER
100
AcDbLine
 10
1621.665004516869
 20
140.2535772828826
 30
0.0
 11
1650.686279942433
 21
169.2748613004023
 31
0.0
  0
LINE
  5
663
330
17
100
AcDbEntity
  8
4
100
AcDbLine
 10
1626.516566143078
 20
157.3522138218377
 30
0.0
 11
1633.587368143078
 21
164.4235018218377
 31
0.0
  0
ARC
  5
664
330
17
100
AcDbEntity
  8
4
100
AcDbCircle
 10
1609.440884143078
 20
126.0294598218377
 30
0.0
 40
19.999998
100
AcDbArc
 50
270.0006990000002
 51
0.0
  0
CIRCLE
  5
665
330
17
100
AcDbEntity
  8
4
100
AcDbCircle
 10
1636.175744143078
 20
154.7643238218377
 30
0.0
 40
8.660154
  0
LINE
  5
666
330
17
100
AcDbEntity
  8
4
100
AcDbLine
 10
1638.764126143078
 20
145.1051398218377
 30
0.0
 11
1629.104942143078
 21
147.6930298218377
 31
0.0
  0
ARC
  5
667
330
17
100
AcDbEntity
  8
4
100
AcDbCircle
 10
1687.440638143078
 20
-121.9707841781623
 30
0.0
 40
399.99999
100
AcDbArc
 50
80.95620699999999
 51
99.04386300000003
  0
LINE
  5
668
330
17
100
AcDbEntity
  8
L-CENTER
100
AcDbLine
 10
1621.665104282307
 20
271.8052376826084
 30
0.0
 11
1650.686384003849
 21
242.7839579610668
 31
0.0
  0
LINE
  5
669
330
17
100
AcDbEntity
  8
4
100
AcDbLine
 10
1633.587368143078
 20
247.6354138218377
 30
0.0
 11
1626.516566143078
 21
254.7067018218377
 31
0.0
  0
CIRCLE
  5
66A
330
17
100
AcDbEntity
  8
4
100
AcDbCircle
 10
1636.175744143078
 20
257.2945978218377
 30
0.0
 40
8.660154
  0
LINE
  5
66B
330
17
100
AcDbEntity
  8
4
100
AcDbLine
 10
1629.104702143078
 20
264.3658858218377
 30
0.0
 11
1638.764126143078
 21
266.9537758218377
 31
0.0
  0
LINE
  5
66C
330
17
100
AcDbEntity
  8
4
100
AcDbLine
 10
1577.440880143078
 20
504.0294598218377
 30
0.0
 11
1577.440880143078
 21
274.0294558218377
 31
0.0
  0
LINE
  5
66D
330
17
100
AcDbEntity
  8
4
100
AcDbLine
 10
1592.440880143078
 20
274.0294558218377
 30
0.0
 11
1592.440880143078
 21
504.0294598218377
 31
0.0
  0
ARC
  5
673
330
17
100
AcDbEntity
  8
4
100
AcDbCircle
 10
2012.440880143078
 20
206.0294578218377
 30
0.0
 40
399.999906
100
AcDbArc
 50
170.5774619999999
 51
189.423211
  0
ARC
  5
674
330
17
100
AcDbEntity
  8
4
100
AcDbCircle
 10
2015.440880143078
 20
206.0294578218377
 30
0.0
 40
399.99996
100
AcDbArc
 50
170.956666
 51
189.043828
  0
LINE
  5
675
330
17
100
AcDbEntity
  8
4
100
AcDbLine
 10
1593.985316143078
 20
214.0294558218377
 30
0.0
 11
1593.985316143078
 21
250.0294558218377
 31
0.0
  0
LINE
  5
676
330
17
100
AcDbEntity
  8
4
100
AcDbLine
 10
1595.985314143078
 20
214.0294558218377
 30
0.0
 11
1595.985314143078
 21
250.0294558218377
 31
0.0
  0
LINE
  5
677
330
17
100
AcDbEntity
  8
4
100
AcDbLine
 10
1597.485314143078
 20
215.0294578218377
 30
0.0
 11
1597.485314143078
 21
249.0294598218377
 31
0.0
  0
LINE
  5
678
330
17
100
AcDbEntity
  8
4
100
AcDbLine
 10
1588.985318143078
 20
214.0294558218377
 30
0.0
 11
1588.985318143078
 21
250.0294558218377
 31
0.0
  0
LINE
  5
679
330
17
100
AcDbEntity
  8
4
100
AcDbLine
 10
1597.485314143078
 20
212.0294578218377
 30
0.0
 11
1597.485314143078
 21
252.0294598218377
 31
0.0
  0
LINE
  5
67A
330
17
100
AcDbEntity
  8
4
100
AcDbLine
 10
1579.440884143078
 20
106.0294618218377
 30
0.0
 11
1612.440884143078
 21
206.0294578218377
 31
0.0
  0
ARC
  5
67B
330
17
100
AcDbEntity
  8
4
100
AcDbCircle
 10
1542.440882143078
 20
103.0294618218377
 30
0.0
 40
3.0
100
AcDbArc
 50
90.0
 51
180.0
  0
ARC
  5
67C
330
17
100
AcDbEntity
  8
4
100
AcDbCircle
 10
1624.440884143078
 20
130.9596358218377
 30
0.0
 40
5.00004
100
AcDbArc
 50
0.0
 51
81.05049899999867
  0
ARC
  5
67D
330
17
100
AcDbEntity
  8
4
100
AcDbCircle
 10
1622.770718143078
 20
141.3595378218376
 30
0.0
 40
5.000082
100
AcDbArc
 50
189.4227629999999
 51
260.5772250000002
  0
ARC
  5
67E
330
17
100
AcDbEntity
  8
4
100
AcDbCircle
 10
1687.440638143078
 20
531.0296998218378
 30
0.0
 40
399.999954
100
AcDbArc
 50
260.577462
 51
261.051415
  0
LINE
  5
67F
330
17
100
AcDbEntity
  8
4
100
AcDbLine
 10
1629.440882143078
 20
130.9596358218377
 30
0.0
 11
1629.440882143078
 21
126.0294598218377
 31
0.0
  0
LINE
  5
680
330
17
100
AcDbEntity
  8
4
100
AcDbLine
 10
1629.104942143078
 20
147.6930298218377
 30
0.0
 11
1626.516566143078
 21
157.3522138218377
 31
0.0
  0
ARC
  5
681
330
17
100
AcDbEntity
  8
4
100
AcDbCircle
 10
1625.351282143078
 20
143.9401018218377
 30
0.0
 40
4.999896
100
AcDbArc
 50
189.0433169999993
 51
260.9566940000013
  0
LINE
  5
682
330
17
100
AcDbEntity
  8
L-CENTER
100
AcDbLine
 10
1584.872024143078
 20
232.0294558218377
 30
0.0
 11
1610.135558143078
 21
232.0294558218377
 31
0.0
  0
LINE
  5
683
330
17
100
AcDbEntity
  8
4
100
AcDbLine
 10
1595.985314143078
 20
214.0294558218377
 30
0.0
 11
1588.985318143078
 21
214.0294558218377
 31
0.0
  0
LINE
  5
684
330
17
100
AcDbEntity
  8
4
100
AcDbLine
 10
1595.985314143078
 20
215.0294578218377
 30
0.0
 11
1597.485314143078
 21
215.0294578218377
 31
0.0
  0
LINE
  5
685
330
17
100
AcDbEntity
  8
4
100
AcDbLine
 10
1593.985316143078
 20
241.0294558218377
 30
0.0
 11
1588.985318143078
 21
241.0294558218377
 31
0.0
  0
LINE
  5
686
330
17
100
AcDbEntity
  8
4
100
AcDbLine
 10
1593.985316143078
 20
223.0294558218377
 30
0.0
 11
1588.985318143078
 21
223.0294558218377
 31
0.0
  0
LINE
  5
687
330
17
100
AcDbEntity
  8
4
100
AcDbLine
 10
1597.485314143078
 20
212.0294578218377
 30
0.0
 11
1602.006068143078
 21
212.0294578218377
 31
0.0
  0
LINE
  5
688
330
17
100
AcDbEntity
  8
4
100
AcDbLine
 10
1567.440884143078
 20
310.8190078218377
 30
0.0
 11
1567.440884143078
 21
325.8190078218377
 31
0.0
  0
LINE
  5
689
330
17
100
AcDbEntity
  8
4
100
AcDbLine
 10
1574.940884143078
 20
308.3190118218376
 30
0.0
 11
1574.940884143078
 21
328.3190098218377
 31
0.0
  0
ARC
  5
68A
330
17
100
AcDbEntity
  8
4
100
AcDbCircle
 10
1571.260706143078
 20
310.8190078218377
 30
0.0
 40
3.819708
100
AcDbArc
 50
139.1182680000009
 51
220.8817319999991
  0
LINE
  5
68B
330
17
100
AcDbEntity
  8
4
100
AcDbLine
 10
1577.440880143078
 20
308.3190118218376
 30
0.0
 11
1577.440880143078
 21
328.3190098218377
 31
0.0
  0
LINE
  5
68C
330
17
100
AcDbEntity
  8
4
100
AcDbLine
 10
1577.440880143078
 20
274.0294558218377
 30
0.0
 11
1592.440880143078
 21
274.0294558218377
 31
0.0
  0
LINE
  5
68D
330
17
100
AcDbEntity
  8
4
100
AcDbLine
 10
1568.298794143078
 20
308.3190118218376
 30
0.0
 11
1577.440880143078
 21
308.3190118218376
 31
0.0
  0
ARC
  5
68E
330
17
100
AcDbEntity
  8
4
100
AcDbCircle
 10
1624.440884143078
 20
281.0992798218377
 30
0.0
 40
5.00004
100
AcDbArc
 50
278.9495009999987
 51
0.0
  0
LINE
  5
68F
330
17
100
AcDbEntity
  8
4
100
AcDbLine
 10
1597.485314143078
 20
249.0294598218377
 30
0.0
 11
1595.985314143078
 21
249.0294598218377
 31
0.0
  0
LINE
  5
690
330
17
100
AcDbEntity
  8
4
100
AcDbLine
 10
1595.985314143078
 20
250.0294558218377
 30
0.0
 11
1588.985318143078
 21
250.0294558218377
 31
0.0
  0
LINE
  5
691
330
17
100
AcDbEntity
  8
4
100
AcDbLine
 10
1597.485314143078
 20
252.0294598218377
 30
0.0
 11
1601.023400143078
 21
252.0294598218377
 31
0.0
  0
LINE
  5
692
330
17
100
AcDbEntity
  8
4
100
AcDbLine
 10
1600.583216143078
 20
274.0294558218377
 30
0.0
 11
1592.440880143078
 21
274.0294558218377
 31
0.0
  0
LINE
  5
693
330
17
100
AcDbEntity
  8
4
100
AcDbLine
 10
1626.516566143078
 20
254.7067018218377
 30
0.0
 11
1629.104702143078
 21
264.3658858218377
 31
0.0
  0
ARC
  5
694
330
17
100
AcDbEntity
  8
4
100
AcDbCircle
 10
1687.440638143078
 20
-118.9707841781623
 30
0.0
 40
400.0000319999999
100
AcDbArc
 50
98.94922300000002
 51
99.42313600000003
  0
ARC
  5
695
330
17
100
AcDbEntity
  8
4
100
AcDbCircle
 10
1622.770718143078
 20
270.6993778218377
 30
0.0
 40
5.000082
100
AcDbArc
 50
99.42277499999985
 51
170.5772250000002
  0
ARC
  5
696
330
17
100
AcDbEntity
  8
4
100
AcDbCircle
 10
1625.351282143078
 20
268.1188138218376
 30
0.0
 40
4.999896
100
AcDbArc
 50
99.04330599999884
 51
170.9566939999997
  0
LINE
  5
697
330
17
100
AcDbEntity
  8
4
100
AcDbLine
 10
1577.440880143078
 20
316.0294558218377
 30
0.0
 11
1592.440880143078
 21
316.0294558218377
 31
0.0
  0
LINE
  5
698
330
17
100
AcDbEntity
  8
4
100
AcDbLine
 10
1567.440884143078
 20
345.4964998218377
 30
0.0
 11
1567.440884143078
 21
360.4964998218377
 31
0.0
  0
LINE
  5
699
330
17
100
AcDbEntity
  8
4
100
AcDbLine
 10
1574.940884143078
 20
342.9964978218377
 30
0.0
 11
1574.940884143078
 21
362.9965018218377
 31
0.0
  0
LINE
  5
69A
330
17
100
AcDbEntity
  8
4
100
AcDbLine
 10
1577.440880143078
 20
342.9964978218377
 30
0.0
 11
1577.440880143078
 21
362.9965018218377
 31
0.0
  0
ARC
  5
69B
330
17
100
AcDbEntity
  8
4
100
AcDbCircle
 10
1571.260706143078
 20
345.4964998218377
 30
0.0
 40
3.819708
100
AcDbArc
 50
139.1182680000009
 51
220.8817319999991
  0
LINE
  5
69C
330
17
100
AcDbEntity
  8
4
100
AcDbLine
 10
1568.298794143078
 20
328.3190098218377
 30
0.0
 11
1577.440880143078
 21
328.3190098218377
 31
0.0
  0
LINE
  5
69D
330
17
100
AcDbEntity
  8
4
100
AcDbLine
 10
1577.440880143078
 20
315.8187658218377
 30
0.0
 11
1574.940884143078
 21
318.3187678218377
 31
0.0
  0
LINE
  5
69E
330
17
100
AcDbEntity
  8
4
100
AcDbLine
 10
1577.440880143078
 20
318.3190078218377
 30
0.0
 11
1574.940884143078
 21
320.8190098218377
 31
0.0
  0
LINE
  5
69F
330
17
100
AcDbEntity
  8
4
100
AcDbLine
 10
1568.298794143078
 20
342.9964978218377
 30
0.0
 11
1577.440880143078
 21
342.9964978218377
 31
0.0
  0
ARC
  5
6A0
330
17
100
AcDbEntity
  8
4
100
AcDbCircle
 10
1582.440884143078
 20
318.3190078218377
 30
0.0
 40
14.999958
100
AcDbArc
 50
160.5287209999997
 51
199.4712789999999
  0
LINE
  5
6A1
330
17
100
AcDbEntity
  8
4
100
AcDbLine
 10
1574.940884143078
 20
313.3190098218377
 30
0.0
 11
1568.298794143078
 21
313.3190098218377
 31
0.0
  0
ARC
  5
6A2
330
17
100
AcDbEntity
  8
4
100
AcDbCircle
 10
1571.260706143078
 20
325.8190078218377
 30
0.0
 40
3.819708
100
AcDbArc
 50
139.1182680000009
 51
220.8817319999991
  0
LINE
  5
6A3
330
17
100
AcDbEntity
  8
4
100
AcDbLine
 10
1574.940884143078
 20
323.3190118218376
 30
0.0
 11
1568.298794143078
 21
323.3190118218376
 31
0.0
  0
ARC
  5
6A4
330
17
100
AcDbEntity
  8
4
100
AcDbCircle
 10
1582.440884143078
 20
352.9964998218377
 30
0.0
 40
14.999958
100
AcDbArc
 50
160.5287209999997
 51
199.4712790000003
  0
LINE
  5
6A5
330
17
100
AcDbEntity
  8
4
100
AcDbLine
 10
1574.940884143078
 20
347.9965018218377
 30
0.0
 11
1568.298794143078
 21
347.9965018218377
 31
0.0
  0
LINE
  5
6A6
330
17
100
AcDbEntity
  8
4
100
AcDbLine
 10
1568.298794143078
 20
362.9965018218377
 30
0.0
 11
1577.440880143078
 21
362.9965018218377
 31
0.0
  0
LINE
  5
6A7
330
17
100
AcDbEntity
  8
4
100
AcDbLine
 10
1577.440880143078
 20
350.4962578218376
 30
0.0
 11
1574.940884143078
 21
352.9962538218376
 31
0.0
  0
LINE
  5
6A8
330
17
100
AcDbEntity
  8
4
100
AcDbLine
 10
1577.440880143078
 20
352.9964998218377
 30
0.0
 11
1574.940884143078
 21
355.4965018218377
 31
0.0
  0
ARC
  5
6A9
330
17
100
AcDbEntity
  8
4
100
AcDbCircle
 10
1571.260706143078
 20
360.4964998218377
 30
0.0
 40
3.819708
100
AcDbArc
 50
139.1182680000009
 51
220.8817319999991
  0
LINE
  5
6AA
330
17
100
AcDbEntity
  8
4
100
AcDbLine
 10
1574.940884143078
 20
357.9964978218377
 30
0.0
 11
1568.298794143078
 21
357.9964978218377
 31
0.0
  0
LINE
  5
6AB
330
17
100
AcDbEntity
  8
4
100
AcDbLine
 10
1599.940880143078
 20
316.0294558218377
 30
0.0
 11
1592.440880143078
 21
316.0294558218377
 31
0.0
  0
ARC
  5
6B1
330
17
100
AcDbEntity
  8
4
100
AcDbCircle
 10
1571.260706143078
 20
451.5624178218377
 30
0.0
 40
3.819708
100
AcDbArc
 50
139.1182680000009
 51
220.8817319999991
  0
LINE
  5
6B2
330
17
100
AcDbEntity
  8
4
100
AcDbLine
 10
1567.440884143078
 20
451.5624178218377
 30
0.0
 11
1567.440884143078
 21
466.5624178218377
 31
0.0
  0
LINE
  5
6B3
330
17
100
AcDbEntity
  8
4
100
AcDbLine
 10
1574.940884143078
 20
449.0624158218377
 30
0.0
 11
1574.940884143078
 21
469.0624138218377
 31
0.0
  0
LINE
  5
6B4
330
17
100
AcDbEntity
  8
4
100
AcDbLine
 10
1577.440880143078
 20
449.0624158218377
 30
0.0
 11
1577.440880143078
 21
469.0624138218377
 31
0.0
  0
LINE
  5
6B5
330
17
100
AcDbEntity
  8
4
100
AcDbLine
 10
1568.298794143078
 20
449.0624158218377
 30
0.0
 11
1577.440880143078
 21
449.0624158218377
 31
0.0
  0
LINE
  5
6B6
330
17
100
AcDbEntity
  8
4
100
AcDbLine
 10
1577.440880143078
 20
504.0294598218377
 30
0.0
 11
1592.440880143078
 21
504.0294598218377
 31
0.0
  0
LINE
  5
6B7
330
17
100
AcDbEntity
  8
4
100
AcDbLine
 10
1577.440880143078
 20
496.0294558218377
 30
0.0
 11
1592.440880143078
 21
496.0294558218377
 31
0.0
  0
LINE
  5
6B8
330
17
100
AcDbEntity
  8
4
100
AcDbLine
 10
1568.298794143078
 20
469.0624138218377
 30
0.0
 11
1577.440880143078
 21
469.0624138218377
 31
0.0
  0
LINE
  5
6B9
330
17
100
AcDbEntity
  8
4
100
AcDbLine
 10
1577.440880143078
 20
456.5621698218376
 30
0.0
 11
1574.940884143078
 21
459.0621718218376
 31
0.0
  0
LINE
  5
6BA
330
17
100
AcDbEntity
  8
4
100
AcDbLine
 10
1577.440880143078
 20
459.0624178218377
 30
0.0
 11
1574.940884143078
 21
461.5624138218377
 31
0.0
  0
ARC
  5
6BB
330
17
100
AcDbEntity
  8
4
100
AcDbCircle
 10
1582.440884143078
 20
459.0624178218377
 30
0.0
 40
14.999958
100
AcDbArc
 50
160.5287209999997
 51
199.4712790000003
  0
ARC
  5
6BC
330
17
100
AcDbEntity
  8
4
100
AcDbCircle
 10
1571.260706143078
 20
466.5624178218377
 30
0.0
 40
3.819708
100
AcDbArc
 50
139.1182680000009
 51
220.8817319999991
  0
LINE
  5
6BD
330
17
100
AcDbEntity
  8
4
100
AcDbLine
 10
1574.940884143078
 20
464.0624158218377
 30
0.0
 11
1568.298794143078
 21
464.0624158218377
 31
0.0
  0
LINE
  5
6BE
330
17
100
AcDbEntity
  8
4
100
AcDbLine
 10
1574.940884143078
 20
454.0624138218377
 30
0.0
 11
1568.298794143078
 21
454.0624138218377
 31
0.0
  0
LINE
  5
6BF
330
17
100
AcDbEntity
  8
4
100
AcDbLine
 10
1592.440880143078
 20
504.0294598218377
 30
0.0
 11
1600.245080143078
 21
504.0294598218377
 31
0.0
  0
LINE
  5
6C0
330
17
100
AcDbEntity
  8
4
100
AcDbLine
 10
1600.126184143078
 20
496.0294558218377
 30
0.0
 11
1592.440880143078
 21
496.0294558218377
 31
0.0
  0
ARC
  5
6C1
330
17
100
AcDbEntity
  8
4
100
AcDbCircle
 10
-4930.553961856923
 20
399.0294598218377
 30
0.0
 40
6800.000058
100
AcDbArc
 50
359.1338589999999
 51
0.8662479999998799
  0
LINE
  5
6C2
330
17
100
AcDbEntity
  8
4
100
AcDbLine
 10
1891.440884143078
 20
504.0294598218377
 30
0.0
 11
1891.440884143078
 21
274.0294558218377
 31
0.0
  0
LINE
  5
6C3
330
17
100
AcDbEntity
  8
4
100
AcDbLine
 10
1876.440884143078
 20
296.2235938218377
 30
0.0
 11
1876.440884143078
 21
501.8336998218379
 31
0.0
  0
LINE
  5
6C4
330
17
100
AcDbEntity
  8
4
100
AcDbLine
 10
1907.440880143078
 20
341.5294558218377
 30
0.0
 11
1907.440880143078
 21
436.5294598218377
 31
0.0
  0
LINE
  5
6C5
330
17
100
AcDbEntity
  8
4
100
AcDbLine
 10
1892.940884143078
 20
362.9965018218377
 30
0.0
 11
1892.940884143078
 21
449.0624158218377
 31
0.0
  0
LINE
  5
6C7
330
17
100
AcDbEntity
  8
4
100
AcDbLine
 10
1889.440880143078
 20
106.0294618218377
 30
0.0
 11
1839.440882143078
 21
206.0294578218377
 31
0.0
  0
ARC
  5
6C8
330
17
100
AcDbEntity
  8
4
100
AcDbCircle
 10
1859.440880143078
 20
126.0294598218377
 30
0.0
 40
19.999998
100
AcDbArc
 50
180.0006989997668
 51
270.0006990000002
  0
LINE
  5
6C9
330
17
100
AcDbEntity
  8
L-CENTER
100
AcDbLine
 10
1837.521235076008
 20
284.2262338218377
 30
0.0
 11
1883.521237076008
 21
284.2225738218377
 31
0.0
  0
LINE
  5
6CA
330
17
100
AcDbEntity
  8
L-CENTER
100
AcDbLine
 10
1687.440884143078
 20
290.0380678218377
 30
0.0
 11
1687.440884143078
 21
122.0208478218377
 31
0.0
  0
ARC
  5
6CC
330
17
100
AcDbEntity
  8
4
100
AcDbCircle
 10
1359.440882143078
 20
206.0294578218377
 30
0.0
 40
399.9999300000001
100
AcDbArc
 50
350.957092
 51
9.043759000000053
  0
LINE
  5
6CD
330
17
100
AcDbEntity
  8
L-CENTER
100
AcDbLine
 10
1724.195485343723
 20
169.2748583004018
 30
0.0
 11
1753.216760769286
 21
140.2535742828823
 31
0.0
  0
CIRCLE
  5
6CE
330
17
100
AcDbEntity
  8
4
100
AcDbCircle
 10
1738.706018143078
 20
154.7643238218377
 30
0.0
 40
8.660154
  0
LINE
  5
6CF
330
17
100
AcDbEntity
  8
4
100
AcDbLine
 10
1731.634976143078
 20
161.8356118218377
 30
0.0
 11
1741.294394143078
 21
164.4235018218377
 31
0.0
  0
LINE
  5
6D0
330
17
100
AcDbEntity
  8
4
100
AcDbLine
 10
1745.776820143078
 20
147.6930298218377
 30
0.0
 11
1736.117642143078
 21
145.1051398218377
 31
0.0
  0
LINE
  5
6D1
330
17
100
AcDbEntity
  8
4
100
AcDbLine
 10
1643.246792143078
 20
161.8356118218377
 30
0.0
 11
1645.834928143078
 21
152.1764338218377
 31
0.0
  0
LINE
  5
6D2
330
17
100
AcDbEntity
  8
4
100
AcDbLine
 10
1645.834928143078
 20
152.1764338218377
 30
0.0
 11
1638.764126143078
 21
145.1051398218377
 31
0.0
  0
LINE
  5
6D3
330
17
100
AcDbEntity
  8
4
100
AcDbLine
 10
1633.587368143078
 20
164.4235018218377
 30
0.0
 11
1643.246792143078
 21
161.8356118218377
 31
0.0
  0
LINE
  5
6D4
330
17
100
AcDbEntity
  8
4
100
AcDbLine
 10
1736.117642143078
 20
145.1051398218377
 30
0.0
 11
1729.046840143078
 21
152.1764338218377
 31
0.0
  0
LINE
  5
6D5
330
17
100
AcDbEntity
  8
4
100
AcDbLine
 10
1729.046840143078
 20
152.1764338218377
 30
0.0
 11
1731.634976143078
 21
161.8356118218377
 31
0.0
  0
ARC
  5
6DB
330
17
100
AcDbEntity
  8
4
100
AcDbCircle
 10
1749.530480143078
 20
143.9401018218377
 30
0.0
 40
4.999896
100
AcDbArc
 50
279.0433169999993
 51
350.956685
  0
LINE
  5
6DC
330
17
100
AcDbEntity
  8
4
100
AcDbLine
 10
1741.294394143078
 20
164.4235018218377
 30
0.0
 11
1748.365196143078
 21
157.3522138218377
 31
0.0
  0
LINE
  5
6DD
330
17
100
AcDbEntity
  8
4
100
AcDbLine
 10
1748.365196143078
 20
157.3522138218377
 30
0.0
 11
1745.776820143078
 21
147.6930298218377
 31
0.0
  0
LINE
  5
6DE
330
17
100
AcDbEntity
  8
L-CENTER
100
AcDbLine
 10
1724.195481504118
 20
242.7840611828778
 30
0.0
 11
1753.21676122566
 21
271.8053409044194
 31
0.0
  0
CIRCLE
  5
6DF
330
17
100
AcDbEntity
  8
4
100
AcDbCircle
 10
1738.706018143078
 20
257.2945978218377
 30
0.0
 40
8.660154
  0
LINE
  5
6E0
330
17
100
AcDbEntity
  8
4
100
AcDbLine
 10
1741.294394143078
 20
247.6354138218377
 30
0.0
 11
1731.635216143078
 21
250.2233038218377
 31
0.0
  0
LINE
  5
6E1
330
17
100
AcDbEntity
  8
4
100
AcDbLine
 10
1736.117642143078
 20
266.9537758218377
 30
0.0
 11
1745.777060143078
 21
264.3658858218377
 31
0.0
  0
LINE
  5
6E2
330
17
100
AcDbEntity
  8
4
100
AcDbLine
 10
1638.764126143078
 20
266.9537758218377
 30
0.0
 11
1645.834928143078
 21
259.8824878218377
 31
0.0
  0
LINE
  5
6E3
330
17
100
AcDbEntity
  8
4
100
AcDbLine
 10
1645.834928143078
 20
259.8824878218377
 30
0.0
 11
1643.246546143078
 21
250.2233038218377
 31
0.0
  0
LINE
  5
6E4
330
17
100
AcDbEntity
  8
4
100
AcDbLine
 10
1643.246546143078
 20
250.2233038218377
 30
0.0
 11
1633.587368143078
 21
247.6354138218377
 31
0.0
  0
LINE
  5
6E5
330
17
100
AcDbEntity
  8
4
100
AcDbLine
 10
1731.635216143078
 20
250.2233038218377
 30
0.0
 11
1729.046840143078
 21
259.8824878218377
 31
0.0
  0
LINE
  5
6E6
330
17
100
AcDbEntity
  8
4
100
AcDbLine
 10
1729.046840143078
 20
259.8824878218377
 30
0.0
 11
1736.117642143078
 21
266.9537758218377
 31
0.0
  0
LINE
  5
6E7
330
17
100
AcDbEntity
  8
4
100
AcDbLine
 10
1745.777060143078
 20
264.3658858218377
 30
0.0
 11
1748.365196143078
 21
254.7067018218377
 31
0.0
  0
LINE
  5
6E8
330
17
100
AcDbEntity
  8
4
100
AcDbLine
 10
1748.365196143078
 20
254.7067018218377
 30
0.0
 11
1741.294394143078
 21
247.6354138218377
 31
0.0
  0
ARC
  5
6E9
330
17
100
AcDbEntity
  8
4
100
AcDbCircle
 10
1749.530480143078
 20
268.1188138218376
 30
0.0
 40
4.999896
100
AcDbArc
 50
9.043304000000497
 51
80.95668300000064
  0
ARC
  5
6EA
330
17
100
AcDbEntity
  8
4
100
AcDbCircle
 10
-4930.553961856923
 20
399.0294598218377
 30
0.0
 40
6799.999986000001
100
AcDbArc
 50
358.608554
 51
358.9316859999999
  0
ARC
  5
6EC
330
17
100
AcDbEntity
  8
4
100
AcDbCircle
 10
1926.440882143078
 20
103.0294618218377
 30
0.0
 40
3.0
100
AcDbArc
 50
0.0
 51
90.0
  0
LINE
  5
6EF
330
17
100
AcDbEntity
  8
4
100
AcDbLine
 10
1901.441612143078
 20
325.8180298218377
 30
0.0
 11
1901.440394143078
 21
310.8180298218377
 31
0.0
  0
LINE
  5
6F0
330
17
100
AcDbEntity
  8
4
100
AcDbLine
 10
1893.941858143078
 20
328.3187638218377
 30
0.0
 11
1893.940148143078
 21
308.3187658218377
 31
0.0
  0
LINE
  5
6F1
330
17
100
AcDbEntity
  8
4
100
AcDbLine
 10
1891.441856143078
 20
328.3190098218377
 30
0.0
 11
1891.440146143078
 21
308.3190118218376
 31
0.0
  0
ARC
  5
6F2
330
17
100
AcDbEntity
  8
4
100
AcDbCircle
 10
1897.620566143078
 20
310.8185218218377
 30
0.0
 40
3.819713999999999
100
AcDbArc
 50
319.113114999999
 51
40.87656000000063
  0
LINE
  5
6F3
330
17
100
AcDbEntity
  8
4
100
AcDbLine
 10
1900.582238143078
 20
308.3182798218377
 30
0.0
 11
1891.440146143078
 21
308.3190118218376
 31
0.0
  0
LINE
  5
6F4
330
17
100
AcDbEntity
  8
4
100
AcDbLine
 10
1878.941858143078
 20
293.2235518218376
 30
0.0
 11
1878.940148143078
 21
275.2235518218376
 31
0.0
  0
LINE
  5
6F5
330
17
100
AcDbEntity
  8
4
100
AcDbLine
 10
1869.942104143078
 20
296.2242838218377
 30
0.0
 11
1869.939902143078
 21
272.2242838218377
 31
0.0
  0
LINE
  5
6F6
330
17
100
AcDbEntity
  8
4
100
AcDbLine
 10
1867.442102143078
 20
296.2245298218377
 30
0.0
 11
1867.439906143078
 21
272.2245298218377
 31
0.0
  0
ARC
  5
6F7
330
17
100
AcDbEntity
  8
4
100
AcDbCircle
 10
1874.356406143078
 20
275.2237918218377
 30
0.0
 40
4.583598
100
AcDbArc
 50
319.1123719999993
 51
40.87702700000057
  0
LINE
  5
6F8
330
17
100
AcDbEntity
  8
4
100
AcDbLine
 10
1877.910362143078
 20
272.2235518218376
 30
0.0
 11
1867.439906143078
 21
272.2245298218377
 31
0.0
  0
LINE
  5
6F9
330
17
100
AcDbEntity
  8
4
100
AcDbLine
 10
1891.440884143078
 20
274.0294558218377
 30
0.0
 11
1878.781670143078
 21
274.0294558218377
 31
0.0
  0
LINE
  5
6FA
330
17
100
AcDbEntity
  8
4
100
AcDbLine
 10
1877.912558143078
 20
296.2235518218376
 30
0.0
 11
1867.442102143078
 21
296.2245298218377
 31
0.0
  0
LINE
  5
6FB
330
17
100
AcDbEntity
  8
4
100
AcDbLine
 10
1869.940880143078
 20
284.2242838218377
 30
0.0
 11
1867.441124143078
 21
286.7245258218377
 31
0.0
  0
LINE
  5
6FC
330
17
100
AcDbEntity
  8
4
100
AcDbLine
 10
1869.940880143078
 20
281.7242818218377
 30
0.0
 11
1867.440884143078
 21
284.2245298218377
 31
0.0
  0
ARC
  5
6FD
330
17
100
AcDbEntity
  8
4
100
AcDbCircle
 10
1860.940880143078
 20
284.2250158218377
 30
0.0
 40
18.000018
100
AcDbArc
 50
340.5237549999998
 51
19.46615800000007
  0
LINE
  5
6FE
330
17
100
AcDbEntity
  8
4
100
AcDbLine
 10
1869.940394143078
 20
278.2242838218377
 30
0.0
 11
1869.941612143078
 21
290.2242838218377
 31
0.0
  0
LINE
  5
6FF
330
17
100
AcDbEntity
  8
4
100
AcDbLine
 10
1869.940394143078
 20
278.2242838218377
 30
0.0
 11
1877.910854143078
 21
278.2235518218376
 31
0.0
  0
LINE
  5
700
330
17
100
AcDbEntity
  8
4
100
AcDbLine
 10
1869.941612143078
 20
290.2242838218377
 30
0.0
 11
1877.912072143078
 21
290.2235518218376
 31
0.0
  0
ARC
  5
701
330
17
100
AcDbEntity
  8
4
100
AcDbCircle
 10
1874.358116143078
 20
293.2237918218377
 30
0.0
 40
4.583598
100
AcDbArc
 50
319.1123719999993
 51
40.87702700000057
  0
LINE
  5
702
330
17
100
AcDbEntity
  8
4
100
AcDbLine
 10
1893.940640143078
 20
313.3187638218377
 30
0.0
 11
1900.582730143078
 21
313.3182778218377
 31
0.0
  0
LINE
  5
703
330
17
100
AcDbEntity
  8
4
100
AcDbLine
 10
1893.941372143078
 20
323.3187658218377
 30
0.0
 11
1900.583462143078
 21
323.3182798218377
 31
0.0
  0
LINE
  5
704
330
17
100
AcDbEntity
  8
4
100
AcDbLine
 10
1900.583948143078
 20
328.3182778218377
 30
0.0
 11
1891.441856143078
 21
328.3190098218377
 31
0.0
  0
LINE
  5
705
330
17
100
AcDbEntity
  8
4
100
AcDbLine
 10
1893.940640143078
 20
347.9962558218376
 30
0.0
 11
1900.582730143078
 21
347.9957698218377
 31
0.0
  0
LINE
  5
706
330
17
100
AcDbEntity
  8
4
100
AcDbLine
 10
1900.582238143078
 20
342.9957658218377
 30
0.0
 11
1891.440146143078
 21
342.9964978218377
 31
0.0
  0
LINE
  5
707
330
17
100
AcDbEntity
  8
4
100
AcDbLine
 10
1892.940884143078
 20
341.5294558218377
 30
0.0
 11
1907.440880143078
 21
341.5294558218377
 31
0.0
  0
LINE
  5
708
330
17
100
AcDbEntity
  8
4
100
AcDbLine
 10
1893.941372143078
 20
357.9962578218376
 30
0.0
 11
1900.583462143078
 21
357.9957658218377
 31
0.0
  0
LINE
  5
709
330
17
100
AcDbEntity
  8
4
100
AcDbLine
 10
1900.583948143078
 20
362.9957698218377
 30
0.0
 11
1891.441856143078
 21
362.9965018218377
 31
0.0
  0
LINE
  5
70A
330
17
100
AcDbEntity
  8
4
100
AcDbLine
 10
1893.941858143078
 20
362.9962558218376
 30
0.0
 11
1893.940148143078
 21
342.9962578218376
 31
0.0
  0
LINE
  5
70B
330
17
100
AcDbEntity
  8
4
100
AcDbLine
 10
1891.441856143078
 20
362.9965018218377
 30
0.0
 11
1891.440146143078
 21
342.9964978218377
 31
0.0
  0
LINE
  5
70C
330
17
100
AcDbEntity
  8
4
100
AcDbLine
 10
1868.940884143078
 20
316.0294558218377
 30
0.0
 11
1876.440884143078
 21
316.0294558218377
 31
0.0
  0
LINE
  5
70D
330
17
100
AcDbEntity
  8
4
100
AcDbLine
 10
1892.940884143078
 20
328.3190098218377
 30
0.0
 11
1892.940884143078
 21
342.9964978218377
 31
0.0
  0
LINE
  5
70E
330
17
100
AcDbEntity
  8
4
100
AcDbLine
 10
1891.441124143078
 20
320.8192558218377
 30
0.0
 11
1893.940880143078
 21
318.3190078218377
 31
0.0
  0
LINE
  5
70F
330
17
100
AcDbEntity
  8
4
100
AcDbLine
 10
1891.440884143078
 20
318.3190078218377
 30
0.0
 11
1893.940880143078
 21
315.8187658218377
 31
0.0
  0
LINE
  5
710
330
17
100
AcDbEntity
  8
4
100
AcDbLine
 10
1891.440884143078
 20
316.0294558218377
 30
0.0
 11
1876.440884143078
 21
316.0294558218377
 31
0.0
  0
LINE
  5
711
330
17
100
AcDbEntity
  8
4
100
AcDbLine
 10
1891.441124143078
 20
355.4967418218378
 30
0.0
 11
1893.940880143078
 21
352.9964998218377
 31
0.0
  0
LINE
  5
712
330
17
100
AcDbEntity
  8
4
100
AcDbLine
 10
1891.440884143078
 20
352.9964998218377
 30
0.0
 11
1893.940880143078
 21
350.4962578218376
 31
0.0
  0
LINE
  5
713
330
17
100
AcDbEntity
  8
4
100
AcDbLine
 10
1901.441612143078
 20
360.4955218218377
 30
0.0
 11
1901.440394143078
 21
345.4955218218377
 31
0.0
  0
ARC
  5
714
330
17
100
AcDbEntity
  8
4
100
AcDbCircle
 10
1897.620566143078
 20
345.4960138218378
 30
0.0
 40
3.819713999999999
100
AcDbArc
 50
319.1131149999977
 51
40.87656000000063
  0
ARC
  5
715
330
17
100
AcDbEntity
  8
4
100
AcDbCircle
 10
1886.440880143078
 20
318.3194998218377
 30
0.0
 40
14.999958
100
AcDbArc
 50
340.5237049999998
 51
19.46626399999993
  0
ARC
  5
716
330
17
100
AcDbEntity
  8
4
100
AcDbCircle
 10
1897.621790143078
 20
325.8185218218377
 30
0.0
 40
3.819713999999999
100
AcDbArc
 50
319.1131049999983
 51
40.87656000000063
  0
ARC
  5
717
330
17
100
AcDbEntity
  8
4
100
AcDbCircle
 10
1886.440880143078
 20
352.9969858218378
 30
0.0
 40
14.999958
100
AcDbArc
 50
340.5237009999997
 51
19.46626000000009
  0
ARC
  5
718
330
17
100
AcDbEntity
  8
4
100
AcDbCircle
 10
1897.621790143078
 20
360.4960138218378
 30
0.0
 40
3.819713999999999
100
AcDbArc
 50
319.1131049999983
 51
40.87656000000063
  0
LINE
  5
719
330
17
100
AcDbEntity
  8
L-CENTER
100
AcDbLine
 10
1837.521235076008
 20
513.8363398218376
 30
0.0
 11
1883.521237076008
 21
513.8326798218377
 31
0.0
  0
LINE
  5
71E
330
17
100
AcDbEntity
  8
4
100
AcDbLine
 10
1869.942104143078
 20
525.8343898218377
 30
0.0
 11
1869.939902143078
 21
501.8343898218377
 31
0.0
  0
LINE
  5
71F
330
17
100
AcDbEntity
  8
4
100
AcDbLine
 10
1867.442102143078
 20
525.8346358218378
 30
0.0
 11
1867.439906143078
 21
501.8346358218378
 31
0.0
  0
ARC
  5
720
330
17
100
AcDbEntity
  8
4
100
AcDbCircle
 10
1874.358116143078
 20
522.8339038218378
 30
0.0
 40
4.583598
100
AcDbArc
 50
319.1123619999994
 51
40.87701799999994
  0
LINE
  5
721
330
17
100
AcDbEntity
  8
4
100
AcDbLine
 10
1878.941858143078
 20
522.8336578218377
 30
0.0
 11
1878.940148143078
 21
504.8334658218378
 31
0.0
  0
ARC
  5
723
330
17
100
AcDbEntity
  8
4
100
AcDbCircle
 10
1897.620566143078
 20
451.5619258218378
 30
0.0
 40
3.819713999999999
100
AcDbArc
 50
319.1131149999996
 51
40.87656000000063
  0
LINE
  5
724
330
17
100
AcDbEntity
  8
4
100
AcDbLine
 10
1901.441612143078
 20
466.5614398218377
 30
0.0
 11
1901.440394143078
 21
451.5614398218377
 31
0.0
  0
LINE
  5
725
330
17
100
AcDbEntity
  8
4
100
AcDbLine
 10
1893.941858143078
 20
469.0621738218376
 30
0.0
 11
1893.940148143078
 21
449.0621698218376
 31
0.0
  0
LINE
  5
726
330
17
100
AcDbEntity
  8
4
100
AcDbLine
 10
1891.441856143078
 20
469.0624138218377
 30
0.0
 11
1891.440146143078
 21
449.0624158218377
 31
0.0
  0
LINE
  5
727
330
17
100
AcDbEntity
  8
4
100
AcDbLine
 10
1900.582238143078
 20
449.0616838218377
 30
0.0
 11
1891.440146143078
 21
449.0624158218377
 31
0.0
  0
LINE
  5
728
330
17
100
AcDbEntity
  8
4
100
AcDbLine
 10
1892.940884143078
 20
436.5294598218377
 30
0.0
 11
1907.440880143078
 21
436.5294598218377
 31
0.0
  0
LINE
  5
729
330
17
100
AcDbEntity
  8
4
100
AcDbLine
 10
1917.440882143078
 20
442.0294558218377
 30
0.0
 11
1917.440882143078
 21
434.0294578218377
 31
0.0
  0
LINE
  5
72A
330
17
100
AcDbEntity
  8
4
100
AcDbLine
 10
1893.940640143078
 20
454.0621738218376
 30
0.0
 11
1900.582730143078
 21
454.0616818218377
 31
0.0
  0
LINE
  5
72B
330
17
100
AcDbEntity
  8
4
100
AcDbLine
 10
1893.941372143078
 20
464.0621698218376
 30
0.0
 11
1900.583462143078
 21
464.0616838218377
 31
0.0
  0
LINE
  5
72C
330
17
100
AcDbEntity
  8
4
100
AcDbLine
 10
1900.583948143078
 20
469.0616818218377
 30
0.0
 11
1891.441856143078
 21
469.0624138218377
 31
0.0
  0
LINE
  5
72D
330
17
100
AcDbEntity
  8
4
100
AcDbLine
 10
1891.441124143078
 20
461.5626598218378
 30
0.0
 11
1893.940880143078
 21
459.0624178218377
 31
0.0
  0
LINE
  5
72E
330
17
100
AcDbEntity
  8
4
100
AcDbLine
 10
1891.440884143078
 20
459.0624178218377
 30
0.0
 11
1893.940880143078
 21
456.5621698218376
 31
0.0
  0
LINE
  5
72F
330
17
100
AcDbEntity
  8
4
100
AcDbLine
 10
1877.821658143078
 20
501.8336638218377
 30
0.0
 11
1867.439906143078
 21
501.8346358218378
 31
0.0
  0
LINE
  5
730
330
17
100
AcDbEntity
  8
4
100
AcDbLine
 10
1868.755580143078
 20
496.0294558218377
 30
0.0
 11
1876.440884143078
 21
496.0294558218377
 31
0.0
  0
LINE
  5
731
330
17
100
AcDbEntity
  8
4
100
AcDbLine
 10
1869.940880143078
 20
513.8343898218377
 30
0.0
 11
1867.441124143078
 21
516.3346318218378
 31
0.0
  0
LINE
  5
732
330
17
100
AcDbEntity
  8
4
100
AcDbLine
 10
1869.940880143078
 20
511.3343878218377
 30
0.0
 11
1867.440884143078
 21
513.8346358218378
 31
0.0
  0
LINE
  5
733
330
17
100
AcDbEntity
  8
4
100
AcDbLine
 10
1869.940394143078
 20
507.8343898218377
 30
0.0
 11
1877.910854143078
 21
507.8336578218377
 31
0.0
  0
LINE
  5
734
330
17
100
AcDbEntity
  8
4
100
AcDbLine
 10
1869.941612143078
 20
519.8343898218377
 30
0.0
 11
1877.912072143078
 21
519.8336578218377
 31
0.0
  0
LINE
  5
735
330
17
100
AcDbEntity
  8
4
100
AcDbLine
 10
1869.940394143078
 20
507.8343898218377
 30
0.0
 11
1869.941612143078
 21
519.8343898218377
 31
0.0
  0
LINE
  5
736
330
17
100
AcDbEntity
  8
4
100
AcDbLine
 10
1877.868860143078
 20
504.0294598218377
 30
0.0
 11
1882.440884143078
 21
504.0294598218377
 31
0.0
  0
ARC
  5
737
330
17
100
AcDbEntity
  8
4
100
AcDbCircle
 10
1860.940880143078
 20
513.8351218218377
 30
0.0
 40
18.000018
100
AcDbArc
 50
340.5237549999997
 51
19.46615799999971
  0
ARC
  5
738
330
17
100
AcDbEntity
  8
4
100
AcDbCircle
 10
1874.356406143078
 20
504.8339038218378
 30
0.0
 40
4.583598
100
AcDbArc
 50
319.1137590000008
 51
40.87701799999994
  0
LINE
  5
739
330
17
100
AcDbEntity
  8
4
100
AcDbLine
 10
1891.440884143078
 20
504.0294598218377
 30
0.0
 11
1878.868862143078
 21
504.0294598218377
 31
0.0
  0
LINE
  5
73A
330
17
100
AcDbEntity
  8
4
100
AcDbLine
 10
1891.440884143078
 20
496.0294558218377
 30
0.0
 11
1876.440884143078
 21
496.0294558218377
 31
0.0
  0
ARC
  5
73B
330
17
100
AcDbEntity
  8
4
100
AcDbCircle
 10
1886.440880143078
 20
459.0629038218376
 30
0.0
 40
14.999958
100
AcDbArc
 50
340.5237050000003
 51
19.46626399999953
  0
ARC
  5
73C
330
17
100
AcDbEntity
  8
4
100
AcDbCircle
 10
1897.621790143078
 20
466.5619258218378
 30
0.0
 40
3.819713999999999
100
AcDbArc
 50
319.1131049999983
 51
40.87656000000063
  0
ARC
  5
73E
330
17
100
AcDbEntity
  8
4
100
AcDbCircle
 10
-4930.553961856923
 20
399.0294598218377
 30
0.0
 40
6800.000028
100
AcDbArc
 50
1.068497000000521
 51
1.391460000000105
  0
LINE
  5
73F
330
17
100
AcDbEntity
  8
4
100
AcDbLine
 10
1877.912558143078
 20
525.8336578218377
 30
0.0
 11
1867.442102143078
 21
525.8346358218378
 31
0.0
  0
ARC
  5
741
330
17
100
AcDbEntity
  8
4
100
AcDbCircle
 10
1631.440880143078
 20
718.0294558218377
 30
0.0
 40
1.999998
100
AcDbArc
 50
90.0
 51
180.0
  0
LINE
  5
746
330
17
100
AcDbEntity
  8
4
100
AcDbLine
 10
1608.440882143078
 20
684.0294538218377
 30
0.0
 11
1605.409388143078
 21
684.0294538218377
 31
0.0
  0
LINE
  5
747
330
17
100
AcDbEntity
  8
4
100
AcDbLine
 10
1610.440880143078
 20
714.0294538218377
 30
0.0
 11
1629.440882143078
 21
714.0294538218377
 31
0.0
  0
ARC
  5
748
330
17
100
AcDbEntity
  8
4
100
AcDbCircle
 10
1610.440880143078
 20
712.0294558218377
 30
0.0
 40
1.999998
100
AcDbArc
 50
90.0
 51
180.0
  0
LINE
  5
749
330
17
100
AcDbEntity
  8
L-CENTER
100
AcDbLine
 10
1837.521235076008
 20
676.1952298218378
 30
0.0
 11
1883.521237076008
 21
676.1915638218377
 31
0.0
  0
LINE
  5
74A
330
17
100
AcDbEntity
  8
4
100
AcDbLine
 10
1865.440880143078
 20
714.0294538218377
 30
0.0
 11
1842.440882143078
 21
714.0294538218377
 31
0.0
  0
ARC
  5
74B
330
17
100
AcDbEntity
  8
4
100
AcDbCircle
 10
1734.440882143078
 20
752.0294578218377
 30
0.0
 40
29.999904
100
AcDbArc
 50
294.4275930000003
 51
245.5724069999997
  0
CIRCLE
  5
74C
330
17
100
AcDbEntity
  8
4
100
AcDbCircle
 10
1734.440882143078
 20
752.0294578218377
 30
0.0
 40
17.500002
  0
LINE
  5
74D
330
17
100
AcDbEntity
  8
L-CENTER
100
AcDbLine
 10
1777.429160143078
 20
752.0294578218377
 30
0.0
 11
1692.641324143078
 21
752.0294578218377
 31
0.0
  0
LINE
  5
74E
330
17
100
AcDbEntity
  8
4
100
AcDbLine
 10
1837.440884143078
 20
720.0294538218377
 30
0.0
 11
1631.440880143078
 21
720.0294538218377
 31
0.0
  0
LINE
  5
74F
330
17
100
AcDbEntity
  8
4
100
AcDbLine
 10
1781.440880143078
 20
722.0294578218377
 30
0.0
 11
1687.440884143078
 21
722.0294578218377
 31
0.0
  0
LINE
  5
750
330
17
100
AcDbEntity
  8
4
100
AcDbLine
 10
1756.440884143078
 20
722.0294578218377
 30
0.0
 11
1712.440880143078
 21
722.0294578218377
 31
0.0
  0
LINE
  5
751
330
17
100
AcDbEntity
  8
4
100
AcDbLine
 10
1712.440880143078
 20
722.0294578218377
 30
0.0
 11
1756.440884143078
 21
722.0294578218377
 31
0.0
  0
LINE
  5
752
330
17
100
AcDbEntity
  8
4
100
AcDbLine
 10
1756.440884143078
 20
722.0294578218377
 30
0.0
 11
1712.440880143078
 21
722.0294578218377
 31
0.0
  0
LINE
  5
753
330
17
100
AcDbEntity
  8
4
100
AcDbLine
 10
1712.440880143078
 20
722.0294578218377
 30
0.0
 11
1756.440884143078
 21
722.0294578218377
 31
0.0
  0
LINE
  5
754
330
17
100
AcDbEntity
  8
4
100
AcDbLine
 10
1746.626672143078
 20
731.0294578218377
 30
0.0
 11
1722.255092143078
 21
731.0294578218377
 31
0.0
  0
LINE
  5
755
330
17
100
AcDbEntity
  8
4
100
AcDbLine
 10
1734.440882143078
 20
734.5294558218377
 30
0.0
 11
1746.626672143078
 21
731.0294578218377
 31
0.0
  0
LINE
  5
756
330
17
100
AcDbEntity
  8
4
100
AcDbLine
 10
1722.255092143078
 20
731.0294578218377
 30
0.0
 11
1734.440882143078
 21
734.5294558218377
 31
0.0
  0
LINE
  5
757
330
17
100
AcDbEntity
  8
4
100
AcDbLine
 10
1687.440884143078
 20
720.0294538218377
 30
0.0
 11
1687.440884143078
 21
722.0294578218377
 31
0.0
  0
LINE
  5
758
330
17
100
AcDbEntity
  8
4
100
AcDbLine
 10
1716.440882143078
 20
728.0294578218377
 30
0.0
 11
1711.440884143078
 21
728.0294578218377
 31
0.0
  0
LINE
  5
759
330
17
100
AcDbEntity
  8
4
100
AcDbLine
 10
1714.522184143078
 20
729.5963518218377
 30
0.0
 11
1714.522184143078
 21
728.0294578218377
 31
0.0
  0
LINE
  5
75A
330
17
100
AcDbEntity
  8
4
100
AcDbLine
 10
1711.440884143078
 20
724.0294558218377
 30
0.0
 11
1722.010706143078
 21
724.0294558218377
 31
0.0
  0
LINE
  5
75B
330
17
100
AcDbEntity
  8
4
100
AcDbLine
 10
1712.440880143078
 20
722.0294578218377
 30
0.0
 11
1712.440880143078
 21
724.0294558218377
 31
0.0
  0
LINE
  5
75C
330
17
100
AcDbEntity
  8
4
100
AcDbLine
 10
1711.440884143078
 20
724.0294558218377
 30
0.0
 11
1711.440884143078
 21
728.0294578218377
 31
0.0
  0
LINE
  5
75D
330
17
100
AcDbEntity
  8
4
100
AcDbLine
 10
1722.255092143078
 20
731.0294578218377
 30
0.0
 11
1721.940884143078
 21
722.0294578218377
 31
0.0
  0
LINE
  5
75E
330
17
100
AcDbEntity
  8
4
100
AcDbLine
 10
1746.871058143078
 20
724.0294558218377
 30
0.0
 11
1757.440880143078
 21
724.0294558218377
 31
0.0
  0
LINE
  5
75F
330
17
100
AcDbEntity
  8
4
100
AcDbLine
 10
1746.626672143078
 20
731.0294578218377
 30
0.0
 11
1746.940880143078
 21
722.0294578218377
 31
0.0
  0
LINE
  5
760
330
17
100
AcDbEntity
  8
4
100
AcDbLine
 10
1754.359340143078
 20
729.5961058218377
 30
0.0
 11
1754.359340143078
 21
728.0294578218377
 31
0.0
  0
LINE
  5
761
330
17
100
AcDbEntity
  8
4
100
AcDbLine
 10
1752.440882143078
 20
728.0294578218377
 30
0.0
 11
1757.440880143078
 21
728.0294578218377
 31
0.0
  0
LINE
  5
762
330
17
100
AcDbEntity
  8
4
100
AcDbLine
 10
1757.440880143078
 20
724.0294558218377
 30
0.0
 11
1757.440880143078
 21
728.0294578218377
 31
0.0
  0
LINE
  5
763
330
17
100
AcDbEntity
  8
4
100
AcDbLine
 10
1756.440884143078
 20
724.0294558218377
 30
0.0
 11
1756.440884143078
 21
722.0294578218377
 31
0.0
  0
LINE
  5
764
330
17
100
AcDbEntity
  8
4
100
AcDbLine
 10
1781.440880143078
 20
722.0294578218377
 30
0.0
 11
1781.440880143078
 21
720.0294538218377
 31
0.0
  0
ARC
  5
765
330
17
100
AcDbEntity
  8
4
100
AcDbCircle
 10
1837.440884143078
 20
718.0294558218377
 30
0.0
 40
1.999998
100
AcDbArc
 50
0.0
 51
90.0
  0
LINE
  5
766
330
17
100
AcDbEntity
  8
4
100
AcDbLine
 10
1839.440882143078
 20
714.0294538218377
 30
0.0
 11
1842.440882143078
 21
714.0294538218377
 31
0.0
  0
LINE
  5
769
330
17
100
AcDbEntity
  8
4
100
AcDbLine
 10
1877.910362143078
 20
664.1925418218377
 30
0.0
 11
1867.439906143078
 21
664.1935198218375
 31
0.0
  0
LINE
  5
76A
330
17
100
AcDbEntity
  8
4
100
AcDbLine
 10
1877.912558143078
 20
688.1925418218377
 30
0.0
 11
1867.442102143078
 21
688.1935198218375
 31
0.0
  0
LINE
  5
76B
330
17
100
AcDbEntity
  8
4
100
AcDbLine
 10
1869.940880143078
 20
676.1932738218377
 30
0.0
 11
1867.441124143078
 21
678.6935218218377
 31
0.0
  0
LINE
  5
76C
330
17
100
AcDbEntity
  8
4
100
AcDbLine
 10
1869.940880143078
 20
673.6932778218377
 30
0.0
 11
1867.440884143078
 21
676.1935198218375
 31
0.0
  0
LINE
  5
76D
330
17
100
AcDbEntity
  8
4
100
AcDbLine
 10
1867.442102143078
 20
688.1935198218375
 30
0.0
 11
1867.439906143078
 21
664.1935198218375
 31
0.0
  0
LINE
  5
76E
330
17
100
AcDbEntity
  8
4
100
AcDbLine
 10
1869.940394143078
 20
670.1932738218377
 30
0.0
 11
1877.910854143078
 21
670.1925418218377
 31
0.0
  0
LINE
  5
76F
330
17
100
AcDbEntity
  8
4
100
AcDbLine
 10
1869.941612143078
 20
682.1932738218377
 30
0.0
 11
1877.912072143078
 21
682.1925418218377
 31
0.0
  0
LINE
  5
770
330
17
100
AcDbEntity
  8
4
100
AcDbLine
 10
1869.942104143078
 20
688.1932738218377
 30
0.0
 11
1869.939902143078
 21
664.1932738218377
 31
0.0
  0
LINE
  5
771
330
17
100
AcDbEntity
  8
4
100
AcDbLine
 10
1869.940394143078
 20
670.1932738218377
 30
0.0
 11
1869.941612143078
 21
682.1932738218377
 31
0.0
  0
ARC
  5
772
330
17
100
AcDbEntity
  8
4
100
AcDbCircle
 10
1860.940880143078
 20
676.1940058218377
 30
0.0
 40
18.000018
100
AcDbArc
 50
340.5237549999997
 51
19.46615799999971
  0
ARC
  5
773
330
17
100
AcDbEntity
  8
4
100
AcDbCircle
 10
1874.356406143078
 20
667.1927878218378
 30
0.0
 40
4.583598
100
AcDbArc
 50
319.1123719999998
 51
40.87702699999949
  0
ARC
  5
774
330
17
100
AcDbEntity
  8
4
100
AcDbCircle
 10
1874.358116143078
 20
685.1927878218378
 30
0.0
 40
4.583598
100
AcDbArc
 50
319.1123719999998
 51
40.87702699999949
  0
LINE
  5
775
330
17
100
AcDbEntity
  8
4
100
AcDbLine
 10
1878.941858143078
 20
685.1925418218377
 30
0.0
 11
1878.940148143078
 21
667.1925418218377
 31
0.0
  0
ARC
  5
776
330
17
100
AcDbEntity
  8
4
100
AcDbCircle
 10
1865.440880143078
 20
712.0294558218377
 30
0.0
 40
1.999998
100
AcDbArc
 50
0.0
 51
90.0
  0
LINE
  5
779
330
17
100
AcDbEntity
  8
4
100
AcDbLine
 10
2067.440882143078
 20
345.0294598218377
 30
0.0
 11
2067.440882143078
 21
442.0294558218377
 31
0.0
  0
LINE
  5
77A
330
17
100
AcDbEntity
  8
4
100
AcDbLine
 10
2066.440880143078
 20
434.0294578218377
 30
0.0
 11
2066.440880143078
 21
344.0294578218377
 31
0.0
  0
LINE
  5
77B
330
17
100
AcDbEntity
  8
4
100
AcDbLine
 10
2067.440882143078
 20
345.0294598218377
 30
0.0
 11
2066.440880143078
 21
344.0294578218377
 31
0.0
  0
LINE
  5
77F
330
17
100
AcDbEntity
  8
4
100
AcDbLine
 10
2067.440882143078
 20
433.0294558218377
 30
0.0
 11
2066.440880143078
 21
434.0294578218377
 31
0.0
  0
LINE
  5
78F
330
17
100
AcDbEntity
  8
4
100
AcDbLine
 10
928.3673949472718
 20
595.0294598218375
 30
0.0
 11
928.3673949472718
 21
639.0294598218375
 31
0.0
  0
CIRCLE
  5
790
330
17
100
AcDbEntity
  8
4
100
AcDbCircle
 10
913.3673949472718
 20
608.0294598218379
 30
0.0
 40
5.0
  0
LINE
  5
791
330
17
100
AcDbEntity
  8
4
100
AcDbLine
 10
878.3673949472714
 20
605.0294598218375
 30
0.0
 11
878.3673949472718
 21
629.0294598218375
 31
0.0
  0
LINE
  5
792
330
17
100
AcDbEntity
  8
4
100
AcDbLine
 10
863.3673949472714
 20
602.0294598218375
 30
0.0
 11
863.3673949472714
 21
632.0294598218375
 31
0.0
  0
LINE
  5
793
330
17
100
AcDbEntity
  8
4
100
AcDbLine
 10
873.3673949472714
 20
605.0294598218375
 30
0.0
 11
873.3673949472718
 21
629.0294598218375
 31
0.0
  0
LINE
  5
794
330
17
100
AcDbEntity
  8
4
100
AcDbLine
 10
858.3673949472714
 20
597.0294598218375
 30
0.0
 11
858.3673949472714
 21
637.0294598218375
 31
0.0
  0
ARC
  5
795
330
17
100
AcDbEntity
  8
4
100
AcDbCircle
 10
913.3673949472718
 20
608.0294598218379
 30
0.0
 40
11.0
100
AcDbArc
 50
113.9534516247513
 51
66.04654837524868
  0
LINE
  5
796
330
17
100
AcDbEntity
  8
4
100
AcDbLine
 10
828.3673949472718
 20
595.0294598218375
 30
0.0
 11
828.3673949472718
 21
639.0294598218375
 31
0.0
  0
LINE
  5
797
330
17
100
AcDbEntity
  8
4
100
AcDbLine
 10
833.3673949472714
 20
597.0294598218375
 30
0.0
 11
833.3673949472714
 21
637.0294598218375
 31
0.0
  0
LINE
  5
798
330
17
100
AcDbEntity
  8
4
100
AcDbLine
 10
838.3673949472718
 20
602.0294598218375
 30
0.0
 11
838.3673949472718
 21
637.0294598218375
 31
0.0
  0
LINE
  5
799
330
17
100
AcDbEntity
  8
4
100
AcDbLine
 10
831.3673949472718
 20
592.0294598218375
 30
0.0
 11
925.3673949472718
 21
592.0294598218375
 31
0.0
  0
ARC
  5
79A
330
17
100
AcDbEntity
  8
4
100
AcDbCircle
 10
870.3673949472714
 20
605.0294598218375
 30
0.0
 40
8.0
100
AcDbArc
 50
270.0
 51
0.0
  0
ARC
  5
79B
330
17
100
AcDbEntity
  8
4
100
AcDbCircle
 10
870.3673949472714
 20
605.0294598218375
 30
0.0
 40
3.0
100
AcDbArc
 50
270.0000000000021
 51
0.0
  0
LINE
  5
79C
330
17
100
AcDbEntity
  8
4
100
AcDbLine
 10
863.3673949472714
 20
602.0294598218375
 30
0.0
 11
870.3673949472714
 21
602.0294598218375
 31
0.0
  0
LINE
  5
79D
330
17
100
AcDbEntity
  8
4
100
AcDbLine
 10
858.3673949472714
 20
597.0294598218375
 30
0.0
 11
870.3673949472714
 21
597.0294598218375
 31
0.0
  0
LINE
  5
79E
330
17
100
AcDbEntity
  8
4
100
AcDbLine
 10
833.3673949472714
 20
597.0294598218375
 30
0.0
 11
853.3673949472714
 21
597.0294598218375
 31
0.0
  0
LINE
  5
79F
330
17
100
AcDbEntity
  8
4
100
AcDbLine
 10
838.3673949472718
 20
602.0294598218375
 30
0.0
 11
853.3673949472714
 21
602.0294598218375
 31
0.0
  0
ARC
  5
7A0
330
17
100
AcDbEntity
  8
4
100
AcDbCircle
 10
831.3673949472718
 20
595.0294598218375
 30
0.0
 40
3.0
100
AcDbArc
 50
180.0
 51
270.0
  0
LINE
  5
7A1
330
17
100
AcDbEntity
  8
4
100
AcDbLine
 10
853.3673949472714
 20
597.0294598218375
 30
0.0
 11
853.3673949472714
 21
602.0294598218375
 31
0.0
  0
ARC
  5
7A2
330
17
100
AcDbEntity
  8
4
100
AcDbCircle
 10
925.3673949472718
 20
595.0294598218375
 30
0.0
 40
3.0
100
AcDbArc
 50
270.0
 51
0.0
  0
ARC
  5
7A3
330
17
100
AcDbEntity
  8
4
100
AcDbCircle
 10
870.3673949472718
 20
629.0294598218375
 30
0.0
 40
8.0
100
AcDbArc
 50
0.0
 51
90.0
  0
LINE
  5
7A4
330
17
100
AcDbEntity
  8
4
100
AcDbLine
 10
831.3673949472718
 20
642.0294598218375
 30
0.0
 11
925.3673949472718
 21
642.0294598218375
 31
0.0
  0
ARC
  5
7A5
330
17
100
AcDbEntity
  8
4
100
AcDbCircle
 10
870.3673949472718
 20
629.0294598218375
 30
0.0
 40
3.0
100
AcDbArc
 50
0.0
 51
90.0
  0
LINE
  5
7A6
330
17
100
AcDbEntity
  8
4
100
AcDbLine
 10
863.3673949472714
 20
632.0294598218375
 30
0.0
 11
870.3673949472718
 21
632.0294598218375
 31
0.0
  0
LINE
  5
7A7
330
17
100
AcDbEntity
  8
4
100
AcDbLine
 10
858.3673949472714
 20
637.0294598218375
 30
0.0
 11
870.3673949472718
 21
637.0294598218375
 31
0.0
  0
LINE
  5
7A8
330
17
100
AcDbEntity
  8
4
100
AcDbLine
 10
833.3673949472714
 20
637.0294598218375
 30
0.0
 11
838.3673949472718
 21
637.0294598218375
 31
0.0
  0
ARC
  5
7A9
330
17
100
AcDbEntity
  8
4
100
AcDbCircle
 10
831.3673949472718
 20
639.0294598218375
 30
0.0
 40
3.0
100
AcDbArc
 50
90.0
 51
180.0
  0
ARC
  5
7AA
330
17
100
AcDbEntity
  8
4
100
AcDbCircle
 10
925.3673949472718
 20
639.0294598218375
 30
0.0
 40
3.0
100
AcDbArc
 50
0.0
 51
90.0
  0
LINE
  5
7AB
330
17
100
AcDbEntity
  8
4
100
AcDbLine
 10
898.3673949472718
 20
614.5294598218375
 30
0.0
 11
898.3673949472718
 21
619.5294598218375
 31
0.0
  0
LINE
  5
7AC
330
17
100
AcDbEntity
  8
4
100
AcDbLine
 10
883.3673949472718
 20
614.5294598218375
 30
0.0
 11
883.3673949472718
 21
619.5294598218375
 31
0.0
  0
LINE
  5
7AD
330
17
100
AcDbEntity
  8
4
100
AcDbLine
 10
883.3673949472718
 20
619.5294598218375
 30
0.0
 11
898.3673949472718
 21
619.5294598218375
 31
0.0
  0
LINE
  5
7AE
330
17
100
AcDbEntity
  8
4
100
AcDbLine
 10
883.3673949472718
 20
614.5294598218375
 30
0.0
 11
898.3673949472718
 21
614.5294598218375
 31
0.0
  0
CIRCLE
  5
7AF
330
17
100
AcDbEntity
  8
4
100
AcDbCircle
 10
913.3673949472718
 20
627.0294598218375
 30
0.0
 40
5.0
  0
ARC
  5
7B0
330
17
100
AcDbEntity
  8
4
100
AcDbCircle
 10
913.3673949472718
 20
627.0294598218375
 30
0.0
 40
10.0
100
AcDbArc
 50
296.5253520166134
 51
243.4746479833866
  0
ARC
  5
7B1
330
17
100
AcDbEntity
  8
4
100
AcDbCircle
 10
1232.083781018212
 20
264.655913975816
 30
0.0
 40
3.783613929059507
100
AcDbArc
 50
319.5701031551734
 51
40.42989684482659
  0
LINE
  5
7B2
330
17
100
AcDbEntity
  8
4
100
AcDbLine
 10
1228.867394947271
 20
247.4797434674251
 30
0.0
 11
1228.867394947271
 21
267.1096526198721
 31
0.0
  0
LINE
  5
7B3
330
17
100
AcDbEntity
  8
4
100
AcDbLine
 10
1226.367394947271
 20
247.4797434674251
 30
0.0
 11
1226.367394947271
 21
267.1096526198721
 31
0.0
  0
LINE
  5
7B4
330
17
100
AcDbEntity
  8
4
100
AcDbLine
 10
1234.963868001419
 20
262.2021753317599
 30
0.0
 11
1228.867394947271
 21
262.2021753317599
 31
0.0
  0
ARC
  5
7B5
330
17
100
AcDbEntity
  8
4
100
AcDbCircle
 10
1222.088229649812
 20
257.2946980436486
 30
0.0
 40
13.77916529745958
100
AcDbArc
 50
339.1359356360799
 51
20.86406436392003
  0
LINE
  5
7B6
330
17
100
AcDbEntity
  8
4
100
AcDbLine
 10
1235.867394947271
 20
264.655913975816
 30
0.0
 11
1235.867394947271
 21
249.9334821114803
 31
0.0
  0
ARC
  5
7B7
330
17
100
AcDbEntity
  8
4
100
AcDbCircle
 10
1232.083781018212
 20
249.9334821114803
 30
0.0
 40
3.783613929059507
100
AcDbArc
 50
319.5701031551734
 51
40.42989684482659
  0
LINE
  5
7B8
330
17
100
AcDbEntity
  8
4
100
AcDbLine
 10
1234.963868001419
 20
252.3872207555364
 30
0.0
 11
1228.867394947271
 21
252.3872207555364
 31
0.0
  0
LINE
  5
7B9
330
17
100
AcDbEntity
  8
4
100
AcDbLine
 10
1226.367394947271
 20
267.1096526198721
 30
0.0
 11
1234.963868001419
 21
267.1096526198721
 31
0.0
  0
LINE
  5
7BA
330
17
100
AcDbEntity
  8
4
100
AcDbLine
 10
1234.963868001419
 20
247.4797434674251
 30
0.0
 11
1226.367394947271
 21
247.4797434674251
 31
0.0
  0
LINE
  5
7BB
330
17
100
AcDbEntity
  8
L-CENTER
100
AcDbLine
 10
1194.394757499575
 20
257.2946980436486
 30
0.0
 11
1238.735373201852
 21
257.2946980436486
 31
0.0
  0
LINE
  5
7BC
330
17
100
AcDbEntity
  8
L-CENTER
100
AcDbLine
 10
1194.394757499575
 20
154.7642176000268
 30
0.0
 11
1238.735373201852
 21
154.7642176000268
 31
0.0
  0
LINE
  5
7BD
330
17
100
AcDbEntity
  8
4
100
AcDbLine
 10
1226.367394947271
 20
144.9492630238033
 30
0.0
 11
1234.963868001419
 21
144.9492630238033
 31
0.0
  0
LINE
  5
7BE
330
17
100
AcDbEntity
  8
4
100
AcDbLine
 10
1234.963868001419
 20
159.671694888139
 30
0.0
 11
1228.867394947271
 21
159.671694888139
 31
0.0
  0
LINE
  5
7BF
330
17
100
AcDbEntity
  8
4
100
AcDbLine
 10
1234.963868001419
 20
149.8567403119155
 30
0.0
 11
1228.867394947271
 21
149.8567403119155
 31
0.0
  0
LINE
  5
7C0
330
17
100
AcDbEntity
  8
4
100
AcDbLine
 10
1235.867394947271
 20
147.4030016678594
 30
0.0
 11
1235.867394947271
 21
162.1254335321951
 31
0.0
  0
ARC
  5
7C1
330
17
100
AcDbEntity
  8
4
100
AcDbCircle
 10
1222.088229649812
 20
154.7642176000268
 30
0.0
 40
13.77916529745958
100
AcDbArc
 50
339.1359356360799
 51
20.86406436392003
  0
ARC
  5
7C2
330
17
100
AcDbEntity
  8
4
100
AcDbCircle
 10
1232.083781018212
 20
147.4030016678594
 30
0.0
 40
3.783613929059507
100
AcDbArc
 50
319.5701031551734
 51
40.42989684482659
  0
LINE
  5
7C3
330
17
100
AcDbEntity
  8
4
100
AcDbLine
 10
1234.963868001419
 20
164.5791721762503
 30
0.0
 11
1226.367394947271
 21
164.5791721762503
 31
0.0
  0
LINE
  5
7C4
330
17
100
AcDbEntity
  8
4
100
AcDbLine
 10
1228.867394947271
 20
164.5791721762503
 30
0.0
 11
1228.867394947271
 21
144.9492630238033
 31
0.0
  0
ARC
  5
7C5
330
17
100
AcDbEntity
  8
4
100
AcDbCircle
 10
1232.083781018212
 20
162.1254335321951
 30
0.0
 40
3.783613929059507
100
AcDbArc
 50
319.5701031551734
 51
40.42989684482659
  0
LINE
  5
7C6
330
17
100
AcDbEntity
  8
L-CENTER
100
AcDbLine
 10
562.3400323949672
 20
257.2946980436486
 30
0.0
 11
517.9994166926908
 21
257.2946980436486
 31
0.0
  0
LINE
  5
7C7
330
17
100
AcDbEntity
  8
4
100
AcDbLine
 10
521.7709218931241
 20
247.4797434674251
 30
0.0
 11
530.3673949472714
 21
247.4797434674251
 31
0.0
  0
LINE
  5
7C8
330
17
100
AcDbEntity
  8
4
100
AcDbLine
 10
530.3673949472714
 20
267.1096526198721
 30
0.0
 11
521.7709218931241
 21
267.1096526198721
 31
0.0
  0
LINE
  5
7C9
330
17
100
AcDbEntity
  8
4
100
AcDbLine
 10
521.7709218931241
 20
252.3872207555364
 30
0.0
 11
527.8673949472714
 21
252.3872207555364
 31
0.0
  0
LINE
  5
7CA
330
17
100
AcDbEntity
  8
4
100
AcDbLine
 10
521.7709218931241
 20
262.2021753317599
 30
0.0
 11
527.8673949472714
 21
262.2021753317599
 31
0.0
  0
LINE
  5
7CB
330
17
100
AcDbEntity
  8
4
100
AcDbLine
 10
530.3673949472714
 20
247.4797434674251
 30
0.0
 11
530.3673949472714
 21
267.1096526198721
 31
0.0
  0
LINE
  5
7CC
330
17
100
AcDbEntity
  8
4
100
AcDbLine
 10
527.8673949472714
 20
247.4797434674251
 30
0.0
 11
527.8673949472714
 21
267.1096526198721
 31
0.0
  0
ARC
  5
7CD
330
17
100
AcDbEntity
  8
4
100
AcDbCircle
 10
524.6510088763307
 20
249.9334821114803
 30
0.0
 40
3.783613929059507
100
AcDbArc
 50
139.5701031551734
 51
220.4298968448266
  0
LINE
  5
7CE
330
17
100
AcDbEntity
  8
4
100
AcDbLine
 10
520.8673949472714
 20
264.655913975816
 30
0.0
 11
520.8673949472714
 21
249.9334821114803
 31
0.0
  0
ARC
  5
7CF
330
17
100
AcDbEntity
  8
4
100
AcDbCircle
 10
534.6465602447306
 20
257.2946980436486
 30
0.0
 40
13.77916529745958
100
AcDbArc
 50
159.1359356360801
 51
200.8640643639199
  0
ARC
  5
7D0
330
17
100
AcDbEntity
  8
4
100
AcDbCircle
 10
524.6510088763307
 20
264.655913975816
 30
0.0
 40
3.783613929059507
100
AcDbArc
 50
139.5701031551734
 51
220.4298968448266
  0
LINE
  5
7D1
330
17
100
AcDbEntity
  8
4
100
AcDbLine
 10
521.7709218931241
 20
164.5791721762503
 30
0.0
 11
530.3673949472714
 21
164.5791721762503
 31
0.0
  0
LINE
  5
7D2
330
17
100
AcDbEntity
  8
4
100
AcDbLine
 10
521.7709218931241
 20
149.8567403119155
 30
0.0
 11
527.8673949472714
 21
149.8567403119155
 31
0.0
  0
LINE
  5
7D3
330
17
100
AcDbEntity
  8
4
100
AcDbLine
 10
521.7709218931241
 20
159.671694888139
 30
0.0
 11
527.8673949472714
 21
159.671694888139
 31
0.0
  0
LINE
  5
7D4
330
17
100
AcDbEntity
  8
4
100
AcDbLine
 10
530.3673949472714
 20
144.9492630238033
 30
0.0
 11
521.7709218931241
 21
144.9492630238033
 31
0.0
  0
LINE
  5
7D5
330
17
100
AcDbEntity
  8
L-CENTER
100
AcDbLine
 10
562.3400323949672
 20
154.7642176000268
 30
0.0
 11
517.9994166926908
 21
154.7642176000268
 31
0.0
  0
LINE
  5
7D6
330
17
100
AcDbEntity
  8
4
100
AcDbLine
 10
527.8673949472714
 20
164.5791721762503
 30
0.0
 11
527.8673949472714
 21
144.9492630238033
 31
0.0
  0
ARC
  5
7D7
330
17
100
AcDbEntity
  8
4
100
AcDbCircle
 10
524.6510088763307
 20
162.1254335321951
 30
0.0
 40
3.783613929059507
100
AcDbArc
 50
139.5701031551734
 51
220.4298968448266
  0
ARC
  5
7D8
330
17
100
AcDbEntity
  8
4
100
AcDbCircle
 10
524.6510088763307
 20
147.4030016678594
 30
0.0
 40
3.783613929059507
100
AcDbArc
 50
139.5701031551734
 51
220.4298968448266
  0
ARC
  5
7D9
330
17
100
AcDbEntity
  8
4
100
AcDbCircle
 10
534.6465602447306
 20
154.7642176000268
 30
0.0
 40
13.77916529745958
100
AcDbArc
 50
159.1359356360801
 51
200.8640643639199
  0
LINE
  5
7DA
330
17
100
AcDbEntity
  8
4
100
AcDbLine
 10
520.8673949472714
 20
147.4030016678594
 30
0.0
 11
520.8673949472714
 21
162.1254335321951
 31
0.0
  0
LINE
  5
944
330
17
100
AcDbEntity
  8
L-CENTER
100
AcDbLine
 10
1860.021175124267
 20
318.3213293904824
 30
0.0
 11
1906.021177124267
 21
318.3176693904825
 31
0.0
  0
LINE
  5
945
330
17
100
AcDbEntity
  8
L-CENTER
100
AcDbLine
 10
1860.021340195871
 20
352.9988169743522
 30
0.0
 11
1906.021342195871
 21
352.9951569743521
 31
0.0
  0
LINE
  5
946
330
17
100
AcDbEntity
  8
L-CENTER
100
AcDbLine
 10
1860.021340195871
 20
459.0647349743519
 30
0.0
 11
1906.021342195871
 21
459.0610749743521
 31
0.0
  0
LINE
  5
947
330
17
100
AcDbEntity
  8
L-CENTER
100
AcDbLine
 10
1608.860547090251
 20
459.0591222574942
 30
0.0
 11
1562.860545090251
 21
459.0627822574941
 31
0.0
  0
LINE
  5
948
330
17
100
AcDbEntity
  8
L-CENTER
100
AcDbLine
 10
1608.860505090252
 20
352.9932042641776
 30
0.0
 11
1562.860503090252
 21
352.9968642641775
 31
0.0
  0
LINE
  5
949
330
17
100
AcDbEntity
  8
L-CENTER
100
AcDbLine
 10
1608.860547090251
 20
318.3157122574944
 30
0.0
 11
1562.860545090251
 21
318.3193722574943
 31
0.0
  0
CIRCLE
  5
972
330
17
100
AcDbEntity
  8
4
100
AcDbCircle
 10
878.3673949472714
 20
112.0294618218377
 30
0.0
 40
9.331054
  0
LINE
  5
975
330
17
100
AcDbEntity
  8
4
100
AcDbLine
 10
417.8673989472713
 20
183.0294598218377
 30
0.0
 11
516.8673989472713
 21
183.0294598218377
 31
0.0
  0
LINE
  5
976
330
17
100
AcDbEntity
  8
4
100
AcDbLine
 10
416.8673969472713
 20
232.5294598218377
 30
0.0
 11
506.8673969472713
 21
232.5294598218377
 31
0.0
  0
LINE
  5
977
330
17
100
AcDbEntity
  8
4
100
AcDbLine
 10
417.8673989472713
 20
229.0294558218377
 30
0.0
 11
516.8673989472713
 21
229.0294558218377
 31
0.0
  0
LINE
  5
978
330
17
100
AcDbEntity
  8
4
100
AcDbLine
 10
528.8673949472714
 20
170.0294578218377
 30
0.0
 11
528.8673949472714
 21
242.0294578218377
 31
0.0
  0
LINE
  5
979
330
17
100
AcDbEntity
  8
4
100
AcDbLine
 10
528.8673949472714
 20
170.0294578218377
 30
0.0
 11
530.3673949472714
 21
170.0294578218377
 31
0.0
  0
LINE
  5
97A
330
17
100
AcDbEntity
  8
4
100
AcDbLine
 10
516.8673989472713
 20
181.0294558218377
 30
0.0
 11
516.8673989472713
 21
231.0294598218377
 31
0.0
  0
LINE
  5
97B
330
17
100
AcDbEntity
  8
4
100
AcDbLine
 10
516.8673989472713
 20
181.0294558218377
 30
0.0
 11
528.8673949472714
 21
181.0294558218377
 31
0.0
  0
LINE
  5
97C
330
17
100
AcDbEntity
  8
4
100
AcDbLine
 10
516.8673989472713
 20
231.0294598218377
 30
0.0
 11
528.8673949472714
 21
231.0294598218377
 31
0.0
  0
LINE
  5
97D
330
17
100
AcDbEntity
  8
4
100
AcDbLine
 10
506.8673969472713
 20
229.0294558218377
 30
0.0
 11
506.8673969472713
 21
232.5294598218377
 31
0.0
  0
LINE
  5
97E
330
17
100
AcDbEntity
  8
4
100
AcDbLine
 10
528.8673949472714
 20
242.0294578218377
 30
0.0
 11
530.3673949472714
 21
242.0294578218377
 31
0.0
  0
LINE
  5
97F
330
17
100
AcDbEntity
  8
4
100
AcDbLine
 10
416.8673969472713
 20
184.0294558218377
 30
0.0
 11
416.8673969472713
 21
232.5294598218377
 31
0.0
  0
LINE
  5
980
330
17
100
AcDbEntity
  8
4
100
AcDbLine
 10
417.8673989472713
 20
229.0294558218377
 30
0.0
 11
417.8673989472713
 21
183.0294598218377
 31
0.0
  0
LINE
  5
981
330
17
100
AcDbEntity
  8
4
100
AcDbLine
 10
417.8673989472713
 20
183.0294598218377
 30
0.0
 11
416.8673969472713
 21
184.0294558218377
 31
0.0
  0
LINE
  5
982
330
17
100
AcDbEntity
  8
4
100
AcDbLine
 10
416.8673969472713
 20
228.0294598218377
 30
0.0
 11
417.8673989472713
 21
229.0294558218377
 31
0.0
  0
LINE
  5
997
330
17
100
AcDbEntity
  8
4
100
AcDbLine
 10
516.7834969472706
 20
1141.111141159404
 30
0.0
 11
529.651496947271
 21
1141.111141159404
 31
0.0
  0
LINE
  5
998
330
17
100
AcDbEntity
  8
4
100
AcDbLine
 10
516.7834969472706
 20
1191.111141159404
 30
0.0
 11
529.651496947271
 21
1191.111141159404
 31
0.0
  0
LINE
  5
999
330
17
100
AcDbEntity
  8
4
100
AcDbLine
 10
416.7834969472706
 20
1188.111141159404
 30
0.0
 11
416.7834969472706
 21
1144.111141159404
 31
0.0
  0
LINE
  5
99A
330
17
100
AcDbEntity
  8
4
100
AcDbLine
 10
417.7834969472706
 20
1160.111141159404
 30
0.0
 11
417.7834969472706
 21
1143.111141159404
 31
0.0
  0
LINE
  5
99B
330
17
100
AcDbEntity
  8
4
100
AcDbLine
 10
416.7834969472706
 20
1144.111141159404
 30
0.0
 11
417.7834969472706
 21
1143.111141159404
 31
0.0
  0
LINE
  5
99C
330
17
100
AcDbEntity
  8
4
100
AcDbLine
 10
417.7834969472706
 20
1189.111141159404
 30
0.0
 11
417.7834969472706
 21
1172.111141159404
 31
0.0
  0
LINE
  5
99D
330
17
100
AcDbEntity
  8
4
100
AcDbLine
 10
417.7834969472706
 20
1189.111141159404
 30
0.0
 11
416.7834969472706
 21
1188.111141159404
 31
0.0
  0
ARC
  5
99E
330
17
100
AcDbEntity
  8
4
100
AcDbCircle
 10
500.7834969472706
 20
1166.111141159404
 30
0.0
 40
6.0
100
AcDbArc
 50
270.0
 51
90.0
  0
ARC
  5
99F
330
17
100
AcDbEntity
  8
4
100
AcDbCircle
 10
514.7834969472706
 20
1191.111141159404
 30
0.0
 40
2.0
100
AcDbArc
 50
270.0
 51
0.0
  0
LINE
  5
9A0
330
17
100
AcDbEntity
  8
4
100
AcDbLine
 10
514.7834969472706
 20
1143.111141159404
 30
0.0
 11
417.7834969472706
 21
1143.111141159404
 31
0.0
  0
LINE
  5
9A1
330
17
100
AcDbEntity
  8
4
100
AcDbLine
 10
514.7834969472706
 20
1189.111141159404
 30
0.0
 11
417.7834969472706
 21
1189.111141159404
 31
0.0
  0
LINE
  5
9A2
330
17
100
AcDbEntity
  8
4
100
AcDbLine
 10
416.7834969472706
 20
1160.111141159404
 30
0.0
 11
500.7834969472706
 21
1160.111141159404
 31
0.0
  0
LINE
  5
9A3
330
17
100
AcDbEntity
  8
4
100
AcDbLine
 10
416.7834969472706
 20
1172.111141159404
 30
0.0
 11
500.7834969472706
 21
1172.111141159404
 31
0.0
  0
LINE
  5
9A4
330
17
100
AcDbEntity
  8
4
100
AcDbLine
 10
516.7834969472706
 20
1141.111141159404
 30
0.0
 11
516.7834969472706
 21
1191.111141159404
 31
0.0
  0
ARC
  5
9A5
330
17
100
AcDbEntity
  8
4
100
AcDbCircle
 10
514.7834969472706
 20
1141.111141159404
 30
0.0
 40
2.0
100
AcDbArc
 50
0.0
 51
90.0
  0
LINE
  5
9A6
330
17
100
AcDbEntity
  8
4
100
AcDbLine
 10
529.651496947271
 20
1130.111141159405
 30
0.0
 11
529.651496947271
 21
1202.111141159404
 31
0.0
  0
LINE
  5
9A7
330
17
100
AcDbEntity
  8
4
100
AcDbLine
 10
530.651496947271
 20
1130.111141159404
 30
0.0
 11
529.651496947271
 21
1130.111141159404
 31
0.0
  0
LINE
  5
9A8
330
17
100
AcDbEntity
  8
4
100
AcDbLine
 10
530.651496947271
 20
1202.111141159404
 30
0.0
 11
529.651496947271
 21
1202.111141159404
 31
0.0
  0
ARC
  5
9A9
330
17
100
AcDbEntity
  8
4
100
AcDbCircle
 10
1232.367883018212
 20
1210.015165449047
 30
0.0
 40
3.783613929059507
100
AcDbArc
 50
319.5701031551782
 51
40.42989684482174
  0
CIRCLE
  5
9BE
330
17
100
AcDbEntity
  8
4
100
AcDbCircle
 10
1687.440884143078
 20
206.0294578218377
 30
0.0
 40
60.0
  0
ENDSEC
  0
SECTION
  2
OBJECTS
  0
DICTIONARY
  5
5
330
0
100
AcDbDictionary
281
     1
  3
ACAD_COLOR
350
29
  3
ACAD_GROUP
350
27
  3
ACAD_LAYOUT
350
1E
  3
ACAD_MATERIAL
350
7
  3
ACAD_MLEADERSTYLE
350
94D
  3
ACAD_MLINESTYLE
350
15
  3
ACAD_PLOTSETTINGS
350
28
  3
ACAD_PLOTSTYLENAME
350
4
  3
ACAD_SCALELIST
350
2D
  3
ACAD_VISUALSTYLE
350
2A
  3
ACDBHEADERROUNDTRIPXREC
350
9D1
  3
AcDbVariableDictionary
350
94A
  3
DWGPROPS
350
9D4
  0
DICTIONARY
  5
9D5
330
26
100
AcDbDictionary
280
     1
281
     1
  3
ACAD_XREC_ROUNDTRIP
360
9D6
  0
DICTIONARY
  5
22C
330
22B
100
AcDbDictionary
280
     1
281
     1
  3
ADSK_XREC_LAYER_RECONCILED
360
22D
  0
DICTIONARY
  5
18
330
17
100
AcDbDictionary
280
     1
281
     1
  3
ACAD_SORTENTS
360
19
  0
DICTIONARY
  5
29
102
{ACAD_REACTORS
330
5
102
}
330
5
100
AcDbDictionary
281
     1
  0
DICTIONARY
  5
27
102
{ACAD_REACTORS
330
5
102
}
330
5
100
AcDbDictionary
281
     1
  0
DICTIONARY
  5
1E
102
{ACAD_REACTORS
330
5
102
}
330
5
100
AcDbDictionary
281
     1
  3
Model
350
1D
  3
ﾚｲｱｳﾄ1
350
23
  0
DICTIONARY
  5
7
102
{ACAD_REACTORS
330
5
102
}
330
5
100
AcDbDictionary
281
     1
  3
ByBlock
350
50
  3
ByLayer
350
10
  3
Global
350
6
  0
DICTIONARY
  5
94D
102
{ACAD_REACTORS
330
5
102
}
330
5
100
AcDbDictionary
281
     1
  3
Standard
350
96D
  0
DICTIONARY
  5
15
102
{ACAD_REACTORS
330
5
102
}
330
5
100
AcDbDictionary
281
     1
  3
STANDARD
350
14
  0
DICTIONARY
  5
28
102
{ACAD_REACTORS
330
5
102
}
330
5
100
AcDbDictionary
281
     1
  0
ACDBDICTIONARYWDFLT
  5
4
102
{ACAD_REACTORS
330
5
102
}
330
5
100
AcDbDictionary
281
     1
  3
Normal
350
3
100
AcDbDictionaryWithDefault
340
3
  0
DICTIONARY
  5
2D
102
{ACAD_REACTORS
330
5
102
}
330
5
100
AcDbDictionary
281
     1
  3
*A1
350
4F
  0
DICTIONARY
  5
2A
102
{ACAD_REACTORS
330
5
102
}
330
5
100
AcDbDictionary
281
     1
  3
2dWireframe
350
955
  3
Basic
350
958
  3
Brighten
350
95C
  3
ColorChange
350
960
  3
Conceptual
350
95A
  3
Dim
350
95B
  3
EdgeColorOff
350
963
  3
Facepattern
350
95F
  3
Flat
350
951
  3
FlatWithEdges
350
952
  3
Gouraud
350
953
  3
GouraudWithEdges
350
954
  3
Hidden
350
957
  3
JitterOff
350
961
  3
Linepattern
350
95E
  3
OverhangOff
350
962
  3
Realistic
350
959
  3
Shaded
350
968
  3
Shaded with edges
350
967
  3
Shades of Gray
350
964
  3
Sketchy
350
965
  3
Thicken
350
95D
  3
Wireframe
350
956
  3
X-Ray
350
966
  0
DICTIONARY
  5
9D1
102
{ACAD_REACTORS
330
5
102
}
330
5
100
AcDbDictionary
281
     1
  3
COLORDICT
350
9D2
  3
MATERIALDICT
350
9D3
  0
DICTIONARY
  5
94A
102
{ACAD_REACTORS
330
5
102
}
330
5
100
AcDbDictionary
281
     1
  3
CANNOSCALE
350
94B
  3
CMLEADERSTYLE
350
971
  3
DIMASSOC
350
9CF
  3
HIDETEXT
350
9D0
  3
MSLTSCALE
350
9D7
  3
XCLIPFRAME
350
94E
  0
XRECORD
  5
9D4
102
{ACAD_REACTORS
330
5
102
}
330
5
100
AcDbXrecord
280
     1
  1
DWGPROPS COOKIE
  2

  3

  4

  6

  7

  8
sg-d03
  9

300
=
301
=
302
=
303
=
304
=
305
=
306
=
307
=
308
=
309
=
 40
0.0
 41
2457541.066115058
 42
2458110.243397812
  1

 90
        0
  0
XRECORD
  5
9D6
102
{ACAD_REACTORS
330
9D5
102
}
330
9D5
100
AcDbXrecord
280
     1
102
VTR_0.000_0.000_1.000_1.000_GRIDDISPLAY
 70
     3
102
VTR_0.000_0.000_1.000_1.000_GRIDMAJOR
 70
     5
102
VTR_0.000_0.000_1.000_1.000_DEFAULTLIGHTING
280
     1
102
VTR_0.000_0.000_1.000_1.000_DEFAULTLIGHTINGTYPE
 70
     1
102
VTR_0.000_0.000_1.000_1.000_BRIGHTNESS
141
0.0
102
VTR_0.000_0.000_1.000_1.000_CONTRAST
142
0.0
  0
XRECORD
  5
22D
102
{ACAD_REACTORS
330
22C
102
}
330
22C
100
AcDbXrecord
280
     1
290
     1
  0
SORTENTSTABLE
  5
19
102
{ACAD_REACTORS
330
18
102
}
330
18
100
AcDbSortentsTable
330
17
331
0
  5
311
331
58
  5
3E4
331
5B
  5
3E3
331
5C
  5
3E2
331
5D
  5
3E1
331
5E
  5
3E0
331
5F
  5
3DF
331
60
  5
3DE
331
61
  5
3DD
331
62
  5
3DC
331
63
  5
3DB
331
64
  5
3DA
331
65
  5
3D9
331
66
  5
3D8
331
67
  5
3D7
331
68
  5
3D6
331
69
  5
3D5
331
6A
  5
3D4
331
6B
  5
3D3
331
6C
  5
3D2
331
6D
  5
3D1
331
6E
  5
3D0
331
6F
  5
3CF
331
70
  5
3CE
331
71
  5
3CD
331
72
  5
3CC
331
73
  5
3CB
331
74
  5
3CA
331
75
  5
3C9
331
76
  5
3C8
331
77
  5
3C7
331
78
  5
3C6
331
79
  5
3C5
331
7A
  5
3C4
331
7B
  5
3C3
331
7C
  5
3C2
331
7D
  5
3C1
331
7E
  5
3C0
331
7F
  5
3BF
331
80
  5
3BE
331
81
  5
3BD
331
82
  5
3BC
331
83
  5
3BB
331
84
  5
3BA
331
85
  5
3B9
331
86
  5
3B8
331
87
  5
3B7
331
88
  5
3B6
331
89
  5
3B5
331
8A
  5
3B4
331
8B
  5
3B3
331
8C
  5
3B2
331
8D
  5
3B1
331
8E
  5
3B0
331
8F
  5
3AF
331
90
  5
3AE
331
91
  5
3AD
331
92
  5
3AC
331
93
  5
3AB
331
94
  5
3AA
331
95
  5
3A9
331
96
  5
3A8
331
97
  5
3A7
331
98
  5
3A6
331
99
  5
3A5
331
9A
  5
3A4
331
9B
  5
3A3
331
9C
  5
3A2
331
9D
  5
3A1
331
9E
  5
3A0
331
9F
  5
39F
331
A0
  5
39E
331
A1
  5
39D
331
A2
  5
39C
331
A3
  5
39B
331
A4
  5
39A
331
A5
  5
399
331
A6
  5
398
331
A7
  5
397
331
A8
  5
396
331
A9
  5
395
331
AA
  5
394
331
AB
  5
393
331
AC
  5
392
331
AD
  5
391
331
AE
  5
390
331
AF
  5
38F
331
B0
  5
38E
331
B1
  5
38D
331
B2
  5
38C
331
B3
  5
38B
331
B4
  5
38A
331
B5
  5
389
331
B6
  5
388
331
B7
  5
387
331
B8
  5
386
331
B9
  5
385
331
BA
  5
384
331
BB
  5
383
331
BC
  5
382
331
BD
  5
381
331
BE
  5
380
331
BF
  5
37F
331
C0
  5
37E
331
C1
  5
37D
331
C2
  5
37C
331
C3
  5
37B
331
C4
  5
37A
331
C5
  5
379
331
C6
  5
378
331
C7
  5
377
331
C8
  5
376
331
C9
  5
375
331
CA
  5
374
331
CB
  5
373
331
CC
  5
372
331
CD
  5
371
331
CE
  5
370
331
CF
  5
36F
331
D0
  5
36E
331
D1
  5
36D
331
D2
  5
36C
331
D3
  5
36B
331
D4
  5
36A
331
D5
  5
369
331
D6
  5
368
331
D7
  5
367
331
D8
  5
366
331
D9
  5
365
331
DA
  5
364
331
DB
  5
363
331
DC
  5
362
331
DD
  5
361
331
DE
  5
360
331
DF
  5
35F
331
E0
  5
35E
331
E1
  5
35D
331
E2
  5
35C
331
E3
  5
35B
331
E4
  5
35A
331
E5
  5
359
331
E6
  5
358
331
E7
  5
357
331
E8
  5
356
331
E9
  5
355
331
EA
  5
354
331
EB
  5
353
331
EC
  5
352
331
ED
  5
351
331
EE
  5
350
331
EF
  5
34F
331
F0
  5
34E
331
F1
  5
34D
331
F2
  5
34C
331
F3
  5
34B
331
F4
  5
34A
331
F5
  5
349
331
F6
  5
348
331
F7
  5
347
331
F8
  5
346
331
F9
  5
345
331
FA
  5
344
331
FB
  5
343
331
FC
  5
342
331
FD
  5
341
331
FE
  5
340
331
FF
  5
33F
331
100
  5
33E
331
101
  5
33D
331
102
  5
33C
331
103
  5
33B
331
104
  5
33A
331
105
  5
339
331
106
  5
338
331
107
  5
337
331
108
  5
336
331
109
  5
335
331
10A
  5
334
331
10B
  5
333
331
10C
  5
332
331
10D
  5
331
331
10E
  5
330
331
10F
  5
32F
331
110
  5
32E
331
111
  5
32D
331
112
  5
32C
331
113
  5
32B
331
114
  5
32A
331
115
  5
329
331
116
  5
328
331
117
  5
327
331
118
  5
326
331
119
  5
325
331
11A
  5
324
331
11B
  5
323
331
11C
  5
322
331
11D
  5
321
331
11E
  5
320
331
11F
  5
31F
331
120
  5
31E
331
121
  5
31D
331
122
  5
31C
331
123
  5
31B
331
124
  5
31A
331
125
  5
319
331
126
  5
318
331
127
  5
317
331
128
  5
316
331
129
  5
315
331
12A
  5
314
331
12B
  5
313
331
12C
  5
312
331
13F
  5
2FF
331
140
  5
2FE
331
141
  5
2FD
331
142
  5
2FC
331
143
  5
2FB
331
144
  5
2FA
331
145
  5
2F9
331
146
  5
2F8
331
147
  5
2F7
331
148
  5
2F6
331
149
  5
2F5
331
14A
  5
2F4
331
14B
  5
2F3
331
14C
  5
2F2
331
14D
  5
2F1
331
14E
  5
2F0
331
14F
  5
2EF
331
150
  5
2EE
331
151
  5
2ED
331
152
  5
2EC
331
153
  5
2EB
331
154
  5
2EA
331
155
  5
2E9
331
156
  5
2E8
331
157
  5
2E7
331
158
  5
2E6
331
159
  5
2E5
331
15A
  5
2E4
331
15B
  5
2E3
331
15C
  5
2E2
331
15D
  5
2E1
331
15E
  5
2E0
331
15F
  5
2DF
331
160
  5
2DE
331
161
  5
2DD
331
162
  5
2DC
331
163
  5
2DB
331
164
  5
2DA
331
165
  5
2D9
331
166
  5
2D8
331
167
  5
2D7
331
168
  5
2D6
331
169
  5
2D5
331
16A
  5
2D4
331
16B
  5
2D3
331
16C
  5
2D2
331
16D
  5
2D1
331
16E
  5
2D0
331
16F
  5
2CF
331
170
  5
2CE
331
171
  5
2CD
331
172
  5
2CC
331
173
  5
2CB
331
174
  5
2CA
331
175
  5
2C9
331
176
  5
2C8
331
177
  5
2C7
331
178
  5
2C6
331
179
  5
2C5
331
17A
  5
2C4
331
17B
  5
2C3
331
17C
  5
2C2
331
17D
  5
2C1
331
17E
  5
2C0
331
17F
  5
2BF
331
180
  5
2BE
331
181
  5
2BD
331
182
  5
2BC
331
183
  5
2BB
331
184
  5
2BA
331
185
  5
2B9
331
186
  5
2B8
331
187
  5
2B7
331
188
  5
2B6
331
189
  5
2B5
331
18A
  5
2B4
331
18B
  5
2B3
331
18C
  5
2B2
331
18D
  5
2B1
331
18E
  5
2B0
331
18F
  5
2AF
331
190
  5
2AE
331
191
  5
2AD
331
192
  5
2AC
331
193
  5
2AB
331
194
  5
2AA
331
195
  5
2A9
331
196
  5
2A8
331
197
  5
2A7
331
198
  5
2A6
331
199
  5
2A5
331
19A
  5
2A4
331
19B
  5
2A3
331
19C
  5
2A2
331
19D
  5
2A1
331
19E
  5
2A0
331
19F
  5
29F
331
1A0
  5
29E
331
1A1
  5
29D
331
1A2
  5
29C
331
1A3
  5
29B
331
1A4
  5
29A
331
1A5
  5
299
331
1A6
  5
298
331
1A7
  5
297
331
1A8
  5
296
331
1A9
  5
295
331
1AA
  5
294
331
1AB
  5
293
331
1AC
  5
292
331
1AD
  5
291
331
1AE
  5
290
331
1AF
  5
28F
331
1B0
  5
28E
331
1B1
  5
28D
331
1B2
  5
28C
331
1B3
  5
28B
331
1B4
  5
28A
331
1B5
  5
289
331
1B6
  5
287
331
1B7
  5
286
331
1B8
  5
285
331
1B9
  5
284
331
1BA
  5
283
331
1BB
  5
282
331
1BC
  5
281
331
1BD
  5
280
331
1BE
  5
27F
331
1BF
  5
27E
331
1C0
  5
27D
331
1C1
  5
27C
331
1C2
  5
27B
331
1C3
  5
27A
331
1C4
  5
279
331
1C5
  5
278
331
1C6
  5
277
331
1C7
  5
276
331
1C8
  5
275
331
1C9
  5
274
331
1CA
  5
273
331
1CB
  5
272
331
1CC
  5
271
331
1CD
  5
270
331
1CE
  5
26F
331
1CF
  5
26E
331
1D0
  5
26D
331
1D1
  5
26C
331
1D2
  5
26B
331
1D3
  5
26A
331
1D4
  5
269
331
1D5
  5
268
331
1D6
  5
267
331
1D7
  5
266
331
1D8
  5
265
331
1D9
  5
264
331
0
  5
4E7
331
0
  5
4E8
331
0
  5
4E9
331
0
  5
4EA
331
0
  5
4EB
331
0
  5
4EC
331
0
  5
4ED
331
0
  5
4EE
331
0
  5
4EF
331
0
  5
4F0
331
0
  5
4F1
331
0
  5
4F2
331
0
  5
4F3
331
0
  5
4F4
331
0
  5
4F5
331
0
  5
4F6
331
0
  5
4F7
331
0
  5
4F8
331
4F8
  5
4F9
331
4F9
  5
4FA
331
4FA
  5
4FB
331
4FB
  5
4FC
331
4FC
  5
4FD
331
0
  5
4FE
331
0
  5
4FF
331
0
  5
500
331
500
  5
501
331
0
  5
502
331
502
  5
503
331
0
  5
504
331
0
  5
505
331
0
  5
506
331
0
  5
507
331
0
  5
508
331
0
  5
509
331
0
  5
50A
331
0
  5
50B
331
0
  5
50C
331
0
  5
50D
331
0
  5
50E
331
0
  5
50F
331
0
  5
510
331
0
  5
511
331
511
  5
512
331
0
  5
513
331
0
  5
514
331
0
  5
515
331
0
  5
516
331
0
  5
517
331
0
  5
518
331
0
  5
519
331
0
  5
51A
331
51A
  5
51B
331
51B
  5
51C
331
51C
  5
51D
331
0
  5
51E
331
0
  5
51F
331
0
  5
520
331
520
  5
521
331
521
  5
522
331
0
  5
523
331
0
  5
524
331
0
  5
525
331
0
  5
526
331
526
  5
527
331
0
  5
528
331
0
  5
529
331
0
  5
52A
331
0
  5
52B
331
0
  5
52C
331
0
  5
52D
331
0
  5
52E
331
0
  5
52F
331
52F
  5
530
331
0
  5
531
331
0
  5
532
331
0
  5
533
331
533
  5
534
331
0
  5
535
331
0
  5
536
331
0
  5
537
331
537
  5
538
331
0
  5
539
331
539
  5
53A
331
0
  5
53B
331
0
  5
53C
331
0
  5
53D
331
0
  5
53E
331
541
  5
542
331
542
  5
544
331
543
  5
546
331
544
  5
547
331
545
  5
548
331
546
  5
549
331
547
  5
54A
331
548
  5
54B
331
549
  5
54C
331
54A
  5
54D
331
54B
  5
54E
331
54C
  5
54F
331
54D
  5
550
331
54E
  5
552
331
550
  5
553
331
551
  5
554
331
552
  5
555
331
553
  5
556
331
554
  5
557
331
555
  5
558
331
556
  5
559
331
557
  5
55A
331
558
  5
55B
331
559
  5
55C
331
55A
  5
55D
331
55B
  5
55E
331
55C
  5
55F
331
55D
  5
560
331
55E
  5
561
331
55F
  5
562
331
560
  5
563
331
561
  5
564
331
562
  5
565
331
563
  5
566
331
564
  5
567
331
565
  5
56B
331
569
  5
56C
331
0
  5
56E
331
0
  5
56F
331
56D
  5
570
331
56E
  5
571
331
56F
  5
572
331
570
  5
573
331
571
  5
574
331
572
  5
575
331
573
  5
576
331
574
  5
577
331
575
  5
578
331
576
  5
579
331
577
  5
57A
331
578
  5
57B
331
579
  5
57C
331
57A
  5
57D
331
57B
  5
57E
331
57C
  5
57F
331
57D
  5
581
331
57E
  5
582
331
57F
  5
583
331
580
  5
584
331
581
  5
585
331
582
  5
586
331
583
  5
587
331
584
  5
588
331
585
  5
589
331
586
  5
58A
331
587
  5
58B
331
588
  5
58C
331
589
  5
58D
331
58A
  5
58E
331
58B
  5
58F
331
58C
  5
590
331
58D
  5
591
331
58E
  5
592
331
58F
  5
593
331
590
  5
594
331
591
  5
595
331
592
  5
596
331
593
  5
597
331
594
  5
598
331
595
  5
599
331
596
  5
59A
331
597
  5
59B
331
598
  5
59C
331
599
  5
59D
331
59A
  5
59E
331
59B
  5
59F
331
59C
  5
5A0
331
59D
  5
5A1
331
59E
  5
5A2
331
59F
  5
5A3
331
5A0
  5
5A4
331
5A1
  5
5A5
331
5A2
  5
5A6
331
5A3
  5
5A7
331
5A4
  5
5A8
331
5A5
  5
5A9
331
5A6
  5
5AA
331
5A7
  5
5AB
331
5A8
  5
5AC
331
5A9
  5
5AD
331
5AA
  5
5AE
331
5AB
  5
5AF
331
5AC
  5
5B0
331
5AD
  5
5B1
331
5AE
  5
5B2
331
5AF
  5
5B3
331
0
  5
5B4
331
0
  5
5B5
331
5B2
  5
5B6
331
5B3
  5
5B7
331
5B4
  5
5B8
331
5B5
  5
5B9
331
5B6
  5
5BA
331
5B7
  5
5BB
331
5B8
  5
5BC
331
5B9
  5
5BD
331
5BA
  5
5BE
331
5BB
  5
5BF
331
5BC
  5
5C0
331
5BD
  5
5C1
331
5BE
  5
5C2
331
5BF
  5
5C3
331
5C0
  5
5C4
331
5C1
  5
5C5
331
0
  5
5C6
331
0
  5
5C7
331
5C4
  5
5C8
331
5C5
  5
5C9
331
5C6
  5
5CA
331
5C7
  5
5CB
331
5C8
  5
5CC
331
5C9
  5
5CD
331
5CA
  5
5CE
331
5CB
  5
5CF
331
5CC
  5
5D0
331
5CD
  5
5D1
331
5CE
  5
5D2
331
5CF
  5
5D3
331
5D0
  5
5D4
331
5D1
  5
5D5
331
5D2
  5
5D6
331
5D3
  5
5D7
331
0
  5
5D8
331
0
  5
5D9
331
0
  5
5DA
331
5DC
  5
5E0
331
5DD
  5
5E1
331
5E0
  5
5E4
331
5E1
  5
5E5
331
5E2
  5
5E6
331
5E3
  5
5E7
331
5E4
  5
5E8
331
5E5
  5
5E9
331
5E6
  5
5EA
331
5E7
  5
5EB
331
5ED
  5
5F1
331
5EE
  5
5F2
331
5EF
  5
5F3
331
5F0
  5
5F4
331
5F3
  5
5F7
331
5F4
  5
5F8
331
5F5
  5
5F9
331
5F6
  5
5FA
331
0
  5
5FC
331
0
  5
604
331
0
  5
605
331
0
  5
607
331
0
  5
608
331
606
  5
60A
331
607
  5
60B
331
608
  5
60C
331
609
  5
60D
331
0
  5
60E
331
0
  5
60F
331
60C
  5
610
331
60D
  5
611
331
60E
  5
612
331
60F
  5
613
331
610
  5
614
331
611
  5
615
331
612
  5
616
331
613
  5
617
331
614
  5
618
331
0
  5
61A
331
0
  5
61B
331
0
  5
61C
331
619
  5
61D
331
61A
  5
61E
331
61B
  5
61F
331
61C
  5
620
331
61D
  5
621
331
61E
  5
622
331
61F
  5
623
331
620
  5
625
331
0
  5
627
331
0
  5
628
331
625
  5
629
331
62A
  5
62E
331
62B
  5
62F
331
62C
  5
630
331
62D
  5
631
331
62E
  5
632
331
62F
  5
633
331
630
  5
634
331
631
  5
635
331
0
  5
636
331
0
  5
637
331
0
  5
638
331
0
  5
639
331
636
  5
63A
331
0
  5
63B
331
638
  5
63C
331
0
  5
63D
331
0
  5
63E
331
0
  5
63F
331
0
  5
640
331
0
  5
641
331
0
  5
642
331
0
  5
643
331
0
  5
644
331
0
  5
645
331
0
  5
646
331
0
  5
647
331
0
  5
648
331
0
  5
649
331
0
  5
64A
331
0
  5
64B
331
0
  5
64C
331
0
  5
64D
331
0
  5
64E
331
0
  5
64F
331
0
  5
650
331
0
  5
651
331
0
  5
652
331
64F
  5
653
331
650
  5
654
331
651
  5
655
331
652
  5
656
331
0
  5
657
331
0
  5
658
331
655
  5
659
331
656
  5
65A
331
657
  5
65B
331
658
  5
65C
331
659
  5
65D
331
65A
  5
65E
331
65B
  5
65F
331
0
  5
660
331
0
  5
661
331
65E
  5
662
331
65F
  5
663
331
660
  5
664
331
661
  5
665
331
662
  5
666
331
663
  5
667
331
664
  5
668
331
665
  5
669
331
666
  5
66A
331
667
  5
66B
331
668
  5
66C
331
669
  5
66D
331
66A
  5
66E
331
66B
  5
66F
331
66C
  5
670
331
66D
  5
671
331
0
  5
672
331
0
  5
673
331
0
  5
674
331
0
  5
675
331
0
  5
676
331
673
  5
677
331
674
  5
678
331
675
  5
679
331
676
  5
67A
331
677
  5
67B
331
678
  5
67C
331
679
  5
67D
331
67A
  5
67E
331
67B
  5
67F
331
67C
  5
680
331
67D
  5
681
331
67E
  5
682
331
67F
  5
683
331
680
  5
684
331
681
  5
685
331
682
  5
686
331
683
  5
687
331
684
  5
688
331
685
  5
689
331
686
  5
68A
331
687
  5
68B
331
688
  5
68C
331
689
  5
68D
331
68A
  5
68E
331
68B
  5
68F
331
68C
  5
690
331
68D
  5
691
331
68E
  5
692
331
68F
  5
693
331
690
  5
694
331
691
  5
695
331
692
  5
696
331
693
  5
697
331
694
  5
698
331
695
  5
699
331
696
  5
69A
331
697
  5
69B
331
698
  5
69C
331
699
  5
69D
331
69A
  5
69E
331
69B
  5
69F
331
69C
  5
6A0
331
69D
  5
6A1
331
69E
  5
6A2
331
69F
  5
6A3
331
6A0
  5
6A4
331
6A1
  5
6A5
331
6A2
  5
6A6
331
6A3
  5
6A7
331
6A4
  5
6A8
331
6A5
  5
6A9
331
6A6
  5
6AA
331
6A7
  5
6AB
331
6A8
  5
6AC
331
6A9
  5
6AD
331
6AA
  5
6AE
331
6AB
  5
6AF
331
0
  5
6B0
331
0
  5
6B1
331
0
  5
6B2
331
0
  5
6B3
331
0
  5
6B4
331
6B1
  5
6B5
331
6B2
  5
6B6
331
6B3
  5
6B7
331
6B4
  5
6B8
331
6B5
  5
6B9
331
6B6
  5
6BA
331
6B7
  5
6BB
331
6B8
  5
6BC
331
6B9
  5
6BD
331
6BA
  5
6BE
331
6BB
  5
6BF
331
6BC
  5
6C0
331
6BD
  5
6C1
331
6BE
  5
6C2
331
6BF
  5
6C3
331
6C0
  5
6C4
331
6C1
  5
6C5
331
6C2
  5
6C6
331
6C3
  5
6C7
331
6C4
  5
6C8
331
6C5
  5
6C9
331
0
  5
6CA
331
6C7
  5
6CB
331
6C8
  5
6CC
331
6C9
  5
6CD
331
6CA
  5
6CE
331
6CC
  5
6D0
331
6CD
  5
6D1
331
6CE
  5
6D2
331
6CF
  5
6D3
331
6D0
  5
6D4
331
6D1
  5
6D5
331
6D2
  5
6D6
331
6D3
  5
6D7
331
6D4
  5
6D8
331
6D5
  5
6D9
331
6DB
  5
6DF
331
6DC
  5
6E0
331
6DD
  5
6E1
331
6DE
  5
6E2
331
6DF
  5
6E3
331
6E0
  5
6E4
331
6E1
  5
6E5
331
6E2
  5
6E6
331
6E3
  5
6E7
331
6E4
  5
6E8
331
6E5
  5
6E9
331
6E6
  5
6EA
331
6E7
  5
6EB
331
6E8
  5
6EC
331
6E9
  5
6ED
331
6EA
  5
6EE
331
0
  5
6EF
331
6EC
  5
6F0
331
0
  5
6F1
331
0
  5
6F2
331
6EF
  5
6F3
331
6F0
  5
6F4
331
6F1
  5
6F5
331
6F2
  5
6F6
331
6F3
  5
6F7
331
6F4
  5
6F8
331
6F5
  5
6F9
331
6F6
  5
6FA
331
6F7
  5
6FB
331
6F8
  5
6FC
331
6F9
  5
6FD
331
6FA
  5
6FE
331
6FB
  5
6FF
331
6FC
  5
700
331
6FD
  5
701
331
6FE
  5
702
331
6FF
  5
703
331
700
  5
704
331
701
  5
705
331
702
  5
706
331
703
  5
707
331
704
  5
708
331
705
  5
709
331
706
  5
70A
331
707
  5
70B
331
708
  5
70C
331
709
  5
70D
331
70A
  5
70E
331
70B
  5
70F
331
70C
  5
710
331
70D
  5
711
331
70E
  5
712
331
70F
  5
713
331
710
  5
714
331
711
  5
715
331
712
  5
716
331
713
  5
717
331
714
  5
718
331
715
  5
719
331
716
  5
71A
331
717
  5
71B
331
718
  5
71C
331
719
  5
71D
331
0
  5
71E
331
0
  5
71F
331
0
  5
720
331
0
  5
721
331
71E
  5
722
331
71F
  5
723
331
720
  5
724
331
721
  5
725
331
0
  5
726
331
723
  5
727
331
724
  5
728
331
725
  5
729
331
726
  5
72A
331
727
  5
72B
331
728
  5
72C
331
729
  5
72D
331
72A
  5
72E
331
72B
  5
72F
331
72C
  5
730
331
72D
  5
731
331
72E
  5
732
331
72F
  5
733
331
730
  5
734
331
731
  5
735
331
732
  5
736
331
733
  5
737
331
734
  5
738
331
735
  5
739
331
736
  5
73A
331
737
  5
73B
331
738
  5
73C
331
739
  5
73D
331
73A
  5
73E
331
73B
  5
73F
331
73C
  5
740
331
0
  5
741
331
73E
  5
742
331
73F
  5
743
331
0
  5
744
331
741
  5
745
331
0
  5
746
331
0
  5
747
331
0
  5
748
331
0
  5
749
331
746
  5
74A
331
747
  5
74B
331
748
  5
74C
331
749
  5
74D
331
74A
  5
74E
331
74B
  5
74F
331
74C
  5
750
331
74D
  5
751
331
74E
  5
752
331
74F
  5
753
331
750
  5
754
331
751
  5
755
331
752
  5
756
331
753
  5
757
331
754
  5
758
331
755
  5
759
331
756
  5
75A
331
757
  5
75B
331
758
  5
75C
331
759
  5
75D
331
75A
  5
75E
331
75B
  5
75F
331
75C
  5
760
331
75D
  5
761
331
75E
  5
762
331
75F
  5
763
331
760
  5
764
331
761
  5
765
331
762
  5
766
331
763
  5
767
331
764
  5
768
331
765
  5
769
331
766
  5
76A
331
0
  5
76B
331
0
  5
76C
331
769
  5
76D
331
76A
  5
76E
331
76B
  5
76F
331
76C
  5
770
331
76D
  5
771
331
76E
  5
772
331
76F
  5
773
331
770
  5
774
331
771
  5
775
331
772
  5
776
331
773
  5
777
331
774
  5
778
331
775
  5
779
331
776
  5
77A
331
0
  5
77B
331
0
  5
77C
331
779
  5
77D
331
77A
  5
77E
331
77B
  5
77F
331
0
  5
780
331
0
  5
781
331
0
  5
782
331
77F
  5
783
331
0
  5
784
331
0
  5
785
331
0
  5
786
331
0
  5
787
331
0
  5
788
331
0
  5
789
331
0
  5
78A
331
0
  5
78B
331
0
  5
78C
331
0
  5
78D
331
0
  5
78E
331
0
  5
78F
331
0
  5
790
331
0
  5
791
331
0
  5
792
331
78F
  5
793
331
790
  5
794
331
791
  5
795
331
792
  5
796
331
793
  5
797
331
794
  5
798
331
795
  5
799
331
796
  5
79A
331
797
  5
79B
331
798
  5
79C
331
799
  5
79D
331
79A
  5
79E
331
79B
  5
79F
331
79C
  5
7A0
331
79D
  5
7A1
331
79E
  5
7A2
331
79F
  5
7A3
331
7A0
  5
7A4
331
7A1
  5
7A5
331
7A2
  5
7A6
331
7A3
  5
7A7
331
7A4
  5
7A8
331
7A5
  5
7A9
331
7A6
  5
7AA
331
7A7
  5
7AB
331
7A8
  5
7AC
331
7A9
  5
7AD
331
7AA
  5
7AE
331
7AB
  5
7AF
331
7AC
  5
7B0
331
7AD
  5
7B1
331
7AE
  5
7B2
331
7AF
  5
7B3
331
7B0
  5
7B4
331
7B1
  5
7B5
331
7B2
  5
7B6
331
7B3
  5
7B7
331
7B4
  5
7B8
331
7B5
  5
7B9
331
7B6
  5
7BA
331
7B7
  5
7BB
331
7B8
  5
7BC
331
7B9
  5
7BD
331
7BA
  5
7BE
331
7BB
  5
7BF
331
7BC
  5
7C0
331
7BD
  5
7C1
331
7BE
  5
7C2
331
7BF
  5
7C3
331
7C0
  5
7C4
331
7C1
  5
7C5
331
7C2
  5
7C6
331
7C3
  5
7C7
331
7C4
  5
7C8
331
7C5
  5
7C9
331
7C6
  5
7CA
331
7C7
  5
7CB
331
7C8
  5
7CC
331
7C9
  5
7CD
331
7CA
  5
7CE
331
7CB
  5
7CF
331
7CC
  5
7D0
331
7CD
  5
7D1
331
7CE
  5
7D2
331
7CF
  5
7D3
331
7D0
  5
7D4
331
7D1
  5
7D5
331
7D2
  5
7D6
331
7D3
  5
7D7
331
7D4
  5
7D8
331
7D5
  5
7D9
331
7D6
  5
7DA
331
7D7
  5
7DB
331
7D8
  5
7DC
331
7D9
  5
7DD
331
7DA
  5
7DE
331
0
  5
7DF
331
0
  5
7E0
331
0
  5
7E1
331
0
  5
7E2
331
0
  5
7E3
331
0
  5
7E4
331
0
  5
7E5
331
0
  5
7E6
331
0
  5
7E7
331
0
  5
7E8
331
0
  5
7E9
331
0
  5
7EA
331
0
  5
7EB
331
0
  5
7EC
331
0
  5
7ED
331
0
  5
7EE
331
0
  5
7EF
331
0
  5
7F0
331
0
  5
7F1
331
0
  5
7F2
331
0
  5
7F3
331
0
  5
7F4
331
0
  5
7F5
331
0
  5
7F6
331
0
  5
7F7
331
0
  5
7F8
331
0
  5
7F9
331
0
  5
7FA
331
0
  5
7FB
331
0
  5
7FC
331
0
  5
7FD
331
0
  5
7FE
331
0
  5
7FF
331
0
  5
800
331
0
  5
801
331
0
  5
802
331
0
  5
803
331
0
  5
804
331
0
  5
805
331
0
  5
806
331
0
  5
807
331
0
  5
808
331
0
  5
809
331
0
  5
80A
331
0
  5
80B
331
0
  5
80C
331
0
  5
80D
331
0
  5
80E
331
0
  5
80F
331
0
  5
810
331
0
  5
811
331
0
  5
812
331
0
  5
813
331
0
  5
814
331
0
  5
815
331
0
  5
816
331
0
  5
817
331
0
  5
818
331
0
  5
819
331
0
  5
81A
331
0
  5
81B
331
0
  5
81C
331
0
  5
81D
331
0
  5
81E
331
0
  5
81F
331
0
  5
820
331
0
  5
821
331
0
  5
822
331
0
  5
823
331
0
  5
824
331
0
  5
825
331
0
  5
826
331
0
  5
827
331
0
  5
828
331
0
  5
829
331
0
  5
82A
331
0
  5
82B
331
0
  5
82C
331
0
  5
82D
331
0
  5
82E
331
0
  5
82F
331
0
  5
830
331
0
  5
831
331
0
  5
832
331
0
  5
833
331
0
  5
834
331
0
  5
835
331
0
  5
836
331
0
  5
837
331
0
  5
838
331
0
  5
839
331
0
  5
83A
331
0
  5
83B
331
0
  5
83C
331
0
  5
83D
331
0
  5
83E
331
0
  5
83F
331
0
  5
840
331
0
  5
841
331
0
  5
842
331
0
  5
843
331
0
  5
844
331
0
  5
845
331
0
  5
846
331
0
  5
847
331
0
  5
848
331
0
  5
849
331
0
  5
84A
331
0
  5
84B
331
0
  5
84C
331
0
  5
84D
331
0
  5
84E
331
0
  5
84F
331
0
  5
850
331
0
  5
851
331
0
  5
852
331
0
  5
853
331
0
  5
854
331
0
  5
855
331
0
  5
856
331
0
  5
857
331
0
  5
858
331
0
  5
859
331
0
  5
85A
331
0
  5
85B
331
0
  5
85C
331
0
  5
85D
331
0
  5
85E
331
0
  5
85F
331
0
  5
860
331
0
  5
861
331
0
  5
862
331
0
  5
863
331
0
  5
864
331
0
  5
865
331
0
  5
866
331
0
  5
867
331
0
  5
868
331
0
  5
869
331
0
  5
86A
331
0
  5
86B
331
0
  5
86C
331
0
  5
86D
331
0
  5
86E
331
0
  5
86F
331
0
  5
870
331
0
  5
871
331
0
  5
872
331
0
  5
873
331
0
  5
874
331
0
  5
875
331
0
  5
876
331
0
  5
878
331
0
  5
879
331
0
  5
87A
331
0
  5
87B
331
0
  5
87D
331
0
  5
87E
331
0
  5
87F
331
0
  5
880
331
0
  5
881
331
0
  5
883
331
0
  5
884
331
0
  5
885
331
0
  5
886
331
0
  5
887
331
0
  5
888
331
0
  5
889
331
0
  5
88A
331
0
  5
88B
331
0
  5
88C
331
0
  5
88D
331
0
  5
88E
331
0
  5
88F
331
0
  5
890
331
0
  5
891
331
0
  5
892
331
0
  5
893
331
0
  5
894
331
0
  5
895
331
0
  5
896
331
0
  5
897
331
0
  5
898
331
0
  5
899
331
0
  5
89A
331
0
  5
89B
331
0
  5
89C
331
0
  5
89D
331
0
  5
89E
331
0
  5
89F
331
0
  5
8A0
331
0
  5
8A1
331
0
  5
8A2
331
0
  5
8A3
331
0
  5
8A4
331
0
  5
8A5
331
0
  5
8A6
331
0
  5
8A7
331
0
  5
8A8
331
0
  5
8A9
331
0
  5
8AA
331
0
  5
8AB
331
0
  5
8AC
331
0
  5
8AD
331
0
  5
8AE
331
0
  5
8AF
331
0
  5
8B0
331
0
  5
8B1
331
0
  5
8B2
331
0
  5
8B3
331
0
  5
8B4
331
0
  5
8B5
331
0
  5
8B6
331
0
  5
8B7
331
0
  5
8B8
331
0
  5
8B9
331
0
  5
8BA
331
0
  5
8BB
331
0
  5
8BC
331
0
  5
8BD
331
0
  5
8BE
331
0
  5
8BF
331
0
  5
8C0
331
0
  5
8C1
331
0
  5
8C2
331
0
  5
8C3
331
0
  5
8C4
331
0
  5
8C5
331
0
  5
8C6
331
0
  5
8C7
331
0
  5
8C8
331
0
  5
8C9
331
0
  5
8CA
331
0
  5
8CB
331
0
  5
8CC
331
0
  5
8CD
331
0
  5
8CE
331
0
  5
8CF
331
0
  5
8D0
331
0
  5
8D1
331
0
  5
8D2
331
0
  5
8D3
331
0
  5
8D4
331
0
  5
8D5
331
0
  5
8D6
331
0
  5
8D7
331
0
  5
8D8
331
0
  5
8D9
331
0
  5
8DA
331
0
  5
8DB
331
0
  5
8DC
331
0
  5
8DD
331
0
  5
8DE
331
0
  5
8DF
331
0
  5
8E0
331
0
  5
8E1
331
0
  5
8E2
331
0
  5
8E3
331
0
  5
8E4
331
0
  5
8E5
331
0
  5
8E6
331
0
  5
8E7
331
0
  5
8E8
331
0
  5
8E9
331
0
  5
8EA
331
0
  5
8EB
331
0
  5
8EC
331
0
  5
8ED
331
0
  5
8EE
331
0
  5
8EF
331
0
  5
8F0
331
0
  5
8F1
331
0
  5
8F2
331
0
  5
8F3
331
0
  5
8F4
331
0
  5
8F5
331
0
  5
8F6
331
0
  5
8F7
331
0
  5
8F8
331
0
  5
8F9
331
0
  5
8FA
331
0
  5
8FB
331
0
  5
8FC
331
0
  5
8FD
331
0
  5
8FE
331
0
  5
8FF
331
0
  5
900
331
0
  5
901
331
0
  5
902
331
0
  5
903
331
0
  5
904
331
0
  5
905
331
0
  5
906
331
0
  5
907
331
0
  5
908
331
0
  5
909
331
0
  5
90A
331
0
  5
90B
331
0
  5
90C
331
0
  5
90D
331
0
  5
90E
331
0
  5
90F
331
0
  5
910
331
0
  5
911
331
0
  5
912
331
0
  5
913
331
0
  5
914
331
0
  5
915
331
0
  5
916
331
0
  5
917
331
0
  5
918
331
0
  5
919
331
0
  5
91A
331
0
  5
91B
331
0
  5
91C
331
0
  5
91D
331
0
  5
91E
331
0
  5
91F
331
0
  5
920
331
0
  5
921
331
0
  5
922
331
0
  5
923
331
0
  5
924
331
0
  5
925
331
0
  5
926
331
0
  5
927
331
0
  5
928
331
0
  5
929
331
0
  5
92A
331
0
  5
92B
331
0
  5
92C
331
0
  5
92D
331
0
  5
92E
331
0
  5
92F
331
0
  5
930
331
0
  5
931
331
0
  5
932
331
0
  5
933
331
0
  5
934
331
0
  5
935
331
0
  5
936
331
0
  5
937
331
0
  5
938
331
0
  5
939
331
0
  5
93A
331
0
  5
93B
331
0
  5
93C
331
0
  5
93D
331
0
  5
93E
331
0
  5
93F
331
0
  5
940
331
0
  5
941
331
0
  5
942
331
0
  5
943
331
0
  5
944
331
0
  5
945
331
0
  5
946
331
0
  5
947
331
944
  5
948
331
945
  5
949
331
946
  5
969
331
947
  5
96A
331
948
  5
96B
331
949
  5
96C
331
0
  5
96F
331
0
  5
970
331
0
  5
972
331
0
  5
973
331
972
  5
580
331
975
  5
976
331
976
  5
977
331
977
  5
978
331
978
  5
979
331
979
  5
97A
331
97A
  5
97B
331
97B
  5
97E
331
97C
  5
97F
331
97D
  5
980
331
97E
  5
981
331
97F
  5
982
331
980
  5
985
331
981
  5
986
331
982
  5
987
331
0
  5
988
331
0
  5
989
331
0
  5
98A
331
0
  5
997
331
0
  5
998
331
0
  5
999
331
997
  5
99A
331
998
  5
99B
331
999
  5
99C
331
99A
  5
99D
331
99B
  5
99E
331
99C
  5
99F
331
99D
  5
9A0
331
99E
  5
9A1
331
99F
  5
9A2
331
9A0
  5
9A3
331
9A1
  5
9A4
331
9A2
  5
9A5
331
9A3
  5
9A6
331
9A4
  5
9A7
331
9A5
  5
9A8
331
9A6
  5
9A9
331
9A7
  5
9AB
331
9A8
  5
9AC
331
9A9
  5
9AD
331
0
  5
9AE
331
0
  5
9AF
331
0
  5
9B0
331
0
  5
9B1
331
0
  5
9B2
331
0
  5
9B3
331
0
  5
9BA
331
0
  5
9BB
331
0
  5
9BC
  0
LAYOUT
  5
1D
102
{ACAD_REACTORS
330
1E
102
}
330
1E
100
AcDbPlotSettings
  1

  2
Bullzip PDF Printer.pc3
  4
A3
  6

 40
0.2
 41
0.0
 42
0.0
 43
0.0
 44
420.2
 45
297.1
 46
25.0
 47
12.0
 48
119.9999998100002
 49
0.0
140
2411.99999456
141
1634.999996185
142
1.0
143
6.0
 70
 11936
 72
     1
 73
     0
 74
     4
  7
monochrome.ctb
 75
     0
147
0.1666666666666667
148
-119.9999998100002
149
0.0
100
AcDbLayout
  1
Model
 70
     0
 71
     0
 10
0.0
 20
0.0
 11
12.0
 21
9.0
 12
0.0
 22
0.0
 32
0.0
 14
272.2362785945295
 24
12.59408140603989
 34
0.0
 15
2258.026401026495
 25
1555.786324857846
 35
0.0
146
0.0
 13
0.0
 23
0.0
 33
0.0
 16
1.0
 26
0.0
 36
0.0
 17
0.0
 27
1.0
 37
0.0
 76
     0
330
17
331
2B
1001
ACAD_PSEXT
1000
Bullzip PDF Printer.pc3
1000
Bullzip PDF Printer
1000
BULLZIP
1000
Bullzip PDF Printer 10.1.0.1871
1070
     0
  0
LAYOUT
  5
23
102
{ACAD_REACTORS
330
1E
102
}
330
1E
100
AcDbPlotSettings
  1

  2
SR-LP8300F
  4

  6

 40
0.0
 41
0.0
 42
0.0
 43
0.0
 44
0.0
 45
0.0
 46
0.0
 47
0.0
 48
0.0
 49
0.0
140
0.0
141
0.0
142
1.0
143
1.0
 70
   688
 72
     0
 73
     0
 74
     5
  7
monochrome.ctb
 75
    16
147
1.0
148
0.0
149
0.0
100
AcDbLayout
  1
ﾚｲｱｳﾄ1
 70
     0
 71
     1
 10
0.0
 20
0.0
 11
12.0
 21
9.0
 12
0.0
 22
0.0
 32
0.0
 14
1000000000000000E+20
 24
1000000000000000E+20
 34
1000000000000000E+20
 15
-1000000000000000E+20
 25
-1000000000000000E+20
 35
-1000000000000000E+20
146
0.0
 13
0.0
 23
0.0
 33
0.0
 16
1.0
 26
0.0
 36
0.0
 17
0.0
 27
1.0
 37
0.0
 76
     0
330
20
  0
MATERIAL
  5
50
102
{ACAD_REACTORS
330
7
102
}
102
{ACAD_XDICTIONARY
360
9DC
102
}
330
7
100
AcDbMaterial
  1
ByBlock
  0
MATERIAL
  5
10
102
{ACAD_REACTORS
330
7
102
}
102
{ACAD_XDICTIONARY
360
9D8
102
}
330
7
100
AcDbMaterial
  1
ByLayer
  0
MATERIAL
  5
6
102
{ACAD_REACTORS
330
7
102
}
102
{ACAD_XDICTIONARY
360
9DA
102
}
330
7
100
AcDbMaterial
  1
Global
1001
ACAD
1070
    -1
1070
     3
1070
     0
1000

1071
        0
  0
MLEADERSTYLE
  5
96D
102
{ACAD_REACTORS
330
94D
102
}
102
{ACAD_XDICTIONARY
360
A0E
102
}
330
94D
100
AcDbMLeaderStyle
170
     2
171
     1
172
     0
 90
        2
 40
0.0
 41
0.0
173
     1
 91
-1056964608
340
D
 92
       -2
290
     1
 42
0.09
291
     1
 43
0.36
  3
Standard
341
0
 44
0.18
300

342
E
174
     1
178
     6
175
     1
176
     0
 93
-1056964608
 45
0.18
292
     0
297
     0
 46
0.18
343
0
 94
-1056964608
 47
1.0
 49
1.0
140
1.0
293
     1
141
0.0
294
     1
177
     0
142
1.0
295
     0
296
     0
143
0.125
1001
ACAD_MLEADERVER
1070
     2
  0
MLINESTYLE
  5
14
102
{ACAD_REACTORS
330
15
102
}
330
15
100
AcDbMlineStyle
  2
STANDARD
 70
     0
  3

 62
     0
 51
90.0
 52
90.0
 71
     2
 49
0.5
 62
   256
  6
BYLAYER
 49
-0.5
 62
   256
  6
BYLAYER
  0
ACDBPLACEHOLDER
  5
3
102
{ACAD_REACTORS
330
4
102
}
330
4
  0
SCALE
  5
4F
102
{ACAD_REACTORS
330
2D
102
}
330
2D
100
AcDbScale
 70
     0
300
1:1
140
1.0
141
1.0
290
     1
  0
VISUALSTYLE
  5
955
102
{ACAD_REACTORS
330
2A
102
}
102
{ACAD_XDICTIONARY
360
9E6
102
}
330
2A
100
AcDbVisualStyle
  2
2dWireframe
 70
     4
 71
     0
 72
     2
 73
     0
 90
        0
 40
0.6
 41
30.0
 62
     5
 63
     7
 74
     1
 91
        4
 64
     7
 65
   257
 75
     1
175
     1
 42
1.0
 92
        0
 66
   257
 43
1.0
 76
     1
 77
     6
 78
     2
 67
     7
 79
     5
170
     0
171
     0
290
     0
174
     0
 93
        1
 44
0.0
173
     0
291
     0
 45
0.0
1001
ACAD
1000
AcDbSavedByObjectVersion
1070
     0
  0
VISUALSTYLE
  5
958
102
{ACAD_REACTORS
330
2A
102
}
102
{ACAD_XDICTIONARY
360
9EC
102
}
330
2A
100
AcDbVisualStyle
  2
Basic
 70
     7
 71
     1
 72
     0
 73
     1
 90
        0
 40
0.6
 41
30.0
 62
     5
 63
     7
 74
     0
 91
        4
 64
     7
 65
   257
 75
     1
175
     1
 42
1.0
 92
        8
 66
     7
 43
1.0
 76
     1
 77
     6
 78
     2
 67
     7
 79
     5
170
     0
171
     0
290
     0
174
     0
 93
        1
 44
0.0
173
     0
291
     1
 45
0.0
1001
ACAD
1000
AcDbSavedByObjectVersion
1070
     0
  0
VISUALSTYLE
  5
95C
102
{ACAD_REACTORS
330
2A
102
}
102
{ACAD_XDICTIONARY
360
9F4
102
}
330
2A
100
AcDbVisualStyle
  2
Brighten
 70
    12
 71
     2
 72
     2
 73
     0
 90
        0
 40
0.6
 41
30.0
 62
     5
 63
     7
 74
     1
 91
        4
 64
     7
 65
   257
 75
     1
175
     1
 42
1.0
 92
        8
 66
     7
 43
1.0
 76
     1
 77
     6
 78
     2
 67
     7
 79
     5
170
     0
171
     0
290
     0
174
     0
 93
        1
 44
50.0
173
     0
291
     1
 45
0.0
1001
ACAD
1000
AcDbSavedByObjectVersion
1070
     0
  0
VISUALSTYLE
  5
960
102
{ACAD_REACTORS
330
2A
102
}
102
{ACAD_XDICTIONARY
360
9FC
102
}
330
2A
100
AcDbVisualStyle
  2
ColorChange
 70
    16
 71
     2
 72
     2
 73
     3
 90
        0
 40
0.6
 41
30.0
 62
     5
 63
     8
 74
     1
 91
        4
 64
     7
 65
   257
 75
     1
175
     1
 42
1.0
 92
        8
 66
     8
 43
1.0
 76
     1
 77
     6
 78
     2
 67
     7
 79
     5
170
     0
171
     0
290
     0
174
     0
 93
        1
 44
0.0
173
     0
291
     1
 45
0.0
1001
ACAD
1000
AcDbSavedByObjectVersion
1070
     0
  0
VISUALSTYLE
  5
95A
102
{ACAD_REACTORS
330
2A
102
}
102
{ACAD_XDICTIONARY
360
9F0
102
}
330
2A
100
AcDbVisualStyle
  2
Conceptual
 70
     9
 71
     3
 72
     2
 73
     0
 90
        0
 40
0.6
 41
30.0
 62
     5
 63
     7
 74
     2
 91
        2
 64
     7
 65
   257
 75
     1
175
     1
 42
40.0
 92
        8
 66
     7
 43
1.0
 76
     1
 77
     6
 78
     2
 67
     7
 79
     3
170
     0
171
     0
290
     0
174
     0
 93
        1
 44
0.0
173
     0
291
     0
 45
0.0
1001
ACAD
1000
AcDbSavedByObjectVersion
1070
     0
  0
VISUALSTYLE
  5
95B
102
{ACAD_REACTORS
330
2A
102
}
102
{ACAD_XDICTIONARY
360
9F2
102
}
330
2A
100
AcDbVisualStyle
  2
Dim
 70
    11
 71
     2
 72
     2
 73
     0
 90
        0
 40
0.6
 41
30.0
 62
     5
 63
     7
 74
     1
 91
        4
 64
     7
 65
   257
 75
     1
175
     1
 42
1.0
 92
        8
 66
     7
 43
1.0
 76
     1
 77
     6
 78
     2
 67
     7
 79
     5
170
     0
171
     0
290
     0
174
     0
 93
        1
 44
-50.0
173
     0
291
     1
 45
0.0
1001
ACAD
1000
AcDbSavedByObjectVersion
1070
     0
  0
VISUALSTYLE
  5
963
102
{ACAD_REACTORS
330
2A
102
}
102
{ACAD_XDICTIONARY
360
A02
102
}
330
2A
100
AcDbVisualStyle
  2
EdgeColorOff
 70
    22
 71
     2
 72
     2
 73
     0
 90
        0
 40
0.6
 41
30.0
 62
     5
 63
     7
 74
     1
 91
        4
 64
     7
 65
   257
 75
     1
175
     1
 42
1.0
 92
        8
 66
     7
 43
1.0
 76
     1
 77
     6
 78
     2
 67
     7
 79
     5
170
     0
171
     0
290
     0
174
     0
 93
        1
 44
0.0
173
     0
291
     1
 45
0.0
1001
ACAD
1000
AcDbSavedByObjectVersion
1070
     0
  0
VISUALSTYLE
  5
95F
102
{ACAD_REACTORS
330
2A
102
}
102
{ACAD_XDICTIONARY
360
9FA
102
}
330
2A
100
AcDbVisualStyle
  2
Facepattern
 70
    15
 71
     2
 72
     2
 73
     0
 90
        0
 40
0.6
 41
30.0
 62
     5
 63
     7
 74
     1
 91
        4
 64
     7
 65
   257
 75
     1
175
     1
 42
1.0
 92
        8
 66
     7
 43
1.0
 76
     1
 77
     6
 78
     2
 67
     7
 79
     5
170
     0
171
     0
290
     0
174
     0
 93
        1
 44
0.0
173
     0
291
     1
 45
0.0
1001
ACAD
1000
AcDbSavedByObjectVersion
1070
     0
  0
VISUALSTYLE
  5
951
102
{ACAD_REACTORS
330
2A
102
}
102
{ACAD_XDICTIONARY
360
9DE
102
}
330
2A
100
AcDbVisualStyle
  2
Flat
 70
     0
 71
     2
 72
     1
 73
     1
 90
        2
 40
0.6
 41
30.0
 62
     5
 63
     7
 74
     0
 91
        4
 64
     7
 65
   257
 75
     1
175
     1
 42
1.0
 92
        8
 66
     7
 43
1.0
 76
     1
 77
     6
 78
     2
 67
     7
 79
     5
170
     0
171
     0
290
     0
174
     0
 93
       13
 44
0.0
173
     0
291
     1
 45
0.0
1001
ACAD
1000
AcDbSavedByObjectVersion
1070
     0
  0
VISUALSTYLE
  5
952
102
{ACAD_REACTORS
330
2A
102
}
102
{ACAD_XDICTIONARY
360
9E0
102
}
330
2A
100
AcDbVisualStyle
  2
FlatWithEdges
 70
     1
 71
     2
 72
     1
 73
     1
 90
        2
 40
0.6
 41
30.0
 62
     5
 63
     7
 74
     1
 91
        4
 64
     7
 65
   257
 75
     1
175
     1
 42
1.0
 92
        0
 66
   257
 43
1.0
 76
     1
 77
     6
 78
     2
 67
     7
 79
     5
170
     0
171
     0
290
     0
174
     0
 93
       13
 44
0.0
173
     0
291
     1
 45
0.0
1001
ACAD
1000
AcDbSavedByObjectVersion
1070
     0
  0
VISUALSTYLE
  5
953
102
{ACAD_REACTORS
330
2A
102
}
102
{ACAD_XDICTIONARY
360
9E2
102
}
330
2A
100
AcDbVisualStyle
  2
Gouraud
 70
     2
 71
     2
 72
     2
 73
     1
 90
        2
 40
0.6
 41
30.0
 62
     5
 63
     7
 74
     0
 91
        4
 64
     7
 65
   257
 75
     1
175
     1
 42
1.0
 92
        0
 66
     7
 43
1.0
 76
     1
 77
     6
 78
     2
 67
     7
 79
     5
170
     0
171
     0
290
     0
174
     0
 93
       13
 44
0.0
173
     0
291
     1
 45
0.0
1001
ACAD
1000
AcDbSavedByObjectVersion
1070
     0
  0
VISUALSTYLE
  5
954
102
{ACAD_REACTORS
330
2A
102
}
102
{ACAD_XDICTIONARY
360
9E4
102
}
330
2A
100
AcDbVisualStyle
  2
GouraudWithEdges
 70
     3
 71
     2
 72
     2
 73
     1
 90
        2
 40
0.6
 41
30.0
 62
     5
 63
     7
 74
     1
 91
        4
 64
     7
 65
   257
 75
     1
175
     1
 42
1.0
 92
        0
 66
   257
 43
1.0
 76
     1
 77
     6
 78
     2
 67
     7
 79
     5
170
     0
171
     0
290
     0
174
     0
 93
       13
 44
0.0
173
     0
291
     1
 45
0.0
1001
ACAD
1000
AcDbSavedByObjectVersion
1070
     0
  0
VISUALSTYLE
  5
957
102
{ACAD_REACTORS
330
2A
102
}
102
{ACAD_XDICTIONARY
360
9EA
102
}
330
2A
100
AcDbVisualStyle
  2
Hidden
 70
     6
 71
     1
 72
     2
 73
     2
 90
        0
 40
0.6
 41
30.0
 62
     5
 63
     7
 74
     2
 91
        2
 64
     7
 65
   257
 75
     2
175
     1
 42
40.0
 92
        0
 66
   257
 43
1.0
 76
     1
 77
     6
 78
     2
 67
     7
 79
     3
170
     0
171
     0
290
     0
174
     0
 93
        1
 44
0.0
173
     0
291
     0
 45
0.0
1001
ACAD
1000
AcDbSavedByObjectVersion
1070
     0
  0
VISUALSTYLE
  5
961
102
{ACAD_REACTORS
330
2A
102
}
102
{ACAD_XDICTIONARY
360
9FE
102
}
330
2A
100
AcDbVisualStyle
  2
JitterOff
 70
    20
 71
     2
 72
     2
 73
     0
 90
        0
 40
0.6
 41
30.0
 62
     5
 63
     7
 74
     1
 91
        4
 64
     7
 65
   257
 75
     1
175
     1
 42
1.0
 92
       10
 66
     7
 43
1.0
 76
     1
 77
     6
 78
     2
 67
     7
 79
     5
170
     0
171
     0
290
     0
174
     0
 93
        1
 44
0.0
173
     0
291
     1
 45
0.0
1001
ACAD
1000
AcDbSavedByObjectVersion
1070
     0
  0
VISUALSTYLE
  5
95E
102
{ACAD_REACTORS
330
2A
102
}
102
{ACAD_XDICTIONARY
360
9F8
102
}
330
2A
100
AcDbVisualStyle
  2
Linepattern
 70
    14
 71
     2
 72
     2
 73
     0
 90
        0
 40
0.6
 41
30.0
 62
     5
 63
     7
 74
     1
 91
        4
 64
     7
 65
   257
 75
     7
175
     7
 42
1.0
 92
        8
 66
     7
 43
1.0
 76
     1
 77
     6
 78
     2
 67
     7
 79
     5
170
     0
171
     0
290
     0
174
     0
 93
        1
 44
0.0
173
     0
291
     1
 45
0.0
1001
ACAD
1000
AcDbSavedByObjectVersion
1070
     0
  0
VISUALSTYLE
  5
962
102
{ACAD_REACTORS
330
2A
102
}
102
{ACAD_XDICTIONARY
360
A00
102
}
330
2A
100
AcDbVisualStyle
  2
OverhangOff
 70
    21
 71
     2
 72
     2
 73
     0
 90
        0
 40
0.6
 41
30.0
 62
     5
 63
     7
 74
     1
 91
        4
 64
     7
 65
   257
 75
     1
175
     1
 42
1.0
 92
        9
 66
     7
 43
1.0
 76
     1
 77
     6
 78
     2
 67
     7
 79
     5
170
     0
171
     0
290
     0
174
     0
 93
        1
 44
0.0
173
     0
291
     1
 45
0.0
1001
ACAD
1000
AcDbSavedByObjectVersion
1070
     0
  0
VISUALSTYLE
  5
959
102
{ACAD_REACTORS
330
2A
102
}
102
{ACAD_XDICTIONARY
360
9EE
102
}
330
2A
100
AcDbVisualStyle
  2
Realistic
 70
     8
 71
     2
 72
     3
 73
     0
 90
        2
 40
0.6
 41
30.0
 62
     5
 63
     7
 74
     0
 91
        0
 64
     7
 65
   257
 75
     1
175
     1
 42
1.0
 92
        8
 66
   257
 43
1.0
 76
     1
 77
     6
 78
     2
 67
     7
 79
     3
170
     0
171
     0
290
     0
174
     0
 93
       13
 44
0.0
173
     0
291
     0
 45
0.0
1001
ACAD
1000
AcDbSavedByObjectVersion
1070
     0
  0
VISUALSTYLE
  5
968
102
{ACAD_REACTORS
330
2A
102
}
102
{ACAD_XDICTIONARY
360
A0C
102
}
330
2A
100
AcDbVisualStyle
  2
Shaded
 70
    27
 71
     2
 72
     2
 73
     1
 90
        2
 40
0.6
 41
30.0
 62
     5
 63
     7
 74
     0
 91
        4
 64
     7
 65
   257
 75
     1
175
     1
 42
1.0
 92
        8
 66
   257
 43
1.0
 76
     1
 77
     6
 78
     2
 67
   251
 79
     3
170
     0
171
     0
290
     0
174
     0
 93
        5
 44
0.0
173
     0
291
     0
 45
0.0
1001
ACAD
1000
AcDbSavedByObjectVersion
1070
     0
  0
VISUALSTYLE
  5
967
102
{ACAD_REACTORS
330
2A
102
}
102
{ACAD_XDICTIONARY
360
A0A
102
}
330
2A
100
AcDbVisualStyle
  2
Shaded with edges
 70
    26
 71
     2
 72
     2
 73
     1
 90
        2
 40
0.6
 41
30.0
 62
     5
 63
     7
 74
     1
 91
       10
 64
     7
 65
   257
 75
     2
175
     1
 42
1.0
 92
        8
 66
   257
 43
1.0
 76
     1
 77
     6
 78
     2
 67
     7
 79
     3
170
     0
171
     0
290
     0
174
     0
 93
        5
 44
0.0
173
     0
291
     0
 45
0.0
1001
ACAD
1000
AcDbSavedByObjectVersion
1070
     0
  0
VISUALSTYLE
  5
964
102
{ACAD_REACTORS
330
2A
102
}
102
{ACAD_XDICTIONARY
360
A04
102
}
330
2A
100
AcDbVisualStyle
  2
Shades of Gray
 70
    23
 71
     2
 72
     2
 73
     3
 90
        0
 40
0.6
 41
30.0
 62
     5
 63
     7
 74
     2
 91
        2
 64
     7
 65
     7
 75
     1
175
     1
 42
40.0
 92
        8
 66
     7
 43
1.0
 76
     1
 77
     6
 78
     2
 67
     7
 79
     3
170
     0
171
     0
290
     0
174
     0
 93
        1
 44
0.0
173
     0
291
     0
 45
0.0
1001
ACAD
1000
AcDbSavedByObjectVersion
1070
     0
  0
VISUALSTYLE
  5
965
102
{ACAD_REACTORS
330
2A
102
}
102
{ACAD_XDICTIONARY
360
A06
102
}
330
2A
100
AcDbVisualStyle
  2
Sketchy
 70
    24
 71
     1
 72
     2
 73
     2
 90
        0
 40
0.6
 41
30.0
 62
     5
 63
     7
 74
     2
 91
        2
 64
     7
 65
     7
 75
     1
175
     1
 42
40.0
 92
       11
 66
     7
 43
1.0
 76
     1
 77
     6
 78
     2
 67
     7
 79
     6
170
     0
171
     0
290
     0
174
     0
 93
        1
 44
0.0
173
     0
291
     0
 45
0.0
1001
ACAD
1000
AcDbSavedByObjectVersion
1070
     0
  0
VISUALSTYLE
  5
95D
102
{ACAD_REACTORS
330
2A
102
}
102
{ACAD_XDICTIONARY
360
9F6
102
}
330
2A
100
AcDbVisualStyle
  2
Thicken
 70
    13
 71
     2
 72
     2
 73
     0
 90
        0
 40
0.6
 41
30.0
 62
     5
 63
     7
 74
     1
 91
        4
 64
     7
 65
   257
 75
     1
175
     1
 42
1.0
 92
       12
 66
     7
 43
1.0
 76
     1
 77
     6
 78
     2
 67
     7
 79
     5
170
     0
171
     0
290
     0
174
     0
 93
        1
 44
0.0
173
     0
291
     1
 45
0.0
1001
ACAD
1000
AcDbSavedByObjectVersion
1070
     0
  0
VISUALSTYLE
  5
956
102
{ACAD_REACTORS
330
2A
102
}
102
{ACAD_XDICTIONARY
360
9E8
102
}
330
2A
100
AcDbVisualStyle
  2
Wireframe
 70
     5
 71
     0
 72
     2
 73
     0
 90
        0
 40
0.6
 41
30.0
 62
     5
 63
     7
 74
     1
 91
        4
 64
     7
 65
   257
 75
     1
175
     1
 42
1.0
 92
        0
 66
   257
 43
1.0
 76
     1
 77
     6
 78
     2
 67
     7
 79
     5
170
     0
171
     0
290
     0
174
     0
 93
        1
 44
0.0
173
     0
291
     0
 45
0.0
1001
ACAD
1000
AcDbSavedByObjectVersion
1070
     0
  0
VISUALSTYLE
  5
966
102
{ACAD_REACTORS
330
2A
102
}
102
{ACAD_XDICTIONARY
360
A08
102
}
330
2A
100
AcDbVisualStyle
  2
X-Ray
 70
    25
 71
     2
 72
     2
 73
     1
 90
        1
 40
0.5
 41
30.0
 62
     5
 63
     7
 74
     1
 91
        0
 64
     7
 65
   257
 75
     1
175
     1
 42
1.0
 92
        8
 66
     7
 43
1.0
 76
     1
 77
     6
 78
     2
 67
     7
 79
     3
170
     0
171
     0
290
     0
174
     0
 93
       13
 44
0.0
173
     0
291
     0
 45
0.0
1001
ACAD
1000
AcDbSavedByObjectVersion
1070
     0
  0
XRECORD
  5
9D2
102
{ACAD_REACTORS
330
9D1
102
}
330
9D1
100
AcDbXrecord
280
     1
340
29
  0
XRECORD
  5
9D3
102
{ACAD_REACTORS
330
9D1
102
}
330
9D1
100
AcDbXrecord
280
     1
340
7
  0
DICTIONARYVAR
  5
94B
102
{ACAD_REACTORS
330
94A
102
}
330
94A
100
DictionaryVariables
280
     0
  1
1:1
  0
DICTIONARYVAR
  5
971
102
{ACAD_REACTORS
330
94A
102
}
330
94A
100
DictionaryVariables
280
     0
  1
Standard
  0
DICTIONARYVAR
  5
9CF
102
{ACAD_REACTORS
330
94A
102
}
330
94A
100
DictionaryVariables
280
     0
  1
0
  0
DICTIONARYVAR
  5
9D0
102
{ACAD_REACTORS
330
94A
102
}
330
94A
100
DictionaryVariables
280
     0
  1
1
  0
DICTIONARYVAR
  5
9D7
102
{ACAD_REACTORS
330
94A
102
}
330
94A
100
DictionaryVariables
280
     0
  1
1
  0
DICTIONARYVAR
  5
94E
102
{ACAD_REACTORS
330
94A
102
}
330
94A
100
DictionaryVariables
280
     0
  1
0
  0
DICTIONARY
  5
9DC
330
50
100
AcDbDictionary
280
     1
281
     1
  3
ACAD_XREC_ROUNDTRIP
360
9DD
  0
DICTIONARY
  5
9D8
330
10
100
AcDbDictionary
280
     1
281
     1
  3
ACAD_XREC_ROUNDTRIP
360
9D9
  0
DICTIONARY
  5
9DA
330
6
100
AcDbDictionary
280
     1
281
     1
  3
ACAD_XREC_ROUNDTRIP
360
9DB
  0
DICTIONARY
  5
A0E
330
96D
100
AcDbDictionary
280
     1
281
     1
  3
ACAD_XREC_ROUNDTRIP
360
A0F
  0
DICTIONARY
  5
9E6
330
955
100
AcDbDictionary
280
     1
281
     1
  3
ACAD_XREC_ROUNDTRIP
360
9E7
  0
DICTIONARY
  5
9EC
330
958
100
AcDbDictionary
280
     1
281
     1
  3
ACAD_XREC_ROUNDTRIP
360
9ED
  0
DICTIONARY
  5
9F4
330
95C
100
AcDbDictionary
280
     1
281
     1
  3
ACAD_XREC_ROUNDTRIP
360
9F5
  0
DICTIONARY
  5
9FC
330
960
100
AcDbDictionary
280
     1
281
     1
  3
ACAD_XREC_ROUNDTRIP
360
9FD
  0
DICTIONARY
  5
9F0
330
95A
100
AcDbDictionary
280
     1
281
     1
  3
ACAD_XREC_ROUNDTRIP
360
9F1
  0
DICTIONARY
  5
9F2
330
95B
100
AcDbDictionary
280
     1
281
     1
  3
ACAD_XREC_ROUNDTRIP
360
9F3
  0
DICTIONARY
  5
A02
330
963
100
AcDbDictionary
280
     1
281
     1
  3
ACAD_XREC_ROUNDTRIP
360
A03
  0
DICTIONARY
  5
9FA
330
95F
100
AcDbDictionary
280
     1
281
     1
  3
ACAD_XREC_ROUNDTRIP
360
9FB
  0
DICTIONARY
  5
9DE
330
951
100
AcDbDictionary
280
     1
281
     1
  3
ACAD_XREC_ROUNDTRIP
360
9DF
  0
DICTIONARY
  5
9E0
330
952
100
AcDbDictionary
280
     1
281
     1
  3
ACAD_XREC_ROUNDTRIP
360
9E1
  0
DICTIONARY
  5
9E2
330
953
100
AcDbDictionary
280
     1
281
     1
  3
ACAD_XREC_ROUNDTRIP
360
9E3
  0
DICTIONARY
  5
9E4
330
954
100
AcDbDictionary
280
     1
281
     1
  3
ACAD_XREC_ROUNDTRIP
360
9E5
  0
DICTIONARY
  5
9EA
330
957
100
AcDbDictionary
280
     1
281
     1
  3
ACAD_XREC_ROUNDTRIP
360
9EB
  0
DICTIONARY
  5
9FE
330
961
100
AcDbDictionary
280
     1
281
     1
  3
ACAD_XREC_ROUNDTRIP
360
9FF
  0
DICTIONARY
  5
9F8
330
95E
100
AcDbDictionary
280
     1
281
     1
  3
ACAD_XREC_ROUNDTRIP
360
9F9
  0
DICTIONARY
  5
A00
330
962
100
AcDbDictionary
280
     1
281
     1
  3
ACAD_XREC_ROUNDTRIP
360
A01
  0
DICTIONARY
  5
9EE
330
959
100
AcDbDictionary
280
     1
281
     1
  3
ACAD_XREC_ROUNDTRIP
360
9EF
  0
DICTIONARY
  5
A0C
330
968
100
AcDbDictionary
280
     1
281
     1
  3
ACAD_XREC_ROUNDTRIP
360
A0D
  0
DICTIONARY
  5
A0A
330
967
100
AcDbDictionary
280
     1
281
     1
  3
ACAD_XREC_ROUNDTRIP
360
A0B
  0
DICTIONARY
  5
A04
330
964
100
AcDbDictionary
280
     1
281
     1
  3
ACAD_XREC_ROUNDTRIP
360
A05
  0
DICTIONARY
  5
A06
330
965
100
AcDbDictionary
280
     1
281
     1
  3
ACAD_XREC_ROUNDTRIP
360
A07
  0
DICTIONARY
  5
9F6
330
95D
100
AcDbDictionary
280
     1
281
     1
  3
ACAD_XREC_ROUNDTRIP
360
9F7
  0
DICTIONARY
  5
9E8
330
956
100
AcDbDictionary
280
     1
281
     1
  3
ACAD_XREC_ROUNDTRIP
360
9E9
  0
DICTIONARY
  5
A08
330
966
100
AcDbDictionary
280
     1
281
     1
  3
ACAD_XREC_ROUNDTRIP
360
A09
  0
XRECORD
  5
9DD
102
{ACAD_REACTORS
330
9DC
102
}
330
9DC
100
AcDbXrecord
280
     1
102
MATERIAL
148
0.0
149
0.0
149
0.0
 93
        0
 94
      127
282
     0
 72
     1
 77
     1
171
     1
175
     1
179
     1
273
     0
  0
XRECORD
  5
9D9
102
{ACAD_REACTORS
330
9D8
102
}
330
9D8
100
AcDbXrecord
280
     1
102
MATERIAL
148
0.0
149
0.0
149
0.0
 93
        0
 94
      127
282
     0
 72
     1
 77
     1
171
     1
175
     1
179
     1
273
     0
  0
XRECORD
  5
9DB
102
{ACAD_REACTORS
330
9DA
102
}
330
9DA
100
AcDbXrecord
280
     1
102
MATERIAL
148
0.0
149
0.0
149
0.0
 93
        0
 94
      127
282
     0
 72
     1
 77
     1
171
     1
175
     1
179
     1
273
     0
  0
XRECORD
  5
A0F
102
{ACAD_REACTORS
330
A0E
102
}
330
A0E
100
AcDbXrecord
280
     1
102
ACAD_ROUNDTRIP_2010_MLEADER_STYLE
  0
XRECORD
  5
9E7
102
{ACAD_REACTORS
330
9E6
102
}
330
9E6
100
AcDbXrecord
280
     1
102
RTVSPropertyOp0
 70
     1
102
RTVSPropertyOp1
 70
     1
102
RTVSPropertyOp2
 70
     1
102
RTVSPropertyOp3
 70
     1
102
RTVSPropertyOp4
 70
     1
102
RTVSPropertyOp5
 70
     1
102
RTVSPropertyOp6
 70
     1
102
RTVSPropertyOp7
 70
     1
102
RTVSPropertyOp8
 70
     1
102
RTVSPropertyOp9
 70
     1
102
RTVSPropertyOp10
 70
     1
102
RTVSPropertyOp11
 70
     1
102
RTVSPropertyOp12
 70
     1
102
RTVSPropertyOp13
 70
     1
102
RTVSPropertyOp14
 70
     1
102
RTVSPropertyOp15
 70
     1
102
RTVSPropertyOp16
 70
     1
102
RTVSPropertyOp17
 70
     1
102
RTVSPropertyOp18
 70
     1
102
RTVSPropertyOp19
 70
     1
102
RTVSPropertyOp20
 70
     1
102
RTVSPropertyOp21
 70
     1
102
RTVSPropertyOp22
 70
     1
102
RTVSPropertyOp23
 70
     1
102
RTVSPropertyOp24
 70
     1
102
RTVSPropertyOp25
 70
     1
102
RTVSPropertyOp26
 70
     1
102
RTVSPropertyOp27
 70
     1
102
RTVSPropertyOp28
 70
     1
102
RTVSPropertyOp29
 70
     1
102
RTVSPropertyOp30
 70
     1
102
RTVSPropertyOp31
 70
     1
102
RTVSPropertyOp32
 70
     1
102
RTVSPropertyOp33
 70
     1
102
RTVSPropertyOp34
 70
     1
102
RTVSPropertyOp35
 70
     1
102
RTVSPropertyOp36
 70
     1
102
RTVSPropertyOp37
 70
     1
102
RTVSPropertyOp38
 70
     1
102
RTVSPropertyOp39
 70
     1
102
RTVSPropertyOp40
 70
     1
102
RTVSPropertyOp41
 70
     1
102
RTVSPropertyOp42
 70
     1
102
RTVSPropertyOp43
 70
     1
102
RTVSPropertyOp44
 70
     1
102
RTVSPropertyOp45
 70
     1
102
RTVSPropertyOp46
 70
     1
102
RTVSPropertyOp47
 70
     1
102
RTVSPropertyOp48
 70
     1
102
RTVSPropertyOp49
 70
     1
102
RTVSPropertyOp50
 70
     1
102
RTVSPropertyOp51
 70
     0
102
RTVSPropertyOp52
 70
     0
102
RTVSPropertyOp53
 70
     1
102
RTVSPropertyOp54
 70
     1
102
RTVSPropertyOp55
 70
     1
102
RTVSPropertyOp56
 70
     1
102
RTVSPropertyOp57
 70
     1
102
RTVSPost2010Prop28
280
     1
102
RTVSPost2010PropOp28
 70
     1
102
RTVSPost2010Prop29
280
     1
102
RTVSPost2010PropOp29
 70
     1
102
RTVSPost2010Prop30
280
     0
102
RTVSPost2010PropOp30
 70
     1
102
RTVSPost2010Prop31
280
     0
102
RTVSPost2010PropOp31
 70
     1
102
RTVSPost2010Prop32
280
     0
102
RTVSPost2010PropOp32
 70
     1
102
RTVSPost2010Prop33
280
     0
102
RTVSPost2010PropOp33
 70
     1
102
RTVSPost2010Prop34
280
     0
102
RTVSPost2010PropOp34
 70
     1
102
RTVSPost2010Prop35
280
     0
102
RTVSPost2010PropOp35
 70
     1
102
RTVSPost2010Prop36
280
     0
102
RTVSPost2010PropOp36
 70
     1
102
RTVSPost2010Prop37
 90
       50
102
RTVSPost2010PropOp37
 70
     1
102
RTVSPost2010Prop38
140
0.0
102
RTVSPost2010PropOp38
 70
     1
102
RTVSPost2010Prop39
140
1.0
102
RTVSPost2010PropOp39
 70
     1
102
RTVSPost2010Prop40
 90
        0
102
RTVSPost2010PropOp40
 70
     1
102
RTVSPost2010Prop41ColorIndex
 90
       18
102
RTVSPost2010Prop41ColorRGB
 90
        0
102
RTVSPost2010PropOp41
 70
     1
102
RTVSPost2010Prop42
 90
       50
102
RTVSPost2010PropOp42
 70
     1
102
RTVSPost2010Prop43
 90
        3
102
RTVSPost2010PropOp43
 70
     1
102
RTVSPost2010Prop44ColorIndex
 90
        5
102
RTVSPost2010Prop44ColorRGB
 90
      255
102
RTVSPost2010PropOp44
 70
     1
102
RTVSPost2010Prop45
280
     0
102
RTVSPost2010PropOp45
 70
     1
102
RTVSPost2010Prop46
 90
       50
102
RTVSPost2010PropOp46
 70
     1
102
RTVSPost2010Prop47
 90
       50
102
RTVSPost2010PropOp47
 70
     1
102
RTVSPost2010Prop48
 90
       50
102
RTVSPost2010PropOp48
 70
     1
102
RTVSPost2010Prop49
280
     0
102
RTVSPost2010PropOp49
 70
     1
102
RTVSPost2010Prop50
 90
       50
102
RTVSPost2010PropOp50
 70
     1
102
RTVSPost2010Prop51ColorIndex
 90
      256
102
RTVSPost2010Prop51ColorRGB
 90
-16777216
102
RTVSPost2010PropOp51
 70
     0
102
RTVSPost2010Prop52
140
1.0
102
RTVSPost2010PropOp52
 70
     0
102
RTVSPost2010Prop53
 90
        2
102
RTVSPost2010PropOp53
 70
     1
102
RTVSPost2010Prop54
  1
strokes_ogs.tif
102
RTVSPost2010PropOp54
 70
     1
102
RTVSPost2010Prop55
280
     0
102
RTVSPost2010PropOp55
 70
     1
102
RTVSPost2010Prop56
140
1.0
102
RTVSPost2010PropOp56
 70
     1
102
RTVSPost2010Prop57
140
1.0
102
RTVSPost2010PropOp57
 70
     1
  0
XRECORD
  5
9ED
102
{ACAD_REACTORS
330
9EC
102
}
330
9EC
100
AcDbXrecord
280
     1
102
RTVSPropertyOp0
 70
     1
102
RTVSPropertyOp1
 70
     1
102
RTVSPropertyOp2
 70
     1
102
RTVSPropertyOp3
 70
     1
102
RTVSPropertyOp4
 70
     1
102
RTVSPropertyOp5
 70
     1
102
RTVSPropertyOp6
 70
     1
102
RTVSPropertyOp7
 70
     1
102
RTVSPropertyOp8
 70
     1
102
RTVSPropertyOp9
 70
     1
102
RTVSPropertyOp10
 70
     1
102
RTVSPropertyOp11
 70
     1
102
RTVSPropertyOp12
 70
     1
102
RTVSPropertyOp13
 70
     1
102
RTVSPropertyOp14
 70
     1
102
RTVSPropertyOp15
 70
     1
102
RTVSPropertyOp16
 70
     1
102
RTVSPropertyOp17
 70
     1
102
RTVSPropertyOp18
 70
     1
102
RTVSPropertyOp19
 70
     1
102
RTVSPropertyOp20
 70
     1
102
RTVSPropertyOp21
 70
     1
102
RTVSPropertyOp22
 70
     1
102
RTVSPropertyOp23
 70
     1
102
RTVSPropertyOp24
 70
     1
102
RTVSPropertyOp25
 70
     1
102
RTVSPropertyOp26
 70
     1
102
RTVSPropertyOp27
 70
     1
102
RTVSPropertyOp28
 70
     1
102
RTVSPropertyOp29
 70
     1
102
RTVSPropertyOp30
 70
     1
102
RTVSPropertyOp31
 70
     1
102
RTVSPropertyOp32
 70
     1
102
RTVSPropertyOp33
 70
     1
102
RTVSPropertyOp34
 70
     1
102
RTVSPropertyOp35
 70
     1
102
RTVSPropertyOp36
 70
     1
102
RTVSPropertyOp37
 70
     1
102
RTVSPropertyOp38
 70
     1
102
RTVSPropertyOp39
 70
     1
102
RTVSPropertyOp40
 70
     1
102
RTVSPropertyOp41
 70
     1
102
RTVSPropertyOp42
 70
     1
102
RTVSPropertyOp43
 70
     1
102
RTVSPropertyOp44
 70
     1
102
RTVSPropertyOp45
 70
     1
102
RTVSPropertyOp46
 70
     1
102
RTVSPropertyOp47
 70
     1
102
RTVSPropertyOp48
 70
     1
102
RTVSPropertyOp49
 70
     1
102
RTVSPropertyOp50
 70
     1
102
RTVSPropertyOp51
 70
     0
102
RTVSPropertyOp52
 70
     0
102
RTVSPropertyOp53
 70
     1
102
RTVSPropertyOp54
 70
     1
102
RTVSPropertyOp55
 70
     1
102
RTVSPropertyOp56
 70
     1
102
RTVSPropertyOp57
 70
     1
102
RTVSPost2010Prop28
280
     0
102
RTVSPost2010PropOp28
 70
     1
102
RTVSPost2010Prop29
280
     1
102
RTVSPost2010PropOp29
 70
     1
102
RTVSPost2010Prop30
280
     1
102
RTVSPost2010PropOp30
 70
     1
102
RTVSPost2010Prop31
280
     0
102
RTVSPost2010PropOp31
 70
     1
102
RTVSPost2010Prop32
280
     0
102
RTVSPost2010PropOp32
 70
     1
102
RTVSPost2010Prop33
280
     0
102
RTVSPost2010PropOp33
 70
     1
102
RTVSPost2010Prop34
280
     0
102
RTVSPost2010PropOp34
 70
     1
102
RTVSPost2010Prop35
280
     0
102
RTVSPost2010PropOp35
 70
     1
102
RTVSPost2010Prop36
280
     0
102
RTVSPost2010PropOp36
 70
     1
102
RTVSPost2010Prop37
 90
       50
102
RTVSPost2010PropOp37
 70
     1
102
RTVSPost2010Prop38
140
0.0
102
RTVSPost2010PropOp38
 70
     1
102
RTVSPost2010Prop39
140
1.0
102
RTVSPost2010PropOp39
 70
     1
102
RTVSPost2010Prop40
 90
        0
102
RTVSPost2010PropOp40
 70
     1
102
RTVSPost2010Prop41ColorIndex
 90
       18
102
RTVSPost2010Prop41ColorRGB
 90
        0
102
RTVSPost2010PropOp41
 70
     1
102
RTVSPost2010Prop42
 90
       50
102
RTVSPost2010PropOp42
 70
     1
102
RTVSPost2010Prop43
 90
        3
102
RTVSPost2010PropOp43
 70
     1
102
RTVSPost2010Prop44ColorIndex
 90
        5
102
RTVSPost2010Prop44ColorRGB
 90
      255
102
RTVSPost2010PropOp44
 70
     1
102
RTVSPost2010Prop45
280
     0
102
RTVSPost2010PropOp45
 70
     1
102
RTVSPost2010Prop46
 90
       50
102
RTVSPost2010PropOp46
 70
     1
102
RTVSPost2010Prop47
 90
       50
102
RTVSPost2010PropOp47
 70
     1
102
RTVSPost2010Prop48
 90
       50
102
RTVSPost2010PropOp48
 70
     1
102
RTVSPost2010Prop49
280
     0
102
RTVSPost2010PropOp49
 70
     1
102
RTVSPost2010Prop50
 90
       50
102
RTVSPost2010PropOp50
 70
     1
102
RTVSPost2010Prop51ColorIndex
 90
      256
102
RTVSPost2010Prop51ColorRGB
 90
-16777216
102
RTVSPost2010PropOp51
 70
     0
102
RTVSPost2010Prop52
140
1.0
102
RTVSPost2010PropOp52
 70
     0
102
RTVSPost2010Prop53
 90
        2
102
RTVSPost2010PropOp53
 70
     1
102
RTVSPost2010Prop54
  1
strokes_ogs.tif
102
RTVSPost2010PropOp54
 70
     1
102
RTVSPost2010Prop55
280
     0
102
RTVSPost2010PropOp55
 70
     1
102
RTVSPost2010Prop56
140
1.0
102
RTVSPost2010PropOp56
 70
     1
102
RTVSPost2010Prop57
140
1.0
102
RTVSPost2010PropOp57
 70
     1
  0
XRECORD
  5
9F5
102
{ACAD_REACTORS
330
9F4
102
}
330
9F4
100
AcDbXrecord
280
     1
102
RTVSPropertyOp0
 70
     1
102
RTVSPropertyOp1
 70
     1
102
RTVSPropertyOp2
 70
     1
102
RTVSPropertyOp3
 70
     1
102
RTVSPropertyOp4
 70
     1
102
RTVSPropertyOp5
 70
     1
102
RTVSPropertyOp6
 70
     1
102
RTVSPropertyOp7
 70
     1
102
RTVSPropertyOp8
 70
     1
102
RTVSPropertyOp9
 70
     1
102
RTVSPropertyOp10
 70
     1
102
RTVSPropertyOp11
 70
     1
102
RTVSPropertyOp12
 70
     1
102
RTVSPropertyOp13
 70
     1
102
RTVSPropertyOp14
 70
     1
102
RTVSPropertyOp15
 70
     1
102
RTVSPropertyOp16
 70
     1
102
RTVSPropertyOp17
 70
     1
102
RTVSPropertyOp18
 70
     1
102
RTVSPropertyOp19
 70
     1
102
RTVSPropertyOp20
 70
     1
102
RTVSPropertyOp21
 70
     1
102
RTVSPropertyOp22
 70
     1
102
RTVSPropertyOp23
 70
     1
102
RTVSPropertyOp24
 70
     1
102
RTVSPropertyOp25
 70
     1
102
RTVSPropertyOp26
 70
     1
102
RTVSPropertyOp27
 70
     1
102
RTVSPropertyOp28
 70
     1
102
RTVSPropertyOp29
 70
     1
102
RTVSPropertyOp30
 70
     1
102
RTVSPropertyOp31
 70
     1
102
RTVSPropertyOp32
 70
     1
102
RTVSPropertyOp33
 70
     1
102
RTVSPropertyOp34
 70
     1
102
RTVSPropertyOp35
 70
     1
102
RTVSPropertyOp36
 70
     1
102
RTVSPropertyOp37
 70
     1
102
RTVSPropertyOp38
 70
     1
102
RTVSPropertyOp39
 70
     1
102
RTVSPropertyOp40
 70
     1
102
RTVSPropertyOp41
 70
     1
102
RTVSPropertyOp42
 70
     1
102
RTVSPropertyOp43
 70
     1
102
RTVSPropertyOp44
 70
     1
102
RTVSPropertyOp45
 70
     1
102
RTVSPropertyOp46
 70
     1
102
RTVSPropertyOp47
 70
     1
102
RTVSPropertyOp48
 70
     1
102
RTVSPropertyOp49
 70
     1
102
RTVSPropertyOp50
 70
     1
102
RTVSPropertyOp51
 70
     0
102
RTVSPropertyOp52
 70
     0
102
RTVSPropertyOp53
 70
     1
102
RTVSPropertyOp54
 70
     1
102
RTVSPropertyOp55
 70
     1
102
RTVSPropertyOp56
 70
     1
102
RTVSPropertyOp57
 70
     1
102
RTVSPost2010Prop28
280
     0
102
RTVSPost2010PropOp28
 70
     1
102
RTVSPost2010Prop29
280
     1
102
RTVSPost2010PropOp29
 70
     1
102
RTVSPost2010Prop30
280
     1
102
RTVSPost2010PropOp30
 70
     1
102
RTVSPost2010Prop31
280
     0
102
RTVSPost2010PropOp31
 70
     1
102
RTVSPost2010Prop32
280
     0
102
RTVSPost2010PropOp32
 70
     1
102
RTVSPost2010Prop33
280
     0
102
RTVSPost2010PropOp33
 70
     1
102
RTVSPost2010Prop34
280
     0
102
RTVSPost2010PropOp34
 70
     1
102
RTVSPost2010Prop35
280
     0
102
RTVSPost2010PropOp35
 70
     1
102
RTVSPost2010Prop36
280
     0
102
RTVSPost2010PropOp36
 70
     1
102
RTVSPost2010Prop37
 90
       50
102
RTVSPost2010PropOp37
 70
     1
102
RTVSPost2010Prop38
140
0.0
102
RTVSPost2010PropOp38
 70
     1
102
RTVSPost2010Prop39
140
1.0
102
RTVSPost2010PropOp39
 70
     1
102
RTVSPost2010Prop40
 90
        0
102
RTVSPost2010PropOp40
 70
     1
102
RTVSPost2010Prop41ColorIndex
 90
       18
102
RTVSPost2010Prop41ColorRGB
 90
        0
102
RTVSPost2010PropOp41
 70
     1
102
RTVSPost2010Prop42
 90
       50
102
RTVSPost2010PropOp42
 70
     1
102
RTVSPost2010Prop43
 90
        3
102
RTVSPost2010PropOp43
 70
     1
102
RTVSPost2010Prop44ColorIndex
 90
        5
102
RTVSPost2010Prop44ColorRGB
 90
      255
102
RTVSPost2010PropOp44
 70
     1
102
RTVSPost2010Prop45
280
     0
102
RTVSPost2010PropOp45
 70
     1
102
RTVSPost2010Prop46
 90
       50
102
RTVSPost2010PropOp46
 70
     1
102
RTVSPost2010Prop47
 90
       50
102
RTVSPost2010PropOp47
 70
     1
102
RTVSPost2010Prop48
 90
       50
102
RTVSPost2010PropOp48
 70
     1
102
RTVSPost2010Prop49
280
     0
102
RTVSPost2010PropOp49
 70
     1
102
RTVSPost2010Prop50
 90
       50
102
RTVSPost2010PropOp50
 70
     1
102
RTVSPost2010Prop51ColorIndex
 90
      256
102
RTVSPost2010Prop51ColorRGB
 90
-16777216
102
RTVSPost2010PropOp51
 70
     0
102
RTVSPost2010Prop52
140
1.0
102
RTVSPost2010PropOp52
 70
     0
102
RTVSPost2010Prop53
 90
        2
102
RTVSPost2010PropOp53
 70
     1
102
RTVSPost2010Prop54
  1
strokes_ogs.tif
102
RTVSPost2010PropOp54
 70
     1
102
RTVSPost2010Prop55
280
     0
102
RTVSPost2010PropOp55
 70
     1
102
RTVSPost2010Prop56
140
1.0
102
RTVSPost2010PropOp56
 70
     1
102
RTVSPost2010Prop57
140
1.0
102
RTVSPost2010PropOp57
 70
     1
  0
XRECORD
  5
9FD
102
{ACAD_REACTORS
330
9FC
102
}
330
9FC
100
AcDbXrecord
280
     1
102
RTVSPropertyOp0
 70
     1
102
RTVSPropertyOp1
 70
     1
102
RTVSPropertyOp2
 70
     1
102
RTVSPropertyOp3
 70
     1
102
RTVSPropertyOp4
 70
     1
102
RTVSPropertyOp5
 70
     1
102
RTVSPropertyOp6
 70
     1
102
RTVSPropertyOp7
 70
     1
102
RTVSPropertyOp8
 70
     1
102
RTVSPropertyOp9
 70
     1
102
RTVSPropertyOp10
 70
     1
102
RTVSPropertyOp11
 70
     1
102
RTVSPropertyOp12
 70
     1
102
RTVSPropertyOp13
 70
     1
102
RTVSPropertyOp14
 70
     1
102
RTVSPropertyOp15
 70
     1
102
RTVSPropertyOp16
 70
     1
102
RTVSPropertyOp17
 70
     1
102
RTVSPropertyOp18
 70
     1
102
RTVSPropertyOp19
 70
     1
102
RTVSPropertyOp20
 70
     1
102
RTVSPropertyOp21
 70
     1
102
RTVSPropertyOp22
 70
     1
102
RTVSPropertyOp23
 70
     1
102
RTVSPropertyOp24
 70
     1
102
RTVSPropertyOp25
 70
     1
102
RTVSPropertyOp26
 70
     1
102
RTVSPropertyOp27
 70
     1
102
RTVSPropertyOp28
 70
     1
102
RTVSPropertyOp29
 70
     1
102
RTVSPropertyOp30
 70
     1
102
RTVSPropertyOp31
 70
     1
102
RTVSPropertyOp32
 70
     1
102
RTVSPropertyOp33
 70
     1
102
RTVSPropertyOp34
 70
     1
102
RTVSPropertyOp35
 70
     1
102
RTVSPropertyOp36
 70
     1
102
RTVSPropertyOp37
 70
     1
102
RTVSPropertyOp38
 70
     1
102
RTVSPropertyOp39
 70
     1
102
RTVSPropertyOp40
 70
     1
102
RTVSPropertyOp41
 70
     1
102
RTVSPropertyOp42
 70
     1
102
RTVSPropertyOp43
 70
     1
102
RTVSPropertyOp44
 70
     1
102
RTVSPropertyOp45
 70
     1
102
RTVSPropertyOp46
 70
     1
102
RTVSPropertyOp47
 70
     1
102
RTVSPropertyOp48
 70
     1
102
RTVSPropertyOp49
 70
     1
102
RTVSPropertyOp50
 70
     1
102
RTVSPropertyOp51
 70
     0
102
RTVSPropertyOp52
 70
     0
102
RTVSPropertyOp53
 70
     1
102
RTVSPropertyOp54
 70
     1
102
RTVSPropertyOp55
 70
     1
102
RTVSPropertyOp56
 70
     1
102
RTVSPropertyOp57
 70
     1
102
RTVSPost2010Prop28
280
     0
102
RTVSPost2010PropOp28
 70
     1
102
RTVSPost2010Prop29
280
     1
102
RTVSPost2010PropOp29
 70
     1
102
RTVSPost2010Prop30
280
     1
102
RTVSPost2010PropOp30
 70
     1
102
RTVSPost2010Prop31
280
     0
102
RTVSPost2010PropOp31
 70
     1
102
RTVSPost2010Prop32
280
     0
102
RTVSPost2010PropOp32
 70
     1
102
RTVSPost2010Prop33
280
     0
102
RTVSPost2010PropOp33
 70
     1
102
RTVSPost2010Prop34
280
     0
102
RTVSPost2010PropOp34
 70
     1
102
RTVSPost2010Prop35
280
     0
102
RTVSPost2010PropOp35
 70
     1
102
RTVSPost2010Prop36
280
     0
102
RTVSPost2010PropOp36
 70
     1
102
RTVSPost2010Prop37
 90
       50
102
RTVSPost2010PropOp37
 70
     1
102
RTVSPost2010Prop38
140
0.0
102
RTVSPost2010PropOp38
 70
     1
102
RTVSPost2010Prop39
140
1.0
102
RTVSPost2010PropOp39
 70
     1
102
RTVSPost2010Prop40
 90
        0
102
RTVSPost2010PropOp40
 70
     1
102
RTVSPost2010Prop41ColorIndex
 90
       18
102
RTVSPost2010Prop41ColorRGB
 90
        0
102
RTVSPost2010PropOp41
 70
     1
102
RTVSPost2010Prop42
 90
       50
102
RTVSPost2010PropOp42
 70
     1
102
RTVSPost2010Prop43
 90
        3
102
RTVSPost2010PropOp43
 70
     1
102
RTVSPost2010Prop44ColorIndex
 90
        5
102
RTVSPost2010Prop44ColorRGB
 90
      255
102
RTVSPost2010PropOp44
 70
     1
102
RTVSPost2010Prop45
280
     0
102
RTVSPost2010PropOp45
 70
     1
102
RTVSPost2010Prop46
 90
       50
102
RTVSPost2010PropOp46
 70
     1
102
RTVSPost2010Prop47
 90
       50
102
RTVSPost2010PropOp47
 70
     1
102
RTVSPost2010Prop48
 90
       50
102
RTVSPost2010PropOp48
 70
     1
102
RTVSPost2010Prop49
280
     0
102
RTVSPost2010PropOp49
 70
     1
102
RTVSPost2010Prop50
 90
       50
102
RTVSPost2010PropOp50
 70
     1
102
RTVSPost2010Prop51ColorIndex
 90
      256
102
RTVSPost2010Prop51ColorRGB
 90
-16777216
102
RTVSPost2010PropOp51
 70
     0
102
RTVSPost2010Prop52
140
1.0
102
RTVSPost2010PropOp52
 70
     0
102
RTVSPost2010Prop53
 90
        2
102
RTVSPost2010PropOp53
 70
     1
102
RTVSPost2010Prop54
  1
strokes_ogs.tif
102
RTVSPost2010PropOp54
 70
     1
102
RTVSPost2010Prop55
280
     0
102
RTVSPost2010PropOp55
 70
     1
102
RTVSPost2010Prop56
140
1.0
102
RTVSPost2010PropOp56
 70
     1
102
RTVSPost2010Prop57
140
1.0
102
RTVSPost2010PropOp57
 70
     1
  0
XRECORD
  5
9F1
102
{ACAD_REACTORS
330
9F0
102
}
330
9F0
100
AcDbXrecord
280
     1
102
RTVSPropertyOp0
 70
     1
102
RTVSPropertyOp1
 70
     1
102
RTVSPropertyOp2
 70
     1
102
RTVSPropertyOp3
 70
     1
102
RTVSPropertyOp4
 70
     1
102
RTVSPropertyOp5
 70
     1
102
RTVSPropertyOp6
 70
     1
102
RTVSPropertyOp7
 70
     1
102
RTVSPropertyOp8
 70
     1
102
RTVSPropertyOp9
 70
     1
102
RTVSPropertyOp10
 70
     1
102
RTVSPropertyOp11
 70
     1
102
RTVSPropertyOp12
 70
     1
102
RTVSPropertyOp13
 70
     1
102
RTVSPropertyOp14
 70
     1
102
RTVSPropertyOp15
 70
     1
102
RTVSPropertyOp16
 70
     1
102
RTVSPropertyOp17
 70
     1
102
RTVSPropertyOp18
 70
     1
102
RTVSPropertyOp19
 70
     1
102
RTVSPropertyOp20
 70
     1
102
RTVSPropertyOp21
 70
     1
102
RTVSPropertyOp22
 70
     1
102
RTVSPropertyOp23
 70
     1
102
RTVSPropertyOp24
 70
     1
102
RTVSPropertyOp25
 70
     1
102
RTVSPropertyOp26
 70
     1
102
RTVSPropertyOp27
 70
     1
102
RTVSPropertyOp28
 70
     1
102
RTVSPropertyOp29
 70
     1
102
RTVSPropertyOp30
 70
     1
102
RTVSPropertyOp31
 70
     1
102
RTVSPropertyOp32
 70
     1
102
RTVSPropertyOp33
 70
     1
102
RTVSPropertyOp34
 70
     1
102
RTVSPropertyOp35
 70
     1
102
RTVSPropertyOp36
 70
     1
102
RTVSPropertyOp37
 70
     1
102
RTVSPropertyOp38
 70
     1
102
RTVSPropertyOp39
 70
     1
102
RTVSPropertyOp40
 70
     1
102
RTVSPropertyOp41
 70
     1
102
RTVSPropertyOp42
 70
     1
102
RTVSPropertyOp43
 70
     1
102
RTVSPropertyOp44
 70
     1
102
RTVSPropertyOp45
 70
     1
102
RTVSPropertyOp46
 70
     1
102
RTVSPropertyOp47
 70
     1
102
RTVSPropertyOp48
 70
     1
102
RTVSPropertyOp49
 70
     1
102
RTVSPropertyOp50
 70
     1
102
RTVSPropertyOp51
 70
     0
102
RTVSPropertyOp52
 70
     0
102
RTVSPropertyOp53
 70
     1
102
RTVSPropertyOp54
 70
     1
102
RTVSPropertyOp55
 70
     1
102
RTVSPropertyOp56
 70
     1
102
RTVSPropertyOp57
 70
     1
102
RTVSPost2010Prop28
280
     0
102
RTVSPost2010PropOp28
 70
     1
102
RTVSPost2010Prop29
280
     1
102
RTVSPost2010PropOp29
 70
     1
102
RTVSPost2010Prop30
280
     1
102
RTVSPost2010PropOp30
 70
     1
102
RTVSPost2010Prop31
280
     0
102
RTVSPost2010PropOp31
 70
     1
102
RTVSPost2010Prop32
280
     0
102
RTVSPost2010PropOp32
 70
     1
102
RTVSPost2010Prop33
280
     0
102
RTVSPost2010PropOp33
 70
     1
102
RTVSPost2010Prop34
280
     0
102
RTVSPost2010PropOp34
 70
     1
102
RTVSPost2010Prop35
280
     0
102
RTVSPost2010PropOp35
 70
     1
102
RTVSPost2010Prop36
280
     0
102
RTVSPost2010PropOp36
 70
     1
102
RTVSPost2010Prop37
 90
       50
102
RTVSPost2010PropOp37
 70
     1
102
RTVSPost2010Prop38
140
0.0
102
RTVSPost2010PropOp38
 70
     1
102
RTVSPost2010Prop39
140
1.0
102
RTVSPost2010PropOp39
 70
     1
102
RTVSPost2010Prop40
 90
        0
102
RTVSPost2010PropOp40
 70
     1
102
RTVSPost2010Prop41ColorIndex
 90
       18
102
RTVSPost2010Prop41ColorRGB
 90
        0
102
RTVSPost2010PropOp41
 70
     1
102
RTVSPost2010Prop42
 90
       50
102
RTVSPost2010PropOp42
 70
     1
102
RTVSPost2010Prop43
 90
        3
102
RTVSPost2010PropOp43
 70
     1
102
RTVSPost2010Prop44ColorIndex
 90
        5
102
RTVSPost2010Prop44ColorRGB
 90
      255
102
RTVSPost2010PropOp44
 70
     1
102
RTVSPost2010Prop45
280
     0
102
RTVSPost2010PropOp45
 70
     1
102
RTVSPost2010Prop46
 90
       50
102
RTVSPost2010PropOp46
 70
     1
102
RTVSPost2010Prop47
 90
       50
102
RTVSPost2010PropOp47
 70
     1
102
RTVSPost2010Prop48
 90
       50
102
RTVSPost2010PropOp48
 70
     1
102
RTVSPost2010Prop49
280
     0
102
RTVSPost2010PropOp49
 70
     1
102
RTVSPost2010Prop50
 90
       50
102
RTVSPost2010PropOp50
 70
     1
102
RTVSPost2010Prop51ColorIndex
 90
      256
102
RTVSPost2010Prop51ColorRGB
 90
-16777216
102
RTVSPost2010PropOp51
 70
     0
102
RTVSPost2010Prop52
140
1.0
102
RTVSPost2010PropOp52
 70
     0
102
RTVSPost2010Prop53
 90
        2
102
RTVSPost2010PropOp53
 70
     1
102
RTVSPost2010Prop54
  1
strokes_ogs.tif
102
RTVSPost2010PropOp54
 70
     1
102
RTVSPost2010Prop55
280
     0
102
RTVSPost2010PropOp55
 70
     1
102
RTVSPost2010Prop56
140
1.0
102
RTVSPost2010PropOp56
 70
     1
102
RTVSPost2010Prop57
140
1.0
102
RTVSPost2010PropOp57
 70
     1
  0
XRECORD
  5
9F3
102
{ACAD_REACTORS
330
9F2
102
}
330
9F2
100
AcDbXrecord
280
     1
102
RTVSPropertyOp0
 70
     1
102
RTVSPropertyOp1
 70
     1
102
RTVSPropertyOp2
 70
     1
102
RTVSPropertyOp3
 70
     1
102
RTVSPropertyOp4
 70
     1
102
RTVSPropertyOp5
 70
     1
102
RTVSPropertyOp6
 70
     1
102
RTVSPropertyOp7
 70
     1
102
RTVSPropertyOp8
 70
     1
102
RTVSPropertyOp9
 70
     1
102
RTVSPropertyOp10
 70
     1
102
RTVSPropertyOp11
 70
     1
102
RTVSPropertyOp12
 70
     1
102
RTVSPropertyOp13
 70
     1
102
RTVSPropertyOp14
 70
     1
102
RTVSPropertyOp15
 70
     1
102
RTVSPropertyOp16
 70
     1
102
RTVSPropertyOp17
 70
     1
102
RTVSPropertyOp18
 70
     1
102
RTVSPropertyOp19
 70
     1
102
RTVSPropertyOp20
 70
     1
102
RTVSPropertyOp21
 70
     1
102
RTVSPropertyOp22
 70
     1
102
RTVSPropertyOp23
 70
     1
102
RTVSPropertyOp24
 70
     1
102
RTVSPropertyOp25
 70
     1
102
RTVSPropertyOp26
 70
     1
102
RTVSPropertyOp27
 70
     1
102
RTVSPropertyOp28
 70
     1
102
RTVSPropertyOp29
 70
     1
102
RTVSPropertyOp30
 70
     1
102
RTVSPropertyOp31
 70
     1
102
RTVSPropertyOp32
 70
     1
102
RTVSPropertyOp33
 70
     1
102
RTVSPropertyOp34
 70
     1
102
RTVSPropertyOp35
 70
     1
102
RTVSPropertyOp36
 70
     1
102
RTVSPropertyOp37
 70
     1
102
RTVSPropertyOp38
 70
     1
102
RTVSPropertyOp39
 70
     1
102
RTVSPropertyOp40
 70
     1
102
RTVSPropertyOp41
 70
     1
102
RTVSPropertyOp42
 70
     1
102
RTVSPropertyOp43
 70
     1
102
RTVSPropertyOp44
 70
     1
102
RTVSPropertyOp45
 70
     1
102
RTVSPropertyOp46
 70
     1
102
RTVSPropertyOp47
 70
     1
102
RTVSPropertyOp48
 70
     1
102
RTVSPropertyOp49
 70
     1
102
RTVSPropertyOp50
 70
     1
102
RTVSPropertyOp51
 70
     0
102
RTVSPropertyOp52
 70
     0
102
RTVSPropertyOp53
 70
     1
102
RTVSPropertyOp54
 70
     1
102
RTVSPropertyOp55
 70
     1
102
RTVSPropertyOp56
 70
     1
102
RTVSPropertyOp57
 70
     1
102
RTVSPost2010Prop28
280
     0
102
RTVSPost2010PropOp28
 70
     1
102
RTVSPost2010Prop29
280
     1
102
RTVSPost2010PropOp29
 70
     1
102
RTVSPost2010Prop30
280
     1
102
RTVSPost2010PropOp30
 70
     1
102
RTVSPost2010Prop31
280
     0
102
RTVSPost2010PropOp31
 70
     1
102
RTVSPost2010Prop32
280
     0
102
RTVSPost2010PropOp32
 70
     1
102
RTVSPost2010Prop33
280
     0
102
RTVSPost2010PropOp33
 70
     1
102
RTVSPost2010Prop34
280
     0
102
RTVSPost2010PropOp34
 70
     1
102
RTVSPost2010Prop35
280
     0
102
RTVSPost2010PropOp35
 70
     1
102
RTVSPost2010Prop36
280
     0
102
RTVSPost2010PropOp36
 70
     1
102
RTVSPost2010Prop37
 90
       50
102
RTVSPost2010PropOp37
 70
     1
102
RTVSPost2010Prop38
140
0.0
102
RTVSPost2010PropOp38
 70
     1
102
RTVSPost2010Prop39
140
1.0
102
RTVSPost2010PropOp39
 70
     1
102
RTVSPost2010Prop40
 90
        0
102
RTVSPost2010PropOp40
 70
     1
102
RTVSPost2010Prop41ColorIndex
 90
       18
102
RTVSPost2010Prop41ColorRGB
 90
        0
102
RTVSPost2010PropOp41
 70
     1
102
RTVSPost2010Prop42
 90
       50
102
RTVSPost2010PropOp42
 70
     1
102
RTVSPost2010Prop43
 90
        3
102
RTVSPost2010PropOp43
 70
     1
102
RTVSPost2010Prop44ColorIndex
 90
        5
102
RTVSPost2010Prop44ColorRGB
 90
      255
102
RTVSPost2010PropOp44
 70
     1
102
RTVSPost2010Prop45
280
     0
102
RTVSPost2010PropOp45
 70
     1
102
RTVSPost2010Prop46
 90
       50
102
RTVSPost2010PropOp46
 70
     1
102
RTVSPost2010Prop47
 90
       50
102
RTVSPost2010PropOp47
 70
     1
102
RTVSPost2010Prop48
 90
       50
102
RTVSPost2010PropOp48
 70
     1
102
RTVSPost2010Prop49
280
     0
102
RTVSPost2010PropOp49
 70
     1
102
RTVSPost2010Prop50
 90
       50
102
RTVSPost2010PropOp50
 70
     1
102
RTVSPost2010Prop51ColorIndex
 90
      256
102
RTVSPost2010Prop51ColorRGB
 90
-16777216
102
RTVSPost2010PropOp51
 70
     0
102
RTVSPost2010Prop52
140
1.0
102
RTVSPost2010PropOp52
 70
     0
102
RTVSPost2010Prop53
 90
        2
102
RTVSPost2010PropOp53
 70
     1
102
RTVSPost2010Prop54
  1
strokes_ogs.tif
102
RTVSPost2010PropOp54
 70
     1
102
RTVSPost2010Prop55
280
     0
102
RTVSPost2010PropOp55
 70
     1
102
RTVSPost2010Prop56
140
1.0
102
RTVSPost2010PropOp56
 70
     1
102
RTVSPost2010Prop57
140
1.0
102
RTVSPost2010PropOp57
 70
     1
  0
XRECORD
  5
A03
102
{ACAD_REACTORS
330
A02
102
}
330
A02
100
AcDbXrecord
280
     1
102
RTVSPropertyOp0
 70
     0
102
RTVSPropertyOp1
 70
     0
102
RTVSPropertyOp2
 70
     0
102
RTVSPropertyOp3
 70
     0
102
RTVSPropertyOp4
 70
     0
102
RTVSPropertyOp5
 70
     0
102
RTVSPropertyOp6
 70
     0
102
RTVSPropertyOp7
 70
     0
102
RTVSPropertyOp8
 70
     0
102
RTVSPropertyOp9
 70
     0
102
RTVSPropertyOp10
 70
     0
102
RTVSPropertyOp11
 70
     0
102
RTVSPropertyOp12
 70
     0
102
RTVSPropertyOp13
 70
     0
102
RTVSPropertyOp14
 70
     0
102
RTVSPropertyOp15
 70
     0
102
RTVSPropertyOp16
 70
     0
102
RTVSPropertyOp17
 70
     0
102
RTVSPropertyOp18
 70
     0
102
RTVSPropertyOp19
 70
     0
102
RTVSPropertyOp20
 70
     0
102
RTVSPropertyOp21
 70
     0
102
RTVSPropertyOp22
 70
     0
102
RTVSPropertyOp23
 70
     0
102
RTVSPropertyOp24
 70
     0
102
RTVSPropertyOp25
 70
     0
102
RTVSPropertyOp26
 70
     0
102
RTVSPropertyOp27
 70
     0
102
RTVSPropertyOp28
 70
     1
102
RTVSPropertyOp29
 70
     1
102
RTVSPropertyOp30
 70
     1
102
RTVSPropertyOp31
 70
     1
102
RTVSPropertyOp32
 70
     1
102
RTVSPropertyOp33
 70
     1
102
RTVSPropertyOp34
 70
     1
102
RTVSPropertyOp35
 70
     1
102
RTVSPropertyOp36
 70
     1
102
RTVSPropertyOp37
 70
     1
102
RTVSPropertyOp38
 70
     1
102
RTVSPropertyOp39
 70
     1
102
RTVSPropertyOp40
 70
     1
102
RTVSPropertyOp41
 70
     1
102
RTVSPropertyOp42
 70
     1
102
RTVSPropertyOp43
 70
     1
102
RTVSPropertyOp44
 70
     1
102
RTVSPropertyOp45
 70
     1
102
RTVSPropertyOp46
 70
     1
102
RTVSPropertyOp47
 70
     1
102
RTVSPropertyOp48
 70
     1
102
RTVSPropertyOp49
 70
     1
102
RTVSPropertyOp50
 70
     1
102
RTVSPropertyOp51
 70
     0
102
RTVSPropertyOp52
 70
     0
102
RTVSPropertyOp53
 70
     1
102
RTVSPropertyOp54
 70
     1
102
RTVSPropertyOp55
 70
     1
102
RTVSPropertyOp56
 70
     1
102
RTVSPropertyOp57
 70
     1
102
RTVSPost2010Prop28
280
     0
102
RTVSPost2010PropOp28
 70
     1
102
RTVSPost2010Prop29
280
     1
102
RTVSPost2010PropOp29
 70
     1
102
RTVSPost2010Prop30
280
     1
102
RTVSPost2010PropOp30
 70
     1
102
RTVSPost2010Prop31
280
     0
102
RTVSPost2010PropOp31
 70
     1
102
RTVSPost2010Prop32
280
     0
102
RTVSPost2010PropOp32
 70
     1
102
RTVSPost2010Prop33
280
     0
102
RTVSPost2010PropOp33
 70
     1
102
RTVSPost2010Prop34
280
     0
102
RTVSPost2010PropOp34
 70
     1
102
RTVSPost2010Prop35
280
     0
102
RTVSPost2010PropOp35
 70
     1
102
RTVSPost2010Prop36
280
     0
102
RTVSPost2010PropOp36
 70
     1
102
RTVSPost2010Prop37
 90
       50
102
RTVSPost2010PropOp37
 70
     1
102
RTVSPost2010Prop38
140
0.0
102
RTVSPost2010PropOp38
 70
     1
102
RTVSPost2010Prop39
140
1.0
102
RTVSPost2010PropOp39
 70
     1
102
RTVSPost2010Prop40
 90
        0
102
RTVSPost2010PropOp40
 70
     1
102
RTVSPost2010Prop41ColorIndex
 90
       18
102
RTVSPost2010Prop41ColorRGB
 90
        0
102
RTVSPost2010PropOp41
 70
     1
102
RTVSPost2010Prop42
 90
       50
102
RTVSPost2010PropOp42
 70
     1
102
RTVSPost2010Prop43
 90
        3
102
RTVSPost2010PropOp43
 70
     1
102
RTVSPost2010Prop44ColorIndex
 90
        5
102
RTVSPost2010Prop44ColorRGB
 90
      255
102
RTVSPost2010PropOp44
 70
     1
102
RTVSPost2010Prop45
280
     0
102
RTVSPost2010PropOp45
 70
     1
102
RTVSPost2010Prop46
 90
       50
102
RTVSPost2010PropOp46
 70
     1
102
RTVSPost2010Prop47
 90
       50
102
RTVSPost2010PropOp47
 70
     1
102
RTVSPost2010Prop48
 90
       50
102
RTVSPost2010PropOp48
 70
     1
102
RTVSPost2010Prop49
280
     0
102
RTVSPost2010PropOp49
 70
     1
102
RTVSPost2010Prop50
 90
       50
102
RTVSPost2010PropOp50
 70
     1
102
RTVSPost2010Prop51ColorIndex
 90
      256
102
RTVSPost2010Prop51ColorRGB
 90
-16777216
102
RTVSPost2010PropOp51
 70
     0
102
RTVSPost2010Prop52
140
1.0
102
RTVSPost2010PropOp52
 70
     0
102
RTVSPost2010Prop53
 90
        2
102
RTVSPost2010PropOp53
 70
     1
102
RTVSPost2010Prop54
  1
strokes_ogs.tif
102
RTVSPost2010PropOp54
 70
     1
102
RTVSPost2010Prop55
280
     0
102
RTVSPost2010PropOp55
 70
     1
102
RTVSPost2010Prop56
140
1.0
102
RTVSPost2010PropOp56
 70
     1
102
RTVSPost2010Prop57
140
1.0
102
RTVSPost2010PropOp57
 70
     1
  0
XRECORD
  5
9FB
102
{ACAD_REACTORS
330
9FA
102
}
330
9FA
100
AcDbXrecord
280
     1
102
RTVSPropertyOp0
 70
     1
102
RTVSPropertyOp1
 70
     1
102
RTVSPropertyOp2
 70
     1
102
RTVSPropertyOp3
 70
     1
102
RTVSPropertyOp4
 70
     1
102
RTVSPropertyOp5
 70
     1
102
RTVSPropertyOp6
 70
     1
102
RTVSPropertyOp7
 70
     1
102
RTVSPropertyOp8
 70
     1
102
RTVSPropertyOp9
 70
     1
102
RTVSPropertyOp10
 70
     1
102
RTVSPropertyOp11
 70
     1
102
RTVSPropertyOp12
 70
     1
102
RTVSPropertyOp13
 70
     1
102
RTVSPropertyOp14
 70
     1
102
RTVSPropertyOp15
 70
     1
102
RTVSPropertyOp16
 70
     1
102
RTVSPropertyOp17
 70
     1
102
RTVSPropertyOp18
 70
     1
102
RTVSPropertyOp19
 70
     1
102
RTVSPropertyOp20
 70
     1
102
RTVSPropertyOp21
 70
     1
102
RTVSPropertyOp22
 70
     1
102
RTVSPropertyOp23
 70
     1
102
RTVSPropertyOp24
 70
     1
102
RTVSPropertyOp25
 70
     1
102
RTVSPropertyOp26
 70
     1
102
RTVSPropertyOp27
 70
     1
102
RTVSPropertyOp28
 70
     1
102
RTVSPropertyOp29
 70
     1
102
RTVSPropertyOp30
 70
     1
102
RTVSPropertyOp31
 70
     1
102
RTVSPropertyOp32
 70
     1
102
RTVSPropertyOp33
 70
     1
102
RTVSPropertyOp34
 70
     1
102
RTVSPropertyOp35
 70
     1
102
RTVSPropertyOp36
 70
     1
102
RTVSPropertyOp37
 70
     1
102
RTVSPropertyOp38
 70
     1
102
RTVSPropertyOp39
 70
     1
102
RTVSPropertyOp40
 70
     1
102
RTVSPropertyOp41
 70
     1
102
RTVSPropertyOp42
 70
     1
102
RTVSPropertyOp43
 70
     1
102
RTVSPropertyOp44
 70
     1
102
RTVSPropertyOp45
 70
     1
102
RTVSPropertyOp46
 70
     1
102
RTVSPropertyOp47
 70
     1
102
RTVSPropertyOp48
 70
     1
102
RTVSPropertyOp49
 70
     1
102
RTVSPropertyOp50
 70
     1
102
RTVSPropertyOp51
 70
     0
102
RTVSPropertyOp52
 70
     0
102
RTVSPropertyOp53
 70
     1
102
RTVSPropertyOp54
 70
     1
102
RTVSPropertyOp55
 70
     1
102
RTVSPropertyOp56
 70
     1
102
RTVSPropertyOp57
 70
     1
102
RTVSPost2010Prop28
280
     0
102
RTVSPost2010PropOp28
 70
     1
102
RTVSPost2010Prop29
280
     1
102
RTVSPost2010PropOp29
 70
     1
102
RTVSPost2010Prop30
280
     1
102
RTVSPost2010PropOp30
 70
     1
102
RTVSPost2010Prop31
280
     0
102
RTVSPost2010PropOp31
 70
     1
102
RTVSPost2010Prop32
280
     0
102
RTVSPost2010PropOp32
 70
     1
102
RTVSPost2010Prop33
280
     0
102
RTVSPost2010PropOp33
 70
     1
102
RTVSPost2010Prop34
280
     0
102
RTVSPost2010PropOp34
 70
     1
102
RTVSPost2010Prop35
280
     0
102
RTVSPost2010PropOp35
 70
     1
102
RTVSPost2010Prop36
280
     0
102
RTVSPost2010PropOp36
 70
     1
102
RTVSPost2010Prop37
 90
       50
102
RTVSPost2010PropOp37
 70
     1
102
RTVSPost2010Prop38
140
0.0
102
RTVSPost2010PropOp38
 70
     1
102
RTVSPost2010Prop39
140
1.0
102
RTVSPost2010PropOp39
 70
     1
102
RTVSPost2010Prop40
 90
        0
102
RTVSPost2010PropOp40
 70
     1
102
RTVSPost2010Prop41ColorIndex
 90
       18
102
RTVSPost2010Prop41ColorRGB
 90
        0
102
RTVSPost2010PropOp41
 70
     1
102
RTVSPost2010Prop42
 90
       50
102
RTVSPost2010PropOp42
 70
     1
102
RTVSPost2010Prop43
 90
        3
102
RTVSPost2010PropOp43
 70
     1
102
RTVSPost2010Prop44ColorIndex
 90
        5
102
RTVSPost2010Prop44ColorRGB
 90
      255
102
RTVSPost2010PropOp44
 70
     1
102
RTVSPost2010Prop45
280
     0
102
RTVSPost2010PropOp45
 70
     1
102
RTVSPost2010Prop46
 90
       50
102
RTVSPost2010PropOp46
 70
     1
102
RTVSPost2010Prop47
 90
       50
102
RTVSPost2010PropOp47
 70
     1
102
RTVSPost2010Prop48
 90
       50
102
RTVSPost2010PropOp48
 70
     1
102
RTVSPost2010Prop49
280
     0
102
RTVSPost2010PropOp49
 70
     1
102
RTVSPost2010Prop50
 90
       50
102
RTVSPost2010PropOp50
 70
     1
102
RTVSPost2010Prop51ColorIndex
 90
      256
102
RTVSPost2010Prop51ColorRGB
 90
-16777216
102
RTVSPost2010PropOp51
 70
     0
102
RTVSPost2010Prop52
140
1.0
102
RTVSPost2010PropOp52
 70
     0
102
RTVSPost2010Prop53
 90
        2
102
RTVSPost2010PropOp53
 70
     1
102
RTVSPost2010Prop54
  1
strokes_ogs.tif
102
RTVSPost2010PropOp54
 70
     1
102
RTVSPost2010Prop55
280
     0
102
RTVSPost2010PropOp55
 70
     1
102
RTVSPost2010Prop56
140
1.0
102
RTVSPost2010PropOp56
 70
     1
102
RTVSPost2010Prop57
140
1.0
102
RTVSPost2010PropOp57
 70
     1
  0
XRECORD
  5
9DF
102
{ACAD_REACTORS
330
9DE
102
}
330
9DE
100
AcDbXrecord
280
     1
102
RTVSPropertyOp0
 70
     1
102
RTVSPropertyOp1
 70
     1
102
RTVSPropertyOp2
 70
     1
102
RTVSPropertyOp3
 70
     1
102
RTVSPropertyOp4
 70
     1
102
RTVSPropertyOp5
 70
     1
102
RTVSPropertyOp6
 70
     1
102
RTVSPropertyOp7
 70
     1
102
RTVSPropertyOp8
 70
     1
102
RTVSPropertyOp9
 70
     1
102
RTVSPropertyOp10
 70
     1
102
RTVSPropertyOp11
 70
     1
102
RTVSPropertyOp12
 70
     1
102
RTVSPropertyOp13
 70
     1
102
RTVSPropertyOp14
 70
     1
102
RTVSPropertyOp15
 70
     1
102
RTVSPropertyOp16
 70
     1
102
RTVSPropertyOp17
 70
     1
102
RTVSPropertyOp18
 70
     1
102
RTVSPropertyOp19
 70
     1
102
RTVSPropertyOp20
 70
     1
102
RTVSPropertyOp21
 70
     1
102
RTVSPropertyOp22
 70
     1
102
RTVSPropertyOp23
 70
     1
102
RTVSPropertyOp24
 70
     1
102
RTVSPropertyOp25
 70
     1
102
RTVSPropertyOp26
 70
     1
102
RTVSPropertyOp27
 70
     1
102
RTVSPropertyOp28
 70
     1
102
RTVSPropertyOp29
 70
     1
102
RTVSPropertyOp30
 70
     1
102
RTVSPropertyOp31
 70
     1
102
RTVSPropertyOp32
 70
     1
102
RTVSPropertyOp33
 70
     1
102
RTVSPropertyOp34
 70
     1
102
RTVSPropertyOp35
 70
     1
102
RTVSPropertyOp36
 70
     1
102
RTVSPropertyOp37
 70
     1
102
RTVSPropertyOp38
 70
     1
102
RTVSPropertyOp39
 70
     1
102
RTVSPropertyOp40
 70
     1
102
RTVSPropertyOp41
 70
     1
102
RTVSPropertyOp42
 70
     1
102
RTVSPropertyOp43
 70
     1
102
RTVSPropertyOp44
 70
     1
102
RTVSPropertyOp45
 70
     1
102
RTVSPropertyOp46
 70
     1
102
RTVSPropertyOp47
 70
     1
102
RTVSPropertyOp48
 70
     1
102
RTVSPropertyOp49
 70
     1
102
RTVSPropertyOp50
 70
     1
102
RTVSPropertyOp51
 70
     0
102
RTVSPropertyOp52
 70
     0
102
RTVSPropertyOp53
 70
     1
102
RTVSPropertyOp54
 70
     1
102
RTVSPropertyOp55
 70
     1
102
RTVSPropertyOp56
 70
     1
102
RTVSPropertyOp57
 70
     1
102
RTVSPost2010Prop28
280
     0
102
RTVSPost2010PropOp28
 70
     1
102
RTVSPost2010Prop29
280
     1
102
RTVSPost2010PropOp29
 70
     1
102
RTVSPost2010Prop30
280
     1
102
RTVSPost2010PropOp30
 70
     1
102
RTVSPost2010Prop31
280
     0
102
RTVSPost2010PropOp31
 70
     1
102
RTVSPost2010Prop32
280
     0
102
RTVSPost2010PropOp32
 70
     1
102
RTVSPost2010Prop33
280
     0
102
RTVSPost2010PropOp33
 70
     1
102
RTVSPost2010Prop34
280
     0
102
RTVSPost2010PropOp34
 70
     1
102
RTVSPost2010Prop35
280
     0
102
RTVSPost2010PropOp35
 70
     1
102
RTVSPost2010Prop36
280
     0
102
RTVSPost2010PropOp36
 70
     1
102
RTVSPost2010Prop37
 90
       50
102
RTVSPost2010PropOp37
 70
     1
102
RTVSPost2010Prop38
140
0.0
102
RTVSPost2010PropOp38
 70
     1
102
RTVSPost2010Prop39
140
1.0
102
RTVSPost2010PropOp39
 70
     1
102
RTVSPost2010Prop40
 90
        0
102
RTVSPost2010PropOp40
 70
     1
102
RTVSPost2010Prop41ColorIndex
 90
       18
102
RTVSPost2010Prop41ColorRGB
 90
        0
102
RTVSPost2010PropOp41
 70
     1
102
RTVSPost2010Prop42
 90
       50
102
RTVSPost2010PropOp42
 70
     1
102
RTVSPost2010Prop43
 90
        3
102
RTVSPost2010PropOp43
 70
     1
102
RTVSPost2010Prop44ColorIndex
 90
        5
102
RTVSPost2010Prop44ColorRGB
 90
      255
102
RTVSPost2010PropOp44
 70
     1
102
RTVSPost2010Prop45
280
     0
102
RTVSPost2010PropOp45
 70
     1
102
RTVSPost2010Prop46
 90
       50
102
RTVSPost2010PropOp46
 70
     1
102
RTVSPost2010Prop47
 90
       50
102
RTVSPost2010PropOp47
 70
     1
102
RTVSPost2010Prop48
 90
       50
102
RTVSPost2010PropOp48
 70
     1
102
RTVSPost2010Prop49
280
     0
102
RTVSPost2010PropOp49
 70
     1
102
RTVSPost2010Prop50
 90
       50
102
RTVSPost2010PropOp50
 70
     1
102
RTVSPost2010Prop51ColorIndex
 90
      256
102
RTVSPost2010Prop51ColorRGB
 90
-16777216
102
RTVSPost2010PropOp51
 70
     0
102
RTVSPost2010Prop52
140
1.0
102
RTVSPost2010PropOp52
 70
     0
102
RTVSPost2010Prop53
 90
        2
102
RTVSPost2010PropOp53
 70
     1
102
RTVSPost2010Prop54
  1
strokes_ogs.tif
102
RTVSPost2010PropOp54
 70
     1
102
RTVSPost2010Prop55
280
     0
102
RTVSPost2010PropOp55
 70
     1
102
RTVSPost2010Prop56
140
1.0
102
RTVSPost2010PropOp56
 70
     1
102
RTVSPost2010Prop57
140
1.0
102
RTVSPost2010PropOp57
 70
     1
  0
XRECORD
  5
9E1
102
{ACAD_REACTORS
330
9E0
102
}
330
9E0
100
AcDbXrecord
280
     1
102
RTVSPropertyOp0
 70
     1
102
RTVSPropertyOp1
 70
     1
102
RTVSPropertyOp2
 70
     1
102
RTVSPropertyOp3
 70
     1
102
RTVSPropertyOp4
 70
     1
102
RTVSPropertyOp5
 70
     1
102
RTVSPropertyOp6
 70
     1
102
RTVSPropertyOp7
 70
     1
102
RTVSPropertyOp8
 70
     1
102
RTVSPropertyOp9
 70
     1
102
RTVSPropertyOp10
 70
     1
102
RTVSPropertyOp11
 70
     1
102
RTVSPropertyOp12
 70
     1
102
RTVSPropertyOp13
 70
     1
102
RTVSPropertyOp14
 70
     1
102
RTVSPropertyOp15
 70
     1
102
RTVSPropertyOp16
 70
     1
102
RTVSPropertyOp17
 70
     1
102
RTVSPropertyOp18
 70
     1
102
RTVSPropertyOp19
 70
     1
102
RTVSPropertyOp20
 70
     1
102
RTVSPropertyOp21
 70
     1
102
RTVSPropertyOp22
 70
     1
102
RTVSPropertyOp23
 70
     1
102
RTVSPropertyOp24
 70
     1
102
RTVSPropertyOp25
 70
     1
102
RTVSPropertyOp26
 70
     1
102
RTVSPropertyOp27
 70
     1
102
RTVSPropertyOp28
 70
     1
102
RTVSPropertyOp29
 70
     1
102
RTVSPropertyOp30
 70
     1
102
RTVSPropertyOp31
 70
     1
102
RTVSPropertyOp32
 70
     1
102
RTVSPropertyOp33
 70
     1
102
RTVSPropertyOp34
 70
     1
102
RTVSPropertyOp35
 70
     1
102
RTVSPropertyOp36
 70
     1
102
RTVSPropertyOp37
 70
     1
102
RTVSPropertyOp38
 70
     1
102
RTVSPropertyOp39
 70
     1
102
RTVSPropertyOp40
 70
     1
102
RTVSPropertyOp41
 70
     1
102
RTVSPropertyOp42
 70
     1
102
RTVSPropertyOp43
 70
     1
102
RTVSPropertyOp44
 70
     1
102
RTVSPropertyOp45
 70
     1
102
RTVSPropertyOp46
 70
     1
102
RTVSPropertyOp47
 70
     1
102
RTVSPropertyOp48
 70
     1
102
RTVSPropertyOp49
 70
     1
102
RTVSPropertyOp50
 70
     1
102
RTVSPropertyOp51
 70
     0
102
RTVSPropertyOp52
 70
     0
102
RTVSPropertyOp53
 70
     1
102
RTVSPropertyOp54
 70
     1
102
RTVSPropertyOp55
 70
     1
102
RTVSPropertyOp56
 70
     1
102
RTVSPropertyOp57
 70
     1
102
RTVSPost2010Prop28
280
     0
102
RTVSPost2010PropOp28
 70
     1
102
RTVSPost2010Prop29
280
     1
102
RTVSPost2010PropOp29
 70
     1
102
RTVSPost2010Prop30
280
     1
102
RTVSPost2010PropOp30
 70
     1
102
RTVSPost2010Prop31
280
     0
102
RTVSPost2010PropOp31
 70
     1
102
RTVSPost2010Prop32
280
     0
102
RTVSPost2010PropOp32
 70
     1
102
RTVSPost2010Prop33
280
     0
102
RTVSPost2010PropOp33
 70
     1
102
RTVSPost2010Prop34
280
     0
102
RTVSPost2010PropOp34
 70
     1
102
RTVSPost2010Prop35
280
     0
102
RTVSPost2010PropOp35
 70
     1
102
RTVSPost2010Prop36
280
     0
102
RTVSPost2010PropOp36
 70
     1
102
RTVSPost2010Prop37
 90
       50
102
RTVSPost2010PropOp37
 70
     1
102
RTVSPost2010Prop38
140
0.0
102
RTVSPost2010PropOp38
 70
     1
102
RTVSPost2010Prop39
140
1.0
102
RTVSPost2010PropOp39
 70
     1
102
RTVSPost2010Prop40
 90
        0
102
RTVSPost2010PropOp40
 70
     1
102
RTVSPost2010Prop41ColorIndex
 90
       18
102
RTVSPost2010Prop41ColorRGB
 90
        0
102
RTVSPost2010PropOp41
 70
     1
102
RTVSPost2010Prop42
 90
       50
102
RTVSPost2010PropOp42
 70
     1
102
RTVSPost2010Prop43
 90
        3
102
RTVSPost2010PropOp43
 70
     1
102
RTVSPost2010Prop44ColorIndex
 90
        5
102
RTVSPost2010Prop44ColorRGB
 90
      255
102
RTVSPost2010PropOp44
 70
     1
102
RTVSPost2010Prop45
280
     0
102
RTVSPost2010PropOp45
 70
     1
102
RTVSPost2010Prop46
 90
       50
102
RTVSPost2010PropOp46
 70
     1
102
RTVSPost2010Prop47
 90
       50
102
RTVSPost2010PropOp47
 70
     1
102
RTVSPost2010Prop48
 90
       50
102
RTVSPost2010PropOp48
 70
     1
102
RTVSPost2010Prop49
280
     0
102
RTVSPost2010PropOp49
 70
     1
102
RTVSPost2010Prop50
 90
       50
102
RTVSPost2010PropOp50
 70
     1
102
RTVSPost2010Prop51ColorIndex
 90
      256
102
RTVSPost2010Prop51ColorRGB
 90
-16777216
102
RTVSPost2010PropOp51
 70
     0
102
RTVSPost2010Prop52
140
1.0
102
RTVSPost2010PropOp52
 70
     0
102
RTVSPost2010Prop53
 90
        2
102
RTVSPost2010PropOp53
 70
     1
102
RTVSPost2010Prop54
  1
strokes_ogs.tif
102
RTVSPost2010PropOp54
 70
     1
102
RTVSPost2010Prop55
280
     0
102
RTVSPost2010PropOp55
 70
     1
102
RTVSPost2010Prop56
140
1.0
102
RTVSPost2010PropOp56
 70
     1
102
RTVSPost2010Prop57
140
1.0
102
RTVSPost2010PropOp57
 70
     1
  0
XRECORD
  5
9E3
102
{ACAD_REACTORS
330
9E2
102
}
330
9E2
100
AcDbXrecord
280
     1
102
RTVSPropertyOp0
 70
     1
102
RTVSPropertyOp1
 70
     1
102
RTVSPropertyOp2
 70
     1
102
RTVSPropertyOp3
 70
     1
102
RTVSPropertyOp4
 70
     1
102
RTVSPropertyOp5
 70
     1
102
RTVSPropertyOp6
 70
     1
102
RTVSPropertyOp7
 70
     1
102
RTVSPropertyOp8
 70
     1
102
RTVSPropertyOp9
 70
     1
102
RTVSPropertyOp10
 70
     1
102
RTVSPropertyOp11
 70
     1
102
RTVSPropertyOp12
 70
     1
102
RTVSPropertyOp13
 70
     1
102
RTVSPropertyOp14
 70
     1
102
RTVSPropertyOp15
 70
     1
102
RTVSPropertyOp16
 70
     1
102
RTVSPropertyOp17
 70
     1
102
RTVSPropertyOp18
 70
     1
102
RTVSPropertyOp19
 70
     1
102
RTVSPropertyOp20
 70
     1
102
RTVSPropertyOp21
 70
     1
102
RTVSPropertyOp22
 70
     1
102
RTVSPropertyOp23
 70
     1
102
RTVSPropertyOp24
 70
     1
102
RTVSPropertyOp25
 70
     1
102
RTVSPropertyOp26
 70
     1
102
RTVSPropertyOp27
 70
     1
102
RTVSPropertyOp28
 70
     1
102
RTVSPropertyOp29
 70
     1
102
RTVSPropertyOp30
 70
     1
102
RTVSPropertyOp31
 70
     1
102
RTVSPropertyOp32
 70
     1
102
RTVSPropertyOp33
 70
     1
102
RTVSPropertyOp34
 70
     1
102
RTVSPropertyOp35
 70
     1
102
RTVSPropertyOp36
 70
     1
102
RTVSPropertyOp37
 70
     1
102
RTVSPropertyOp38
 70
     1
102
RTVSPropertyOp39
 70
     1
102
RTVSPropertyOp40
 70
     1
102
RTVSPropertyOp41
 70
     1
102
RTVSPropertyOp42
 70
     1
102
RTVSPropertyOp43
 70
     1
102
RTVSPropertyOp44
 70
     1
102
RTVSPropertyOp45
 70
     1
102
RTVSPropertyOp46
 70
     1
102
RTVSPropertyOp47
 70
     1
102
RTVSPropertyOp48
 70
     1
102
RTVSPropertyOp49
 70
     1
102
RTVSPropertyOp50
 70
     1
102
RTVSPropertyOp51
 70
     0
102
RTVSPropertyOp52
 70
     0
102
RTVSPropertyOp53
 70
     1
102
RTVSPropertyOp54
 70
     1
102
RTVSPropertyOp55
 70
     1
102
RTVSPropertyOp56
 70
     1
102
RTVSPropertyOp57
 70
     1
102
RTVSPost2010Prop28
280
     0
102
RTVSPost2010PropOp28
 70
     1
102
RTVSPost2010Prop29
280
     1
102
RTVSPost2010PropOp29
 70
     1
102
RTVSPost2010Prop30
280
     1
102
RTVSPost2010PropOp30
 70
     1
102
RTVSPost2010Prop31
280
     0
102
RTVSPost2010PropOp31
 70
     1
102
RTVSPost2010Prop32
280
     0
102
RTVSPost2010PropOp32
 70
     1
102
RTVSPost2010Prop33
280
     0
102
RTVSPost2010PropOp33
 70
     1
102
RTVSPost2010Prop34
280
     0
102
RTVSPost2010PropOp34
 70
     1
102
RTVSPost2010Prop35
280
     0
102
RTVSPost2010PropOp35
 70
     1
102
RTVSPost2010Prop36
280
     0
102
RTVSPost2010PropOp36
 70
     1
102
RTVSPost2010Prop37
 90
       50
102
RTVSPost2010PropOp37
 70
     1
102
RTVSPost2010Prop38
140
0.0
102
RTVSPost2010PropOp38
 70
     1
102
RTVSPost2010Prop39
140
1.0
102
RTVSPost2010PropOp39
 70
     1
102
RTVSPost2010Prop40
 90
        0
102
RTVSPost2010PropOp40
 70
     1
102
RTVSPost2010Prop41ColorIndex
 90
       18
102
RTVSPost2010Prop41ColorRGB
 90
        0
102
RTVSPost2010PropOp41
 70
     1
102
RTVSPost2010Prop42
 90
       50
102
RTVSPost2010PropOp42
 70
     1
102
RTVSPost2010Prop43
 90
        3
102
RTVSPost2010PropOp43
 70
     1
102
RTVSPost2010Prop44ColorIndex
 90
        5
102
RTVSPost2010Prop44ColorRGB
 90
      255
102
RTVSPost2010PropOp44
 70
     1
102
RTVSPost2010Prop45
280
     0
102
RTVSPost2010PropOp45
 70
     1
102
RTVSPost2010Prop46
 90
       50
102
RTVSPost2010PropOp46
 70
     1
102
RTVSPost2010Prop47
 90
       50
102
RTVSPost2010PropOp47
 70
     1
102
RTVSPost2010Prop48
 90
       50
102
RTVSPost2010PropOp48
 70
     1
102
RTVSPost2010Prop49
280
     0
102
RTVSPost2010PropOp49
 70
     1
102
RTVSPost2010Prop50
 90
       50
102
RTVSPost2010PropOp50
 70
     1
102
RTVSPost2010Prop51ColorIndex
 90
      256
102
RTVSPost2010Prop51ColorRGB
 90
-16777216
102
RTVSPost2010PropOp51
 70
     0
102
RTVSPost2010Prop52
140
1.0
102
RTVSPost2010PropOp52
 70
     0
102
RTVSPost2010Prop53
 90
        2
102
RTVSPost2010PropOp53
 70
     1
102
RTVSPost2010Prop54
  1
strokes_ogs.tif
102
RTVSPost2010PropOp54
 70
     1
102
RTVSPost2010Prop55
280
     0
102
RTVSPost2010PropOp55
 70
     1
102
RTVSPost2010Prop56
140
1.0
102
RTVSPost2010PropOp56
 70
     1
102
RTVSPost2010Prop57
140
1.0
102
RTVSPost2010PropOp57
 70
     1
  0
XRECORD
  5
9E5
102
{ACAD_REACTORS
330
9E4
102
}
330
9E4
100
AcDbXrecord
280
     1
102
RTVSPropertyOp0
 70
     1
102
RTVSPropertyOp1
 70
     1
102
RTVSPropertyOp2
 70
     1
102
RTVSPropertyOp3
 70
     1
102
RTVSPropertyOp4
 70
     1
102
RTVSPropertyOp5
 70
     1
102
RTVSPropertyOp6
 70
     1
102
RTVSPropertyOp7
 70
     1
102
RTVSPropertyOp8
 70
     1
102
RTVSPropertyOp9
 70
     1
102
RTVSPropertyOp10
 70
     1
102
RTVSPropertyOp11
 70
     1
102
RTVSPropertyOp12
 70
     1
102
RTVSPropertyOp13
 70
     1
102
RTVSPropertyOp14
 70
     1
102
RTVSPropertyOp15
 70
     1
102
RTVSPropertyOp16
 70
     1
102
RTVSPropertyOp17
 70
     1
102
RTVSPropertyOp18
 70
     1
102
RTVSPropertyOp19
 70
     1
102
RTVSPropertyOp20
 70
     1
102
RTVSPropertyOp21
 70
     1
102
RTVSPropertyOp22
 70
     1
102
RTVSPropertyOp23
 70
     1
102
RTVSPropertyOp24
 70
     1
102
RTVSPropertyOp25
 70
     1
102
RTVSPropertyOp26
 70
     1
102
RTVSPropertyOp27
 70
     1
102
RTVSPropertyOp28
 70
     1
102
RTVSPropertyOp29
 70
     1
102
RTVSPropertyOp30
 70
     1
102
RTVSPropertyOp31
 70
     1
102
RTVSPropertyOp32
 70
     1
102
RTVSPropertyOp33
 70
     1
102
RTVSPropertyOp34
 70
     1
102
RTVSPropertyOp35
 70
     1
102
RTVSPropertyOp36
 70
     1
102
RTVSPropertyOp37
 70
     1
102
RTVSPropertyOp38
 70
     1
102
RTVSPropertyOp39
 70
     1
102
RTVSPropertyOp40
 70
     1
102
RTVSPropertyOp41
 70
     1
102
RTVSPropertyOp42
 70
     1
102
RTVSPropertyOp43
 70
     1
102
RTVSPropertyOp44
 70
     1
102
RTVSPropertyOp45
 70
     1
102
RTVSPropertyOp46
 70
     1
102
RTVSPropertyOp47
 70
     1
102
RTVSPropertyOp48
 70
     1
102
RTVSPropertyOp49
 70
     1
102
RTVSPropertyOp50
 70
     1
102
RTVSPropertyOp51
 70
     0
102
RTVSPropertyOp52
 70
     0
102
RTVSPropertyOp53
 70
     1
102
RTVSPropertyOp54
 70
     1
102
RTVSPropertyOp55
 70
     1
102
RTVSPropertyOp56
 70
     1
102
RTVSPropertyOp57
 70
     1
102
RTVSPost2010Prop28
280
     0
102
RTVSPost2010PropOp28
 70
     1
102
RTVSPost2010Prop29
280
     1
102
RTVSPost2010PropOp29
 70
     1
102
RTVSPost2010Prop30
280
     1
102
RTVSPost2010PropOp30
 70
     1
102
RTVSPost2010Prop31
280
     0
102
RTVSPost2010PropOp31
 70
     1
102
RTVSPost2010Prop32
280
     0
102
RTVSPost2010PropOp32
 70
     1
102
RTVSPost2010Prop33
280
     0
102
RTVSPost2010PropOp33
 70
     1
102
RTVSPost2010Prop34
280
     0
102
RTVSPost2010PropOp34
 70
     1
102
RTVSPost2010Prop35
280
     0
102
RTVSPost2010PropOp35
 70
     1
102
RTVSPost2010Prop36
280
     0
102
RTVSPost2010PropOp36
 70
     1
102
RTVSPost2010Prop37
 90
       50
102
RTVSPost2010PropOp37
 70
     1
102
RTVSPost2010Prop38
140
0.0
102
RTVSPost2010PropOp38
 70
     1
102
RTVSPost2010Prop39
140
1.0
102
RTVSPost2010PropOp39
 70
     1
102
RTVSPost2010Prop40
 90
        0
102
RTVSPost2010PropOp40
 70
     1
102
RTVSPost2010Prop41ColorIndex
 90
       18
102
RTVSPost2010Prop41ColorRGB
 90
        0
102
RTVSPost2010PropOp41
 70
     1
102
RTVSPost2010Prop42
 90
       50
102
RTVSPost2010PropOp42
 70
     1
102
RTVSPost2010Prop43
 90
        3
102
RTVSPost2010PropOp43
 70
     1
102
RTVSPost2010Prop44ColorIndex
 90
        5
102
RTVSPost2010Prop44ColorRGB
 90
      255
102
RTVSPost2010PropOp44
 70
     1
102
RTVSPost2010Prop45
280
     0
102
RTVSPost2010PropOp45
 70
     1
102
RTVSPost2010Prop46
 90
       50
102
RTVSPost2010PropOp46
 70
     1
102
RTVSPost2010Prop47
 90
       50
102
RTVSPost2010PropOp47
 70
     1
102
RTVSPost2010Prop48
 90
       50
102
RTVSPost2010PropOp48
 70
     1
102
RTVSPost2010Prop49
280
     0
102
RTVSPost2010PropOp49
 70
     1
102
RTVSPost2010Prop50
 90
       50
102
RTVSPost2010PropOp50
 70
     1
102
RTVSPost2010Prop51ColorIndex
 90
      256
102
RTVSPost2010Prop51ColorRGB
 90
-16777216
102
RTVSPost2010PropOp51
 70
     0
102
RTVSPost2010Prop52
140
1.0
102
RTVSPost2010PropOp52
 70
     0
102
RTVSPost2010Prop53
 90
        2
102
RTVSPost2010PropOp53
 70
     1
102
RTVSPost2010Prop54
  1
strokes_ogs.tif
102
RTVSPost2010PropOp54
 70
     1
102
RTVSPost2010Prop55
280
     0
102
RTVSPost2010PropOp55
 70
     1
102
RTVSPost2010Prop56
140
1.0
102
RTVSPost2010PropOp56
 70
     1
102
RTVSPost2010Prop57
140
1.0
102
RTVSPost2010PropOp57
 70
     1
  0
XRECORD
  5
9EB
102
{ACAD_REACTORS
330
9EA
102
}
330
9EA
100
AcDbXrecord
280
     1
102
RTVSPropertyOp0
 70
     1
102
RTVSPropertyOp1
 70
     1
102
RTVSPropertyOp2
 70
     1
102
RTVSPropertyOp3
 70
     1
102
RTVSPropertyOp4
 70
     1
102
RTVSPropertyOp5
 70
     1
102
RTVSPropertyOp6
 70
     1
102
RTVSPropertyOp7
 70
     1
102
RTVSPropertyOp8
 70
     1
102
RTVSPropertyOp9
 70
     1
102
RTVSPropertyOp10
 70
     1
102
RTVSPropertyOp11
 70
     1
102
RTVSPropertyOp12
 70
     1
102
RTVSPropertyOp13
 70
     1
102
RTVSPropertyOp14
 70
     1
102
RTVSPropertyOp15
 70
     1
102
RTVSPropertyOp16
 70
     1
102
RTVSPropertyOp17
 70
     1
102
RTVSPropertyOp18
 70
     1
102
RTVSPropertyOp19
 70
     1
102
RTVSPropertyOp20
 70
     1
102
RTVSPropertyOp21
 70
     1
102
RTVSPropertyOp22
 70
     1
102
RTVSPropertyOp23
 70
     1
102
RTVSPropertyOp24
 70
     1
102
RTVSPropertyOp25
 70
     1
102
RTVSPropertyOp26
 70
     1
102
RTVSPropertyOp27
 70
     1
102
RTVSPropertyOp28
 70
     1
102
RTVSPropertyOp29
 70
     1
102
RTVSPropertyOp30
 70
     1
102
RTVSPropertyOp31
 70
     1
102
RTVSPropertyOp32
 70
     1
102
RTVSPropertyOp33
 70
     1
102
RTVSPropertyOp34
 70
     1
102
RTVSPropertyOp35
 70
     1
102
RTVSPropertyOp36
 70
     1
102
RTVSPropertyOp37
 70
     1
102
RTVSPropertyOp38
 70
     1
102
RTVSPropertyOp39
 70
     1
102
RTVSPropertyOp40
 70
     1
102
RTVSPropertyOp41
 70
     1
102
RTVSPropertyOp42
 70
     1
102
RTVSPropertyOp43
 70
     1
102
RTVSPropertyOp44
 70
     1
102
RTVSPropertyOp45
 70
     1
102
RTVSPropertyOp46
 70
     1
102
RTVSPropertyOp47
 70
     1
102
RTVSPropertyOp48
 70
     1
102
RTVSPropertyOp49
 70
     1
102
RTVSPropertyOp50
 70
     1
102
RTVSPropertyOp51
 70
     0
102
RTVSPropertyOp52
 70
     0
102
RTVSPropertyOp53
 70
     1
102
RTVSPropertyOp54
 70
     1
102
RTVSPropertyOp55
 70
     1
102
RTVSPropertyOp56
 70
     1
102
RTVSPropertyOp57
 70
     1
102
RTVSPost2010Prop28
280
     0
102
RTVSPost2010PropOp28
 70
     1
102
RTVSPost2010Prop29
280
     1
102
RTVSPost2010PropOp29
 70
     1
102
RTVSPost2010Prop30
280
     1
102
RTVSPost2010PropOp30
 70
     1
102
RTVSPost2010Prop31
280
     0
102
RTVSPost2010PropOp31
 70
     1
102
RTVSPost2010Prop32
280
     0
102
RTVSPost2010PropOp32
 70
     1
102
RTVSPost2010Prop33
280
     0
102
RTVSPost2010PropOp33
 70
     1
102
RTVSPost2010Prop34
280
     0
102
RTVSPost2010PropOp34
 70
     1
102
RTVSPost2010Prop35
280
     0
102
RTVSPost2010PropOp35
 70
     1
102
RTVSPost2010Prop36
280
     0
102
RTVSPost2010PropOp36
 70
     1
102
RTVSPost2010Prop37
 90
       50
102
RTVSPost2010PropOp37
 70
     1
102
RTVSPost2010Prop38
140
0.0
102
RTVSPost2010PropOp38
 70
     1
102
RTVSPost2010Prop39
140
1.0
102
RTVSPost2010PropOp39
 70
     1
102
RTVSPost2010Prop40
 90
        0
102
RTVSPost2010PropOp40
 70
     1
102
RTVSPost2010Prop41ColorIndex
 90
       18
102
RTVSPost2010Prop41ColorRGB
 90
        0
102
RTVSPost2010PropOp41
 70
     1
102
RTVSPost2010Prop42
 90
       50
102
RTVSPost2010PropOp42
 70
     1
102
RTVSPost2010Prop43
 90
        3
102
RTVSPost2010PropOp43
 70
     1
102
RTVSPost2010Prop44ColorIndex
 90
        5
102
RTVSPost2010Prop44ColorRGB
 90
      255
102
RTVSPost2010PropOp44
 70
     1
102
RTVSPost2010Prop45
280
     0
102
RTVSPost2010PropOp45
 70
     1
102
RTVSPost2010Prop46
 90
       50
102
RTVSPost2010PropOp46
 70
     1
102
RTVSPost2010Prop47
 90
       50
102
RTVSPost2010PropOp47
 70
     1
102
RTVSPost2010Prop48
 90
       50
102
RTVSPost2010PropOp48
 70
     1
102
RTVSPost2010Prop49
280
     0
102
RTVSPost2010PropOp49
 70
     1
102
RTVSPost2010Prop50
 90
       50
102
RTVSPost2010PropOp50
 70
     1
102
RTVSPost2010Prop51ColorIndex
 90
      256
102
RTVSPost2010Prop51ColorRGB
 90
-16777216
102
RTVSPost2010PropOp51
 70
     0
102
RTVSPost2010Prop52
140
1.0
102
RTVSPost2010PropOp52
 70
     0
102
RTVSPost2010Prop53
 90
        2
102
RTVSPost2010PropOp53
 70
     1
102
RTVSPost2010Prop54
  1
strokes_ogs.tif
102
RTVSPost2010PropOp54
 70
     1
102
RTVSPost2010Prop55
280
     0
102
RTVSPost2010PropOp55
 70
     1
102
RTVSPost2010Prop56
140
1.0
102
RTVSPost2010PropOp56
 70
     1
102
RTVSPost2010Prop57
140
1.0
102
RTVSPost2010PropOp57
 70
     1
  0
XRECORD
  5
9FF
102
{ACAD_REACTORS
330
9FE
102
}
330
9FE
100
AcDbXrecord
280
     1
102
RTVSPropertyOp0
 70
     0
102
RTVSPropertyOp1
 70
     0
102
RTVSPropertyOp2
 70
     0
102
RTVSPropertyOp3
 70
     0
102
RTVSPropertyOp4
 70
     0
102
RTVSPropertyOp5
 70
     0
102
RTVSPropertyOp6
 70
     0
102
RTVSPropertyOp7
 70
     0
102
RTVSPropertyOp8
 70
     0
102
RTVSPropertyOp9
 70
     0
102
RTVSPropertyOp10
 70
     0
102
RTVSPropertyOp11
 70
     0
102
RTVSPropertyOp12
 70
     0
102
RTVSPropertyOp13
 70
     0
102
RTVSPropertyOp14
 70
     0
102
RTVSPropertyOp15
 70
     0
102
RTVSPropertyOp16
 70
     0
102
RTVSPropertyOp17
 70
     0
102
RTVSPropertyOp18
 70
     0
102
RTVSPropertyOp19
 70
     0
102
RTVSPropertyOp20
 70
     0
102
RTVSPropertyOp21
 70
     0
102
RTVSPropertyOp22
 70
     0
102
RTVSPropertyOp23
 70
     0
102
RTVSPropertyOp24
 70
     0
102
RTVSPropertyOp25
 70
     0
102
RTVSPropertyOp26
 70
     0
102
RTVSPropertyOp27
 70
     0
102
RTVSPropertyOp28
 70
     1
102
RTVSPropertyOp29
 70
     1
102
RTVSPropertyOp30
 70
     1
102
RTVSPropertyOp31
 70
     1
102
RTVSPropertyOp32
 70
     1
102
RTVSPropertyOp33
 70
     1
102
RTVSPropertyOp34
 70
     1
102
RTVSPropertyOp35
 70
     1
102
RTVSPropertyOp36
 70
     1
102
RTVSPropertyOp37
 70
     1
102
RTVSPropertyOp38
 70
     1
102
RTVSPropertyOp39
 70
     1
102
RTVSPropertyOp40
 70
     1
102
RTVSPropertyOp41
 70
     1
102
RTVSPropertyOp42
 70
     1
102
RTVSPropertyOp43
 70
     1
102
RTVSPropertyOp44
 70
     1
102
RTVSPropertyOp45
 70
     1
102
RTVSPropertyOp46
 70
     1
102
RTVSPropertyOp47
 70
     1
102
RTVSPropertyOp48
 70
     1
102
RTVSPropertyOp49
 70
     1
102
RTVSPropertyOp50
 70
     1
102
RTVSPropertyOp51
 70
     0
102
RTVSPropertyOp52
 70
     0
102
RTVSPropertyOp53
 70
     1
102
RTVSPropertyOp54
 70
     1
102
RTVSPropertyOp55
 70
     1
102
RTVSPropertyOp56
 70
     1
102
RTVSPropertyOp57
 70
     1
102
RTVSPost2010Prop28
280
     0
102
RTVSPost2010PropOp28
 70
     1
102
RTVSPost2010Prop29
280
     1
102
RTVSPost2010PropOp29
 70
     1
102
RTVSPost2010Prop30
280
     1
102
RTVSPost2010PropOp30
 70
     1
102
RTVSPost2010Prop31
280
     0
102
RTVSPost2010PropOp31
 70
     1
102
RTVSPost2010Prop32
280
     0
102
RTVSPost2010PropOp32
 70
     1
102
RTVSPost2010Prop33
280
     0
102
RTVSPost2010PropOp33
 70
     1
102
RTVSPost2010Prop34
280
     0
102
RTVSPost2010PropOp34
 70
     1
102
RTVSPost2010Prop35
280
     0
102
RTVSPost2010PropOp35
 70
     1
102
RTVSPost2010Prop36
280
     0
102
RTVSPost2010PropOp36
 70
     1
102
RTVSPost2010Prop37
 90
       50
102
RTVSPost2010PropOp37
 70
     1
102
RTVSPost2010Prop38
140
0.0
102
RTVSPost2010PropOp38
 70
     1
102
RTVSPost2010Prop39
140
1.0
102
RTVSPost2010PropOp39
 70
     1
102
RTVSPost2010Prop40
 90
        0
102
RTVSPost2010PropOp40
 70
     1
102
RTVSPost2010Prop41ColorIndex
 90
       18
102
RTVSPost2010Prop41ColorRGB
 90
        0
102
RTVSPost2010PropOp41
 70
     1
102
RTVSPost2010Prop42
 90
       50
102
RTVSPost2010PropOp42
 70
     1
102
RTVSPost2010Prop43
 90
        3
102
RTVSPost2010PropOp43
 70
     1
102
RTVSPost2010Prop44ColorIndex
 90
        5
102
RTVSPost2010Prop44ColorRGB
 90
      255
102
RTVSPost2010PropOp44
 70
     1
102
RTVSPost2010Prop45
280
     0
102
RTVSPost2010PropOp45
 70
     1
102
RTVSPost2010Prop46
 90
       50
102
RTVSPost2010PropOp46
 70
     1
102
RTVSPost2010Prop47
 90
       50
102
RTVSPost2010PropOp47
 70
     1
102
RTVSPost2010Prop48
 90
       50
102
RTVSPost2010PropOp48
 70
     1
102
RTVSPost2010Prop49
280
     0
102
RTVSPost2010PropOp49
 70
     1
102
RTVSPost2010Prop50
 90
       50
102
RTVSPost2010PropOp50
 70
     1
102
RTVSPost2010Prop51ColorIndex
 90
      256
102
RTVSPost2010Prop51ColorRGB
 90
-16777216
102
RTVSPost2010PropOp51
 70
     0
102
RTVSPost2010Prop52
140
1.0
102
RTVSPost2010PropOp52
 70
     0
102
RTVSPost2010Prop53
 90
        2
102
RTVSPost2010PropOp53
 70
     1
102
RTVSPost2010Prop54
  1
strokes_ogs.tif
102
RTVSPost2010PropOp54
 70
     1
102
RTVSPost2010Prop55
280
     0
102
RTVSPost2010PropOp55
 70
     1
102
RTVSPost2010Prop56
140
1.0
102
RTVSPost2010PropOp56
 70
     1
102
RTVSPost2010Prop57
140
1.0
102
RTVSPost2010PropOp57
 70
     1
  0
XRECORD
  5
9F9
102
{ACAD_REACTORS
330
9F8
102
}
330
9F8
100
AcDbXrecord
280
     1
102
RTVSPropertyOp0
 70
     1
102
RTVSPropertyOp1
 70
     1
102
RTVSPropertyOp2
 70
     1
102
RTVSPropertyOp3
 70
     1
102
RTVSPropertyOp4
 70
     1
102
RTVSPropertyOp5
 70
     1
102
RTVSPropertyOp6
 70
     1
102
RTVSPropertyOp7
 70
     1
102
RTVSPropertyOp8
 70
     1
102
RTVSPropertyOp9
 70
     1
102
RTVSPropertyOp10
 70
     1
102
RTVSPropertyOp11
 70
     1
102
RTVSPropertyOp12
 70
     1
102
RTVSPropertyOp13
 70
     1
102
RTVSPropertyOp14
 70
     1
102
RTVSPropertyOp15
 70
     1
102
RTVSPropertyOp16
 70
     1
102
RTVSPropertyOp17
 70
     1
102
RTVSPropertyOp18
 70
     1
102
RTVSPropertyOp19
 70
     1
102
RTVSPropertyOp20
 70
     1
102
RTVSPropertyOp21
 70
     1
102
RTVSPropertyOp22
 70
     1
102
RTVSPropertyOp23
 70
     1
102
RTVSPropertyOp24
 70
     1
102
RTVSPropertyOp25
 70
     1
102
RTVSPropertyOp26
 70
     1
102
RTVSPropertyOp27
 70
     1
102
RTVSPropertyOp28
 70
     1
102
RTVSPropertyOp29
 70
     1
102
RTVSPropertyOp30
 70
     1
102
RTVSPropertyOp31
 70
     1
102
RTVSPropertyOp32
 70
     1
102
RTVSPropertyOp33
 70
     1
102
RTVSPropertyOp34
 70
     1
102
RTVSPropertyOp35
 70
     1
102
RTVSPropertyOp36
 70
     1
102
RTVSPropertyOp37
 70
     1
102
RTVSPropertyOp38
 70
     1
102
RTVSPropertyOp39
 70
     1
102
RTVSPropertyOp40
 70
     1
102
RTVSPropertyOp41
 70
     1
102
RTVSPropertyOp42
 70
     1
102
RTVSPropertyOp43
 70
     1
102
RTVSPropertyOp44
 70
     1
102
RTVSPropertyOp45
 70
     1
102
RTVSPropertyOp46
 70
     1
102
RTVSPropertyOp47
 70
     1
102
RTVSPropertyOp48
 70
     1
102
RTVSPropertyOp49
 70
     1
102
RTVSPropertyOp50
 70
     1
102
RTVSPropertyOp51
 70
     0
102
RTVSPropertyOp52
 70
     0
102
RTVSPropertyOp53
 70
     1
102
RTVSPropertyOp54
 70
     1
102
RTVSPropertyOp55
 70
     1
102
RTVSPropertyOp56
 70
     1
102
RTVSPropertyOp57
 70
     1
102
RTVSPost2010Prop28
280
     0
102
RTVSPost2010PropOp28
 70
     1
102
RTVSPost2010Prop29
280
     1
102
RTVSPost2010PropOp29
 70
     1
102
RTVSPost2010Prop30
280
     1
102
RTVSPost2010PropOp30
 70
     1
102
RTVSPost2010Prop31
280
     0
102
RTVSPost2010PropOp31
 70
     1
102
RTVSPost2010Prop32
280
     0
102
RTVSPost2010PropOp32
 70
     1
102
RTVSPost2010Prop33
280
     0
102
RTVSPost2010PropOp33
 70
     1
102
RTVSPost2010Prop34
280
     0
102
RTVSPost2010PropOp34
 70
     1
102
RTVSPost2010Prop35
280
     0
102
RTVSPost2010PropOp35
 70
     1
102
RTVSPost2010Prop36
280
     0
102
RTVSPost2010PropOp36
 70
     1
102
RTVSPost2010Prop37
 90
       50
102
RTVSPost2010PropOp37
 70
     1
102
RTVSPost2010Prop38
140
0.0
102
RTVSPost2010PropOp38
 70
     1
102
RTVSPost2010Prop39
140
1.0
102
RTVSPost2010PropOp39
 70
     1
102
RTVSPost2010Prop40
 90
        0
102
RTVSPost2010PropOp40
 70
     1
102
RTVSPost2010Prop41ColorIndex
 90
       18
102
RTVSPost2010Prop41ColorRGB
 90
        0
102
RTVSPost2010PropOp41
 70
     1
102
RTVSPost2010Prop42
 90
       50
102
RTVSPost2010PropOp42
 70
     1
102
RTVSPost2010Prop43
 90
        3
102
RTVSPost2010PropOp43
 70
     1
102
RTVSPost2010Prop44ColorIndex
 90
        5
102
RTVSPost2010Prop44ColorRGB
 90
      255
102
RTVSPost2010PropOp44
 70
     1
102
RTVSPost2010Prop45
280
     0
102
RTVSPost2010PropOp45
 70
     1
102
RTVSPost2010Prop46
 90
       50
102
RTVSPost2010PropOp46
 70
     1
102
RTVSPost2010Prop47
 90
       50
102
RTVSPost2010PropOp47
 70
     1
102
RTVSPost2010Prop48
 90
       50
102
RTVSPost2010PropOp48
 70
     1
102
RTVSPost2010Prop49
280
     0
102
RTVSPost2010PropOp49
 70
     1
102
RTVSPost2010Prop50
 90
       50
102
RTVSPost2010PropOp50
 70
     1
102
RTVSPost2010Prop51ColorIndex
 90
      256
102
RTVSPost2010Prop51ColorRGB
 90
-16777216
102
RTVSPost2010PropOp51
 70
     0
102
RTVSPost2010Prop52
140
1.0
102
RTVSPost2010PropOp52
 70
     0
102
RTVSPost2010Prop53
 90
        2
102
RTVSPost2010PropOp53
 70
     1
102
RTVSPost2010Prop54
  1
strokes_ogs.tif
102
RTVSPost2010PropOp54
 70
     1
102
RTVSPost2010Prop55
280
     0
102
RTVSPost2010PropOp55
 70
     1
102
RTVSPost2010Prop56
140
1.0
102
RTVSPost2010PropOp56
 70
     1
102
RTVSPost2010Prop57
140
1.0
102
RTVSPost2010PropOp57
 70
     1
  0
XRECORD
  5
A01
102
{ACAD_REACTORS
330
A00
102
}
330
A00
100
AcDbXrecord
280
     1
102
RTVSPropertyOp0
 70
     0
102
RTVSPropertyOp1
 70
     0
102
RTVSPropertyOp2
 70
     0
102
RTVSPropertyOp3
 70
     0
102
RTVSPropertyOp4
 70
     0
102
RTVSPropertyOp5
 70
     0
102
RTVSPropertyOp6
 70
     0
102
RTVSPropertyOp7
 70
     0
102
RTVSPropertyOp8
 70
     0
102
RTVSPropertyOp9
 70
     0
102
RTVSPropertyOp10
 70
     0
102
RTVSPropertyOp11
 70
     0
102
RTVSPropertyOp12
 70
     0
102
RTVSPropertyOp13
 70
     0
102
RTVSPropertyOp14
 70
     0
102
RTVSPropertyOp15
 70
     0
102
RTVSPropertyOp16
 70
     0
102
RTVSPropertyOp17
 70
     0
102
RTVSPropertyOp18
 70
     0
102
RTVSPropertyOp19
 70
     0
102
RTVSPropertyOp20
 70
     0
102
RTVSPropertyOp21
 70
     0
102
RTVSPropertyOp22
 70
     0
102
RTVSPropertyOp23
 70
     0
102
RTVSPropertyOp24
 70
     0
102
RTVSPropertyOp25
 70
     0
102
RTVSPropertyOp26
 70
     0
102
RTVSPropertyOp27
 70
     0
102
RTVSPropertyOp28
 70
     1
102
RTVSPropertyOp29
 70
     1
102
RTVSPropertyOp30
 70
     1
102
RTVSPropertyOp31
 70
     1
102
RTVSPropertyOp32
 70
     1
102
RTVSPropertyOp33
 70
     1
102
RTVSPropertyOp34
 70
     1
102
RTVSPropertyOp35
 70
     1
102
RTVSPropertyOp36
 70
     1
102
RTVSPropertyOp37
 70
     1
102
RTVSPropertyOp38
 70
     1
102
RTVSPropertyOp39
 70
     1
102
RTVSPropertyOp40
 70
     1
102
RTVSPropertyOp41
 70
     1
102
RTVSPropertyOp42
 70
     1
102
RTVSPropertyOp43
 70
     1
102
RTVSPropertyOp44
 70
     1
102
RTVSPropertyOp45
 70
     1
102
RTVSPropertyOp46
 70
     1
102
RTVSPropertyOp47
 70
     1
102
RTVSPropertyOp48
 70
     1
102
RTVSPropertyOp49
 70
     1
102
RTVSPropertyOp50
 70
     1
102
RTVSPropertyOp51
 70
     0
102
RTVSPropertyOp52
 70
     0
102
RTVSPropertyOp53
 70
     1
102
RTVSPropertyOp54
 70
     1
102
RTVSPropertyOp55
 70
     1
102
RTVSPropertyOp56
 70
     1
102
RTVSPropertyOp57
 70
     1
102
RTVSPost2010Prop28
280
     0
102
RTVSPost2010PropOp28
 70
     1
102
RTVSPost2010Prop29
280
     1
102
RTVSPost2010PropOp29
 70
     1
102
RTVSPost2010Prop30
280
     1
102
RTVSPost2010PropOp30
 70
     1
102
RTVSPost2010Prop31
280
     0
102
RTVSPost2010PropOp31
 70
     1
102
RTVSPost2010Prop32
280
     0
102
RTVSPost2010PropOp32
 70
     1
102
RTVSPost2010Prop33
280
     0
102
RTVSPost2010PropOp33
 70
     1
102
RTVSPost2010Prop34
280
     0
102
RTVSPost2010PropOp34
 70
     1
102
RTVSPost2010Prop35
280
     0
102
RTVSPost2010PropOp35
 70
     1
102
RTVSPost2010Prop36
280
     0
102
RTVSPost2010PropOp36
 70
     1
102
RTVSPost2010Prop37
 90
       50
102
RTVSPost2010PropOp37
 70
     1
102
RTVSPost2010Prop38
140
0.0
102
RTVSPost2010PropOp38
 70
     1
102
RTVSPost2010Prop39
140
1.0
102
RTVSPost2010PropOp39
 70
     1
102
RTVSPost2010Prop40
 90
        0
102
RTVSPost2010PropOp40
 70
     1
102
RTVSPost2010Prop41ColorIndex
 90
       18
102
RTVSPost2010Prop41ColorRGB
 90
        0
102
RTVSPost2010PropOp41
 70
     1
102
RTVSPost2010Prop42
 90
       50
102
RTVSPost2010PropOp42
 70
     1
102
RTVSPost2010Prop43
 90
        3
102
RTVSPost2010PropOp43
 70
     1
102
RTVSPost2010Prop44ColorIndex
 90
        5
102
RTVSPost2010Prop44ColorRGB
 90
      255
102
RTVSPost2010PropOp44
 70
     1
102
RTVSPost2010Prop45
280
     0
102
RTVSPost2010PropOp45
 70
     1
102
RTVSPost2010Prop46
 90
       50
102
RTVSPost2010PropOp46
 70
     1
102
RTVSPost2010Prop47
 90
       50
102
RTVSPost2010PropOp47
 70
     1
102
RTVSPost2010Prop48
 90
       50
102
RTVSPost2010PropOp48
 70
     1
102
RTVSPost2010Prop49
280
     0
102
RTVSPost2010PropOp49
 70
     1
102
RTVSPost2010Prop50
 90
       50
102
RTVSPost2010PropOp50
 70
     1
102
RTVSPost2010Prop51ColorIndex
 90
      256
102
RTVSPost2010Prop51ColorRGB
 90
-16777216
102
RTVSPost2010PropOp51
 70
     0
102
RTVSPost2010Prop52
140
1.0
102
RTVSPost2010PropOp52
 70
     0
102
RTVSPost2010Prop53
 90
        2
102
RTVSPost2010PropOp53
 70
     1
102
RTVSPost2010Prop54
  1
strokes_ogs.tif
102
RTVSPost2010PropOp54
 70
     1
102
RTVSPost2010Prop55
280
     0
102
RTVSPost2010PropOp55
 70
     1
102
RTVSPost2010Prop56
140
1.0
102
RTVSPost2010PropOp56
 70
     1
102
RTVSPost2010Prop57
140
1.0
102
RTVSPost2010PropOp57
 70
     1
  0
XRECORD
  5
9EF
102
{ACAD_REACTORS
330
9EE
102
}
330
9EE
100
AcDbXrecord
280
     1
102
RTVSPropertyOp0
 70
     1
102
RTVSPropertyOp1
 70
     1
102
RTVSPropertyOp2
 70
     1
102
RTVSPropertyOp3
 70
     1
102
RTVSPropertyOp4
 70
     1
102
RTVSPropertyOp5
 70
     1
102
RTVSPropertyOp6
 70
     1
102
RTVSPropertyOp7
 70
     1
102
RTVSPropertyOp8
 70
     1
102
RTVSPropertyOp9
 70
     1
102
RTVSPropertyOp10
 70
     1
102
RTVSPropertyOp11
 70
     1
102
RTVSPropertyOp12
 70
     1
102
RTVSPropertyOp13
 70
     1
102
RTVSPropertyOp14
 70
     1
102
RTVSPropertyOp15
 70
     1
102
RTVSPropertyOp16
 70
     1
102
RTVSPropertyOp17
 70
     1
102
RTVSPropertyOp18
 70
     1
102
RTVSPropertyOp19
 70
     1
102
RTVSPropertyOp20
 70
     1
102
RTVSPropertyOp21
 70
     1
102
RTVSPropertyOp22
 70
     1
102
RTVSPropertyOp23
 70
     1
102
RTVSPropertyOp24
 70
     1
102
RTVSPropertyOp25
 70
     1
102
RTVSPropertyOp26
 70
     1
102
RTVSPropertyOp27
 70
     1
102
RTVSPropertyOp28
 70
     1
102
RTVSPropertyOp29
 70
     1
102
RTVSPropertyOp30
 70
     1
102
RTVSPropertyOp31
 70
     1
102
RTVSPropertyOp32
 70
     1
102
RTVSPropertyOp33
 70
     1
102
RTVSPropertyOp34
 70
     1
102
RTVSPropertyOp35
 70
     1
102
RTVSPropertyOp36
 70
     1
102
RTVSPropertyOp37
 70
     1
102
RTVSPropertyOp38
 70
     1
102
RTVSPropertyOp39
 70
     1
102
RTVSPropertyOp40
 70
     1
102
RTVSPropertyOp41
 70
     1
102
RTVSPropertyOp42
 70
     1
102
RTVSPropertyOp43
 70
     1
102
RTVSPropertyOp44
 70
     1
102
RTVSPropertyOp45
 70
     1
102
RTVSPropertyOp46
 70
     1
102
RTVSPropertyOp47
 70
     1
102
RTVSPropertyOp48
 70
     1
102
RTVSPropertyOp49
 70
     1
102
RTVSPropertyOp50
 70
     1
102
RTVSPropertyOp51
 70
     0
102
RTVSPropertyOp52
 70
     0
102
RTVSPropertyOp53
 70
     1
102
RTVSPropertyOp54
 70
     1
102
RTVSPropertyOp55
 70
     1
102
RTVSPropertyOp56
 70
     1
102
RTVSPropertyOp57
 70
     1
102
RTVSPost2010Prop28
280
     0
102
RTVSPost2010PropOp28
 70
     1
102
RTVSPost2010Prop29
280
     1
102
RTVSPost2010PropOp29
 70
     1
102
RTVSPost2010Prop30
280
     1
102
RTVSPost2010PropOp30
 70
     1
102
RTVSPost2010Prop31
280
     0
102
RTVSPost2010PropOp31
 70
     1
102
RTVSPost2010Prop32
280
     0
102
RTVSPost2010PropOp32
 70
     1
102
RTVSPost2010Prop33
280
     0
102
RTVSPost2010PropOp33
 70
     1
102
RTVSPost2010Prop34
280
     0
102
RTVSPost2010PropOp34
 70
     1
102
RTVSPost2010Prop35
280
     0
102
RTVSPost2010PropOp35
 70
     1
102
RTVSPost2010Prop36
280
     0
102
RTVSPost2010PropOp36
 70
     1
102
RTVSPost2010Prop37
 90
       50
102
RTVSPost2010PropOp37
 70
     1
102
RTVSPost2010Prop38
140
0.0
102
RTVSPost2010PropOp38
 70
     1
102
RTVSPost2010Prop39
140
1.0
102
RTVSPost2010PropOp39
 70
     1
102
RTVSPost2010Prop40
 90
        0
102
RTVSPost2010PropOp40
 70
     1
102
RTVSPost2010Prop41ColorIndex
 90
       18
102
RTVSPost2010Prop41ColorRGB
 90
        0
102
RTVSPost2010PropOp41
 70
     1
102
RTVSPost2010Prop42
 90
       50
102
RTVSPost2010PropOp42
 70
     1
102
RTVSPost2010Prop43
 90
        3
102
RTVSPost2010PropOp43
 70
     1
102
RTVSPost2010Prop44ColorIndex
 90
        5
102
RTVSPost2010Prop44ColorRGB
 90
      255
102
RTVSPost2010PropOp44
 70
     1
102
RTVSPost2010Prop45
280
     0
102
RTVSPost2010PropOp45
 70
     1
102
RTVSPost2010Prop46
 90
       50
102
RTVSPost2010PropOp46
 70
     1
102
RTVSPost2010Prop47
 90
       50
102
RTVSPost2010PropOp47
 70
     1
102
RTVSPost2010Prop48
 90
       50
102
RTVSPost2010PropOp48
 70
     1
102
RTVSPost2010Prop49
280
     0
102
RTVSPost2010PropOp49
 70
     1
102
RTVSPost2010Prop50
 90
       50
102
RTVSPost2010PropOp50
 70
     1
102
RTVSPost2010Prop51ColorIndex
 90
      256
102
RTVSPost2010Prop51ColorRGB
 90
-16777216
102
RTVSPost2010PropOp51
 70
     0
102
RTVSPost2010Prop52
140
1.0
102
RTVSPost2010PropOp52
 70
     0
102
RTVSPost2010Prop53
 90
        2
102
RTVSPost2010PropOp53
 70
     1
102
RTVSPost2010Prop54
  1
strokes_ogs.tif
102
RTVSPost2010PropOp54
 70
     1
102
RTVSPost2010Prop55
280
     0
102
RTVSPost2010PropOp55
 70
     1
102
RTVSPost2010Prop56
140
1.0
102
RTVSPost2010PropOp56
 70
     1
102
RTVSPost2010Prop57
140
1.0
102
RTVSPost2010PropOp57
 70
     1
  0
XRECORD
  5
A0D
102
{ACAD_REACTORS
330
A0C
102
}
330
A0C
100
AcDbXrecord
280
     1
102
RTVSPropertyOp0
 70
     1
102
RTVSPropertyOp1
 70
     1
102
RTVSPropertyOp2
 70
     1
102
RTVSPropertyOp3
 70
     1
102
RTVSPropertyOp4
 70
     1
102
RTVSPropertyOp5
 70
     1
102
RTVSPropertyOp6
 70
     1
102
RTVSPropertyOp7
 70
     1
102
RTVSPropertyOp8
 70
     1
102
RTVSPropertyOp9
 70
     1
102
RTVSPropertyOp10
 70
     1
102
RTVSPropertyOp11
 70
     1
102
RTVSPropertyOp12
 70
     1
102
RTVSPropertyOp13
 70
     1
102
RTVSPropertyOp14
 70
     1
102
RTVSPropertyOp15
 70
     1
102
RTVSPropertyOp16
 70
     1
102
RTVSPropertyOp17
 70
     1
102
RTVSPropertyOp18
 70
     1
102
RTVSPropertyOp19
 70
     1
102
RTVSPropertyOp20
 70
     1
102
RTVSPropertyOp21
 70
     1
102
RTVSPropertyOp22
 70
     1
102
RTVSPropertyOp23
 70
     1
102
RTVSPropertyOp24
 70
     1
102
RTVSPropertyOp25
 70
     1
102
RTVSPropertyOp26
 70
     1
102
RTVSPropertyOp27
 70
     1
102
RTVSPropertyOp28
 70
     1
102
RTVSPropertyOp29
 70
     1
102
RTVSPropertyOp30
 70
     1
102
RTVSPropertyOp31
 70
     1
102
RTVSPropertyOp32
 70
     1
102
RTVSPropertyOp33
 70
     1
102
RTVSPropertyOp34
 70
     1
102
RTVSPropertyOp35
 70
     1
102
RTVSPropertyOp36
 70
     1
102
RTVSPropertyOp37
 70
     1
102
RTVSPropertyOp38
 70
     1
102
RTVSPropertyOp39
 70
     1
102
RTVSPropertyOp40
 70
     1
102
RTVSPropertyOp41
 70
     1
102
RTVSPropertyOp42
 70
     1
102
RTVSPropertyOp43
 70
     1
102
RTVSPropertyOp44
 70
     1
102
RTVSPropertyOp45
 70
     1
102
RTVSPropertyOp46
 70
     1
102
RTVSPropertyOp47
 70
     1
102
RTVSPropertyOp48
 70
     1
102
RTVSPropertyOp49
 70
     1
102
RTVSPropertyOp50
 70
     1
102
RTVSPropertyOp51
 70
     0
102
RTVSPropertyOp52
 70
     0
102
RTVSPropertyOp53
 70
     1
102
RTVSPropertyOp54
 70
     1
102
RTVSPropertyOp55
 70
     1
102
RTVSPropertyOp56
 70
     1
102
RTVSPropertyOp57
 70
     1
102
RTVSPost2010Prop28
280
     0
102
RTVSPost2010PropOp28
 70
     1
102
RTVSPost2010Prop29
280
     1
102
RTVSPost2010PropOp29
 70
     1
102
RTVSPost2010Prop30
280
     1
102
RTVSPost2010PropOp30
 70
     1
102
RTVSPost2010Prop31
280
     0
102
RTVSPost2010PropOp31
 70
     1
102
RTVSPost2010Prop32
280
     0
102
RTVSPost2010PropOp32
 70
     1
102
RTVSPost2010Prop33
280
     0
102
RTVSPost2010PropOp33
 70
     1
102
RTVSPost2010Prop34
280
     0
102
RTVSPost2010PropOp34
 70
     1
102
RTVSPost2010Prop35
280
     0
102
RTVSPost2010PropOp35
 70
     1
102
RTVSPost2010Prop36
280
     0
102
RTVSPost2010PropOp36
 70
     1
102
RTVSPost2010Prop37
 90
       50
102
RTVSPost2010PropOp37
 70
     1
102
RTVSPost2010Prop38
140
0.0
102
RTVSPost2010PropOp38
 70
     1
102
RTVSPost2010Prop39
140
1.0
102
RTVSPost2010PropOp39
 70
     1
102
RTVSPost2010Prop40
 90
        0
102
RTVSPost2010PropOp40
 70
     1
102
RTVSPost2010Prop41ColorIndex
 90
       18
102
RTVSPost2010Prop41ColorRGB
 90
        0
102
RTVSPost2010PropOp41
 70
     1
102
RTVSPost2010Prop42
 90
       50
102
RTVSPost2010PropOp42
 70
     1
102
RTVSPost2010Prop43
 90
        3
102
RTVSPost2010PropOp43
 70
     1
102
RTVSPost2010Prop44ColorIndex
 90
        5
102
RTVSPost2010Prop44ColorRGB
 90
      255
102
RTVSPost2010PropOp44
 70
     1
102
RTVSPost2010Prop45
280
     0
102
RTVSPost2010PropOp45
 70
     1
102
RTVSPost2010Prop46
 90
       50
102
RTVSPost2010PropOp46
 70
     1
102
RTVSPost2010Prop47
 90
       50
102
RTVSPost2010PropOp47
 70
     1
102
RTVSPost2010Prop48
 90
       50
102
RTVSPost2010PropOp48
 70
     1
102
RTVSPost2010Prop49
280
     0
102
RTVSPost2010PropOp49
 70
     1
102
RTVSPost2010Prop50
 90
       50
102
RTVSPost2010PropOp50
 70
     1
102
RTVSPost2010Prop51ColorIndex
 90
      256
102
RTVSPost2010Prop51ColorRGB
 90
-16777216
102
RTVSPost2010PropOp51
 70
     0
102
RTVSPost2010Prop52
140
1.0
102
RTVSPost2010PropOp52
 70
     0
102
RTVSPost2010Prop53
 90
        2
102
RTVSPost2010PropOp53
 70
     1
102
RTVSPost2010Prop54
  1
strokes_ogs.tif
102
RTVSPost2010PropOp54
 70
     1
102
RTVSPost2010Prop55
280
     0
102
RTVSPost2010PropOp55
 70
     1
102
RTVSPost2010Prop56
140
1.0
102
RTVSPost2010PropOp56
 70
     1
102
RTVSPost2010Prop57
140
1.0
102
RTVSPost2010PropOp57
 70
     1
  0
XRECORD
  5
A0B
102
{ACAD_REACTORS
330
A0A
102
}
330
A0A
100
AcDbXrecord
280
     1
102
RTVSPropertyOp0
 70
     1
102
RTVSPropertyOp1
 70
     1
102
RTVSPropertyOp2
 70
     1
102
RTVSPropertyOp3
 70
     1
102
RTVSPropertyOp4
 70
     1
102
RTVSPropertyOp5
 70
     1
102
RTVSPropertyOp6
 70
     1
102
RTVSPropertyOp7
 70
     1
102
RTVSPropertyOp8
 70
     1
102
RTVSPropertyOp9
 70
     1
102
RTVSPropertyOp10
 70
     1
102
RTVSPropertyOp11
 70
     1
102
RTVSPropertyOp12
 70
     1
102
RTVSPropertyOp13
 70
     1
102
RTVSPropertyOp14
 70
     1
102
RTVSPropertyOp15
 70
     1
102
RTVSPropertyOp16
 70
     1
102
RTVSPropertyOp17
 70
     1
102
RTVSPropertyOp18
 70
     1
102
RTVSPropertyOp19
 70
     1
102
RTVSPropertyOp20
 70
     1
102
RTVSPropertyOp21
 70
     1
102
RTVSPropertyOp22
 70
     1
102
RTVSPropertyOp23
 70
     1
102
RTVSPropertyOp24
 70
     1
102
RTVSPropertyOp25
 70
     1
102
RTVSPropertyOp26
 70
     1
102
RTVSPropertyOp27
 70
     1
102
RTVSPropertyOp28
 70
     1
102
RTVSPropertyOp29
 70
     1
102
RTVSPropertyOp30
 70
     1
102
RTVSPropertyOp31
 70
     1
102
RTVSPropertyOp32
 70
     1
102
RTVSPropertyOp33
 70
     1
102
RTVSPropertyOp34
 70
     1
102
RTVSPropertyOp35
 70
     1
102
RTVSPropertyOp36
 70
     1
102
RTVSPropertyOp37
 70
     1
102
RTVSPropertyOp38
 70
     1
102
RTVSPropertyOp39
 70
     1
102
RTVSPropertyOp40
 70
     1
102
RTVSPropertyOp41
 70
     1
102
RTVSPropertyOp42
 70
     1
102
RTVSPropertyOp43
 70
     1
102
RTVSPropertyOp44
 70
     1
102
RTVSPropertyOp45
 70
     1
102
RTVSPropertyOp46
 70
     1
102
RTVSPropertyOp47
 70
     1
102
RTVSPropertyOp48
 70
     1
102
RTVSPropertyOp49
 70
     1
102
RTVSPropertyOp50
 70
     1
102
RTVSPropertyOp51
 70
     0
102
RTVSPropertyOp52
 70
     0
102
RTVSPropertyOp53
 70
     1
102
RTVSPropertyOp54
 70
     1
102
RTVSPropertyOp55
 70
     1
102
RTVSPropertyOp56
 70
     1
102
RTVSPropertyOp57
 70
     1
102
RTVSPost2010Prop28
280
     0
102
RTVSPost2010PropOp28
 70
     1
102
RTVSPost2010Prop29
280
     1
102
RTVSPost2010PropOp29
 70
     1
102
RTVSPost2010Prop30
280
     1
102
RTVSPost2010PropOp30
 70
     1
102
RTVSPost2010Prop31
280
     0
102
RTVSPost2010PropOp31
 70
     1
102
RTVSPost2010Prop32
280
     0
102
RTVSPost2010PropOp32
 70
     1
102
RTVSPost2010Prop33
280
     0
102
RTVSPost2010PropOp33
 70
     1
102
RTVSPost2010Prop34
280
     0
102
RTVSPost2010PropOp34
 70
     1
102
RTVSPost2010Prop35
280
     0
102
RTVSPost2010PropOp35
 70
     1
102
RTVSPost2010Prop36
280
     0
102
RTVSPost2010PropOp36
 70
     1
102
RTVSPost2010Prop37
 90
       50
102
RTVSPost2010PropOp37
 70
     1
102
RTVSPost2010Prop38
140
0.0
102
RTVSPost2010PropOp38
 70
     1
102
RTVSPost2010Prop39
140
1.0
102
RTVSPost2010PropOp39
 70
     1
102
RTVSPost2010Prop40
 90
        0
102
RTVSPost2010PropOp40
 70
     1
102
RTVSPost2010Prop41ColorIndex
 90
       18
102
RTVSPost2010Prop41ColorRGB
 90
        0
102
RTVSPost2010PropOp41
 70
     1
102
RTVSPost2010Prop42
 90
       50
102
RTVSPost2010PropOp42
 70
     1
102
RTVSPost2010Prop43
 90
        3
102
RTVSPost2010PropOp43
 70
     1
102
RTVSPost2010Prop44ColorIndex
 90
        5
102
RTVSPost2010Prop44ColorRGB
 90
      255
102
RTVSPost2010PropOp44
 70
     1
102
RTVSPost2010Prop45
280
     0
102
RTVSPost2010PropOp45
 70
     1
102
RTVSPost2010Prop46
 90
       50
102
RTVSPost2010PropOp46
 70
     1
102
RTVSPost2010Prop47
 90
       50
102
RTVSPost2010PropOp47
 70
     1
102
RTVSPost2010Prop48
 90
       50
102
RTVSPost2010PropOp48
 70
     1
102
RTVSPost2010Prop49
280
     0
102
RTVSPost2010PropOp49
 70
     1
102
RTVSPost2010Prop50
 90
       50
102
RTVSPost2010PropOp50
 70
     1
102
RTVSPost2010Prop51ColorIndex
 90
      256
102
RTVSPost2010Prop51ColorRGB
 90
-16777216
102
RTVSPost2010PropOp51
 70
     0
102
RTVSPost2010Prop52
140
1.0
102
RTVSPost2010PropOp52
 70
     0
102
RTVSPost2010Prop53
 90
        2
102
RTVSPost2010PropOp53
 70
     1
102
RTVSPost2010Prop54
  1
strokes_ogs.tif
102
RTVSPost2010PropOp54
 70
     1
102
RTVSPost2010Prop55
280
     0
102
RTVSPost2010PropOp55
 70
     1
102
RTVSPost2010Prop56
140
1.0
102
RTVSPost2010PropOp56
 70
     1
102
RTVSPost2010Prop57
140
1.0
102
RTVSPost2010PropOp57
 70
     1
  0
XRECORD
  5
A05
102
{ACAD_REACTORS
330
A04
102
}
330
A04
100
AcDbXrecord
280
     1
102
RTVSPropertyOp0
 70
     1
102
RTVSPropertyOp1
 70
     1
102
RTVSPropertyOp2
 70
     1
102
RTVSPropertyOp3
 70
     1
102
RTVSPropertyOp4
 70
     1
102
RTVSPropertyOp5
 70
     1
102
RTVSPropertyOp6
 70
     1
102
RTVSPropertyOp7
 70
     1
102
RTVSPropertyOp8
 70
     1
102
RTVSPropertyOp9
 70
     1
102
RTVSPropertyOp10
 70
     1
102
RTVSPropertyOp11
 70
     1
102
RTVSPropertyOp12
 70
     1
102
RTVSPropertyOp13
 70
     1
102
RTVSPropertyOp14
 70
     1
102
RTVSPropertyOp15
 70
     1
102
RTVSPropertyOp16
 70
     1
102
RTVSPropertyOp17
 70
     1
102
RTVSPropertyOp18
 70
     1
102
RTVSPropertyOp19
 70
     1
102
RTVSPropertyOp20
 70
     1
102
RTVSPropertyOp21
 70
     1
102
RTVSPropertyOp22
 70
     1
102
RTVSPropertyOp23
 70
     1
102
RTVSPropertyOp24
 70
     1
102
RTVSPropertyOp25
 70
     1
102
RTVSPropertyOp26
 70
     1
102
RTVSPropertyOp27
 70
     1
102
RTVSPropertyOp28
 70
     1
102
RTVSPropertyOp29
 70
     1
102
RTVSPropertyOp30
 70
     1
102
RTVSPropertyOp31
 70
     1
102
RTVSPropertyOp32
 70
     1
102
RTVSPropertyOp33
 70
     1
102
RTVSPropertyOp34
 70
     1
102
RTVSPropertyOp35
 70
     1
102
RTVSPropertyOp36
 70
     1
102
RTVSPropertyOp37
 70
     1
102
RTVSPropertyOp38
 70
     1
102
RTVSPropertyOp39
 70
     1
102
RTVSPropertyOp40
 70
     1
102
RTVSPropertyOp41
 70
     1
102
RTVSPropertyOp42
 70
     1
102
RTVSPropertyOp43
 70
     1
102
RTVSPropertyOp44
 70
     1
102
RTVSPropertyOp45
 70
     1
102
RTVSPropertyOp46
 70
     1
102
RTVSPropertyOp47
 70
     1
102
RTVSPropertyOp48
 70
     1
102
RTVSPropertyOp49
 70
     1
102
RTVSPropertyOp50
 70
     1
102
RTVSPropertyOp51
 70
     0
102
RTVSPropertyOp52
 70
     0
102
RTVSPropertyOp53
 70
     1
102
RTVSPropertyOp54
 70
     1
102
RTVSPropertyOp55
 70
     1
102
RTVSPropertyOp56
 70
     1
102
RTVSPropertyOp57
 70
     1
102
RTVSPost2010Prop28
280
     0
102
RTVSPost2010PropOp28
 70
     1
102
RTVSPost2010Prop29
280
     1
102
RTVSPost2010PropOp29
 70
     1
102
RTVSPost2010Prop30
280
     1
102
RTVSPost2010PropOp30
 70
     1
102
RTVSPost2010Prop31
280
     0
102
RTVSPost2010PropOp31
 70
     1
102
RTVSPost2010Prop32
280
     0
102
RTVSPost2010PropOp32
 70
     1
102
RTVSPost2010Prop33
280
     0
102
RTVSPost2010PropOp33
 70
     1
102
RTVSPost2010Prop34
280
     0
102
RTVSPost2010PropOp34
 70
     1
102
RTVSPost2010Prop35
280
     0
102
RTVSPost2010PropOp35
 70
     1
102
RTVSPost2010Prop36
280
     0
102
RTVSPost2010PropOp36
 70
     1
102
RTVSPost2010Prop37
 90
       50
102
RTVSPost2010PropOp37
 70
     1
102
RTVSPost2010Prop38
140
0.0
102
RTVSPost2010PropOp38
 70
     1
102
RTVSPost2010Prop39
140
1.0
102
RTVSPost2010PropOp39
 70
     1
102
RTVSPost2010Prop40
 90
        0
102
RTVSPost2010PropOp40
 70
     1
102
RTVSPost2010Prop41ColorIndex
 90
       18
102
RTVSPost2010Prop41ColorRGB
 90
        0
102
RTVSPost2010PropOp41
 70
     1
102
RTVSPost2010Prop42
 90
       50
102
RTVSPost2010PropOp42
 70
     1
102
RTVSPost2010Prop43
 90
        3
102
RTVSPost2010PropOp43
 70
     1
102
RTVSPost2010Prop44ColorIndex
 90
        5
102
RTVSPost2010Prop44ColorRGB
 90
      255
102
RTVSPost2010PropOp44
 70
     1
102
RTVSPost2010Prop45
280
     0
102
RTVSPost2010PropOp45
 70
     1
102
RTVSPost2010Prop46
 90
       50
102
RTVSPost2010PropOp46
 70
     1
102
RTVSPost2010Prop47
 90
       50
102
RTVSPost2010PropOp47
 70
     1
102
RTVSPost2010Prop48
 90
       50
102
RTVSPost2010PropOp48
 70
     1
102
RTVSPost2010Prop49
280
     0
102
RTVSPost2010PropOp49
 70
     1
102
RTVSPost2010Prop50
 90
       50
102
RTVSPost2010PropOp50
 70
     1
102
RTVSPost2010Prop51ColorIndex
 90
      256
102
RTVSPost2010Prop51ColorRGB
 90
-16777216
102
RTVSPost2010PropOp51
 70
     0
102
RTVSPost2010Prop52
140
1.0
102
RTVSPost2010PropOp52
 70
     0
102
RTVSPost2010Prop53
 90
        2
102
RTVSPost2010PropOp53
 70
     1
102
RTVSPost2010Prop54
  1
strokes_ogs.tif
102
RTVSPost2010PropOp54
 70
     1
102
RTVSPost2010Prop55
280
     0
102
RTVSPost2010PropOp55
 70
     1
102
RTVSPost2010Prop56
140
1.0
102
RTVSPost2010PropOp56
 70
     1
102
RTVSPost2010Prop57
140
1.0
102
RTVSPost2010PropOp57
 70
     1
  0
XRECORD
  5
A07
102
{ACAD_REACTORS
330
A06
102
}
330
A06
100
AcDbXrecord
280
     1
102
RTVSPropertyOp0
 70
     1
102
RTVSPropertyOp1
 70
     1
102
RTVSPropertyOp2
 70
     1
102
RTVSPropertyOp3
 70
     1
102
RTVSPropertyOp4
 70
     1
102
RTVSPropertyOp5
 70
     1
102
RTVSPropertyOp6
 70
     1
102
RTVSPropertyOp7
 70
     1
102
RTVSPropertyOp8
 70
     1
102
RTVSPropertyOp9
 70
     1
102
RTVSPropertyOp10
 70
     1
102
RTVSPropertyOp11
 70
     1
102
RTVSPropertyOp12
 70
     1
102
RTVSPropertyOp13
 70
     1
102
RTVSPropertyOp14
 70
     1
102
RTVSPropertyOp15
 70
     1
102
RTVSPropertyOp16
 70
     1
102
RTVSPropertyOp17
 70
     1
102
RTVSPropertyOp18
 70
     1
102
RTVSPropertyOp19
 70
     1
102
RTVSPropertyOp20
 70
     1
102
RTVSPropertyOp21
 70
     1
102
RTVSPropertyOp22
 70
     1
102
RTVSPropertyOp23
 70
     1
102
RTVSPropertyOp24
 70
     1
102
RTVSPropertyOp25
 70
     1
102
RTVSPropertyOp26
 70
     1
102
RTVSPropertyOp27
 70
     1
102
RTVSPropertyOp28
 70
     1
102
RTVSPropertyOp29
 70
     1
102
RTVSPropertyOp30
 70
     1
102
RTVSPropertyOp31
 70
     1
102
RTVSPropertyOp32
 70
     1
102
RTVSPropertyOp33
 70
     1
102
RTVSPropertyOp34
 70
     1
102
RTVSPropertyOp35
 70
     1
102
RTVSPropertyOp36
 70
     1
102
RTVSPropertyOp37
 70
     1
102
RTVSPropertyOp38
 70
     1
102
RTVSPropertyOp39
 70
     1
102
RTVSPropertyOp40
 70
     1
102
RTVSPropertyOp41
 70
     1
102
RTVSPropertyOp42
 70
     1
102
RTVSPropertyOp43
 70
     1
102
RTVSPropertyOp44
 70
     1
102
RTVSPropertyOp45
 70
     1
102
RTVSPropertyOp46
 70
     1
102
RTVSPropertyOp47
 70
     1
102
RTVSPropertyOp48
 70
     1
102
RTVSPropertyOp49
 70
     1
102
RTVSPropertyOp50
 70
     1
102
RTVSPropertyOp51
 70
     0
102
RTVSPropertyOp52
 70
     0
102
RTVSPropertyOp53
 70
     1
102
RTVSPropertyOp54
 70
     1
102
RTVSPropertyOp55
 70
     1
102
RTVSPropertyOp56
 70
     1
102
RTVSPropertyOp57
 70
     1
102
RTVSPost2010Prop28
280
     0
102
RTVSPost2010PropOp28
 70
     1
102
RTVSPost2010Prop29
280
     1
102
RTVSPost2010PropOp29
 70
     1
102
RTVSPost2010Prop30
280
     1
102
RTVSPost2010PropOp30
 70
     1
102
RTVSPost2010Prop31
280
     0
102
RTVSPost2010PropOp31
 70
     1
102
RTVSPost2010Prop32
280
     0
102
RTVSPost2010PropOp32
 70
     1
102
RTVSPost2010Prop33
280
     0
102
RTVSPost2010PropOp33
 70
     1
102
RTVSPost2010Prop34
280
     0
102
RTVSPost2010PropOp34
 70
     1
102
RTVSPost2010Prop35
280
     0
102
RTVSPost2010PropOp35
 70
     1
102
RTVSPost2010Prop36
280
     0
102
RTVSPost2010PropOp36
 70
     1
102
RTVSPost2010Prop37
 90
       50
102
RTVSPost2010PropOp37
 70
     1
102
RTVSPost2010Prop38
140
0.0
102
RTVSPost2010PropOp38
 70
     1
102
RTVSPost2010Prop39
140
1.0
102
RTVSPost2010PropOp39
 70
     1
102
RTVSPost2010Prop40
 90
        0
102
RTVSPost2010PropOp40
 70
     1
102
RTVSPost2010Prop41ColorIndex
 90
       18
102
RTVSPost2010Prop41ColorRGB
 90
        0
102
RTVSPost2010PropOp41
 70
     1
102
RTVSPost2010Prop42
 90
       50
102
RTVSPost2010PropOp42
 70
     1
102
RTVSPost2010Prop43
 90
        3
102
RTVSPost2010PropOp43
 70
     1
102
RTVSPost2010Prop44ColorIndex
 90
        5
102
RTVSPost2010Prop44ColorRGB
 90
      255
102
RTVSPost2010PropOp44
 70
     1
102
RTVSPost2010Prop45
280
     0
102
RTVSPost2010PropOp45
 70
     1
102
RTVSPost2010Prop46
 90
       50
102
RTVSPost2010PropOp46
 70
     1
102
RTVSPost2010Prop47
 90
       50
102
RTVSPost2010PropOp47
 70
     1
102
RTVSPost2010Prop48
 90
       50
102
RTVSPost2010PropOp48
 70
     1
102
RTVSPost2010Prop49
280
     0
102
RTVSPost2010PropOp49
 70
     1
102
RTVSPost2010Prop50
 90
       50
102
RTVSPost2010PropOp50
 70
     1
102
RTVSPost2010Prop51ColorIndex
 90
      256
102
RTVSPost2010Prop51ColorRGB
 90
-16777216
102
RTVSPost2010PropOp51
 70
     0
102
RTVSPost2010Prop52
140
1.0
102
RTVSPost2010PropOp52
 70
     0
102
RTVSPost2010Prop53
 90
        2
102
RTVSPost2010PropOp53
 70
     1
102
RTVSPost2010Prop54
  1
strokes_ogs.tif
102
RTVSPost2010PropOp54
 70
     1
102
RTVSPost2010Prop55
280
     0
102
RTVSPost2010PropOp55
 70
     1
102
RTVSPost2010Prop56
140
1.0
102
RTVSPost2010PropOp56
 70
     1
102
RTVSPost2010Prop57
140
1.0
102
RTVSPost2010PropOp57
 70
     1
  0
XRECORD
  5
9F7
102
{ACAD_REACTORS
330
9F6
102
}
330
9F6
100
AcDbXrecord
280
     1
102
RTVSPropertyOp0
 70
     1
102
RTVSPropertyOp1
 70
     1
102
RTVSPropertyOp2
 70
     1
102
RTVSPropertyOp3
 70
     1
102
RTVSPropertyOp4
 70
     1
102
RTVSPropertyOp5
 70
     1
102
RTVSPropertyOp6
 70
     1
102
RTVSPropertyOp7
 70
     1
102
RTVSPropertyOp8
 70
     1
102
RTVSPropertyOp9
 70
     1
102
RTVSPropertyOp10
 70
     1
102
RTVSPropertyOp11
 70
     1
102
RTVSPropertyOp12
 70
     1
102
RTVSPropertyOp13
 70
     1
102
RTVSPropertyOp14
 70
     1
102
RTVSPropertyOp15
 70
     1
102
RTVSPropertyOp16
 70
     1
102
RTVSPropertyOp17
 70
     1
102
RTVSPropertyOp18
 70
     1
102
RTVSPropertyOp19
 70
     1
102
RTVSPropertyOp20
 70
     1
102
RTVSPropertyOp21
 70
     1
102
RTVSPropertyOp22
 70
     1
102
RTVSPropertyOp23
 70
     1
102
RTVSPropertyOp24
 70
     1
102
RTVSPropertyOp25
 70
     1
102
RTVSPropertyOp26
 70
     1
102
RTVSPropertyOp27
 70
     1
102
RTVSPropertyOp28
 70
     1
102
RTVSPropertyOp29
 70
     1
102
RTVSPropertyOp30
 70
     1
102
RTVSPropertyOp31
 70
     1
102
RTVSPropertyOp32
 70
     1
102
RTVSPropertyOp33
 70
     1
102
RTVSPropertyOp34
 70
     1
102
RTVSPropertyOp35
 70
     1
102
RTVSPropertyOp36
 70
     1
102
RTVSPropertyOp37
 70
     1
102
RTVSPropertyOp38
 70
     1
102
RTVSPropertyOp39
 70
     1
102
RTVSPropertyOp40
 70
     1
102
RTVSPropertyOp41
 70
     1
102
RTVSPropertyOp42
 70
     1
102
RTVSPropertyOp43
 70
     1
102
RTVSPropertyOp44
 70
     1
102
RTVSPropertyOp45
 70
     1
102
RTVSPropertyOp46
 70
     1
102
RTVSPropertyOp47
 70
     1
102
RTVSPropertyOp48
 70
     1
102
RTVSPropertyOp49
 70
     1
102
RTVSPropertyOp50
 70
     1
102
RTVSPropertyOp51
 70
     0
102
RTVSPropertyOp52
 70
     0
102
RTVSPropertyOp53
 70
     1
102
RTVSPropertyOp54
 70
     1
102
RTVSPropertyOp55
 70
     1
102
RTVSPropertyOp56
 70
     1
102
RTVSPropertyOp57
 70
     1
102
RTVSPost2010Prop28
280
     0
102
RTVSPost2010PropOp28
 70
     1
102
RTVSPost2010Prop29
280
     1
102
RTVSPost2010PropOp29
 70
     1
102
RTVSPost2010Prop30
280
     1
102
RTVSPost2010PropOp30
 70
     1
102
RTVSPost2010Prop31
280
     0
102
RTVSPost2010PropOp31
 70
     1
102
RTVSPost2010Prop32
280
     0
102
RTVSPost2010PropOp32
 70
     1
102
RTVSPost2010Prop33
280
     0
102
RTVSPost2010PropOp33
 70
     1
102
RTVSPost2010Prop34
280
     0
102
RTVSPost2010PropOp34
 70
     1
102
RTVSPost2010Prop35
280
     0
102
RTVSPost2010PropOp35
 70
     1
102
RTVSPost2010Prop36
280
     0
102
RTVSPost2010PropOp36
 70
     1
102
RTVSPost2010Prop37
 90
       50
102
RTVSPost2010PropOp37
 70
     1
102
RTVSPost2010Prop38
140
0.0
102
RTVSPost2010PropOp38
 70
     1
102
RTVSPost2010Prop39
140
1.0
102
RTVSPost2010PropOp39
 70
     1
102
RTVSPost2010Prop40
 90
        0
102
RTVSPost2010PropOp40
 70
     1
102
RTVSPost2010Prop41ColorIndex
 90
       18
102
RTVSPost2010Prop41ColorRGB
 90
        0
102
RTVSPost2010PropOp41
 70
     1
102
RTVSPost2010Prop42
 90
       50
102
RTVSPost2010PropOp42
 70
     1
102
RTVSPost2010Prop43
 90
        3
102
RTVSPost2010PropOp43
 70
     1
102
RTVSPost2010Prop44ColorIndex
 90
        5
102
RTVSPost2010Prop44ColorRGB
 90
      255
102
RTVSPost2010PropOp44
 70
     1
102
RTVSPost2010Prop45
280
     0
102
RTVSPost2010PropOp45
 70
     1
102
RTVSPost2010Prop46
 90
       50
102
RTVSPost2010PropOp46
 70
     1
102
RTVSPost2010Prop47
 90
       50
102
RTVSPost2010PropOp47
 70
     1
102
RTVSPost2010Prop48
 90
       50
102
RTVSPost2010PropOp48
 70
     1
102
RTVSPost2010Prop49
280
     0
102
RTVSPost2010PropOp49
 70
     1
102
RTVSPost2010Prop50
 90
       50
102
RTVSPost2010PropOp50
 70
     1
102
RTVSPost2010Prop51ColorIndex
 90
      256
102
RTVSPost2010Prop51ColorRGB
 90
-16777216
102
RTVSPost2010PropOp51
 70
     0
102
RTVSPost2010Prop52
140
1.0
102
RTVSPost2010PropOp52
 70
     0
102
RTVSPost2010Prop53
 90
        2
102
RTVSPost2010PropOp53
 70
     1
102
RTVSPost2010Prop54
  1
strokes_ogs.tif
102
RTVSPost2010PropOp54
 70
     1
102
RTVSPost2010Prop55
280
     0
102
RTVSPost2010PropOp55
 70
     1
102
RTVSPost2010Prop56
140
1.0
102
RTVSPost2010PropOp56
 70
     1
102
RTVSPost2010Prop57
140
1.0
102
RTVSPost2010PropOp57
 70
     1
  0
XRECORD
  5
9E9
102
{ACAD_REACTORS
330
9E8
102
}
330
9E8
100
AcDbXrecord
280
     1
102
RTVSPropertyOp0
 70
     1
102
RTVSPropertyOp1
 70
     1
102
RTVSPropertyOp2
 70
     1
102
RTVSPropertyOp3
 70
     1
102
RTVSPropertyOp4
 70
     1
102
RTVSPropertyOp5
 70
     1
102
RTVSPropertyOp6
 70
     1
102
RTVSPropertyOp7
 70
     1
102
RTVSPropertyOp8
 70
     1
102
RTVSPropertyOp9
 70
     1
102
RTVSPropertyOp10
 70
     1
102
RTVSPropertyOp11
 70
     1
102
RTVSPropertyOp12
 70
     1
102
RTVSPropertyOp13
 70
     1
102
RTVSPropertyOp14
 70
     1
102
RTVSPropertyOp15
 70
     1
102
RTVSPropertyOp16
 70
     1
102
RTVSPropertyOp17
 70
     1
102
RTVSPropertyOp18
 70
     1
102
RTVSPropertyOp19
 70
     1
102
RTVSPropertyOp20
 70
     1
102
RTVSPropertyOp21
 70
     1
102
RTVSPropertyOp22
 70
     1
102
RTVSPropertyOp23
 70
     1
102
RTVSPropertyOp24
 70
     1
102
RTVSPropertyOp25
 70
     1
102
RTVSPropertyOp26
 70
     1
102
RTVSPropertyOp27
 70
     1
102
RTVSPropertyOp28
 70
     1
102
RTVSPropertyOp29
 70
     1
102
RTVSPropertyOp30
 70
     1
102
RTVSPropertyOp31
 70
     1
102
RTVSPropertyOp32
 70
     1
102
RTVSPropertyOp33
 70
     1
102
RTVSPropertyOp34
 70
     1
102
RTVSPropertyOp35
 70
     1
102
RTVSPropertyOp36
 70
     1
102
RTVSPropertyOp37
 70
     1
102
RTVSPropertyOp38
 70
     1
102
RTVSPropertyOp39
 70
     1
102
RTVSPropertyOp40
 70
     1
102
RTVSPropertyOp41
 70
     1
102
RTVSPropertyOp42
 70
     1
102
RTVSPropertyOp43
 70
     1
102
RTVSPropertyOp44
 70
     1
102
RTVSPropertyOp45
 70
     1
102
RTVSPropertyOp46
 70
     1
102
RTVSPropertyOp47
 70
     1
102
RTVSPropertyOp48
 70
     1
102
RTVSPropertyOp49
 70
     1
102
RTVSPropertyOp50
 70
     1
102
RTVSPropertyOp51
 70
     0
102
RTVSPropertyOp52
 70
     0
102
RTVSPropertyOp53
 70
     1
102
RTVSPropertyOp54
 70
     1
102
RTVSPropertyOp55
 70
     1
102
RTVSPropertyOp56
 70
     1
102
RTVSPropertyOp57
 70
     1
102
RTVSPost2010Prop28
280
     0
102
RTVSPost2010PropOp28
 70
     1
102
RTVSPost2010Prop29
280
     1
102
RTVSPost2010PropOp29
 70
     1
102
RTVSPost2010Prop30
280
     1
102
RTVSPost2010PropOp30
 70
     1
102
RTVSPost2010Prop31
280
     0
102
RTVSPost2010PropOp31
 70
     1
102
RTVSPost2010Prop32
280
     0
102
RTVSPost2010PropOp32
 70
     1
102
RTVSPost2010Prop33
280
     0
102
RTVSPost2010PropOp33
 70
     1
102
RTVSPost2010Prop34
280
     0
102
RTVSPost2010PropOp34
 70
     1
102
RTVSPost2010Prop35
280
     0
102
RTVSPost2010PropOp35
 70
     1
102
RTVSPost2010Prop36
280
     0
102
RTVSPost2010PropOp36
 70
     1
102
RTVSPost2010Prop37
 90
       50
102
RTVSPost2010PropOp37
 70
     1
102
RTVSPost2010Prop38
140
0.0
102
RTVSPost2010PropOp38
 70
     1
102
RTVSPost2010Prop39
140
1.0
102
RTVSPost2010PropOp39
 70
     1
102
RTVSPost2010Prop40
 90
        0
102
RTVSPost2010PropOp40
 70
     1
102
RTVSPost2010Prop41ColorIndex
 90
       18
102
RTVSPost2010Prop41ColorRGB
 90
        0
102
RTVSPost2010PropOp41
 70
     1
102
RTVSPost2010Prop42
 90
       50
102
RTVSPost2010PropOp42
 70
     1
102
RTVSPost2010Prop43
 90
        3
102
RTVSPost2010PropOp43
 70
     1
102
RTVSPost2010Prop44ColorIndex
 90
        5
102
RTVSPost2010Prop44ColorRGB
 90
      255
102
RTVSPost2010PropOp44
 70
     1
102
RTVSPost2010Prop45
280
     0
102
RTVSPost2010PropOp45
 70
     1
102
RTVSPost2010Prop46
 90
       50
102
RTVSPost2010PropOp46
 70
     1
102
RTVSPost2010Prop47
 90
       50
102
RTVSPost2010PropOp47
 70
     1
102
RTVSPost2010Prop48
 90
       50
102
RTVSPost2010PropOp48
 70
     1
102
RTVSPost2010Prop49
280
     0
102
RTVSPost2010PropOp49
 70
     1
102
RTVSPost2010Prop50
 90
       50
102
RTVSPost2010PropOp50
 70
     1
102
RTVSPost2010Prop51ColorIndex
 90
      256
102
RTVSPost2010Prop51ColorRGB
 90
-16777216
102
RTVSPost2010PropOp51
 70
     0
102
RTVSPost2010Prop52
140
1.0
102
RTVSPost2010PropOp52
 70
     0
102
RTVSPost2010Prop53
 90
        2
102
RTVSPost2010PropOp53
 70
     1
102
RTVSPost2010Prop54
  1
strokes_ogs.tif
102
RTVSPost2010PropOp54
 70
     1
102
RTVSPost2010Prop55
280
     0
102
RTVSPost2010PropOp55
 70
     1
102
RTVSPost2010Prop56
140
1.0
102
RTVSPost2010PropOp56
 70
     1
102
RTVSPost2010Prop57
140
1.0
102
RTVSPost2010PropOp57
 70
     1
  0
XRECORD
  5
A09
102
{ACAD_REACTORS
330
A08
102
}
330
A08
100
AcDbXrecord
280
     1
102
RTVSPropertyOp0
 70
     1
102
RTVSPropertyOp1
 70
     1
102
RTVSPropertyOp2
 70
     1
102
RTVSPropertyOp3
 70
     1
102
RTVSPropertyOp4
 70
     1
102
RTVSPropertyOp5
 70
     1
102
RTVSPropertyOp6
 70
     1
102
RTVSPropertyOp7
 70
     1
102
RTVSPropertyOp8
 70
     1
102
RTVSPropertyOp9
 70
     1
102
RTVSPropertyOp10
 70
     1
102
RTVSPropertyOp11
 70
     1
102
RTVSPropertyOp12
 70
     1
102
RTVSPropertyOp13
 70
     1
102
RTVSPropertyOp14
 70
     1
102
RTVSPropertyOp15
 70
     1
102
RTVSPropertyOp16
 70
     1
102
RTVSPropertyOp17
 70
     1
102
RTVSPropertyOp18
 70
     1
102
RTVSPropertyOp19
 70
     1
102
RTVSPropertyOp20
 70
     1
102
RTVSPropertyOp21
 70
     1
102
RTVSPropertyOp22
 70
     1
102
RTVSPropertyOp23
 70
     1
102
RTVSPropertyOp24
 70
     1
102
RTVSPropertyOp25
 70
     1
102
RTVSPropertyOp26
 70
     1
102
RTVSPropertyOp27
 70
     1
102
RTVSPropertyOp28
 70
     1
102
RTVSPropertyOp29
 70
     1
102
RTVSPropertyOp30
 70
     1
102
RTVSPropertyOp31
 70
     1
102
RTVSPropertyOp32
 70
     1
102
RTVSPropertyOp33
 70
     1
102
RTVSPropertyOp34
 70
     1
102
RTVSPropertyOp35
 70
     1
102
RTVSPropertyOp36
 70
     1
102
RTVSPropertyOp37
 70
     1
102
RTVSPropertyOp38
 70
     1
102
RTVSPropertyOp39
 70
     1
102
RTVSPropertyOp40
 70
     1
102
RTVSPropertyOp41
 70
     1
102
RTVSPropertyOp42
 70
     1
102
RTVSPropertyOp43
 70
     1
102
RTVSPropertyOp44
 70
     1
102
RTVSPropertyOp45
 70
     1
102
RTVSPropertyOp46
 70
     1
102
RTVSPropertyOp47
 70
     1
102
RTVSPropertyOp48
 70
     1
102
RTVSPropertyOp49
 70
     1
102
RTVSPropertyOp50
 70
     1
102
RTVSPropertyOp51
 70
     0
102
RTVSPropertyOp52
 70
     0
102
RTVSPropertyOp53
 70
     1
102
RTVSPropertyOp54
 70
     1
102
RTVSPropertyOp55
 70
     1
102
RTVSPropertyOp56
 70
     1
102
RTVSPropertyOp57
 70
     1
102
RTVSPost2010Prop28
280
     0
102
RTVSPost2010PropOp28
 70
     1
102
RTVSPost2010Prop29
280
     1
102
RTVSPost2010PropOp29
 70
     1
102
RTVSPost2010Prop30
280
     1
102
RTVSPost2010PropOp30
 70
     1
102
RTVSPost2010Prop31
280
     0
102
RTVSPost2010PropOp31
 70
     1
102
RTVSPost2010Prop32
280
     0
102
RTVSPost2010PropOp32
 70
     1
102
RTVSPost2010Prop33
280
     0
102
RTVSPost2010PropOp33
 70
     1
102
RTVSPost2010Prop34
280
     0
102
RTVSPost2010PropOp34
 70
     1
102
RTVSPost2010Prop35
280
     0
102
RTVSPost2010PropOp35
 70
     1
102
RTVSPost2010Prop36
280
     0
102
RTVSPost2010PropOp36
 70
     1
102
RTVSPost2010Prop37
 90
       50
102
RTVSPost2010PropOp37
 70
     1
102
RTVSPost2010Prop38
140
0.0
102
RTVSPost2010PropOp38
 70
     1
102
RTVSPost2010Prop39
140
1.0
102
RTVSPost2010PropOp39
 70
     1
102
RTVSPost2010Prop40
 90
        0
102
RTVSPost2010PropOp40
 70
     1
102
RTVSPost2010Prop41ColorIndex
 90
       18
102
RTVSPost2010Prop41ColorRGB
 90
        0
102
RTVSPost2010PropOp41
 70
     1
102
RTVSPost2010Prop42
 90
       50
102
RTVSPost2010PropOp42
 70
     1
102
RTVSPost2010Prop43
 90
        3
102
RTVSPost2010PropOp43
 70
     1
102
RTVSPost2010Prop44ColorIndex
 90
        5
102
RTVSPost2010Prop44ColorRGB
 90
      255
102
RTVSPost2010PropOp44
 70
     1
102
RTVSPost2010Prop45
280
     0
102
RTVSPost2010PropOp45
 70
     1
102
RTVSPost2010Prop46
 90
       50
102
RTVSPost2010PropOp46
 70
     1
102
RTVSPost2010Prop47
 90
       50
102
RTVSPost2010PropOp47
 70
     1
102
RTVSPost2010Prop48
 90
       50
102
RTVSPost2010PropOp48
 70
     1
102
RTVSPost2010Prop49
280
     0
102
RTVSPost2010PropOp49
 70
     1
102
RTVSPost2010Prop50
 90
       50
102
RTVSPost2010PropOp50
 70
     1
102
RTVSPost2010Prop51ColorIndex
 90
      256
102
RTVSPost2010Prop51ColorRGB
 90
-16777216
102
RTVSPost2010PropOp51
 70
     0
102
RTVSPost2010Prop52
140
1.0
102
RTVSPost2010PropOp52
 70
     0
102
RTVSPost2010Prop53
 90
        2
102
RTVSPost2010PropOp53
 70
     1
102
RTVSPost2010Prop54
  1
strokes_ogs.tif
102
RTVSPost2010PropOp54
 70
     1
102
RTVSPost2010Prop55
280
     0
102
RTVSPost2010PropOp55
 70
     1
102
RTVSPost2010Prop56
140
1.0
102
RTVSPost2010PropOp56
 70
     1
102
RTVSPost2010Prop57
140
1.0
102
RTVSPost2010PropOp57
 70
     1
  0
ENDSEC
  0
SECTION
  2
THUMBNAILIMAGE
 90
    16364
310
28000000B4000000550000000100080000000000C43B000000000000000000000001000000010000FFFFFF000000FF0000FFFF0000FF0000FFFF0000FF000000FF00FF000000000080808000C0C0C0000000FF007F7FFF000000A5005252A50000007F003F3F7F0000004C0026264C000000260013132600003FFF007F9FFF
310
000029A5005267A500001F7F003F4F7F0000134C00262F4C000009260013172600007FFF007FBFFF000052A500527CA500003F7F003F5F7F0000264C0026394C0000132600131C260000BFFF007FDFFF00007CA5005291A500005F7F003F6F7F0000394C0026424C00001C26001321260000FFFF007FFFFF0000A5A50052A5
310
A500007F7F003F7F7F00004C4C00264C4C00002626001326260000FFBF007FFFDF0000A57C0052A59100007F5F003F7F6F00004C3900264C420000261C001326210000FF7F007FFFBF0000A5520052A57C00007F3F003F7F5F00004C2600264C39000026130013261C0000FF3F007FFF9F0000A5290052A56700007F1F003F
310
7F4F00004C1300264C2F00002609001326170000FF00007FFF7F0000A5000052A55200007F00003F7F3F00004C0000264C260000260000132613003FFF00009FFF7F0029A5000067A552001F7F00004F7F3F00134C00002F4C260009260000172613007FFF0000BFFF7F0052A500007CA552003F7F00005F7F3F00264C0000
310
394C2600132600001C261300BFFF0000DFFF7F007CA5000091A552005F7F00006F7F3F00394C0000424C26001C26000021261300FFFF0000FFFF7F00A5A50000A5A552007F7F00007F7F3F004C4C00004C4C26002626000026261300FFBF0000FFDF7F00A57C0000A59152007F5F00007F6F3F004C3900004C422600261C00
310
0026211300FF7F0000FFBF7F00A5520000A57C52007F3F00007F5F3F004C2600004C39260026130000261C1300FF3F0000FF9F7F00A5290000A56752007F1F00007F4F3F004C1300004C2F26002609000026171300FF000000FF7F7F00A5000000A55252007F0000007F3F3F004C0000004C2626002600000026131300FF00
310
3F00FF7F9F00A5002900A55267007F001F007F3F4F004C0013004C262F002600090026131700FF007F00FF7FBF00A5005200A5527C007F003F007F3F5F004C0026004C2639002600130026131C00FF00BF00FF7FDF00A5007C00A55291007F005F007F3F6F004C0039004C26420026001C0026132100FF00FF00FF7FFF00A5
310
00A500A552A5007F007F007F3F7F004C004C004C264C002600260026132600BF00FF00DF7FFF007C00A5009152A5005F007F006F3F7F0039004C0042264C001C002600211326007F00FF00BF7FFF005200A5007C52A5003F007F005F3F7F0026004C0039264C00130026001C1326003F00FF009F7FFF002900A5006752A500
310
1F007F004F3F7F0013004C002F264C000900260017132600000000002D2D2D005B5B5B0089898900B7B7B700B3B3B30000000000000000000000000000000000000000000000000000000000000000000000000000000000000000000000000000000000000000000000000000000000000000000000000000000000000000
310
00000000000000000000000000000000000000000000000000000000000000000000000000000000000000000000000000000000000000000000000000000000000000000000000000000000000000000000000000000000000000000000000000000000000000000000000000000000000000000000000000000000000000
310
00000000000000000000000000000000000000000000000000000000000000000000000000000000000000000000000000000000000000000000000000000000000000000000000000000000000000000000000000000000000000000000000000000000000000000000000000000000000000000000000000000000000000
310
00000000000000000000000000000000000000000000000000000000000000000000000000000000000000000000000000000000000000000000000000000000000000000000000000000000000000000000000000000000000000000000000000000000000000000000000000000000000000000000000000000000000000
310
00000000000000000000000000000000000000000000000000000000000000000000000000000000000000000000000000000000000000000000000000000000000000000000000000000000000000000000000000000000000000000000000000000000000000000000000000000000000000000000000000000000000000
310
00000000000000000000000000000000000000000000000000000000000000000000000000000000000000000000000000000000000000000000000000000000000000000000000000000000000000000000000000000000000000000000000000000000000000000000000000000000000000000000000000000000000000
310
00000000000000000000000000000000000000000000000000000000000000000000000000000000000000000000000000000000000000000000000000000000000000000000000000000000000000000000000000000000000000000000000000000000000000000000000000000000000000000000000000000000000000
310
00000000000000000000000000000000000000000000000000000000000000000000000000000000000000000000000000000000000000000000000000000000000000000000000000000000000000000000000000000000000000000000000000000000000000000000000000000000000000000000000000000000000000
310
00000000000002020202020200000000000000000000000000000000000000000000000000000000000000000000000000000000000000000000000000000000000000000000000000000000000000000000000000000000000000000000000000000000000000000000000000000000000000000000000000000000000000
310
00000000000000000000000000000000000000000000000000010000000000000000000000000000000000000000000000000100000000000000000202020002020000000000000001000000000000000000000000000000010000000000000000000000000000000000000000000000000000000000000000000000000000
310
00000000000000000000000000000000000000000000000000000000000000000000000000000000000000000000000000000000000000000000000000000000000000000000000000000303030303030303030000000000000001000000000000000303030303030303030300000000000000000000000000000003030303
310
03030303030303030303030303030303030000000000000000000000000000000000000000000000000000000000000000000000000000000000000000000000000000000000000000000000000000000000000000000000000000000000000000000000000000000000000000000000000000000000000000000000000000
310
03000000010000030303030303030303030303030303030303030000000100000003000000000000000000000000000000030001000000000000000100000000000303010003000000000000000000000000000000000000000000000000000000000000000000000000000000000000000000000000000000000000000000
310
00000000000000000000000000000000000000000000000000000000000000000000000000000000000000000000000000000000000303030303030303030003030303000004040003030303030303030303030303030300000000000000000000000000000003030303030303030303030303030303030303030300000000
310
00000000000000000000000000000000000000000000000000000000000000000000000000000000000000000000000000000000000000000000000000000000000000000000000000000000000000000000000000000000000000000000000000000000000000000000030300000100000000030000030303030404010303
310
00000003000000000100000303000000000000000000000000000000000003000303000001000100000000030303010000000000000000000000000000000000000000000000000000000000000000000000000000000000000000000000000000000000000000000000000000000000000000000000000000000000000000
310
00000000000000000000000000000000000000000000000000000000000000030303030303030303030003030000000003030000000303030003030303030303030303000000000000000000000000000000000003030303030303030300000003000300000000000000000000000000000000000000000000000000000000
310
00000000000000000000000000000000000000000000000000000000000000000000000000000000000000000000000000000000000000000000000000000000000000000000000000000000000000000000000103010100000000030003030000000000000100000000000000030003000000000001010300000000000000
310
00000000000000000000030303030001030303000000030303000000000000000000000000000000000000000000000000000000000000000000000000000000000000000000000000000000000000000000000000000000000000000000000000000000000000000000000000000000000000000000000000000000000303
310
00000000030303030303030303000000030003000000000000000001000000000000000003000300000000030303000000000000000000000000000000000003030300000100030300000003030300000000000000000000000000000000000000000000000000000000000000000000000000000000000000000000000000
310
00000000000000000000000000000000000000000000000000000000000000000000000000000000000000000000000000000101010101000003010101010303030301010101030101010101010101010101010101010101010103010101010103030300000000000000000000000000000000000103030101010101030100
310
00030003000000000000000000000000000000000000000000000000000000000000000000000000000000000000000000000000000000000000000000000000000000000000000000000000000000000000000000000000000000000000000000000000000000000303030000000303030303030303030003000300000000
310
00000000030303030303000000000000000300030000030303000000000000000000000000000000000003030300000100010300000003000300000000000000000000000000000000000000000000000000000000000000000000000000000000000000000000000000000000000000000000000000000000000000000000
310
00000000000000000000000000000000000000000000000000000000000000030000000003030303030303030000030300030303030303030300030303010003030303030303000303000000030300000000000000000000000000000000000301030100010103030000000300030000000000000000000000000000000000
310
00000000000000000000000000000000000000000000000000000000000000000000000000000000000000000000000000000000000000000000000000000000000000000000000000000000000000000000000000000000000000000000010301010003030300000000000001000000030300000000000000000003030303
310
00010101000000000000000000000000000000000003030303030303030300000003000300000000000000000000000000000000000000000000000000000000000000000000000000000000000000000000000000000000000000000000000000000000000000000000000000000000000000000000000000000000000000
310
00000000000000000000000000000000000000000003030303000300000000030303030303000100000000000000000000000003000303030300000000000000000000000000000000030303030303010303030000000101030300000000000000000000000000000000000000000000000000000000000000000000000000
310
00000000000000000000000000000000000000000000000000000000000000000000000000000000000000000000000000000000000000000000000000000000000000000000000000000003030003000000010301010101010103010000000000000100000000000300030003000000000000000000000000000000000003
310
03030300000100010000000003000303000000000000000000000000000000000000000000000000000000000000000000000000000000000000000000000000000000000000000000000000000000000000000000000000000000000000000000000000000000000000000000000000000000000000000000000000000000
310
00030300030000000303030303030303030300000003030301030300000000030300030000000000000000000000000000000001010101030000000001000000000301010101000000000000000000000000000100000000000000000000000000000000000000000000000000000000000000000000000000000000000000
310
00000000000000000000000000000000000000000000000000000000000000000000000000000000000000000000000000000000000003030003000003010301000001000103010300010301010101030300000003000303000000000000000000000000000000000003030303000000000100000000030003030303030303
310
03030303000000000303030000000000000000000000000000000000000000000000000000000000000000000000000000000000000000000000000000000000000000000000000000000000000000000000000000000000000000000000000000000000000000000000000303030000000301030000000100000301030003
310
03010301030303000000030003030000000000000000000000000000000001010101030000000001000000000301010101000000000000000300000003030103030000000000000000000000000000000000000000000000000000000000000000000000000000000000000000000000000000000000000000000000000000
310
00000000000000000000000000000000000000000000000000000000000000000003030300000103010301010101010103010303010303000100030103000003000303000000000000000000000000000000000003030303010101010101010101030103030301010101010101030000010101010101010000000000000000
310
00000000000000000000000000000000000000000000000000000000000000000000000000000000000000000000000000000000000000000000000000000000000000000000000000000000000000000000000000010301010101010301030101010101010301030301030101010103010301010101010300000000000000
310
00000000000000000000030303030000000001000000000300030303000000000000000300000003000100030000000000000000000000000000000000000000000000000000000000000000000000000000000000000000000000000000000000000000000000000000000000000000000000000000000000000000000000
310
00000000000000000000000003030300000003010300000001000003010303010300000100030103000000030303000000000000000000000000000000000003030303000000000100000000030003030300000000000000030000000303030303000000000000000000000000000000000000000000000000000000000000
310
00000000000000000000000000000000000000000000000000000000000000000000000000000000000000000000000000000000000000000000000000000000000303030000000301030100000100010301030301030100010303010300000300030300000000000000000000000000000000000303030300000000010000
310
00000300030303030303030303030300000000030303000000000000000000000000000000000000000000000000000000000000000000000000000000000000000000000000000000000000000000000000000000000000000000000000000000000000000000000000000000000000000000000000030300030000000303
310
03030303030303030000030303030103030300000003000303000000000000000000000000000000000101010103000000000100000000030101010100000000000000000000000000000000000000000000000000000000000000000000000000000000000000000000000000000000000000000000000000000000000000
310
00000000000000000000000000000000000000000000000000000000000000000000000000000000000000000303000300000001030101010101010301000001030101010103010000000303000300000000000000000000000000000000000303030300000000010000000003000303000000000000000000000000000000
310
00000000000000000000000000000000000000000000000000000000000000000000000000000000000000000000000000000000000000000000000000000000000000000000000000000000000000000000000000000000000000000000000000030300030000000000030303030303000100000000000301000000000000
310
03030003000000000000000000000000000000000003030303000000000100000000030003030000000000000000000000000000000000000000000000000000000000000000000000000000000000000000000000000000000000000000000000000000000000000000000000000000000000000000000000000000000000
310
00000000000000000000000000000000000000000000000300030303030303000000000100000001000000000000010000030303030003000300000000000000000000000000000000000003030300000000010000000001010300000000000000000000000000000000000000000000000000000000000000000000000000
310
00000000000000000000000000000000000000000000000000000000000000000000000000000000000000000000000000000000000000000000000000000000000000000000000000000000030000030300000003030303030303030100030303030303030300000300030000030000000000000000000000000000000000
310
00030303000000000100000000030003000000000000000000000000000000000000000000000000000000000000000000000000000000000000000000000000000000000000000000000000000000000000000000000000000000000000000000000000000000000000000000000000000000000000000000000000000000
310
00000300000303000000000000000000000003030000000000000000000003000300000300000000000000000000000000000000000003030300000000010000000003000300000000000000000000000000000000000000000000000000000000000000000000000000000000000000000000000000000000000000000000
310
00000000000000000000000000000000000000000000000000000000000000000000000000000000000000000000000000000000000000030000030003000000000000000000000100000000000000000000000303000003000000000000000000000000000000000000000303030000000001000000000300030000000000
310
00000000000000000000000000000000000000000000000000000000000000000000000000000000000000000000000000000000000000000000000000000000000000000000000000000000000000000000000000000000000000000000000000000000000000000000000003000000030003000000000000000303030303
310
03000000000000000303000000030000000000000000000000000000000000000003030300000000010000000003000300000000000000000000000000000000000000000000000000000000000000000000000000000000000000000000000000000000000000000000000000000000000000000000000000000000000000
310
00000000000000000000000000000000000000000000000000000000000000000000000300000003000300000000000003030303030300000000000003030000000003000000000000000000000000000000000000000303030000000001000000000300030000000000000000000000000000000000000000000000000000
310
00000000000000000000000000000000000000000000000000000000000000000000000000000000000000000000000000000000000000000000000000000000000000000000000000000000000000000000000000000000030000000003030303030000000303030303030000000303030300000000000300000000000000
310
00000000000000000000000000030300000000010000000003000300000000000000000000000000000000000000000000000000000000000000000000000000000000000000000000000000000000000000000000000000000000000000000000000000000000000000000000000000000000000000000000000000000000
310
00000000000000000000000000000300000000000003000003030000000100000003030300000300000000000003000000000000000000000000000000000000000003030000000001000000000300030000000000000000000000000000000000000000000000000000000000000000000000000000000000000000000000
310
00000000000000000000000000000000000000000000000000000000000000000000000000000000000000000000000000000000000000000000000000000000000000030303000000010003030300030303030303030000030303000000000003030000000000000000000000000000000000000000000303000000000100
310
00000001010300000000000000000000000000000000000000000000000000000000000000000000000000000000000000000000000000000000000000000000000000000000000000000000000000000000000000000000000000000000000000000000000000000000000000000000000000000000000000000003030301
310
03000000030303000100000303030000000303030303000000000000000000000000000000000000000000000003030000000001000000000300030000000000000000000000000000000000000000000000000000000000000000000000000000000000000000000000000000000000000000000000000000000000000000
310
00000000000000000000000000000000000000000000000000000000000000000000000000000000000000000000000000000303030303030303030303030303030303030303000000000000000000000000000000000000000000000000000000000303030303030303030303030303000000000000000000000000000000
310
00000000000000000000000000000000000000000000000000000000000000000000000000000000000000000000000000000000000000000000000000000000000000000000000000000000000000000000000000000000000000000000000000000000000000000000000000000000000003030000000000000000000000
310
00000000000000000000000000000000000000000000000000000000000303030000000000000000000000000000000000000000000000000000000000000000000000000000000000000000000000000000000000000000000000000000000000000000000000000000000000000000000000000000000000000000000000
310
00000000000000000000000000000000000000000000000000000000000000000000000000000000030300000000000000000000000000000000000000000000000000000000000000000000000000000001010101010000000000000000000000000000000000000000000000000000000000000000000000000000000000
310
00000000000000000000000000000000000000000000000000000000000000000000000000000000000000000000000000000000000000000000000000000000000000000000000000000000000000000000000000000000000000000003030000000000000000000000000000000000000000000000000000000000000000
310
00000000000000000303030000000000000000000000000000000000000000000000000000000000000000000000000000000000000000000000000000000000000000000000000000000000000000000000000000000000000000000000000000000000000000000000000000000000000000000000000000000000000000
310
00000000000000000000000000000000000000010000000000000000000000000000000000000000000000000000000000000000000000000000000000000100000000000000000000000000000000000000000000000000000000000000000000000000000000000000000000000000000000000000000000000000000000
310
00000000000000000000000000000000000000000000000000000000000000000000000000000000000000000000000000000000000000000000000000000000000000000000000000000000000000000000000000000000000000000000000000000000000000000000000000000000000000000000000000000000000000
310
00000000000000000000000000000000000000000000000000000000000000000000000000000000000000000000000000000000000000000000000000000000000000000000000000000000000000000000000000000000000000000000000000000000000000000000000000000000000000000000000000000000000000
310
00000000000000000000000000000000000000000000000000000000000000000000000000000000000000000000000000000000000000000000000000000000000000000000000000000000000000000000000000000000000000000000000000000000000000000000000000000000000000000000000000000000000000
310
00000000000000000000000000000000000000000000000000000000000000000000000000000000000000000000000000000000000000000000000000000000000000000000000000000000000000000000000000000000000000000000000000000000000000000000000000000000000000000000000000000000000000
310
00000000000000000000000000000000000000000000000000000000000000000000000000000000000000000000000000000000000000000000000000000000000000000000000000000000000000000000000000000000000000000000000000000000000000000000000000000000000000000000000000000000000000
310
00000000000000000000000000000000000000000000000000000000000000000000000000000000000000000000000000000000000000000000000000000000000000000000000000000000000000000000000000000000000000000000000000000000000000000000000000000000000000000000000000000000000000
310
00000000000000000000000000000000000000000000000000000000000000000000000000000000000000000000000000000000000000000000000000000000000000000000000000000000000000000000000000000000000000000000000000000000000000000000000000000000000000000000000000000000000000
310
00000000000000000000000000000000000000000000000000000000000000000000000000000000000000000000000000000000000000000000000000000000000000000000000000000000000000000000000000000000000000000000000000000000000000000000000000000000000000000000000000000000000000
310
00000000000000000000000000000000000000000000000000000000000000000000000000000000000000000000000000000000000000000000000000000000000000000000000000000000000000000000000000000000000000000000000000000000000000000000000000000000000000000000000000000000000000
310
00000000000000000000000000000000000000000000000000000000000000000000000000000000000000000000000000000000000000000000000000000000000000000000000000000000000000000000000000000000000000000000000000000000000000000000000000000000000000000000000000000000000000
310
00000000000000000000000000000000000000000000000000000000000000000000000000000000000000000000000000000000000000000000000000000000000000000000000000000000000000000000000000000000000000000000000000000000000000000000000000000000000000000000000000000000000000
310
00000000000000000000000000000000000000000000000000000000000000000000000000000000000000000000000000000000000000000000000000000000000000000000000000000000000000000000000000000000000000000000000000000000000000000000000000000000000000000000000000000000000000
310
00000000000000000000000000000000000000000000000000000000000000000000000000000000000000000000000000000000000000000000000000000000000000000000000000000000000000000000000000000000000000000000000000000000000000000000000000000000000000000000000000000000000000
310
00000000000000000000000000000000000000000000000000000000000000000000000000000000000000000000000000000000000000000000000000000000000000000000000000000000000000000000000000000000000000000000000000000000000000000000000000000000000000000000000000000000000000
310
00000000000000000000000000000000000000000000000000000000000000000000000000000000000000000000000000000000000000000000000000000000000000000000000000000000000003030303030303030000000000000000000000000000000000030303030303030303000000000000000000000000000000
310
00000000000000000000000000000000000000000000000000000000000000000000000000000000000000000000000000000000000000000000000000000000000000000000000000000000000000000000000000000000000000000000000000000000000000000000000000000000000000000000000000000000000000
310
00000000030000030100000303030000010000030100000303000001000303000003030000030000000000000000000000000000000000000000000000000000000000000000000000000000000000000000000000000000000000000000000000000000000000000000000000000000000000000000000000000000000000
310
00000000000000000000000000000000000000000000000000000000000000000000000000000000000000000000000000000000000000000003030103010103030303030303030303030303030303030303030303010303000303000000000000000000000000000000000000000000000000000000000000000000000000
310
00000000000000000000000000000000000000000000000000000000000000000000000000000000000000000000000000000000000000000000000000000000000000000000000000000000000000000000000000000000000000000000000000000000000000000000000000000303030303030303030303030303030303
310
03030303030303030303030303030303030000000000000000000000000000000000000000000000000000000000000000000000000000000000000000000000000000000000000000000000000000000000000000000000000000000000000000000000000000000000000000000000000000000000000000000000000000
310
00000000000000000000000000000000000000000000000000000000000000000000000303030303030303030303030303030303030303030303030303030303030303030303030000000000000000000000000000000000000000000000000000000000000000000000000000000000000000000000000000000000000000
310
00000000000000000000000000000000000000000000000000000000000000000000000000000000000000000000000000000000000000000000000000000000000000000000000000000000000000000000000000000001030301000000000000000000000100000001000000000000010000000000000000010303000000
310
00000000000000000000000000000000000000000000000000000000000000000000000000000000000000000000000000000000000000000000000000000000000000000000000000000000000000000000000000000000000000000000000000000000000000000000000000000000000000000000000000000000000000
310
00000000000000000303030303030303000000000000000000000001000000010000000000000100000000000000000003030000000000000000000000000000000000000000000000000000000000000000000000000000000000000000000000000000000000000000000000000000000000000000000000000000000000
310
00000000000000000000000000000000000000000000000000000000000000000000000000000000000000000000000000000000000000000000000000030303030303030301010101010101010101010101010101010101010101010101010101010101010301000000000000000000000000000000000000000000000000
310
00000000000000000000000000000000000000000000000000000000000000000000000000000000000000000000000000000000000000000000000000000000000000000000000000000000000000000000000000000000000000000000000000000000000000000000000000000000000003030303030303030000000000
310
03030000000001000003010300000000000100000000000000000003030000000000000000000000000000000000000000000000000000000000000000000000000000000000000000000000000000000000000000000000000000000000000000000000000000000000000000000000000000000000000000000000000000
310
00000000000000000000000000000000000000000000000000000000000000000000000000000000000000000000030101010101010101010101010101010101010101010101010101010101010101010103000000000000000000000000000000000000000000000000000000000000000000000000000000000000000000
310
00000000000000000000000000000000000000000000000000000000000000000000000000000000000000000000000000000000000000000000000000000000000000000000000000000000000000000000000000000000000000000000000000000103030100000003030303000000010000030103000000000001000000
310
00000000000103030000000000000000000000000000000000000000000000000000000000000000000000000000000000000000000000000000000000000000000000000000000000000000000000000000000000000000000000000000000000000000000000000000000000000000000000000000000000000000000000
310
00000000000000000000000000000000000000000000000000030300000000000303000000000100000301030000000000010000000000000000000303000000000000000000000000000000000000000000000000000000000000000000000000000000000000000000000000000000000000000000000000000000000000
310
00000000000000000000000000000000000000000000000000000000000000000000000000000000000000000000000000000000000000000000000000000000000000000000000000000000000000030000000000000000000000010000030103000000000001000000000000000000030000000000000000000000000000
310
00000000000000000000000000000000000000000000000000000000000000000000000000000000000000000000000000000000000000000000000000000000000000000000000000000000000000000000000000000000000000000000000000000000000000000000000000000000000000000000000000000000000000
310
00000000000300000000000000000000000100000001000000000000010000000000000000000300000000000000000000000000000000000000000000000000000000000000000000000000000000000000000000000000000000000000000000000000000000000000000000000000000000000000000000000000000000
310
00000000000000000000000000000000000000000000000000000000000000000000000000000000000000000000000000000000000000000000030000000000000000000000010000000100000000000001000000000000000000030000000000000000000000000000000000000000000000000000000000000000000000
310
00000000000000000000000000000000000000000000000000000000000000000000000000000000000000000000000000000000000000000000000000000000000000000000000000000000000000000000000000000000000000000000000000000000000000000000000000000003010303010303030303030301030303
310
03030303030103030303030301030301030300000000000000000000000000000000000000000000000000000000000000000000000000000000000000000000000000000000000000000000000000000000000000000000000000000000000000000000000000000000000000000000000000000000000000000000000000
310
00000000000000000000000000000000000000000000000000000000000000000000000000030103030103030303030303010303030103030303010303030303030103030103030000000000000000000000000000000000000000000000000000000000000000000000000000000000000000000000000000000000000000
310
00000000000000000000000000000000000000000000000000000000000000000000000000000000000000000000000000000000000000000000000000000000000000000000000000000000000000000000000000000000000003010301010303030303030301030303010303030301030303030303010303010303000000
310
00000000000000000000000000000000000000000000000000000000000000000000000000000000000000000000000000000000000000000000000000000000000000000000000000000000000000000000000000000000000000000000000000000000000000000000000000000000000000000000000000000000000000
310
00000000000000000000000000000000030000030100000003030303010303010300000303000001000303000001000000030000000000000000000000000000000000000000000000000000000000000000000000000000000000000000000000000000000000000000000000000000000000000000000000000000000000
310
00000000000000000000000000000000000000000000000000000000000000000000000000000000000000000000000000000000000000000000000000000000000000000003030303030303030003000301000300000000000000000000030303030303030303000000000000000000000000000000000000000000000000
310
00000000000000000000000000000000000000000000000000000000000000000000000000000000000000000000000000000000000000000000000000000000000000000000000000000000000000000000000000000000000000000000000000000000000000000000000000000000000000000000000000000000000000
310
00000000030003010003000000000000000000000000000000000000000000000000000000000000000000000000000000000000000000000000000000000000000000000000000000000000000000000000000000000000000000000000000000000000000000000000000000000000000000000000000000000000000000
310
00000000000000000000000000000000000000000000000000000000000000000000000000000000000000000000000000000000000000000003000301000300000000000000000000000000000000000000000000000000000000000000000000000000000000000000000000000000000000000000000000000000000000
310
00000000000000000000000000000000000000000000000000000000000000000000000000000000000000000000000000000000000000000000000000000000000000000000000000000000000000000000000000000000000000000000000000000000000000000000000000000300030100030000000000000000000000
310
00000000000000000000000000000000000000000000000000000000000000000000000000000000000000000000000000000000000000000000000000000000000000000000000000000000000000000000000000000000000000000000000000000000000000000000000000000000000000000000000000000000000000
310
00000000000000000000000000000000000000000000000000000000000000000000000003000301000300000000000000000000000000000000000000000000000000000000000000000000000000000000000000000000000000000000000000000000000000000000000000000000000000000000000000000000000000
310
00000000000000000000000000000000000000000000000000000000000000000000000000000000000000000000000000000000000000000000000000000000000000000000000000000000000000000000000000000000000300030100030000000000000000000000000000000000000000000000000000000000000000
310
00000000000000000000000000000000000000000000000000000000000000000000000000000000000000000000000000000000000000000000000000000000000000000000000000000000000000000000000000000000000000000000000000000000000000000000000000000000000000000000000000000000000000
310
00000000000000000000000000000003000301000300000000000000000000000000000000000000000000000000000000000000000000000000000000000000000000000000000000000000000000000000000000000000000000000000000000000000000000000000000000000000000000000000000000000000000000
310
00000000000000000000000000000000000000000000000000000000000000000000000000000000000000000000000000000000000000000000000000000000000000000303030103030000000000000000000000000000000000000000000000000000000000000000000000000000000000000000000000000000000000
310
00000000000000000000000000000000000000000000000000000000000000000000000000000000000000000000000000000000000000000000000000000000000000000000000000000000000000000000000000000000000000000000000000000000000000000000000000000000000000000000000000000000010000
310
00000000000000000000000000000000000000000000000000000000000000000000000000000000000000000000000000000000000000000000000000000000000000000000000000000000000000000000000000000000000000000000000000000000000000000000000000000000000000000000000000000000000000
310
00000000000000000000000000000000000000000000000000000000000000000000000000000000000000000000000000000000000000000000000000000000000000000000000000000000000000000000000000000000000000000000000000000000000000000000000000000000000000000000000000000000000000
310
00000000000000000000000000000000000000000000000000000000000000000000000000000000000000000000000000000000000000000000000000000000000000000000000000000000000000000000000000000000000000000000000000000000000000000000000000000000000000000000000000000000000000
310
000000000000000000000000000000000000000000000000000000000000000000000000000000000000000000000000000000000000000000000000000000000000000000000000000000000000000000000000000000000000000000000000000000000000000000000000
  0
ENDSEC
  0
EOF
