  0
SECTION
  2
HEADER
  9
$ACADVER
  1
AC1015
  9
$ACADMAINTVER
 70
     6
  9
$DWGCODEPAGE
  3
ANSI_932
  9
$INSBASE
 10
3622.951418059088
 20
2364.273118638839
 30
0.0
  9
$EXTMIN
 10
410.1254331778327
 20
24.79176931734878
 30
0.0
  9
$EXTMAX
 10
2324.789230179367
 20
1509.281014081856
 30
0.0
  9
$LIMMIN
 10
0.0
 20
0.0
  9
$LIMMAX
 10
816.5000000000001
 20
565.0
  9
$ORTHOMODE
 70
     1
  9
$REGENMODE
 70
     1
  9
$FILLMODE
 70
     1
  9
$QTEXTMODE
 70
     0
  9
$MIRRTEXT
 70
     1
  9
$LTSCALE
 40
20.0
  9
$ATTMODE
 70
     1
  9
$TEXTSIZE
 40
18.0
  9
$TRACEWID
 40
0.05
  9
$TEXTSTYLE
  7
KANJI
  9
$CLAYER
  8
2
  9
$CELTYPE
  6
BYLAYER
  9
$CECOLOR
 62
   256
  9
$CELTSCALE
 40
1.0
  9
$DISPSILH
 70
     0
  9
$DIMSCALE
 40
6.0
  9
$DIMASZ
 40
2.0
  9
$DIMEXO
 40
0.5
  9
$DIMDLI
 40
0.0
  9
$DIMRND
 40
0.0
  9
$DIMDLE
 40
0.0
  9
$DIMEXE
 40
1.0
  9
$DIMTP
 40
0.0
  9
$DIMTM
 40
0.0
  9
$DIMTXT
 40
3.0
  9
$DIMCEN
 40
0.09
  9
$DIMTSZ
 40
0.0
  9
$DIMTOL
 70
     0
  9
$DIMLIM
 70
     0
  9
$DIMTIH
 70
     0
  9
$DIMTOH
 70
     0
  9
$DIMSE1
 70
     0
  9
$DIMSE2
 70
     0
  9
$DIMTAD
 70
     0
  9
$DIMZIN
 70
     8
  9
$DIMBLK
  1

  9
$DIMASO
 70
     0
  9
$DIMSHO
 70
     0
  9
$DIMPOST
  1

  9
$DIMAPOST
  1

  9
$DIMALT
 70
     0
  9
$DIMALTD
 70
     2
  9
$DIMALTF
 40
25.4
  9
$DIMLFAC
 40
1.0
  9
$DIMTOFL
 70
     1
  9
$DIMTVP
 40
1.0
  9
$DIMTIX
 70
     1
  9
$DIMSOXD
 70
     1
  9
$DIMSAH
 70
     0
  9
$DIMBLK1
  1

  9
$DIMBLK2
  1

  9
$DIMSTYLE
  2
STANDARD
  9
$DIMCLRD
 70
   256
  9
$DIMCLRE
 70
   256
  9
$DIMCLRT
 70
   256
  9
$DIMTFAC
 40
1.0
  9
$DIMGAP
 40
0.09
  9
$DIMJUST
 70
     0
  9
$DIMSD1
 70
     0
  9
$DIMSD2
 70
     0
  9
$DIMTOLJ
 70
     1
  9
$DIMTZIN
 70
     0
  9
$DIMALTZ
 70
     0
  9
$DIMALTTZ
 70
     0
  9
$DIMUPT
 70
     0
  9
$DIMDEC
 70
     1
  9
$DIMTDEC
 70
     4
  9
$DIMALTU
 70
     2
  9
$DIMALTTD
 70
     2
  9
$DIMTXSTY
  7
STANDARD
  9
$DIMAUNIT
 70
     0
  9
$DIMADEC
 70
     0
  9
$DIMALTRND
 40
0.0
  9
$DIMAZIN
 70
     0
  9
$DIMDSEP
 70
    46
  9
$DIMATFIT
 70
     3
  9
$DIMFRAC
 70
     0
  9
$DIMLDRBLK
  1

  9
$DIMLUNIT
 70
     2
  9
$DIMLWD
 70
    -2
  9
$DIMLWE
 70
    -2
  9
$DIMTMOVE
 70
     0
  9
$LUNITS
 70
     2
  9
$LUPREC
 70
     3
  9
$SKETCHINC
 40
0.1
  9
$FILLETRAD
 40
1.0
  9
$AUNITS
 70
     0
  9
$AUPREC
 70
     3
  9
$MENU
  1
C:\R13\WIN\SUPPORT\ACADFULL
  9
$ELEVATION
 40
0.0
  9
$PELEVATION
 40
0.0
  9
$THICKNESS
 40
0.0
  9
$LIMCHECK
 70
     0
  9
$CHAMFERA
 40
0.0
  9
$CHAMFERB
 40
0.0
  9
$CHAMFERC
 40
0.0
  9
$CHAMFERD
 40
0.0
  9
$SKPOLY
 70
     0
  9
$TDCREATE
 40
2457541.441115058
  9
$TDUCREATE
 40
2457541.066115058
  9
$TDUPDATE
 40
2458110.606837361
  9
$TDUUPDATE
 40
2458110.231837361
  9
$TDINDWG
 40
0.0241208681
  9
$TDUSRTIMER
 40
0.02412
  9
$USRTIMER
 70
     1
  9
$ANGBASE
 50
0.0
  9
$ANGDIR
 70
     0
  9
$PDMODE
 70
     0
  9
$PDSIZE
 40
0.0
  9
$PLINEWID
 40
0.0
  9
$SPLFRAME
 70
     0
  9
$SPLINETYPE
 70
     6
  9
$SPLINESEGS
 70
     8
  9
$HANDSEED
  5
A7B
  9
$SURFTAB1
 70
     6
  9
$SURFTAB2
 70
     6
  9
$SURFTYPE
 70
     6
  9
$SURFU
 70
     6
  9
$SURFV
 70
     6
  9
$UCSBASE
  2

  9
$UCSNAME
  2

  9
$UCSORG
 10
0.0
 20
0.0
 30
0.0
  9
$UCSXDIR
 10
1.0
 20
0.0
 30
0.0
  9
$UCSYDIR
 10
0.0
 20
1.0
 30
0.0
  9
$UCSORTHOREF
  2

  9
$UCSORTHOVIEW
 70
     0
  9
$UCSORGTOP
 10
0.0
 20
0.0
 30
0.0
  9
$UCSORGBOTTOM
 10
0.0
 20
0.0
 30
0.0
  9
$UCSORGLEFT
 10
0.0
 20
0.0
 30
0.0
  9
$UCSORGRIGHT
 10
0.0
 20
0.0
 30
0.0
  9
$UCSORGFRONT
 10
0.0
 20
0.0
 30
0.0
  9
$UCSORGBACK
 10
0.0
 20
0.0
 30
0.0
  9
$PUCSBASE
  2

  9
$PUCSNAME
  2

  9
$PUCSORG
 10
0.0
 20
0.0
 30
0.0
  9
$PUCSXDIR
 10
1.0
 20
0.0
 30
0.0
  9
$PUCSYDIR
 10
0.0
 20
1.0
 30
0.0
  9
$PUCSORTHOREF
  2

  9
$PUCSORTHOVIEW
 70
     0
  9
$PUCSORGTOP
 10
0.0
 20
0.0
 30
0.0
  9
$PUCSORGBOTTOM
 10
0.0
 20
0.0
 30
0.0
  9
$PUCSORGLEFT
 10
0.0
 20
0.0
 30
0.0
  9
$PUCSORGRIGHT
 10
0.0
 20
0.0
 30
0.0
  9
$PUCSORGFRONT
 10
0.0
 20
0.0
 30
0.0
  9
$PUCSORGBACK
 10
0.0
 20
0.0
 30
0.0
  9
$USERI1
 70
     0
  9
$USERI2
 70
     0
  9
$USERI3
 70
     0
  9
$USERI4
 70
     0
  9
$USERI5
 70
     0
  9
$USERR1
 40
0.0
  9
$USERR2
 40
0.0
  9
$USERR3
 40
0.0
  9
$USERR4
 40
2448925.372986111
  9
$USERR5
 40
0.04166667
  9
$WORLDVIEW
 70
     1
  9
$SHADEDGE
 70
     3
  9
$SHADEDIF
 70
    70
  9
$TILEMODE
 70
     1
  9
$MAXACTVP
 70
    16
  9
$PINSBASE
 10
0.0
 20
0.0
 30
0.0
  9
$PLIMCHECK
 70
     0
  9
$PEXTMIN
 10
1000000000000000E+20
 20
1000000000000000E+20
 30
1000000000000000E+20
  9
$PEXTMAX
 10
-1000000000000000E+20
 20
-1000000000000000E+20
 30
-1000000000000000E+20
  9
$PLIMMIN
 10
0.0
 20
0.0
  9
$PLIMMAX
 10
12.0
 20
9.0
  9
$UNITMODE
 70
     0
  9
$VISRETAIN
 70
     0
  9
$PLINEGEN
 70
     0
  9
$PSLTSCALE
 70
     0
  9
$TREEDEPTH
 70
  3020
  9
$CMLSTYLE
  2
STANDARD
  9
$CMLJUST
 70
     0
  9
$CMLSCALE
 40
1.0
  9
$PROXYGRAPHICS
 70
     1
  9
$MEASUREMENT
 70
     0
  9
$CELWEIGHT
370
    -1
  9
$ENDCAPS
280
     0
  9
$JOINSTYLE
280
     0
  9
$LWDISPLAY
290
     0
  9
$INSUNITS
 70
     0
  9
$HYPERLINKBASE
  1

  9
$STYLESHEET
  1

  9
$XEDIT
290
     1
  9
$CEPSNTYPE
380
     0
  9
$PSTYLEMODE
290
     1
  9
$FINGERPRINTGUID
  2
{D96F28DB-B2DB-4AD8-9AEF-0C04C20878B1}
  9
$VERSIONGUID
  2
{6E15CFCB-A786-48F2-8C2A-AE2ED21AEAE9}
  9
$EXTNAMES
290
     1
  9
$PSVPSCALE
 40
0.0
  9
$OLESTARTUP
290
     0
  0
ENDSEC
  0
SECTION
  2
CLASSES
  0
CLASS
  1
ACDBDICTIONARYWDFLT
  2
AcDbDictionaryWithDefault
  3
ObjectDBX Classes
 90
        0
280
     0
281
     0
  0
CLASS
  1
MATERIAL
  2
AcDbMaterial
  3
ObjectDBX Classes
 90
     1153
280
     0
281
     0
  0
CLASS
  1
SORTENTSTABLE
  2
AcDbSortentsTable
  3
ObjectDBX Classes
 90
        0
280
     0
281
     0
  0
CLASS
  1
SCALE
  2
AcDbScale
  3
ObjectDBX Classes
 90
     1153
280
     0
281
     0
  0
CLASS
  1
DICTIONARYVAR
  2
AcDbDictionaryVar
  3
ObjectDBX Classes
 90
        0
280
     0
281
     0
  0
CLASS
  1
VISUALSTYLE
  2
AcDbVisualStyle
  3
ObjectDBX Classes
 90
     4095
280
     0
281
     0
  0
CLASS
  1
MLEADERSTYLE
  2
AcDbMLeaderStyle
  3
ACDB_MLEADERSTYLE_CLASS
 90
     4095
280
     0
281
     0
  0
CLASS
  1
ACDBPLACEHOLDER
  2
AcDbPlaceHolder
  3
ObjectDBX Classes
 90
        0
280
     0
281
     0
  0
CLASS
  1
LAYOUT
  2
AcDbLayout
  3
ObjectDBX Classes
 90
        0
280
     0
281
     0
  0
ENDSEC
  0
SECTION
  2
TABLES
  0
TABLE
  2
VPORT
  5
26
102
{ACAD_XDICTIONARY
360
A41
102
}
330
0
100
AcDbSymbolTable
 70
     2
  0
VPORT
  5
2B
330
26
100
AcDbSymbolTableRecord
100
AcDbViewportTableRecord
  2
*ACTIVE
 70
     0
 10
0.0
 20
0.0
 11
1.0
 21
1.0
 12
1530.67785779092
 22
730.0330828658614
 13
0.0
 23
0.0
 14
1.0
 24
1.0
 15
50.0
 25
50.0
 16
0.0
 26
0.0
 36
1.0
 17
0.0
 27
0.0
 37
0.0
 40
1676.858550798904
 41
1.82716049382716
 42
50.0
 43
0.0
 44
0.0
 50
0.0
 51
0.0
 71
     0
 72
  5000
 73
     1
 74
     0
 75
     0
 76
     0
 77
     0
 78
     0
281
     0
 65
     1
110
0.0
120
0.0
130
0.0
111
1.0
121
0.0
131
0.0
112
0.0
122
1.0
132
0.0
 79
     0
146
0.0
  0
ENDTAB
  0
TABLE
  2
LTYPE
  5
B
330
0
100
AcDbSymbolTable
 70
     2
  0
LTYPE
  5
C
330
B
100
AcDbSymbolTableRecord
100
AcDbLinetypeTableRecord
  2
BYBLOCK
 70
     0
  3

 72
    65
 73
     0
 40
0.0
  0
LTYPE
  5
D
330
B
100
AcDbSymbolTableRecord
100
AcDbLinetypeTableRecord
  2
BYLAYER
 70
     0
  3

 72
    65
 73
     0
 40
0.0
  0
LTYPE
  5
A
330
B
100
AcDbSymbolTableRecord
100
AcDbLinetypeTableRecord
  2
CONTINUOUS
 70
     0
  3
Solid line
 72
    65
 73
     0
 40
0.0
  0
LTYPE
  5
5A
330
B
100
AcDbSymbolTableRecord
100
AcDbLinetypeTableRecord
  2
CENTER
 70
     0
  3
____ _ ____ _ ____ _ ____ _ ____ _ ____ _ ____
 72
    65
 73
     4
 40
2.0
 49
1.25
 74
     0
 49
-0.25
 74
     0
 49
0.25
 74
     0
 49
-0.25
 74
     0
  0
ENDTAB
  0
TABLE
  2
LAYER
  5
2
330
0
100
AcDbSymbolTable
 70
     9
  0
LAYER
  5
1B
330
2
100
AcDbSymbolTableRecord
100
AcDbLayerTableRecord
  2
0
 70
     0
 62
     7
  6
CONTINUOUS
370
    -3
390
3
  0
LAYER
  5
882
330
2
100
AcDbSymbolTableRecord
100
AcDbLayerTableRecord
  2
1
 70
     0
 62
     9
  6
CONTINUOUS
370
    -3
390
3
  0
LAYER
  5
1
330
2
100
AcDbSymbolTableRecord
100
AcDbLayerTableRecord
  2
2
 70
     0
 62
     4
  6
CONTINUOUS
370
    -3
390
3
  0
LAYER
  5
52
330
2
100
AcDbSymbolTableRecord
100
AcDbLayerTableRecord
  2
4
 70
     0
 62
     3
  6
CONTINUOUS
370
    -3
390
3
  0
LAYER
  5
59
330
2
100
AcDbSymbolTableRecord
100
AcDbLayerTableRecord
  2
L-CENTER
 70
     0
 62
     1
  6
CENTER
370
    -3
390
3
  0
LAYER
  5
288
330
2
100
AcDbSymbolTableRecord
100
AcDbLayerTableRecord
  2
3
 70
     0
 62
     2
  6
CONTINUOUS
370
    -3
390
3
  0
LAYER
  5
87C
330
2
100
AcDbSymbolTableRecord
100
AcDbLayerTableRecord
  2
5
 70
     0
 62
     6
  6
CONTINUOUS
370
    -3
390
3
  0
LAYER
  5
22B
102
{ACAD_XDICTIONARY
360
22C
102
}
330
2
100
AcDbSymbolTableRecord
100
AcDbLayerTableRecord
  2
CENTER
 70
     0
 62
     1
  6
CENTER
370
    -3
390
3
  0
ENDTAB
  0
TABLE
  2
STYLE
  5
F
330
0
100
AcDbSymbolTable
 70
     2
  0
STYLE
  5
13
330
F
100
AcDbSymbolTableRecord
100
AcDbTextStyleTableRecord
  2
STANDARD
 70
     0
 40
0.0
 41
1.0
 50
0.0
 71
     0
 42
10.79999999999999
  3
TXT
  4

  0
STYLE
  5
E
330
F
100
AcDbSymbolTableRecord
100
AcDbTextStyleTableRecord
  2
KANJI
 70
     0
 40
0.0
 41
1.0
 50
0.0
 71
     0
 42
18.0
  3
TXT
  4
BIGFONT
  0
ENDTAB
  0
TABLE
  2
VIEW
  5
24
330
0
100
AcDbSymbolTable
 70
     0
  0
ENDTAB
  0
TABLE
  2
UCS
  5
25
330
0
100
AcDbSymbolTable
 70
     0
  0
ENDTAB
  0
TABLE
  2
APPID
  5
9
330
0
100
AcDbSymbolTable
 70
     3
  0
APPID
  5
8
330
9
100
AcDbSymbolTableRecord
100
AcDbRegAppTableRecord
  2
ACAD
 70
     0
  0
APPID
  5
1F
330
9
100
AcDbSymbolTableRecord
100
AcDbRegAppTableRecord
  2
ACAD_PSEXT
 70
     0
  0
APPID
  5
96E
330
9
100
AcDbSymbolTableRecord
100
AcDbRegAppTableRecord
  2
ACAD_MLEADERVER
 70
     0
  0
ENDTAB
  0
TABLE
  2
DIMSTYLE
  5
12
330
0
100
AcDbSymbolTable
 70
     1
100
AcDbDimStyleTable
  0
DIMSTYLE
105
11
330
12
100
AcDbSymbolTableRecord
100
AcDbDimStyleTableRecord
  2
STANDARD
 70
     0
178
     0
340
13
  0
ENDTAB
  0
TABLE
  2
BLOCK_RECORD
  5
16
330
0
100
AcDbSymbolTable
 70
     0
  0
BLOCK_RECORD
  5
17
102
{ACAD_XDICTIONARY
360
18
102
}
330
16
100
AcDbSymbolTableRecord
100
AcDbBlockTableRecord
  2
*MODEL_SPACE
340
1D
  0
BLOCK_RECORD
  5
20
330
16
100
AcDbSymbolTableRecord
100
AcDbBlockTableRecord
  2
*PAPER_SPACE
340
23
  0
ENDTAB
  0
ENDSEC
  0
SECTION
  2
BLOCKS
  0
BLOCK
  5
1A
330
17
100
AcDbEntity
  8
0
100
AcDbBlockBegin
  2
*MODEL_SPACE
 70
     0
 10
0.0
 20
0.0
 30
0.0
  3
*MODEL_SPACE
  1

  0
ENDBLK
  5
1C
330
17
100
AcDbEntity
  8
0
100
AcDbBlockEnd
  0
BLOCK
  5
21
330
20
100
AcDbEntity
 67
     1
  8
0
100
AcDbBlockBegin
  2
*PAPER_SPACE
 70
     0
 10
0.0
 20
0.0
 30
0.0
  3
*PAPER_SPACE
  1

  0
ENDBLK
  5
22
330
20
100
AcDbEntity
 67
     1
  8
0
100
AcDbBlockEnd
  0
ENDSEC
  0
SECTION
  2
ENTITIES
  0
LINE
  5
58
330
17
100
AcDbEntity
  8
L-CENTER
100
AcDbLine
 10
470.4934114324133
 20
1268.017848320926
 30
0.0
 11
470.4934114324133
 21
1312.358464023202
 31
0.0
  0
LINE
  5
5B
330
17
100
AcDbEntity
  8
4
100
AcDbLine
 10
480.3083660086368
 20
1308.586958822769
 30
0.0
 11
480.3083660086368
 21
1299.990485768622
 31
0.0
  0
LINE
  5
5C
330
17
100
AcDbEntity
  8
4
100
AcDbLine
 10
460.6784568561898
 20
1299.990485768622
 30
0.0
 11
460.6784568561898
 21
1308.586958822769
 31
0.0
  0
LINE
  5
5D
330
17
100
AcDbEntity
  8
4
100
AcDbLine
 10
475.4008887205255
 20
1308.586958822769
 30
0.0
 11
475.4008887205255
 21
1302.490485768622
 31
0.0
  0
ARC
  5
5E
330
17
100
AcDbEntity
  8
4
100
AcDbCircle
 10
477.8546273645816
 20
1305.706871839562
 30
0.0
 40
3.783613929059507
100
AcDbArc
 50
49.57010315517537
 51
130.4298968448246
  0
LINE
  5
5F
330
17
100
AcDbEntity
  8
4
100
AcDbLine
 10
463.1321955002459
 20
1309.490485768622
 30
0.0
 11
477.8546273645816
 21
1309.490485768622
 31
0.0
  0
ARC
  5
60
330
17
100
AcDbEntity
  8
4
100
AcDbCircle
 10
470.4934114324133
 20
1295.711320471162
 30
0.0
 40
13.77916529745958
100
AcDbArc
 50
69.13593563608119
 51
110.8640643639188
  0
LINE
  5
61
330
17
100
AcDbEntity
  8
4
100
AcDbLine
 10
465.585934144302
 20
1308.586958822769
 30
0.0
 11
465.585934144302
 21
1302.490485768622
 31
0.0
  0
LINE
  5
62
330
17
100
AcDbEntity
  8
4
100
AcDbLine
 10
480.3083660086368
 20
1299.990485768622
 30
0.0
 11
460.6784568561898
 21
1299.990485768622
 31
0.0
  0
LINE
  5
63
330
17
100
AcDbEntity
  8
4
100
AcDbLine
 10
480.3083660086368
 20
1302.490485768622
 30
0.0
 11
460.6784568561898
 21
1302.490485768622
 31
0.0
  0
ARC
  5
64
330
17
100
AcDbEntity
  8
4
100
AcDbCircle
 10
463.1321955002459
 20
1305.706871839562
 30
0.0
 40
3.783613929059507
100
AcDbArc
 50
49.57010315517537
 51
130.4298968448246
  0
LINE
  5
65
330
17
100
AcDbEntity
  8
L-CENTER
100
AcDbLine
 10
527.7883131199283
 20
1268.017848320926
 30
0.0
 11
527.7883131199283
 21
1312.358464023202
 31
0.0
  0
LINE
  5
66
330
17
100
AcDbEntity
  8
4
100
AcDbLine
 10
537.6032676961518
 20
1308.586958822769
 30
0.0
 11
537.6032676961518
 21
1299.990485768622
 31
0.0
  0
LINE
  5
67
330
17
100
AcDbEntity
  8
4
100
AcDbLine
 10
517.9733585437048
 20
1299.990485768622
 30
0.0
 11
517.9733585437048
 21
1308.586958822769
 31
0.0
  0
LINE
  5
68
330
17
100
AcDbEntity
  8
4
100
AcDbLine
 10
532.6957904080405
 20
1308.586958822769
 30
0.0
 11
532.6957904080405
 21
1302.490485768622
 31
0.0
  0
ARC
  5
69
330
17
100
AcDbEntity
  8
4
100
AcDbCircle
 10
535.1495290520966
 20
1305.706871839562
 30
0.0
 40
3.783613929059507
100
AcDbArc
 50
49.57010315517826
 51
130.4298968448217
  0
LINE
  5
6A
330
17
100
AcDbEntity
  8
4
100
AcDbLine
 10
520.4270971877609
 20
1309.490485768622
 30
0.0
 11
535.1495290520966
 21
1309.490485768622
 31
0.0
  0
ARC
  5
6B
330
17
100
AcDbEntity
  8
4
100
AcDbCircle
 10
527.7883131199283
 20
1295.711320471162
 30
0.0
 40
13.77916529745958
100
AcDbArc
 50
69.13593563608075
 51
110.8640643639193
  0
LINE
  5
6C
330
17
100
AcDbEntity
  8
4
100
AcDbLine
 10
522.880835831817
 20
1308.586958822769
 30
0.0
 11
522.880835831817
 21
1302.490485768622
 31
0.0
  0
LINE
  5
6D
330
17
100
AcDbEntity
  8
4
100
AcDbLine
 10
537.6032676961518
 20
1299.990485768622
 30
0.0
 11
517.9733585437048
 21
1299.990485768622
 31
0.0
  0
LINE
  5
6E
330
17
100
AcDbEntity
  8
4
100
AcDbLine
 10
537.6032676961518
 20
1302.490485768622
 30
0.0
 11
517.9733585437048
 21
1302.490485768622
 31
0.0
  0
ARC
  5
6F
330
17
100
AcDbEntity
  8
4
100
AcDbCircle
 10
520.4270971877609
 20
1305.706871839562
 30
0.0
 40
3.783613929059507
100
AcDbArc
 50
49.57010315517826
 51
130.4298968448217
  0
LINE
  5
70
330
17
100
AcDbEntity
  8
L-CENTER
100
AcDbLine
 10
677.7883131199287
 20
1268.017848320926
 30
0.0
 11
677.7883131199287
 21
1312.358464023202
 31
0.0
  0
LINE
  5
71
330
17
100
AcDbEntity
  8
4
100
AcDbLine
 10
687.6032676961522
 20
1308.586958822769
 30
0.0
 11
687.6032676961522
 21
1299.990485768622
 31
0.0
  0
LINE
  5
72
330
17
100
AcDbEntity
  8
4
100
AcDbLine
 10
667.9733585437052
 20
1299.990485768622
 30
0.0
 11
667.9733585437052
 21
1308.586958822769
 31
0.0
  0
LINE
  5
73
330
17
100
AcDbEntity
  8
4
100
AcDbLine
 10
682.6957904080409
 20
1308.586958822769
 30
0.0
 11
682.6957904080409
 21
1302.490485768622
 31
0.0
  0
ARC
  5
74
330
17
100
AcDbEntity
  8
4
100
AcDbCircle
 10
685.149529052097
 20
1305.706871839562
 30
0.0
 40
3.783613929059507
100
AcDbArc
 50
49.57010315517826
 51
130.4298968448217
  0
LINE
  5
75
330
17
100
AcDbEntity
  8
4
100
AcDbLine
 10
670.4270971877613
 20
1309.490485768622
 30
0.0
 11
685.149529052097
 21
1309.490485768622
 31
0.0
  0
ARC
  5
76
330
17
100
AcDbEntity
  8
4
100
AcDbCircle
 10
677.7883131199287
 20
1295.711320471162
 30
0.0
 40
13.77916529745958
100
AcDbArc
 50
69.13593563608075
 51
110.8640643639193
  0
LINE
  5
77
330
17
100
AcDbEntity
  8
4
100
AcDbLine
 10
672.8808358318174
 20
1308.586958822769
 30
0.0
 11
672.8808358318174
 21
1302.490485768622
 31
0.0
  0
LINE
  5
78
330
17
100
AcDbEntity
  8
4
100
AcDbLine
 10
687.6032676961522
 20
1299.990485768622
 30
0.0
 11
667.9733585437052
 21
1299.990485768622
 31
0.0
  0
LINE
  5
79
330
17
100
AcDbEntity
  8
4
100
AcDbLine
 10
687.6032676961522
 20
1302.490485768622
 30
0.0
 11
667.9733585437052
 21
1302.490485768622
 31
0.0
  0
ARC
  5
7A
330
17
100
AcDbEntity
  8
4
100
AcDbCircle
 10
670.4270971877613
 20
1305.706871839562
 30
0.0
 40
3.783613929059507
100
AcDbArc
 50
49.57010315517826
 51
130.4298968448217
  0
LINE
  5
7B
330
17
100
AcDbEntity
  8
L-CENTER
100
AcDbLine
 10
863.1985097448978
 20
1268.017848320926
 30
0.0
 11
863.1985097448978
 21
1312.358464023202
 31
0.0
  0
LINE
  5
7C
330
17
100
AcDbEntity
  8
4
100
AcDbLine
 10
873.0134643211213
 20
1308.586958822769
 30
0.0
 11
873.0134643211213
 21
1299.990485768622
 31
0.0
  0
LINE
  5
7D
330
17
100
AcDbEntity
  8
4
100
AcDbLine
 10
853.3835551686743
 20
1299.990485768622
 30
0.0
 11
853.3835551686743
 21
1308.586958822769
 31
0.0
  0
LINE
  5
7E
330
17
100
AcDbEntity
  8
4
100
AcDbLine
 10
868.10598703301
 20
1308.586958822769
 30
0.0
 11
868.10598703301
 21
1302.490485768622
 31
0.0
  0
ARC
  5
7F
330
17
100
AcDbEntity
  8
4
100
AcDbCircle
 10
870.5597256770661
 20
1305.706871839562
 30
0.0
 40
3.783613929059507
100
AcDbArc
 50
49.57010315517826
 51
130.4298968448217
  0
LINE
  5
80
330
17
100
AcDbEntity
  8
4
100
AcDbLine
 10
855.8372938127304
 20
1309.490485768622
 30
0.0
 11
870.5597256770661
 21
1309.490485768622
 31
0.0
  0
ARC
  5
81
330
17
100
AcDbEntity
  8
4
100
AcDbCircle
 10
863.1985097448978
 20
1295.711320471162
 30
0.0
 40
13.77916529745958
100
AcDbArc
 50
69.13593563608075
 51
110.8640643639193
  0
LINE
  5
82
330
17
100
AcDbEntity
  8
4
100
AcDbLine
 10
858.2910324567865
 20
1308.586958822769
 30
0.0
 11
858.2910324567865
 21
1302.490485768622
 31
0.0
  0
LINE
  5
83
330
17
100
AcDbEntity
  8
4
100
AcDbLine
 10
873.0134643211213
 20
1299.990485768622
 30
0.0
 11
853.3835551686743
 21
1299.990485768622
 31
0.0
  0
LINE
  5
84
330
17
100
AcDbEntity
  8
4
100
AcDbLine
 10
873.0134643211213
 20
1302.490485768622
 30
0.0
 11
853.3835551686743
 21
1302.490485768622
 31
0.0
  0
ARC
  5
85
330
17
100
AcDbEntity
  8
4
100
AcDbCircle
 10
855.8372938127304
 20
1305.706871839562
 30
0.0
 40
3.783613929059507
100
AcDbArc
 50
49.57010315517826
 51
130.4298968448217
  0
LINE
  5
86
330
17
100
AcDbEntity
  8
L-CENTER
100
AcDbLine
 10
1013.198509744898
 20
1268.017848320926
 30
0.0
 11
1013.198509744898
 21
1312.358464023202
 31
0.0
  0
LINE
  5
87
330
17
100
AcDbEntity
  8
4
100
AcDbLine
 10
1023.013464321122
 20
1308.586958822769
 30
0.0
 11
1023.013464321122
 21
1299.990485768622
 31
0.0
  0
LINE
  5
88
330
17
100
AcDbEntity
  8
4
100
AcDbLine
 10
1003.383555168675
 20
1299.990485768622
 30
0.0
 11
1003.383555168675
 21
1308.586958822769
 31
0.0
  0
LINE
  5
89
330
17
100
AcDbEntity
  8
4
100
AcDbLine
 10
1018.10598703301
 20
1308.586958822769
 30
0.0
 11
1018.10598703301
 21
1302.490485768622
 31
0.0
  0
ARC
  5
8A
330
17
100
AcDbEntity
  8
4
100
AcDbCircle
 10
1020.559725677067
 20
1305.706871839562
 30
0.0
 40
3.783613929059507
100
AcDbArc
 50
49.57010315517826
 51
130.4298968448217
  0
LINE
  5
8B
330
17
100
AcDbEntity
  8
4
100
AcDbLine
 10
1005.837293812731
 20
1309.490485768622
 30
0.0
 11
1020.559725677067
 21
1309.490485768622
 31
0.0
  0
ARC
  5
8C
330
17
100
AcDbEntity
  8
4
100
AcDbCircle
 10
1013.198509744898
 20
1295.711320471162
 30
0.0
 40
13.77916529745958
100
AcDbArc
 50
69.13593563608075
 51
110.8640643639193
  0
LINE
  5
8D
330
17
100
AcDbEntity
  8
4
100
AcDbLine
 10
1008.291032456787
 20
1308.586958822769
 30
0.0
 11
1008.291032456787
 21
1302.490485768622
 31
0.0
  0
LINE
  5
8E
330
17
100
AcDbEntity
  8
4
100
AcDbLine
 10
1023.013464321122
 20
1299.990485768622
 30
0.0
 11
1003.383555168675
 21
1299.990485768622
 31
0.0
  0
LINE
  5
8F
330
17
100
AcDbEntity
  8
4
100
AcDbLine
 10
1023.013464321122
 20
1302.490485768622
 30
0.0
 11
1003.383555168675
 21
1302.490485768622
 31
0.0
  0
ARC
  5
90
330
17
100
AcDbEntity
  8
4
100
AcDbCircle
 10
1005.837293812731
 20
1305.706871839562
 30
0.0
 40
3.783613929059507
100
AcDbArc
 50
49.57010315517826
 51
130.4298968448217
  0
LINE
  5
91
330
17
100
AcDbEntity
  8
L-CENTER
100
AcDbLine
 10
1070.493411432413
 20
1268.017848320926
 30
0.0
 11
1070.493411432413
 21
1312.358464023202
 31
0.0
  0
LINE
  5
92
330
17
100
AcDbEntity
  8
4
100
AcDbLine
 10
1080.308366008637
 20
1308.586958822769
 30
0.0
 11
1080.308366008637
 21
1299.990485768622
 31
0.0
  0
LINE
  5
93
330
17
100
AcDbEntity
  8
4
100
AcDbLine
 10
1060.67845685619
 20
1299.990485768622
 30
0.0
 11
1060.67845685619
 21
1308.586958822769
 31
0.0
  0
LINE
  5
94
330
17
100
AcDbEntity
  8
4
100
AcDbLine
 10
1075.400888720525
 20
1308.586958822769
 30
0.0
 11
1075.400888720525
 21
1302.490485768622
 31
0.0
  0
ARC
  5
95
330
17
100
AcDbEntity
  8
4
100
AcDbCircle
 10
1077.854627364582
 20
1305.706871839562
 30
0.0
 40
3.783613929059507
100
AcDbArc
 50
49.57010315517826
 51
130.4298968448217
  0
LINE
  5
96
330
17
100
AcDbEntity
  8
4
100
AcDbLine
 10
1063.132195500246
 20
1309.490485768622
 30
0.0
 11
1077.854627364582
 21
1309.490485768622
 31
0.0
  0
ARC
  5
97
330
17
100
AcDbEntity
  8
4
100
AcDbCircle
 10
1070.493411432413
 20
1295.711320471162
 30
0.0
 40
13.77916529745958
100
AcDbArc
 50
69.13593563608075
 51
110.8640643639193
  0
LINE
  5
98
330
17
100
AcDbEntity
  8
4
100
AcDbLine
 10
1065.585934144302
 20
1308.586958822769
 30
0.0
 11
1065.585934144302
 21
1302.490485768622
 31
0.0
  0
LINE
  5
99
330
17
100
AcDbEntity
  8
4
100
AcDbLine
 10
1080.308366008637
 20
1299.990485768622
 30
0.0
 11
1060.67845685619
 21
1299.990485768622
 31
0.0
  0
LINE
  5
9A
330
17
100
AcDbEntity
  8
4
100
AcDbLine
 10
1080.308366008637
 20
1302.490485768622
 30
0.0
 11
1060.67845685619
 21
1302.490485768622
 31
0.0
  0
ARC
  5
9B
330
17
100
AcDbEntity
  8
4
100
AcDbCircle
 10
1063.132195500246
 20
1305.706871839562
 30
0.0
 40
3.783613929059507
100
AcDbArc
 50
49.57010315517826
 51
130.4298968448217
  0
LINE
  5
9C
330
17
100
AcDbEntity
  8
4
100
AcDbLine
 10
455.7775134324129
 20
1274.59048576862
 30
0.0
 11
1085.777513432413
 21
1274.59048576862
 31
0.0
  0
LINE
  5
9D
330
17
100
AcDbEntity
  8
L-CENTER
100
AcDbLine
 10
419.777513432412
 20
1166.590485768621
 30
0.0
 11
1121.777513432413
 21
1166.590485768621
 31
0.0
  0
LINE
  5
9E
330
17
100
AcDbEntity
  8
4
100
AcDbLine
 10
559.1455134324124
 20
1024.590485768621
 30
0.0
 11
789.1455134324128
 21
1024.590485768621
 31
0.0
  0
LINE
  5
9F
330
17
100
AcDbEntity
  8
4
100
AcDbLine
 10
439.7775134324138
 20
981.5904857686205
 30
0.0
 11
439.777513432412
 21
1351.59048576862
 31
0.0
  0
LINE
  5
A0
330
17
100
AcDbEntity
  8
4
100
AcDbLine
 10
434.777513432412
 20
1047.590485768621
 30
0.0
 11
434.7775134324129
 21
1191.59048576862
 31
0.0
  0
LINE
  5
A1
330
17
100
AcDbEntity
  8
4
100
AcDbLine
 10
581.7557973687544
 20
971.5904857686205
 30
0.0
 11
449.7775134324138
 21
971.5904857686205
 31
0.0
  0
ARC
  5
A2
330
17
100
AcDbEntity
  8
4
100
AcDbCircle
 10
770.7775134324138
 20
7831.615434206773
 30
0.0
 40
6803.0
100
AcDbArc
 50
267.5989890658384
 51
272.4010109341617
  0
LINE
  5
A3
330
17
100
AcDbEntity
  8
L-CENTER
100
AcDbLine
 10
515.7775134324138
 20
986.5904857686187
 30
0.0
 11
515.7775134324129
 21
1036.590485768622
 31
0.0
  0
LINE
  5
A4
330
17
100
AcDbEntity
  8
4
100
AcDbLine
 10
461.777513432412
 20
1011.590485768621
 30
0.0
 11
461.777513432412
 21
1040.590485768621
 31
0.0
  0
CIRCLE
  5
A5
330
17
100
AcDbEntity
  8
4
100
AcDbCircle
 10
515.7775134324129
 20
1011.590485768621
 30
0.0
 40
11.0
  0
LINE
  5
A6
330
17
100
AcDbEntity
  8
4
100
AcDbLine
 10
461.777513432412
 20
1011.590485768621
 30
0.0
 11
439.777513432412
 21
1011.590485768621
 31
0.0
  0
ARC
  5
A7
330
17
100
AcDbEntity
  8
4
100
AcDbCircle
 10
449.7775134324138
 20
981.5904857686205
 30
0.0
 40
10.0
100
AcDbArc
 50
180.0
 51
270.0
  0
LINE
  5
A8
330
17
100
AcDbEntity
  8
L-CENTER
100
AcDbLine
 10
540.7775134324147
 20
1011.590485768621
 30
0.0
 11
490.777513432412
 21
1011.590485768621
 31
0.0
  0
ARC
  5
A9
330
17
100
AcDbEntity
  8
4
100
AcDbCircle
 10
482.7775134324129
 20
1037.590485768621
 30
0.0
 40
3.0
100
AcDbArc
 50
0.0
 51
90.0
  0
ARC
  5
AA
330
17
100
AcDbEntity
  8
4
100
AcDbCircle
 10
441.7775134324138
 20
1063.590485768621
 30
0.0
 40
2.0
100
AcDbArc
 50
180.0
 51
270.0
  0
LINE
  5
AB
330
17
100
AcDbEntity
  8
4
100
AcDbLine
 10
441.7775134324138
 20
1061.590485768621
 30
0.0
 11
1099.777513432413
 21
1061.590485768621
 31
0.0
  0
ARC
  5
AC
330
17
100
AcDbEntity
  8
4
100
AcDbCircle
 10
453.7775134324129
 20
1059.590485768621
 30
0.0
 40
2.0
100
AcDbArc
 50
0.0
 51
90.0
  0
LINE
  5
AD
330
17
100
AcDbEntity
  8
4
100
AcDbLine
 10
434.777513432412
 20
1047.590485768621
 30
0.0
 11
436.7775134324138
 21
1047.590485768621
 31
0.0
  0
ARC
  5
AE
330
17
100
AcDbEntity
  8
4
100
AcDbCircle
 10
436.7775134324138
 20
1044.590485768621
 30
0.0
 40
3.0
100
AcDbArc
 50
0.0
 51
90.0
  0
ARC
  5
AF
330
17
100
AcDbEntity
  8
4
100
AcDbCircle
 10
457.7775134324129
 20
1042.590485768621
 30
0.0
 40
2.0
100
AcDbArc
 50
180.0
 51
270.0
  0
LINE
  5
B0
330
17
100
AcDbEntity
  8
4
100
AcDbLine
 10
457.7775134324129
 20
1040.590485768621
 30
0.0
 11
1083.777513432413
 21
1040.590485768621
 31
0.0
  0
LINE
  5
B1
330
17
100
AcDbEntity
  8
4
100
AcDbLine
 10
455.7775134324129
 20
1059.590485768621
 30
0.0
 11
455.7775134324129
 21
1042.590485768621
 31
0.0
  0
LINE
  5
B2
330
17
100
AcDbEntity
  8
4
100
AcDbLine
 10
485.7775134324129
 20
1037.590485768621
 30
0.0
 11
485.7775134324129
 21
1034.587848563176
 31
0.0
  0
LINE
  5
B3
330
17
100
AcDbEntity
  8
4
100
AcDbLine
 10
598.2219578768581
 20
1009.590485768621
 30
0.0
 11
591.5176679705937
 21
979.4211811904338
 31
0.0
  0
ARC
  5
B4
330
17
100
AcDbEntity
  8
4
100
AcDbCircle
 10
581.7557973687544
 20
981.5904857686205
 30
0.0
 40
10.0
100
AcDbArc
 50
270.0
 51
347.4711922908477
  0
ARC
  5
B5
330
17
100
AcDbEntity
  8
4
100
AcDbCircle
 10
556.1455134324124
 20
1029.000561631962
 30
0.0
 40
3.0
100
AcDbArc
 50
0.0
 51
88.19283764707886
  0
LINE
  5
B6
330
17
100
AcDbEntity
  8
4
100
AcDbLine
 10
559.1455134324124
 20
1029.000561631962
 30
0.0
 11
559.1455134324124
 21
1024.590485768621
 31
0.0
  0
LINE
  5
B7
330
17
100
AcDbEntity
  8
4
100
AcDbLine
 10
434.777513432412
 20
1191.59048576862
 30
0.0
 11
436.7775134324138
 21
1191.59048576862
 31
0.0
  0
ARC
  5
B8
330
17
100
AcDbEntity
  8
4
100
AcDbCircle
 10
436.7775134324138
 20
1194.59048576862
 30
0.0
 40
3.0
100
AcDbArc
 50
270.0
 51
0.0
  0
LINE
  5
B9
330
17
100
AcDbEntity
  8
4
100
AcDbLine
 10
449.777513432412
 20
1361.59048576862
 30
0.0
 11
581.7557973687535
 21
1361.59048576862
 31
0.0
  0
LINE
  5
BA
330
17
100
AcDbEntity
  8
L-CENTER
100
AcDbLine
 10
515.7775134324138
 20
1346.590485768622
 30
0.0
 11
515.7775134324129
 21
1296.590485768618
 31
0.0
  0
LINE
  5
BB
330
17
100
AcDbEntity
  8
4
100
AcDbLine
 10
461.7775134324133
 20
1299.990485768622
 30
0.0
 11
461.7775134324138
 21
1321.59048576862
 31
0.0
  0
ARC
  5
BC
330
17
100
AcDbEntity
  8
4
100
AcDbCircle
 10
441.7775134324138
 20
1269.59048576862
 30
0.0
 40
2.0
100
AcDbArc
 50
90.0
 51
180.0
  0
LINE
  5
BD
330
17
100
AcDbEntity
  8
4
100
AcDbLine
 10
455.7775134324129
 20
1274.590485768621
 30
0.0
 11
455.7775134324129
 21
1271.59048576862
 31
0.0
  0
LINE
  5
BE
330
17
100
AcDbEntity
  8
4
100
AcDbLine
 10
441.7775134324138
 20
1271.59048576862
 30
0.0
 11
1099.777513432413
 21
1271.59048576862
 31
0.0
  0
ARC
  5
BF
330
17
100
AcDbEntity
  8
4
100
AcDbCircle
 10
449.777513432412
 20
1351.59048576862
 30
0.0
 40
10.0
100
AcDbArc
 50
90.0
 51
180.0
  0
LINE
  5
C0
330
17
100
AcDbEntity
  8
4
100
AcDbLine
 10
461.7775134324138
 20
1321.59048576862
 30
0.0
 11
439.7775134324138
 21
1321.59048576862
 31
0.0
  0
LINE
  5
C1
330
17
100
AcDbEntity
  8
L-CENTER
100
AcDbLine
 10
540.7775134324147
 20
1321.59048576862
 30
0.0
 11
490.777513432412
 21
1321.59048576862
 31
0.0
  0
CIRCLE
  5
C2
330
17
100
AcDbEntity
  8
4
100
AcDbCircle
 10
515.7775134324129
 20
1321.59048576862
 30
0.0
 40
11.0
  0
LINE
  5
C3
330
17
100
AcDbEntity
  8
4
100
AcDbLine
 10
591.5176679705919
 20
1353.759790346807
 30
0.0
 11
596.0252156583811
 21
1333.475825751757
 31
0.0
  0
ARC
  5
C4
330
17
100
AcDbEntity
  8
4
100
AcDbCircle
 10
581.7557973687535
 20
1351.59048576862
 30
0.0
 40
10.0
100
AcDbArc
 50
12.52880770915234
 51
90.0
  0
LINE
  5
C5
330
17
100
AcDbEntity
  8
4
100
AcDbLine
 10
1101.777513432413
 20
981.5904857686205
 30
0.0
 11
1101.777513432413
 21
1351.59048576862
 31
0.0
  0
LINE
  5
C6
330
17
100
AcDbEntity
  8
L-CENTER
100
AcDbLine
 10
770.7775134324129
 20
1324.488566077487
 30
0.0
 11
770.7775134324129
 21
1004.590485768621
 31
0.0
  0
LINE
  5
C7
330
17
100
AcDbEntity
  8
4
100
AcDbLine
 10
806.1455134324128
 20
1024.590485768621
 30
0.0
 11
986.1455134324128
 21
1024.590485768621
 31
0.0
  0
ARC
  5
C8
330
17
100
AcDbEntity
  8
4
100
AcDbCircle
 10
792.1455134324128
 20
1025.648977591224
 30
0.0
 40
3.0
100
AcDbArc
 50
90.17988513487896
 51
180.0
  0
LINE
  5
C9
330
17
100
AcDbEntity
  8
4
100
AcDbLine
 10
789.1455134324128
 20
1025.648977591224
 30
0.0
 11
789.1455134324128
 21
1024.590485768621
 31
0.0
  0
ARC
  5
CA
330
17
100
AcDbEntity
  8
4
100
AcDbCircle
 10
803.1455134324128
 20
1025.692402569108
 30
0.0
 40
3.0
100
AcDbArc
 50
0.0
 51
90.27248850750303
  0
LINE
  5
CB
330
17
100
AcDbEntity
  8
4
100
AcDbLine
 10
806.1455134324128
 20
1025.692402569108
 30
0.0
 11
806.1455134324128
 21
1024.590485768621
 31
0.0
  0
LINE
  5
CC
330
17
100
AcDbEntity
  8
4
100
AcDbLine
 10
1106.777513432413
 20
1047.590485768621
 30
0.0
 11
1106.777513432413
 21
1191.59048576862
 31
0.0
  0
LINE
  5
CD
330
17
100
AcDbEntity
  8
4
100
AcDbLine
 10
1091.777513432413
 20
971.5904857686205
 30
0.0
 11
959.7992294960723
 21
971.5904857686205
 31
0.0
  0
CIRCLE
  5
CE
330
17
100
AcDbEntity
  8
4
100
AcDbCircle
 10
1025.777513432413
 20
1011.590485768621
 30
0.0
 40
11.0
  0
LINE
  5
CF
330
17
100
AcDbEntity
  8
L-CENTER
100
AcDbLine
 10
1025.777513432412
 20
986.5904857686187
 30
0.0
 11
1025.777513432413
 21
1036.590485768622
 31
0.0
  0
LINE
  5
D0
330
17
100
AcDbEntity
  8
4
100
AcDbLine
 10
945.4441800990808
 20
1000.09048576862
 30
0.0
 11
950.0373588942325
 21
979.4211811904338
 31
0.0
  0
ARC
  5
D1
330
17
100
AcDbEntity
  8
4
100
AcDbCircle
 10
959.7992294960723
 20
981.5904857686205
 30
0.0
 40
10.0
100
AcDbArc
 50
192.5288077091523
 51
270.0
  0
LINE
  5
D2
330
17
100
AcDbEntity
  8
L-CENTER
100
AcDbLine
 10
1000.777513432411
 20
1011.590485768621
 30
0.0
 11
1050.777513432415
 21
1011.590485768621
 31
0.0
  0
ARC
  5
D3
330
17
100
AcDbEntity
  8
4
100
AcDbCircle
 10
989.1455134324128
 20
1029.119464595617
 30
0.0
 40
3.0
100
AcDbArc
 50
91.8386295021807
 51
180.0
  0
LINE
  5
D4
330
17
100
AcDbEntity
  8
4
100
AcDbLine
 10
986.1455134324128
 20
1029.119464595617
 30
0.0
 11
986.1455134324128
 21
1024.590485768621
 31
0.0
  0
LINE
  5
D5
330
17
100
AcDbEntity
  8
4
100
AcDbLine
 10
1079.777513432413
 20
1011.590485768621
 30
0.0
 11
1079.777513432413
 21
1040.590485768621
 31
0.0
  0
LINE
  5
D6
330
17
100
AcDbEntity
  8
4
100
AcDbLine
 10
1079.777513432413
 20
1011.590485768621
 30
0.0
 11
1101.777513432413
 21
1011.590485768621
 31
0.0
  0
ARC
  5
D7
330
17
100
AcDbEntity
  8
4
100
AcDbCircle
 10
1091.777513432413
 20
981.5904857686205
 30
0.0
 40
10.0
100
AcDbArc
 50
270.0
 51
0.0
  0
ARC
  5
D8
330
17
100
AcDbEntity
  8
4
100
AcDbCircle
 10
1087.777513432413
 20
1059.590485768621
 30
0.0
 40
2.0
100
AcDbArc
 50
90.0
 51
180.0
  0
ARC
  5
D9
330
17
100
AcDbEntity
  8
4
100
AcDbCircle
 10
1104.777513432413
 20
1044.590485768621
 30
0.0
 40
3.0
100
AcDbArc
 50
90.0
 51
180.0
  0
LINE
  5
DA
330
17
100
AcDbEntity
  8
4
100
AcDbLine
 10
1106.777513432413
 20
1047.590485768621
 30
0.0
 11
1104.777513432413
 21
1047.590485768621
 31
0.0
  0
ARC
  5
DB
330
17
100
AcDbEntity
  8
4
100
AcDbCircle
 10
1099.777513432413
 20
1063.590485768621
 30
0.0
 40
2.0
100
AcDbArc
 50
270.0
 51
0.0
  0
ARC
  5
DC
330
17
100
AcDbEntity
  8
4
100
AcDbCircle
 10
1083.777513432413
 20
1042.590485768621
 30
0.0
 40
2.0
100
AcDbArc
 50
270.0
 51
0.0
  0
ARC
  5
DD
330
17
100
AcDbEntity
  8
4
100
AcDbCircle
 10
1058.777513432413
 20
1037.590485768621
 30
0.0
 40
3.0
100
AcDbArc
 50
90.0
 51
180.0
  0
LINE
  5
DE
330
17
100
AcDbEntity
  8
4
100
AcDbLine
 10
1055.777513432413
 20
1037.590485768621
 30
0.0
 11
1055.777513432413
 21
1034.587848563176
 31
0.0
  0
LINE
  5
DF
330
17
100
AcDbEntity
  8
4
100
AcDbLine
 10
1085.777513432413
 20
1059.590485768621
 30
0.0
 11
1085.777513432413
 21
1042.590485768621
 31
0.0
  0
ARC
  5
E0
330
17
100
AcDbEntity
  8
4
100
AcDbCircle
 10
1104.777513432413
 20
1194.59048576862
 30
0.0
 40
3.0
100
AcDbArc
 50
180.0
 51
270.0
  0
LINE
  5
E1
330
17
100
AcDbEntity
  8
4
100
AcDbLine
 10
1106.777513432413
 20
1191.59048576862
 30
0.0
 11
1104.777513432413
 21
1191.59048576862
 31
0.0
  0
LINE
  5
E2
330
17
100
AcDbEntity
  8
4
100
AcDbLine
 10
959.7992294960713
 20
1361.59048576862
 30
0.0
 11
1091.777513432413
 21
1361.59048576862
 31
0.0
  0
LINE
  5
E3
330
17
100
AcDbEntity
  8
4
100
AcDbLine
 10
950.0373588942316
 20
1353.759790346807
 30
0.0
 11
945.5330689879684
 21
1333.490485768622
 31
0.0
  0
LINE
  5
E4
330
17
100
AcDbEntity
  8
L-CENTER
100
AcDbLine
 10
1025.777513432412
 20
1346.590485768622
 30
0.0
 11
1025.777513432413
 21
1296.590485768618
 31
0.0
  0
ARC
  5
E5
330
17
100
AcDbEntity
  8
4
100
AcDbCircle
 10
959.7992294960713
 20
1351.59048576862
 30
0.0
 40
10.0
100
AcDbArc
 50
90.0
 51
167.4711922908477
  0
CIRCLE
  5
E6
330
17
100
AcDbEntity
  8
4
100
AcDbCircle
 10
1025.777513432413
 20
1321.59048576862
 30
0.0
 40
11.0
  0
LINE
  5
E7
330
17
100
AcDbEntity
  8
L-CENTER
100
AcDbLine
 10
1000.777513432411
 20
1321.59048576862
 30
0.0
 11
1050.777513432415
 21
1321.59048576862
 31
0.0
  0
LINE
  5
E8
330
17
100
AcDbEntity
  8
4
100
AcDbLine
 10
1079.777513432413
 20
1308.965436482824
 30
0.0
 11
1079.777513432413
 21
1321.59048576862
 31
0.0
  0
LINE
  5
E9
330
17
100
AcDbEntity
  8
4
100
AcDbLine
 10
1085.777513432413
 20
1274.590485768621
 30
0.0
 11
1085.777513432413
 21
1271.59048576862
 31
0.0
  0
ARC
  5
EA
330
17
100
AcDbEntity
  8
4
100
AcDbCircle
 10
1099.777513432413
 20
1269.59048576862
 30
0.0
 40
2.0
100
AcDbArc
 50
0.0
 51
90.0
  0
ARC
  5
EB
330
17
100
AcDbEntity
  8
4
100
AcDbCircle
 10
1091.777513432413
 20
1351.59048576862
 30
0.0
 40
10.0
100
AcDbArc
 50
0.0
 51
90.0
  0
LINE
  5
EC
330
17
100
AcDbEntity
  8
4
100
AcDbLine
 10
1079.777513432413
 20
1321.59048576862
 30
0.0
 11
1101.777513432413
 21
1321.59048576862
 31
0.0
  0
LINE
  5
ED
330
17
100
AcDbEntity
  8
L-CENTER
100
AcDbLine
 10
419.777513432412
 20
1119.590485768621
 30
0.0
 11
1245.289473449123
 21
1119.590485768621
 31
0.0
  0
ARC
  5
EE
330
17
100
AcDbEntity
  8
4
100
AcDbCircle
 10
787.7775134324129
 20
1122.590485768621
 30
0.0
 40
3.0
100
AcDbArc
 50
270.0
 51
0.0
  0
LINE
  5
EF
330
17
100
AcDbEntity
  8
4
100
AcDbLine
 10
790.7775134324129
 20
1122.590485768621
 30
0.0
 11
790.7775134324129
 21
1210.59048576862
 31
0.0
  0
LINE
  5
F0
330
17
100
AcDbEntity
  8
4
100
AcDbLine
 10
753.7775134324129
 20
1119.590485768621
 30
0.0
 11
787.7775134324129
 21
1119.590485768621
 31
0.0
  0
LINE
  5
F1
330
17
100
AcDbEntity
  8
4
100
AcDbLine
 10
750.7775134324129
 20
1122.590485768621
 30
0.0
 11
750.7775134324129
 21
1210.59048576862
 31
0.0
  0
ARC
  5
F2
330
17
100
AcDbEntity
  8
4
100
AcDbCircle
 10
753.7775134324129
 20
1122.590485768621
 30
0.0
 40
3.0
100
AcDbArc
 50
180.0
 51
270.0
  0
LINE
  5
F3
330
17
100
AcDbEntity
  8
4
100
AcDbLine
 10
753.7775134324129
 20
1213.59048576862
 30
0.0
 11
787.7775134324129
 21
1213.59048576862
 31
0.0
  0
ARC
  5
F4
330
17
100
AcDbEntity
  8
4
100
AcDbCircle
 10
753.7775134324129
 20
1210.59048576862
 30
0.0
 40
3.0
100
AcDbArc
 50
90.0
 51
180.0
  0
ARC
  5
F5
330
17
100
AcDbEntity
  8
4
100
AcDbCircle
 10
787.7775134324129
 20
1210.59048576862
 30
0.0
 40
3.0
100
AcDbArc
 50
0.0
 51
90.0
  0
CIRCLE
  5
F6
330
17
100
AcDbEntity
  8
4
100
AcDbCircle
 10
575.7775134324129
 20
1166.590485768621
 30
0.0
 40
25.0
  0
LINE
  5
F7
330
17
100
AcDbEntity
  8
L-CENTER
100
AcDbLine
 10
575.7775134324129
 20
1131.590485768622
 30
0.0
 11
575.7775134324129
 21
1201.590485768619
 31
0.0
  0
ARC
  5
F8
330
17
100
AcDbEntity
  8
4
100
AcDbCircle
 10
770.7775134324133
 20
-5498.03446266953
 30
0.0
 40
6803.0
100
AcDbArc
 50
92.12964087392041
 51
92.19135459156894
  0
ARC
  5
F9
330
17
100
AcDbEntity
  8
4
100
AcDbCircle
 10
770.7775134324133
 20
-5498.03446266953
 30
0.0
 40
6803.0
100
AcDbArc
 50
90.86586335402778
 51
91.96420952546504
  0
ARC
  5
FA
330
17
100
AcDbEntity
  8
4
100
AcDbCircle
 10
770.7775134324133
 20
-5498.03446266953
 30
0.0
 40
6803.0
100
AcDbArc
 50
89.3042637265186
 51
90.7005221191324
  0
ARC
  5
FB
330
17
100
AcDbEntity
  8
4
100
AcDbCircle
 10
770.7775134324133
 20
-5498.03446266953
 30
0.0
 40
6803.0
100
AcDbArc
 50
88.04057877151865
 51
89.13892267984498
  0
ARC
  5
FC
330
17
100
AcDbEntity
  8
4
100
AcDbCircle
 10
770.7775134324133
 20
-5498.03446266953
 30
0.0
 40
6803.0
100
AcDbArc
 50
87.80864540843123
 51
87.87514791664329
  0
LINE
  5
FD
330
17
100
AcDbEntity
  8
4
100
AcDbLine
 10
455.652425678667
 20
1274.990485768621
 30
0.0
 11
1086.067726050065
 21
1274.990485768621
 31
0.0
  0
LINE
  5
FE
330
17
100
AcDbEntity
  8
4
100
AcDbLine
 10
457.6524256786679
 20
1299.990485768622
 30
0.0
 11
1084.067726050065
 21
1299.990485768622
 31
0.0
  0
LINE
  5
FF
330
17
100
AcDbEntity
  8
4
100
AcDbLine
 10
806.1455134324133
 20
1308.990485768622
 30
0.0
 11
986.1455134324133
 21
1308.990485768621
 31
0.0
  0
ARC
  5
100
330
17
100
AcDbEntity
  8
4
100
AcDbCircle
 10
770.7775134324133
 20
-5498.03446266953
 30
0.0
 40
6800.0
100
AcDbArc
 50
90.86624538166811
 51
91.38096574237609
  0
ARC
  5
101
330
17
100
AcDbEntity
  8
4
100
AcDbCircle
 10
770.7775134324133
 20
-5498.03446266953
 30
0.0
 40
6800.0
100
AcDbArc
 50
89.30395676894861
 51
90.70083118841946
  0
ARC
  5
102
330
17
100
AcDbEntity
  8
4
100
AcDbCircle
 10
770.7775134324133
 20
-5498.03446266953
 30
0.0
 40
6800.0
100
AcDbArc
 50
88.61903425762404
 51
89.13854276416987
  0
LINE
  5
103
330
17
100
AcDbEntity
  8
4
100
AcDbLine
 10
687.0293199790526
 20
1308.990485768622
 30
0.0
 11
789.1455134324133
 21
1308.990485768622
 31
0.0
  0
LINE
  5
104
330
17
100
AcDbEntity
  8
4
100
AcDbLine
 10
559.1455134324133
 20
1308.990485768622
 30
0.0
 11
668.5473062608057
 21
1308.990485768622
 31
0.0
  0
ARC
  5
105
330
17
100
AcDbEntity
  8
4
100
AcDbCircle
 10
457.6524256786679
 20
1297.990485768622
 30
0.0
 40
2.0
100
AcDbArc
 50
90.0
 51
180.0
  0
LINE
  5
106
330
17
100
AcDbEntity
  8
4
100
AcDbLine
 10
455.6524256786679
 20
1274.990485768621
 30
0.0
 11
455.6524256786679
 21
1297.990485768622
 31
0.0
  0
LINE
  5
107
330
17
100
AcDbEntity
  8
4
100
AcDbLine
 10
559.1455134324133
 20
1304.58040990528
 30
0.0
 11
559.1455134324133
 21
1308.990485768621
 31
0.0
  0
ARC
  5
108
330
17
100
AcDbEntity
  8
4
100
AcDbCircle
 10
556.1455134324133
 20
1304.58040990528
 30
0.0
 40
3.0
100
AcDbArc
 50
271.8071623529211
 51
0.0
  0
LINE
  5
109
330
17
100
AcDbEntity
  8
L-CENTER
100
AcDbLine
 10
674.1455134324133
 20
1509.281014081856
 30
0.0
 11
674.1455134324133
 21
1000.406528508786
 31
0.0
  0
ARC
  5
10A
330
17
100
AcDbEntity
  8
4
100
AcDbCircle
 10
803.1455134324133
 20
1307.888568968134
 30
0.0
 40
3.0
100
AcDbArc
 50
269.7275114924969
 51
0.0
  0
LINE
  5
10B
330
17
100
AcDbEntity
  8
4
100
AcDbLine
 10
806.1455134324133
 20
1307.888568968134
 30
0.0
 11
806.1455134324133
 21
1308.990485768621
 31
0.0
  0
LINE
  5
10C
330
17
100
AcDbEntity
  8
4
100
AcDbLine
 10
789.1455134324133
 20
1307.931993946019
 30
0.0
 11
789.1455134324133
 21
1308.990485768621
 31
0.0
  0
ARC
  5
10D
330
17
100
AcDbEntity
  8
4
100
AcDbCircle
 10
792.1455134324133
 20
1307.931993946019
 30
0.0
 40
3.0
100
AcDbArc
 50
180.0
 51
269.8201148651211
  0
LINE
  5
10E
330
17
100
AcDbEntity
  8
L-CENTER
100
AcDbLine
 10
896.1455134324133
 20
1334.744544339151
 30
0.0
 11
896.1455134324133
 21
1000.406528508786
 31
0.0
  0
LINE
  5
10F
330
17
100
AcDbEntity
  8
4
100
AcDbLine
 10
986.1455134324133
 20
1304.461506941625
 30
0.0
 11
986.1455134324133
 21
1308.990485768621
 31
0.0
  0
ARC
  5
110
330
17
100
AcDbEntity
  8
4
100
AcDbCircle
 10
989.1455134324133
 20
1304.461506941625
 30
0.0
 40
3.0
100
AcDbArc
 50
180.0
 51
268.1613704978106
  0
ARC
  5
111
330
17
100
AcDbEntity
  8
4
100
AcDbCircle
 10
1084.067726050065
 20
1297.990485768622
 30
0.0
 40
2.0
100
AcDbArc
 50
0.0
 51
90.0
  0
LINE
  5
112
330
17
100
AcDbEntity
  8
4
100
AcDbLine
 10
1086.067726050065
 20
1274.990485768623
 30
0.0
 11
1086.067726050065
 21
1297.990485768622
 31
0.0
  0
LINE
  5
113
330
17
100
AcDbEntity
  8
4
100
AcDbLine
 10
559.1455134324124
 20
1009.590485768621
 30
0.0
 11
789.1455134324128
 21
1009.590485768621
 31
0.0
  0
LINE
  5
114
330
17
100
AcDbEntity
  8
4
100
AcDbLine
 10
559.1455134324133
 20
1323.990485768622
 30
0.0
 11
789.1455134324133
 21
1323.990485768622
 31
0.0
  0
LINE
  5
115
330
17
100
AcDbEntity
  8
4
100
AcDbLine
 10
559.1455134324133
 20
1323.990485768622
 30
0.0
 11
559.1455134324133
 21
1308.990485768621
 31
0.0
  0
LINE
  5
116
330
17
100
AcDbEntity
  8
4
100
AcDbLine
 10
789.1455134324133
 20
1323.990485768622
 30
0.0
 11
789.1455134324133
 21
1308.990485768622
 31
0.0
  0
LINE
  5
117
330
17
100
AcDbEntity
  8
4
100
AcDbLine
 10
559.1455134324124
 20
1009.590485768621
 30
0.0
 11
559.1455134324124
 21
1024.590485768621
 31
0.0
  0
LINE
  5
118
330
17
100
AcDbEntity
  8
4
100
AcDbLine
 10
789.1455134324128
 20
1009.590485768621
 30
0.0
 11
789.1455134324128
 21
1024.590485768621
 31
0.0
  0
LINE
  5
119
330
17
100
AcDbEntity
  8
4
100
AcDbLine
 10
559.1455134324124
 20
1024.190485768621
 30
0.0
 11
789.1455134324128
 21
1024.190485768621
 31
0.0
  0
LINE
  5
11A
330
17
100
AcDbEntity
  8
4
100
AcDbLine
 10
686.013660283923
 20
1309.390485768621
 30
0.0
 11
789.1455134324133
 21
1309.390485768621
 31
0.0
  0
LINE
  5
11B
330
17
100
AcDbEntity
  8
4
100
AcDbLine
 10
559.1455134324133
 20
1309.390485768621
 30
0.0
 11
669.5629659559354
 21
1309.390485768621
 31
0.0
  0
LINE
  5
11C
330
17
100
AcDbEntity
  8
4
100
AcDbLine
 10
806.1455134324128
 20
1009.590485768621
 30
0.0
 11
986.1455134324128
 21
1009.590485768621
 31
0.0
  0
LINE
  5
11D
330
17
100
AcDbEntity
  8
4
100
AcDbLine
 10
806.1455134324133
 20
1323.990485768622
 30
0.0
 11
986.1455134324133
 21
1323.990485768621
 31
0.0
  0
LINE
  5
11E
330
17
100
AcDbEntity
  8
4
100
AcDbLine
 10
806.1455134324133
 20
1323.990485768622
 30
0.0
 11
806.1455134324133
 21
1308.990485768622
 31
0.0
  0
LINE
  5
11F
330
17
100
AcDbEntity
  8
4
100
AcDbLine
 10
986.1455134324133
 20
1323.990485768621
 30
0.0
 11
986.1455134324133
 21
1308.990485768621
 31
0.0
  0
LINE
  5
120
330
17
100
AcDbEntity
  8
4
100
AcDbLine
 10
986.1455134324128
 20
1024.590485768621
 30
0.0
 11
986.1455134324128
 21
1009.590485768621
 31
0.0
  0
LINE
  5
121
330
17
100
AcDbEntity
  8
4
100
AcDbLine
 10
806.1455134324128
 20
1024.590485768621
 30
0.0
 11
806.1455134324128
 21
1009.590485768621
 31
0.0
  0
LINE
  5
122
330
17
100
AcDbEntity
  8
4
100
AcDbLine
 10
806.1455134324128
 20
1024.190485768621
 30
0.0
 11
986.1455134324128
 21
1024.190485768621
 31
0.0
  0
LINE
  5
123
330
17
100
AcDbEntity
  8
4
100
AcDbLine
 10
806.1455134324133
 20
1309.390485768621
 30
0.0
 11
986.1455134324133
 21
1309.39048576862
 31
0.0
  0
LINE
  5
124
330
17
100
AcDbEntity
  8
4
100
AcDbLine
 10
1118.777513432413
 20
1047.590485768621
 30
0.0
 11
1118.777513432413
 21
1191.59048576862
 31
0.0
  0
LINE
  5
125
330
17
100
AcDbEntity
  8
4
100
AcDbLine
 10
422.777513432412
 20
1047.590485768621
 30
0.0
 11
422.7775134324129
 21
1191.59048576862
 31
0.0
  0
LINE
  5
126
330
17
100
AcDbEntity
  8
4
100
AcDbLine
 10
1106.777513432413
 20
1191.59048576862
 30
0.0
 11
1118.777513432413
 21
1191.59048576862
 31
0.0
  0
LINE
  5
127
330
17
100
AcDbEntity
  8
4
100
AcDbLine
 10
1118.777513432413
 20
1047.590485768621
 30
0.0
 11
1106.777513432413
 21
1047.590485768621
 31
0.0
  0
LINE
  5
128
330
17
100
AcDbEntity
  8
4
100
AcDbLine
 10
422.7775134324129
 20
1191.59048576862
 30
0.0
 11
434.777513432412
 21
1191.59048576862
 31
0.0
  0
LINE
  5
129
330
17
100
AcDbEntity
  8
4
100
AcDbLine
 10
422.777513432412
 20
1047.590485768621
 30
0.0
 11
434.777513432412
 21
1047.590485768621
 31
0.0
  0
LINE
  5
12A
330
17
100
AcDbEntity
  8
4
100
AcDbLine
 10
1107.177513432413
 20
1047.590485768621
 30
0.0
 11
1107.177513432413
 21
1191.59048576862
 31
0.0
  0
LINE
  5
12B
330
17
100
AcDbEntity
  8
4
100
AcDbLine
 10
434.3775134324123
 20
1047.590485768621
 30
0.0
 11
434.3775134324133
 21
1191.59048576862
 31
0.0
  0
LINE
  5
12C
330
17
100
AcDbEntity
  8
4
100
AcDbLine
 10
613.5341334761861
 20
1324.990485768622
 30
0.0
 11
734.7568933886405
 21
1324.990485768622
 31
0.0
  0
LINE
  5
12D
330
17
100
AcDbEntity
  8
4
100
AcDbLine
 10
1118.777513432413
 20
1155.590485768621
 30
0.0
 11
1119.777513432413
 21
1155.59048576862
 31
0.0
  0
LINE
  5
12E
330
17
100
AcDbEntity
  8
4
100
AcDbLine
 10
1118.777513432413
 20
1083.590485768621
 30
0.0
 11
1119.777513432413
 21
1083.590485768621
 31
0.0
  0
LINE
  5
12F
330
17
100
AcDbEntity
  8
4
100
AcDbLine
 10
1119.777513432413
 20
1083.590485768621
 30
0.0
 11
1119.777513432413
 21
1155.590485768621
 31
0.0
  0
ARC
  5
130
330
17
100
AcDbEntity
  8
4
100
AcDbCircle
 10
1134.145513432413
 20
1094.590485768621
 30
0.0
 40
2.0
100
AcDbArc
 50
90.0
 51
180.0
  0
LINE
  5
131
330
17
100
AcDbEntity
  8
4
100
AcDbLine
 10
1132.145513432413
 20
1094.590485768621
 30
0.0
 11
1132.145513432413
 21
1144.590485768621
 31
0.0
  0
LINE
  5
132
330
17
100
AcDbEntity
  8
4
100
AcDbLine
 10
1232.145513432413
 20
1125.590485768621
 30
0.0
 11
1148.145513432413
 21
1125.590485768621
 31
0.0
  0
LINE
  5
133
330
17
100
AcDbEntity
  8
4
100
AcDbLine
 10
1232.145513432413
 20
1113.590485768621
 30
0.0
 11
1148.145513432413
 21
1113.590485768621
 31
0.0
  0
LINE
  5
134
330
17
100
AcDbEntity
  8
4
100
AcDbLine
 10
1134.145513432413
 20
1142.590485768621
 30
0.0
 11
1231.145513432413
 21
1142.590485768621
 31
0.0
  0
LINE
  5
135
330
17
100
AcDbEntity
  8
4
100
AcDbLine
 10
1134.145513432413
 20
1096.590485768621
 30
0.0
 11
1231.145513432413
 21
1096.590485768621
 31
0.0
  0
ARC
  5
136
330
17
100
AcDbEntity
  8
4
100
AcDbCircle
 10
1134.145513432413
 20
1144.590485768621
 30
0.0
 40
2.0
100
AcDbArc
 50
180.0
 51
270.0
  0
ARC
  5
137
330
17
100
AcDbEntity
  8
4
100
AcDbCircle
 10
1148.145513432413
 20
1119.590485768621
 30
0.0
 40
6.0
100
AcDbArc
 50
90.0
 51
270.0
  0
LINE
  5
138
330
17
100
AcDbEntity
  8
4
100
AcDbLine
 10
1231.145513432413
 20
1142.590485768621
 30
0.0
 11
1232.145513432413
 21
1141.590485768621
 31
0.0
  0
LINE
  5
139
330
17
100
AcDbEntity
  8
4
100
AcDbLine
 10
1231.145513432413
 20
1142.590485768621
 30
0.0
 11
1231.145513432413
 21
1125.590485768621
 31
0.0
  0
LINE
  5
13A
330
17
100
AcDbEntity
  8
4
100
AcDbLine
 10
1232.145513432413
 20
1097.590485768621
 30
0.0
 11
1231.145513432413
 21
1096.590485768621
 31
0.0
  0
LINE
  5
13B
330
17
100
AcDbEntity
  8
4
100
AcDbLine
 10
1231.145513432413
 20
1113.590485768621
 30
0.0
 11
1231.145513432413
 21
1096.590485768621
 31
0.0
  0
LINE
  5
13C
330
17
100
AcDbEntity
  8
4
100
AcDbLine
 10
1232.145513432413
 20
1141.590485768621
 30
0.0
 11
1232.145513432413
 21
1097.590485768621
 31
0.0
  0
LINE
  5
13D
330
17
100
AcDbEntity
  8
4
100
AcDbLine
 10
1132.145513432413
 20
1144.590485768621
 30
0.0
 11
1119.777513432413
 21
1144.59048576862
 31
0.0
  0
LINE
  5
13E
330
17
100
AcDbEntity
  8
4
100
AcDbLine
 10
1132.145513432413
 20
1094.590485768621
 30
0.0
 11
1119.777513432413
 21
1094.59048576862
 31
0.0
  0
LINE
  5
13F
330
17
100
AcDbEntity
  8
4
100
AcDbLine
 10
686.1455134324133
 20
1361.59048576862
 30
0.0
 11
686.1455134324133
 21
1499.59048576862
 31
0.0
  0
LINE
  5
140
330
17
100
AcDbEntity
  8
4
100
AcDbLine
 10
662.1455134324133
 20
1361.59048576862
 30
0.0
 11
662.1455134324133
 21
1499.59048576862
 31
0.0
  0
LINE
  5
141
330
17
100
AcDbEntity
  8
4
100
AcDbLine
 10
719.1455134324133
 20
1341.59048576862
 30
0.0
 11
719.1455134324133
 21
1498.59048576862
 31
0.0
  0
LINE
  5
142
330
17
100
AcDbEntity
  8
4
100
AcDbLine
 10
629.1455134324133
 20
1341.59048576862
 30
0.0
 11
629.1455134324133
 21
1498.59048576862
 31
0.0
  0
LINE
  5
143
330
17
100
AcDbEntity
  8
4
100
AcDbLine
 10
626.6455134324133
 20
1339.59048576862
 30
0.0
 11
721.6455134324133
 21
1339.59048576862
 31
0.0
  0
LINE
  5
144
330
17
100
AcDbEntity
  8
4
100
AcDbLine
 10
674.1455134324133
 20
1349.59048576862
 30
0.0
 11
674.1455134324133
 21
1349.59048576862
 31
0.0
  0
ARC
  5
145
330
17
100
AcDbEntity
  8
4
100
AcDbCircle
 10
674.1455134324133
 20
1361.59048576862
 30
0.0
 40
12.0
100
AcDbArc
 50
270.0
 51
0.0
  0
ARC
  5
146
330
17
100
AcDbEntity
  8
4
100
AcDbCircle
 10
674.1455134324133
 20
1361.59048576862
 30
0.0
 40
12.0
100
AcDbArc
 50
180.0
 51
270.0
  0
ARC
  5
147
330
17
100
AcDbEntity
  8
4
100
AcDbCircle
 10
721.1455134324133
 20
1341.59048576862
 30
0.0
 40
2.0
100
AcDbArc
 50
180.0
 51
270.0
  0
ARC
  5
148
330
17
100
AcDbEntity
  8
4
100
AcDbCircle
 10
627.1455134324133
 20
1341.59048576862
 30
0.0
 40
2.0
100
AcDbArc
 50
270.0
 51
0.0
  0
LINE
  5
149
330
17
100
AcDbEntity
  8
4
100
AcDbLine
 10
629.1455134324133
 20
1498.59048576862
 30
0.0
 11
662.1455134324133
 21
1498.59048576862
 31
0.0
  0
LINE
  5
14A
330
17
100
AcDbEntity
  8
4
100
AcDbLine
 10
630.1455134324133
 20
1499.59048576862
 30
0.0
 11
718.1455134324133
 21
1499.59048576862
 31
0.0
  0
LINE
  5
14B
330
17
100
AcDbEntity
  8
4
100
AcDbLine
 10
718.1455134324133
 20
1499.59048576862
 30
0.0
 11
719.1455134324133
 21
1498.59048576862
 31
0.0
  0
LINE
  5
14C
330
17
100
AcDbEntity
  8
4
100
AcDbLine
 10
686.1455134324133
 20
1498.59048576862
 30
0.0
 11
719.1455134324133
 21
1498.59048576862
 31
0.0
  0
LINE
  5
14D
330
17
100
AcDbEntity
  8
4
100
AcDbLine
 10
629.1455134324133
 20
1498.59048576862
 30
0.0
 11
630.1455134324133
 21
1499.59048576862
 31
0.0
  0
LINE
  5
14E
330
17
100
AcDbEntity
  8
4
100
AcDbLine
 10
626.6455134324133
 20
1339.59048576862
 30
0.0
 11
626.6455134324133
 21
1324.990485768621
 31
0.0
  0
LINE
  5
14F
330
17
100
AcDbEntity
  8
4
100
AcDbLine
 10
721.6455134324133
 20
1339.59048576862
 30
0.0
 11
721.6455134324133
 21
1324.990485768621
 31
0.0
  0
ARC
  5
150
330
17
100
AcDbEntity
  8
4
100
AcDbCircle
 10
611.0803948321291
 20
1329.706871839562
 30
0.0
 40
3.783613929059507
100
AcDbArc
 50
49.57010315516501
 51
130.4298968448143
  0
LINE
  5
151
330
17
100
AcDbEntity
  8
4
100
AcDbLine
 10
593.9042243237391
 20
1326.490485768622
 30
0.0
 11
613.5341334761861
 21
1326.490485768622
 31
0.0
  0
LINE
  5
152
330
17
100
AcDbEntity
  8
4
100
AcDbLine
 10
593.9042243237391
 20
1323.990485768622
 30
0.0
 11
613.5341334761861
 21
1323.990485768622
 31
0.0
  0
LINE
  5
153
330
17
100
AcDbEntity
  8
L-CENTER
100
AcDbLine
 10
603.7191788999626
 20
1292.017848320926
 30
0.0
 11
603.7191788999626
 21
1336.358464023202
 31
0.0
  0
LINE
  5
154
330
17
100
AcDbEntity
  8
4
100
AcDbLine
 10
608.6266561880739
 20
1332.586958822769
 30
0.0
 11
608.6266561880739
 21
1326.490485768622
 31
0.0
  0
ARC
  5
155
330
17
100
AcDbEntity
  8
4
100
AcDbCircle
 10
603.7191788999617
 20
1319.711320471162
 30
0.0
 40
13.77916529745958
100
AcDbArc
 50
69.13593563607742
 51
110.8640643639175
  0
LINE
  5
156
330
17
100
AcDbEntity
  8
4
100
AcDbLine
 10
611.08039483213
 20
1333.490485768622
 30
0.0
 11
596.3579629677943
 21
1333.490485768622
 31
0.0
  0
ARC
  5
157
330
17
100
AcDbEntity
  8
4
100
AcDbCircle
 10
596.3579629677943
 20
1329.706871839562
 30
0.0
 40
3.783613929059507
100
AcDbArc
 50
49.57010315518573
 51
130.429896844835
  0
LINE
  5
158
330
17
100
AcDbEntity
  8
4
100
AcDbLine
 10
593.9042243237391
 20
1332.586958822769
 30
0.0
 11
593.9042243237391
 21
1323.990485768622
 31
0.0
  0
LINE
  5
159
330
17
100
AcDbEntity
  8
4
100
AcDbLine
 10
598.8117016118504
 20
1332.586958822769
 30
0.0
 11
598.8117016118504
 21
1326.490485768622
 31
0.0
  0
LINE
  5
15A
330
17
100
AcDbEntity
  8
4
100
AcDbLine
 10
613.5341334761861
 20
1323.990485768622
 30
0.0
 11
613.5341334761861
 21
1332.586958822769
 31
0.0
  0
LINE
  5
15B
330
17
100
AcDbEntity
  8
L-CENTER
100
AcDbLine
 10
744.5718479648644
 20
1292.017848320926
 30
0.0
 11
744.5718479648644
 21
1336.358464023202
 31
0.0
  0
LINE
  5
15C
330
17
100
AcDbEntity
  8
4
100
AcDbLine
 10
734.756893388641
 20
1323.990485768622
 30
0.0
 11
734.756893388641
 21
1332.586958822769
 31
0.0
  0
LINE
  5
15D
330
17
100
AcDbEntity
  8
4
100
AcDbLine
 10
749.4793252529767
 20
1332.586958822769
 30
0.0
 11
749.4793252529767
 21
1326.490485768622
 31
0.0
  0
LINE
  5
15E
330
17
100
AcDbEntity
  8
4
100
AcDbLine
 10
754.386802541088
 20
1332.586958822769
 30
0.0
 11
754.386802541088
 21
1323.990485768622
 31
0.0
  0
ARC
  5
15F
330
17
100
AcDbEntity
  8
4
100
AcDbCircle
 10
751.9330638970328
 20
1329.706871839562
 30
0.0
 40
3.783613929059507
100
AcDbArc
 50
49.57010315516501
 51
130.429896844835
  0
LINE
  5
160
330
17
100
AcDbEntity
  8
4
100
AcDbLine
 10
737.210632032697
 20
1333.490485768622
 30
0.0
 11
751.9330638970328
 21
1333.490485768622
 31
0.0
  0
ARC
  5
161
330
17
100
AcDbEntity
  8
4
100
AcDbCircle
 10
744.5718479648644
 20
1319.711320471162
 30
0.0
 40
13.77916529745958
100
AcDbArc
 50
69.13593563608075
 51
110.8640643639193
  0
LINE
  5
162
330
17
100
AcDbEntity
  8
4
100
AcDbLine
 10
739.6643706767532
 20
1332.586958822769
 30
0.0
 11
739.6643706767532
 21
1326.490485768622
 31
0.0
  0
LINE
  5
163
330
17
100
AcDbEntity
  8
4
100
AcDbLine
 10
754.386802541088
 20
1323.990485768622
 30
0.0
 11
734.756893388641
 21
1323.990485768622
 31
0.0
  0
LINE
  5
164
330
17
100
AcDbEntity
  8
4
100
AcDbLine
 10
754.386802541088
 20
1326.490485768622
 30
0.0
 11
734.756893388641
 21
1326.490485768622
 31
0.0
  0
ARC
  5
165
330
17
100
AcDbEntity
  8
4
100
AcDbCircle
 10
737.210632032697
 20
1329.706871839562
 30
0.0
 40
3.783613929059507
100
AcDbArc
 50
49.57010315516501
 51
130.429896844835
  0
LINE
  5
166
330
17
100
AcDbEntity
  8
4
100
AcDbLine
 10
613.5341334761861
 20
1009.59048576862
 30
0.0
 11
613.5341334761861
 21
1000.994012714472
 31
0.0
  0
LINE
  5
167
330
17
100
AcDbEntity
  8
4
100
AcDbLine
 10
598.8117016118504
 20
1000.994012714472
 30
0.0
 11
598.8117016118504
 21
1007.09048576862
 31
0.0
  0
LINE
  5
168
330
17
100
AcDbEntity
  8
4
100
AcDbLine
 10
593.9042243237391
 20
1000.994012714472
 30
0.0
 11
593.9042243237391
 21
1009.59048576862
 31
0.0
  0
ARC
  5
169
330
17
100
AcDbEntity
  8
4
100
AcDbCircle
 10
596.3579629677943
 20
1003.874099697679
 30
0.0
 40
3.783613929059507
100
AcDbArc
 50
229.5701031551686
 51
310.4298968448156
  0
LINE
  5
16A
330
17
100
AcDbEntity
  8
4
100
AcDbLine
 10
611.08039483213
 20
1000.09048576862
 30
0.0
 11
596.3579629677943
 21
1000.09048576862
 31
0.0
  0
ARC
  5
16B
330
17
100
AcDbEntity
  8
4
100
AcDbCircle
 10
603.7191788999617
 20
1013.869651066079
 30
0.0
 40
13.77916529745958
100
AcDbArc
 50
249.1359356360825
 51
290.8640643639221
  0
LINE
  5
16C
330
17
100
AcDbEntity
  8
4
100
AcDbLine
 10
608.6266561880739
 20
1000.994012714472
 30
0.0
 11
608.6266561880739
 21
1007.09048576862
 31
0.0
  0
LINE
  5
16D
330
17
100
AcDbEntity
  8
4
100
AcDbLine
 10
593.9042243237391
 20
1009.59048576862
 30
0.0
 11
613.5341334761861
 21
1009.59048576862
 31
0.0
  0
LINE
  5
16E
330
17
100
AcDbEntity
  8
4
100
AcDbLine
 10
593.9042243237391
 20
1007.09048576862
 30
0.0
 11
613.5341334761861
 21
1007.09048576862
 31
0.0
  0
ARC
  5
16F
330
17
100
AcDbEntity
  8
4
100
AcDbCircle
 10
611.0803948321291
 20
1003.874099697679
 30
0.0
 40
3.783613929059507
100
AcDbArc
 50
229.5701031551844
 51
310.4298968448314
  0
LINE
  5
170
330
17
100
AcDbEntity
  8
L-CENTER
100
AcDbLine
 10
603.7191788999626
 20
1041.563123216315
 30
0.0
 11
603.7191788999626
 21
997.2225075140391
 31
0.0
  0
LINE
  5
171
330
17
100
AcDbEntity
  8
4
100
AcDbLine
 10
754.386802541088
 20
1007.09048576862
 30
0.0
 11
734.756893388641
 21
1007.09048576862
 31
0.0
  0
LINE
  5
172
330
17
100
AcDbEntity
  8
4
100
AcDbLine
 10
754.386802541088
 20
1009.59048576862
 30
0.0
 11
734.756893388641
 21
1009.59048576862
 31
0.0
  0
ARC
  5
173
330
17
100
AcDbEntity
  8
4
100
AcDbCircle
 10
744.5718479648644
 20
1013.869651066079
 30
0.0
 40
13.77916529745958
100
AcDbArc
 50
249.1359356360807
 51
290.8640643639193
  0
LINE
  5
174
330
17
100
AcDbEntity
  8
4
100
AcDbLine
 10
737.210632032697
 20
1000.09048576862
 30
0.0
 11
751.9330638970328
 21
1000.09048576862
 31
0.0
  0
ARC
  5
175
330
17
100
AcDbEntity
  8
4
100
AcDbCircle
 10
737.210632032697
 20
1003.874099697679
 30
0.0
 40
3.783613929059507
100
AcDbArc
 50
229.5701031551782
 51
310.4298968448218
  0
LINE
  5
176
330
17
100
AcDbEntity
  8
4
100
AcDbLine
 10
739.6643706767532
 20
1000.994012714472
 30
0.0
 11
739.6643706767532
 21
1007.09048576862
 31
0.0
  0
LINE
  5
177
330
17
100
AcDbEntity
  8
4
100
AcDbLine
 10
734.756893388641
 20
1009.59048576862
 30
0.0
 11
734.756893388641
 21
1000.994012714472
 31
0.0
  0
ARC
  5
178
330
17
100
AcDbEntity
  8
4
100
AcDbCircle
 10
751.9330638970328
 20
1003.874099697679
 30
0.0
 40
3.783613929059507
100
AcDbArc
 50
229.5701031551782
 51
310.4298968448218
  0
LINE
  5
179
330
17
100
AcDbEntity
  8
4
100
AcDbLine
 10
754.386802541088
 20
1000.994012714472
 30
0.0
 11
754.386802541088
 21
1009.59048576862
 31
0.0
  0
LINE
  5
17A
330
17
100
AcDbEntity
  8
4
100
AcDbLine
 10
749.4793252529767
 20
1000.994012714472
 30
0.0
 11
749.4793252529767
 21
1007.09048576862
 31
0.0
  0
LINE
  5
17B
330
17
100
AcDbEntity
  8
L-CENTER
100
AcDbLine
 10
744.5718479648644
 20
1041.563123216315
 30
0.0
 11
744.5718479648644
 21
997.2225075140391
 31
0.0
  0
ARC
  5
17C
330
17
100
AcDbEntity
  8
4
100
AcDbCircle
 10
850.1057199755892
 20
1329.706871839562
 30
0.0
 40
3.783613929059507
100
AcDbArc
 50
49.57010315516501
 51
130.429896844835
  0
LINE
  5
17D
330
17
100
AcDbEntity
  8
4
100
AcDbLine
 10
832.9295494671983
 20
1326.490485768622
 30
0.0
 11
852.5594586196453
 21
1326.490485768622
 31
0.0
  0
LINE
  5
17E
330
17
100
AcDbEntity
  8
4
100
AcDbLine
 10
832.9295494671983
 20
1323.990485768622
 30
0.0
 11
852.5594586196453
 21
1323.990485768622
 31
0.0
  0
LINE
  5
17F
330
17
100
AcDbEntity
  8
L-CENTER
100
AcDbLine
 10
842.7445040434218
 20
1292.017848320926
 30
0.0
 11
842.7445040434218
 21
1336.358464023202
 31
0.0
  0
LINE
  5
180
330
17
100
AcDbEntity
  8
4
100
AcDbLine
 10
847.6519813315331
 20
1332.586958822769
 30
0.0
 11
847.6519813315331
 21
1326.490485768622
 31
0.0
  0
ARC
  5
181
330
17
100
AcDbEntity
  8
4
100
AcDbCircle
 10
842.7445040434218
 20
1319.711320471162
 30
0.0
 40
13.77916529745958
100
AcDbArc
 50
69.13593563608075
 51
110.8640643639193
  0
LINE
  5
182
330
17
100
AcDbEntity
  8
4
100
AcDbLine
 10
850.1057199755892
 20
1333.490485768622
 30
0.0
 11
835.3832881112535
 21
1333.490485768622
 31
0.0
  0
ARC
  5
183
330
17
100
AcDbEntity
  8
4
100
AcDbCircle
 10
835.3832881112535
 20
1329.706871839562
 30
0.0
 40
3.783613929059507
100
AcDbArc
 50
49.57010315516501
 51
130.429896844835
  0
LINE
  5
184
330
17
100
AcDbEntity
  8
4
100
AcDbLine
 10
837.8370267553096
 20
1332.586958822769
 30
0.0
 11
837.8370267553096
 21
1326.490485768622
 31
0.0
  0
LINE
  5
185
330
17
100
AcDbEntity
  8
4
100
AcDbLine
 10
852.5594586196453
 20
1323.990485768622
 30
0.0
 11
852.5594586196453
 21
1332.586958822769
 31
0.0
  0
LINE
  5
186
330
17
100
AcDbEntity
  8
4
100
AcDbLine
 10
832.9295494671983
 20
1332.586958822769
 30
0.0
 11
832.9295494671983
 21
1323.990485768622
 31
0.0
  0
LINE
  5
187
330
17
100
AcDbEntity
  8
L-CENTER
100
AcDbLine
 10
949.5465228214048
 20
1292.017848320926
 30
0.0
 11
949.5465228214048
 21
1336.358464023202
 31
0.0
  0
LINE
  5
188
330
17
100
AcDbEntity
  8
4
100
AcDbLine
 10
959.3614773976283
 20
1332.586958822769
 30
0.0
 11
959.3614773976283
 21
1323.990485768622
 31
0.0
  0
LINE
  5
189
330
17
100
AcDbEntity
  8
4
100
AcDbLine
 10
939.7315682451813
 20
1323.990485768622
 30
0.0
 11
939.7315682451813
 21
1332.586958822769
 31
0.0
  0
LINE
  5
18A
330
17
100
AcDbEntity
  8
4
100
AcDbLine
 10
954.454000109517
 20
1332.586958822769
 30
0.0
 11
954.454000109517
 21
1326.490485768622
 31
0.0
  0
ARC
  5
18B
330
17
100
AcDbEntity
  8
4
100
AcDbCircle
 10
956.9077387535731
 20
1329.706871839562
 30
0.0
 40
3.783613929059507
100
AcDbArc
 50
49.57010315516501
 51
130.429896844835
  0
LINE
  5
18C
330
17
100
AcDbEntity
  8
4
100
AcDbLine
 10
942.1853068892374
 20
1333.490485768622
 30
0.0
 11
956.9077387535731
 21
1333.490485768622
 31
0.0
  0
ARC
  5
18D
330
17
100
AcDbEntity
  8
4
100
AcDbCircle
 10
949.5465228214048
 20
1319.711320471162
 30
0.0
 40
13.77916529745958
100
AcDbArc
 50
69.13593563608075
 51
110.8640643639193
  0
LINE
  5
18E
330
17
100
AcDbEntity
  8
4
100
AcDbLine
 10
944.6390455332935
 20
1332.586958822769
 30
0.0
 11
944.6390455332935
 21
1326.490485768622
 31
0.0
  0
LINE
  5
18F
330
17
100
AcDbEntity
  8
4
100
AcDbLine
 10
959.3614773976283
 20
1323.990485768622
 30
0.0
 11
939.7315682451813
 21
1323.990485768622
 31
0.0
  0
LINE
  5
190
330
17
100
AcDbEntity
  8
4
100
AcDbLine
 10
959.3614773976283
 20
1326.490485768622
 30
0.0
 11
939.7315682451813
 21
1326.490485768622
 31
0.0
  0
ARC
  5
191
330
17
100
AcDbEntity
  8
4
100
AcDbCircle
 10
942.1853068892374
 20
1329.706871839562
 30
0.0
 40
3.783613929059507
100
AcDbArc
 50
49.57010315516501
 51
130.429896844835
  0
LINE
  5
192
330
17
100
AcDbEntity
  8
4
100
AcDbLine
 10
832.9295494671983
 20
1000.994012714472
 30
0.0
 11
832.9295494671983
 21
1009.59048576862
 31
0.0
  0
LINE
  5
193
330
17
100
AcDbEntity
  8
4
100
AcDbLine
 10
852.5594586196453
 20
1009.59048576862
 30
0.0
 11
852.5594586196453
 21
1000.994012714472
 31
0.0
  0
LINE
  5
194
330
17
100
AcDbEntity
  8
4
100
AcDbLine
 10
837.8370267553096
 20
1000.994012714472
 30
0.0
 11
837.8370267553096
 21
1007.09048576862
 31
0.0
  0
ARC
  5
195
330
17
100
AcDbEntity
  8
4
100
AcDbCircle
 10
835.3832881112535
 20
1003.874099697679
 30
0.0
 40
3.783613929059507
100
AcDbArc
 50
229.5701031551782
 51
310.4298968448218
  0
LINE
  5
196
330
17
100
AcDbEntity
  8
4
100
AcDbLine
 10
850.1057199755892
 20
1000.09048576862
 30
0.0
 11
835.3832881112535
 21
1000.09048576862
 31
0.0
  0
ARC
  5
197
330
17
100
AcDbEntity
  8
4
100
AcDbCircle
 10
842.7445040434218
 20
1013.869651066079
 30
0.0
 40
13.77916529745958
100
AcDbArc
 50
249.1359356360807
 51
290.8640643639193
  0
LINE
  5
198
330
17
100
AcDbEntity
  8
4
100
AcDbLine
 10
847.6519813315331
 20
1000.994012714472
 30
0.0
 11
847.6519813315331
 21
1007.09048576862
 31
0.0
  0
LINE
  5
199
330
17
100
AcDbEntity
  8
4
100
AcDbLine
 10
832.9295494671983
 20
1009.59048576862
 30
0.0
 11
852.5594586196453
 21
1009.59048576862
 31
0.0
  0
LINE
  5
19A
330
17
100
AcDbEntity
  8
4
100
AcDbLine
 10
832.9295494671983
 20
1007.09048576862
 30
0.0
 11
852.5594586196453
 21
1007.09048576862
 31
0.0
  0
ARC
  5
19B
330
17
100
AcDbEntity
  8
4
100
AcDbCircle
 10
850.1057199755892
 20
1003.874099697679
 30
0.0
 40
3.783613929059507
100
AcDbArc
 50
229.5701031551782
 51
310.4298968448218
  0
LINE
  5
19C
330
17
100
AcDbEntity
  8
L-CENTER
100
AcDbLine
 10
842.7445040434218
 20
1041.563123216315
 30
0.0
 11
842.7445040434218
 21
997.2225075140391
 31
0.0
  0
LINE
  5
19D
330
17
100
AcDbEntity
  8
L-CENTER
100
AcDbLine
 10
949.5465228214048
 20
1041.563123216315
 30
0.0
 11
949.5465228214048
 21
997.2225075140391
 31
0.0
  0
ARC
  5
19E
330
17
100
AcDbEntity
  8
4
100
AcDbCircle
 10
942.1853068892374
 20
1003.874099697679
 30
0.0
 40
3.783613929059507
100
AcDbArc
 50
229.5701031551782
 51
310.4298968448218
  0
LINE
  5
19F
330
17
100
AcDbEntity
  8
4
100
AcDbLine
 10
959.3614773976283
 20
1007.09048576862
 30
0.0
 11
939.7315682451813
 21
1007.09048576862
 31
0.0
  0
LINE
  5
1A0
330
17
100
AcDbEntity
  8
4
100
AcDbLine
 10
959.3614773976283
 20
1009.59048576862
 30
0.0
 11
939.7315682451813
 21
1009.59048576862
 31
0.0
  0
LINE
  5
1A1
330
17
100
AcDbEntity
  8
4
100
AcDbLine
 10
944.6390455332935
 20
1000.994012714472
 30
0.0
 11
944.6390455332935
 21
1007.09048576862
 31
0.0
  0
ARC
  5
1A2
330
17
100
AcDbEntity
  8
4
100
AcDbCircle
 10
949.5465228214048
 20
1013.869651066079
 30
0.0
 40
13.77916529745958
100
AcDbArc
 50
249.1359356360807
 51
290.8640643639193
  0
LINE
  5
1A3
330
17
100
AcDbEntity
  8
4
100
AcDbLine
 10
942.1853068892374
 20
1000.09048576862
 30
0.0
 11
956.9077387535731
 21
1000.09048576862
 31
0.0
  0
ARC
  5
1A4
330
17
100
AcDbEntity
  8
4
100
AcDbCircle
 10
956.9077387535731
 20
1003.874099697679
 30
0.0
 40
3.783613929059507
100
AcDbArc
 50
229.5701031551782
 51
310.4298968448218
  0
LINE
  5
1A5
330
17
100
AcDbEntity
  8
4
100
AcDbLine
 10
954.454000109517
 20
1000.994012714472
 30
0.0
 11
954.454000109517
 21
1007.09048576862
 31
0.0
  0
LINE
  5
1A6
330
17
100
AcDbEntity
  8
4
100
AcDbLine
 10
939.7315682451813
 20
1009.59048576862
 30
0.0
 11
939.7315682451813
 21
1000.994012714472
 31
0.0
  0
LINE
  5
1A7
330
17
100
AcDbEntity
  8
4
100
AcDbLine
 10
959.3614773976283
 20
1000.994012714472
 30
0.0
 11
959.3614773976283
 21
1009.59048576862
 31
0.0
  0
CIRCLE
  5
1A8
330
17
100
AcDbEntity
  8
4
100
AcDbCircle
 10
575.7775134324129
 20
1166.590485768621
 30
0.0
 40
23.0
  0
LWPOLYLINE
  5
1A9
330
17
100
AcDbEntity
  8
4
100
AcDbPolyline
 90
        6
 70
     1
 43
0.0
 10
598.7775134324129
 20
1166.590485768621
 10
587.2775134324129
 20
1186.509070055662
 10
564.2775134324129
 20
1186.509070055662
 10
552.7775134324129
 20
1166.590485768621
 10
564.2775134324129
 20
1146.671901481579
 10
587.2775134324129
 20
1146.671901481579
  0
LINE
  5
1AA
330
17
100
AcDbEntity
  8
4
100
AcDbLine
 10
777.0275134324129
 20
1142.840485768621
 30
0.0
 11
777.0275134324129
 21
1190.34048576862
 31
0.0
  0
ARC
  5
1AB
330
17
100
AcDbEntity
  8
4
100
AcDbCircle
 10
770.7775134324129
 20
1166.590485768621
 30
0.0
 40
13.5
100
AcDbArc
 50
297.5784679781254
 51
62.42153202187714
  0
LINE
  5
1AC
330
17
100
AcDbEntity
  8
4
100
AcDbLine
 10
764.5275134324129
 20
1142.840485768621
 30
0.0
 11
764.5275134324129
 21
1190.34048576862
 31
0.0
  0
ARC
  5
1AD
330
17
100
AcDbEntity
  8
4
100
AcDbCircle
 10
770.7775134324129
 20
1142.840485768621
 30
0.0
 40
6.25
100
AcDbArc
 50
180.0
 51
0.0
  0
ARC
  5
1AE
330
17
100
AcDbEntity
  8
4
100
AcDbCircle
 10
770.7775134324129
 20
1190.34048576862
 30
0.0
 40
6.25
100
AcDbArc
 50
0.0
 51
180.0
  0
ARC
  5
1AF
330
17
100
AcDbEntity
  8
4
100
AcDbCircle
 10
770.7775134324129
 20
1166.590485768621
 30
0.0
 40
15.0
100
AcDbArc
 50
294.6243183521658
 51
65.37568164783578
  0
ARC
  5
1B0
330
17
100
AcDbEntity
  8
4
100
AcDbCircle
 10
770.7775134324129
 20
1166.590485768621
 30
0.0
 40
13.5
100
AcDbArc
 50
117.5784679781212
 51
242.4215320218788
  0
ARC
  5
1B1
330
17
100
AcDbEntity
  8
4
100
AcDbCircle
 10
770.7775134324129
 20
1166.590485768621
 30
0.0
 40
15.0
100
AcDbArc
 50
114.6243183521615
 51
245.3756816478377
  0
LINE
  5
1B2
330
17
100
AcDbEntity
  8
4
100
AcDbLine
 10
1127.37398648656
 20
1078.140200123033
 30
0.0
 11
1118.777513432413
 21
1078.140200123033
 31
0.0
  0
LINE
  5
1B3
330
17
100
AcDbEntity
  8
4
100
AcDbLine
 10
1127.37398648656
 20
1063.417768258698
 30
0.0
 11
1121.277513432413
 21
1063.417768258698
 31
0.0
  0
LINE
  5
1B4
330
17
100
AcDbEntity
  8
4
100
AcDbLine
 10
1127.37398648656
 20
1073.232722834922
 30
0.0
 11
1121.277513432413
 21
1073.232722834922
 31
0.0
  0
LINE
  5
1B5
330
17
100
AcDbEntity
  8
4
100
AcDbLine
 10
1118.777513432413
 20
1058.510290970586
 30
0.0
 11
1127.37398648656
 21
1058.510290970586
 31
0.0
  0
LINE
  5
1B6
330
17
100
AcDbEntity
  8
L-CENTER
100
AcDbLine
 10
1086.804875984717
 20
1068.32524554681
 30
0.0
 11
1131.145491686993
 21
1068.32524554681
 31
0.0
  0
LINE
  5
1B7
330
17
100
AcDbEntity
  8
4
100
AcDbLine
 10
1121.277513432413
 20
1078.140200123033
 30
0.0
 11
1121.277513432413
 21
1058.510290970586
 31
0.0
  0
ARC
  5
1B8
330
17
100
AcDbEntity
  8
4
100
AcDbCircle
 10
1124.493899503354
 20
1075.686461478978
 30
0.0
 40
3.783613929059507
100
AcDbArc
 50
319.5701031551782
 51
40.42989684482174
  0
ARC
  5
1B9
330
17
100
AcDbEntity
  8
4
100
AcDbCircle
 10
1124.493899503354
 20
1060.964029614642
 30
0.0
 40
3.783613929059507
100
AcDbArc
 50
319.5701031551782
 51
40.42989684482174
  0
ARC
  5
1BA
330
17
100
AcDbEntity
  8
4
100
AcDbCircle
 10
1114.498348134954
 20
1068.32524554681
 30
0.0
 40
13.77916529745958
100
AcDbArc
 50
339.1359356360808
 51
20.86406436391924
  0
LINE
  5
1BB
330
17
100
AcDbEntity
  8
4
100
AcDbLine
 10
1128.277513432413
 20
1060.964029614642
 30
0.0
 11
1128.277513432413
 21
1075.686461478978
 31
0.0
  0
LINE
  5
1BC
330
17
100
AcDbEntity
  8
L-CENTER
100
AcDbLine
 10
1086.804875984717
 20
1170.855725990431
 30
0.0
 11
1131.145491686993
 21
1170.855725990431
 31
0.0
  0
LINE
  5
1BD
330
17
100
AcDbEntity
  8
4
100
AcDbLine
 10
1118.777513432413
 20
1180.670680566655
 30
0.0
 11
1127.37398648656
 21
1180.670680566655
 31
0.0
  0
LINE
  5
1BE
330
17
100
AcDbEntity
  8
4
100
AcDbLine
 10
1127.37398648656
 20
1165.948248702319
 30
0.0
 11
1121.277513432413
 21
1165.948248702319
 31
0.0
  0
LINE
  5
1BF
330
17
100
AcDbEntity
  8
4
100
AcDbLine
 10
1127.37398648656
 20
1175.763203278543
 30
0.0
 11
1121.277513432413
 21
1175.763203278543
 31
0.0
  0
LINE
  5
1C0
330
17
100
AcDbEntity
  8
4
100
AcDbLine
 10
1128.277513432413
 20
1178.216941922599
 30
0.0
 11
1128.277513432413
 21
1163.494510058263
 31
0.0
  0
ARC
  5
1C1
330
17
100
AcDbEntity
  8
4
100
AcDbCircle
 10
1114.498348134954
 20
1170.855725990431
 30
0.0
 40
13.77916529745958
100
AcDbArc
 50
339.1359356360808
 51
20.86406436391924
  0
ARC
  5
1C2
330
17
100
AcDbEntity
  8
4
100
AcDbCircle
 10
1124.493899503354
 20
1178.216941922599
 30
0.0
 40
3.783613929059507
100
AcDbArc
 50
319.5701031551782
 51
40.42989684482174
  0
LINE
  5
1C3
330
17
100
AcDbEntity
  8
4
100
AcDbLine
 10
1127.37398648656
 20
1161.040771414208
 30
0.0
 11
1118.777513432413
 21
1161.040771414208
 31
0.0
  0
LINE
  5
1C4
330
17
100
AcDbEntity
  8
4
100
AcDbLine
 10
1121.277513432413
 20
1161.040771414208
 30
0.0
 11
1121.277513432413
 21
1180.670680566655
 31
0.0
  0
LINE
  5
1C5
330
17
100
AcDbEntity
  8
L-CENTER
100
AcDbLine
 10
454.7501508801088
 20
1068.32524554681
 30
0.0
 11
410.4095351778324
 21
1068.32524554681
 31
0.0
  0
LINE
  5
1C6
330
17
100
AcDbEntity
  8
4
100
AcDbLine
 10
413.2775134324129
 20
1060.964029614642
 30
0.0
 11
413.2775134324129
 21
1075.686461478978
 31
0.0
  0
ARC
  5
1C7
330
17
100
AcDbEntity
  8
4
100
AcDbCircle
 10
427.0566787298721
 20
1068.32524554681
 30
0.0
 40
13.77916529745958
100
AcDbArc
 50
159.1359356360806
 51
200.8640643639194
  0
ARC
  5
1C8
330
17
100
AcDbEntity
  8
4
100
AcDbCircle
 10
417.0611273614722
 20
1060.964029614642
 30
0.0
 40
3.783613929059507
100
AcDbArc
 50
139.5701031551777
 51
220.4298968448223
  0
ARC
  5
1C9
330
17
100
AcDbEntity
  8
4
100
AcDbCircle
 10
417.0611273614722
 20
1075.686461478978
 30
0.0
 40
3.783613929059507
100
AcDbArc
 50
139.5701031551777
 51
220.4298968448223
  0
LINE
  5
1CA
330
17
100
AcDbEntity
  8
4
100
AcDbLine
 10
420.2775134324129
 20
1078.140200123033
 30
0.0
 11
420.2775134324129
 21
1058.510290970586
 31
0.0
  0
LINE
  5
1CB
330
17
100
AcDbEntity
  8
4
100
AcDbLine
 10
422.7775134324129
 20
1058.510290970586
 30
0.0
 11
414.1810403782656
 21
1058.510290970586
 31
0.0
  0
LINE
  5
1CC
330
17
100
AcDbEntity
  8
4
100
AcDbLine
 10
414.1810403782656
 20
1073.232722834922
 30
0.0
 11
420.2775134324129
 21
1073.232722834922
 31
0.0
  0
LINE
  5
1CD
330
17
100
AcDbEntity
  8
4
100
AcDbLine
 10
414.1810403782656
 20
1063.417768258698
 30
0.0
 11
420.2775134324129
 21
1063.417768258698
 31
0.0
  0
LINE
  5
1CE
330
17
100
AcDbEntity
  8
4
100
AcDbLine
 10
414.1810403782656
 20
1078.140200123033
 30
0.0
 11
422.7775134324129
 21
1078.140200123033
 31
0.0
  0
LINE
  5
1CF
330
17
100
AcDbEntity
  8
L-CENTER
100
AcDbLine
 10
454.7501508801088
 20
1170.855725990431
 30
0.0
 11
410.4095351778324
 21
1170.855725990431
 31
0.0
  0
ARC
  5
1D0
330
17
100
AcDbEntity
  8
4
100
AcDbCircle
 10
417.0611273614722
 20
1178.216941922599
 30
0.0
 40
3.783613929059507
100
AcDbArc
 50
139.5701031551777
 51
220.4298968448223
  0
ARC
  5
1D1
330
17
100
AcDbEntity
  8
4
100
AcDbCircle
 10
427.0566787298721
 20
1170.855725990431
 30
0.0
 40
13.77916529745958
100
AcDbArc
 50
159.1359356360806
 51
200.8640643639194
  0
LINE
  5
1D2
330
17
100
AcDbEntity
  8
4
100
AcDbLine
 10
413.2775134324129
 20
1178.216941922599
 30
0.0
 11
413.2775134324129
 21
1163.494510058263
 31
0.0
  0
ARC
  5
1D3
330
17
100
AcDbEntity
  8
4
100
AcDbCircle
 10
417.0611273614722
 20
1163.494510058263
 30
0.0
 40
3.783613929059507
100
AcDbArc
 50
139.5701031551777
 51
220.4298968448223
  0
LINE
  5
1D4
330
17
100
AcDbEntity
  8
4
100
AcDbLine
 10
420.2775134324129
 20
1161.040771414208
 30
0.0
 11
420.2775134324129
 21
1180.670680566655
 31
0.0
  0
LINE
  5
1D5
330
17
100
AcDbEntity
  8
4
100
AcDbLine
 10
422.7775134324129
 20
1161.040771414208
 30
0.0
 11
422.7775134324129
 21
1180.670680566655
 31
0.0
  0
LINE
  5
1D6
330
17
100
AcDbEntity
  8
4
100
AcDbLine
 10
414.1810403782656
 20
1175.763203278543
 30
0.0
 11
420.2775134324129
 21
1175.763203278543
 31
0.0
  0
LINE
  5
1D7
330
17
100
AcDbEntity
  8
4
100
AcDbLine
 10
414.1810403782656
 20
1165.948248702319
 30
0.0
 11
420.2775134324129
 21
1165.948248702319
 31
0.0
  0
LINE
  5
1D8
330
17
100
AcDbEntity
  8
4
100
AcDbLine
 10
422.7775134324129
 20
1180.670680566655
 30
0.0
 11
414.1810403782656
 21
1180.670680566655
 31
0.0
  0
LINE
  5
1D9
330
17
100
AcDbEntity
  8
4
100
AcDbLine
 10
414.1810403782656
 20
1161.040771414208
 30
0.0
 11
422.7775134324129
 21
1161.040771414208
 31
0.0
  0
LINE
  5
4D8
330
17
100
AcDbEntity
  8
L-CENTER
100
AcDbLine
 10
770.4934114324133
 20
42.60333531734875
 30
0.0
 11
770.4934114324133
 21
774.2270566701418
 31
0.0
  0
LINE
  5
4D9
330
17
100
AcDbEntity
  8
4
100
AcDbLine
 10
439.4934154324133
 20
377.7917693173488
 30
0.0
 11
439.4934154324133
 21
44.79176931734878
 31
0.0
  0
LINE
  5
4DA
330
17
100
AcDbEntity
  8
4
100
AcDbLine
 10
1101.493407432413
 20
377.7917693173488
 30
0.0
 11
1101.493407432413
 21
44.79176931734878
 31
0.0
  0
CIRCLE
  5
4DB
330
17
100
AcDbEntity
  8
4
100
AcDbCircle
 10
770.4934114324133
 20
377.7917693173488
 30
0.0
 40
315.0
  0
LINE
  5
4DC
330
17
100
AcDbEntity
  8
L-CENTER
100
AcDbLine
 10
515.4934114324133
 20
24.79176931734878
 30
0.0
 11
515.4934114324133
 21
104.7917713173488
 31
0.0
  0
LINE
  5
4DD
330
17
100
AcDbEntity
  8
4
100
AcDbLine
 10
609.493413432413
 20
81.79177131734878
 30
0.0
 11
609.493413432413
 21
44.79176931734878
 31
0.0
  0
LINE
  5
4DE
330
17
100
AcDbEntity
  8
4
100
AcDbLine
 10
589.4934094324135
 20
81.79177131734878
 30
0.0
 11
589.4934094324135
 21
44.79176931734878
 31
0.0
  0
LINE
  5
4DF
330
17
100
AcDbEntity
  8
L-CENTER
100
AcDbLine
 10
1025.493411432413
 20
24.79176931734878
 30
0.0
 11
1025.493411432413
 21
104.7917713173488
 31
0.0
  0
LINE
  5
4E0
330
17
100
AcDbEntity
  8
4
100
AcDbLine
 10
951.4934134324133
 20
81.79177131734878
 30
0.0
 11
951.4934134324133
 21
44.79176931734878
 31
0.0
  0
LINE
  5
4E1
330
17
100
AcDbEntity
  8
4
100
AcDbLine
 10
931.4934094324133
 20
81.79177131734878
 30
0.0
 11
931.4934094324133
 21
44.79176931734878
 31
0.0
  0
LINE
  5
4E5
330
17
100
AcDbEntity
  8
4
100
AcDbLine
 10
609.493413432413
 20
44.79176931734878
 30
0.0
 11
439.4934154324133
 21
44.79176931734878
 31
0.0
  0
LINE
  5
511
330
17
100
AcDbEntity
  8
4
100
AcDbLine
 10
931.4934094324133
 20
44.79176931734878
 30
0.0
 11
1101.493407432413
 21
44.79176931734878
 31
0.0
  0
LINE
  5
533
330
17
100
AcDbEntity
  8
4
100
AcDbLine
 10
615.493413432413
 20
56.79176931734878
 30
0.0
 11
925.4934094324133
 21
56.79176931734878
 31
0.0
  0
ARC
  5
537
330
17
100
AcDbEntity
  8
4
100
AcDbCircle
 10
615.493413432413
 20
50.79176931734878
 30
0.0
 40
6.0
100
AcDbArc
 50
90.0
 51
180.0
  0
ARC
  5
539
330
17
100
AcDbEntity
  8
4
100
AcDbCircle
 10
925.4934094324133
 20
50.79176931734878
 30
0.0
 40
6.0
100
AcDbArc
 50
0.0
 51
90.0
  0
LINE
  5
541
330
17
100
AcDbEntity
  8
L-CENTER
100
AcDbLine
 10
1242.005371449123
 20
184.7917673173488
 30
0.0
 11
415.1207180505111
 21
184.7917673173489
 31
0.0
  0
ARC
  5
542
330
17
100
AcDbEntity
  8
4
100
AcDbCircle
 10
770.4934114324133
 20
377.7917693173488
 30
0.0
 40
285.000018
100
AcDbArc
 50
273.988196
 51
266.012937
  0
LINE
  5
543
330
17
100
AcDbEntity
  8
4
100
AcDbLine
 10
442.4934154324133
 20
84.79177131734878
 30
0.0
 11
606.493413432413
 21
84.79177131734878
 31
0.0
  0
LINE
  5
544
330
17
100
AcDbEntity
  8
4
100
AcDbLine
 10
461.4934114324133
 20
109.7917673173488
 30
0.0
 11
604.9609414324132
 21
109.7917673173488
 31
0.0
  0
LINE
  5
545
330
17
100
AcDbEntity
  8
4
100
AcDbLine
 10
461.4934114324133
 20
112.7917673173488
 30
0.0
 11
600.1994674324133
 21
112.7917673173488
 31
0.0
  0
LINE
  5
546
330
17
100
AcDbEntity
  8
L-CENTER
100
AcDbLine
 10
426.5957044690904
 20
377.7917693173488
 30
0.0
 11
1114.391118395736
 21
377.7917693173488
 31
0.0
  0
ARC
  5
547
330
17
100
AcDbEntity
  8
4
100
AcDbCircle
 10
770.4934114324133
 20
-470.2082286826512
 30
0.0
 40
1000.000008
100
AcDbArc
 50
74.95685300000001
 51
105.043554
  0
ARC
  5
548
330
17
100
AcDbEntity
  8
4
100
AcDbCircle
 10
770.4934114324133
 20
-801.2082306826512
 30
0.0
 40
1499.99997
100
AcDbArc
 50
78.53761300000001
 51
101.462408
  0
LINE
  5
549
330
17
100
AcDbEntity
  8
L-CENTER
100
AcDbLine
 10
810.0671434324133
 20
367.7917673173488
 30
0.0
 11
538.2238834324132
 21
367.7917673173488
 31
0.0
  0
ARC
  5
54A
330
17
100
AcDbEntity
  8
4
100
AcDbCircle
 10
770.4934114324133
 20
1205.791763317349
 30
0.0
 40
999.9999360000002
100
AcDbArc
 50
255.654203
 51
268.888258
  0
LINE
  5
54B
330
17
100
AcDbEntity
  8
4
100
AcDbLine
 10
552.493413432413
 20
692.6272133173488
 30
0.0
 11
598.4934094324135
 21
692.6272133173488
 31
0.0
  0
LINE
  5
54C
330
17
100
AcDbEntity
  8
4
100
AcDbLine
 10
552.493413432413
 20
696.6272153173488
 30
0.0
 11
598.4934094324135
 21
696.6272153173488
 31
0.0
  0
LINE
  5
54D
330
17
100
AcDbEntity
  8
4
100
AcDbLine
 10
552.493413432413
 20
701.6272133173488
 30
0.0
 11
598.4934094324135
 21
701.6272133173488
 31
0.0
  0
LINE
  5
54E
330
17
100
AcDbEntity
  8
4
100
AcDbLine
 10
600.493413432413
 20
691.1272133173488
 30
0.0
 11
550.4934094324135
 21
691.1272133173488
 31
0.0
  0
ARC
  5
550
330
17
100
AcDbEntity
  8
4
100
AcDbCircle
 10
1939.493409432413
 20
377.7915233173487
 30
0.0
 40
1500.000018
100
AcDbArc
 50
169.026148
 51
180.0004010010402
  0
LINE
  5
551
330
17
100
AcDbEntity
  8
4
100
AcDbLine
 10
434.4934114324133
 20
112.7917673173488
 30
0.0
 11
434.4934114324133
 21
256.7917673173488
 31
0.0
  0
LINE
  5
552
330
17
100
AcDbEntity
  8
4
100
AcDbLine
 10
422.4934114324133
 20
255.7917653173488
 30
0.0
 11
422.4934114324133
 21
113.7917693173488
 31
0.0
  0
ARC
  5
553
330
17
100
AcDbEntity
  8
4
100
AcDbCircle
 10
442.4934154324133
 20
81.79177131734878
 30
0.0
 40
3.0
100
AcDbArc
 50
90.0
 51
180.0
  0
ARC
  5
554
330
17
100
AcDbEntity
  8
4
100
AcDbCircle
 10
436.4934154324133
 20
109.7917673173488
 30
0.0
 40
3.0
100
AcDbArc
 50
0.0
 51
90.0
  0
LINE
  5
555
330
17
100
AcDbEntity
  8
4
100
AcDbLine
 10
434.4934114324133
 20
112.7917673173488
 30
0.0
 11
436.4934154324133
 21
112.7917673173488
 31
0.0
  0
ARC
  5
556
330
17
100
AcDbEntity
  8
4
100
AcDbCircle
 10
423.493413432413
 20
113.7917693173488
 30
0.0
 40
1.000002
100
AcDbArc
 50
180.0
 51
270.0
  0
LINE
  5
557
330
17
100
AcDbEntity
  8
4
100
AcDbLine
 10
423.493413432413
 20
112.7917673173488
 30
0.0
 11
434.4934114324133
 21
112.7917673173488
 31
0.0
  0
LINE
  5
558
330
17
100
AcDbEntity
  8
4
100
AcDbLine
 10
461.4934114324133
 20
92.79176931734878
 30
0.0
 11
461.4934114324133
 21
184.7917673173488
 31
0.0
  0
ARC
  5
559
330
17
100
AcDbEntity
  8
4
100
AcDbCircle
 10
469.4934094324135
 20
92.79176931734878
 30
0.0
 40
7.999998000000001
100
AcDbArc
 50
180.0
 51
270.0
  0
ARC
  5
55A
330
17
100
AcDbEntity
  8
4
100
AcDbCircle
 10
465.493413432413
 20
184.7917673173488
 30
0.0
 40
4.000002
100
AcDbArc
 50
90.0
 51
180.0
  0
LINE
  5
55B
330
17
100
AcDbEntity
  8
4
100
AcDbLine
 10
469.6662634324134
 20
259.7917673173488
 30
0.0
 11
439.4934154324133
 21
259.7917673173488
 31
0.0
  0
LINE
  5
55C
330
17
100
AcDbEntity
  8
4
100
AcDbLine
 10
470.8002994324133
 20
256.7917673173488
 30
0.0
 11
439.4934154324133
 21
256.7917673173488
 31
0.0
  0
ARC
  5
55D
330
17
100
AcDbEntity
  8
4
100
AcDbCircle
 10
436.4934154324133
 20
259.7917673173488
 30
0.0
 40
3.0
100
AcDbArc
 50
270.0
 51
0.0
  0
LINE
  5
55E
330
17
100
AcDbEntity
  8
4
100
AcDbLine
 10
434.4934114324133
 20
256.7917673173488
 30
0.0
 11
436.4934154324133
 21
256.7917673173488
 31
0.0
  0
ARC
  5
55F
330
17
100
AcDbEntity
  8
4
100
AcDbCircle
 10
423.493413432413
 20
255.7917653173488
 30
0.0
 40
1.000002
100
AcDbArc
 50
90.0
 51
180.0
  0
LINE
  5
560
330
17
100
AcDbEntity
  8
4
100
AcDbLine
 10
423.493413432413
 20
256.7917673173488
 30
0.0
 11
434.4934114324133
 21
256.7917673173488
 31
0.0
  0
ARC
  5
561
330
17
100
AcDbEntity
  8
4
100
AcDbCircle
 10
470.8002994324133
 20
262.7917673173488
 30
0.0
 40
6.000005999999999
100
AcDbArc
 50
270.0
 51
20.99181699999964
  0
ARC
  5
562
330
17
100
AcDbEntity
  8
4
100
AcDbCircle
 10
469.6662634324134
 20
265.7917673173488
 30
0.0
 40
5.999946
100
AcDbArc
 50
270.0
 51
20.4215229999994
  0
ARC
  5
563
330
17
100
AcDbEntity
  8
4
100
AcDbCircle
 10
473.7968794324133
 20
662.0141753173489
 30
0.0
 40
7.000044
100
AcDbArc
 50
101.46278
 51
169.0243550000008
  0
LINE
  5
564
330
17
100
AcDbEntity
  8
4
100
AcDbLine
 10
552.493413432413
 20
692.6272133173488
 30
0.0
 11
552.493413432413
 21
701.6272133173488
 31
0.0
  0
LINE
  5
565
330
17
100
AcDbEntity
  8
4
100
AcDbLine
 10
550.4934094324135
 20
682.5708173173489
 30
0.0
 11
550.4934094324135
 21
691.1272133173488
 31
0.0
  0
ARC
  5
569
330
17
100
AcDbEntity
  8
4
100
AcDbCircle
 10
-398.5065865675865
 20
377.7915233173487
 30
0.0
 40
1499.999976
100
AcDbArc
 50
0.0000089950635202
 51
10.97442300000002
  0
LINE
  5
56D
330
17
100
AcDbEntity
  8
4
100
AcDbLine
 10
1079.493411432413
 20
112.7917673173488
 30
0.0
 11
940.7873554324133
 21
112.7917673173488
 31
0.0
  0
LINE
  5
56E
330
17
100
AcDbEntity
  8
4
100
AcDbLine
 10
1079.493411432413
 20
109.7917673173488
 30
0.0
 11
936.0258814324134
 21
109.7917673173488
 31
0.0
  0
LINE
  5
56F
330
17
100
AcDbEntity
  8
4
100
AcDbLine
 10
1098.493407432413
 20
84.79177131734878
 30
0.0
 11
934.4934094324133
 21
84.79177131734878
 31
0.0
  0
LINE
  5
570
330
17
100
AcDbEntity
  8
L-CENTER
100
AcDbLine
 10
1007.528079432413
 20
384.7917653173488
 30
0.0
 11
783.4587394324133
 21
384.7917653173488
 31
0.0
  0
ARC
  5
571
330
17
100
AcDbEntity
  8
4
100
AcDbCircle
 10
770.4934114324133
 20
1205.791763317349
 30
0.0
 40
1000.000038
100
AcDbArc
 50
271.112777
 51
284.346835
  0
CIRCLE
  5
572
330
17
100
AcDbEntity
  8
4
100
AcDbCircle
 10
895.4934094324133
 20
384.7917653173488
 30
0.0
 40
90.0
  0
CIRCLE
  5
573
330
17
100
AcDbEntity
  8
L-CENTER
100
AcDbCircle
 10
895.4934094324133
 20
384.7917653173488
 30
0.0
 40
75.0
  0
CIRCLE
  5
574
330
17
100
AcDbEntity
  8
4
100
AcDbCircle
 10
895.4934094324133
 20
384.7917653173488
 30
0.0
 40
52.5
  0
LINE
  5
575
330
17
100
AcDbEntity
  8
L-CENTER
100
AcDbLine
 10
674.1455134324133
 20
503.7133973173488
 30
0.0
 11
674.1455134324133
 21
231.8701373173487
 31
0.0
  0
CIRCLE
  5
576
330
17
100
AcDbEntity
  8
L-CENTER
100
AcDbCircle
 10
674.1455134324133
 20
367.7917673173488
 30
0.0
 40
100.000002
  0
CIRCLE
  5
577
330
17
100
AcDbEntity
  8
4
100
AcDbCircle
 10
674.1455134324133
 20
367.7917673173488
 30
0.0
 40
115.000002
  0
CIRCLE
  5
578
330
17
100
AcDbEntity
  8
4
100
AcDbCircle
 10
674.1455134324133
 20
367.7917673173488
 30
0.0
 40
75.0
  0
LINE
  5
579
330
17
100
AcDbEntity
  8
L-CENTER
100
AcDbLine
 10
895.4934094324133
 20
496.8264353173488
 30
0.0
 11
895.4934094324133
 21
272.7570953173488
 31
0.0
  0
LINE
  5
57A
330
17
100
AcDbEntity
  8
L-CENTER
100
AcDbLine
 10
746.8648414324134
 20
90.79177131734878
 30
0.0
 11
794.1219814324131
 21
90.79177131734878
 31
0.0
  0
ARC
  5
57B
330
17
100
AcDbEntity
  8
4
100
AcDbCircle
 10
770.4934114324133
 20
90.79177131734878
 30
0.0
 40
20.000064
100
AcDbArc
 50
7.729509999999903
 51
172.2711849999999
  0
CIRCLE
  5
57C
330
17
100
AcDbEntity
  8
2
100
AcDbCircle
 10
770.4934114324133
 20
90.79177131734878
 30
0.0
 40
8.331054
  0
LINE
  5
57D
330
17
100
AcDbEntity
  8
2
100
AcDbLine
 10
764.2785394324133
 20
87.20353731734883
 30
0.0
 11
770.4934114324133
 21
83.61541131734873
 31
0.0
  0
LINE
  5
57E
330
17
100
AcDbEntity
  8
2
100
AcDbLine
 10
770.4934114324133
 20
97.96812531734872
 30
0.0
 11
764.2785394324133
 21
94.37999931734885
 31
0.0
  0
LINE
  5
57F
330
17
100
AcDbEntity
  8
L-CENTER
100
AcDbLine
 10
800.9961381590434
 20
210.7917653173488
 30
0.0
 11
739.9906847057831
 21
210.7917653173488
 31
0.0
  0
CIRCLE
  5
580
330
17
100
AcDbEntity
  8
4
100
AcDbCircle
 10
770.4934114324133
 20
210.7917653173488
 30
0.0
 40
18.0
  0
LINE
  5
581
330
17
100
AcDbEntity
  8
4
100
AcDbLine
 10
770.4934114324133
 20
228.7917653173488
 30
0.0
 11
754.9047874324133
 21
219.7917653173488
 31
0.0
  0
LINE
  5
582
330
17
100
AcDbEntity
  8
4
100
AcDbLine
 10
754.9047874324133
 20
201.7917653173488
 30
0.0
 11
770.4934114324133
 21
192.7917653173488
 31
0.0
  0
CIRCLE
  5
583
330
17
100
AcDbEntity
  8
4
100
AcDbCircle
 10
770.4934114324133
 20
210.7917653173488
 30
0.0
 40
19.999998
  0
ARC
  5
584
330
17
100
AcDbEntity
  8
4
100
AcDbCircle
 10
586.4934094324135
 20
81.79177131734878
 30
0.0
 40
3.0
100
AcDbArc
 50
0.0
 51
90.0
  0
ARC
  5
585
330
17
100
AcDbEntity
  8
4
100
AcDbCircle
 10
606.493413432413
 20
81.79177131734878
 30
0.0
 40
3.0
100
AcDbArc
 50
0.0
 51
90.0
  0
LINE
  5
586
330
17
100
AcDbEntity
  8
2
100
AcDbLine
 10
764.2785394324133
 20
94.37999931734885
 30
0.0
 11
764.2785394324133
 21
87.20353731734883
 31
0.0
  0
LINE
  5
587
330
17
100
AcDbEntity
  8
4
100
AcDbLine
 10
754.9047874324133
 20
201.7917653173488
 30
0.0
 11
754.9047874324133
 21
219.7917653173488
 31
0.0
  0
LINE
  5
588
330
17
100
AcDbEntity
  8
L-CENTER
100
AcDbLine
 10
588.9241779857206
 20
282.5706770424998
 30
0.0
 11
617.9454546290802
 21
311.5919598422228
 31
0.0
  0
CIRCLE
  5
589
330
17
100
AcDbEntity
  8
4
100
AcDbCircle
 10
603.4348174324132
 20
297.0813173173487
 30
0.0
 40
8.660154
  0
LINE
  5
58A
330
17
100
AcDbEntity
  8
4
100
AcDbLine
 10
613.0939954324131
 20
294.4934273173487
 30
0.0
 11
606.0231994324131
 21
287.4221393173488
 31
0.0
  0
LINE
  5
58B
330
17
100
AcDbEntity
  8
4
100
AcDbLine
 10
596.3640154324135
 20
290.0100293173488
 30
0.0
 11
593.7756394324133
 21
299.6692073173488
 31
0.0
  0
LINE
  5
58C
330
17
100
AcDbEntity
  8
4
100
AcDbLine
 10
606.0231994324131
 20
287.4221393173488
 30
0.0
 11
596.3640154324135
 21
290.0100293173488
 31
0.0
  0
LINE
  5
58D
330
17
100
AcDbEntity
  8
4
100
AcDbLine
 10
600.8464414324135
 20
306.7405013173488
 30
0.0
 11
610.5058654324134
 21
304.1526053173488
 31
0.0
  0
LINE
  5
58E
330
17
100
AcDbEntity
  8
4
100
AcDbLine
 10
593.7756394324133
 20
299.6692073173488
 30
0.0
 11
600.8464414324135
 21
306.7405013173488
 31
0.0
  0
LINE
  5
58F
330
17
100
AcDbEntity
  8
4
100
AcDbLine
 10
610.5058654324134
 20
304.1526053173488
 30
0.0
 11
613.0939954324131
 21
294.4934273173487
 31
0.0
  0
LINE
  5
590
330
17
100
AcDbEntity
  8
L-CENTER
100
AcDbLine
 10
759.3669558259453
 20
282.5705709238166
 30
0.0
 11
730.3456761044038
 21
311.5918506453584
 31
0.0
  0
CIRCLE
  5
591
330
17
100
AcDbEntity
  8
4
100
AcDbCircle
 10
744.8562034324132
 20
297.0813173173487
 30
0.0
 40
8.660154
  0
LINE
  5
592
330
17
100
AcDbEntity
  8
4
100
AcDbLine
 10
754.5153814324133
 20
299.6692073173488
 30
0.0
 11
751.9270054324134
 21
290.0100293173488
 31
0.0
  0
LINE
  5
593
330
17
100
AcDbEntity
  8
4
100
AcDbLine
 10
742.2678274324132
 20
287.4221393173488
 30
0.0
 11
735.1970254324133
 21
294.4934273173487
 31
0.0
  0
LINE
  5
594
330
17
100
AcDbEntity
  8
4
100
AcDbLine
 10
751.9270054324134
 20
290.0100293173488
 30
0.0
 11
742.2678274324132
 21
287.4221393173488
 31
0.0
  0
LINE
  5
595
330
17
100
AcDbEntity
  8
4
100
AcDbLine
 10
737.7851614324131
 20
304.1526053173488
 30
0.0
 11
747.4445854324133
 21
306.7405013173488
 31
0.0
  0
LINE
  5
596
330
17
100
AcDbEntity
  8
4
100
AcDbLine
 10
735.1970254324133
 20
294.4934273173487
 30
0.0
 11
737.7851614324131
 21
304.1526053173488
 31
0.0
  0
LINE
  5
597
330
17
100
AcDbEntity
  8
4
100
AcDbLine
 10
747.4445854324133
 20
306.7405013173488
 30
0.0
 11
754.5153814324133
 21
299.6692073173488
 31
0.0
  0
LINE
  5
598
330
17
100
AcDbEntity
  8
4
100
AcDbLine
 10
786.0817894324132
 20
219.7917653173488
 30
0.0
 11
770.4934114324133
 21
228.7917653173488
 31
0.0
  0
LINE
  5
599
330
17
100
AcDbEntity
  8
2
100
AcDbLine
 10
776.7082834324133
 20
87.20353731734883
 30
0.0
 11
770.4934114324133
 21
83.61541131734873
 31
0.0
  0
LINE
  5
59A
330
17
100
AcDbEntity
  8
2
100
AcDbLine
 10
776.7082834324133
 20
94.37999931734885
 30
0.0
 11
776.7082834324133
 21
87.20353731734883
 31
0.0
  0
LINE
  5
59B
330
17
100
AcDbEntity
  8
2
100
AcDbLine
 10
770.4934114324133
 20
97.96812531734872
 30
0.0
 11
776.7082834324133
 21
94.37999931734885
 31
0.0
  0
LINE
  5
59C
330
17
100
AcDbEntity
  8
4
100
AcDbLine
 10
770.4934114324133
 20
192.7917653173488
 30
0.0
 11
786.0817894324132
 21
201.7917653173488
 31
0.0
  0
LINE
  5
59D
330
17
100
AcDbEntity
  8
4
100
AcDbLine
 10
786.0817894324132
 20
201.7917653173488
 30
0.0
 11
786.0817894324132
 21
219.7917653173488
 31
0.0
  0
ARC
  5
59E
330
17
100
AcDbEntity
  8
4
100
AcDbCircle
 10
954.4934134324133
 20
81.79177131734878
 30
0.0
 40
3.0
100
AcDbArc
 50
90.0
 51
180.0
  0
ARC
  5
59F
330
17
100
AcDbEntity
  8
4
100
AcDbCircle
 10
934.4934094324133
 20
81.79177131734878
 30
0.0
 40
3.0
100
AcDbArc
 50
90.0
 51
180.0
  0
LINE
  5
5A0
330
17
100
AcDbEntity
  8
L-CENTER
100
AcDbLine
 10
827.9498135716424
 20
317.2481694565779
 30
0.0
 11
856.9710932931839
 21
346.2694491781197
 31
0.0
  0
CIRCLE
  5
5A1
330
17
100
AcDbEntity
  8
4
100
AcDbCircle
 10
842.4604534324133
 20
331.7588093173488
 30
0.0
 40
8.660154
  0
LINE
  5
5A2
330
17
100
AcDbEntity
  8
4
100
AcDbLine
 10
852.1196314324131
 20
329.1709193173488
 30
0.0
 11
845.0488294324132
 21
322.0996313173489
 31
0.0
  0
LINE
  5
5A3
330
17
100
AcDbEntity
  8
4
100
AcDbLine
 10
835.3896514324133
 20
324.6875213173487
 30
0.0
 11
832.8012694324134
 21
334.3466993173488
 31
0.0
  0
LINE
  5
5A4
330
17
100
AcDbEntity
  8
4
100
AcDbLine
 10
845.0488294324132
 20
322.0996313173489
 30
0.0
 11
835.3896514324133
 21
324.6875213173487
 31
0.0
  0
LINE
  5
5A5
330
17
100
AcDbEntity
  8
4
100
AcDbLine
 10
839.8720714324131
 20
341.4179873173489
 30
0.0
 11
849.5314954324133
 21
338.8300973173486
 31
0.0
  0
LINE
  5
5A6
330
17
100
AcDbEntity
  8
4
100
AcDbLine
 10
832.8012694324134
 20
334.3466993173488
 30
0.0
 11
839.8720714324131
 21
341.4179873173489
 31
0.0
  0
LINE
  5
5A7
330
17
100
AcDbEntity
  8
4
100
AcDbLine
 10
849.5314954324133
 20
338.8300973173486
 30
0.0
 11
852.1196314324131
 21
329.1709193173488
 31
0.0
  0
LINE
  5
5A8
330
17
100
AcDbEntity
  8
L-CENTER
100
AcDbLine
 10
963.0370078515036
 20
317.2481660148985
 30
0.0
 11
934.0157314133335
 21
346.2694490198105
 31
0.0
  0
CIRCLE
  5
5A9
330
17
100
AcDbEntity
  8
4
100
AcDbCircle
 10
948.5263714324133
 20
331.7588093173488
 30
0.0
 40
8.660154
  0
LINE
  5
5AA
330
17
100
AcDbEntity
  8
4
100
AcDbLine
 10
958.1855494324132
 20
334.3466993173488
 30
0.0
 11
955.5971734324132
 21
324.6875213173487
 31
0.0
  0
LINE
  5
5AB
330
17
100
AcDbEntity
  8
4
100
AcDbLine
 10
945.9379894324134
 20
322.0996313173489
 30
0.0
 11
938.8671874324132
 21
329.1709193173488
 31
0.0
  0
LINE
  5
5AC
330
17
100
AcDbEntity
  8
4
100
AcDbLine
 10
955.5971734324132
 20
324.6875213173487
 30
0.0
 11
945.9379894324134
 21
322.0996313173489
 31
0.0
  0
LINE
  5
5AD
330
17
100
AcDbEntity
  8
4
100
AcDbLine
 10
941.4553234324133
 20
338.8300973173486
 30
0.0
 11
951.1147474324132
 21
341.4179873173489
 31
0.0
  0
LINE
  5
5AE
330
17
100
AcDbEntity
  8
4
100
AcDbLine
 10
938.8671874324132
 20
329.1709193173488
 30
0.0
 11
941.4553234324133
 21
338.8300973173486
 31
0.0
  0
LINE
  5
5AF
330
17
100
AcDbEntity
  8
4
100
AcDbLine
 10
951.1147474324132
 20
341.4179873173489
 30
0.0
 11
958.1855494324132
 21
334.3466993173488
 31
0.0
  0
LINE
  5
5B2
330
17
100
AcDbEntity
  8
L-CENTER
100
AcDbLine
 10
588.9244370391917
 20
453.0133297105706
 30
0.0
 11
617.9457167607334
 21
423.9920499890291
 31
0.0
  0
CIRCLE
  5
5B3
330
17
100
AcDbEntity
  8
4
100
AcDbCircle
 10
603.4350634324132
 20
438.5027033173487
 30
0.0
 40
8.660154
  0
LINE
  5
5B4
330
17
100
AcDbEntity
  8
4
100
AcDbLine
 10
610.5058654324134
 20
431.4314153173489
 30
0.0
 11
600.8466814324133
 21
428.8435253173488
 31
0.0
  0
LINE
  5
5B5
330
17
100
AcDbEntity
  8
4
100
AcDbLine
 10
600.8466814324133
 20
428.8435253173488
 30
0.0
 11
593.7758854324134
 21
435.9148133173487
 31
0.0
  0
LINE
  5
5B6
330
17
100
AcDbEntity
  8
4
100
AcDbLine
 10
596.3640154324135
 20
445.5739913173488
 30
0.0
 11
606.0234394324134
 21
448.1618813173488
 31
0.0
  0
LINE
  5
5B7
330
17
100
AcDbEntity
  8
4
100
AcDbLine
 10
593.7758854324134
 20
435.9148133173487
 30
0.0
 11
596.3640154324135
 21
445.5739913173488
 31
0.0
  0
LINE
  5
5B8
330
17
100
AcDbEntity
  8
4
100
AcDbLine
 10
606.0234394324134
 20
448.1618813173488
 30
0.0
 11
613.0942414324136
 21
441.0905933173487
 31
0.0
  0
LINE
  5
5B9
330
17
100
AcDbEntity
  8
4
100
AcDbLine
 10
613.0942414324136
 20
441.0905933173487
 30
0.0
 11
610.5058654324134
 21
431.4314153173489
 31
0.0
  0
LINE
  5
5BA
330
17
100
AcDbEntity
  8
L-CENTER
100
AcDbLine
 10
759.3665972931842
 20
453.0133431781194
 30
0.0
 11
730.3453175716425
 21
423.9920634565781
 31
0.0
  0
CIRCLE
  5
5BB
330
17
100
AcDbEntity
  8
4
100
AcDbCircle
 10
744.8559574324133
 20
438.5027033173487
 30
0.0
 40
8.660154
  0
LINE
  5
5BC
330
17
100
AcDbEntity
  8
4
100
AcDbLine
 10
754.5151414324132
 20
435.9148133173487
 30
0.0
 11
747.4443394324132
 21
428.8435253173488
 31
0.0
  0
LINE
  5
5BD
330
17
100
AcDbEntity
  8
4
100
AcDbLine
 10
747.4443394324132
 20
428.8435253173488
 30
0.0
 11
737.7851614324131
 21
431.4314153173489
 31
0.0
  0
LINE
  5
5BE
330
17
100
AcDbEntity
  8
4
100
AcDbLine
 10
735.1967794324132
 20
441.0905933173487
 30
0.0
 11
742.2675814324132
 21
448.1618813173488
 31
0.0
  0
LINE
  5
5BF
330
17
100
AcDbEntity
  8
4
100
AcDbLine
 10
737.7851614324131
 20
431.4314153173489
 30
0.0
 11
735.1967794324132
 21
441.0905933173487
 31
0.0
  0
LINE
  5
5C0
330
17
100
AcDbEntity
  8
4
100
AcDbLine
 10
751.9270054324134
 20
445.5739913173488
 30
0.0
 11
754.5151414324132
 21
435.9148133173487
 31
0.0
  0
LINE
  5
5C1
330
17
100
AcDbEntity
  8
4
100
AcDbLine
 10
742.2675814324132
 20
448.1618813173488
 30
0.0
 11
751.9270054324134
 21
445.5739913173488
 31
0.0
  0
LINE
  5
5C4
330
17
100
AcDbEntity
  8
L-CENTER
100
AcDbLine
 10
827.949760540966
 20
452.335413325425
 30
0.0
 11
856.9710435458784
 21
423.3141368872543
 31
0.0
  0
CIRCLE
  5
5C5
330
17
100
AcDbEntity
  8
4
100
AcDbCircle
 10
842.4604534324133
 20
437.8247273173488
 30
0.0
 40
8.660154
  0
LINE
  5
5C6
330
17
100
AcDbEntity
  8
4
100
AcDbLine
 10
839.8720714324131
 20
428.1655493173487
 30
0.0
 11
832.8012694324134
 21
435.2368373173488
 31
0.0
  0
LINE
  5
5C7
330
17
100
AcDbEntity
  8
4
100
AcDbLine
 10
849.5312554324132
 20
430.7534393173487
 30
0.0
 11
839.8720714324131
 21
428.1655493173487
 31
0.0
  0
LINE
  5
5C8
330
17
100
AcDbEntity
  8
4
100
AcDbLine
 10
835.3894054324132
 20
444.8960153173489
 30
0.0
 11
845.0488294324132
 21
447.4839053173487
 31
0.0
  0
LINE
  5
5C9
330
17
100
AcDbEntity
  8
4
100
AcDbLine
 10
832.8012694324134
 20
435.2368373173488
 30
0.0
 11
835.3894054324132
 21
444.8960153173489
 31
0.0
  0
LINE
  5
5CA
330
17
100
AcDbEntity
  8
4
100
AcDbLine
 10
852.1196314324131
 20
440.4126173173488
 30
0.0
 11
849.5312554324132
 21
430.7534393173487
 31
0.0
  0
LINE
  5
5CB
330
17
100
AcDbEntity
  8
4
100
AcDbLine
 10
845.0488294324132
 20
447.4839053173487
 30
0.0
 11
852.1196314324131
 21
440.4126173173488
 31
0.0
  0
LINE
  5
5CC
330
17
100
AcDbEntity
  8
L-CENTER
100
AcDbLine
 10
963.0370112931842
 20
452.3353671781194
 30
0.0
 11
934.0157315716425
 21
423.3140874565779
 31
0.0
  0
CIRCLE
  5
5CD
330
17
100
AcDbEntity
  8
4
100
AcDbCircle
 10
948.5263714324133
 20
437.8247273173488
 30
0.0
 40
8.660154
  0
LINE
  5
5CE
330
17
100
AcDbEntity
  8
4
100
AcDbLine
 10
958.1855494324132
 20
435.2368373173488
 30
0.0
 11
951.1147474324132
 21
428.1655493173487
 31
0.0
  0
LINE
  5
5CF
330
17
100
AcDbEntity
  8
4
100
AcDbLine
 10
951.1147474324132
 20
428.1655493173487
 30
0.0
 11
941.4555694324133
 21
430.7534393173487
 31
0.0
  0
LINE
  5
5D0
330
17
100
AcDbEntity
  8
4
100
AcDbLine
 10
945.9379894324134
 20
447.4839053173487
 30
0.0
 11
955.5974134324133
 21
444.8960153173489
 31
0.0
  0
LINE
  5
5D1
330
17
100
AcDbEntity
  8
4
100
AcDbLine
 10
941.4555694324133
 20
430.7534393173487
 30
0.0
 11
938.8671874324132
 21
440.4126173173488
 31
0.0
  0
LINE
  5
5D2
330
17
100
AcDbEntity
  8
4
100
AcDbLine
 10
938.8671874324132
 20
440.4126173173488
 30
0.0
 11
945.9379894324134
 21
447.4839053173487
 31
0.0
  0
LINE
  5
5D3
330
17
100
AcDbEntity
  8
4
100
AcDbLine
 10
955.5974134324133
 20
444.8960153173489
 30
0.0
 11
958.1855494324132
 21
435.2368373173488
 31
0.0
  0
LINE
  5
5D7
330
17
100
AcDbEntity
  8
4
100
AcDbLine
 10
1230.493407432413
 20
161.7917693173488
 30
0.0
 11
1131.493407432413
 21
161.7917693173488
 31
0.0
  0
LINE
  5
5D8
330
17
100
AcDbEntity
  8
4
100
AcDbLine
 10
1231.493409432413
 20
211.2917693173488
 30
0.0
 11
1141.493409432413
 21
211.2917693173488
 31
0.0
  0
LINE
  5
5D9
330
17
100
AcDbEntity
  8
4
100
AcDbLine
 10
1230.493407432413
 20
207.7917653173488
 30
0.0
 11
1131.493407432413
 21
207.7917653173488
 31
0.0
  0
LINE
  5
5DC
330
17
100
AcDbEntity
  8
4
100
AcDbLine
 10
1106.493411432413
 20
112.7917673173488
 30
0.0
 11
1106.493411432413
 21
256.7917673173488
 31
0.0
  0
LINE
  5
5DD
330
17
100
AcDbEntity
  8
4
100
AcDbLine
 10
1118.493411432413
 20
255.7917653173488
 30
0.0
 11
1118.493411432413
 21
113.7917693173488
 31
0.0
  0
LINE
  5
5DE
330
17
100
AcDbEntity
  8
4
100
AcDbLine
 10
1119.993411432413
 20
148.7917673173488
 30
0.0
 11
1119.993411432413
 21
220.7917673173488
 31
0.0
  0
LINE
  5
5E0
330
17
100
AcDbEntity
  8
4
100
AcDbLine
 10
1079.493411432413
 20
92.79176931734878
 30
0.0
 11
1079.493411432413
 21
184.7917673173488
 31
0.0
  0
ARC
  5
5E1
330
17
100
AcDbEntity
  8
4
100
AcDbCircle
 10
1071.493407432413
 20
92.79176931734878
 30
0.0
 40
7.999998000000001
100
AcDbArc
 50
270.0017479999999
 51
0.0
  0
ARC
  5
5E2
330
17
100
AcDbEntity
  8
4
100
AcDbCircle
 10
1075.493409432413
 20
184.7917673173488
 30
0.0
 40
4.000002
100
AcDbArc
 50
0.0
 51
90.0
  0
LINE
  5
5E3
330
17
100
AcDbEntity
  8
4
100
AcDbLine
 10
1117.493409432413
 20
112.7917673173488
 30
0.0
 11
1106.493411432413
 21
112.7917673173488
 31
0.0
  0
ARC
  5
5E4
330
17
100
AcDbEntity
  8
4
100
AcDbCircle
 10
1104.493407432413
 20
109.7917673173488
 30
0.0
 40
3.0
100
AcDbArc
 50
90.0
 51
180.0
  0
ARC
  5
5E5
330
17
100
AcDbEntity
  8
4
100
AcDbCircle
 10
1098.493407432413
 20
81.79177131734878
 30
0.0
 40
3.0
100
AcDbArc
 50
0.0
 51
90.0
  0
LINE
  5
5E6
330
17
100
AcDbEntity
  8
4
100
AcDbLine
 10
1106.493411432413
 20
112.7917673173488
 30
0.0
 11
1104.493407432413
 21
112.7917673173488
 31
0.0
  0
ARC
  5
5E7
330
17
100
AcDbEntity
  8
4
100
AcDbCircle
 10
1117.493409432413
 20
113.7917693173488
 30
0.0
 40
1.000002
100
AcDbArc
 50
270.0
 51
0.0
  0
LINE
  5
5E8
330
17
100
AcDbEntity
  8
4
100
AcDbLine
 10
1119.993411432413
 20
148.7917673173488
 30
0.0
 11
1118.493411432413
 21
148.7917673173488
 31
0.0
  0
LINE
  5
5E9
330
17
100
AcDbEntity
  8
4
100
AcDbLine
 10
1131.493407432413
 20
159.7917653173488
 30
0.0
 11
1131.493407432413
 21
209.7917693173488
 31
0.0
  0
LINE
  5
5EA
330
17
100
AcDbEntity
  8
4
100
AcDbLine
 10
1131.493407432413
 20
159.7917653173488
 30
0.0
 11
1119.993411432413
 21
159.7917653173488
 31
0.0
  0
LINE
  5
5EB
330
17
100
AcDbEntity
  8
4
100
AcDbLine
 10
1131.493407432413
 20
209.7917693173488
 30
0.0
 11
1119.993411432413
 21
209.7917693173488
 31
0.0
  0
LINE
  5
5EC
330
17
100
AcDbEntity
  8
4
100
AcDbLine
 10
1141.493409432413
 20
207.7917653173488
 30
0.0
 11
1141.493409432413
 21
211.2917693173488
 31
0.0
  0
LINE
  5
5ED
330
17
100
AcDbEntity
  8
4
100
AcDbLine
 10
1070.186523432413
 20
256.7917673173488
 30
0.0
 11
1101.493407432413
 21
256.7917673173488
 31
0.0
  0
LINE
  5
5EE
330
17
100
AcDbEntity
  8
4
100
AcDbLine
 10
1071.320559432413
 20
259.7917673173488
 30
0.0
 11
1101.493407432413
 21
259.7917673173488
 31
0.0
  0
ARC
  5
5EF
330
17
100
AcDbEntity
  8
4
100
AcDbCircle
 10
1070.186523432413
 20
262.7917673173488
 30
0.0
 40
6.000005999999999
100
AcDbArc
 50
159.0081830000002
 51
270.0
  0
ARC
  5
5F0
330
17
100
AcDbEntity
  8
4
100
AcDbCircle
 10
1071.320559432413
 20
265.7917673173488
 30
0.0
 40
6.00006
100
AcDbArc
 50
159.5792900000008
 51
270.0
  0
LINE
  5
5F2
330
17
100
AcDbEntity
  8
4
100
AcDbLine
 10
1119.993411432413
 20
220.7917673173488
 30
0.0
 11
1118.493411432413
 21
220.7917673173488
 31
0.0
  0
LINE
  5
5F3
330
17
100
AcDbEntity
  8
4
100
AcDbLine
 10
1117.493409432413
 20
256.7917673173488
 30
0.0
 11
1106.493411432413
 21
256.7917673173488
 31
0.0
  0
ARC
  5
5F4
330
17
100
AcDbEntity
  8
4
100
AcDbCircle
 10
1104.493407432413
 20
259.7917673173488
 30
0.0
 40
3.0
100
AcDbArc
 50
180.0
 51
270.0
  0
LINE
  5
5F5
330
17
100
AcDbEntity
  8
4
100
AcDbLine
 10
1106.493411432413
 20
256.7917673173488
 30
0.0
 11
1104.493407432413
 21
256.7917673173488
 31
0.0
  0
ARC
  5
5F6
330
17
100
AcDbEntity
  8
4
100
AcDbCircle
 10
1117.493409432413
 20
255.7917653173488
 30
0.0
 40
1.000002
100
AcDbArc
 50
0.0
 51
90.0
  0
LINE
  5
5F9
330
17
100
AcDbEntity
  8
4
100
AcDbLine
 10
1231.493409432413
 20
162.7917653173488
 30
0.0
 11
1231.493409432413
 21
211.2917693173488
 31
0.0
  0
LINE
  5
5FA
330
17
100
AcDbEntity
  8
4
100
AcDbLine
 10
1230.493407432413
 20
207.7917653173488
 30
0.0
 11
1230.493407432413
 21
161.7917693173488
 31
0.0
  0
LINE
  5
5FB
330
17
100
AcDbEntity
  8
4
100
AcDbLine
 10
1230.493407432413
 20
161.7917693173488
 30
0.0
 11
1231.493409432413
 21
162.7917653173488
 31
0.0
  0
LINE
  5
5FC
330
17
100
AcDbEntity
  8
4
100
AcDbLine
 10
1231.493409432413
 20
206.7917693173488
 30
0.0
 11
1230.493407432413
 21
207.7917653173488
 31
0.0
  0
LINE
  5
606
330
17
100
AcDbEntity
  8
4
100
AcDbLine
 10
750.4934134324133
 20
700.7917673173488
 30
0.0
 11
790.4934094324133
 21
700.7917673173488
 31
0.0
  0
LINE
  5
607
330
17
100
AcDbEntity
  8
4
100
AcDbLine
 10
765.4934134324133
 20
710.9712113173487
 30
0.0
 11
758.3076214324133
 21
709.7917673173488
 31
0.0
  0
LINE
  5
608
330
17
100
AcDbEntity
  8
4
100
AcDbLine
 10
758.3076214324133
 20
709.7917673173488
 30
0.0
 11
765.4934134324133
 21
709.7917673173488
 31
0.0
  0
ARC
  5
609
330
17
100
AcDbEntity
  8
4
100
AcDbCircle
 10
764.4934114324133
 20
703.7917673173488
 30
0.0
 40
1.000002
100
AcDbArc
 50
270.0
 51
0.0
  0
LINE
  5
60C
330
17
100
AcDbEntity
  8
L-CENTER
100
AcDbLine
 10
575.4934114324133
 20
707.6294813173488
 30
0.0
 11
575.4934114324133
 21
654.7990985197623
 31
0.0
  0
LINE
  5
60D
330
17
100
AcDbEntity
  8
4
100
AcDbLine
 10
553.4934094324135
 20
692.6272133173488
 30
0.0
 11
553.4934094324135
 21
691.1272133173488
 31
0.0
  0
LINE
  5
60E
330
17
100
AcDbEntity
  8
4
100
AcDbLine
 10
563.9934094324135
 20
696.6272153173488
 30
0.0
 11
563.9934094324135
 21
701.6272133173488
 31
0.0
  0
LINE
  5
60F
330
17
100
AcDbEntity
  8
4
100
AcDbLine
 10
597.493413432413
 20
692.6272133173488
 30
0.0
 11
597.493413432413
 21
691.1272133173488
 31
0.0
  0
LINE
  5
610
330
17
100
AcDbEntity
  8
4
100
AcDbLine
 10
598.4934094324135
 20
692.6272133173488
 30
0.0
 11
598.4934094324135
 21
701.6272133173488
 31
0.0
  0
LINE
  5
611
330
17
100
AcDbEntity
  8
4
100
AcDbLine
 10
586.993413432413
 20
696.6272153173488
 30
0.0
 11
586.993413432413
 21
701.6272133173488
 31
0.0
  0
LINE
  5
612
330
17
100
AcDbEntity
  8
4
100
AcDbLine
 10
600.493413432413
 20
691.1272133173488
 30
0.0
 11
600.493413432413
 21
689.1272153173488
 31
0.0
  0
LINE
  5
613
330
17
100
AcDbEntity
  8
4
100
AcDbLine
 10
758.3076214324133
 20
709.7917673173488
 30
0.0
 11
757.9934134324133
 21
700.7917673173488
 31
0.0
  0
LINE
  5
614
330
17
100
AcDbEntity
  8
4
100
AcDbLine
 10
750.4934134324133
 20
698.6584673173488
 30
0.0
 11
750.4934134324133
 21
700.7917673173488
 31
0.0
  0
LINE
  5
619
330
17
100
AcDbEntity
  8
4
100
AcDbLine
 10
775.4934094324133
 20
703.7917673173488
 30
0.0
 11
775.4934094324133
 21
755.7917633173488
 31
0.0
  0
LINE
  5
61A
330
17
100
AcDbEntity
  8
4
100
AcDbLine
 10
765.4934134324133
 20
703.7917673173488
 30
0.0
 11
765.4934134324133
 21
755.7917633173488
 31
0.0
  0
LINE
  5
61B
330
17
100
AcDbEntity
  8
4
100
AcDbLine
 10
775.4934094324133
 20
710.9712113173487
 30
0.0
 11
782.6792014324133
 21
709.7917673173488
 31
0.0
  0
LINE
  5
61C
330
17
100
AcDbEntity
  8
4
100
AcDbLine
 10
782.6792014324133
 20
709.7917673173488
 30
0.0
 11
782.9934094324133
 21
700.7917673173488
 31
0.0
  0
LINE
  5
61D
330
17
100
AcDbEntity
  8
4
100
AcDbLine
 10
775.4934094324133
 20
709.7917673173488
 30
0.0
 11
782.6792014324133
 21
709.7917673173488
 31
0.0
  0
ARC
  5
61E
330
17
100
AcDbEntity
  8
4
100
AcDbCircle
 10
776.4934114324133
 20
703.7917673173488
 30
0.0
 40
1.000002
100
AcDbArc
 50
180.0
 51
270.0
  0
LINE
  5
61F
330
17
100
AcDbEntity
  8
4
100
AcDbLine
 10
790.4934094324133
 20
698.6584673173488
 30
0.0
 11
790.4934094324133
 21
700.7917673173488
 31
0.0
  0
ARC
  5
620
330
17
100
AcDbEntity
  8
4
100
AcDbCircle
 10
770.4934114324133
 20
755.7917633173488
 30
0.0
 40
4.999998
100
AcDbArc
 50
0.0
 51
180.0
  0
ARC
  5
625
330
17
100
AcDbEntity
  8
4
100
AcDbCircle
 10
1067.189943432413
 20
662.0141753173489
 30
0.0
 40
7.000044
100
AcDbArc
 50
10.97564600000024
 51
78.53722799999996
  0
LINE
  5
62A
330
17
100
AcDbEntity
  8
L-CENTER
100
AcDbLine
 10
1738.654709624127
 20
776.1164753173489
 30
0.0
 11
1738.654709624127
 21
33.77360931734881
 31
0.0
  0
LINE
  5
62B
330
17
100
AcDbEntity
  8
L-CENTER
100
AcDbLine
 10
1583.654711624127
 20
24.79176931734878
 30
0.0
 11
1583.654711624127
 21
104.7917713173488
 31
0.0
  0
LINE
  5
62C
330
17
100
AcDbEntity
  8
4
100
AcDbLine
 10
1543.654709624127
 20
81.79177131734878
 30
0.0
 11
1543.654709624127
 21
44.79176931734878
 31
0.0
  0
LWPOLYLINE
  5
62D
330
17
100
AcDbEntity
  8
4
100
AcDbPolyline
 90
       43
 70
     0
 43
0.0
 10
1867.141409624127
 20
84.71207931734875
 10
1867.635779624127
 20
84.10875531734882
 10
1868.117219624127
 20
83.50489131734878
 10
1868.572817624127
 20
82.89994731734873
 10
1869.655271624127
 20
81.07325331734876
 10
1869.878237624127
 20
80.45860731734876
 10
1870.010729624127
 20
79.84018131734877
 10
1870.039835624127
 20
79.21744131734886
 10
1869.971171624127
 20
78.65010531734879
 10
1869.826703624127
 20
78.07800531734881
 10
1869.625709624127
 20
77.50031931734884
 10
1868.876573624127
 20
75.72577131734874
 10
1868.642447624127
 20
75.11773731734877
 10
1868.448269624127
 20
74.50010331734882
 10
1868.313329624127
 20
73.87206531734876
 10
1868.247653624127
 20
72.92240331734877
 10
1868.322149624127
 20
71.9551733173488
 10
1868.504639624127
 20
70.97740131734872
 10
1869.378155624127
 20
68.05109931734876
 10
1870.064777624127
 20
65.28290931734875
 10
1870.101905624127
 20
64.42811331734879
 10
1869.989513624127
 20
63.61899531734878
 10
1869.695411624127
 20
62.86258131734883
 10
1869.213233624127
 20
62.17558131734881
 10
1868.576027624127
 20
61.53149931734879
 10
1867.834259624127
 20
60.91586331734879
 10
1865.486327624127
 20
59.09499531734878
 10
1864.831037624127
 20
58.44848331734875
 10
1864.323551624127
 20
57.75807531734881
 10
1864.014335624127
 20
57.00931131734876
 10
1863.937871624127
 20
56.17312131734877
 10
1864.068257624127
 20
55.27924731734879
 10
1864.351811624127
 20
54.34628931734881
 10
1865.584481624127
 20
51.49889931734879
 10
1865.943719624127
 20
50.59559931734884
 10
1866.187643624127
 20
49.74622131734873
 10
1866.262553624127
 20
48.96936531734877
 10
1865.924867624127
 20
47.86813731734878
 10
1865.065901624127
 20
46.98018531734874
 10
1863.779693624127
 20
46.26704931734878
 10
1862.160257624127
 20
45.69023931734876
 10
1860.301619624127
 20
45.21130731734877
 10
1858.297805624127
 20
44.79176931734878
  0
LINE
  5
62E
330
17
100
AcDbEntity
  8
4
100
AcDbLine
 10
1904.654711624127
 20
84.79177131734878
 30
0.0
 11
1904.654711624127
 21
44.79176931734878
 31
0.0
  0
LINE
  5
62F
330
17
100
AcDbEntity
  8
4
100
AcDbLine
 10
1882.654709624127
 20
84.79177131734878
 30
0.0
 11
1882.654709624127
 21
44.79176931734878
 31
0.0
  0
LINE
  5
630
330
17
100
AcDbEntity
  8
L-CENTER
100
AcDbLine
 10
1893.654707624127
 20
24.79176931734878
 30
0.0
 11
1893.654707624127
 21
104.7917713173488
 31
0.0
  0
LINE
  5
631
330
17
100
AcDbEntity
  8
4
100
AcDbLine
 10
1933.654709624127
 20
81.79177131734878
 30
0.0
 11
1933.654709624127
 21
44.79176931734878
 31
0.0
  0
TEXT
  5
636
330
17
100
AcDbEntity
  8
3
100
AcDbText
 10
1284.581001061206
 20
38.22554479356825
 30
0.0
 40
17.85075324173629
  1
LD8-00
  7
KANJI
100
AcDbText
  0
LINE
  5
638
330
17
100
AcDbEntity
  8
4
100
AcDbLine
 10
1933.654709624127
 20
44.79176931734878
 30
0.0
 11
1543.654709624127
 21
44.79176931734878
 31
0.0
  0
LINE
  5
64F
330
17
100
AcDbEntity
  8
L-CENTER
100
AcDbLine
 10
2084.686181624127
 20
367.7917673173488
 30
0.0
 11
1573.133128138012
 21
367.7917673173488
 31
0.0
  0
LINE
  5
650
330
17
100
AcDbEntity
  8
4
100
AcDbLine
 10
2071.654709624127
 20
420.7917653173488
 30
0.0
 11
1921.654709624127
 21
420.7917653173488
 31
0.0
  0
LINE
  5
651
330
17
100
AcDbEntity
  8
4
100
AcDbLine
 10
2070.654707624128
 20
322.7917673173488
 30
0.0
 11
1911.654707624127
 21
322.7917673173488
 31
0.0
  0
LINE
  5
652
330
17
100
AcDbEntity
  8
4
100
AcDbLine
 10
2070.654707624128
 20
412.7917673173488
 30
0.0
 11
1911.654707624127
 21
412.7917673173488
 31
0.0
  0
LINE
  5
655
330
17
100
AcDbEntity
  8
4
100
AcDbLine
 10
1871.654711624127
 20
690.7917653173488
 30
0.0
 11
1871.654711624127
 21
128.7917693173488
 31
0.0
  0
LINE
  5
656
330
17
100
AcDbEntity
  8
4
100
AcDbLine
 10
1843.654709624127
 20
696.7917653173488
 30
0.0
 11
1843.654709624127
 21
104.7917693173488
 31
0.0
  0
LINE
  5
657
330
17
100
AcDbEntity
  8
4
100
AcDbLine
 10
1612.654709624127
 20
690.7917653173488
 30
0.0
 11
1612.654709624127
 21
172.6706753173488
 31
0.0
  0
LINE
  5
658
330
17
100
AcDbEntity
  8
4
100
AcDbLine
 10
1609.623215624127
 20
163.4841533173487
 30
0.0
 11
1609.623215624127
 21
662.7917633173488
 31
0.0
  0
ARC
  5
659
330
17
100
AcDbEntity
  8
4
100
AcDbCircle
 10
8403.648089624125
 20
377.7917693173488
 30
0.0
 40
6799.999968
100
AcDbArc
 50
177.5984690000001
 51
181.866518
  0
LINE
  5
65A
330
17
100
AcDbEntity
  8
4
100
AcDbLine
 10
1846.654709624127
 20
94.25612331734874
 30
0.0
 11
1846.654709624127
 21
692.7917633173488
 31
0.0
  0
LINE
  5
65B
330
17
100
AcDbEntity
  8
4
100
AcDbLine
 10
1633.654709624127
 20
696.7917653173488
 30
0.0
 11
1633.654709624127
 21
259.8615893173488
 31
0.0
  0
CIRCLE
  5
65E
330
17
100
AcDbEntity
  8
L-CENTER
100
AcDbCircle
 10
1691.654711624127
 20
184.7917673173488
 30
0.0
 40
72.499998
  0
LINE
  5
65F
330
17
100
AcDbEntity
  8
4
100
AcDbLine
 10
1930.654709624127
 20
84.79177131734878
 30
0.0
 11
1546.654709624127
 21
84.79177131734878
 31
0.0
  0
LINE
  5
660
330
17
100
AcDbEntity
  8
L-CENTER
100
AcDbLine
 10
1775.663321624127
 20
184.7917673173488
 30
0.0
 11
1607.646101624127
 21
184.7917673173488
 31
0.0
  0
ARC
  5
661
330
17
100
AcDbEntity
  8
4
100
AcDbCircle
 10
1691.654465624127
 20
512.7920093173489
 30
0.0
 40
399.9999240000001
100
AcDbArc
 50
260.956666
 51
279.044432
  0
LINE
  5
662
330
17
100
AcDbEntity
  8
L-CENTER
100
AcDbLine
 10
1625.878831997919
 20
119.0158867783937
 30
0.0
 11
1654.900107423482
 21
148.0371707959134
 31
0.0
  0
LINE
  5
663
330
17
100
AcDbEntity
  8
4
100
AcDbLine
 10
1630.730393624127
 20
136.1145233173488
 30
0.0
 11
1637.801195624127
 21
143.1858113173488
 31
0.0
  0
ARC
  5
664
330
17
100
AcDbEntity
  8
4
100
AcDbCircle
 10
1613.654711624127
 20
104.7917693173488
 30
0.0
 40
19.999998
100
AcDbArc
 50
270.0006990000002
 51
0.0
  0
CIRCLE
  5
665
330
17
100
AcDbEntity
  8
4
100
AcDbCircle
 10
1640.389571624127
 20
133.5266333173488
 30
0.0
 40
8.660154
  0
LINE
  5
666
330
17
100
AcDbEntity
  8
4
100
AcDbLine
 10
1642.977953624127
 20
123.8674493173488
 30
0.0
 11
1633.318769624127
 21
126.4553393173488
 31
0.0
  0
ARC
  5
667
330
17
100
AcDbEntity
  8
4
100
AcDbCircle
 10
1691.654465624127
 20
-143.2084746826512
 30
0.0
 40
399.99999
100
AcDbArc
 50
80.95620699999999
 51
99.04386300000003
  0
LINE
  5
668
330
17
100
AcDbEntity
  8
L-CENTER
100
AcDbLine
 10
1625.878931763356
 20
250.5675471781195
 30
0.0
 11
1654.900211484898
 21
221.5462674565779
 31
0.0
  0
LINE
  5
669
330
17
100
AcDbEntity
  8
4
100
AcDbLine
 10
1637.801195624127
 20
226.3977233173488
 30
0.0
 11
1630.730393624127
 21
233.4690113173488
 31
0.0
  0
CIRCLE
  5
66A
330
17
100
AcDbEntity
  8
4
100
AcDbCircle
 10
1640.389571624127
 20
236.0569073173488
 30
0.0
 40
8.660154
  0
LINE
  5
66B
330
17
100
AcDbEntity
  8
4
100
AcDbLine
 10
1633.318529624127
 20
243.1281953173487
 30
0.0
 11
1642.977953624127
 21
245.7160853173488
 31
0.0
  0
LINE
  5
66C
330
17
100
AcDbEntity
  8
4
100
AcDbLine
 10
1581.654707624127
 20
482.7917693173488
 30
0.0
 11
1581.654707624127
 21
252.7917653173488
 31
0.0
  0
LINE
  5
66D
330
17
100
AcDbEntity
  8
4
100
AcDbLine
 10
1596.654707624127
 20
252.7917653173488
 30
0.0
 11
1596.654707624127
 21
482.7917693173488
 31
0.0
  0
ARC
  5
673
330
17
100
AcDbEntity
  8
4
100
AcDbCircle
 10
2016.654707624127
 20
184.7917673173488
 30
0.0
 40
399.999906
100
AcDbArc
 50
170.5774619999999
 51
189.423211
  0
ARC
  5
674
330
17
100
AcDbEntity
  8
4
100
AcDbCircle
 10
2019.654707624127
 20
184.7917673173488
 30
0.0
 40
399.99996
100
AcDbArc
 50
170.956666
 51
189.043828
  0
LINE
  5
675
330
17
100
AcDbEntity
  8
4
100
AcDbLine
 10
1598.199143624127
 20
192.7917653173488
 30
0.0
 11
1598.199143624127
 21
228.7917653173488
 31
0.0
  0
LINE
  5
676
330
17
100
AcDbEntity
  8
4
100
AcDbLine
 10
1600.199141624127
 20
192.7917653173488
 30
0.0
 11
1600.199141624127
 21
228.7917653173488
 31
0.0
  0
LINE
  5
677
330
17
100
AcDbEntity
  8
4
100
AcDbLine
 10
1601.699141624127
 20
193.7917673173488
 30
0.0
 11
1601.699141624127
 21
227.7917693173488
 31
0.0
  0
LINE
  5
678
330
17
100
AcDbEntity
  8
4
100
AcDbLine
 10
1593.199145624127
 20
192.7917653173488
 30
0.0
 11
1593.199145624127
 21
228.7917653173488
 31
0.0
  0
LINE
  5
679
330
17
100
AcDbEntity
  8
4
100
AcDbLine
 10
1601.699141624127
 20
190.7917673173488
 30
0.0
 11
1601.699141624127
 21
230.7917693173488
 31
0.0
  0
LINE
  5
67A
330
17
100
AcDbEntity
  8
4
100
AcDbLine
 10
1583.654711624127
 20
84.79177131734878
 30
0.0
 11
1616.654711624127
 21
184.7917673173488
 31
0.0
  0
ARC
  5
67B
330
17
100
AcDbEntity
  8
4
100
AcDbCircle
 10
1546.654709624127
 20
81.79177131734878
 30
0.0
 40
3.0
100
AcDbArc
 50
90.0
 51
180.0
  0
ARC
  5
67C
330
17
100
AcDbEntity
  8
4
100
AcDbCircle
 10
1628.654711624127
 20
109.7219453173487
 30
0.0
 40
5.00004
100
AcDbArc
 50
0.0
 51
81.05049899999867
  0
ARC
  5
67D
330
17
100
AcDbEntity
  8
4
100
AcDbCircle
 10
1626.984545624127
 20
120.1218473173487
 30
0.0
 40
5.000082
100
AcDbArc
 50
189.4227630000002
 51
260.5772250000001
  0
ARC
  5
67E
330
17
100
AcDbEntity
  8
4
100
AcDbCircle
 10
1691.654465624127
 20
509.7920093173489
 30
0.0
 40
399.999954
100
AcDbArc
 50
260.577462
 51
261.051415
  0
LINE
  5
67F
330
17
100
AcDbEntity
  8
4
100
AcDbLine
 10
1633.654709624127
 20
109.7219453173487
 30
0.0
 11
1633.654709624127
 21
104.7917693173488
 31
0.0
  0
LINE
  5
680
330
17
100
AcDbEntity
  8
4
100
AcDbLine
 10
1633.318769624127
 20
126.4553393173488
 30
0.0
 11
1630.730393624127
 21
136.1145233173488
 31
0.0
  0
ARC
  5
681
330
17
100
AcDbEntity
  8
4
100
AcDbCircle
 10
1629.565109624127
 20
122.7024113173488
 30
0.0
 40
4.999896
100
AcDbArc
 50
189.0433169999993
 51
260.9566940000012
  0
LINE
  5
682
330
17
100
AcDbEntity
  8
L-CENTER
100
AcDbLine
 10
1589.085851624127
 20
210.7917653173488
 30
0.0
 11
1614.349385624127
 21
210.7917653173488
 31
0.0
  0
LINE
  5
683
330
17
100
AcDbEntity
  8
4
100
AcDbLine
 10
1600.199141624127
 20
192.7917653173488
 30
0.0
 11
1593.199145624127
 21
192.7917653173488
 31
0.0
  0
LINE
  5
684
330
17
100
AcDbEntity
  8
4
100
AcDbLine
 10
1600.199141624127
 20
193.7917673173488
 30
0.0
 11
1601.699141624127
 21
193.7917673173488
 31
0.0
  0
LINE
  5
685
330
17
100
AcDbEntity
  8
4
100
AcDbLine
 10
1598.199143624127
 20
219.7917653173488
 30
0.0
 11
1593.199145624127
 21
219.7917653173488
 31
0.0
  0
LINE
  5
686
330
17
100
AcDbEntity
  8
4
100
AcDbLine
 10
1598.199143624127
 20
201.7917653173488
 30
0.0
 11
1593.199145624127
 21
201.7917653173488
 31
0.0
  0
LINE
  5
687
330
17
100
AcDbEntity
  8
4
100
AcDbLine
 10
1601.699141624127
 20
190.7917673173488
 30
0.0
 11
1606.219895624127
 21
190.7917673173488
 31
0.0
  0
LINE
  5
688
330
17
100
AcDbEntity
  8
4
100
AcDbLine
 10
1571.654711624127
 20
289.5813173173487
 30
0.0
 11
1571.654711624127
 21
304.5813173173487
 31
0.0
  0
LINE
  5
689
330
17
100
AcDbEntity
  8
4
100
AcDbLine
 10
1579.154711624127
 20
287.0813213173487
 30
0.0
 11
1579.154711624127
 21
307.0813193173487
 31
0.0
  0
ARC
  5
68A
330
17
100
AcDbEntity
  8
4
100
AcDbCircle
 10
1575.474533624127
 20
289.5813173173487
 30
0.0
 40
3.819708
100
AcDbArc
 50
139.1182680000003
 51
220.8817319999997
  0
LINE
  5
68B
330
17
100
AcDbEntity
  8
4
100
AcDbLine
 10
1581.654707624127
 20
287.0813213173487
 30
0.0
 11
1581.654707624127
 21
307.0813193173487
 31
0.0
  0
LINE
  5
68C
330
17
100
AcDbEntity
  8
4
100
AcDbLine
 10
1581.654707624127
 20
252.7917653173488
 30
0.0
 11
1596.654707624127
 21
252.7917653173488
 31
0.0
  0
LINE
  5
68D
330
17
100
AcDbEntity
  8
4
100
AcDbLine
 10
1572.512621624127
 20
287.0813213173487
 30
0.0
 11
1581.654707624127
 21
287.0813213173487
 31
0.0
  0
ARC
  5
68E
330
17
100
AcDbEntity
  8
4
100
AcDbCircle
 10
1628.654711624127
 20
259.8615893173488
 30
0.0
 40
5.00004
100
AcDbArc
 50
278.9495009999987
 51
0.0
  0
LINE
  5
68F
330
17
100
AcDbEntity
  8
4
100
AcDbLine
 10
1601.699141624127
 20
227.7917693173488
 30
0.0
 11
1600.199141624127
 21
227.7917693173488
 31
0.0
  0
LINE
  5
690
330
17
100
AcDbEntity
  8
4
100
AcDbLine
 10
1600.199141624127
 20
228.7917653173488
 30
0.0
 11
1593.199145624127
 21
228.7917653173488
 31
0.0
  0
LINE
  5
691
330
17
100
AcDbEntity
  8
4
100
AcDbLine
 10
1601.699141624127
 20
230.7917693173488
 30
0.0
 11
1605.237227624127
 21
230.7917693173488
 31
0.0
  0
LINE
  5
692
330
17
100
AcDbEntity
  8
4
100
AcDbLine
 10
1604.797043624127
 20
252.7917653173488
 30
0.0
 11
1596.654707624127
 21
252.7917653173488
 31
0.0
  0
LINE
  5
693
330
17
100
AcDbEntity
  8
4
100
AcDbLine
 10
1630.730393624127
 20
233.4690113173488
 30
0.0
 11
1633.318529624127
 21
243.1281953173487
 31
0.0
  0
ARC
  5
694
330
17
100
AcDbEntity
  8
4
100
AcDbCircle
 10
1691.654465624127
 20
-140.2084746826512
 30
0.0
 40
400.0000319999999
100
AcDbArc
 50
98.94922300000002
 51
99.42313600000003
  0
ARC
  5
695
330
17
100
AcDbEntity
  8
4
100
AcDbCircle
 10
1626.984545624127
 20
249.4616873173488
 30
0.0
 40
5.000082
100
AcDbArc
 50
99.42277499999994
 51
170.5772250000002
  0
ARC
  5
696
330
17
100
AcDbEntity
  8
4
100
AcDbCircle
 10
1629.565109624127
 20
246.8811233173487
 30
0.0
 40
4.999896
100
AcDbArc
 50
99.04330599999884
 51
170.9566939999997
  0
LINE
  5
697
330
17
100
AcDbEntity
  8
4
100
AcDbLine
 10
1581.654707624127
 20
294.7917653173488
 30
0.0
 11
1596.654707624127
 21
294.7917653173488
 31
0.0
  0
LINE
  5
698
330
17
100
AcDbEntity
  8
4
100
AcDbLine
 10
1571.654711624127
 20
324.2588093173488
 30
0.0
 11
1571.654711624127
 21
339.2588093173488
 31
0.0
  0
LINE
  5
699
330
17
100
AcDbEntity
  8
4
100
AcDbLine
 10
1579.154711624127
 20
321.7588073173488
 30
0.0
 11
1579.154711624127
 21
341.7588113173488
 31
0.0
  0
LINE
  5
69A
330
17
100
AcDbEntity
  8
4
100
AcDbLine
 10
1581.654707624127
 20
321.7588073173488
 30
0.0
 11
1581.654707624127
 21
341.7588113173488
 31
0.0
  0
ARC
  5
69B
330
17
100
AcDbEntity
  8
4
100
AcDbCircle
 10
1575.474533624127
 20
324.2588093173488
 30
0.0
 40
3.819708
100
AcDbArc
 50
139.1182680000003
 51
220.8817319999997
  0
LINE
  5
69C
330
17
100
AcDbEntity
  8
4
100
AcDbLine
 10
1572.512621624127
 20
307.0813193173487
 30
0.0
 11
1581.654707624127
 21
307.0813193173487
 31
0.0
  0
LINE
  5
69D
330
17
100
AcDbEntity
  8
4
100
AcDbLine
 10
1581.654707624127
 20
294.5810753173488
 30
0.0
 11
1579.154711624127
 21
297.0810773173488
 31
0.0
  0
LINE
  5
69E
330
17
100
AcDbEntity
  8
4
100
AcDbLine
 10
1581.654707624127
 20
297.0813173173487
 30
0.0
 11
1579.154711624127
 21
299.5813193173487
 31
0.0
  0
LINE
  5
69F
330
17
100
AcDbEntity
  8
4
100
AcDbLine
 10
1572.512621624127
 20
321.7588073173488
 30
0.0
 11
1581.654707624127
 21
321.7588073173488
 31
0.0
  0
ARC
  5
6A0
330
17
100
AcDbEntity
  8
4
100
AcDbCircle
 10
1586.654711624127
 20
297.0813173173487
 30
0.0
 40
14.999958
100
AcDbArc
 50
160.5287209999997
 51
199.4712789999999
  0
LINE
  5
6A1
330
17
100
AcDbEntity
  8
4
100
AcDbLine
 10
1579.154711624127
 20
292.0813193173487
 30
0.0
 11
1572.512621624127
 21
292.0813193173487
 31
0.0
  0
ARC
  5
6A2
330
17
100
AcDbEntity
  8
4
100
AcDbCircle
 10
1575.474533624127
 20
304.5813173173487
 30
0.0
 40
3.819708
100
AcDbArc
 50
139.1182680000003
 51
220.8817319999997
  0
LINE
  5
6A3
330
17
100
AcDbEntity
  8
4
100
AcDbLine
 10
1579.154711624127
 20
302.0813213173487
 30
0.0
 11
1572.512621624127
 21
302.0813213173487
 31
0.0
  0
ARC
  5
6A4
330
17
100
AcDbEntity
  8
4
100
AcDbCircle
 10
1586.654711624127
 20
331.7588093173488
 30
0.0
 40
14.999958
100
AcDbArc
 50
160.5287209999997
 51
199.4712790000003
  0
LINE
  5
6A5
330
17
100
AcDbEntity
  8
4
100
AcDbLine
 10
1579.154711624127
 20
326.7588113173488
 30
0.0
 11
1572.512621624127
 21
326.7588113173488
 31
0.0
  0
LINE
  5
6A6
330
17
100
AcDbEntity
  8
4
100
AcDbLine
 10
1572.512621624127
 20
341.7588113173488
 30
0.0
 11
1581.654707624127
 21
341.7588113173488
 31
0.0
  0
LINE
  5
6A7
330
17
100
AcDbEntity
  8
4
100
AcDbLine
 10
1581.654707624127
 20
329.2585673173487
 30
0.0
 11
1579.154711624127
 21
331.7585633173487
 31
0.0
  0
LINE
  5
6A8
330
17
100
AcDbEntity
  8
4
100
AcDbLine
 10
1581.654707624127
 20
331.7588093173488
 30
0.0
 11
1579.154711624127
 21
334.2588113173488
 31
0.0
  0
ARC
  5
6A9
330
17
100
AcDbEntity
  8
4
100
AcDbCircle
 10
1575.474533624127
 20
339.2588093173488
 30
0.0
 40
3.819708
100
AcDbArc
 50
139.1182680000003
 51
220.8817319999997
  0
LINE
  5
6AA
330
17
100
AcDbEntity
  8
4
100
AcDbLine
 10
1579.154711624127
 20
336.7588073173488
 30
0.0
 11
1572.512621624127
 21
336.7588073173488
 31
0.0
  0
LINE
  5
6AB
330
17
100
AcDbEntity
  8
4
100
AcDbLine
 10
1604.154707624127
 20
294.7917653173488
 30
0.0
 11
1596.654707624127
 21
294.7917653173488
 31
0.0
  0
ARC
  5
6B1
330
17
100
AcDbEntity
  8
4
100
AcDbCircle
 10
1575.474533624127
 20
430.3247273173488
 30
0.0
 40
3.819708
100
AcDbArc
 50
139.1182680000003
 51
220.8817319999997
  0
LINE
  5
6B2
330
17
100
AcDbEntity
  8
4
100
AcDbLine
 10
1571.654711624127
 20
430.3247273173488
 30
0.0
 11
1571.654711624127
 21
445.3247273173488
 31
0.0
  0
LINE
  5
6B3
330
17
100
AcDbEntity
  8
4
100
AcDbLine
 10
1579.154711624127
 20
427.8247253173488
 30
0.0
 11
1579.154711624127
 21
447.8247233173488
 31
0.0
  0
LINE
  5
6B4
330
17
100
AcDbEntity
  8
4
100
AcDbLine
 10
1581.654707624127
 20
427.8247253173488
 30
0.0
 11
1581.654707624127
 21
447.8247233173488
 31
0.0
  0
LINE
  5
6B5
330
17
100
AcDbEntity
  8
4
100
AcDbLine
 10
1572.512621624127
 20
427.8247253173488
 30
0.0
 11
1581.654707624127
 21
427.8247253173488
 31
0.0
  0
LINE
  5
6B6
330
17
100
AcDbEntity
  8
4
100
AcDbLine
 10
1581.654707624127
 20
482.7917693173488
 30
0.0
 11
1596.654707624127
 21
482.7917693173488
 31
0.0
  0
LINE
  5
6B7
330
17
100
AcDbEntity
  8
4
100
AcDbLine
 10
1581.654707624127
 20
474.7917653173488
 30
0.0
 11
1596.654707624127
 21
474.7917653173488
 31
0.0
  0
LINE
  5
6B8
330
17
100
AcDbEntity
  8
4
100
AcDbLine
 10
1572.512621624127
 20
447.8247233173488
 30
0.0
 11
1581.654707624127
 21
447.8247233173488
 31
0.0
  0
LINE
  5
6B9
330
17
100
AcDbEntity
  8
4
100
AcDbLine
 10
1581.654707624127
 20
435.3244793173487
 30
0.0
 11
1579.154711624127
 21
437.8244813173487
 31
0.0
  0
LINE
  5
6BA
330
17
100
AcDbEntity
  8
4
100
AcDbLine
 10
1581.654707624127
 20
437.8247273173488
 30
0.0
 11
1579.154711624127
 21
440.3247233173488
 31
0.0
  0
ARC
  5
6BB
330
17
100
AcDbEntity
  8
4
100
AcDbCircle
 10
1586.654711624127
 20
437.8247273173488
 30
0.0
 40
14.999958
100
AcDbArc
 50
160.5287209999997
 51
199.4712790000003
  0
ARC
  5
6BC
330
17
100
AcDbEntity
  8
4
100
AcDbCircle
 10
1575.474533624127
 20
445.3247273173488
 30
0.0
 40
3.819708
100
AcDbArc
 50
139.1182680000003
 51
220.8817319999997
  0
LINE
  5
6BD
330
17
100
AcDbEntity
  8
4
100
AcDbLine
 10
1579.154711624127
 20
442.8247253173488
 30
0.0
 11
1572.512621624127
 21
442.8247253173488
 31
0.0
  0
LINE
  5
6BE
330
17
100
AcDbEntity
  8
4
100
AcDbLine
 10
1579.154711624127
 20
432.8247233173488
 30
0.0
 11
1572.512621624127
 21
432.8247233173488
 31
0.0
  0
LINE
  5
6BF
330
17
100
AcDbEntity
  8
4
100
AcDbLine
 10
1596.654707624127
 20
482.7917693173488
 30
0.0
 11
1604.458907624127
 21
482.7917693173488
 31
0.0
  0
LINE
  5
6C0
330
17
100
AcDbEntity
  8
4
100
AcDbLine
 10
1604.340011624127
 20
474.7917653173488
 30
0.0
 11
1596.654707624127
 21
474.7917653173488
 31
0.0
  0
ARC
  5
6C1
330
17
100
AcDbEntity
  8
4
100
AcDbCircle
 10
-4926.340134375873
 20
377.7917693173488
 30
0.0
 40
6800.000058
100
AcDbArc
 50
359.1338589999999
 51
0.8662479999998799
  0
LINE
  5
6C2
330
17
100
AcDbEntity
  8
4
100
AcDbLine
 10
1895.654711624127
 20
482.7917693173488
 30
0.0
 11
1895.654711624127
 21
252.7917653173488
 31
0.0
  0
LINE
  5
6C3
330
17
100
AcDbEntity
  8
4
100
AcDbLine
 10
1880.654711624127
 20
274.9859033173487
 30
0.0
 11
1880.654711624127
 21
480.5960093173489
 31
0.0
  0
LINE
  5
6C4
330
17
100
AcDbEntity
  8
4
100
AcDbLine
 10
1911.654707624127
 20
320.2917653173488
 30
0.0
 11
1911.654707624127
 21
415.2917693173488
 31
0.0
  0
LINE
  5
6C5
330
17
100
AcDbEntity
  8
4
100
AcDbLine
 10
1897.154711624127
 20
341.7588113173488
 30
0.0
 11
1897.154711624127
 21
427.8247253173488
 31
0.0
  0
LINE
  5
6C7
330
17
100
AcDbEntity
  8
4
100
AcDbLine
 10
1893.654707624127
 20
84.79177131734878
 30
0.0
 11
1843.654709624127
 21
184.7917673173488
 31
0.0
  0
ARC
  5
6C8
330
17
100
AcDbEntity
  8
4
100
AcDbCircle
 10
1863.654707624127
 20
104.7917693173488
 30
0.0
 40
19.999998
100
AcDbArc
 50
180.0006989997668
 51
270.0006990000002
  0
LINE
  5
6C9
330
17
100
AcDbEntity
  8
L-CENTER
100
AcDbLine
 10
1841.735062557058
 20
262.9885433173488
 30
0.0
 11
1887.735064557058
 21
262.9848833173488
 31
0.0
  0
LINE
  5
6CA
330
17
100
AcDbEntity
  8
L-CENTER
100
AcDbLine
 10
1691.654711624127
 20
268.8003773173488
 30
0.0
 11
1691.654711624127
 21
100.7831573173488
 31
0.0
  0
CIRCLE
  5
6CB
330
17
100
AcDbEntity
  8
4
100
AcDbCircle
 10
1691.654711624127
 20
184.7917673173488
 30
0.0
 40
36.0
  0
ARC
  5
6CC
330
17
100
AcDbEntity
  8
4
100
AcDbCircle
 10
1363.654709624127
 20
184.7917673173488
 30
0.0
 40
399.9999300000001
100
AcDbArc
 50
350.957092
 51
9.043759000000014
  0
LINE
  5
6CD
330
17
100
AcDbEntity
  8
L-CENTER
100
AcDbLine
 10
1728.409312824772
 20
148.0371677959129
 30
0.0
 11
1757.430588250335
 21
119.0158837783933
 31
0.0
  0
CIRCLE
  5
6CE
330
17
100
AcDbEntity
  8
4
100
AcDbCircle
 10
1742.919845624127
 20
133.5266333173488
 30
0.0
 40
8.660154
  0
LINE
  5
6CF
330
17
100
AcDbEntity
  8
4
100
AcDbLine
 10
1735.848803624127
 20
140.5979213173488
 30
0.0
 11
1745.508221624127
 21
143.1858113173488
 31
0.0
  0
LINE
  5
6D0
330
17
100
AcDbEntity
  8
4
100
AcDbLine
 10
1749.990647624127
 20
126.4553393173488
 30
0.0
 11
1740.331469624127
 21
123.8674493173488
 31
0.0
  0
LINE
  5
6D1
330
17
100
AcDbEntity
  8
4
100
AcDbLine
 10
1647.460619624127
 20
140.5979213173488
 30
0.0
 11
1650.048755624127
 21
130.9387433173488
 31
0.0
  0
LINE
  5
6D2
330
17
100
AcDbEntity
  8
4
100
AcDbLine
 10
1650.048755624127
 20
130.9387433173488
 30
0.0
 11
1642.977953624127
 21
123.8674493173488
 31
0.0
  0
LINE
  5
6D3
330
17
100
AcDbEntity
  8
4
100
AcDbLine
 10
1637.801195624127
 20
143.1858113173488
 30
0.0
 11
1647.460619624127
 21
140.5979213173488
 31
0.0
  0
LINE
  5
6D4
330
17
100
AcDbEntity
  8
4
100
AcDbLine
 10
1740.331469624127
 20
123.8674493173488
 30
0.0
 11
1733.260667624127
 21
130.9387433173488
 31
0.0
  0
LINE
  5
6D5
330
17
100
AcDbEntity
  8
4
100
AcDbLine
 10
1733.260667624127
 20
130.9387433173488
 30
0.0
 11
1735.848803624127
 21
140.5979213173488
 31
0.0
  0
ARC
  5
6D6
330
17
100
AcDbEntity
  8
4
100
AcDbCircle
 10
1691.654711624127
 20
184.7917673173488
 30
0.0
 40
23.00001
100
AcDbArc
 50
105.1216580000003
 51
74.87834199999975
  0
LINE
  5
6D7
330
17
100
AcDbEntity
  8
4
100
AcDbLine
 10
1697.654711624127
 20
211.2917693173488
 30
0.0
 11
1685.654711624127
 21
211.2917693173488
 31
0.0
  0
LINE
  5
6D8
330
17
100
AcDbEntity
  8
4
100
AcDbLine
 10
1697.654711624127
 20
203.2917653173488
 30
0.0
 11
1685.654711624127
 21
203.2917653173488
 31
0.0
  0
LINE
  5
6D9
330
17
100
AcDbEntity
  8
4
100
AcDbLine
 10
1685.654711624127
 20
211.2917693173488
 30
0.0
 11
1685.654711624127
 21
203.2917653173488
 31
0.0
  0
LINE
  5
6DA
330
17
100
AcDbEntity
  8
4
100
AcDbLine
 10
1697.654711624127
 20
203.2917653173488
 30
0.0
 11
1697.654711624127
 21
211.2917693173488
 31
0.0
  0
ARC
  5
6DB
330
17
100
AcDbEntity
  8
4
100
AcDbCircle
 10
1753.744307624127
 20
122.7024113173488
 30
0.0
 40
4.999896
100
AcDbArc
 50
279.0433169999993
 51
350.956685
  0
LINE
  5
6DC
330
17
100
AcDbEntity
  8
4
100
AcDbLine
 10
1745.508221624127
 20
143.1858113173488
 30
0.0
 11
1752.579023624127
 21
136.1145233173488
 31
0.0
  0
LINE
  5
6DD
330
17
100
AcDbEntity
  8
4
100
AcDbLine
 10
1752.579023624127
 20
136.1145233173488
 30
0.0
 11
1749.990647624127
 21
126.4553393173488
 31
0.0
  0
LINE
  5
6DE
330
17
100
AcDbEntity
  8
L-CENTER
100
AcDbLine
 10
1728.409308985167
 20
221.5463706783889
 30
0.0
 11
1757.430588706709
 21
250.5676503999305
 31
0.0
  0
CIRCLE
  5
6DF
330
17
100
AcDbEntity
  8
4
100
AcDbCircle
 10
1742.919845624127
 20
236.0569073173488
 30
0.0
 40
8.660154
  0
LINE
  5
6E0
330
17
100
AcDbEntity
  8
4
100
AcDbLine
 10
1745.508221624127
 20
226.3977233173488
 30
0.0
 11
1735.849043624127
 21
228.9856133173488
 31
0.0
  0
LINE
  5
6E1
330
17
100
AcDbEntity
  8
4
100
AcDbLine
 10
1740.331469624127
 20
245.7160853173488
 30
0.0
 11
1749.990887624127
 21
243.1281953173487
 31
0.0
  0
LINE
  5
6E2
330
17
100
AcDbEntity
  8
4
100
AcDbLine
 10
1642.977953624127
 20
245.7160853173488
 30
0.0
 11
1650.048755624127
 21
238.6447973173488
 31
0.0
  0
LINE
  5
6E3
330
17
100
AcDbEntity
  8
4
100
AcDbLine
 10
1650.048755624127
 20
238.6447973173488
 30
0.0
 11
1647.460373624127
 21
228.9856133173488
 31
0.0
  0
LINE
  5
6E4
330
17
100
AcDbEntity
  8
4
100
AcDbLine
 10
1647.460373624127
 20
228.9856133173488
 30
0.0
 11
1637.801195624127
 21
226.3977233173488
 31
0.0
  0
LINE
  5
6E5
330
17
100
AcDbEntity
  8
4
100
AcDbLine
 10
1735.849043624127
 20
228.9856133173488
 30
0.0
 11
1733.260667624127
 21
238.6447973173488
 31
0.0
  0
LINE
  5
6E6
330
17
100
AcDbEntity
  8
4
100
AcDbLine
 10
1733.260667624127
 20
238.6447973173488
 30
0.0
 11
1740.331469624127
 21
245.7160853173488
 31
0.0
  0
LINE
  5
6E7
330
17
100
AcDbEntity
  8
4
100
AcDbLine
 10
1749.990887624127
 20
243.1281953173487
 30
0.0
 11
1752.579023624127
 21
233.4690113173488
 31
0.0
  0
LINE
  5
6E8
330
17
100
AcDbEntity
  8
4
100
AcDbLine
 10
1752.579023624127
 20
233.4690113173488
 30
0.0
 11
1745.508221624127
 21
226.3977233173488
 31
0.0
  0
ARC
  5
6E9
330
17
100
AcDbEntity
  8
4
100
AcDbCircle
 10
1753.744307624127
 20
246.8811233173487
 30
0.0
 40
4.999896
100
AcDbArc
 50
9.043304000000497
 51
80.95668300000064
  0
ARC
  5
6EA
330
17
100
AcDbEntity
  8
4
100
AcDbCircle
 10
-4926.340134375873
 20
377.7917693173488
 30
0.0
 40
6799.999986000001
100
AcDbArc
 50
358.608554
 51
358.9316859999999
  0
ARC
  5
6EC
330
17
100
AcDbEntity
  8
4
100
AcDbCircle
 10
1930.654709624127
 20
81.79177131734878
 30
0.0
 40
3.0
100
AcDbArc
 50
0.0
 51
90.0
  0
LINE
  5
6EF
330
17
100
AcDbEntity
  8
4
100
AcDbLine
 10
1905.655439624127
 20
304.5803393173488
 30
0.0
 11
1905.654221624127
 21
289.5803393173488
 31
0.0
  0
LINE
  5
6F0
330
17
100
AcDbEntity
  8
4
100
AcDbLine
 10
1898.155685624127
 20
307.0810733173488
 30
0.0
 11
1898.153975624127
 21
287.0810753173488
 31
0.0
  0
LINE
  5
6F1
330
17
100
AcDbEntity
  8
4
100
AcDbLine
 10
1895.655683624127
 20
307.0813193173487
 30
0.0
 11
1895.653973624127
 21
287.0813213173487
 31
0.0
  0
ARC
  5
6F2
330
17
100
AcDbEntity
  8
4
100
AcDbCircle
 10
1901.834393624127
 20
289.5808313173488
 30
0.0
 40
3.819713999999999
100
AcDbArc
 50
319.113114999999
 51
40.87656000000063
  0
LINE
  5
6F3
330
17
100
AcDbEntity
  8
4
100
AcDbLine
 10
1904.796065624127
 20
287.0805893173488
 30
0.0
 11
1895.653973624127
 21
287.0813213173487
 31
0.0
  0
LINE
  5
6F4
330
17
100
AcDbEntity
  8
4
100
AcDbLine
 10
1883.155685624127
 20
271.9858613173487
 30
0.0
 11
1883.153975624127
 21
253.9858613173487
 31
0.0
  0
LINE
  5
6F5
330
17
100
AcDbEntity
  8
4
100
AcDbLine
 10
1874.155931624127
 20
274.9865933173488
 30
0.0
 11
1874.153729624127
 21
250.9865933173488
 31
0.0
  0
LINE
  5
6F6
330
17
100
AcDbEntity
  8
4
100
AcDbLine
 10
1871.655929624127
 20
274.9868393173488
 30
0.0
 11
1871.653733624127
 21
250.9868393173488
 31
0.0
  0
ARC
  5
6F7
330
17
100
AcDbEntity
  8
4
100
AcDbCircle
 10
1878.570233624127
 20
253.9861013173488
 30
0.0
 40
4.583598
100
AcDbArc
 50
319.1123719999998
 51
40.87702700000057
  0
LINE
  5
6F8
330
17
100
AcDbEntity
  8
4
100
AcDbLine
 10
1882.124189624127
 20
250.9858613173487
 30
0.0
 11
1871.653733624127
 21
250.9868393173488
 31
0.0
  0
LINE
  5
6F9
330
17
100
AcDbEntity
  8
4
100
AcDbLine
 10
1895.654711624127
 20
252.7917653173488
 30
0.0
 11
1882.995497624127
 21
252.7917653173488
 31
0.0
  0
LINE
  5
6FA
330
17
100
AcDbEntity
  8
4
100
AcDbLine
 10
1882.126385624127
 20
274.9858613173487
 30
0.0
 11
1871.655929624127
 21
274.9868393173488
 31
0.0
  0
LINE
  5
6FB
330
17
100
AcDbEntity
  8
4
100
AcDbLine
 10
1874.154707624127
 20
262.9865933173488
 30
0.0
 11
1871.654951624127
 21
265.4868353173488
 31
0.0
  0
LINE
  5
6FC
330
17
100
AcDbEntity
  8
4
100
AcDbLine
 10
1874.154707624127
 20
260.4865913173488
 30
0.0
 11
1871.654711624127
 21
262.9868393173488
 31
0.0
  0
ARC
  5
6FD
330
17
100
AcDbEntity
  8
4
100
AcDbCircle
 10
1865.154707624127
 20
262.9873253173488
 30
0.0
 40
18.000018
100
AcDbArc
 50
340.5237549999999
 51
19.46615800000007
  0
LINE
  5
6FE
330
17
100
AcDbEntity
  8
4
100
AcDbLine
 10
1874.154221624127
 20
256.9865933173488
 30
0.0
 11
1874.155439624127
 21
268.9865933173488
 31
0.0
  0
LINE
  5
6FF
330
17
100
AcDbEntity
  8
4
100
AcDbLine
 10
1874.154221624127
 20
256.9865933173488
 30
0.0
 11
1882.124681624127
 21
256.9858613173487
 31
0.0
  0
LINE
  5
700
330
17
100
AcDbEntity
  8
4
100
AcDbLine
 10
1874.155439624127
 20
268.9865933173488
 30
0.0
 11
1882.125899624127
 21
268.9858613173487
 31
0.0
  0
ARC
  5
701
330
17
100
AcDbEntity
  8
4
100
AcDbCircle
 10
1878.571943624127
 20
271.9861013173488
 30
0.0
 40
4.583598
100
AcDbArc
 50
319.1123719999998
 51
40.87702700000057
  0
LINE
  5
702
330
17
100
AcDbEntity
  8
4
100
AcDbLine
 10
1898.154467624127
 20
292.0810733173488
 30
0.0
 11
1904.796557624127
 21
292.0805873173488
 31
0.0
  0
LINE
  5
703
330
17
100
AcDbEntity
  8
4
100
AcDbLine
 10
1898.155199624127
 20
302.0810753173488
 30
0.0
 11
1904.797289624127
 21
302.0805893173488
 31
0.0
  0
LINE
  5
704
330
17
100
AcDbEntity
  8
4
100
AcDbLine
 10
1904.797775624127
 20
307.0805873173488
 30
0.0
 11
1895.655683624127
 21
307.0813193173487
 31
0.0
  0
LINE
  5
705
330
17
100
AcDbEntity
  8
4
100
AcDbLine
 10
1898.154467624127
 20
326.7585653173487
 30
0.0
 11
1904.796557624127
 21
326.7580793173488
 31
0.0
  0
LINE
  5
706
330
17
100
AcDbEntity
  8
4
100
AcDbLine
 10
1904.796065624127
 20
321.7580753173488
 30
0.0
 11
1895.653973624127
 21
321.7588073173488
 31
0.0
  0
LINE
  5
707
330
17
100
AcDbEntity
  8
4
100
AcDbLine
 10
1897.154711624127
 20
320.2917653173488
 30
0.0
 11
1911.654707624127
 21
320.2917653173488
 31
0.0
  0
LINE
  5
708
330
17
100
AcDbEntity
  8
4
100
AcDbLine
 10
1898.155199624127
 20
336.7585673173487
 30
0.0
 11
1904.797289624127
 21
336.7580753173488
 31
0.0
  0
LINE
  5
709
330
17
100
AcDbEntity
  8
4
100
AcDbLine
 10
1904.797775624127
 20
341.7580793173488
 30
0.0
 11
1895.655683624127
 21
341.7588113173488
 31
0.0
  0
LINE
  5
70A
330
17
100
AcDbEntity
  8
4
100
AcDbLine
 10
1898.155685624127
 20
341.7585653173487
 30
0.0
 11
1898.153975624127
 21
321.7585673173487
 31
0.0
  0
LINE
  5
70B
330
17
100
AcDbEntity
  8
4
100
AcDbLine
 10
1895.655683624127
 20
341.7588113173488
 30
0.0
 11
1895.653973624127
 21
321.7588073173488
 31
0.0
  0
LINE
  5
70C
330
17
100
AcDbEntity
  8
4
100
AcDbLine
 10
1873.154711624127
 20
294.7917653173488
 30
0.0
 11
1880.654711624127
 21
294.7917653173488
 31
0.0
  0
LINE
  5
70D
330
17
100
AcDbEntity
  8
4
100
AcDbLine
 10
1897.154711624127
 20
307.0813193173487
 30
0.0
 11
1897.154711624127
 21
321.7588073173488
 31
0.0
  0
LINE
  5
70E
330
17
100
AcDbEntity
  8
4
100
AcDbLine
 10
1895.654951624127
 20
299.5815653173488
 30
0.0
 11
1898.154707624127
 21
297.0813173173487
 31
0.0
  0
LINE
  5
70F
330
17
100
AcDbEntity
  8
4
100
AcDbLine
 10
1895.654711624127
 20
297.0813173173487
 30
0.0
 11
1898.154707624127
 21
294.5810753173488
 31
0.0
  0
LINE
  5
710
330
17
100
AcDbEntity
  8
4
100
AcDbLine
 10
1895.654711624127
 20
294.7917653173488
 30
0.0
 11
1880.654711624127
 21
294.7917653173488
 31
0.0
  0
LINE
  5
711
330
17
100
AcDbEntity
  8
4
100
AcDbLine
 10
1895.654951624127
 20
334.2590513173488
 30
0.0
 11
1898.154707624127
 21
331.7588093173488
 31
0.0
  0
LINE
  5
712
330
17
100
AcDbEntity
  8
4
100
AcDbLine
 10
1895.654711624127
 20
331.7588093173488
 30
0.0
 11
1898.154707624127
 21
329.2585673173487
 31
0.0
  0
LINE
  5
713
330
17
100
AcDbEntity
  8
4
100
AcDbLine
 10
1905.655439624127
 20
339.2578313173487
 30
0.0
 11
1905.654221624127
 21
324.2578313173487
 31
0.0
  0
ARC
  5
714
330
17
100
AcDbEntity
  8
4
100
AcDbCircle
 10
1901.834393624127
 20
324.2583233173489
 30
0.0
 40
3.819713999999999
100
AcDbArc
 50
319.1131149999977
 51
40.87656000000063
  0
ARC
  5
715
330
17
100
AcDbEntity
  8
4
100
AcDbCircle
 10
1890.654707624127
 20
297.0818093173488
 30
0.0
 40
14.999958
100
AcDbArc
 50
340.5237049999998
 51
19.46626399999993
  0
ARC
  5
716
330
17
100
AcDbEntity
  8
4
100
AcDbCircle
 10
1901.835617624127
 20
304.5808313173488
 30
0.0
 40
3.819713999999999
100
AcDbArc
 50
319.1131049999983
 51
40.87656000000063
  0
ARC
  5
717
330
17
100
AcDbEntity
  8
4
100
AcDbCircle
 10
1890.654707624127
 20
331.7592953173489
 30
0.0
 40
14.999958
100
AcDbArc
 50
340.5237009999997
 51
19.4662599999999
  0
ARC
  5
718
330
17
100
AcDbEntity
  8
4
100
AcDbCircle
 10
1901.835617624127
 20
339.2583233173489
 30
0.0
 40
3.819713999999999
100
AcDbArc
 50
319.1131049999983
 51
40.87656000000063
  0
LINE
  5
719
330
17
100
AcDbEntity
  8
L-CENTER
100
AcDbLine
 10
1841.735062557058
 20
492.5986493173486
 30
0.0
 11
1887.735064557058
 21
492.5949893173488
 31
0.0
  0
LINE
  5
71E
330
17
100
AcDbEntity
  8
4
100
AcDbLine
 10
1874.155931624127
 20
504.5966993173488
 30
0.0
 11
1874.153729624127
 21
480.5966993173488
 31
0.0
  0
LINE
  5
71F
330
17
100
AcDbEntity
  8
4
100
AcDbLine
 10
1871.655929624127
 20
504.5969453173489
 30
0.0
 11
1871.653733624127
 21
480.5969453173489
 31
0.0
  0
ARC
  5
720
330
17
100
AcDbEntity
  8
4
100
AcDbCircle
 10
1878.571943624127
 20
501.5962133173489
 30
0.0
 40
4.583598
100
AcDbArc
 50
319.1123619999994
 51
40.87701799999994
  0
LINE
  5
721
330
17
100
AcDbEntity
  8
4
100
AcDbLine
 10
1883.155685624127
 20
501.5959673173488
 30
0.0
 11
1883.153975624127
 21
483.5957753173489
 31
0.0
  0
ARC
  5
723
330
17
100
AcDbEntity
  8
4
100
AcDbCircle
 10
1901.834393624127
 20
430.3242353173489
 30
0.0
 40
3.819713999999999
100
AcDbArc
 50
319.1131150000003
 51
40.87656000000063
  0
LINE
  5
724
330
17
100
AcDbEntity
  8
4
100
AcDbLine
 10
1905.655439624127
 20
445.3237493173488
 30
0.0
 11
1905.654221624127
 21
430.3237493173488
 31
0.0
  0
LINE
  5
725
330
17
100
AcDbEntity
  8
4
100
AcDbLine
 10
1898.155685624127
 20
447.8244833173487
 30
0.0
 11
1898.153975624127
 21
427.8244793173487
 31
0.0
  0
LINE
  5
726
330
17
100
AcDbEntity
  8
4
100
AcDbLine
 10
1895.655683624127
 20
447.8247233173488
 30
0.0
 11
1895.653973624127
 21
427.8247253173488
 31
0.0
  0
LINE
  5
727
330
17
100
AcDbEntity
  8
4
100
AcDbLine
 10
1904.796065624127
 20
427.8239933173488
 30
0.0
 11
1895.653973624127
 21
427.8247253173488
 31
0.0
  0
LINE
  5
728
330
17
100
AcDbEntity
  8
4
100
AcDbLine
 10
1897.154711624127
 20
415.2917693173488
 30
0.0
 11
1911.654707624127
 21
415.2917693173488
 31
0.0
  0
LINE
  5
729
330
17
100
AcDbEntity
  8
4
100
AcDbLine
 10
1921.654709624127
 20
420.7917653173488
 30
0.0
 11
1921.654709624127
 21
412.7917673173488
 31
0.0
  0
LINE
  5
72A
330
17
100
AcDbEntity
  8
4
100
AcDbLine
 10
1898.154467624127
 20
432.8244833173487
 30
0.0
 11
1904.796557624127
 21
432.8239913173488
 31
0.0
  0
LINE
  5
72B
330
17
100
AcDbEntity
  8
4
100
AcDbLine
 10
1898.155199624127
 20
442.8244793173487
 30
0.0
 11
1904.797289624127
 21
442.8239933173488
 31
0.0
  0
LINE
  5
72C
330
17
100
AcDbEntity
  8
4
100
AcDbLine
 10
1904.797775624127
 20
447.8239913173488
 30
0.0
 11
1895.655683624127
 21
447.8247233173488
 31
0.0
  0
LINE
  5
72D
330
17
100
AcDbEntity
  8
4
100
AcDbLine
 10
1895.654951624127
 20
440.3249693173489
 30
0.0
 11
1898.154707624127
 21
437.8247273173488
 31
0.0
  0
LINE
  5
72E
330
17
100
AcDbEntity
  8
4
100
AcDbLine
 10
1895.654711624127
 20
437.8247273173488
 30
0.0
 11
1898.154707624127
 21
435.3244793173487
 31
0.0
  0
LINE
  5
72F
330
17
100
AcDbEntity
  8
4
100
AcDbLine
 10
1882.035485624127
 20
480.5959733173488
 30
0.0
 11
1871.653733624127
 21
480.5969453173489
 31
0.0
  0
LINE
  5
730
330
17
100
AcDbEntity
  8
4
100
AcDbLine
 10
1872.969407624127
 20
474.7917653173488
 30
0.0
 11
1880.654711624127
 21
474.7917653173488
 31
0.0
  0
LINE
  5
731
330
17
100
AcDbEntity
  8
4
100
AcDbLine
 10
1874.154707624127
 20
492.5966993173488
 30
0.0
 11
1871.654951624127
 21
495.0969413173489
 31
0.0
  0
LINE
  5
732
330
17
100
AcDbEntity
  8
4
100
AcDbLine
 10
1874.154707624127
 20
490.0966973173488
 30
0.0
 11
1871.654711624127
 21
492.5969453173489
 31
0.0
  0
LINE
  5
733
330
17
100
AcDbEntity
  8
4
100
AcDbLine
 10
1874.154221624127
 20
486.5966993173488
 30
0.0
 11
1882.124681624127
 21
486.5959673173488
 31
0.0
  0
LINE
  5
734
330
17
100
AcDbEntity
  8
4
100
AcDbLine
 10
1874.155439624127
 20
498.5966993173488
 30
0.0
 11
1882.125899624127
 21
498.5959673173488
 31
0.0
  0
LINE
  5
735
330
17
100
AcDbEntity
  8
4
100
AcDbLine
 10
1874.154221624127
 20
486.5966993173488
 30
0.0
 11
1874.155439624127
 21
498.5966993173488
 31
0.0
  0
LINE
  5
736
330
17
100
AcDbEntity
  8
4
100
AcDbLine
 10
1882.082687624127
 20
482.7917693173488
 30
0.0
 11
1886.654711624127
 21
482.7917693173488
 31
0.0
  0
ARC
  5
737
330
17
100
AcDbEntity
  8
4
100
AcDbCircle
 10
1865.154707624127
 20
492.5974313173488
 30
0.0
 40
18.000018
100
AcDbArc
 50
340.5237549999997
 51
19.46615799999971
  0
ARC
  5
738
330
17
100
AcDbEntity
  8
4
100
AcDbCircle
 10
1878.570233624127
 20
483.5962133173489
 30
0.0
 40
4.583598
100
AcDbArc
 50
319.1137590000013
 51
40.87701799999994
  0
LINE
  5
739
330
17
100
AcDbEntity
  8
4
100
AcDbLine
 10
1895.654711624127
 20
482.7917693173488
 30
0.0
 11
1883.082689624127
 21
482.7917693173488
 31
0.0
  0
LINE
  5
73A
330
17
100
AcDbEntity
  8
4
100
AcDbLine
 10
1895.654711624127
 20
474.7917653173488
 30
0.0
 11
1880.654711624127
 21
474.7917653173488
 31
0.0
  0
ARC
  5
73B
330
17
100
AcDbEntity
  8
4
100
AcDbCircle
 10
1890.654707624127
 20
437.8252133173487
 30
0.0
 40
14.999958
100
AcDbArc
 50
340.5237050000003
 51
19.46626399999953
  0
ARC
  5
73C
330
17
100
AcDbEntity
  8
4
100
AcDbCircle
 10
1901.835617624127
 20
445.3242353173489
 30
0.0
 40
3.819713999999999
100
AcDbArc
 50
319.1131049999983
 51
40.87656000000063
  0
ARC
  5
73E
330
17
100
AcDbEntity
  8
4
100
AcDbCircle
 10
-4926.340134375873
 20
377.7917693173488
 30
0.0
 40
6800.000028
100
AcDbArc
 50
1.068497000000521
 51
1.391460000000105
  0
LINE
  5
73F
330
17
100
AcDbEntity
  8
4
100
AcDbLine
 10
1882.126385624127
 20
504.5959673173488
 30
0.0
 11
1871.655929624127
 21
504.5969453173489
 31
0.0
  0
ARC
  5
741
330
17
100
AcDbEntity
  8
4
100
AcDbCircle
 10
1635.654707624127
 20
696.7917653173488
 30
0.0
 40
1.999998
100
AcDbArc
 50
90.0
 51
180.0
  0
LINE
  5
746
330
17
100
AcDbEntity
  8
4
100
AcDbLine
 10
1612.654709624127
 20
662.7917633173488
 30
0.0
 11
1609.623215624127
 21
662.7917633173488
 31
0.0
  0
LINE
  5
747
330
17
100
AcDbEntity
  8
4
100
AcDbLine
 10
1614.654707624127
 20
692.7917633173488
 30
0.0
 11
1633.654709624127
 21
692.7917633173488
 31
0.0
  0
ARC
  5
748
330
17
100
AcDbEntity
  8
4
100
AcDbCircle
 10
1614.654707624127
 20
690.7917653173488
 30
0.0
 40
1.999998
100
AcDbArc
 50
90.0
 51
180.0
  0
LINE
  5
749
330
17
100
AcDbEntity
  8
L-CENTER
100
AcDbLine
 10
1841.735062557058
 20
654.9575393173488
 30
0.0
 11
1887.735064557058
 21
654.9538733173488
 31
0.0
  0
LINE
  5
74A
330
17
100
AcDbEntity
  8
4
100
AcDbLine
 10
1869.654707624127
 20
692.7917633173488
 30
0.0
 11
1846.654709624127
 21
692.7917633173488
 31
0.0
  0
ARC
  5
74B
330
17
100
AcDbEntity
  8
4
100
AcDbCircle
 10
1738.654709624127
 20
730.7917673173488
 30
0.0
 40
29.999904
100
AcDbArc
 50
294.4275930000003
 51
245.5724069999997
  0
CIRCLE
  5
74C
330
17
100
AcDbEntity
  8
4
100
AcDbCircle
 10
1738.654709624127
 20
730.7917673173488
 30
0.0
 40
17.500002
  0
LINE
  5
74D
330
17
100
AcDbEntity
  8
L-CENTER
100
AcDbLine
 10
1781.642987624127
 20
730.7917673173488
 30
0.0
 11
1696.855151624127
 21
730.7917673173488
 31
0.0
  0
LINE
  5
74E
330
17
100
AcDbEntity
  8
4
100
AcDbLine
 10
1841.654711624127
 20
698.7917633173488
 30
0.0
 11
1635.654707624127
 21
698.7917633173488
 31
0.0
  0
LINE
  5
74F
330
17
100
AcDbEntity
  8
4
100
AcDbLine
 10
1785.654707624127
 20
700.7917673173488
 30
0.0
 11
1691.654711624127
 21
700.7917673173488
 31
0.0
  0
LINE
  5
750
330
17
100
AcDbEntity
  8
4
100
AcDbLine
 10
1760.654711624127
 20
700.7917673173488
 30
0.0
 11
1716.654707624127
 21
700.7917673173488
 31
0.0
  0
LINE
  5
751
330
17
100
AcDbEntity
  8
4
100
AcDbLine
 10
1716.654707624127
 20
700.7917673173488
 30
0.0
 11
1760.654711624127
 21
700.7917673173488
 31
0.0
  0
LINE
  5
752
330
17
100
AcDbEntity
  8
4
100
AcDbLine
 10
1760.654711624127
 20
700.7917673173488
 30
0.0
 11
1716.654707624127
 21
700.7917673173488
 31
0.0
  0
LINE
  5
753
330
17
100
AcDbEntity
  8
4
100
AcDbLine
 10
1716.654707624127
 20
700.7917673173488
 30
0.0
 11
1760.654711624127
 21
700.7917673173488
 31
0.0
  0
LINE
  5
754
330
17
100
AcDbEntity
  8
4
100
AcDbLine
 10
1750.840499624127
 20
709.7917673173488
 30
0.0
 11
1726.468919624127
 21
709.7917673173488
 31
0.0
  0
LINE
  5
755
330
17
100
AcDbEntity
  8
4
100
AcDbLine
 10
1738.654709624127
 20
713.2917653173488
 30
0.0
 11
1750.840499624127
 21
709.7917673173488
 31
0.0
  0
LINE
  5
756
330
17
100
AcDbEntity
  8
4
100
AcDbLine
 10
1726.468919624127
 20
709.7917673173488
 30
0.0
 11
1738.654709624127
 21
713.2917653173488
 31
0.0
  0
LINE
  5
757
330
17
100
AcDbEntity
  8
4
100
AcDbLine
 10
1691.654711624127
 20
698.7917633173488
 30
0.0
 11
1691.654711624127
 21
700.7917673173488
 31
0.0
  0
LINE
  5
758
330
17
100
AcDbEntity
  8
4
100
AcDbLine
 10
1720.654709624127
 20
706.7917673173488
 30
0.0
 11
1715.654711624127
 21
706.7917673173488
 31
0.0
  0
LINE
  5
759
330
17
100
AcDbEntity
  8
4
100
AcDbLine
 10
1718.736011624127
 20
708.3586613173488
 30
0.0
 11
1718.736011624127
 21
706.7917673173488
 31
0.0
  0
LINE
  5
75A
330
17
100
AcDbEntity
  8
4
100
AcDbLine
 10
1715.654711624127
 20
702.7917653173488
 30
0.0
 11
1726.224533624127
 21
702.7917653173488
 31
0.0
  0
LINE
  5
75B
330
17
100
AcDbEntity
  8
4
100
AcDbLine
 10
1716.654707624127
 20
700.7917673173488
 30
0.0
 11
1716.654707624127
 21
702.7917653173488
 31
0.0
  0
LINE
  5
75C
330
17
100
AcDbEntity
  8
4
100
AcDbLine
 10
1715.654711624127
 20
702.7917653173488
 30
0.0
 11
1715.654711624127
 21
706.7917673173488
 31
0.0
  0
LINE
  5
75D
330
17
100
AcDbEntity
  8
4
100
AcDbLine
 10
1726.468919624127
 20
709.7917673173488
 30
0.0
 11
1726.154711624127
 21
700.7917673173488
 31
0.0
  0
LINE
  5
75E
330
17
100
AcDbEntity
  8
4
100
AcDbLine
 10
1751.084885624127
 20
702.7917653173488
 30
0.0
 11
1761.654707624127
 21
702.7917653173488
 31
0.0
  0
LINE
  5
75F
330
17
100
AcDbEntity
  8
4
100
AcDbLine
 10
1750.840499624127
 20
709.7917673173488
 30
0.0
 11
1751.154707624127
 21
700.7917673173488
 31
0.0
  0
LINE
  5
760
330
17
100
AcDbEntity
  8
4
100
AcDbLine
 10
1758.573167624127
 20
708.3584153173488
 30
0.0
 11
1758.573167624127
 21
706.7917673173488
 31
0.0
  0
LINE
  5
761
330
17
100
AcDbEntity
  8
4
100
AcDbLine
 10
1756.654709624127
 20
706.7917673173488
 30
0.0
 11
1761.654707624127
 21
706.7917673173488
 31
0.0
  0
LINE
  5
762
330
17
100
AcDbEntity
  8
4
100
AcDbLine
 10
1761.654707624127
 20
702.7917653173488
 30
0.0
 11
1761.654707624127
 21
706.7917673173488
 31
0.0
  0
LINE
  5
763
330
17
100
AcDbEntity
  8
4
100
AcDbLine
 10
1760.654711624127
 20
702.7917653173488
 30
0.0
 11
1760.654711624127
 21
700.7917673173488
 31
0.0
  0
LINE
  5
764
330
17
100
AcDbEntity
  8
4
100
AcDbLine
 10
1785.654707624127
 20
700.7917673173488
 30
0.0
 11
1785.654707624127
 21
698.7917633173488
 31
0.0
  0
ARC
  5
765
330
17
100
AcDbEntity
  8
4
100
AcDbCircle
 10
1841.654711624127
 20
696.7917653173488
 30
0.0
 40
1.999998
100
AcDbArc
 50
0.0
 51
90.0
  0
LINE
  5
766
330
17
100
AcDbEntity
  8
4
100
AcDbLine
 10
1843.654709624127
 20
692.7917633173488
 30
0.0
 11
1846.654709624127
 21
692.7917633173488
 31
0.0
  0
LINE
  5
769
330
17
100
AcDbEntity
  8
4
100
AcDbLine
 10
1882.124189624127
 20
642.9548513173488
 30
0.0
 11
1871.653733624127
 21
642.9558293173486
 31
0.0
  0
LINE
  5
76A
330
17
100
AcDbEntity
  8
4
100
AcDbLine
 10
1882.126385624127
 20
666.9548513173488
 30
0.0
 11
1871.655929624127
 21
666.9558293173486
 31
0.0
  0
LINE
  5
76B
330
17
100
AcDbEntity
  8
4
100
AcDbLine
 10
1874.154707624127
 20
654.9555833173488
 30
0.0
 11
1871.654951624127
 21
657.4558313173488
 31
0.0
  0
LINE
  5
76C
330
17
100
AcDbEntity
  8
4
100
AcDbLine
 10
1874.154707624127
 20
652.4555873173488
 30
0.0
 11
1871.654711624127
 21
654.9558293173486
 31
0.0
  0
LINE
  5
76D
330
17
100
AcDbEntity
  8
4
100
AcDbLine
 10
1871.655929624127
 20
666.9558293173486
 30
0.0
 11
1871.653733624127
 21
642.9558293173486
 31
0.0
  0
LINE
  5
76E
330
17
100
AcDbEntity
  8
4
100
AcDbLine
 10
1874.154221624127
 20
648.9555833173488
 30
0.0
 11
1882.124681624127
 21
648.9548513173488
 31
0.0
  0
LINE
  5
76F
330
17
100
AcDbEntity
  8
4
100
AcDbLine
 10
1874.155439624127
 20
660.9555833173488
 30
0.0
 11
1882.125899624127
 21
660.9548513173488
 31
0.0
  0
LINE
  5
770
330
17
100
AcDbEntity
  8
4
100
AcDbLine
 10
1874.155931624127
 20
666.9555833173488
 30
0.0
 11
1874.153729624127
 21
642.9555833173488
 31
0.0
  0
LINE
  5
771
330
17
100
AcDbEntity
  8
4
100
AcDbLine
 10
1874.154221624127
 20
648.9555833173488
 30
0.0
 11
1874.155439624127
 21
660.9555833173488
 31
0.0
  0
ARC
  5
772
330
17
100
AcDbEntity
  8
4
100
AcDbCircle
 10
1865.154707624127
 20
654.9563153173488
 30
0.0
 40
18.000018
100
AcDbArc
 50
340.5237549999997
 51
19.46615799999971
  0
ARC
  5
773
330
17
100
AcDbEntity
  8
4
100
AcDbCircle
 10
1878.570233624127
 20
645.9550973173489
 30
0.0
 40
4.583598
100
AcDbArc
 50
319.1123719999998
 51
40.87702699999949
  0
ARC
  5
774
330
17
100
AcDbEntity
  8
4
100
AcDbCircle
 10
1878.571943624127
 20
663.9550973173489
 30
0.0
 40
4.583598
100
AcDbArc
 50
319.1123719999998
 51
40.87702699999949
  0
LINE
  5
775
330
17
100
AcDbEntity
  8
4
100
AcDbLine
 10
1883.155685624127
 20
663.9548513173488
 30
0.0
 11
1883.153975624127
 21
645.9548513173488
 31
0.0
  0
ARC
  5
776
330
17
100
AcDbEntity
  8
4
100
AcDbCircle
 10
1869.654707624127
 20
690.7917653173488
 30
0.0
 40
1.999998
100
AcDbArc
 50
0.0
 51
90.0
  0
LINE
  5
779
330
17
100
AcDbEntity
  8
4
100
AcDbLine
 10
2071.654709624127
 20
323.7917693173488
 30
0.0
 11
2071.654709624127
 21
420.7917653173488
 31
0.0
  0
LINE
  5
77A
330
17
100
AcDbEntity
  8
4
100
AcDbLine
 10
2070.654707624128
 20
412.7917673173488
 30
0.0
 11
2070.654707624128
 21
322.7917673173488
 31
0.0
  0
LINE
  5
77B
330
17
100
AcDbEntity
  8
4
100
AcDbLine
 10
2071.654709624127
 20
323.7917693173488
 30
0.0
 11
2070.654707624128
 21
322.7917673173488
 31
0.0
  0
LINE
  5
77F
330
17
100
AcDbEntity
  8
4
100
AcDbLine
 10
2071.654709624127
 20
411.7917653173488
 30
0.0
 11
2070.654707624128
 21
412.7917673173488
 31
0.0
  0
LINE
  5
78F
330
17
100
AcDbEntity
  8
4
100
AcDbLine
 10
820.4934114324137
 20
573.7917693173486
 30
0.0
 11
820.4934114324137
 21
617.7917693173486
 31
0.0
  0
CIRCLE
  5
790
330
17
100
AcDbEntity
  8
4
100
AcDbCircle
 10
805.4934114324137
 20
586.791769317349
 30
0.0
 40
5.0
  0
LINE
  5
791
330
17
100
AcDbEntity
  8
4
100
AcDbLine
 10
770.4934114324133
 20
583.7917693173486
 30
0.0
 11
770.4934114324137
 21
607.7917693173486
 31
0.0
  0
LINE
  5
792
330
17
100
AcDbEntity
  8
4
100
AcDbLine
 10
755.4934114324133
 20
580.7917693173486
 30
0.0
 11
755.4934114324133
 21
610.7917693173486
 31
0.0
  0
LINE
  5
793
330
17
100
AcDbEntity
  8
4
100
AcDbLine
 10
765.4934114324133
 20
583.7917693173486
 30
0.0
 11
765.4934114324137
 21
607.7917693173486
 31
0.0
  0
LINE
  5
794
330
17
100
AcDbEntity
  8
4
100
AcDbLine
 10
750.4934114324133
 20
575.7917693173486
 30
0.0
 11
750.4934114324133
 21
615.7917693173486
 31
0.0
  0
ARC
  5
795
330
17
100
AcDbEntity
  8
4
100
AcDbCircle
 10
805.4934114324137
 20
586.791769317349
 30
0.0
 40
11.0
100
AcDbArc
 50
113.9534516247513
 51
66.04654837524868
  0
LINE
  5
796
330
17
100
AcDbEntity
  8
4
100
AcDbLine
 10
720.4934114324137
 20
573.7917693173486
 30
0.0
 11
720.4934114324137
 21
617.7917693173486
 31
0.0
  0
LINE
  5
797
330
17
100
AcDbEntity
  8
4
100
AcDbLine
 10
725.4934114324133
 20
575.7917693173486
 30
0.0
 11
725.4934114324133
 21
615.7917693173486
 31
0.0
  0
LINE
  5
798
330
17
100
AcDbEntity
  8
4
100
AcDbLine
 10
730.4934114324137
 20
580.7917693173486
 30
0.0
 11
730.4934114324137
 21
615.7917693173486
 31
0.0
  0
LINE
  5
799
330
17
100
AcDbEntity
  8
4
100
AcDbLine
 10
723.4934114324137
 20
570.7917693173486
 30
0.0
 11
817.4934114324137
 21
570.7917693173486
 31
0.0
  0
ARC
  5
79A
330
17
100
AcDbEntity
  8
4
100
AcDbCircle
 10
762.4934114324133
 20
583.7917693173486
 30
0.0
 40
8.0
100
AcDbArc
 50
270.0
 51
0.0
  0
ARC
  5
79B
330
17
100
AcDbEntity
  8
4
100
AcDbCircle
 10
762.4934114324133
 20
583.7917693173486
 30
0.0
 40
3.0
100
AcDbArc
 50
270.0000000000021
 51
0.0
  0
LINE
  5
79C
330
17
100
AcDbEntity
  8
4
100
AcDbLine
 10
755.4934114324133
 20
580.7917693173486
 30
0.0
 11
762.4934114324133
 21
580.7917693173486
 31
0.0
  0
LINE
  5
79D
330
17
100
AcDbEntity
  8
4
100
AcDbLine
 10
750.4934114324133
 20
575.7917693173486
 30
0.0
 11
762.4934114324133
 21
575.7917693173486
 31
0.0
  0
LINE
  5
79E
330
17
100
AcDbEntity
  8
4
100
AcDbLine
 10
725.4934114324133
 20
575.7917693173486
 30
0.0
 11
745.4934114324133
 21
575.7917693173486
 31
0.0
  0
LINE
  5
79F
330
17
100
AcDbEntity
  8
4
100
AcDbLine
 10
730.4934114324137
 20
580.7917693173486
 30
0.0
 11
745.4934114324133
 21
580.7917693173486
 31
0.0
  0
ARC
  5
7A0
330
17
100
AcDbEntity
  8
4
100
AcDbCircle
 10
723.4934114324137
 20
573.7917693173486
 30
0.0
 40
3.0
100
AcDbArc
 50
180.0
 51
270.0
  0
LINE
  5
7A1
330
17
100
AcDbEntity
  8
4
100
AcDbLine
 10
745.4934114324133
 20
575.7917693173486
 30
0.0
 11
745.4934114324133
 21
580.7917693173486
 31
0.0
  0
ARC
  5
7A2
330
17
100
AcDbEntity
  8
4
100
AcDbCircle
 10
817.4934114324137
 20
573.7917693173486
 30
0.0
 40
3.0
100
AcDbArc
 50
270.0
 51
0.0
  0
ARC
  5
7A3
330
17
100
AcDbEntity
  8
4
100
AcDbCircle
 10
762.4934114324137
 20
607.7917693173486
 30
0.0
 40
8.0
100
AcDbArc
 50
0.0
 51
90.0
  0
LINE
  5
7A4
330
17
100
AcDbEntity
  8
4
100
AcDbLine
 10
723.4934114324137
 20
620.7917693173486
 30
0.0
 11
817.4934114324137
 21
620.7917693173486
 31
0.0
  0
ARC
  5
7A5
330
17
100
AcDbEntity
  8
4
100
AcDbCircle
 10
762.4934114324137
 20
607.7917693173486
 30
0.0
 40
3.0
100
AcDbArc
 50
0.0
 51
90.0
  0
LINE
  5
7A6
330
17
100
AcDbEntity
  8
4
100
AcDbLine
 10
755.4934114324133
 20
610.7917693173486
 30
0.0
 11
762.4934114324137
 21
610.7917693173486
 31
0.0
  0
LINE
  5
7A7
330
17
100
AcDbEntity
  8
4
100
AcDbLine
 10
750.4934114324133
 20
615.7917693173486
 30
0.0
 11
762.4934114324137
 21
615.7917693173486
 31
0.0
  0
LINE
  5
7A8
330
17
100
AcDbEntity
  8
4
100
AcDbLine
 10
725.4934114324133
 20
615.7917693173486
 30
0.0
 11
730.4934114324137
 21
615.7917693173486
 31
0.0
  0
ARC
  5
7A9
330
17
100
AcDbEntity
  8
4
100
AcDbCircle
 10
723.4934114324137
 20
617.7917693173486
 30
0.0
 40
3.0
100
AcDbArc
 50
90.0
 51
180.0
  0
ARC
  5
7AA
330
17
100
AcDbEntity
  8
4
100
AcDbCircle
 10
817.4934114324137
 20
617.7917693173486
 30
0.0
 40
3.0
100
AcDbArc
 50
0.0
 51
90.0
  0
LINE
  5
7AB
330
17
100
AcDbEntity
  8
4
100
AcDbLine
 10
790.4934114324137
 20
593.2917693173486
 30
0.0
 11
790.4934114324137
 21
598.2917693173486
 31
0.0
  0
LINE
  5
7AC
330
17
100
AcDbEntity
  8
4
100
AcDbLine
 10
775.4934114324137
 20
593.2917693173486
 30
0.0
 11
775.4934114324137
 21
598.2917693173486
 31
0.0
  0
LINE
  5
7AD
330
17
100
AcDbEntity
  8
4
100
AcDbLine
 10
775.4934114324137
 20
598.2917693173486
 30
0.0
 11
790.4934114324137
 21
598.2917693173486
 31
0.0
  0
LINE
  5
7AE
330
17
100
AcDbEntity
  8
4
100
AcDbLine
 10
775.4934114324137
 20
593.2917693173486
 30
0.0
 11
790.4934114324137
 21
593.2917693173486
 31
0.0
  0
CIRCLE
  5
7AF
330
17
100
AcDbEntity
  8
4
100
AcDbCircle
 10
805.4934114324137
 20
605.7917693173486
 30
0.0
 40
5.0
  0
ARC
  5
7B0
330
17
100
AcDbEntity
  8
4
100
AcDbCircle
 10
805.4934114324137
 20
605.7917693173486
 30
0.0
 40
10.0
100
AcDbArc
 50
296.5253520166134
 51
243.4746479833866
  0
ARC
  5
7B1
330
17
100
AcDbEntity
  8
4
100
AcDbCircle
 10
1124.209797503354
 20
243.4182234713271
 30
0.0
 40
3.783613929059507
100
AcDbArc
 50
319.5701031551734
 51
40.42989684482659
  0
LINE
  5
7B2
330
17
100
AcDbEntity
  8
4
100
AcDbLine
 10
1120.993411432413
 20
226.2420529629362
 30
0.0
 11
1120.993411432413
 21
245.8719621153832
 31
0.0
  0
LINE
  5
7B3
330
17
100
AcDbEntity
  8
4
100
AcDbLine
 10
1118.493411432413
 20
226.2420529629362
 30
0.0
 11
1118.493411432413
 21
245.8719621153832
 31
0.0
  0
LINE
  5
7B4
330
17
100
AcDbEntity
  8
4
100
AcDbLine
 10
1127.089884486561
 20
240.964484827271
 30
0.0
 11
1120.993411432413
 21
240.964484827271
 31
0.0
  0
ARC
  5
7B5
330
17
100
AcDbEntity
  8
4
100
AcDbCircle
 10
1114.214246134954
 20
236.0570075391597
 30
0.0
 40
13.77916529745958
100
AcDbArc
 50
339.1359356360799
 51
20.86406436392003
  0
LINE
  5
7B6
330
17
100
AcDbEntity
  8
4
100
AcDbLine
 10
1127.993411432413
 20
243.4182234713271
 30
0.0
 11
1127.993411432413
 21
228.6957916069914
 31
0.0
  0
ARC
  5
7B7
330
17
100
AcDbEntity
  8
4
100
AcDbCircle
 10
1124.209797503354
 20
228.6957916069914
 30
0.0
 40
3.783613929059507
100
AcDbArc
 50
319.5701031551734
 51
40.42989684482659
  0
LINE
  5
7B8
330
17
100
AcDbEntity
  8
4
100
AcDbLine
 10
1127.089884486561
 20
231.1495302510475
 30
0.0
 11
1120.993411432413
 21
231.1495302510475
 31
0.0
  0
LINE
  5
7B9
330
17
100
AcDbEntity
  8
4
100
AcDbLine
 10
1118.493411432413
 20
245.8719621153832
 30
0.0
 11
1127.089884486561
 21
245.8719621153832
 31
0.0
  0
LINE
  5
7BA
330
17
100
AcDbEntity
  8
4
100
AcDbLine
 10
1127.089884486561
 20
226.2420529629362
 30
0.0
 11
1118.493411432413
 21
226.2420529629362
 31
0.0
  0
LINE
  5
7BB
330
17
100
AcDbEntity
  8
L-CENTER
100
AcDbLine
 10
1086.520773984717
 20
236.0570075391597
 30
0.0
 11
1130.861389686994
 21
236.0570075391597
 31
0.0
  0
LINE
  5
7BC
330
17
100
AcDbEntity
  8
L-CENTER
100
AcDbLine
 10
1086.520773984717
 20
133.5265270955379
 30
0.0
 11
1130.861389686994
 21
133.5265270955379
 31
0.0
  0
LINE
  5
7BD
330
17
100
AcDbEntity
  8
4
100
AcDbLine
 10
1118.493411432413
 20
123.7115725193144
 30
0.0
 11
1127.089884486561
 21
123.7115725193144
 31
0.0
  0
LINE
  5
7BE
330
17
100
AcDbEntity
  8
4
100
AcDbLine
 10
1127.089884486561
 20
138.4340043836501
 30
0.0
 11
1120.993411432413
 21
138.4340043836501
 31
0.0
  0
LINE
  5
7BF
330
17
100
AcDbEntity
  8
4
100
AcDbLine
 10
1127.089884486561
 20
128.6190498074266
 30
0.0
 11
1120.993411432413
 21
128.6190498074266
 31
0.0
  0
LINE
  5
7C0
330
17
100
AcDbEntity
  8
4
100
AcDbLine
 10
1127.993411432413
 20
126.1653111633705
 30
0.0
 11
1127.993411432413
 21
140.8877430277062
 31
0.0
  0
ARC
  5
7C1
330
17
100
AcDbEntity
  8
4
100
AcDbCircle
 10
1114.214246134954
 20
133.5265270955379
 30
0.0
 40
13.77916529745958
100
AcDbArc
 50
339.1359356360799
 51
20.86406436392003
  0
ARC
  5
7C2
330
17
100
AcDbEntity
  8
4
100
AcDbCircle
 10
1124.209797503354
 20
126.1653111633705
 30
0.0
 40
3.783613929059507
100
AcDbArc
 50
319.5701031551734
 51
40.42989684482659
  0
LINE
  5
7C3
330
17
100
AcDbEntity
  8
4
100
AcDbLine
 10
1127.089884486561
 20
143.3414816717614
 30
0.0
 11
1118.493411432413
 21
143.3414816717614
 31
0.0
  0
LINE
  5
7C4
330
17
100
AcDbEntity
  8
4
100
AcDbLine
 10
1120.993411432413
 20
143.3414816717614
 30
0.0
 11
1120.993411432413
 21
123.7115725193144
 31
0.0
  0
ARC
  5
7C5
330
17
100
AcDbEntity
  8
4
100
AcDbCircle
 10
1124.209797503354
 20
140.8877430277062
 30
0.0
 40
3.783613929059507
100
AcDbArc
 50
319.5701031551734
 51
40.42989684482659
  0
LINE
  5
7C6
330
17
100
AcDbEntity
  8
L-CENTER
100
AcDbLine
 10
454.4660488801092
 20
236.0570075391597
 30
0.0
 11
410.1254331778327
 21
236.0570075391597
 31
0.0
  0
LINE
  5
7C7
330
17
100
AcDbEntity
  8
4
100
AcDbLine
 10
413.896938378266
 20
226.2420529629362
 30
0.0
 11
422.4934114324133
 21
226.2420529629362
 31
0.0
  0
LINE
  5
7C8
330
17
100
AcDbEntity
  8
4
100
AcDbLine
 10
422.4934114324133
 20
245.8719621153832
 30
0.0
 11
413.896938378266
 21
245.8719621153832
 31
0.0
  0
LINE
  5
7C9
330
17
100
AcDbEntity
  8
4
100
AcDbLine
 10
413.896938378266
 20
231.1495302510475
 30
0.0
 11
419.9934114324133
 21
231.1495302510475
 31
0.0
  0
LINE
  5
7CA
330
17
100
AcDbEntity
  8
4
100
AcDbLine
 10
413.896938378266
 20
240.964484827271
 30
0.0
 11
419.9934114324133
 21
240.964484827271
 31
0.0
  0
LINE
  5
7CB
330
17
100
AcDbEntity
  8
4
100
AcDbLine
 10
422.4934114324133
 20
226.2420529629362
 30
0.0
 11
422.4934114324133
 21
245.8719621153832
 31
0.0
  0
LINE
  5
7CC
330
17
100
AcDbEntity
  8
4
100
AcDbLine
 10
419.9934114324133
 20
226.2420529629362
 30
0.0
 11
419.9934114324133
 21
245.8719621153832
 31
0.0
  0
ARC
  5
7CD
330
17
100
AcDbEntity
  8
4
100
AcDbCircle
 10
416.7770253614726
 20
228.6957916069914
 30
0.0
 40
3.783613929059507
100
AcDbArc
 50
139.5701031551729
 51
220.4298968448271
  0
LINE
  5
7CE
330
17
100
AcDbEntity
  8
4
100
AcDbLine
 10
412.9934114324133
 20
243.4182234713271
 30
0.0
 11
412.9934114324133
 21
228.6957916069914
 31
0.0
  0
ARC
  5
7CF
330
17
100
AcDbEntity
  8
4
100
AcDbCircle
 10
426.7725767298725
 20
236.0570075391597
 30
0.0
 40
13.77916529745958
100
AcDbArc
 50
159.1359356360801
 51
200.8640643639199
  0
ARC
  5
7D0
330
17
100
AcDbEntity
  8
4
100
AcDbCircle
 10
416.7770253614726
 20
243.4182234713271
 30
0.0
 40
3.783613929059507
100
AcDbArc
 50
139.5701031551729
 51
220.4298968448271
  0
LINE
  5
7D1
330
17
100
AcDbEntity
  8
4
100
AcDbLine
 10
413.896938378266
 20
143.3414816717614
 30
0.0
 11
422.4934114324133
 21
143.3414816717614
 31
0.0
  0
LINE
  5
7D2
330
17
100
AcDbEntity
  8
4
100
AcDbLine
 10
413.896938378266
 20
128.6190498074266
 30
0.0
 11
419.9934114324133
 21
128.6190498074266
 31
0.0
  0
LINE
  5
7D3
330
17
100
AcDbEntity
  8
4
100
AcDbLine
 10
413.896938378266
 20
138.4340043836501
 30
0.0
 11
419.9934114324133
 21
138.4340043836501
 31
0.0
  0
LINE
  5
7D4
330
17
100
AcDbEntity
  8
4
100
AcDbLine
 10
422.4934114324133
 20
123.7115725193144
 30
0.0
 11
413.896938378266
 21
123.7115725193144
 31
0.0
  0
LINE
  5
7D5
330
17
100
AcDbEntity
  8
L-CENTER
100
AcDbLine
 10
454.4660488801092
 20
133.5265270955379
 30
0.0
 11
410.1254331778327
 21
133.5265270955379
 31
0.0
  0
LINE
  5
7D6
330
17
100
AcDbEntity
  8
4
100
AcDbLine
 10
419.9934114324133
 20
143.3414816717614
 30
0.0
 11
419.9934114324133
 21
123.7115725193144
 31
0.0
  0
ARC
  5
7D7
330
17
100
AcDbEntity
  8
4
100
AcDbCircle
 10
416.7770253614726
 20
140.8877430277062
 30
0.0
 40
3.783613929059507
100
AcDbArc
 50
139.5701031551729
 51
220.4298968448271
  0
ARC
  5
7D8
330
17
100
AcDbEntity
  8
4
100
AcDbCircle
 10
416.7770253614726
 20
126.1653111633705
 30
0.0
 40
3.783613929059507
100
AcDbArc
 50
139.5701031551729
 51
220.4298968448271
  0
ARC
  5
7D9
330
17
100
AcDbEntity
  8
4
100
AcDbCircle
 10
426.7725767298725
 20
133.5265270955379
 30
0.0
 40
13.77916529745958
100
AcDbArc
 50
159.1359356360801
 51
200.8640643639199
  0
LINE
  5
7DA
330
17
100
AcDbEntity
  8
4
100
AcDbLine
 10
412.9934114324133
 20
126.1653111633705
 30
0.0
 11
412.9934114324133
 21
140.8877430277062
 31
0.0
  0
LINE
  5
944
330
17
100
AcDbEntity
  8
L-CENTER
100
AcDbLine
 10
1864.235002605316
 20
297.0836388859935
 30
0.0
 11
1910.235004605316
 21
297.0799788859936
 31
0.0
  0
LINE
  5
945
330
17
100
AcDbEntity
  8
L-CENTER
100
AcDbLine
 10
1864.23516767692
 20
331.7611264698633
 30
0.0
 11
1910.23516967692
 21
331.7574664698632
 31
0.0
  0
LINE
  5
946
330
17
100
AcDbEntity
  8
L-CENTER
100
AcDbLine
 10
1864.23516767692
 20
437.827044469863
 30
0.0
 11
1910.23516967692
 21
437.8233844698632
 31
0.0
  0
LINE
  5
947
330
17
100
AcDbEntity
  8
L-CENTER
100
AcDbLine
 10
1613.074374571301
 20
437.8214317530053
 30
0.0
 11
1567.074372571301
 21
437.8250917530052
 31
0.0
  0
LINE
  5
948
330
17
100
AcDbEntity
  8
L-CENTER
100
AcDbLine
 10
1613.074332571301
 20
331.7555137596887
 30
0.0
 11
1567.074330571301
 21
331.7591737596886
 31
0.0
  0
LINE
  5
949
330
17
100
AcDbEntity
  8
L-CENTER
100
AcDbLine
 10
1613.074374571301
 20
297.0780217530055
 30
0.0
 11
1567.074372571301
 21
297.0816817530053
 31
0.0
  0
CIRCLE
  5
972
330
17
100
AcDbEntity
  8
4
100
AcDbCircle
 10
770.4934114324133
 20
90.79177131734878
 30
0.0
 40
9.331054
  0
ARC
  5
973
330
17
100
AcDbEntity
  8
4
100
AcDbCircle
 10
1124.493899503354
 20
1163.494510058263
 30
0.0
 40
3.783613929059507
100
AcDbArc
 50
319.5701031551782
 51
40.42989684482174
  0
LINE
  5
976
330
17
100
AcDbEntity
  8
L-CENTER
100
AcDbLine
 10
2263.857622179366
 20
306.8601593173487
 30
0.0
 11
2263.857622179366
 21
428.7233753173489
 31
0.0
  0
LINE
  5
977
330
17
100
AcDbEntity
  8
4
100
AcDbLine
 10
2251.857622179366
 20
404.7917693173488
 30
0.0
 11
2251.857622179366
 21
420.7917653173488
 31
0.0
  0
LINE
  5
978
330
17
100
AcDbEntity
  8
4
100
AcDbLine
 10
2275.857622179366
 20
420.7917653173488
 30
0.0
 11
2275.857622179366
 21
404.7917693173488
 31
0.0
  0
ARC
  5
979
330
17
100
AcDbEntity
  8
4
100
AcDbCircle
 10
2263.857622179366
 20
367.7917673173488
 30
0.0
 40
45.000102
100
AcDbArc
 50
105.4659730000001
 51
74.53402700000044
  0
LINE
  5
97A
330
17
100
AcDbEntity
  8
L-CENTER
100
AcDbLine
 10
2324.789230179367
 20
367.7917673173488
 30
0.0
 11
2202.926014179366
 21
367.7917673173488
 31
0.0
  0
LINE
  5
97D
330
17
100
AcDbEntity
  8
4
100
AcDbLine
 10
2275.857622179366
 20
404.7917693173488
 30
0.0
 11
2251.857622179366
 21
404.7917693173488
 31
0.0
  0
LINE
  5
97F
330
17
100
AcDbEntity
  8
4
100
AcDbLine
 10
2275.857622179366
 20
420.7917653173488
 30
0.0
 11
2251.857622179366
 21
420.7917653173488
 31
0.0
  0
ENDSEC
  0
SECTION
  2
OBJECTS
  0
DICTIONARY
  5
5
330
0
100
AcDbDictionary
281
     1
  3
ACAD_COLOR
350
29
  3
ACAD_GROUP
350
27
  3
ACAD_LAYOUT
350
1E
  3
ACAD_MATERIAL
350
7
  3
ACAD_MLEADERSTYLE
350
94D
  3
ACAD_MLINESTYLE
350
15
  3
ACAD_PLOTSETTINGS
350
28
  3
ACAD_PLOTSTYLENAME
350
4
  3
ACAD_SCALELIST
350
2D
  3
ACAD_VISUALSTYLE
350
2A
  3
ACDBHEADERROUNDTRIPXREC
350
A3D
  3
AcDbVariableDictionary
350
94A
  3
DWGPROPS
350
A40
  0
DICTIONARY
  5
A41
330
26
100
AcDbDictionary
280
     1
281
     1
  3
ACAD_XREC_ROUNDTRIP
360
A42
  0
DICTIONARY
  5
22C
330
22B
100
AcDbDictionary
280
     1
281
     1
  3
ADSK_XREC_LAYER_RECONCILED
360
22D
  0
DICTIONARY
  5
18
330
17
100
AcDbDictionary
280
     1
281
     1
  3
ACAD_SORTENTS
360
19
  0
DICTIONARY
  5
29
102
{ACAD_REACTORS
330
5
102
}
330
5
100
AcDbDictionary
281
     1
  0
DICTIONARY
  5
27
102
{ACAD_REACTORS
330
5
102
}
330
5
100
AcDbDictionary
281
     1
  0
DICTIONARY
  5
1E
102
{ACAD_REACTORS
330
5
102
}
330
5
100
AcDbDictionary
281
     1
  3
Model
350
1D
  3
ﾚｲｱｳﾄ1
350
23
  0
DICTIONARY
  5
7
102
{ACAD_REACTORS
330
5
102
}
330
5
100
AcDbDictionary
281
     1
  3
ByBlock
350
50
  3
ByLayer
350
10
  3
Global
350
6
  0
DICTIONARY
  5
94D
102
{ACAD_REACTORS
330
5
102
}
330
5
100
AcDbDictionary
281
     1
  3
Standard
350
96D
  0
DICTIONARY
  5
15
102
{ACAD_REACTORS
330
5
102
}
330
5
100
AcDbDictionary
281
     1
  3
STANDARD
350
14
  0
DICTIONARY
  5
28
102
{ACAD_REACTORS
330
5
102
}
330
5
100
AcDbDictionary
281
     1
  0
ACDBDICTIONARYWDFLT
  5
4
102
{ACAD_REACTORS
330
5
102
}
330
5
100
AcDbDictionary
281
     1
  3
Normal
350
3
100
AcDbDictionaryWithDefault
340
3
  0
DICTIONARY
  5
2D
102
{ACAD_REACTORS
330
5
102
}
330
5
100
AcDbDictionary
281
     1
  3
*A1
350
4F
  0
DICTIONARY
  5
2A
102
{ACAD_REACTORS
330
5
102
}
330
5
100
AcDbDictionary
281
     1
  3
2dWireframe
350
955
  3
Basic
350
958
  3
Brighten
350
95C
  3
ColorChange
350
960
  3
Conceptual
350
95A
  3
Dim
350
95B
  3
EdgeColorOff
350
963
  3
Facepattern
350
95F
  3
Flat
350
951
  3
FlatWithEdges
350
952
  3
Gouraud
350
953
  3
GouraudWithEdges
350
954
  3
Hidden
350
957
  3
JitterOff
350
961
  3
Linepattern
350
95E
  3
OverhangOff
350
962
  3
Realistic
350
959
  3
Shaded
350
968
  3
Shaded with edges
350
967
  3
Shades of Gray
350
964
  3
Sketchy
350
965
  3
Thicken
350
95D
  3
Wireframe
350
956
  3
X-Ray
350
966
  0
DICTIONARY
  5
A3D
102
{ACAD_REACTORS
330
5
102
}
330
5
100
AcDbDictionary
281
     1
  3
COLORDICT
350
A3E
  3
MATERIALDICT
350
A3F
  0
DICTIONARY
  5
94A
102
{ACAD_REACTORS
330
5
102
}
330
5
100
AcDbDictionary
281
     1
  3
CANNOSCALE
350
94B
  3
CMLEADERSTYLE
350
971
  3
DIMASSOC
350
980
  3
HIDETEXT
350
981
  3
MSLTSCALE
350
988
  3
XCLIPFRAME
350
94E
  0
XRECORD
  5
A40
102
{ACAD_REACTORS
330
5
102
}
330
5
100
AcDbXrecord
280
     1
  1
DWGPROPS COOKIE
  2

  3

  4

  6

  7

  8
sg-d03
  9

300
=
301
=
302
=
303
=
304
=
305
=
306
=
307
=
308
=
309
=
 40
0.0
 41
2457541.066115058
 42
2458110.231837361
  1

 90
        0
  0
XRECORD
  5
A42
102
{ACAD_REACTORS
330
A41
102
}
330
A41
100
AcDbXrecord
280
     1
102
VTR_0.000_0.000_1.000_1.000_GRIDDISPLAY
 70
     3
102
VTR_0.000_0.000_1.000_1.000_GRIDMAJOR
 70
     5
102
VTR_0.000_0.000_1.000_1.000_DEFAULTLIGHTING
280
     1
102
VTR_0.000_0.000_1.000_1.000_DEFAULTLIGHTINGTYPE
 70
     1
102
VTR_0.000_0.000_1.000_1.000_BRIGHTNESS
141
0.0
102
VTR_0.000_0.000_1.000_1.000_CONTRAST
142
0.0
  0
XRECORD
  5
22D
102
{ACAD_REACTORS
330
22C
102
}
330
22C
100
AcDbXrecord
280
     1
290
     1
  0
SORTENTSTABLE
  5
19
102
{ACAD_REACTORS
330
18
102
}
330
18
100
AcDbSortentsTable
330
17
331
0
  5
3EA
331
58
  5
3E4
331
5B
  5
3E3
331
5C
  5
3E2
331
5D
  5
3E1
331
5E
  5
3E0
331
5F
  5
3DF
331
60
  5
3DE
331
61
  5
3DD
331
62
  5
3DC
331
63
  5
3DB
331
64
  5
3DA
331
65
  5
3D9
331
66
  5
3D8
331
67
  5
3D7
331
68
  5
3D6
331
69
  5
3D5
331
6A
  5
3D4
331
6B
  5
3D3
331
6C
  5
3D2
331
6D
  5
3D1
331
6E
  5
3D0
331
6F
  5
3CF
331
70
  5
3CE
331
71
  5
3CD
331
72
  5
3CC
331
73
  5
3CB
331
74
  5
3CA
331
75
  5
3C9
331
76
  5
3C8
331
77
  5
3C7
331
78
  5
3C6
331
79
  5
3C5
331
7A
  5
3C4
331
7B
  5
3C3
331
7C
  5
3C2
331
7D
  5
3C1
331
7E
  5
3C0
331
7F
  5
3BF
331
80
  5
3BE
331
81
  5
3BD
331
82
  5
3BC
331
83
  5
3BB
331
84
  5
3BA
331
85
  5
3B9
331
86
  5
3B8
331
87
  5
3B7
331
88
  5
3B6
331
89
  5
3B5
331
8A
  5
3B4
331
8B
  5
3B3
331
8C
  5
3B2
331
8D
  5
3B1
331
8E
  5
3B0
331
8F
  5
3AF
331
90
  5
3AE
331
91
  5
3AD
331
92
  5
3AC
331
93
  5
3AB
331
94
  5
3AA
331
95
  5
3A9
331
96
  5
3A8
331
97
  5
3A7
331
98
  5
3A6
331
99
  5
3A5
331
9A
  5
3A4
331
9B
  5
3A3
331
9C
  5
3A2
331
9D
  5
3A1
331
9E
  5
3A0
331
9F
  5
39F
331
A0
  5
39E
331
A1
  5
39D
331
A2
  5
39C
331
A3
  5
39B
331
A4
  5
39A
331
A5
  5
399
331
A6
  5
398
331
A7
  5
397
331
A8
  5
396
331
A9
  5
395
331
AA
  5
394
331
AB
  5
393
331
AC
  5
392
331
AD
  5
391
331
AE
  5
390
331
AF
  5
38F
331
B0
  5
38E
331
B1
  5
38D
331
B2
  5
38C
331
B3
  5
38B
331
B4
  5
38A
331
B5
  5
389
331
B6
  5
388
331
B7
  5
387
331
B8
  5
386
331
B9
  5
385
331
BA
  5
384
331
BB
  5
383
331
BC
  5
382
331
BD
  5
381
331
BE
  5
380
331
BF
  5
37F
331
C0
  5
37E
331
C1
  5
37D
331
C2
  5
37C
331
C3
  5
37B
331
C4
  5
37A
331
C5
  5
379
331
C6
  5
378
331
C7
  5
377
331
C8
  5
376
331
C9
  5
375
331
CA
  5
374
331
CB
  5
373
331
CC
  5
372
331
CD
  5
371
331
CE
  5
370
331
CF
  5
36F
331
D0
  5
36E
331
D1
  5
36D
331
D2
  5
36C
331
D3
  5
36B
331
D4
  5
36A
331
D5
  5
369
331
D6
  5
368
331
D7
  5
367
331
D8
  5
366
331
D9
  5
365
331
DA
  5
364
331
DB
  5
363
331
DC
  5
362
331
DD
  5
361
331
DE
  5
360
331
DF
  5
35F
331
E0
  5
35E
331
E1
  5
35D
331
E2
  5
35C
331
E3
  5
35B
331
E4
  5
35A
331
E5
  5
359
331
E6
  5
358
331
E7
  5
357
331
E8
  5
356
331
E9
  5
355
331
EA
  5
354
331
EB
  5
353
331
EC
  5
352
331
ED
  5
351
331
EE
  5
350
331
EF
  5
34F
331
F0
  5
34E
331
F1
  5
34D
331
F2
  5
34C
331
F3
  5
34B
331
F4
  5
34A
331
F5
  5
349
331
F6
  5
348
331
F7
  5
347
331
F8
  5
346
331
F9
  5
345
331
FA
  5
344
331
FB
  5
343
331
FC
  5
342
331
FD
  5
341
331
FE
  5
340
331
FF
  5
33F
331
100
  5
33E
331
101
  5
33D
331
102
  5
33C
331
103
  5
33B
331
104
  5
33A
331
105
  5
339
331
106
  5
338
331
107
  5
337
331
108
  5
336
331
109
  5
335
331
10A
  5
334
331
10B
  5
333
331
10C
  5
332
331
10D
  5
331
331
10E
  5
330
331
10F
  5
32F
331
110
  5
32E
331
111
  5
32D
331
112
  5
32C
331
113
  5
32B
331
114
  5
32A
331
115
  5
329
331
116
  5
328
331
117
  5
327
331
118
  5
326
331
119
  5
325
331
11A
  5
324
331
11B
  5
323
331
11C
  5
322
331
11D
  5
321
331
11E
  5
320
331
11F
  5
31F
331
120
  5
31E
331
121
  5
31D
331
122
  5
31C
331
123
  5
31B
331
124
  5
31A
331
125
  5
319
331
126
  5
318
331
127
  5
317
331
128
  5
316
331
129
  5
315
331
12A
  5
314
331
12B
  5
313
331
12C
  5
312
331
12D
  5
311
331
12E
  5
310
331
12F
  5
30F
331
130
  5
30E
331
131
  5
30D
331
132
  5
30C
331
133
  5
30B
331
134
  5
30A
331
135
  5
309
331
136
  5
308
331
137
  5
307
331
138
  5
306
331
139
  5
305
331
13A
  5
304
331
13B
  5
303
331
13C
  5
302
331
13D
  5
301
331
13E
  5
300
331
13F
  5
2FF
331
140
  5
2FE
331
141
  5
2FD
331
142
  5
2FC
331
143
  5
2FB
331
144
  5
2FA
331
145
  5
2F9
331
146
  5
2F8
331
147
  5
2F7
331
148
  5
2F6
331
149
  5
2F5
331
14A
  5
2F4
331
14B
  5
2F3
331
14C
  5
2F2
331
14D
  5
2F1
331
14E
  5
2F0
331
14F
  5
2EF
331
150
  5
2EE
331
151
  5
2ED
331
152
  5
2EC
331
153
  5
2EB
331
154
  5
2EA
331
155
  5
2E9
331
156
  5
2E8
331
157
  5
2E7
331
158
  5
2E6
331
159
  5
2E5
331
15A
  5
2E4
331
15B
  5
2E3
331
15C
  5
2E2
331
15D
  5
2E1
331
15E
  5
2E0
331
15F
  5
2DF
331
160
  5
2DE
331
161
  5
2DD
331
162
  5
2DC
331
163
  5
2DB
331
164
  5
2DA
331
165
  5
2D9
331
166
  5
2D8
331
167
  5
2D7
331
168
  5
2D6
331
169
  5
2D5
331
16A
  5
2D4
331
16B
  5
2D3
331
16C
  5
2D2
331
16D
  5
2D1
331
16E
  5
2D0
331
16F
  5
2CF
331
170
  5
2CE
331
171
  5
2CD
331
172
  5
2CC
331
173
  5
2CB
331
174
  5
2CA
331
175
  5
2C9
331
176
  5
2C8
331
177
  5
2C7
331
178
  5
2C6
331
179
  5
2C5
331
17A
  5
2C4
331
17B
  5
2C3
331
17C
  5
2C2
331
17D
  5
2C1
331
17E
  5
2C0
331
17F
  5
2BF
331
180
  5
2BE
331
181
  5
2BD
331
182
  5
2BC
331
183
  5
2BB
331
184
  5
2BA
331
185
  5
2B9
331
186
  5
2B8
331
187
  5
2B7
331
188
  5
2B6
331
189
  5
2B5
331
18A
  5
2B4
331
18B
  5
2B3
331
18C
  5
2B2
331
18D
  5
2B1
331
18E
  5
2B0
331
18F
  5
2AF
331
190
  5
2AE
331
191
  5
2AD
331
192
  5
2AC
331
193
  5
2AB
331
194
  5
2AA
331
195
  5
2A9
331
196
  5
2A8
331
197
  5
2A7
331
198
  5
2A6
331
199
  5
2A5
331
19A
  5
2A4
331
19B
  5
2A3
331
19C
  5
2A2
331
19D
  5
2A1
331
19E
  5
2A0
331
19F
  5
29F
331
1A0
  5
29E
331
1A1
  5
29D
331
1A2
  5
29C
331
1A3
  5
29B
331
1A4
  5
29A
331
1A5
  5
299
331
1A6
  5
298
331
1A7
  5
297
331
1A8
  5
296
331
1A9
  5
295
331
1AA
  5
294
331
1AB
  5
293
331
1AC
  5
292
331
1AD
  5
291
331
1AE
  5
290
331
1AF
  5
28F
331
1B0
  5
28E
331
1B1
  5
28D
331
1B2
  5
28C
331
1B3
  5
28B
331
1B4
  5
28A
331
1B5
  5
289
331
1B6
  5
287
331
1B7
  5
286
331
1B8
  5
285
331
1B9
  5
284
331
1BA
  5
283
331
1BB
  5
282
331
1BC
  5
281
331
1BD
  5
280
331
1BE
  5
27F
331
1BF
  5
27E
331
1C0
  5
27D
331
1C1
  5
27C
331
1C2
  5
27B
331
1C3
  5
27A
331
1C4
  5
279
331
1C5
  5
278
331
1C6
  5
277
331
1C7
  5
276
331
1C8
  5
275
331
1C9
  5
274
331
1CA
  5
273
331
1CB
  5
272
331
1CC
  5
271
331
1CD
  5
270
331
1CE
  5
26F
331
1CF
  5
26E
331
1D0
  5
26D
331
1D1
  5
26C
331
1D2
  5
26B
331
1D3
  5
26A
331
1D4
  5
269
331
1D5
  5
268
331
1D6
  5
267
331
1D7
  5
266
331
1D8
  5
265
331
1D9
  5
264
331
511
  5
512
331
533
  5
534
331
537
  5
538
331
539
  5
53A
331
541
  5
542
331
542
  5
543
331
543
  5
544
331
544
  5
546
331
545
  5
547
331
546
  5
548
331
547
  5
549
331
548
  5
54A
331
549
  5
54B
331
54A
  5
54C
331
54B
  5
54D
331
54C
  5
54E
331
54D
  5
54F
331
54E
  5
550
331
550
  5
552
331
551
  5
553
331
552
  5
554
331
553
  5
555
331
554
  5
556
331
555
  5
557
331
556
  5
558
331
557
  5
559
331
558
  5
55A
331
559
  5
55B
331
55A
  5
55C
331
55B
  5
55D
331
55C
  5
55E
331
55D
  5
55F
331
55E
  5
560
331
55F
  5
561
331
560
  5
562
331
561
  5
563
331
562
  5
564
331
563
  5
565
331
564
  5
566
331
565
  5
567
331
569
  5
56B
331
56D
  5
56F
331
56E
  5
570
331
56F
  5
571
331
570
  5
572
331
571
  5
573
331
572
  5
574
331
573
  5
575
331
574
  5
576
331
575
  5
577
331
576
  5
578
331
577
  5
579
331
578
  5
57A
331
579
  5
57B
331
57A
  5
57C
331
57B
  5
57D
331
57C
  5
57E
331
57D
  5
580
331
57E
  5
581
331
57F
  5
582
331
580
  5
583
331
581
  5
584
331
582
  5
585
331
583
  5
586
331
584
  5
587
331
585
  5
588
331
586
  5
589
331
587
  5
58A
331
588
  5
58B
331
589
  5
58C
331
58A
  5
58D
331
58B
  5
58E
331
58C
  5
58F
331
58D
  5
590
331
58E
  5
591
331
58F
  5
592
331
590
  5
593
331
591
  5
594
331
592
  5
595
331
593
  5
596
331
594
  5
597
331
595
  5
598
331
596
  5
599
331
597
  5
59A
331
598
  5
59B
331
599
  5
59C
331
59A
  5
59D
331
59B
  5
59E
331
59C
  5
59F
331
59D
  5
5A0
331
59E
  5
5A1
331
59F
  5
5A2
331
5A0
  5
5A3
331
5A1
  5
5A4
331
5A2
  5
5A5
331
5A3
  5
5A6
331
5A4
  5
5A7
331
5A5
  5
5A8
331
5A6
  5
5A9
331
5A7
  5
5AA
331
5A8
  5
5AB
331
5A9
  5
5AC
331
5AA
  5
5AD
331
5AB
  5
5AE
331
5AC
  5
5AF
331
5AD
  5
5B0
331
5AE
  5
5B1
331
5AF
  5
5B2
331
5B2
  5
5B5
331
5B3
  5
5B6
331
5B4
  5
5B7
331
5B5
  5
5B8
331
5B6
  5
5B9
331
5B7
  5
5BA
331
5B8
  5
5BB
331
5B9
  5
5BC
331
5BA
  5
5BD
331
5BB
  5
5BE
331
5BC
  5
5BF
331
5BD
  5
5C0
331
5BE
  5
5C1
331
5BF
  5
5C2
331
5C0
  5
5C3
331
5C1
  5
5C4
331
5C4
  5
5C7
331
5C5
  5
5C8
331
5C6
  5
5C9
331
5C7
  5
5CA
331
5C8
  5
5CB
331
5C9
  5
5CC
331
5CA
  5
5CD
331
5CB
  5
5CE
331
5CC
  5
5CF
331
5CD
  5
5D0
331
5CE
  5
5D1
331
5CF
  5
5D2
331
5D0
  5
5D3
331
5D1
  5
5D4
331
5D2
  5
5D5
331
5D3
  5
5D6
331
5D7
  5
5DA
331
5D8
  5
5DB
331
5D9
  5
5DC
331
5DC
  5
5DF
331
5DD
  5
5E0
331
5DE
  5
5E1
331
5E0
  5
5E3
331
5E1
  5
5E4
331
5E2
  5
5E5
331
5E3
  5
5E6
331
5E4
  5
5E7
331
5E5
  5
5E8
331
5E6
  5
5E9
331
5E7
  5
5EA
331
5E8
  5
5EB
331
5E9
  5
5EC
331
5EA
  5
5ED
331
5EB
  5
5EE
331
5EC
  5
5EF
331
5ED
  5
5F0
331
5EE
  5
5F1
331
5EF
  5
5F2
331
5F0
  5
5F3
331
5F2
  5
5F5
331
5F3
  5
5F6
331
5F4
  5
5F7
331
5F5
  5
5F8
331
5F6
  5
5F9
331
5F9
  5
5FC
331
5FA
  5
5FD
331
5FB
  5
5FE
331
5FC
  5
5FF
331
606
  5
609
331
607
  5
60A
331
608
  5
60B
331
609
  5
60C
331
60C
  5
60F
331
60D
  5
610
331
60E
  5
611
331
60F
  5
612
331
610
  5
613
331
611
  5
614
331
612
  5
615
331
613
  5
616
331
614
  5
617
331
619
  5
61C
331
61A
  5
61D
331
61B
  5
61E
331
61C
  5
61F
331
61D
  5
620
331
61E
  5
621
331
61F
  5
622
331
620
  5
623
331
625
  5
628
331
62A
  5
62D
331
62B
  5
62E
331
62C
  5
62F
331
62D
  5
630
331
62E
  5
631
331
62F
  5
632
331
630
  5
633
331
631
  5
634
331
636
  5
639
331
638
  5
63B
331
64F
  5
652
331
650
  5
653
331
651
  5
654
331
652
  5
655
331
655
  5
658
331
656
  5
659
331
657
  5
65A
331
658
  5
65B
331
659
  5
65C
331
65A
  5
65D
331
65B
  5
65E
331
65E
  5
661
331
65F
  5
662
331
660
  5
663
331
661
  5
664
331
662
  5
665
331
663
  5
666
331
664
  5
667
331
665
  5
668
331
666
  5
669
331
667
  5
66A
331
668
  5
66B
331
669
  5
66C
331
66A
  5
66D
331
66B
  5
66E
331
66C
  5
66F
331
66D
  5
670
331
673
  5
676
331
674
  5
677
331
675
  5
678
331
676
  5
679
331
677
  5
67A
331
678
  5
67B
331
679
  5
67C
331
67A
  5
67D
331
67B
  5
67E
331
67C
  5
67F
331
67D
  5
680
331
67E
  5
681
331
67F
  5
682
331
680
  5
683
331
681
  5
684
331
682
  5
685
331
683
  5
686
331
684
  5
687
331
685
  5
688
331
686
  5
689
331
687
  5
68A
331
688
  5
68B
331
689
  5
68C
331
68A
  5
68D
331
68B
  5
68E
331
68C
  5
68F
331
68D
  5
690
331
68E
  5
691
331
68F
  5
692
331
690
  5
693
331
691
  5
694
331
692
  5
695
331
693
  5
696
331
694
  5
697
331
695
  5
698
331
696
  5
699
331
697
  5
69A
331
698
  5
69B
331
699
  5
69C
331
69A
  5
69D
331
69B
  5
69E
331
69C
  5
69F
331
69D
  5
6A0
331
69E
  5
6A1
331
69F
  5
6A2
331
6A0
  5
6A3
331
6A1
  5
6A4
331
6A2
  5
6A5
331
6A3
  5
6A6
331
6A4
  5
6A7
331
6A5
  5
6A8
331
6A6
  5
6A9
331
6A7
  5
6AA
331
6A8
  5
6AB
331
6A9
  5
6AC
331
6AA
  5
6AD
331
6AB
  5
6AE
331
6B1
  5
6B4
331
6B2
  5
6B5
331
6B3
  5
6B6
331
6B4
  5
6B7
331
6B5
  5
6B8
331
6B6
  5
6B9
331
6B7
  5
6BA
331
6B8
  5
6BB
331
6B9
  5
6BC
331
6BA
  5
6BD
331
6BB
  5
6BE
331
6BC
  5
6BF
331
6BD
  5
6C0
331
6BE
  5
6C1
331
6BF
  5
6C2
331
6C0
  5
6C3
331
6C1
  5
6C4
331
6C2
  5
6C5
331
6C3
  5
6C6
331
6C4
  5
6C7
331
6C5
  5
6C8
331
6C7
  5
6CA
331
6C8
  5
6CB
331
6C9
  5
6CC
331
6CA
  5
6CD
331
6CB
  5
6CE
331
6CC
  5
6CF
331
6CD
  5
6D0
331
6CE
  5
6D1
331
6CF
  5
6D2
331
6D0
  5
6D3
331
6D1
  5
6D4
331
6D2
  5
6D5
331
6D3
  5
6D6
331
6D4
  5
6D7
331
6D5
  5
6D8
331
6D6
  5
6D9
331
6D7
  5
6DA
331
6D8
  5
6DB
331
6D9
  5
6DC
331
6DA
  5
6DD
331
6DB
  5
6DE
331
6DC
  5
6DF
331
6DD
  5
6E0
331
6DE
  5
6E1
331
6DF
  5
6E2
331
6E0
  5
6E3
331
6E1
  5
6E4
331
6E2
  5
6E5
331
6E3
  5
6E6
331
6E4
  5
6E7
331
6E5
  5
6E8
331
6E6
  5
6E9
331
6E7
  5
6EA
331
6E8
  5
6EB
331
6E9
  5
6EC
331
6EA
  5
6ED
331
6EC
  5
6EF
331
6EF
  5
6F2
331
6F0
  5
6F3
331
6F1
  5
6F4
331
6F2
  5
6F5
331
6F3
  5
6F6
331
6F4
  5
6F7
331
6F5
  5
6F8
331
6F6
  5
6F9
331
6F7
  5
6FA
331
6F8
  5
6FB
331
6F9
  5
6FC
331
6FA
  5
6FD
331
6FB
  5
6FE
331
6FC
  5
6FF
331
6FD
  5
700
331
6FE
  5
701
331
6FF
  5
702
331
700
  5
703
331
701
  5
704
331
702
  5
705
331
703
  5
706
331
704
  5
707
331
705
  5
708
331
706
  5
709
331
707
  5
70A
331
708
  5
70B
331
709
  5
70C
331
70A
  5
70D
331
70B
  5
70E
331
70C
  5
70F
331
70D
  5
710
331
70E
  5
711
331
70F
  5
712
331
710
  5
713
331
711
  5
714
331
712
  5
715
331
713
  5
716
331
714
  5
717
331
715
  5
718
331
716
  5
719
331
717
  5
71A
331
718
  5
71B
331
719
  5
71C
331
71E
  5
721
331
71F
  5
722
331
720
  5
723
331
721
  5
724
331
723
  5
726
331
724
  5
727
331
725
  5
728
331
726
  5
729
331
727
  5
72A
331
728
  5
72B
331
729
  5
72C
331
72A
  5
72D
331
72B
  5
72E
331
72C
  5
72F
331
72D
  5
730
331
72E
  5
731
331
72F
  5
732
331
730
  5
733
331
731
  5
734
331
732
  5
735
331
733
  5
736
331
734
  5
737
331
735
  5
738
331
736
  5
739
331
737
  5
73A
331
738
  5
73B
331
739
  5
73C
331
73A
  5
73D
331
73B
  5
73E
331
73C
  5
73F
331
73E
  5
741
331
73F
  5
742
331
741
  5
744
331
746
  5
749
331
747
  5
74A
331
748
  5
74B
331
749
  5
74C
331
74A
  5
74D
331
74B
  5
74E
331
74C
  5
74F
331
74D
  5
750
331
74E
  5
751
331
74F
  5
752
331
750
  5
753
331
751
  5
754
331
752
  5
755
331
753
  5
756
331
754
  5
757
331
755
  5
758
331
756
  5
759
331
757
  5
75A
331
758
  5
75B
331
759
  5
75C
331
75A
  5
75D
331
75B
  5
75E
331
75C
  5
75F
331
75D
  5
760
331
75E
  5
761
331
75F
  5
762
331
760
  5
763
331
761
  5
764
331
762
  5
765
331
763
  5
766
331
764
  5
767
331
765
  5
768
331
766
  5
769
331
769
  5
76C
331
76A
  5
76D
331
76B
  5
76E
331
76C
  5
76F
331
76D
  5
770
331
76E
  5
771
331
76F
  5
772
331
770
  5
773
331
771
  5
774
331
772
  5
775
331
773
  5
776
331
774
  5
777
331
775
  5
778
331
776
  5
779
331
779
  5
77C
331
77A
  5
77D
331
77B
  5
77E
331
77F
  5
782
331
78F
  5
792
331
790
  5
793
331
791
  5
794
331
792
  5
795
331
793
  5
796
331
794
  5
797
331
795
  5
798
331
796
  5
799
331
797
  5
79A
331
798
  5
79B
331
799
  5
79C
331
79A
  5
79D
331
79B
  5
79E
331
79C
  5
79F
331
79D
  5
7A0
331
79E
  5
7A1
331
79F
  5
7A2
331
7A0
  5
7A3
331
7A1
  5
7A4
331
7A2
  5
7A5
331
7A3
  5
7A6
331
7A4
  5
7A7
331
7A5
  5
7A8
331
7A6
  5
7A9
331
7A7
  5
7AA
331
7A8
  5
7AB
331
7A9
  5
7AC
331
7AA
  5
7AD
331
7AB
  5
7AE
331
7AC
  5
7AF
331
7AD
  5
7B0
331
7AE
  5
7B1
331
7AF
  5
7B2
331
7B0
  5
7B3
331
7B1
  5
7B4
331
7B2
  5
7B5
331
7B3
  5
7B6
331
7B4
  5
7B7
331
7B5
  5
7B8
331
7B6
  5
7B9
331
7B7
  5
7BA
331
7B8
  5
7BB
331
7B9
  5
7BC
331
7BA
  5
7BD
331
7BB
  5
7BE
331
7BC
  5
7BF
331
7BD
  5
7C0
331
7BE
  5
7C1
331
7BF
  5
7C2
331
7C0
  5
7C3
331
7C1
  5
7C4
331
7C2
  5
7C5
331
7C3
  5
7C6
331
7C4
  5
7C7
331
7C5
  5
7C8
331
7C6
  5
7C9
331
7C7
  5
7CA
331
7C8
  5
7CB
331
7C9
  5
7CC
331
7CA
  5
7CD
331
7CB
  5
7CE
331
7CC
  5
7CF
331
7CD
  5
7D0
331
7CE
  5
7D1
331
7CF
  5
7D2
331
7D0
  5
7D3
331
7D1
  5
7D4
331
7D2
  5
7D5
331
7D3
  5
7D6
331
7D4
  5
7D7
331
7D5
  5
7D8
331
7D6
  5
7D9
331
7D7
  5
7DA
331
7D8
  5
7DB
331
7D9
  5
7DC
331
7DA
  5
7DD
331
944
  5
947
331
945
  5
948
331
946
  5
949
331
947
  5
969
331
948
  5
96A
331
949
  5
96B
331
972
  5
57F
  0
LAYOUT
  5
1D
102
{ACAD_REACTORS
330
1E
102
}
330
1E
100
AcDbPlotSettings
  1

  2
Bullzip PDF Printer.pc3
  4
A3
  6

 40
0.2
 41
0.0
 42
0.0
 43
0.0
 44
420.2
 45
297.1
 46
25.0
 47
12.0
 48
119.9999998100002
 49
0.0
140
2411.99999456
141
1634.999996185
142
1.0
143
6.0
 70
 11936
 72
     1
 73
     0
 74
     4
  7
monochrome.ctb
 75
     0
147
0.1666666666666667
148
-119.9999998100002
149
0.0
100
AcDbLayout
  1
Model
 70
     0
 71
     0
 10
0.0
 20
0.0
 11
12.0
 21
9.0
 12
0.0
 22
0.0
 32
0.0
 14
410.1254331778327
 24
24.79176931734878
 34
0.0
 15
2324.789230179367
 25
1509.281014081856
 35
0.0
146
0.0
 13
0.0
 23
0.0
 33
0.0
 16
1.0
 26
0.0
 36
0.0
 17
0.0
 27
1.0
 37
0.0
 76
     0
330
17
331
2B
1001
ACAD_PSEXT
1000
Bullzip PDF Printer.pc3
1000
Bullzip PDF Printer
1000
BULLZIP
1000
Bullzip PDF Printer 10.1.0.1871
1070
     0
  0
LAYOUT
  5
23
102
{ACAD_REACTORS
330
1E
102
}
330
1E
100
AcDbPlotSettings
  1

  2
SR-LP8300F
  4

  6

 40
0.0
 41
0.0
 42
0.0
 43
0.0
 44
0.0
 45
0.0
 46
0.0
 47
0.0
 48
0.0
 49
0.0
140
0.0
141
0.0
142
1.0
143
1.0
 70
   688
 72
     0
 73
     0
 74
     5
  7
monochrome.ctb
 75
    16
147
1.0
148
0.0
149
0.0
100
AcDbLayout
  1
ﾚｲｱｳﾄ1
 70
     0
 71
     1
 10
0.0
 20
0.0
 11
12.0
 21
9.0
 12
0.0
 22
0.0
 32
0.0
 14
1000000000000000E+20
 24
1000000000000000E+20
 34
1000000000000000E+20
 15
-1000000000000000E+20
 25
-1000000000000000E+20
 35
-1000000000000000E+20
146
0.0
 13
0.0
 23
0.0
 33
0.0
 16
1.0
 26
0.0
 36
0.0
 17
0.0
 27
1.0
 37
0.0
 76
     0
330
20
  0
MATERIAL
  5
50
102
{ACAD_REACTORS
330
7
102
}
102
{ACAD_XDICTIONARY
360
A47
102
}
330
7
100
AcDbMaterial
  1
ByBlock
  0
MATERIAL
  5
10
102
{ACAD_REACTORS
330
7
102
}
102
{ACAD_XDICTIONARY
360
A43
102
}
330
7
100
AcDbMaterial
  1
ByLayer
  0
MATERIAL
  5
6
102
{ACAD_REACTORS
330
7
102
}
102
{ACAD_XDICTIONARY
360
A45
102
}
330
7
100
AcDbMaterial
  1
Global
1001
ACAD
1070
    -1
1070
     3
1070
     0
1000

1071
        0
  0
MLEADERSTYLE
  5
96D
102
{ACAD_REACTORS
330
94D
102
}
102
{ACAD_XDICTIONARY
360
A79
102
}
330
94D
100
AcDbMLeaderStyle
170
     2
171
     1
172
     0
 90
        2
 40
0.0
 41
0.0
173
     1
 91
-1056964608
340
D
 92
       -2
290
     1
 42
0.09
291
     1
 43
0.36
  3
Standard
341
0
 44
0.18
300

342
E
174
     1
178
     6
175
     1
176
     0
 93
-1056964608
 45
0.18
292
     0
297
     0
 46
0.18
343
0
 94
-1056964608
 47
1.0
 49
1.0
140
1.0
293
     1
141
0.0
294
     1
177
     0
142
1.0
295
     0
296
     0
143
0.125
1001
ACAD_MLEADERVER
1070
     2
  0
MLINESTYLE
  5
14
102
{ACAD_REACTORS
330
15
102
}
330
15
100
AcDbMlineStyle
  2
STANDARD
 70
     0
  3

 62
     0
 51
90.0
 52
90.0
 71
     2
 49
0.5
 62
   256
  6
BYLAYER
 49
-0.5
 62
   256
  6
BYLAYER
  0
ACDBPLACEHOLDER
  5
3
102
{ACAD_REACTORS
330
4
102
}
330
4
  0
SCALE
  5
4F
102
{ACAD_REACTORS
330
2D
102
}
330
2D
100
AcDbScale
 70
     0
300
1:1
140
1.0
141
1.0
290
     1
  0
VISUALSTYLE
  5
955
102
{ACAD_REACTORS
330
2A
102
}
102
{ACAD_XDICTIONARY
360
A51
102
}
330
2A
100
AcDbVisualStyle
  2
2dWireframe
 70
     4
 71
     0
 72
     2
 73
     0
 90
        0
 40
0.6
 41
30.0
 62
     5
 63
     7
 74
     1
 91
        4
 64
     7
 65
   257
 75
     1
175
     1
 42
1.0
 92
        0
 66
   257
 43
1.0
 76
     1
 77
     6
 78
     2
 67
     7
 79
     5
170
     0
171
     0
290
     0
174
     0
 93
        1
 44
0.0
173
     0
291
     0
 45
0.0
1001
ACAD
1000
AcDbSavedByObjectVersion
1070
     0
  0
VISUALSTYLE
  5
958
102
{ACAD_REACTORS
330
2A
102
}
102
{ACAD_XDICTIONARY
360
A57
102
}
330
2A
100
AcDbVisualStyle
  2
Basic
 70
     7
 71
     1
 72
     0
 73
     1
 90
        0
 40
0.6
 41
30.0
 62
     5
 63
     7
 74
     0
 91
        4
 64
     7
 65
   257
 75
     1
175
     1
 42
1.0
 92
        8
 66
     7
 43
1.0
 76
     1
 77
     6
 78
     2
 67
     7
 79
     5
170
     0
171
     0
290
     0
174
     0
 93
        1
 44
0.0
173
     0
291
     1
 45
0.0
1001
ACAD
1000
AcDbSavedByObjectVersion
1070
     0
  0
VISUALSTYLE
  5
95C
102
{ACAD_REACTORS
330
2A
102
}
102
{ACAD_XDICTIONARY
360
A5F
102
}
330
2A
100
AcDbVisualStyle
  2
Brighten
 70
    12
 71
     2
 72
     2
 73
     0
 90
        0
 40
0.6
 41
30.0
 62
     5
 63
     7
 74
     1
 91
        4
 64
     7
 65
   257
 75
     1
175
     1
 42
1.0
 92
        8
 66
     7
 43
1.0
 76
     1
 77
     6
 78
     2
 67
     7
 79
     5
170
     0
171
     0
290
     0
174
     0
 93
        1
 44
50.0
173
     0
291
     1
 45
0.0
1001
ACAD
1000
AcDbSavedByObjectVersion
1070
     0
  0
VISUALSTYLE
  5
960
102
{ACAD_REACTORS
330
2A
102
}
102
{ACAD_XDICTIONARY
360
A67
102
}
330
2A
100
AcDbVisualStyle
  2
ColorChange
 70
    16
 71
     2
 72
     2
 73
     3
 90
        0
 40
0.6
 41
30.0
 62
     5
 63
     8
 74
     1
 91
        4
 64
     7
 65
   257
 75
     1
175
     1
 42
1.0
 92
        8
 66
     8
 43
1.0
 76
     1
 77
     6
 78
     2
 67
     7
 79
     5
170
     0
171
     0
290
     0
174
     0
 93
        1
 44
0.0
173
     0
291
     1
 45
0.0
1001
ACAD
1000
AcDbSavedByObjectVersion
1070
     0
  0
VISUALSTYLE
  5
95A
102
{ACAD_REACTORS
330
2A
102
}
102
{ACAD_XDICTIONARY
360
A5B
102
}
330
2A
100
AcDbVisualStyle
  2
Conceptual
 70
     9
 71
     3
 72
     2
 73
     0
 90
        0
 40
0.6
 41
30.0
 62
     5
 63
     7
 74
     2
 91
        2
 64
     7
 65
   257
 75
     1
175
     1
 42
40.0
 92
        8
 66
     7
 43
1.0
 76
     1
 77
     6
 78
     2
 67
     7
 79
     3
170
     0
171
     0
290
     0
174
     0
 93
        1
 44
0.0
173
     0
291
     0
 45
0.0
1001
ACAD
1000
AcDbSavedByObjectVersion
1070
     0
  0
VISUALSTYLE
  5
95B
102
{ACAD_REACTORS
330
2A
102
}
102
{ACAD_XDICTIONARY
360
A5D
102
}
330
2A
100
AcDbVisualStyle
  2
Dim
 70
    11
 71
     2
 72
     2
 73
     0
 90
        0
 40
0.6
 41
30.0
 62
     5
 63
     7
 74
     1
 91
        4
 64
     7
 65
   257
 75
     1
175
     1
 42
1.0
 92
        8
 66
     7
 43
1.0
 76
     1
 77
     6
 78
     2
 67
     7
 79
     5
170
     0
171
     0
290
     0
174
     0
 93
        1
 44
-50.0
173
     0
291
     1
 45
0.0
1001
ACAD
1000
AcDbSavedByObjectVersion
1070
     0
  0
VISUALSTYLE
  5
963
102
{ACAD_REACTORS
330
2A
102
}
102
{ACAD_XDICTIONARY
360
A6D
102
}
330
2A
100
AcDbVisualStyle
  2
EdgeColorOff
 70
    22
 71
     2
 72
     2
 73
     0
 90
        0
 40
0.6
 41
30.0
 62
     5
 63
     7
 74
     1
 91
        4
 64
     7
 65
   257
 75
     1
175
     1
 42
1.0
 92
        8
 66
     7
 43
1.0
 76
     1
 77
     6
 78
     2
 67
     7
 79
     5
170
     0
171
     0
290
     0
174
     0
 93
        1
 44
0.0
173
     0
291
     1
 45
0.0
1001
ACAD
1000
AcDbSavedByObjectVersion
1070
     0
  0
VISUALSTYLE
  5
95F
102
{ACAD_REACTORS
330
2A
102
}
102
{ACAD_XDICTIONARY
360
A65
102
}
330
2A
100
AcDbVisualStyle
  2
Facepattern
 70
    15
 71
     2
 72
     2
 73
     0
 90
        0
 40
0.6
 41
30.0
 62
     5
 63
     7
 74
     1
 91
        4
 64
     7
 65
   257
 75
     1
175
     1
 42
1.0
 92
        8
 66
     7
 43
1.0
 76
     1
 77
     6
 78
     2
 67
     7
 79
     5
170
     0
171
     0
290
     0
174
     0
 93
        1
 44
0.0
173
     0
291
     1
 45
0.0
1001
ACAD
1000
AcDbSavedByObjectVersion
1070
     0
  0
VISUALSTYLE
  5
951
102
{ACAD_REACTORS
330
2A
102
}
102
{ACAD_XDICTIONARY
360
A49
102
}
330
2A
100
AcDbVisualStyle
  2
Flat
 70
     0
 71
     2
 72
     1
 73
     1
 90
        2
 40
0.6
 41
30.0
 62
     5
 63
     7
 74
     0
 91
        4
 64
     7
 65
   257
 75
     1
175
     1
 42
1.0
 92
        8
 66
     7
 43
1.0
 76
     1
 77
     6
 78
     2
 67
     7
 79
     5
170
     0
171
     0
290
     0
174
     0
 93
       13
 44
0.0
173
     0
291
     1
 45
0.0
1001
ACAD
1000
AcDbSavedByObjectVersion
1070
     0
  0
VISUALSTYLE
  5
952
102
{ACAD_REACTORS
330
2A
102
}
102
{ACAD_XDICTIONARY
360
A4B
102
}
330
2A
100
AcDbVisualStyle
  2
FlatWithEdges
 70
     1
 71
     2
 72
     1
 73
     1
 90
        2
 40
0.6
 41
30.0
 62
     5
 63
     7
 74
     1
 91
        4
 64
     7
 65
   257
 75
     1
175
     1
 42
1.0
 92
        0
 66
   257
 43
1.0
 76
     1
 77
     6
 78
     2
 67
     7
 79
     5
170
     0
171
     0
290
     0
174
     0
 93
       13
 44
0.0
173
     0
291
     1
 45
0.0
1001
ACAD
1000
AcDbSavedByObjectVersion
1070
     0
  0
VISUALSTYLE
  5
953
102
{ACAD_REACTORS
330
2A
102
}
102
{ACAD_XDICTIONARY
360
A4D
102
}
330
2A
100
AcDbVisualStyle
  2
Gouraud
 70
     2
 71
     2
 72
     2
 73
     1
 90
        2
 40
0.6
 41
30.0
 62
     5
 63
     7
 74
     0
 91
        4
 64
     7
 65
   257
 75
     1
175
     1
 42
1.0
 92
        0
 66
     7
 43
1.0
 76
     1
 77
     6
 78
     2
 67
     7
 79
     5
170
     0
171
     0
290
     0
174
     0
 93
       13
 44
0.0
173
     0
291
     1
 45
0.0
1001
ACAD
1000
AcDbSavedByObjectVersion
1070
     0
  0
VISUALSTYLE
  5
954
102
{ACAD_REACTORS
330
2A
102
}
102
{ACAD_XDICTIONARY
360
A4F
102
}
330
2A
100
AcDbVisualStyle
  2
GouraudWithEdges
 70
     3
 71
     2
 72
     2
 73
     1
 90
        2
 40
0.6
 41
30.0
 62
     5
 63
     7
 74
     1
 91
        4
 64
     7
 65
   257
 75
     1
175
     1
 42
1.0
 92
        0
 66
   257
 43
1.0
 76
     1
 77
     6
 78
     2
 67
     7
 79
     5
170
     0
171
     0
290
     0
174
     0
 93
       13
 44
0.0
173
     0
291
     1
 45
0.0
1001
ACAD
1000
AcDbSavedByObjectVersion
1070
     0
  0
VISUALSTYLE
  5
957
102
{ACAD_REACTORS
330
2A
102
}
102
{ACAD_XDICTIONARY
360
A55
102
}
330
2A
100
AcDbVisualStyle
  2
Hidden
 70
     6
 71
     1
 72
     2
 73
     2
 90
        0
 40
0.6
 41
30.0
 62
     5
 63
     7
 74
     2
 91
        2
 64
     7
 65
   257
 75
     2
175
     1
 42
40.0
 92
        0
 66
   257
 43
1.0
 76
     1
 77
     6
 78
     2
 67
     7
 79
     3
170
     0
171
     0
290
     0
174
     0
 93
        1
 44
0.0
173
     0
291
     0
 45
0.0
1001
ACAD
1000
AcDbSavedByObjectVersion
1070
     0
  0
VISUALSTYLE
  5
961
102
{ACAD_REACTORS
330
2A
102
}
102
{ACAD_XDICTIONARY
360
A69
102
}
330
2A
100
AcDbVisualStyle
  2
JitterOff
 70
    20
 71
     2
 72
     2
 73
     0
 90
        0
 40
0.6
 41
30.0
 62
     5
 63
     7
 74
     1
 91
        4
 64
     7
 65
   257
 75
     1
175
     1
 42
1.0
 92
       10
 66
     7
 43
1.0
 76
     1
 77
     6
 78
     2
 67
     7
 79
     5
170
     0
171
     0
290
     0
174
     0
 93
        1
 44
0.0
173
     0
291
     1
 45
0.0
1001
ACAD
1000
AcDbSavedByObjectVersion
1070
     0
  0
VISUALSTYLE
  5
95E
102
{ACAD_REACTORS
330
2A
102
}
102
{ACAD_XDICTIONARY
360
A63
102
}
330
2A
100
AcDbVisualStyle
  2
Linepattern
 70
    14
 71
     2
 72
     2
 73
     0
 90
        0
 40
0.6
 41
30.0
 62
     5
 63
     7
 74
     1
 91
        4
 64
     7
 65
   257
 75
     7
175
     7
 42
1.0
 92
        8
 66
     7
 43
1.0
 76
     1
 77
     6
 78
     2
 67
     7
 79
     5
170
     0
171
     0
290
     0
174
     0
 93
        1
 44
0.0
173
     0
291
     1
 45
0.0
1001
ACAD
1000
AcDbSavedByObjectVersion
1070
     0
  0
VISUALSTYLE
  5
962
102
{ACAD_REACTORS
330
2A
102
}
102
{ACAD_XDICTIONARY
360
A6B
102
}
330
2A
100
AcDbVisualStyle
  2
OverhangOff
 70
    21
 71
     2
 72
     2
 73
     0
 90
        0
 40
0.6
 41
30.0
 62
     5
 63
     7
 74
     1
 91
        4
 64
     7
 65
   257
 75
     1
175
     1
 42
1.0
 92
        9
 66
     7
 43
1.0
 76
     1
 77
     6
 78
     2
 67
     7
 79
     5
170
     0
171
     0
290
     0
174
     0
 93
        1
 44
0.0
173
     0
291
     1
 45
0.0
1001
ACAD
1000
AcDbSavedByObjectVersion
1070
     0
  0
VISUALSTYLE
  5
959
102
{ACAD_REACTORS
330
2A
102
}
102
{ACAD_XDICTIONARY
360
A59
102
}
330
2A
100
AcDbVisualStyle
  2
Realistic
 70
     8
 71
     2
 72
     3
 73
     0
 90
        2
 40
0.6
 41
30.0
 62
     5
 63
     7
 74
     0
 91
        0
 64
     7
 65
   257
 75
     1
175
     1
 42
1.0
 92
        8
 66
   257
 43
1.0
 76
     1
 77
     6
 78
     2
 67
     7
 79
     3
170
     0
171
     0
290
     0
174
     0
 93
       13
 44
0.0
173
     0
291
     0
 45
0.0
1001
ACAD
1000
AcDbSavedByObjectVersion
1070
     0
  0
VISUALSTYLE
  5
968
102
{ACAD_REACTORS
330
2A
102
}
102
{ACAD_XDICTIONARY
360
A77
102
}
330
2A
100
AcDbVisualStyle
  2
Shaded
 70
    27
 71
     2
 72
     2
 73
     1
 90
        2
 40
0.6
 41
30.0
 62
     5
 63
     7
 74
     0
 91
        4
 64
     7
 65
   257
 75
     1
175
     1
 42
1.0
 92
        8
 66
   257
 43
1.0
 76
     1
 77
     6
 78
     2
 67
   251
 79
     3
170
     0
171
     0
290
     0
174
     0
 93
        5
 44
0.0
173
     0
291
     0
 45
0.0
1001
ACAD
1000
AcDbSavedByObjectVersion
1070
     0
  0
VISUALSTYLE
  5
967
102
{ACAD_REACTORS
330
2A
102
}
102
{ACAD_XDICTIONARY
360
A75
102
}
330
2A
100
AcDbVisualStyle
  2
Shaded with edges
 70
    26
 71
     2
 72
     2
 73
     1
 90
        2
 40
0.6
 41
30.0
 62
     5
 63
     7
 74
     1
 91
       10
 64
     7
 65
   257
 75
     2
175
     1
 42
1.0
 92
        8
 66
   257
 43
1.0
 76
     1
 77
     6
 78
     2
 67
     7
 79
     3
170
     0
171
     0
290
     0
174
     0
 93
        5
 44
0.0
173
     0
291
     0
 45
0.0
1001
ACAD
1000
AcDbSavedByObjectVersion
1070
     0
  0
VISUALSTYLE
  5
964
102
{ACAD_REACTORS
330
2A
102
}
102
{ACAD_XDICTIONARY
360
A6F
102
}
330
2A
100
AcDbVisualStyle
  2
Shades of Gray
 70
    23
 71
     2
 72
     2
 73
     3
 90
        0
 40
0.6
 41
30.0
 62
     5
 63
     7
 74
     2
 91
        2
 64
     7
 65
     7
 75
     1
175
     1
 42
40.0
 92
        8
 66
     7
 43
1.0
 76
     1
 77
     6
 78
     2
 67
     7
 79
     3
170
     0
171
     0
290
     0
174
     0
 93
        1
 44
0.0
173
     0
291
     0
 45
0.0
1001
ACAD
1000
AcDbSavedByObjectVersion
1070
     0
  0
VISUALSTYLE
  5
965
102
{ACAD_REACTORS
330
2A
102
}
102
{ACAD_XDICTIONARY
360
A71
102
}
330
2A
100
AcDbVisualStyle
  2
Sketchy
 70
    24
 71
     1
 72
     2
 73
     2
 90
        0
 40
0.6
 41
30.0
 62
     5
 63
     7
 74
     2
 91
        2
 64
     7
 65
     7
 75
     1
175
     1
 42
40.0
 92
       11
 66
     7
 43
1.0
 76
     1
 77
     6
 78
     2
 67
     7
 79
     6
170
     0
171
     0
290
     0
174
     0
 93
        1
 44
0.0
173
     0
291
     0
 45
0.0
1001
ACAD
1000
AcDbSavedByObjectVersion
1070
     0
  0
VISUALSTYLE
  5
95D
102
{ACAD_REACTORS
330
2A
102
}
102
{ACAD_XDICTIONARY
360
A61
102
}
330
2A
100
AcDbVisualStyle
  2
Thicken
 70
    13
 71
     2
 72
     2
 73
     0
 90
        0
 40
0.6
 41
30.0
 62
     5
 63
     7
 74
     1
 91
        4
 64
     7
 65
   257
 75
     1
175
     1
 42
1.0
 92
       12
 66
     7
 43
1.0
 76
     1
 77
     6
 78
     2
 67
     7
 79
     5
170
     0
171
     0
290
     0
174
     0
 93
        1
 44
0.0
173
     0
291
     1
 45
0.0
1001
ACAD
1000
AcDbSavedByObjectVersion
1070
     0
  0
VISUALSTYLE
  5
956
102
{ACAD_REACTORS
330
2A
102
}
102
{ACAD_XDICTIONARY
360
A53
102
}
330
2A
100
AcDbVisualStyle
  2
Wireframe
 70
     5
 71
     0
 72
     2
 73
     0
 90
        0
 40
0.6
 41
30.0
 62
     5
 63
     7
 74
     1
 91
        4
 64
     7
 65
   257
 75
     1
175
     1
 42
1.0
 92
        0
 66
   257
 43
1.0
 76
     1
 77
     6
 78
     2
 67
     7
 79
     5
170
     0
171
     0
290
     0
174
     0
 93
        1
 44
0.0
173
     0
291
     0
 45
0.0
1001
ACAD
1000
AcDbSavedByObjectVersion
1070
     0
  0
VISUALSTYLE
  5
966
102
{ACAD_REACTORS
330
2A
102
}
102
{ACAD_XDICTIONARY
360
A73
102
}
330
2A
100
AcDbVisualStyle
  2
X-Ray
 70
    25
 71
     2
 72
     2
 73
     1
 90
        1
 40
0.5
 41
30.0
 62
     5
 63
     7
 74
     1
 91
        0
 64
     7
 65
   257
 75
     1
175
     1
 42
1.0
 92
        8
 66
     7
 43
1.0
 76
     1
 77
     6
 78
     2
 67
     7
 79
     3
170
     0
171
     0
290
     0
174
     0
 93
       13
 44
0.0
173
     0
291
     0
 45
0.0
1001
ACAD
1000
AcDbSavedByObjectVersion
1070
     0
  0
XRECORD
  5
A3E
102
{ACAD_REACTORS
330
A3D
102
}
330
A3D
100
AcDbXrecord
280
     1
340
29
  0
XRECORD
  5
A3F
102
{ACAD_REACTORS
330
A3D
102
}
330
A3D
100
AcDbXrecord
280
     1
340
7
  0
DICTIONARYVAR
  5
94B
102
{ACAD_REACTORS
330
94A
102
}
330
94A
100
DictionaryVariables
280
     0
  1
1:1
  0
DICTIONARYVAR
  5
971
102
{ACAD_REACTORS
330
94A
102
}
330
94A
100
DictionaryVariables
280
     0
  1
Standard
  0
DICTIONARYVAR
  5
980
102
{ACAD_REACTORS
330
94A
102
}
330
94A
100
DictionaryVariables
280
     0
  1
0
  0
DICTIONARYVAR
  5
981
102
{ACAD_REACTORS
330
94A
102
}
330
94A
100
DictionaryVariables
280
     0
  1
1
  0
DICTIONARYVAR
  5
988
102
{ACAD_REACTORS
330
94A
102
}
330
94A
100
DictionaryVariables
280
     0
  1
1
  0
DICTIONARYVAR
  5
94E
102
{ACAD_REACTORS
330
94A
102
}
330
94A
100
DictionaryVariables
280
     0
  1
0
  0
DICTIONARY
  5
A47
330
50
100
AcDbDictionary
280
     1
281
     1
  3
ACAD_XREC_ROUNDTRIP
360
A48
  0
DICTIONARY
  5
A43
330
10
100
AcDbDictionary
280
     1
281
     1
  3
ACAD_XREC_ROUNDTRIP
360
A44
  0
DICTIONARY
  5
A45
330
6
100
AcDbDictionary
280
     1
281
     1
  3
ACAD_XREC_ROUNDTRIP
360
A46
  0
DICTIONARY
  5
A79
330
96D
100
AcDbDictionary
280
     1
281
     1
  3
ACAD_XREC_ROUNDTRIP
360
A7A
  0
DICTIONARY
  5
A51
330
955
100
AcDbDictionary
280
     1
281
     1
  3
ACAD_XREC_ROUNDTRIP
360
A52
  0
DICTIONARY
  5
A57
330
958
100
AcDbDictionary
280
     1
281
     1
  3
ACAD_XREC_ROUNDTRIP
360
A58
  0
DICTIONARY
  5
A5F
330
95C
100
AcDbDictionary
280
     1
281
     1
  3
ACAD_XREC_ROUNDTRIP
360
A60
  0
DICTIONARY
  5
A67
330
960
100
AcDbDictionary
280
     1
281
     1
  3
ACAD_XREC_ROUNDTRIP
360
A68
  0
DICTIONARY
  5
A5B
330
95A
100
AcDbDictionary
280
     1
281
     1
  3
ACAD_XREC_ROUNDTRIP
360
A5C
  0
DICTIONARY
  5
A5D
330
95B
100
AcDbDictionary
280
     1
281
     1
  3
ACAD_XREC_ROUNDTRIP
360
A5E
  0
DICTIONARY
  5
A6D
330
963
100
AcDbDictionary
280
     1
281
     1
  3
ACAD_XREC_ROUNDTRIP
360
A6E
  0
DICTIONARY
  5
A65
330
95F
100
AcDbDictionary
280
     1
281
     1
  3
ACAD_XREC_ROUNDTRIP
360
A66
  0
DICTIONARY
  5
A49
330
951
100
AcDbDictionary
280
     1
281
     1
  3
ACAD_XREC_ROUNDTRIP
360
A4A
  0
DICTIONARY
  5
A4B
330
952
100
AcDbDictionary
280
     1
281
     1
  3
ACAD_XREC_ROUNDTRIP
360
A4C
  0
DICTIONARY
  5
A4D
330
953
100
AcDbDictionary
280
     1
281
     1
  3
ACAD_XREC_ROUNDTRIP
360
A4E
  0
DICTIONARY
  5
A4F
330
954
100
AcDbDictionary
280
     1
281
     1
  3
ACAD_XREC_ROUNDTRIP
360
A50
  0
DICTIONARY
  5
A55
330
957
100
AcDbDictionary
280
     1
281
     1
  3
ACAD_XREC_ROUNDTRIP
360
A56
  0
DICTIONARY
  5
A69
330
961
100
AcDbDictionary
280
     1
281
     1
  3
ACAD_XREC_ROUNDTRIP
360
A6A
  0
DICTIONARY
  5
A63
330
95E
100
AcDbDictionary
280
     1
281
     1
  3
ACAD_XREC_ROUNDTRIP
360
A64
  0
DICTIONARY
  5
A6B
330
962
100
AcDbDictionary
280
     1
281
     1
  3
ACAD_XREC_ROUNDTRIP
360
A6C
  0
DICTIONARY
  5
A59
330
959
100
AcDbDictionary
280
     1
281
     1
  3
ACAD_XREC_ROUNDTRIP
360
A5A
  0
DICTIONARY
  5
A77
330
968
100
AcDbDictionary
280
     1
281
     1
  3
ACAD_XREC_ROUNDTRIP
360
A78
  0
DICTIONARY
  5
A75
330
967
100
AcDbDictionary
280
     1
281
     1
  3
ACAD_XREC_ROUNDTRIP
360
A76
  0
DICTIONARY
  5
A6F
330
964
100
AcDbDictionary
280
     1
281
     1
  3
ACAD_XREC_ROUNDTRIP
360
A70
  0
DICTIONARY
  5
A71
330
965
100
AcDbDictionary
280
     1
281
     1
  3
ACAD_XREC_ROUNDTRIP
360
A72
  0
DICTIONARY
  5
A61
330
95D
100
AcDbDictionary
280
     1
281
     1
  3
ACAD_XREC_ROUNDTRIP
360
A62
  0
DICTIONARY
  5
A53
330
956
100
AcDbDictionary
280
     1
281
     1
  3
ACAD_XREC_ROUNDTRIP
360
A54
  0
DICTIONARY
  5
A73
330
966
100
AcDbDictionary
280
     1
281
     1
  3
ACAD_XREC_ROUNDTRIP
360
A74
  0
XRECORD
  5
A48
102
{ACAD_REACTORS
330
A47
102
}
330
A47
100
AcDbXrecord
280
     1
102
MATERIAL
148
0.0
149
0.0
149
0.0
 93
        0
 94
      127
282
     0
 72
     1
 77
     1
171
     1
175
     1
179
     1
273
     0
  0
XRECORD
  5
A44
102
{ACAD_REACTORS
330
A43
102
}
330
A43
100
AcDbXrecord
280
     1
102
MATERIAL
148
0.0
149
0.0
149
0.0
 93
        0
 94
      127
282
     0
 72
     1
 77
     1
171
     1
175
     1
179
     1
273
     0
  0
XRECORD
  5
A46
102
{ACAD_REACTORS
330
A45
102
}
330
A45
100
AcDbXrecord
280
     1
102
MATERIAL
148
0.0
149
0.0
149
0.0
 93
        0
 94
      127
282
     0
 72
     1
 77
     1
171
     1
175
     1
179
     1
273
     0
  0
XRECORD
  5
A7A
102
{ACAD_REACTORS
330
A79
102
}
330
A79
100
AcDbXrecord
280
     1
102
ACAD_ROUNDTRIP_2010_MLEADER_STYLE
  0
XRECORD
  5
A52
102
{ACAD_REACTORS
330
A51
102
}
330
A51
100
AcDbXrecord
280
     1
102
RTVSPropertyOp0
 70
     1
102
RTVSPropertyOp1
 70
     1
102
RTVSPropertyOp2
 70
     1
102
RTVSPropertyOp3
 70
     1
102
RTVSPropertyOp4
 70
     1
102
RTVSPropertyOp5
 70
     1
102
RTVSPropertyOp6
 70
     1
102
RTVSPropertyOp7
 70
     1
102
RTVSPropertyOp8
 70
     1
102
RTVSPropertyOp9
 70
     1
102
RTVSPropertyOp10
 70
     1
102
RTVSPropertyOp11
 70
     1
102
RTVSPropertyOp12
 70
     1
102
RTVSPropertyOp13
 70
     1
102
RTVSPropertyOp14
 70
     1
102
RTVSPropertyOp15
 70
     1
102
RTVSPropertyOp16
 70
     1
102
RTVSPropertyOp17
 70
     1
102
RTVSPropertyOp18
 70
     1
102
RTVSPropertyOp19
 70
     1
102
RTVSPropertyOp20
 70
     1
102
RTVSPropertyOp21
 70
     1
102
RTVSPropertyOp22
 70
     1
102
RTVSPropertyOp23
 70
     1
102
RTVSPropertyOp24
 70
     1
102
RTVSPropertyOp25
 70
     1
102
RTVSPropertyOp26
 70
     1
102
RTVSPropertyOp27
 70
     1
102
RTVSPropertyOp28
 70
     1
102
RTVSPropertyOp29
 70
     1
102
RTVSPropertyOp30
 70
     1
102
RTVSPropertyOp31
 70
     1
102
RTVSPropertyOp32
 70
     1
102
RTVSPropertyOp33
 70
     1
102
RTVSPropertyOp34
 70
     1
102
RTVSPropertyOp35
 70
     1
102
RTVSPropertyOp36
 70
     1
102
RTVSPropertyOp37
 70
     1
102
RTVSPropertyOp38
 70
     1
102
RTVSPropertyOp39
 70
     1
102
RTVSPropertyOp40
 70
     1
102
RTVSPropertyOp41
 70
     1
102
RTVSPropertyOp42
 70
     1
102
RTVSPropertyOp43
 70
     1
102
RTVSPropertyOp44
 70
     1
102
RTVSPropertyOp45
 70
     1
102
RTVSPropertyOp46
 70
     1
102
RTVSPropertyOp47
 70
     1
102
RTVSPropertyOp48
 70
     1
102
RTVSPropertyOp49
 70
     1
102
RTVSPropertyOp50
 70
     1
102
RTVSPropertyOp51
 70
     0
102
RTVSPropertyOp52
 70
     0
102
RTVSPropertyOp53
 70
     1
102
RTVSPropertyOp54
 70
     1
102
RTVSPropertyOp55
 70
     1
102
RTVSPropertyOp56
 70
     1
102
RTVSPropertyOp57
 70
     1
102
RTVSPost2010Prop28
280
     1
102
RTVSPost2010PropOp28
 70
     1
102
RTVSPost2010Prop29
280
     1
102
RTVSPost2010PropOp29
 70
     1
102
RTVSPost2010Prop30
280
     0
102
RTVSPost2010PropOp30
 70
     1
102
RTVSPost2010Prop31
280
     0
102
RTVSPost2010PropOp31
 70
     1
102
RTVSPost2010Prop32
280
     0
102
RTVSPost2010PropOp32
 70
     1
102
RTVSPost2010Prop33
280
     0
102
RTVSPost2010PropOp33
 70
     1
102
RTVSPost2010Prop34
280
     0
102
RTVSPost2010PropOp34
 70
     1
102
RTVSPost2010Prop35
280
     0
102
RTVSPost2010PropOp35
 70
     1
102
RTVSPost2010Prop36
280
     0
102
RTVSPost2010PropOp36
 70
     1
102
RTVSPost2010Prop37
 90
       50
102
RTVSPost2010PropOp37
 70
     1
102
RTVSPost2010Prop38
140
0.0
102
RTVSPost2010PropOp38
 70
     1
102
RTVSPost2010Prop39
140
1.0
102
RTVSPost2010PropOp39
 70
     1
102
RTVSPost2010Prop40
 90
        0
102
RTVSPost2010PropOp40
 70
     1
102
RTVSPost2010Prop41ColorIndex
 90
       18
102
RTVSPost2010Prop41ColorRGB
 90
        0
102
RTVSPost2010PropOp41
 70
     1
102
RTVSPost2010Prop42
 90
       50
102
RTVSPost2010PropOp42
 70
     1
102
RTVSPost2010Prop43
 90
        3
102
RTVSPost2010PropOp43
 70
     1
102
RTVSPost2010Prop44ColorIndex
 90
        5
102
RTVSPost2010Prop44ColorRGB
 90
      255
102
RTVSPost2010PropOp44
 70
     1
102
RTVSPost2010Prop45
280
     0
102
RTVSPost2010PropOp45
 70
     1
102
RTVSPost2010Prop46
 90
       50
102
RTVSPost2010PropOp46
 70
     1
102
RTVSPost2010Prop47
 90
       50
102
RTVSPost2010PropOp47
 70
     1
102
RTVSPost2010Prop48
 90
       50
102
RTVSPost2010PropOp48
 70
     1
102
RTVSPost2010Prop49
280
     0
102
RTVSPost2010PropOp49
 70
     1
102
RTVSPost2010Prop50
 90
       50
102
RTVSPost2010PropOp50
 70
     1
102
RTVSPost2010Prop51ColorIndex
 90
      256
102
RTVSPost2010Prop51ColorRGB
 90
-16777216
102
RTVSPost2010PropOp51
 70
     0
102
RTVSPost2010Prop52
140
1.0
102
RTVSPost2010PropOp52
 70
     0
102
RTVSPost2010Prop53
 90
        2
102
RTVSPost2010PropOp53
 70
     1
102
RTVSPost2010Prop54
  1
strokes_ogs.tif
102
RTVSPost2010PropOp54
 70
     1
102
RTVSPost2010Prop55
280
     0
102
RTVSPost2010PropOp55
 70
     1
102
RTVSPost2010Prop56
140
1.0
102
RTVSPost2010PropOp56
 70
     1
102
RTVSPost2010Prop57
140
1.0
102
RTVSPost2010PropOp57
 70
     1
  0
XRECORD
  5
A58
102
{ACAD_REACTORS
330
A57
102
}
330
A57
100
AcDbXrecord
280
     1
102
RTVSPropertyOp0
 70
     1
102
RTVSPropertyOp1
 70
     1
102
RTVSPropertyOp2
 70
     1
102
RTVSPropertyOp3
 70
     1
102
RTVSPropertyOp4
 70
     1
102
RTVSPropertyOp5
 70
     1
102
RTVSPropertyOp6
 70
     1
102
RTVSPropertyOp7
 70
     1
102
RTVSPropertyOp8
 70
     1
102
RTVSPropertyOp9
 70
     1
102
RTVSPropertyOp10
 70
     1
102
RTVSPropertyOp11
 70
     1
102
RTVSPropertyOp12
 70
     1
102
RTVSPropertyOp13
 70
     1
102
RTVSPropertyOp14
 70
     1
102
RTVSPropertyOp15
 70
     1
102
RTVSPropertyOp16
 70
     1
102
RTVSPropertyOp17
 70
     1
102
RTVSPropertyOp18
 70
     1
102
RTVSPropertyOp19
 70
     1
102
RTVSPropertyOp20
 70
     1
102
RTVSPropertyOp21
 70
     1
102
RTVSPropertyOp22
 70
     1
102
RTVSPropertyOp23
 70
     1
102
RTVSPropertyOp24
 70
     1
102
RTVSPropertyOp25
 70
     1
102
RTVSPropertyOp26
 70
     1
102
RTVSPropertyOp27
 70
     1
102
RTVSPropertyOp28
 70
     1
102
RTVSPropertyOp29
 70
     1
102
RTVSPropertyOp30
 70
     1
102
RTVSPropertyOp31
 70
     1
102
RTVSPropertyOp32
 70
     1
102
RTVSPropertyOp33
 70
     1
102
RTVSPropertyOp34
 70
     1
102
RTVSPropertyOp35
 70
     1
102
RTVSPropertyOp36
 70
     1
102
RTVSPropertyOp37
 70
     1
102
RTVSPropertyOp38
 70
     1
102
RTVSPropertyOp39
 70
     1
102
RTVSPropertyOp40
 70
     1
102
RTVSPropertyOp41
 70
     1
102
RTVSPropertyOp42
 70
     1
102
RTVSPropertyOp43
 70
     1
102
RTVSPropertyOp44
 70
     1
102
RTVSPropertyOp45
 70
     1
102
RTVSPropertyOp46
 70
     1
102
RTVSPropertyOp47
 70
     1
102
RTVSPropertyOp48
 70
     1
102
RTVSPropertyOp49
 70
     1
102
RTVSPropertyOp50
 70
     1
102
RTVSPropertyOp51
 70
     0
102
RTVSPropertyOp52
 70
     0
102
RTVSPropertyOp53
 70
     1
102
RTVSPropertyOp54
 70
     1
102
RTVSPropertyOp55
 70
     1
102
RTVSPropertyOp56
 70
     1
102
RTVSPropertyOp57
 70
     1
102
RTVSPost2010Prop28
280
     0
102
RTVSPost2010PropOp28
 70
     1
102
RTVSPost2010Prop29
280
     1
102
RTVSPost2010PropOp29
 70
     1
102
RTVSPost2010Prop30
280
     1
102
RTVSPost2010PropOp30
 70
     1
102
RTVSPost2010Prop31
280
     0
102
RTVSPost2010PropOp31
 70
     1
102
RTVSPost2010Prop32
280
     0
102
RTVSPost2010PropOp32
 70
     1
102
RTVSPost2010Prop33
280
     0
102
RTVSPost2010PropOp33
 70
     1
102
RTVSPost2010Prop34
280
     0
102
RTVSPost2010PropOp34
 70
     1
102
RTVSPost2010Prop35
280
     0
102
RTVSPost2010PropOp35
 70
     1
102
RTVSPost2010Prop36
280
     0
102
RTVSPost2010PropOp36
 70
     1
102
RTVSPost2010Prop37
 90
       50
102
RTVSPost2010PropOp37
 70
     1
102
RTVSPost2010Prop38
140
0.0
102
RTVSPost2010PropOp38
 70
     1
102
RTVSPost2010Prop39
140
1.0
102
RTVSPost2010PropOp39
 70
     1
102
RTVSPost2010Prop40
 90
        0
102
RTVSPost2010PropOp40
 70
     1
102
RTVSPost2010Prop41ColorIndex
 90
       18
102
RTVSPost2010Prop41ColorRGB
 90
        0
102
RTVSPost2010PropOp41
 70
     1
102
RTVSPost2010Prop42
 90
       50
102
RTVSPost2010PropOp42
 70
     1
102
RTVSPost2010Prop43
 90
        3
102
RTVSPost2010PropOp43
 70
     1
102
RTVSPost2010Prop44ColorIndex
 90
        5
102
RTVSPost2010Prop44ColorRGB
 90
      255
102
RTVSPost2010PropOp44
 70
     1
102
RTVSPost2010Prop45
280
     0
102
RTVSPost2010PropOp45
 70
     1
102
RTVSPost2010Prop46
 90
       50
102
RTVSPost2010PropOp46
 70
     1
102
RTVSPost2010Prop47
 90
       50
102
RTVSPost2010PropOp47
 70
     1
102
RTVSPost2010Prop48
 90
       50
102
RTVSPost2010PropOp48
 70
     1
102
RTVSPost2010Prop49
280
     0
102
RTVSPost2010PropOp49
 70
     1
102
RTVSPost2010Prop50
 90
       50
102
RTVSPost2010PropOp50
 70
     1
102
RTVSPost2010Prop51ColorIndex
 90
      256
102
RTVSPost2010Prop51ColorRGB
 90
-16777216
102
RTVSPost2010PropOp51
 70
     0
102
RTVSPost2010Prop52
140
1.0
102
RTVSPost2010PropOp52
 70
     0
102
RTVSPost2010Prop53
 90
        2
102
RTVSPost2010PropOp53
 70
     1
102
RTVSPost2010Prop54
  1
strokes_ogs.tif
102
RTVSPost2010PropOp54
 70
     1
102
RTVSPost2010Prop55
280
     0
102
RTVSPost2010PropOp55
 70
     1
102
RTVSPost2010Prop56
140
1.0
102
RTVSPost2010PropOp56
 70
     1
102
RTVSPost2010Prop57
140
1.0
102
RTVSPost2010PropOp57
 70
     1
  0
XRECORD
  5
A60
102
{ACAD_REACTORS
330
A5F
102
}
330
A5F
100
AcDbXrecord
280
     1
102
RTVSPropertyOp0
 70
     1
102
RTVSPropertyOp1
 70
     1
102
RTVSPropertyOp2
 70
     1
102
RTVSPropertyOp3
 70
     1
102
RTVSPropertyOp4
 70
     1
102
RTVSPropertyOp5
 70
     1
102
RTVSPropertyOp6
 70
     1
102
RTVSPropertyOp7
 70
     1
102
RTVSPropertyOp8
 70
     1
102
RTVSPropertyOp9
 70
     1
102
RTVSPropertyOp10
 70
     1
102
RTVSPropertyOp11
 70
     1
102
RTVSPropertyOp12
 70
     1
102
RTVSPropertyOp13
 70
     1
102
RTVSPropertyOp14
 70
     1
102
RTVSPropertyOp15
 70
     1
102
RTVSPropertyOp16
 70
     1
102
RTVSPropertyOp17
 70
     1
102
RTVSPropertyOp18
 70
     1
102
RTVSPropertyOp19
 70
     1
102
RTVSPropertyOp20
 70
     1
102
RTVSPropertyOp21
 70
     1
102
RTVSPropertyOp22
 70
     1
102
RTVSPropertyOp23
 70
     1
102
RTVSPropertyOp24
 70
     1
102
RTVSPropertyOp25
 70
     1
102
RTVSPropertyOp26
 70
     1
102
RTVSPropertyOp27
 70
     1
102
RTVSPropertyOp28
 70
     1
102
RTVSPropertyOp29
 70
     1
102
RTVSPropertyOp30
 70
     1
102
RTVSPropertyOp31
 70
     1
102
RTVSPropertyOp32
 70
     1
102
RTVSPropertyOp33
 70
     1
102
RTVSPropertyOp34
 70
     1
102
RTVSPropertyOp35
 70
     1
102
RTVSPropertyOp36
 70
     1
102
RTVSPropertyOp37
 70
     1
102
RTVSPropertyOp38
 70
     1
102
RTVSPropertyOp39
 70
     1
102
RTVSPropertyOp40
 70
     1
102
RTVSPropertyOp41
 70
     1
102
RTVSPropertyOp42
 70
     1
102
RTVSPropertyOp43
 70
     1
102
RTVSPropertyOp44
 70
     1
102
RTVSPropertyOp45
 70
     1
102
RTVSPropertyOp46
 70
     1
102
RTVSPropertyOp47
 70
     1
102
RTVSPropertyOp48
 70
     1
102
RTVSPropertyOp49
 70
     1
102
RTVSPropertyOp50
 70
     1
102
RTVSPropertyOp51
 70
     0
102
RTVSPropertyOp52
 70
     0
102
RTVSPropertyOp53
 70
     1
102
RTVSPropertyOp54
 70
     1
102
RTVSPropertyOp55
 70
     1
102
RTVSPropertyOp56
 70
     1
102
RTVSPropertyOp57
 70
     1
102
RTVSPost2010Prop28
280
     0
102
RTVSPost2010PropOp28
 70
     1
102
RTVSPost2010Prop29
280
     1
102
RTVSPost2010PropOp29
 70
     1
102
RTVSPost2010Prop30
280
     1
102
RTVSPost2010PropOp30
 70
     1
102
RTVSPost2010Prop31
280
     0
102
RTVSPost2010PropOp31
 70
     1
102
RTVSPost2010Prop32
280
     0
102
RTVSPost2010PropOp32
 70
     1
102
RTVSPost2010Prop33
280
     0
102
RTVSPost2010PropOp33
 70
     1
102
RTVSPost2010Prop34
280
     0
102
RTVSPost2010PropOp34
 70
     1
102
RTVSPost2010Prop35
280
     0
102
RTVSPost2010PropOp35
 70
     1
102
RTVSPost2010Prop36
280
     0
102
RTVSPost2010PropOp36
 70
     1
102
RTVSPost2010Prop37
 90
       50
102
RTVSPost2010PropOp37
 70
     1
102
RTVSPost2010Prop38
140
0.0
102
RTVSPost2010PropOp38
 70
     1
102
RTVSPost2010Prop39
140
1.0
102
RTVSPost2010PropOp39
 70
     1
102
RTVSPost2010Prop40
 90
        0
102
RTVSPost2010PropOp40
 70
     1
102
RTVSPost2010Prop41ColorIndex
 90
       18
102
RTVSPost2010Prop41ColorRGB
 90
        0
102
RTVSPost2010PropOp41
 70
     1
102
RTVSPost2010Prop42
 90
       50
102
RTVSPost2010PropOp42
 70
     1
102
RTVSPost2010Prop43
 90
        3
102
RTVSPost2010PropOp43
 70
     1
102
RTVSPost2010Prop44ColorIndex
 90
        5
102
RTVSPost2010Prop44ColorRGB
 90
      255
102
RTVSPost2010PropOp44
 70
     1
102
RTVSPost2010Prop45
280
     0
102
RTVSPost2010PropOp45
 70
     1
102
RTVSPost2010Prop46
 90
       50
102
RTVSPost2010PropOp46
 70
     1
102
RTVSPost2010Prop47
 90
       50
102
RTVSPost2010PropOp47
 70
     1
102
RTVSPost2010Prop48
 90
       50
102
RTVSPost2010PropOp48
 70
     1
102
RTVSPost2010Prop49
280
     0
102
RTVSPost2010PropOp49
 70
     1
102
RTVSPost2010Prop50
 90
       50
102
RTVSPost2010PropOp50
 70
     1
102
RTVSPost2010Prop51ColorIndex
 90
      256
102
RTVSPost2010Prop51ColorRGB
 90
-16777216
102
RTVSPost2010PropOp51
 70
     0
102
RTVSPost2010Prop52
140
1.0
102
RTVSPost2010PropOp52
 70
     0
102
RTVSPost2010Prop53
 90
        2
102
RTVSPost2010PropOp53
 70
     1
102
RTVSPost2010Prop54
  1
strokes_ogs.tif
102
RTVSPost2010PropOp54
 70
     1
102
RTVSPost2010Prop55
280
     0
102
RTVSPost2010PropOp55
 70
     1
102
RTVSPost2010Prop56
140
1.0
102
RTVSPost2010PropOp56
 70
     1
102
RTVSPost2010Prop57
140
1.0
102
RTVSPost2010PropOp57
 70
     1
  0
XRECORD
  5
A68
102
{ACAD_REACTORS
330
A67
102
}
330
A67
100
AcDbXrecord
280
     1
102
RTVSPropertyOp0
 70
     1
102
RTVSPropertyOp1
 70
     1
102
RTVSPropertyOp2
 70
     1
102
RTVSPropertyOp3
 70
     1
102
RTVSPropertyOp4
 70
     1
102
RTVSPropertyOp5
 70
     1
102
RTVSPropertyOp6
 70
     1
102
RTVSPropertyOp7
 70
     1
102
RTVSPropertyOp8
 70
     1
102
RTVSPropertyOp9
 70
     1
102
RTVSPropertyOp10
 70
     1
102
RTVSPropertyOp11
 70
     1
102
RTVSPropertyOp12
 70
     1
102
RTVSPropertyOp13
 70
     1
102
RTVSPropertyOp14
 70
     1
102
RTVSPropertyOp15
 70
     1
102
RTVSPropertyOp16
 70
     1
102
RTVSPropertyOp17
 70
     1
102
RTVSPropertyOp18
 70
     1
102
RTVSPropertyOp19
 70
     1
102
RTVSPropertyOp20
 70
     1
102
RTVSPropertyOp21
 70
     1
102
RTVSPropertyOp22
 70
     1
102
RTVSPropertyOp23
 70
     1
102
RTVSPropertyOp24
 70
     1
102
RTVSPropertyOp25
 70
     1
102
RTVSPropertyOp26
 70
     1
102
RTVSPropertyOp27
 70
     1
102
RTVSPropertyOp28
 70
     1
102
RTVSPropertyOp29
 70
     1
102
RTVSPropertyOp30
 70
     1
102
RTVSPropertyOp31
 70
     1
102
RTVSPropertyOp32
 70
     1
102
RTVSPropertyOp33
 70
     1
102
RTVSPropertyOp34
 70
     1
102
RTVSPropertyOp35
 70
     1
102
RTVSPropertyOp36
 70
     1
102
RTVSPropertyOp37
 70
     1
102
RTVSPropertyOp38
 70
     1
102
RTVSPropertyOp39
 70
     1
102
RTVSPropertyOp40
 70
     1
102
RTVSPropertyOp41
 70
     1
102
RTVSPropertyOp42
 70
     1
102
RTVSPropertyOp43
 70
     1
102
RTVSPropertyOp44
 70
     1
102
RTVSPropertyOp45
 70
     1
102
RTVSPropertyOp46
 70
     1
102
RTVSPropertyOp47
 70
     1
102
RTVSPropertyOp48
 70
     1
102
RTVSPropertyOp49
 70
     1
102
RTVSPropertyOp50
 70
     1
102
RTVSPropertyOp51
 70
     0
102
RTVSPropertyOp52
 70
     0
102
RTVSPropertyOp53
 70
     1
102
RTVSPropertyOp54
 70
     1
102
RTVSPropertyOp55
 70
     1
102
RTVSPropertyOp56
 70
     1
102
RTVSPropertyOp57
 70
     1
102
RTVSPost2010Prop28
280
     0
102
RTVSPost2010PropOp28
 70
     1
102
RTVSPost2010Prop29
280
     1
102
RTVSPost2010PropOp29
 70
     1
102
RTVSPost2010Prop30
280
     1
102
RTVSPost2010PropOp30
 70
     1
102
RTVSPost2010Prop31
280
     0
102
RTVSPost2010PropOp31
 70
     1
102
RTVSPost2010Prop32
280
     0
102
RTVSPost2010PropOp32
 70
     1
102
RTVSPost2010Prop33
280
     0
102
RTVSPost2010PropOp33
 70
     1
102
RTVSPost2010Prop34
280
     0
102
RTVSPost2010PropOp34
 70
     1
102
RTVSPost2010Prop35
280
     0
102
RTVSPost2010PropOp35
 70
     1
102
RTVSPost2010Prop36
280
     0
102
RTVSPost2010PropOp36
 70
     1
102
RTVSPost2010Prop37
 90
       50
102
RTVSPost2010PropOp37
 70
     1
102
RTVSPost2010Prop38
140
0.0
102
RTVSPost2010PropOp38
 70
     1
102
RTVSPost2010Prop39
140
1.0
102
RTVSPost2010PropOp39
 70
     1
102
RTVSPost2010Prop40
 90
        0
102
RTVSPost2010PropOp40
 70
     1
102
RTVSPost2010Prop41ColorIndex
 90
       18
102
RTVSPost2010Prop41ColorRGB
 90
        0
102
RTVSPost2010PropOp41
 70
     1
102
RTVSPost2010Prop42
 90
       50
102
RTVSPost2010PropOp42
 70
     1
102
RTVSPost2010Prop43
 90
        3
102
RTVSPost2010PropOp43
 70
     1
102
RTVSPost2010Prop44ColorIndex
 90
        5
102
RTVSPost2010Prop44ColorRGB
 90
      255
102
RTVSPost2010PropOp44
 70
     1
102
RTVSPost2010Prop45
280
     0
102
RTVSPost2010PropOp45
 70
     1
102
RTVSPost2010Prop46
 90
       50
102
RTVSPost2010PropOp46
 70
     1
102
RTVSPost2010Prop47
 90
       50
102
RTVSPost2010PropOp47
 70
     1
102
RTVSPost2010Prop48
 90
       50
102
RTVSPost2010PropOp48
 70
     1
102
RTVSPost2010Prop49
280
     0
102
RTVSPost2010PropOp49
 70
     1
102
RTVSPost2010Prop50
 90
       50
102
RTVSPost2010PropOp50
 70
     1
102
RTVSPost2010Prop51ColorIndex
 90
      256
102
RTVSPost2010Prop51ColorRGB
 90
-16777216
102
RTVSPost2010PropOp51
 70
     0
102
RTVSPost2010Prop52
140
1.0
102
RTVSPost2010PropOp52
 70
     0
102
RTVSPost2010Prop53
 90
        2
102
RTVSPost2010PropOp53
 70
     1
102
RTVSPost2010Prop54
  1
strokes_ogs.tif
102
RTVSPost2010PropOp54
 70
     1
102
RTVSPost2010Prop55
280
     0
102
RTVSPost2010PropOp55
 70
     1
102
RTVSPost2010Prop56
140
1.0
102
RTVSPost2010PropOp56
 70
     1
102
RTVSPost2010Prop57
140
1.0
102
RTVSPost2010PropOp57
 70
     1
  0
XRECORD
  5
A5C
102
{ACAD_REACTORS
330
A5B
102
}
330
A5B
100
AcDbXrecord
280
     1
102
RTVSPropertyOp0
 70
     1
102
RTVSPropertyOp1
 70
     1
102
RTVSPropertyOp2
 70
     1
102
RTVSPropertyOp3
 70
     1
102
RTVSPropertyOp4
 70
     1
102
RTVSPropertyOp5
 70
     1
102
RTVSPropertyOp6
 70
     1
102
RTVSPropertyOp7
 70
     1
102
RTVSPropertyOp8
 70
     1
102
RTVSPropertyOp9
 70
     1
102
RTVSPropertyOp10
 70
     1
102
RTVSPropertyOp11
 70
     1
102
RTVSPropertyOp12
 70
     1
102
RTVSPropertyOp13
 70
     1
102
RTVSPropertyOp14
 70
     1
102
RTVSPropertyOp15
 70
     1
102
RTVSPropertyOp16
 70
     1
102
RTVSPropertyOp17
 70
     1
102
RTVSPropertyOp18
 70
     1
102
RTVSPropertyOp19
 70
     1
102
RTVSPropertyOp20
 70
     1
102
RTVSPropertyOp21
 70
     1
102
RTVSPropertyOp22
 70
     1
102
RTVSPropertyOp23
 70
     1
102
RTVSPropertyOp24
 70
     1
102
RTVSPropertyOp25
 70
     1
102
RTVSPropertyOp26
 70
     1
102
RTVSPropertyOp27
 70
     1
102
RTVSPropertyOp28
 70
     1
102
RTVSPropertyOp29
 70
     1
102
RTVSPropertyOp30
 70
     1
102
RTVSPropertyOp31
 70
     1
102
RTVSPropertyOp32
 70
     1
102
RTVSPropertyOp33
 70
     1
102
RTVSPropertyOp34
 70
     1
102
RTVSPropertyOp35
 70
     1
102
RTVSPropertyOp36
 70
     1
102
RTVSPropertyOp37
 70
     1
102
RTVSPropertyOp38
 70
     1
102
RTVSPropertyOp39
 70
     1
102
RTVSPropertyOp40
 70
     1
102
RTVSPropertyOp41
 70
     1
102
RTVSPropertyOp42
 70
     1
102
RTVSPropertyOp43
 70
     1
102
RTVSPropertyOp44
 70
     1
102
RTVSPropertyOp45
 70
     1
102
RTVSPropertyOp46
 70
     1
102
RTVSPropertyOp47
 70
     1
102
RTVSPropertyOp48
 70
     1
102
RTVSPropertyOp49
 70
     1
102
RTVSPropertyOp50
 70
     1
102
RTVSPropertyOp51
 70
     0
102
RTVSPropertyOp52
 70
     0
102
RTVSPropertyOp53
 70
     1
102
RTVSPropertyOp54
 70
     1
102
RTVSPropertyOp55
 70
     1
102
RTVSPropertyOp56
 70
     1
102
RTVSPropertyOp57
 70
     1
102
RTVSPost2010Prop28
280
     0
102
RTVSPost2010PropOp28
 70
     1
102
RTVSPost2010Prop29
280
     1
102
RTVSPost2010PropOp29
 70
     1
102
RTVSPost2010Prop30
280
     1
102
RTVSPost2010PropOp30
 70
     1
102
RTVSPost2010Prop31
280
     0
102
RTVSPost2010PropOp31
 70
     1
102
RTVSPost2010Prop32
280
     0
102
RTVSPost2010PropOp32
 70
     1
102
RTVSPost2010Prop33
280
     0
102
RTVSPost2010PropOp33
 70
     1
102
RTVSPost2010Prop34
280
     0
102
RTVSPost2010PropOp34
 70
     1
102
RTVSPost2010Prop35
280
     0
102
RTVSPost2010PropOp35
 70
     1
102
RTVSPost2010Prop36
280
     0
102
RTVSPost2010PropOp36
 70
     1
102
RTVSPost2010Prop37
 90
       50
102
RTVSPost2010PropOp37
 70
     1
102
RTVSPost2010Prop38
140
0.0
102
RTVSPost2010PropOp38
 70
     1
102
RTVSPost2010Prop39
140
1.0
102
RTVSPost2010PropOp39
 70
     1
102
RTVSPost2010Prop40
 90
        0
102
RTVSPost2010PropOp40
 70
     1
102
RTVSPost2010Prop41ColorIndex
 90
       18
102
RTVSPost2010Prop41ColorRGB
 90
        0
102
RTVSPost2010PropOp41
 70
     1
102
RTVSPost2010Prop42
 90
       50
102
RTVSPost2010PropOp42
 70
     1
102
RTVSPost2010Prop43
 90
        3
102
RTVSPost2010PropOp43
 70
     1
102
RTVSPost2010Prop44ColorIndex
 90
        5
102
RTVSPost2010Prop44ColorRGB
 90
      255
102
RTVSPost2010PropOp44
 70
     1
102
RTVSPost2010Prop45
280
     0
102
RTVSPost2010PropOp45
 70
     1
102
RTVSPost2010Prop46
 90
       50
102
RTVSPost2010PropOp46
 70
     1
102
RTVSPost2010Prop47
 90
       50
102
RTVSPost2010PropOp47
 70
     1
102
RTVSPost2010Prop48
 90
       50
102
RTVSPost2010PropOp48
 70
     1
102
RTVSPost2010Prop49
280
     0
102
RTVSPost2010PropOp49
 70
     1
102
RTVSPost2010Prop50
 90
       50
102
RTVSPost2010PropOp50
 70
     1
102
RTVSPost2010Prop51ColorIndex
 90
      256
102
RTVSPost2010Prop51ColorRGB
 90
-16777216
102
RTVSPost2010PropOp51
 70
     0
102
RTVSPost2010Prop52
140
1.0
102
RTVSPost2010PropOp52
 70
     0
102
RTVSPost2010Prop53
 90
        2
102
RTVSPost2010PropOp53
 70
     1
102
RTVSPost2010Prop54
  1
strokes_ogs.tif
102
RTVSPost2010PropOp54
 70
     1
102
RTVSPost2010Prop55
280
     0
102
RTVSPost2010PropOp55
 70
     1
102
RTVSPost2010Prop56
140
1.0
102
RTVSPost2010PropOp56
 70
     1
102
RTVSPost2010Prop57
140
1.0
102
RTVSPost2010PropOp57
 70
     1
  0
XRECORD
  5
A5E
102
{ACAD_REACTORS
330
A5D
102
}
330
A5D
100
AcDbXrecord
280
     1
102
RTVSPropertyOp0
 70
     1
102
RTVSPropertyOp1
 70
     1
102
RTVSPropertyOp2
 70
     1
102
RTVSPropertyOp3
 70
     1
102
RTVSPropertyOp4
 70
     1
102
RTVSPropertyOp5
 70
     1
102
RTVSPropertyOp6
 70
     1
102
RTVSPropertyOp7
 70
     1
102
RTVSPropertyOp8
 70
     1
102
RTVSPropertyOp9
 70
     1
102
RTVSPropertyOp10
 70
     1
102
RTVSPropertyOp11
 70
     1
102
RTVSPropertyOp12
 70
     1
102
RTVSPropertyOp13
 70
     1
102
RTVSPropertyOp14
 70
     1
102
RTVSPropertyOp15
 70
     1
102
RTVSPropertyOp16
 70
     1
102
RTVSPropertyOp17
 70
     1
102
RTVSPropertyOp18
 70
     1
102
RTVSPropertyOp19
 70
     1
102
RTVSPropertyOp20
 70
     1
102
RTVSPropertyOp21
 70
     1
102
RTVSPropertyOp22
 70
     1
102
RTVSPropertyOp23
 70
     1
102
RTVSPropertyOp24
 70
     1
102
RTVSPropertyOp25
 70
     1
102
RTVSPropertyOp26
 70
     1
102
RTVSPropertyOp27
 70
     1
102
RTVSPropertyOp28
 70
     1
102
RTVSPropertyOp29
 70
     1
102
RTVSPropertyOp30
 70
     1
102
RTVSPropertyOp31
 70
     1
102
RTVSPropertyOp32
 70
     1
102
RTVSPropertyOp33
 70
     1
102
RTVSPropertyOp34
 70
     1
102
RTVSPropertyOp35
 70
     1
102
RTVSPropertyOp36
 70
     1
102
RTVSPropertyOp37
 70
     1
102
RTVSPropertyOp38
 70
     1
102
RTVSPropertyOp39
 70
     1
102
RTVSPropertyOp40
 70
     1
102
RTVSPropertyOp41
 70
     1
102
RTVSPropertyOp42
 70
     1
102
RTVSPropertyOp43
 70
     1
102
RTVSPropertyOp44
 70
     1
102
RTVSPropertyOp45
 70
     1
102
RTVSPropertyOp46
 70
     1
102
RTVSPropertyOp47
 70
     1
102
RTVSPropertyOp48
 70
     1
102
RTVSPropertyOp49
 70
     1
102
RTVSPropertyOp50
 70
     1
102
RTVSPropertyOp51
 70
     0
102
RTVSPropertyOp52
 70
     0
102
RTVSPropertyOp53
 70
     1
102
RTVSPropertyOp54
 70
     1
102
RTVSPropertyOp55
 70
     1
102
RTVSPropertyOp56
 70
     1
102
RTVSPropertyOp57
 70
     1
102
RTVSPost2010Prop28
280
     0
102
RTVSPost2010PropOp28
 70
     1
102
RTVSPost2010Prop29
280
     1
102
RTVSPost2010PropOp29
 70
     1
102
RTVSPost2010Prop30
280
     1
102
RTVSPost2010PropOp30
 70
     1
102
RTVSPost2010Prop31
280
     0
102
RTVSPost2010PropOp31
 70
     1
102
RTVSPost2010Prop32
280
     0
102
RTVSPost2010PropOp32
 70
     1
102
RTVSPost2010Prop33
280
     0
102
RTVSPost2010PropOp33
 70
     1
102
RTVSPost2010Prop34
280
     0
102
RTVSPost2010PropOp34
 70
     1
102
RTVSPost2010Prop35
280
     0
102
RTVSPost2010PropOp35
 70
     1
102
RTVSPost2010Prop36
280
     0
102
RTVSPost2010PropOp36
 70
     1
102
RTVSPost2010Prop37
 90
       50
102
RTVSPost2010PropOp37
 70
     1
102
RTVSPost2010Prop38
140
0.0
102
RTVSPost2010PropOp38
 70
     1
102
RTVSPost2010Prop39
140
1.0
102
RTVSPost2010PropOp39
 70
     1
102
RTVSPost2010Prop40
 90
        0
102
RTVSPost2010PropOp40
 70
     1
102
RTVSPost2010Prop41ColorIndex
 90
       18
102
RTVSPost2010Prop41ColorRGB
 90
        0
102
RTVSPost2010PropOp41
 70
     1
102
RTVSPost2010Prop42
 90
       50
102
RTVSPost2010PropOp42
 70
     1
102
RTVSPost2010Prop43
 90
        3
102
RTVSPost2010PropOp43
 70
     1
102
RTVSPost2010Prop44ColorIndex
 90
        5
102
RTVSPost2010Prop44ColorRGB
 90
      255
102
RTVSPost2010PropOp44
 70
     1
102
RTVSPost2010Prop45
280
     0
102
RTVSPost2010PropOp45
 70
     1
102
RTVSPost2010Prop46
 90
       50
102
RTVSPost2010PropOp46
 70
     1
102
RTVSPost2010Prop47
 90
       50
102
RTVSPost2010PropOp47
 70
     1
102
RTVSPost2010Prop48
 90
       50
102
RTVSPost2010PropOp48
 70
     1
102
RTVSPost2010Prop49
280
     0
102
RTVSPost2010PropOp49
 70
     1
102
RTVSPost2010Prop50
 90
       50
102
RTVSPost2010PropOp50
 70
     1
102
RTVSPost2010Prop51ColorIndex
 90
      256
102
RTVSPost2010Prop51ColorRGB
 90
-16777216
102
RTVSPost2010PropOp51
 70
     0
102
RTVSPost2010Prop52
140
1.0
102
RTVSPost2010PropOp52
 70
     0
102
RTVSPost2010Prop53
 90
        2
102
RTVSPost2010PropOp53
 70
     1
102
RTVSPost2010Prop54
  1
strokes_ogs.tif
102
RTVSPost2010PropOp54
 70
     1
102
RTVSPost2010Prop55
280
     0
102
RTVSPost2010PropOp55
 70
     1
102
RTVSPost2010Prop56
140
1.0
102
RTVSPost2010PropOp56
 70
     1
102
RTVSPost2010Prop57
140
1.0
102
RTVSPost2010PropOp57
 70
     1
  0
XRECORD
  5
A6E
102
{ACAD_REACTORS
330
A6D
102
}
330
A6D
100
AcDbXrecord
280
     1
102
RTVSPropertyOp0
 70
     0
102
RTVSPropertyOp1
 70
     0
102
RTVSPropertyOp2
 70
     0
102
RTVSPropertyOp3
 70
     0
102
RTVSPropertyOp4
 70
     0
102
RTVSPropertyOp5
 70
     0
102
RTVSPropertyOp6
 70
     0
102
RTVSPropertyOp7
 70
     0
102
RTVSPropertyOp8
 70
     0
102
RTVSPropertyOp9
 70
     0
102
RTVSPropertyOp10
 70
     0
102
RTVSPropertyOp11
 70
     0
102
RTVSPropertyOp12
 70
     0
102
RTVSPropertyOp13
 70
     0
102
RTVSPropertyOp14
 70
     0
102
RTVSPropertyOp15
 70
     0
102
RTVSPropertyOp16
 70
     0
102
RTVSPropertyOp17
 70
     0
102
RTVSPropertyOp18
 70
     0
102
RTVSPropertyOp19
 70
     0
102
RTVSPropertyOp20
 70
     0
102
RTVSPropertyOp21
 70
     0
102
RTVSPropertyOp22
 70
     0
102
RTVSPropertyOp23
 70
     0
102
RTVSPropertyOp24
 70
     0
102
RTVSPropertyOp25
 70
     0
102
RTVSPropertyOp26
 70
     0
102
RTVSPropertyOp27
 70
     0
102
RTVSPropertyOp28
 70
     1
102
RTVSPropertyOp29
 70
     1
102
RTVSPropertyOp30
 70
     1
102
RTVSPropertyOp31
 70
     1
102
RTVSPropertyOp32
 70
     1
102
RTVSPropertyOp33
 70
     1
102
RTVSPropertyOp34
 70
     1
102
RTVSPropertyOp35
 70
     1
102
RTVSPropertyOp36
 70
     1
102
RTVSPropertyOp37
 70
     1
102
RTVSPropertyOp38
 70
     1
102
RTVSPropertyOp39
 70
     1
102
RTVSPropertyOp40
 70
     1
102
RTVSPropertyOp41
 70
     1
102
RTVSPropertyOp42
 70
     1
102
RTVSPropertyOp43
 70
     1
102
RTVSPropertyOp44
 70
     1
102
RTVSPropertyOp45
 70
     1
102
RTVSPropertyOp46
 70
     1
102
RTVSPropertyOp47
 70
     1
102
RTVSPropertyOp48
 70
     1
102
RTVSPropertyOp49
 70
     1
102
RTVSPropertyOp50
 70
     1
102
RTVSPropertyOp51
 70
     0
102
RTVSPropertyOp52
 70
     0
102
RTVSPropertyOp53
 70
     1
102
RTVSPropertyOp54
 70
     1
102
RTVSPropertyOp55
 70
     1
102
RTVSPropertyOp56
 70
     1
102
RTVSPropertyOp57
 70
     1
102
RTVSPost2010Prop28
280
     0
102
RTVSPost2010PropOp28
 70
     1
102
RTVSPost2010Prop29
280
     1
102
RTVSPost2010PropOp29
 70
     1
102
RTVSPost2010Prop30
280
     1
102
RTVSPost2010PropOp30
 70
     1
102
RTVSPost2010Prop31
280
     0
102
RTVSPost2010PropOp31
 70
     1
102
RTVSPost2010Prop32
280
     0
102
RTVSPost2010PropOp32
 70
     1
102
RTVSPost2010Prop33
280
     0
102
RTVSPost2010PropOp33
 70
     1
102
RTVSPost2010Prop34
280
     0
102
RTVSPost2010PropOp34
 70
     1
102
RTVSPost2010Prop35
280
     0
102
RTVSPost2010PropOp35
 70
     1
102
RTVSPost2010Prop36
280
     0
102
RTVSPost2010PropOp36
 70
     1
102
RTVSPost2010Prop37
 90
       50
102
RTVSPost2010PropOp37
 70
     1
102
RTVSPost2010Prop38
140
0.0
102
RTVSPost2010PropOp38
 70
     1
102
RTVSPost2010Prop39
140
1.0
102
RTVSPost2010PropOp39
 70
     1
102
RTVSPost2010Prop40
 90
        0
102
RTVSPost2010PropOp40
 70
     1
102
RTVSPost2010Prop41ColorIndex
 90
       18
102
RTVSPost2010Prop41ColorRGB
 90
        0
102
RTVSPost2010PropOp41
 70
     1
102
RTVSPost2010Prop42
 90
       50
102
RTVSPost2010PropOp42
 70
     1
102
RTVSPost2010Prop43
 90
        3
102
RTVSPost2010PropOp43
 70
     1
102
RTVSPost2010Prop44ColorIndex
 90
        5
102
RTVSPost2010Prop44ColorRGB
 90
      255
102
RTVSPost2010PropOp44
 70
     1
102
RTVSPost2010Prop45
280
     0
102
RTVSPost2010PropOp45
 70
     1
102
RTVSPost2010Prop46
 90
       50
102
RTVSPost2010PropOp46
 70
     1
102
RTVSPost2010Prop47
 90
       50
102
RTVSPost2010PropOp47
 70
     1
102
RTVSPost2010Prop48
 90
       50
102
RTVSPost2010PropOp48
 70
     1
102
RTVSPost2010Prop49
280
     0
102
RTVSPost2010PropOp49
 70
     1
102
RTVSPost2010Prop50
 90
       50
102
RTVSPost2010PropOp50
 70
     1
102
RTVSPost2010Prop51ColorIndex
 90
      256
102
RTVSPost2010Prop51ColorRGB
 90
-16777216
102
RTVSPost2010PropOp51
 70
     0
102
RTVSPost2010Prop52
140
1.0
102
RTVSPost2010PropOp52
 70
     0
102
RTVSPost2010Prop53
 90
        2
102
RTVSPost2010PropOp53
 70
     1
102
RTVSPost2010Prop54
  1
strokes_ogs.tif
102
RTVSPost2010PropOp54
 70
     1
102
RTVSPost2010Prop55
280
     0
102
RTVSPost2010PropOp55
 70
     1
102
RTVSPost2010Prop56
140
1.0
102
RTVSPost2010PropOp56
 70
     1
102
RTVSPost2010Prop57
140
1.0
102
RTVSPost2010PropOp57
 70
     1
  0
XRECORD
  5
A66
102
{ACAD_REACTORS
330
A65
102
}
330
A65
100
AcDbXrecord
280
     1
102
RTVSPropertyOp0
 70
     1
102
RTVSPropertyOp1
 70
     1
102
RTVSPropertyOp2
 70
     1
102
RTVSPropertyOp3
 70
     1
102
RTVSPropertyOp4
 70
     1
102
RTVSPropertyOp5
 70
     1
102
RTVSPropertyOp6
 70
     1
102
RTVSPropertyOp7
 70
     1
102
RTVSPropertyOp8
 70
     1
102
RTVSPropertyOp9
 70
     1
102
RTVSPropertyOp10
 70
     1
102
RTVSPropertyOp11
 70
     1
102
RTVSPropertyOp12
 70
     1
102
RTVSPropertyOp13
 70
     1
102
RTVSPropertyOp14
 70
     1
102
RTVSPropertyOp15
 70
     1
102
RTVSPropertyOp16
 70
     1
102
RTVSPropertyOp17
 70
     1
102
RTVSPropertyOp18
 70
     1
102
RTVSPropertyOp19
 70
     1
102
RTVSPropertyOp20
 70
     1
102
RTVSPropertyOp21
 70
     1
102
RTVSPropertyOp22
 70
     1
102
RTVSPropertyOp23
 70
     1
102
RTVSPropertyOp24
 70
     1
102
RTVSPropertyOp25
 70
     1
102
RTVSPropertyOp26
 70
     1
102
RTVSPropertyOp27
 70
     1
102
RTVSPropertyOp28
 70
     1
102
RTVSPropertyOp29
 70
     1
102
RTVSPropertyOp30
 70
     1
102
RTVSPropertyOp31
 70
     1
102
RTVSPropertyOp32
 70
     1
102
RTVSPropertyOp33
 70
     1
102
RTVSPropertyOp34
 70
     1
102
RTVSPropertyOp35
 70
     1
102
RTVSPropertyOp36
 70
     1
102
RTVSPropertyOp37
 70
     1
102
RTVSPropertyOp38
 70
     1
102
RTVSPropertyOp39
 70
     1
102
RTVSPropertyOp40
 70
     1
102
RTVSPropertyOp41
 70
     1
102
RTVSPropertyOp42
 70
     1
102
RTVSPropertyOp43
 70
     1
102
RTVSPropertyOp44
 70
     1
102
RTVSPropertyOp45
 70
     1
102
RTVSPropertyOp46
 70
     1
102
RTVSPropertyOp47
 70
     1
102
RTVSPropertyOp48
 70
     1
102
RTVSPropertyOp49
 70
     1
102
RTVSPropertyOp50
 70
     1
102
RTVSPropertyOp51
 70
     0
102
RTVSPropertyOp52
 70
     0
102
RTVSPropertyOp53
 70
     1
102
RTVSPropertyOp54
 70
     1
102
RTVSPropertyOp55
 70
     1
102
RTVSPropertyOp56
 70
     1
102
RTVSPropertyOp57
 70
     1
102
RTVSPost2010Prop28
280
     0
102
RTVSPost2010PropOp28
 70
     1
102
RTVSPost2010Prop29
280
     1
102
RTVSPost2010PropOp29
 70
     1
102
RTVSPost2010Prop30
280
     1
102
RTVSPost2010PropOp30
 70
     1
102
RTVSPost2010Prop31
280
     0
102
RTVSPost2010PropOp31
 70
     1
102
RTVSPost2010Prop32
280
     0
102
RTVSPost2010PropOp32
 70
     1
102
RTVSPost2010Prop33
280
     0
102
RTVSPost2010PropOp33
 70
     1
102
RTVSPost2010Prop34
280
     0
102
RTVSPost2010PropOp34
 70
     1
102
RTVSPost2010Prop35
280
     0
102
RTVSPost2010PropOp35
 70
     1
102
RTVSPost2010Prop36
280
     0
102
RTVSPost2010PropOp36
 70
     1
102
RTVSPost2010Prop37
 90
       50
102
RTVSPost2010PropOp37
 70
     1
102
RTVSPost2010Prop38
140
0.0
102
RTVSPost2010PropOp38
 70
     1
102
RTVSPost2010Prop39
140
1.0
102
RTVSPost2010PropOp39
 70
     1
102
RTVSPost2010Prop40
 90
        0
102
RTVSPost2010PropOp40
 70
     1
102
RTVSPost2010Prop41ColorIndex
 90
       18
102
RTVSPost2010Prop41ColorRGB
 90
        0
102
RTVSPost2010PropOp41
 70
     1
102
RTVSPost2010Prop42
 90
       50
102
RTVSPost2010PropOp42
 70
     1
102
RTVSPost2010Prop43
 90
        3
102
RTVSPost2010PropOp43
 70
     1
102
RTVSPost2010Prop44ColorIndex
 90
        5
102
RTVSPost2010Prop44ColorRGB
 90
      255
102
RTVSPost2010PropOp44
 70
     1
102
RTVSPost2010Prop45
280
     0
102
RTVSPost2010PropOp45
 70
     1
102
RTVSPost2010Prop46
 90
       50
102
RTVSPost2010PropOp46
 70
     1
102
RTVSPost2010Prop47
 90
       50
102
RTVSPost2010PropOp47
 70
     1
102
RTVSPost2010Prop48
 90
       50
102
RTVSPost2010PropOp48
 70
     1
102
RTVSPost2010Prop49
280
     0
102
RTVSPost2010PropOp49
 70
     1
102
RTVSPost2010Prop50
 90
       50
102
RTVSPost2010PropOp50
 70
     1
102
RTVSPost2010Prop51ColorIndex
 90
      256
102
RTVSPost2010Prop51ColorRGB
 90
-16777216
102
RTVSPost2010PropOp51
 70
     0
102
RTVSPost2010Prop52
140
1.0
102
RTVSPost2010PropOp52
 70
     0
102
RTVSPost2010Prop53
 90
        2
102
RTVSPost2010PropOp53
 70
     1
102
RTVSPost2010Prop54
  1
strokes_ogs.tif
102
RTVSPost2010PropOp54
 70
     1
102
RTVSPost2010Prop55
280
     0
102
RTVSPost2010PropOp55
 70
     1
102
RTVSPost2010Prop56
140
1.0
102
RTVSPost2010PropOp56
 70
     1
102
RTVSPost2010Prop57
140
1.0
102
RTVSPost2010PropOp57
 70
     1
  0
XRECORD
  5
A4A
102
{ACAD_REACTORS
330
A49
102
}
330
A49
100
AcDbXrecord
280
     1
102
RTVSPropertyOp0
 70
     1
102
RTVSPropertyOp1
 70
     1
102
RTVSPropertyOp2
 70
     1
102
RTVSPropertyOp3
 70
     1
102
RTVSPropertyOp4
 70
     1
102
RTVSPropertyOp5
 70
     1
102
RTVSPropertyOp6
 70
     1
102
RTVSPropertyOp7
 70
     1
102
RTVSPropertyOp8
 70
     1
102
RTVSPropertyOp9
 70
     1
102
RTVSPropertyOp10
 70
     1
102
RTVSPropertyOp11
 70
     1
102
RTVSPropertyOp12
 70
     1
102
RTVSPropertyOp13
 70
     1
102
RTVSPropertyOp14
 70
     1
102
RTVSPropertyOp15
 70
     1
102
RTVSPropertyOp16
 70
     1
102
RTVSPropertyOp17
 70
     1
102
RTVSPropertyOp18
 70
     1
102
RTVSPropertyOp19
 70
     1
102
RTVSPropertyOp20
 70
     1
102
RTVSPropertyOp21
 70
     1
102
RTVSPropertyOp22
 70
     1
102
RTVSPropertyOp23
 70
     1
102
RTVSPropertyOp24
 70
     1
102
RTVSPropertyOp25
 70
     1
102
RTVSPropertyOp26
 70
     1
102
RTVSPropertyOp27
 70
     1
102
RTVSPropertyOp28
 70
     1
102
RTVSPropertyOp29
 70
     1
102
RTVSPropertyOp30
 70
     1
102
RTVSPropertyOp31
 70
     1
102
RTVSPropertyOp32
 70
     1
102
RTVSPropertyOp33
 70
     1
102
RTVSPropertyOp34
 70
     1
102
RTVSPropertyOp35
 70
     1
102
RTVSPropertyOp36
 70
     1
102
RTVSPropertyOp37
 70
     1
102
RTVSPropertyOp38
 70
     1
102
RTVSPropertyOp39
 70
     1
102
RTVSPropertyOp40
 70
     1
102
RTVSPropertyOp41
 70
     1
102
RTVSPropertyOp42
 70
     1
102
RTVSPropertyOp43
 70
     1
102
RTVSPropertyOp44
 70
     1
102
RTVSPropertyOp45
 70
     1
102
RTVSPropertyOp46
 70
     1
102
RTVSPropertyOp47
 70
     1
102
RTVSPropertyOp48
 70
     1
102
RTVSPropertyOp49
 70
     1
102
RTVSPropertyOp50
 70
     1
102
RTVSPropertyOp51
 70
     0
102
RTVSPropertyOp52
 70
     0
102
RTVSPropertyOp53
 70
     1
102
RTVSPropertyOp54
 70
     1
102
RTVSPropertyOp55
 70
     1
102
RTVSPropertyOp56
 70
     1
102
RTVSPropertyOp57
 70
     1
102
RTVSPost2010Prop28
280
     0
102
RTVSPost2010PropOp28
 70
     1
102
RTVSPost2010Prop29
280
     1
102
RTVSPost2010PropOp29
 70
     1
102
RTVSPost2010Prop30
280
     1
102
RTVSPost2010PropOp30
 70
     1
102
RTVSPost2010Prop31
280
     0
102
RTVSPost2010PropOp31
 70
     1
102
RTVSPost2010Prop32
280
     0
102
RTVSPost2010PropOp32
 70
     1
102
RTVSPost2010Prop33
280
     0
102
RTVSPost2010PropOp33
 70
     1
102
RTVSPost2010Prop34
280
     0
102
RTVSPost2010PropOp34
 70
     1
102
RTVSPost2010Prop35
280
     0
102
RTVSPost2010PropOp35
 70
     1
102
RTVSPost2010Prop36
280
     0
102
RTVSPost2010PropOp36
 70
     1
102
RTVSPost2010Prop37
 90
       50
102
RTVSPost2010PropOp37
 70
     1
102
RTVSPost2010Prop38
140
0.0
102
RTVSPost2010PropOp38
 70
     1
102
RTVSPost2010Prop39
140
1.0
102
RTVSPost2010PropOp39
 70
     1
102
RTVSPost2010Prop40
 90
        0
102
RTVSPost2010PropOp40
 70
     1
102
RTVSPost2010Prop41ColorIndex
 90
       18
102
RTVSPost2010Prop41ColorRGB
 90
        0
102
RTVSPost2010PropOp41
 70
     1
102
RTVSPost2010Prop42
 90
       50
102
RTVSPost2010PropOp42
 70
     1
102
RTVSPost2010Prop43
 90
        3
102
RTVSPost2010PropOp43
 70
     1
102
RTVSPost2010Prop44ColorIndex
 90
        5
102
RTVSPost2010Prop44ColorRGB
 90
      255
102
RTVSPost2010PropOp44
 70
     1
102
RTVSPost2010Prop45
280
     0
102
RTVSPost2010PropOp45
 70
     1
102
RTVSPost2010Prop46
 90
       50
102
RTVSPost2010PropOp46
 70
     1
102
RTVSPost2010Prop47
 90
       50
102
RTVSPost2010PropOp47
 70
     1
102
RTVSPost2010Prop48
 90
       50
102
RTVSPost2010PropOp48
 70
     1
102
RTVSPost2010Prop49
280
     0
102
RTVSPost2010PropOp49
 70
     1
102
RTVSPost2010Prop50
 90
       50
102
RTVSPost2010PropOp50
 70
     1
102
RTVSPost2010Prop51ColorIndex
 90
      256
102
RTVSPost2010Prop51ColorRGB
 90
-16777216
102
RTVSPost2010PropOp51
 70
     0
102
RTVSPost2010Prop52
140
1.0
102
RTVSPost2010PropOp52
 70
     0
102
RTVSPost2010Prop53
 90
        2
102
RTVSPost2010PropOp53
 70
     1
102
RTVSPost2010Prop54
  1
strokes_ogs.tif
102
RTVSPost2010PropOp54
 70
     1
102
RTVSPost2010Prop55
280
     0
102
RTVSPost2010PropOp55
 70
     1
102
RTVSPost2010Prop56
140
1.0
102
RTVSPost2010PropOp56
 70
     1
102
RTVSPost2010Prop57
140
1.0
102
RTVSPost2010PropOp57
 70
     1
  0
XRECORD
  5
A4C
102
{ACAD_REACTORS
330
A4B
102
}
330
A4B
100
AcDbXrecord
280
     1
102
RTVSPropertyOp0
 70
     1
102
RTVSPropertyOp1
 70
     1
102
RTVSPropertyOp2
 70
     1
102
RTVSPropertyOp3
 70
     1
102
RTVSPropertyOp4
 70
     1
102
RTVSPropertyOp5
 70
     1
102
RTVSPropertyOp6
 70
     1
102
RTVSPropertyOp7
 70
     1
102
RTVSPropertyOp8
 70
     1
102
RTVSPropertyOp9
 70
     1
102
RTVSPropertyOp10
 70
     1
102
RTVSPropertyOp11
 70
     1
102
RTVSPropertyOp12
 70
     1
102
RTVSPropertyOp13
 70
     1
102
RTVSPropertyOp14
 70
     1
102
RTVSPropertyOp15
 70
     1
102
RTVSPropertyOp16
 70
     1
102
RTVSPropertyOp17
 70
     1
102
RTVSPropertyOp18
 70
     1
102
RTVSPropertyOp19
 70
     1
102
RTVSPropertyOp20
 70
     1
102
RTVSPropertyOp21
 70
     1
102
RTVSPropertyOp22
 70
     1
102
RTVSPropertyOp23
 70
     1
102
RTVSPropertyOp24
 70
     1
102
RTVSPropertyOp25
 70
     1
102
RTVSPropertyOp26
 70
     1
102
RTVSPropertyOp27
 70
     1
102
RTVSPropertyOp28
 70
     1
102
RTVSPropertyOp29
 70
     1
102
RTVSPropertyOp30
 70
     1
102
RTVSPropertyOp31
 70
     1
102
RTVSPropertyOp32
 70
     1
102
RTVSPropertyOp33
 70
     1
102
RTVSPropertyOp34
 70
     1
102
RTVSPropertyOp35
 70
     1
102
RTVSPropertyOp36
 70
     1
102
RTVSPropertyOp37
 70
     1
102
RTVSPropertyOp38
 70
     1
102
RTVSPropertyOp39
 70
     1
102
RTVSPropertyOp40
 70
     1
102
RTVSPropertyOp41
 70
     1
102
RTVSPropertyOp42
 70
     1
102
RTVSPropertyOp43
 70
     1
102
RTVSPropertyOp44
 70
     1
102
RTVSPropertyOp45
 70
     1
102
RTVSPropertyOp46
 70
     1
102
RTVSPropertyOp47
 70
     1
102
RTVSPropertyOp48
 70
     1
102
RTVSPropertyOp49
 70
     1
102
RTVSPropertyOp50
 70
     1
102
RTVSPropertyOp51
 70
     0
102
RTVSPropertyOp52
 70
     0
102
RTVSPropertyOp53
 70
     1
102
RTVSPropertyOp54
 70
     1
102
RTVSPropertyOp55
 70
     1
102
RTVSPropertyOp56
 70
     1
102
RTVSPropertyOp57
 70
     1
102
RTVSPost2010Prop28
280
     0
102
RTVSPost2010PropOp28
 70
     1
102
RTVSPost2010Prop29
280
     1
102
RTVSPost2010PropOp29
 70
     1
102
RTVSPost2010Prop30
280
     1
102
RTVSPost2010PropOp30
 70
     1
102
RTVSPost2010Prop31
280
     0
102
RTVSPost2010PropOp31
 70
     1
102
RTVSPost2010Prop32
280
     0
102
RTVSPost2010PropOp32
 70
     1
102
RTVSPost2010Prop33
280
     0
102
RTVSPost2010PropOp33
 70
     1
102
RTVSPost2010Prop34
280
     0
102
RTVSPost2010PropOp34
 70
     1
102
RTVSPost2010Prop35
280
     0
102
RTVSPost2010PropOp35
 70
     1
102
RTVSPost2010Prop36
280
     0
102
RTVSPost2010PropOp36
 70
     1
102
RTVSPost2010Prop37
 90
       50
102
RTVSPost2010PropOp37
 70
     1
102
RTVSPost2010Prop38
140
0.0
102
RTVSPost2010PropOp38
 70
     1
102
RTVSPost2010Prop39
140
1.0
102
RTVSPost2010PropOp39
 70
     1
102
RTVSPost2010Prop40
 90
        0
102
RTVSPost2010PropOp40
 70
     1
102
RTVSPost2010Prop41ColorIndex
 90
       18
102
RTVSPost2010Prop41ColorRGB
 90
        0
102
RTVSPost2010PropOp41
 70
     1
102
RTVSPost2010Prop42
 90
       50
102
RTVSPost2010PropOp42
 70
     1
102
RTVSPost2010Prop43
 90
        3
102
RTVSPost2010PropOp43
 70
     1
102
RTVSPost2010Prop44ColorIndex
 90
        5
102
RTVSPost2010Prop44ColorRGB
 90
      255
102
RTVSPost2010PropOp44
 70
     1
102
RTVSPost2010Prop45
280
     0
102
RTVSPost2010PropOp45
 70
     1
102
RTVSPost2010Prop46
 90
       50
102
RTVSPost2010PropOp46
 70
     1
102
RTVSPost2010Prop47
 90
       50
102
RTVSPost2010PropOp47
 70
     1
102
RTVSPost2010Prop48
 90
       50
102
RTVSPost2010PropOp48
 70
     1
102
RTVSPost2010Prop49
280
     0
102
RTVSPost2010PropOp49
 70
     1
102
RTVSPost2010Prop50
 90
       50
102
RTVSPost2010PropOp50
 70
     1
102
RTVSPost2010Prop51ColorIndex
 90
      256
102
RTVSPost2010Prop51ColorRGB
 90
-16777216
102
RTVSPost2010PropOp51
 70
     0
102
RTVSPost2010Prop52
140
1.0
102
RTVSPost2010PropOp52
 70
     0
102
RTVSPost2010Prop53
 90
        2
102
RTVSPost2010PropOp53
 70
     1
102
RTVSPost2010Prop54
  1
strokes_ogs.tif
102
RTVSPost2010PropOp54
 70
     1
102
RTVSPost2010Prop55
280
     0
102
RTVSPost2010PropOp55
 70
     1
102
RTVSPost2010Prop56
140
1.0
102
RTVSPost2010PropOp56
 70
     1
102
RTVSPost2010Prop57
140
1.0
102
RTVSPost2010PropOp57
 70
     1
  0
XRECORD
  5
A4E
102
{ACAD_REACTORS
330
A4D
102
}
330
A4D
100
AcDbXrecord
280
     1
102
RTVSPropertyOp0
 70
     1
102
RTVSPropertyOp1
 70
     1
102
RTVSPropertyOp2
 70
     1
102
RTVSPropertyOp3
 70
     1
102
RTVSPropertyOp4
 70
     1
102
RTVSPropertyOp5
 70
     1
102
RTVSPropertyOp6
 70
     1
102
RTVSPropertyOp7
 70
     1
102
RTVSPropertyOp8
 70
     1
102
RTVSPropertyOp9
 70
     1
102
RTVSPropertyOp10
 70
     1
102
RTVSPropertyOp11
 70
     1
102
RTVSPropertyOp12
 70
     1
102
RTVSPropertyOp13
 70
     1
102
RTVSPropertyOp14
 70
     1
102
RTVSPropertyOp15
 70
     1
102
RTVSPropertyOp16
 70
     1
102
RTVSPropertyOp17
 70
     1
102
RTVSPropertyOp18
 70
     1
102
RTVSPropertyOp19
 70
     1
102
RTVSPropertyOp20
 70
     1
102
RTVSPropertyOp21
 70
     1
102
RTVSPropertyOp22
 70
     1
102
RTVSPropertyOp23
 70
     1
102
RTVSPropertyOp24
 70
     1
102
RTVSPropertyOp25
 70
     1
102
RTVSPropertyOp26
 70
     1
102
RTVSPropertyOp27
 70
     1
102
RTVSPropertyOp28
 70
     1
102
RTVSPropertyOp29
 70
     1
102
RTVSPropertyOp30
 70
     1
102
RTVSPropertyOp31
 70
     1
102
RTVSPropertyOp32
 70
     1
102
RTVSPropertyOp33
 70
     1
102
RTVSPropertyOp34
 70
     1
102
RTVSPropertyOp35
 70
     1
102
RTVSPropertyOp36
 70
     1
102
RTVSPropertyOp37
 70
     1
102
RTVSPropertyOp38
 70
     1
102
RTVSPropertyOp39
 70
     1
102
RTVSPropertyOp40
 70
     1
102
RTVSPropertyOp41
 70
     1
102
RTVSPropertyOp42
 70
     1
102
RTVSPropertyOp43
 70
     1
102
RTVSPropertyOp44
 70
     1
102
RTVSPropertyOp45
 70
     1
102
RTVSPropertyOp46
 70
     1
102
RTVSPropertyOp47
 70
     1
102
RTVSPropertyOp48
 70
     1
102
RTVSPropertyOp49
 70
     1
102
RTVSPropertyOp50
 70
     1
102
RTVSPropertyOp51
 70
     0
102
RTVSPropertyOp52
 70
     0
102
RTVSPropertyOp53
 70
     1
102
RTVSPropertyOp54
 70
     1
102
RTVSPropertyOp55
 70
     1
102
RTVSPropertyOp56
 70
     1
102
RTVSPropertyOp57
 70
     1
102
RTVSPost2010Prop28
280
     0
102
RTVSPost2010PropOp28
 70
     1
102
RTVSPost2010Prop29
280
     1
102
RTVSPost2010PropOp29
 70
     1
102
RTVSPost2010Prop30
280
     1
102
RTVSPost2010PropOp30
 70
     1
102
RTVSPost2010Prop31
280
     0
102
RTVSPost2010PropOp31
 70
     1
102
RTVSPost2010Prop32
280
     0
102
RTVSPost2010PropOp32
 70
     1
102
RTVSPost2010Prop33
280
     0
102
RTVSPost2010PropOp33
 70
     1
102
RTVSPost2010Prop34
280
     0
102
RTVSPost2010PropOp34
 70
     1
102
RTVSPost2010Prop35
280
     0
102
RTVSPost2010PropOp35
 70
     1
102
RTVSPost2010Prop36
280
     0
102
RTVSPost2010PropOp36
 70
     1
102
RTVSPost2010Prop37
 90
       50
102
RTVSPost2010PropOp37
 70
     1
102
RTVSPost2010Prop38
140
0.0
102
RTVSPost2010PropOp38
 70
     1
102
RTVSPost2010Prop39
140
1.0
102
RTVSPost2010PropOp39
 70
     1
102
RTVSPost2010Prop40
 90
        0
102
RTVSPost2010PropOp40
 70
     1
102
RTVSPost2010Prop41ColorIndex
 90
       18
102
RTVSPost2010Prop41ColorRGB
 90
        0
102
RTVSPost2010PropOp41
 70
     1
102
RTVSPost2010Prop42
 90
       50
102
RTVSPost2010PropOp42
 70
     1
102
RTVSPost2010Prop43
 90
        3
102
RTVSPost2010PropOp43
 70
     1
102
RTVSPost2010Prop44ColorIndex
 90
        5
102
RTVSPost2010Prop44ColorRGB
 90
      255
102
RTVSPost2010PropOp44
 70
     1
102
RTVSPost2010Prop45
280
     0
102
RTVSPost2010PropOp45
 70
     1
102
RTVSPost2010Prop46
 90
       50
102
RTVSPost2010PropOp46
 70
     1
102
RTVSPost2010Prop47
 90
       50
102
RTVSPost2010PropOp47
 70
     1
102
RTVSPost2010Prop48
 90
       50
102
RTVSPost2010PropOp48
 70
     1
102
RTVSPost2010Prop49
280
     0
102
RTVSPost2010PropOp49
 70
     1
102
RTVSPost2010Prop50
 90
       50
102
RTVSPost2010PropOp50
 70
     1
102
RTVSPost2010Prop51ColorIndex
 90
      256
102
RTVSPost2010Prop51ColorRGB
 90
-16777216
102
RTVSPost2010PropOp51
 70
     0
102
RTVSPost2010Prop52
140
1.0
102
RTVSPost2010PropOp52
 70
     0
102
RTVSPost2010Prop53
 90
        2
102
RTVSPost2010PropOp53
 70
     1
102
RTVSPost2010Prop54
  1
strokes_ogs.tif
102
RTVSPost2010PropOp54
 70
     1
102
RTVSPost2010Prop55
280
     0
102
RTVSPost2010PropOp55
 70
     1
102
RTVSPost2010Prop56
140
1.0
102
RTVSPost2010PropOp56
 70
     1
102
RTVSPost2010Prop57
140
1.0
102
RTVSPost2010PropOp57
 70
     1
  0
XRECORD
  5
A50
102
{ACAD_REACTORS
330
A4F
102
}
330
A4F
100
AcDbXrecord
280
     1
102
RTVSPropertyOp0
 70
     1
102
RTVSPropertyOp1
 70
     1
102
RTVSPropertyOp2
 70
     1
102
RTVSPropertyOp3
 70
     1
102
RTVSPropertyOp4
 70
     1
102
RTVSPropertyOp5
 70
     1
102
RTVSPropertyOp6
 70
     1
102
RTVSPropertyOp7
 70
     1
102
RTVSPropertyOp8
 70
     1
102
RTVSPropertyOp9
 70
     1
102
RTVSPropertyOp10
 70
     1
102
RTVSPropertyOp11
 70
     1
102
RTVSPropertyOp12
 70
     1
102
RTVSPropertyOp13
 70
     1
102
RTVSPropertyOp14
 70
     1
102
RTVSPropertyOp15
 70
     1
102
RTVSPropertyOp16
 70
     1
102
RTVSPropertyOp17
 70
     1
102
RTVSPropertyOp18
 70
     1
102
RTVSPropertyOp19
 70
     1
102
RTVSPropertyOp20
 70
     1
102
RTVSPropertyOp21
 70
     1
102
RTVSPropertyOp22
 70
     1
102
RTVSPropertyOp23
 70
     1
102
RTVSPropertyOp24
 70
     1
102
RTVSPropertyOp25
 70
     1
102
RTVSPropertyOp26
 70
     1
102
RTVSPropertyOp27
 70
     1
102
RTVSPropertyOp28
 70
     1
102
RTVSPropertyOp29
 70
     1
102
RTVSPropertyOp30
 70
     1
102
RTVSPropertyOp31
 70
     1
102
RTVSPropertyOp32
 70
     1
102
RTVSPropertyOp33
 70
     1
102
RTVSPropertyOp34
 70
     1
102
RTVSPropertyOp35
 70
     1
102
RTVSPropertyOp36
 70
     1
102
RTVSPropertyOp37
 70
     1
102
RTVSPropertyOp38
 70
     1
102
RTVSPropertyOp39
 70
     1
102
RTVSPropertyOp40
 70
     1
102
RTVSPropertyOp41
 70
     1
102
RTVSPropertyOp42
 70
     1
102
RTVSPropertyOp43
 70
     1
102
RTVSPropertyOp44
 70
     1
102
RTVSPropertyOp45
 70
     1
102
RTVSPropertyOp46
 70
     1
102
RTVSPropertyOp47
 70
     1
102
RTVSPropertyOp48
 70
     1
102
RTVSPropertyOp49
 70
     1
102
RTVSPropertyOp50
 70
     1
102
RTVSPropertyOp51
 70
     0
102
RTVSPropertyOp52
 70
     0
102
RTVSPropertyOp53
 70
     1
102
RTVSPropertyOp54
 70
     1
102
RTVSPropertyOp55
 70
     1
102
RTVSPropertyOp56
 70
     1
102
RTVSPropertyOp57
 70
     1
102
RTVSPost2010Prop28
280
     0
102
RTVSPost2010PropOp28
 70
     1
102
RTVSPost2010Prop29
280
     1
102
RTVSPost2010PropOp29
 70
     1
102
RTVSPost2010Prop30
280
     1
102
RTVSPost2010PropOp30
 70
     1
102
RTVSPost2010Prop31
280
     0
102
RTVSPost2010PropOp31
 70
     1
102
RTVSPost2010Prop32
280
     0
102
RTVSPost2010PropOp32
 70
     1
102
RTVSPost2010Prop33
280
     0
102
RTVSPost2010PropOp33
 70
     1
102
RTVSPost2010Prop34
280
     0
102
RTVSPost2010PropOp34
 70
     1
102
RTVSPost2010Prop35
280
     0
102
RTVSPost2010PropOp35
 70
     1
102
RTVSPost2010Prop36
280
     0
102
RTVSPost2010PropOp36
 70
     1
102
RTVSPost2010Prop37
 90
       50
102
RTVSPost2010PropOp37
 70
     1
102
RTVSPost2010Prop38
140
0.0
102
RTVSPost2010PropOp38
 70
     1
102
RTVSPost2010Prop39
140
1.0
102
RTVSPost2010PropOp39
 70
     1
102
RTVSPost2010Prop40
 90
        0
102
RTVSPost2010PropOp40
 70
     1
102
RTVSPost2010Prop41ColorIndex
 90
       18
102
RTVSPost2010Prop41ColorRGB
 90
        0
102
RTVSPost2010PropOp41
 70
     1
102
RTVSPost2010Prop42
 90
       50
102
RTVSPost2010PropOp42
 70
     1
102
RTVSPost2010Prop43
 90
        3
102
RTVSPost2010PropOp43
 70
     1
102
RTVSPost2010Prop44ColorIndex
 90
        5
102
RTVSPost2010Prop44ColorRGB
 90
      255
102
RTVSPost2010PropOp44
 70
     1
102
RTVSPost2010Prop45
280
     0
102
RTVSPost2010PropOp45
 70
     1
102
RTVSPost2010Prop46
 90
       50
102
RTVSPost2010PropOp46
 70
     1
102
RTVSPost2010Prop47
 90
       50
102
RTVSPost2010PropOp47
 70
     1
102
RTVSPost2010Prop48
 90
       50
102
RTVSPost2010PropOp48
 70
     1
102
RTVSPost2010Prop49
280
     0
102
RTVSPost2010PropOp49
 70
     1
102
RTVSPost2010Prop50
 90
       50
102
RTVSPost2010PropOp50
 70
     1
102
RTVSPost2010Prop51ColorIndex
 90
      256
102
RTVSPost2010Prop51ColorRGB
 90
-16777216
102
RTVSPost2010PropOp51
 70
     0
102
RTVSPost2010Prop52
140
1.0
102
RTVSPost2010PropOp52
 70
     0
102
RTVSPost2010Prop53
 90
        2
102
RTVSPost2010PropOp53
 70
     1
102
RTVSPost2010Prop54
  1
strokes_ogs.tif
102
RTVSPost2010PropOp54
 70
     1
102
RTVSPost2010Prop55
280
     0
102
RTVSPost2010PropOp55
 70
     1
102
RTVSPost2010Prop56
140
1.0
102
RTVSPost2010PropOp56
 70
     1
102
RTVSPost2010Prop57
140
1.0
102
RTVSPost2010PropOp57
 70
     1
  0
XRECORD
  5
A56
102
{ACAD_REACTORS
330
A55
102
}
330
A55
100
AcDbXrecord
280
     1
102
RTVSPropertyOp0
 70
     1
102
RTVSPropertyOp1
 70
     1
102
RTVSPropertyOp2
 70
     1
102
RTVSPropertyOp3
 70
     1
102
RTVSPropertyOp4
 70
     1
102
RTVSPropertyOp5
 70
     1
102
RTVSPropertyOp6
 70
     1
102
RTVSPropertyOp7
 70
     1
102
RTVSPropertyOp8
 70
     1
102
RTVSPropertyOp9
 70
     1
102
RTVSPropertyOp10
 70
     1
102
RTVSPropertyOp11
 70
     1
102
RTVSPropertyOp12
 70
     1
102
RTVSPropertyOp13
 70
     1
102
RTVSPropertyOp14
 70
     1
102
RTVSPropertyOp15
 70
     1
102
RTVSPropertyOp16
 70
     1
102
RTVSPropertyOp17
 70
     1
102
RTVSPropertyOp18
 70
     1
102
RTVSPropertyOp19
 70
     1
102
RTVSPropertyOp20
 70
     1
102
RTVSPropertyOp21
 70
     1
102
RTVSPropertyOp22
 70
     1
102
RTVSPropertyOp23
 70
     1
102
RTVSPropertyOp24
 70
     1
102
RTVSPropertyOp25
 70
     1
102
RTVSPropertyOp26
 70
     1
102
RTVSPropertyOp27
 70
     1
102
RTVSPropertyOp28
 70
     1
102
RTVSPropertyOp29
 70
     1
102
RTVSPropertyOp30
 70
     1
102
RTVSPropertyOp31
 70
     1
102
RTVSPropertyOp32
 70
     1
102
RTVSPropertyOp33
 70
     1
102
RTVSPropertyOp34
 70
     1
102
RTVSPropertyOp35
 70
     1
102
RTVSPropertyOp36
 70
     1
102
RTVSPropertyOp37
 70
     1
102
RTVSPropertyOp38
 70
     1
102
RTVSPropertyOp39
 70
     1
102
RTVSPropertyOp40
 70
     1
102
RTVSPropertyOp41
 70
     1
102
RTVSPropertyOp42
 70
     1
102
RTVSPropertyOp43
 70
     1
102
RTVSPropertyOp44
 70
     1
102
RTVSPropertyOp45
 70
     1
102
RTVSPropertyOp46
 70
     1
102
RTVSPropertyOp47
 70
     1
102
RTVSPropertyOp48
 70
     1
102
RTVSPropertyOp49
 70
     1
102
RTVSPropertyOp50
 70
     1
102
RTVSPropertyOp51
 70
     0
102
RTVSPropertyOp52
 70
     0
102
RTVSPropertyOp53
 70
     1
102
RTVSPropertyOp54
 70
     1
102
RTVSPropertyOp55
 70
     1
102
RTVSPropertyOp56
 70
     1
102
RTVSPropertyOp57
 70
     1
102
RTVSPost2010Prop28
280
     0
102
RTVSPost2010PropOp28
 70
     1
102
RTVSPost2010Prop29
280
     1
102
RTVSPost2010PropOp29
 70
     1
102
RTVSPost2010Prop30
280
     1
102
RTVSPost2010PropOp30
 70
     1
102
RTVSPost2010Prop31
280
     0
102
RTVSPost2010PropOp31
 70
     1
102
RTVSPost2010Prop32
280
     0
102
RTVSPost2010PropOp32
 70
     1
102
RTVSPost2010Prop33
280
     0
102
RTVSPost2010PropOp33
 70
     1
102
RTVSPost2010Prop34
280
     0
102
RTVSPost2010PropOp34
 70
     1
102
RTVSPost2010Prop35
280
     0
102
RTVSPost2010PropOp35
 70
     1
102
RTVSPost2010Prop36
280
     0
102
RTVSPost2010PropOp36
 70
     1
102
RTVSPost2010Prop37
 90
       50
102
RTVSPost2010PropOp37
 70
     1
102
RTVSPost2010Prop38
140
0.0
102
RTVSPost2010PropOp38
 70
     1
102
RTVSPost2010Prop39
140
1.0
102
RTVSPost2010PropOp39
 70
     1
102
RTVSPost2010Prop40
 90
        0
102
RTVSPost2010PropOp40
 70
     1
102
RTVSPost2010Prop41ColorIndex
 90
       18
102
RTVSPost2010Prop41ColorRGB
 90
        0
102
RTVSPost2010PropOp41
 70
     1
102
RTVSPost2010Prop42
 90
       50
102
RTVSPost2010PropOp42
 70
     1
102
RTVSPost2010Prop43
 90
        3
102
RTVSPost2010PropOp43
 70
     1
102
RTVSPost2010Prop44ColorIndex
 90
        5
102
RTVSPost2010Prop44ColorRGB
 90
      255
102
RTVSPost2010PropOp44
 70
     1
102
RTVSPost2010Prop45
280
     0
102
RTVSPost2010PropOp45
 70
     1
102
RTVSPost2010Prop46
 90
       50
102
RTVSPost2010PropOp46
 70
     1
102
RTVSPost2010Prop47
 90
       50
102
RTVSPost2010PropOp47
 70
     1
102
RTVSPost2010Prop48
 90
       50
102
RTVSPost2010PropOp48
 70
     1
102
RTVSPost2010Prop49
280
     0
102
RTVSPost2010PropOp49
 70
     1
102
RTVSPost2010Prop50
 90
       50
102
RTVSPost2010PropOp50
 70
     1
102
RTVSPost2010Prop51ColorIndex
 90
      256
102
RTVSPost2010Prop51ColorRGB
 90
-16777216
102
RTVSPost2010PropOp51
 70
     0
102
RTVSPost2010Prop52
140
1.0
102
RTVSPost2010PropOp52
 70
     0
102
RTVSPost2010Prop53
 90
        2
102
RTVSPost2010PropOp53
 70
     1
102
RTVSPost2010Prop54
  1
strokes_ogs.tif
102
RTVSPost2010PropOp54
 70
     1
102
RTVSPost2010Prop55
280
     0
102
RTVSPost2010PropOp55
 70
     1
102
RTVSPost2010Prop56
140
1.0
102
RTVSPost2010PropOp56
 70
     1
102
RTVSPost2010Prop57
140
1.0
102
RTVSPost2010PropOp57
 70
     1
  0
XRECORD
  5
A6A
102
{ACAD_REACTORS
330
A69
102
}
330
A69
100
AcDbXrecord
280
     1
102
RTVSPropertyOp0
 70
     0
102
RTVSPropertyOp1
 70
     0
102
RTVSPropertyOp2
 70
     0
102
RTVSPropertyOp3
 70
     0
102
RTVSPropertyOp4
 70
     0
102
RTVSPropertyOp5
 70
     0
102
RTVSPropertyOp6
 70
     0
102
RTVSPropertyOp7
 70
     0
102
RTVSPropertyOp8
 70
     0
102
RTVSPropertyOp9
 70
     0
102
RTVSPropertyOp10
 70
     0
102
RTVSPropertyOp11
 70
     0
102
RTVSPropertyOp12
 70
     0
102
RTVSPropertyOp13
 70
     0
102
RTVSPropertyOp14
 70
     0
102
RTVSPropertyOp15
 70
     0
102
RTVSPropertyOp16
 70
     0
102
RTVSPropertyOp17
 70
     0
102
RTVSPropertyOp18
 70
     0
102
RTVSPropertyOp19
 70
     0
102
RTVSPropertyOp20
 70
     0
102
RTVSPropertyOp21
 70
     0
102
RTVSPropertyOp22
 70
     0
102
RTVSPropertyOp23
 70
     0
102
RTVSPropertyOp24
 70
     0
102
RTVSPropertyOp25
 70
     0
102
RTVSPropertyOp26
 70
     0
102
RTVSPropertyOp27
 70
     0
102
RTVSPropertyOp28
 70
     1
102
RTVSPropertyOp29
 70
     1
102
RTVSPropertyOp30
 70
     1
102
RTVSPropertyOp31
 70
     1
102
RTVSPropertyOp32
 70
     1
102
RTVSPropertyOp33
 70
     1
102
RTVSPropertyOp34
 70
     1
102
RTVSPropertyOp35
 70
     1
102
RTVSPropertyOp36
 70
     1
102
RTVSPropertyOp37
 70
     1
102
RTVSPropertyOp38
 70
     1
102
RTVSPropertyOp39
 70
     1
102
RTVSPropertyOp40
 70
     1
102
RTVSPropertyOp41
 70
     1
102
RTVSPropertyOp42
 70
     1
102
RTVSPropertyOp43
 70
     1
102
RTVSPropertyOp44
 70
     1
102
RTVSPropertyOp45
 70
     1
102
RTVSPropertyOp46
 70
     1
102
RTVSPropertyOp47
 70
     1
102
RTVSPropertyOp48
 70
     1
102
RTVSPropertyOp49
 70
     1
102
RTVSPropertyOp50
 70
     1
102
RTVSPropertyOp51
 70
     0
102
RTVSPropertyOp52
 70
     0
102
RTVSPropertyOp53
 70
     1
102
RTVSPropertyOp54
 70
     1
102
RTVSPropertyOp55
 70
     1
102
RTVSPropertyOp56
 70
     1
102
RTVSPropertyOp57
 70
     1
102
RTVSPost2010Prop28
280
     0
102
RTVSPost2010PropOp28
 70
     1
102
RTVSPost2010Prop29
280
     1
102
RTVSPost2010PropOp29
 70
     1
102
RTVSPost2010Prop30
280
     1
102
RTVSPost2010PropOp30
 70
     1
102
RTVSPost2010Prop31
280
     0
102
RTVSPost2010PropOp31
 70
     1
102
RTVSPost2010Prop32
280
     0
102
RTVSPost2010PropOp32
 70
     1
102
RTVSPost2010Prop33
280
     0
102
RTVSPost2010PropOp33
 70
     1
102
RTVSPost2010Prop34
280
     0
102
RTVSPost2010PropOp34
 70
     1
102
RTVSPost2010Prop35
280
     0
102
RTVSPost2010PropOp35
 70
     1
102
RTVSPost2010Prop36
280
     0
102
RTVSPost2010PropOp36
 70
     1
102
RTVSPost2010Prop37
 90
       50
102
RTVSPost2010PropOp37
 70
     1
102
RTVSPost2010Prop38
140
0.0
102
RTVSPost2010PropOp38
 70
     1
102
RTVSPost2010Prop39
140
1.0
102
RTVSPost2010PropOp39
 70
     1
102
RTVSPost2010Prop40
 90
        0
102
RTVSPost2010PropOp40
 70
     1
102
RTVSPost2010Prop41ColorIndex
 90
       18
102
RTVSPost2010Prop41ColorRGB
 90
        0
102
RTVSPost2010PropOp41
 70
     1
102
RTVSPost2010Prop42
 90
       50
102
RTVSPost2010PropOp42
 70
     1
102
RTVSPost2010Prop43
 90
        3
102
RTVSPost2010PropOp43
 70
     1
102
RTVSPost2010Prop44ColorIndex
 90
        5
102
RTVSPost2010Prop44ColorRGB
 90
      255
102
RTVSPost2010PropOp44
 70
     1
102
RTVSPost2010Prop45
280
     0
102
RTVSPost2010PropOp45
 70
     1
102
RTVSPost2010Prop46
 90
       50
102
RTVSPost2010PropOp46
 70
     1
102
RTVSPost2010Prop47
 90
       50
102
RTVSPost2010PropOp47
 70
     1
102
RTVSPost2010Prop48
 90
       50
102
RTVSPost2010PropOp48
 70
     1
102
RTVSPost2010Prop49
280
     0
102
RTVSPost2010PropOp49
 70
     1
102
RTVSPost2010Prop50
 90
       50
102
RTVSPost2010PropOp50
 70
     1
102
RTVSPost2010Prop51ColorIndex
 90
      256
102
RTVSPost2010Prop51ColorRGB
 90
-16777216
102
RTVSPost2010PropOp51
 70
     0
102
RTVSPost2010Prop52
140
1.0
102
RTVSPost2010PropOp52
 70
     0
102
RTVSPost2010Prop53
 90
        2
102
RTVSPost2010PropOp53
 70
     1
102
RTVSPost2010Prop54
  1
strokes_ogs.tif
102
RTVSPost2010PropOp54
 70
     1
102
RTVSPost2010Prop55
280
     0
102
RTVSPost2010PropOp55
 70
     1
102
RTVSPost2010Prop56
140
1.0
102
RTVSPost2010PropOp56
 70
     1
102
RTVSPost2010Prop57
140
1.0
102
RTVSPost2010PropOp57
 70
     1
  0
XRECORD
  5
A64
102
{ACAD_REACTORS
330
A63
102
}
330
A63
100
AcDbXrecord
280
     1
102
RTVSPropertyOp0
 70
     1
102
RTVSPropertyOp1
 70
     1
102
RTVSPropertyOp2
 70
     1
102
RTVSPropertyOp3
 70
     1
102
RTVSPropertyOp4
 70
     1
102
RTVSPropertyOp5
 70
     1
102
RTVSPropertyOp6
 70
     1
102
RTVSPropertyOp7
 70
     1
102
RTVSPropertyOp8
 70
     1
102
RTVSPropertyOp9
 70
     1
102
RTVSPropertyOp10
 70
     1
102
RTVSPropertyOp11
 70
     1
102
RTVSPropertyOp12
 70
     1
102
RTVSPropertyOp13
 70
     1
102
RTVSPropertyOp14
 70
     1
102
RTVSPropertyOp15
 70
     1
102
RTVSPropertyOp16
 70
     1
102
RTVSPropertyOp17
 70
     1
102
RTVSPropertyOp18
 70
     1
102
RTVSPropertyOp19
 70
     1
102
RTVSPropertyOp20
 70
     1
102
RTVSPropertyOp21
 70
     1
102
RTVSPropertyOp22
 70
     1
102
RTVSPropertyOp23
 70
     1
102
RTVSPropertyOp24
 70
     1
102
RTVSPropertyOp25
 70
     1
102
RTVSPropertyOp26
 70
     1
102
RTVSPropertyOp27
 70
     1
102
RTVSPropertyOp28
 70
     1
102
RTVSPropertyOp29
 70
     1
102
RTVSPropertyOp30
 70
     1
102
RTVSPropertyOp31
 70
     1
102
RTVSPropertyOp32
 70
     1
102
RTVSPropertyOp33
 70
     1
102
RTVSPropertyOp34
 70
     1
102
RTVSPropertyOp35
 70
     1
102
RTVSPropertyOp36
 70
     1
102
RTVSPropertyOp37
 70
     1
102
RTVSPropertyOp38
 70
     1
102
RTVSPropertyOp39
 70
     1
102
RTVSPropertyOp40
 70
     1
102
RTVSPropertyOp41
 70
     1
102
RTVSPropertyOp42
 70
     1
102
RTVSPropertyOp43
 70
     1
102
RTVSPropertyOp44
 70
     1
102
RTVSPropertyOp45
 70
     1
102
RTVSPropertyOp46
 70
     1
102
RTVSPropertyOp47
 70
     1
102
RTVSPropertyOp48
 70
     1
102
RTVSPropertyOp49
 70
     1
102
RTVSPropertyOp50
 70
     1
102
RTVSPropertyOp51
 70
     0
102
RTVSPropertyOp52
 70
     0
102
RTVSPropertyOp53
 70
     1
102
RTVSPropertyOp54
 70
     1
102
RTVSPropertyOp55
 70
     1
102
RTVSPropertyOp56
 70
     1
102
RTVSPropertyOp57
 70
     1
102
RTVSPost2010Prop28
280
     0
102
RTVSPost2010PropOp28
 70
     1
102
RTVSPost2010Prop29
280
     1
102
RTVSPost2010PropOp29
 70
     1
102
RTVSPost2010Prop30
280
     1
102
RTVSPost2010PropOp30
 70
     1
102
RTVSPost2010Prop31
280
     0
102
RTVSPost2010PropOp31
 70
     1
102
RTVSPost2010Prop32
280
     0
102
RTVSPost2010PropOp32
 70
     1
102
RTVSPost2010Prop33
280
     0
102
RTVSPost2010PropOp33
 70
     1
102
RTVSPost2010Prop34
280
     0
102
RTVSPost2010PropOp34
 70
     1
102
RTVSPost2010Prop35
280
     0
102
RTVSPost2010PropOp35
 70
     1
102
RTVSPost2010Prop36
280
     0
102
RTVSPost2010PropOp36
 70
     1
102
RTVSPost2010Prop37
 90
       50
102
RTVSPost2010PropOp37
 70
     1
102
RTVSPost2010Prop38
140
0.0
102
RTVSPost2010PropOp38
 70
     1
102
RTVSPost2010Prop39
140
1.0
102
RTVSPost2010PropOp39
 70
     1
102
RTVSPost2010Prop40
 90
        0
102
RTVSPost2010PropOp40
 70
     1
102
RTVSPost2010Prop41ColorIndex
 90
       18
102
RTVSPost2010Prop41ColorRGB
 90
        0
102
RTVSPost2010PropOp41
 70
     1
102
RTVSPost2010Prop42
 90
       50
102
RTVSPost2010PropOp42
 70
     1
102
RTVSPost2010Prop43
 90
        3
102
RTVSPost2010PropOp43
 70
     1
102
RTVSPost2010Prop44ColorIndex
 90
        5
102
RTVSPost2010Prop44ColorRGB
 90
      255
102
RTVSPost2010PropOp44
 70
     1
102
RTVSPost2010Prop45
280
     0
102
RTVSPost2010PropOp45
 70
     1
102
RTVSPost2010Prop46
 90
       50
102
RTVSPost2010PropOp46
 70
     1
102
RTVSPost2010Prop47
 90
       50
102
RTVSPost2010PropOp47
 70
     1
102
RTVSPost2010Prop48
 90
       50
102
RTVSPost2010PropOp48
 70
     1
102
RTVSPost2010Prop49
280
     0
102
RTVSPost2010PropOp49
 70
     1
102
RTVSPost2010Prop50
 90
       50
102
RTVSPost2010PropOp50
 70
     1
102
RTVSPost2010Prop51ColorIndex
 90
      256
102
RTVSPost2010Prop51ColorRGB
 90
-16777216
102
RTVSPost2010PropOp51
 70
     0
102
RTVSPost2010Prop52
140
1.0
102
RTVSPost2010PropOp52
 70
     0
102
RTVSPost2010Prop53
 90
        2
102
RTVSPost2010PropOp53
 70
     1
102
RTVSPost2010Prop54
  1
strokes_ogs.tif
102
RTVSPost2010PropOp54
 70
     1
102
RTVSPost2010Prop55
280
     0
102
RTVSPost2010PropOp55
 70
     1
102
RTVSPost2010Prop56
140
1.0
102
RTVSPost2010PropOp56
 70
     1
102
RTVSPost2010Prop57
140
1.0
102
RTVSPost2010PropOp57
 70
     1
  0
XRECORD
  5
A6C
102
{ACAD_REACTORS
330
A6B
102
}
330
A6B
100
AcDbXrecord
280
     1
102
RTVSPropertyOp0
 70
     0
102
RTVSPropertyOp1
 70
     0
102
RTVSPropertyOp2
 70
     0
102
RTVSPropertyOp3
 70
     0
102
RTVSPropertyOp4
 70
     0
102
RTVSPropertyOp5
 70
     0
102
RTVSPropertyOp6
 70
     0
102
RTVSPropertyOp7
 70
     0
102
RTVSPropertyOp8
 70
     0
102
RTVSPropertyOp9
 70
     0
102
RTVSPropertyOp10
 70
     0
102
RTVSPropertyOp11
 70
     0
102
RTVSPropertyOp12
 70
     0
102
RTVSPropertyOp13
 70
     0
102
RTVSPropertyOp14
 70
     0
102
RTVSPropertyOp15
 70
     0
102
RTVSPropertyOp16
 70
     0
102
RTVSPropertyOp17
 70
     0
102
RTVSPropertyOp18
 70
     0
102
RTVSPropertyOp19
 70
     0
102
RTVSPropertyOp20
 70
     0
102
RTVSPropertyOp21
 70
     0
102
RTVSPropertyOp22
 70
     0
102
RTVSPropertyOp23
 70
     0
102
RTVSPropertyOp24
 70
     0
102
RTVSPropertyOp25
 70
     0
102
RTVSPropertyOp26
 70
     0
102
RTVSPropertyOp27
 70
     0
102
RTVSPropertyOp28
 70
     1
102
RTVSPropertyOp29
 70
     1
102
RTVSPropertyOp30
 70
     1
102
RTVSPropertyOp31
 70
     1
102
RTVSPropertyOp32
 70
     1
102
RTVSPropertyOp33
 70
     1
102
RTVSPropertyOp34
 70
     1
102
RTVSPropertyOp35
 70
     1
102
RTVSPropertyOp36
 70
     1
102
RTVSPropertyOp37
 70
     1
102
RTVSPropertyOp38
 70
     1
102
RTVSPropertyOp39
 70
     1
102
RTVSPropertyOp40
 70
     1
102
RTVSPropertyOp41
 70
     1
102
RTVSPropertyOp42
 70
     1
102
RTVSPropertyOp43
 70
     1
102
RTVSPropertyOp44
 70
     1
102
RTVSPropertyOp45
 70
     1
102
RTVSPropertyOp46
 70
     1
102
RTVSPropertyOp47
 70
     1
102
RTVSPropertyOp48
 70
     1
102
RTVSPropertyOp49
 70
     1
102
RTVSPropertyOp50
 70
     1
102
RTVSPropertyOp51
 70
     0
102
RTVSPropertyOp52
 70
     0
102
RTVSPropertyOp53
 70
     1
102
RTVSPropertyOp54
 70
     1
102
RTVSPropertyOp55
 70
     1
102
RTVSPropertyOp56
 70
     1
102
RTVSPropertyOp57
 70
     1
102
RTVSPost2010Prop28
280
     0
102
RTVSPost2010PropOp28
 70
     1
102
RTVSPost2010Prop29
280
     1
102
RTVSPost2010PropOp29
 70
     1
102
RTVSPost2010Prop30
280
     1
102
RTVSPost2010PropOp30
 70
     1
102
RTVSPost2010Prop31
280
     0
102
RTVSPost2010PropOp31
 70
     1
102
RTVSPost2010Prop32
280
     0
102
RTVSPost2010PropOp32
 70
     1
102
RTVSPost2010Prop33
280
     0
102
RTVSPost2010PropOp33
 70
     1
102
RTVSPost2010Prop34
280
     0
102
RTVSPost2010PropOp34
 70
     1
102
RTVSPost2010Prop35
280
     0
102
RTVSPost2010PropOp35
 70
     1
102
RTVSPost2010Prop36
280
     0
102
RTVSPost2010PropOp36
 70
     1
102
RTVSPost2010Prop37
 90
       50
102
RTVSPost2010PropOp37
 70
     1
102
RTVSPost2010Prop38
140
0.0
102
RTVSPost2010PropOp38
 70
     1
102
RTVSPost2010Prop39
140
1.0
102
RTVSPost2010PropOp39
 70
     1
102
RTVSPost2010Prop40
 90
        0
102
RTVSPost2010PropOp40
 70
     1
102
RTVSPost2010Prop41ColorIndex
 90
       18
102
RTVSPost2010Prop41ColorRGB
 90
        0
102
RTVSPost2010PropOp41
 70
     1
102
RTVSPost2010Prop42
 90
       50
102
RTVSPost2010PropOp42
 70
     1
102
RTVSPost2010Prop43
 90
        3
102
RTVSPost2010PropOp43
 70
     1
102
RTVSPost2010Prop44ColorIndex
 90
        5
102
RTVSPost2010Prop44ColorRGB
 90
      255
102
RTVSPost2010PropOp44
 70
     1
102
RTVSPost2010Prop45
280
     0
102
RTVSPost2010PropOp45
 70
     1
102
RTVSPost2010Prop46
 90
       50
102
RTVSPost2010PropOp46
 70
     1
102
RTVSPost2010Prop47
 90
       50
102
RTVSPost2010PropOp47
 70
     1
102
RTVSPost2010Prop48
 90
       50
102
RTVSPost2010PropOp48
 70
     1
102
RTVSPost2010Prop49
280
     0
102
RTVSPost2010PropOp49
 70
     1
102
RTVSPost2010Prop50
 90
       50
102
RTVSPost2010PropOp50
 70
     1
102
RTVSPost2010Prop51ColorIndex
 90
      256
102
RTVSPost2010Prop51ColorRGB
 90
-16777216
102
RTVSPost2010PropOp51
 70
     0
102
RTVSPost2010Prop52
140
1.0
102
RTVSPost2010PropOp52
 70
     0
102
RTVSPost2010Prop53
 90
        2
102
RTVSPost2010PropOp53
 70
     1
102
RTVSPost2010Prop54
  1
strokes_ogs.tif
102
RTVSPost2010PropOp54
 70
     1
102
RTVSPost2010Prop55
280
     0
102
RTVSPost2010PropOp55
 70
     1
102
RTVSPost2010Prop56
140
1.0
102
RTVSPost2010PropOp56
 70
     1
102
RTVSPost2010Prop57
140
1.0
102
RTVSPost2010PropOp57
 70
     1
  0
XRECORD
  5
A5A
102
{ACAD_REACTORS
330
A59
102
}
330
A59
100
AcDbXrecord
280
     1
102
RTVSPropertyOp0
 70
     1
102
RTVSPropertyOp1
 70
     1
102
RTVSPropertyOp2
 70
     1
102
RTVSPropertyOp3
 70
     1
102
RTVSPropertyOp4
 70
     1
102
RTVSPropertyOp5
 70
     1
102
RTVSPropertyOp6
 70
     1
102
RTVSPropertyOp7
 70
     1
102
RTVSPropertyOp8
 70
     1
102
RTVSPropertyOp9
 70
     1
102
RTVSPropertyOp10
 70
     1
102
RTVSPropertyOp11
 70
     1
102
RTVSPropertyOp12
 70
     1
102
RTVSPropertyOp13
 70
     1
102
RTVSPropertyOp14
 70
     1
102
RTVSPropertyOp15
 70
     1
102
RTVSPropertyOp16
 70
     1
102
RTVSPropertyOp17
 70
     1
102
RTVSPropertyOp18
 70
     1
102
RTVSPropertyOp19
 70
     1
102
RTVSPropertyOp20
 70
     1
102
RTVSPropertyOp21
 70
     1
102
RTVSPropertyOp22
 70
     1
102
RTVSPropertyOp23
 70
     1
102
RTVSPropertyOp24
 70
     1
102
RTVSPropertyOp25
 70
     1
102
RTVSPropertyOp26
 70
     1
102
RTVSPropertyOp27
 70
     1
102
RTVSPropertyOp28
 70
     1
102
RTVSPropertyOp29
 70
     1
102
RTVSPropertyOp30
 70
     1
102
RTVSPropertyOp31
 70
     1
102
RTVSPropertyOp32
 70
     1
102
RTVSPropertyOp33
 70
     1
102
RTVSPropertyOp34
 70
     1
102
RTVSPropertyOp35
 70
     1
102
RTVSPropertyOp36
 70
     1
102
RTVSPropertyOp37
 70
     1
102
RTVSPropertyOp38
 70
     1
102
RTVSPropertyOp39
 70
     1
102
RTVSPropertyOp40
 70
     1
102
RTVSPropertyOp41
 70
     1
102
RTVSPropertyOp42
 70
     1
102
RTVSPropertyOp43
 70
     1
102
RTVSPropertyOp44
 70
     1
102
RTVSPropertyOp45
 70
     1
102
RTVSPropertyOp46
 70
     1
102
RTVSPropertyOp47
 70
     1
102
RTVSPropertyOp48
 70
     1
102
RTVSPropertyOp49
 70
     1
102
RTVSPropertyOp50
 70
     1
102
RTVSPropertyOp51
 70
     0
102
RTVSPropertyOp52
 70
     0
102
RTVSPropertyOp53
 70
     1
102
RTVSPropertyOp54
 70
     1
102
RTVSPropertyOp55
 70
     1
102
RTVSPropertyOp56
 70
     1
102
RTVSPropertyOp57
 70
     1
102
RTVSPost2010Prop28
280
     0
102
RTVSPost2010PropOp28
 70
     1
102
RTVSPost2010Prop29
280
     1
102
RTVSPost2010PropOp29
 70
     1
102
RTVSPost2010Prop30
280
     1
102
RTVSPost2010PropOp30
 70
     1
102
RTVSPost2010Prop31
280
     0
102
RTVSPost2010PropOp31
 70
     1
102
RTVSPost2010Prop32
280
     0
102
RTVSPost2010PropOp32
 70
     1
102
RTVSPost2010Prop33
280
     0
102
RTVSPost2010PropOp33
 70
     1
102
RTVSPost2010Prop34
280
     0
102
RTVSPost2010PropOp34
 70
     1
102
RTVSPost2010Prop35
280
     0
102
RTVSPost2010PropOp35
 70
     1
102
RTVSPost2010Prop36
280
     0
102
RTVSPost2010PropOp36
 70
     1
102
RTVSPost2010Prop37
 90
       50
102
RTVSPost2010PropOp37
 70
     1
102
RTVSPost2010Prop38
140
0.0
102
RTVSPost2010PropOp38
 70
     1
102
RTVSPost2010Prop39
140
1.0
102
RTVSPost2010PropOp39
 70
     1
102
RTVSPost2010Prop40
 90
        0
102
RTVSPost2010PropOp40
 70
     1
102
RTVSPost2010Prop41ColorIndex
 90
       18
102
RTVSPost2010Prop41ColorRGB
 90
        0
102
RTVSPost2010PropOp41
 70
     1
102
RTVSPost2010Prop42
 90
       50
102
RTVSPost2010PropOp42
 70
     1
102
RTVSPost2010Prop43
 90
        3
102
RTVSPost2010PropOp43
 70
     1
102
RTVSPost2010Prop44ColorIndex
 90
        5
102
RTVSPost2010Prop44ColorRGB
 90
      255
102
RTVSPost2010PropOp44
 70
     1
102
RTVSPost2010Prop45
280
     0
102
RTVSPost2010PropOp45
 70
     1
102
RTVSPost2010Prop46
 90
       50
102
RTVSPost2010PropOp46
 70
     1
102
RTVSPost2010Prop47
 90
       50
102
RTVSPost2010PropOp47
 70
     1
102
RTVSPost2010Prop48
 90
       50
102
RTVSPost2010PropOp48
 70
     1
102
RTVSPost2010Prop49
280
     0
102
RTVSPost2010PropOp49
 70
     1
102
RTVSPost2010Prop50
 90
       50
102
RTVSPost2010PropOp50
 70
     1
102
RTVSPost2010Prop51ColorIndex
 90
      256
102
RTVSPost2010Prop51ColorRGB
 90
-16777216
102
RTVSPost2010PropOp51
 70
     0
102
RTVSPost2010Prop52
140
1.0
102
RTVSPost2010PropOp52
 70
     0
102
RTVSPost2010Prop53
 90
        2
102
RTVSPost2010PropOp53
 70
     1
102
RTVSPost2010Prop54
  1
strokes_ogs.tif
102
RTVSPost2010PropOp54
 70
     1
102
RTVSPost2010Prop55
280
     0
102
RTVSPost2010PropOp55
 70
     1
102
RTVSPost2010Prop56
140
1.0
102
RTVSPost2010PropOp56
 70
     1
102
RTVSPost2010Prop57
140
1.0
102
RTVSPost2010PropOp57
 70
     1
  0
XRECORD
  5
A78
102
{ACAD_REACTORS
330
A77
102
}
330
A77
100
AcDbXrecord
280
     1
102
RTVSPropertyOp0
 70
     1
102
RTVSPropertyOp1
 70
     1
102
RTVSPropertyOp2
 70
     1
102
RTVSPropertyOp3
 70
     1
102
RTVSPropertyOp4
 70
     1
102
RTVSPropertyOp5
 70
     1
102
RTVSPropertyOp6
 70
     1
102
RTVSPropertyOp7
 70
     1
102
RTVSPropertyOp8
 70
     1
102
RTVSPropertyOp9
 70
     1
102
RTVSPropertyOp10
 70
     1
102
RTVSPropertyOp11
 70
     1
102
RTVSPropertyOp12
 70
     1
102
RTVSPropertyOp13
 70
     1
102
RTVSPropertyOp14
 70
     1
102
RTVSPropertyOp15
 70
     1
102
RTVSPropertyOp16
 70
     1
102
RTVSPropertyOp17
 70
     1
102
RTVSPropertyOp18
 70
     1
102
RTVSPropertyOp19
 70
     1
102
RTVSPropertyOp20
 70
     1
102
RTVSPropertyOp21
 70
     1
102
RTVSPropertyOp22
 70
     1
102
RTVSPropertyOp23
 70
     1
102
RTVSPropertyOp24
 70
     1
102
RTVSPropertyOp25
 70
     1
102
RTVSPropertyOp26
 70
     1
102
RTVSPropertyOp27
 70
     1
102
RTVSPropertyOp28
 70
     1
102
RTVSPropertyOp29
 70
     1
102
RTVSPropertyOp30
 70
     1
102
RTVSPropertyOp31
 70
     1
102
RTVSPropertyOp32
 70
     1
102
RTVSPropertyOp33
 70
     1
102
RTVSPropertyOp34
 70
     1
102
RTVSPropertyOp35
 70
     1
102
RTVSPropertyOp36
 70
     1
102
RTVSPropertyOp37
 70
     1
102
RTVSPropertyOp38
 70
     1
102
RTVSPropertyOp39
 70
     1
102
RTVSPropertyOp40
 70
     1
102
RTVSPropertyOp41
 70
     1
102
RTVSPropertyOp42
 70
     1
102
RTVSPropertyOp43
 70
     1
102
RTVSPropertyOp44
 70
     1
102
RTVSPropertyOp45
 70
     1
102
RTVSPropertyOp46
 70
     1
102
RTVSPropertyOp47
 70
     1
102
RTVSPropertyOp48
 70
     1
102
RTVSPropertyOp49
 70
     1
102
RTVSPropertyOp50
 70
     1
102
RTVSPropertyOp51
 70
     0
102
RTVSPropertyOp52
 70
     0
102
RTVSPropertyOp53
 70
     1
102
RTVSPropertyOp54
 70
     1
102
RTVSPropertyOp55
 70
     1
102
RTVSPropertyOp56
 70
     1
102
RTVSPropertyOp57
 70
     1
102
RTVSPost2010Prop28
280
     0
102
RTVSPost2010PropOp28
 70
     1
102
RTVSPost2010Prop29
280
     1
102
RTVSPost2010PropOp29
 70
     1
102
RTVSPost2010Prop30
280
     1
102
RTVSPost2010PropOp30
 70
     1
102
RTVSPost2010Prop31
280
     0
102
RTVSPost2010PropOp31
 70
     1
102
RTVSPost2010Prop32
280
     0
102
RTVSPost2010PropOp32
 70
     1
102
RTVSPost2010Prop33
280
     0
102
RTVSPost2010PropOp33
 70
     1
102
RTVSPost2010Prop34
280
     0
102
RTVSPost2010PropOp34
 70
     1
102
RTVSPost2010Prop35
280
     0
102
RTVSPost2010PropOp35
 70
     1
102
RTVSPost2010Prop36
280
     0
102
RTVSPost2010PropOp36
 70
     1
102
RTVSPost2010Prop37
 90
       50
102
RTVSPost2010PropOp37
 70
     1
102
RTVSPost2010Prop38
140
0.0
102
RTVSPost2010PropOp38
 70
     1
102
RTVSPost2010Prop39
140
1.0
102
RTVSPost2010PropOp39
 70
     1
102
RTVSPost2010Prop40
 90
        0
102
RTVSPost2010PropOp40
 70
     1
102
RTVSPost2010Prop41ColorIndex
 90
       18
102
RTVSPost2010Prop41ColorRGB
 90
        0
102
RTVSPost2010PropOp41
 70
     1
102
RTVSPost2010Prop42
 90
       50
102
RTVSPost2010PropOp42
 70
     1
102
RTVSPost2010Prop43
 90
        3
102
RTVSPost2010PropOp43
 70
     1
102
RTVSPost2010Prop44ColorIndex
 90
        5
102
RTVSPost2010Prop44ColorRGB
 90
      255
102
RTVSPost2010PropOp44
 70
     1
102
RTVSPost2010Prop45
280
     0
102
RTVSPost2010PropOp45
 70
     1
102
RTVSPost2010Prop46
 90
       50
102
RTVSPost2010PropOp46
 70
     1
102
RTVSPost2010Prop47
 90
       50
102
RTVSPost2010PropOp47
 70
     1
102
RTVSPost2010Prop48
 90
       50
102
RTVSPost2010PropOp48
 70
     1
102
RTVSPost2010Prop49
280
     0
102
RTVSPost2010PropOp49
 70
     1
102
RTVSPost2010Prop50
 90
       50
102
RTVSPost2010PropOp50
 70
     1
102
RTVSPost2010Prop51ColorIndex
 90
      256
102
RTVSPost2010Prop51ColorRGB
 90
-16777216
102
RTVSPost2010PropOp51
 70
     0
102
RTVSPost2010Prop52
140
1.0
102
RTVSPost2010PropOp52
 70
     0
102
RTVSPost2010Prop53
 90
        2
102
RTVSPost2010PropOp53
 70
     1
102
RTVSPost2010Prop54
  1
strokes_ogs.tif
102
RTVSPost2010PropOp54
 70
     1
102
RTVSPost2010Prop55
280
     0
102
RTVSPost2010PropOp55
 70
     1
102
RTVSPost2010Prop56
140
1.0
102
RTVSPost2010PropOp56
 70
     1
102
RTVSPost2010Prop57
140
1.0
102
RTVSPost2010PropOp57
 70
     1
  0
XRECORD
  5
A76
102
{ACAD_REACTORS
330
A75
102
}
330
A75
100
AcDbXrecord
280
     1
102
RTVSPropertyOp0
 70
     1
102
RTVSPropertyOp1
 70
     1
102
RTVSPropertyOp2
 70
     1
102
RTVSPropertyOp3
 70
     1
102
RTVSPropertyOp4
 70
     1
102
RTVSPropertyOp5
 70
     1
102
RTVSPropertyOp6
 70
     1
102
RTVSPropertyOp7
 70
     1
102
RTVSPropertyOp8
 70
     1
102
RTVSPropertyOp9
 70
     1
102
RTVSPropertyOp10
 70
     1
102
RTVSPropertyOp11
 70
     1
102
RTVSPropertyOp12
 70
     1
102
RTVSPropertyOp13
 70
     1
102
RTVSPropertyOp14
 70
     1
102
RTVSPropertyOp15
 70
     1
102
RTVSPropertyOp16
 70
     1
102
RTVSPropertyOp17
 70
     1
102
RTVSPropertyOp18
 70
     1
102
RTVSPropertyOp19
 70
     1
102
RTVSPropertyOp20
 70
     1
102
RTVSPropertyOp21
 70
     1
102
RTVSPropertyOp22
 70
     1
102
RTVSPropertyOp23
 70
     1
102
RTVSPropertyOp24
 70
     1
102
RTVSPropertyOp25
 70
     1
102
RTVSPropertyOp26
 70
     1
102
RTVSPropertyOp27
 70
     1
102
RTVSPropertyOp28
 70
     1
102
RTVSPropertyOp29
 70
     1
102
RTVSPropertyOp30
 70
     1
102
RTVSPropertyOp31
 70
     1
102
RTVSPropertyOp32
 70
     1
102
RTVSPropertyOp33
 70
     1
102
RTVSPropertyOp34
 70
     1
102
RTVSPropertyOp35
 70
     1
102
RTVSPropertyOp36
 70
     1
102
RTVSPropertyOp37
 70
     1
102
RTVSPropertyOp38
 70
     1
102
RTVSPropertyOp39
 70
     1
102
RTVSPropertyOp40
 70
     1
102
RTVSPropertyOp41
 70
     1
102
RTVSPropertyOp42
 70
     1
102
RTVSPropertyOp43
 70
     1
102
RTVSPropertyOp44
 70
     1
102
RTVSPropertyOp45
 70
     1
102
RTVSPropertyOp46
 70
     1
102
RTVSPropertyOp47
 70
     1
102
RTVSPropertyOp48
 70
     1
102
RTVSPropertyOp49
 70
     1
102
RTVSPropertyOp50
 70
     1
102
RTVSPropertyOp51
 70
     0
102
RTVSPropertyOp52
 70
     0
102
RTVSPropertyOp53
 70
     1
102
RTVSPropertyOp54
 70
     1
102
RTVSPropertyOp55
 70
     1
102
RTVSPropertyOp56
 70
     1
102
RTVSPropertyOp57
 70
     1
102
RTVSPost2010Prop28
280
     0
102
RTVSPost2010PropOp28
 70
     1
102
RTVSPost2010Prop29
280
     1
102
RTVSPost2010PropOp29
 70
     1
102
RTVSPost2010Prop30
280
     1
102
RTVSPost2010PropOp30
 70
     1
102
RTVSPost2010Prop31
280
     0
102
RTVSPost2010PropOp31
 70
     1
102
RTVSPost2010Prop32
280
     0
102
RTVSPost2010PropOp32
 70
     1
102
RTVSPost2010Prop33
280
     0
102
RTVSPost2010PropOp33
 70
     1
102
RTVSPost2010Prop34
280
     0
102
RTVSPost2010PropOp34
 70
     1
102
RTVSPost2010Prop35
280
     0
102
RTVSPost2010PropOp35
 70
     1
102
RTVSPost2010Prop36
280
     0
102
RTVSPost2010PropOp36
 70
     1
102
RTVSPost2010Prop37
 90
       50
102
RTVSPost2010PropOp37
 70
     1
102
RTVSPost2010Prop38
140
0.0
102
RTVSPost2010PropOp38
 70
     1
102
RTVSPost2010Prop39
140
1.0
102
RTVSPost2010PropOp39
 70
     1
102
RTVSPost2010Prop40
 90
        0
102
RTVSPost2010PropOp40
 70
     1
102
RTVSPost2010Prop41ColorIndex
 90
       18
102
RTVSPost2010Prop41ColorRGB
 90
        0
102
RTVSPost2010PropOp41
 70
     1
102
RTVSPost2010Prop42
 90
       50
102
RTVSPost2010PropOp42
 70
     1
102
RTVSPost2010Prop43
 90
        3
102
RTVSPost2010PropOp43
 70
     1
102
RTVSPost2010Prop44ColorIndex
 90
        5
102
RTVSPost2010Prop44ColorRGB
 90
      255
102
RTVSPost2010PropOp44
 70
     1
102
RTVSPost2010Prop45
280
     0
102
RTVSPost2010PropOp45
 70
     1
102
RTVSPost2010Prop46
 90
       50
102
RTVSPost2010PropOp46
 70
     1
102
RTVSPost2010Prop47
 90
       50
102
RTVSPost2010PropOp47
 70
     1
102
RTVSPost2010Prop48
 90
       50
102
RTVSPost2010PropOp48
 70
     1
102
RTVSPost2010Prop49
280
     0
102
RTVSPost2010PropOp49
 70
     1
102
RTVSPost2010Prop50
 90
       50
102
RTVSPost2010PropOp50
 70
     1
102
RTVSPost2010Prop51ColorIndex
 90
      256
102
RTVSPost2010Prop51ColorRGB
 90
-16777216
102
RTVSPost2010PropOp51
 70
     0
102
RTVSPost2010Prop52
140
1.0
102
RTVSPost2010PropOp52
 70
     0
102
RTVSPost2010Prop53
 90
        2
102
RTVSPost2010PropOp53
 70
     1
102
RTVSPost2010Prop54
  1
strokes_ogs.tif
102
RTVSPost2010PropOp54
 70
     1
102
RTVSPost2010Prop55
280
     0
102
RTVSPost2010PropOp55
 70
     1
102
RTVSPost2010Prop56
140
1.0
102
RTVSPost2010PropOp56
 70
     1
102
RTVSPost2010Prop57
140
1.0
102
RTVSPost2010PropOp57
 70
     1
  0
XRECORD
  5
A70
102
{ACAD_REACTORS
330
A6F
102
}
330
A6F
100
AcDbXrecord
280
     1
102
RTVSPropertyOp0
 70
     1
102
RTVSPropertyOp1
 70
     1
102
RTVSPropertyOp2
 70
     1
102
RTVSPropertyOp3
 70
     1
102
RTVSPropertyOp4
 70
     1
102
RTVSPropertyOp5
 70
     1
102
RTVSPropertyOp6
 70
     1
102
RTVSPropertyOp7
 70
     1
102
RTVSPropertyOp8
 70
     1
102
RTVSPropertyOp9
 70
     1
102
RTVSPropertyOp10
 70
     1
102
RTVSPropertyOp11
 70
     1
102
RTVSPropertyOp12
 70
     1
102
RTVSPropertyOp13
 70
     1
102
RTVSPropertyOp14
 70
     1
102
RTVSPropertyOp15
 70
     1
102
RTVSPropertyOp16
 70
     1
102
RTVSPropertyOp17
 70
     1
102
RTVSPropertyOp18
 70
     1
102
RTVSPropertyOp19
 70
     1
102
RTVSPropertyOp20
 70
     1
102
RTVSPropertyOp21
 70
     1
102
RTVSPropertyOp22
 70
     1
102
RTVSPropertyOp23
 70
     1
102
RTVSPropertyOp24
 70
     1
102
RTVSPropertyOp25
 70
     1
102
RTVSPropertyOp26
 70
     1
102
RTVSPropertyOp27
 70
     1
102
RTVSPropertyOp28
 70
     1
102
RTVSPropertyOp29
 70
     1
102
RTVSPropertyOp30
 70
     1
102
RTVSPropertyOp31
 70
     1
102
RTVSPropertyOp32
 70
     1
102
RTVSPropertyOp33
 70
     1
102
RTVSPropertyOp34
 70
     1
102
RTVSPropertyOp35
 70
     1
102
RTVSPropertyOp36
 70
     1
102
RTVSPropertyOp37
 70
     1
102
RTVSPropertyOp38
 70
     1
102
RTVSPropertyOp39
 70
     1
102
RTVSPropertyOp40
 70
     1
102
RTVSPropertyOp41
 70
     1
102
RTVSPropertyOp42
 70
     1
102
RTVSPropertyOp43
 70
     1
102
RTVSPropertyOp44
 70
     1
102
RTVSPropertyOp45
 70
     1
102
RTVSPropertyOp46
 70
     1
102
RTVSPropertyOp47
 70
     1
102
RTVSPropertyOp48
 70
     1
102
RTVSPropertyOp49
 70
     1
102
RTVSPropertyOp50
 70
     1
102
RTVSPropertyOp51
 70
     0
102
RTVSPropertyOp52
 70
     0
102
RTVSPropertyOp53
 70
     1
102
RTVSPropertyOp54
 70
     1
102
RTVSPropertyOp55
 70
     1
102
RTVSPropertyOp56
 70
     1
102
RTVSPropertyOp57
 70
     1
102
RTVSPost2010Prop28
280
     0
102
RTVSPost2010PropOp28
 70
     1
102
RTVSPost2010Prop29
280
     1
102
RTVSPost2010PropOp29
 70
     1
102
RTVSPost2010Prop30
280
     1
102
RTVSPost2010PropOp30
 70
     1
102
RTVSPost2010Prop31
280
     0
102
RTVSPost2010PropOp31
 70
     1
102
RTVSPost2010Prop32
280
     0
102
RTVSPost2010PropOp32
 70
     1
102
RTVSPost2010Prop33
280
     0
102
RTVSPost2010PropOp33
 70
     1
102
RTVSPost2010Prop34
280
     0
102
RTVSPost2010PropOp34
 70
     1
102
RTVSPost2010Prop35
280
     0
102
RTVSPost2010PropOp35
 70
     1
102
RTVSPost2010Prop36
280
     0
102
RTVSPost2010PropOp36
 70
     1
102
RTVSPost2010Prop37
 90
       50
102
RTVSPost2010PropOp37
 70
     1
102
RTVSPost2010Prop38
140
0.0
102
RTVSPost2010PropOp38
 70
     1
102
RTVSPost2010Prop39
140
1.0
102
RTVSPost2010PropOp39
 70
     1
102
RTVSPost2010Prop40
 90
        0
102
RTVSPost2010PropOp40
 70
     1
102
RTVSPost2010Prop41ColorIndex
 90
       18
102
RTVSPost2010Prop41ColorRGB
 90
        0
102
RTVSPost2010PropOp41
 70
     1
102
RTVSPost2010Prop42
 90
       50
102
RTVSPost2010PropOp42
 70
     1
102
RTVSPost2010Prop43
 90
        3
102
RTVSPost2010PropOp43
 70
     1
102
RTVSPost2010Prop44ColorIndex
 90
        5
102
RTVSPost2010Prop44ColorRGB
 90
      255
102
RTVSPost2010PropOp44
 70
     1
102
RTVSPost2010Prop45
280
     0
102
RTVSPost2010PropOp45
 70
     1
102
RTVSPost2010Prop46
 90
       50
102
RTVSPost2010PropOp46
 70
     1
102
RTVSPost2010Prop47
 90
       50
102
RTVSPost2010PropOp47
 70
     1
102
RTVSPost2010Prop48
 90
       50
102
RTVSPost2010PropOp48
 70
     1
102
RTVSPost2010Prop49
280
     0
102
RTVSPost2010PropOp49
 70
     1
102
RTVSPost2010Prop50
 90
       50
102
RTVSPost2010PropOp50
 70
     1
102
RTVSPost2010Prop51ColorIndex
 90
      256
102
RTVSPost2010Prop51ColorRGB
 90
-16777216
102
RTVSPost2010PropOp51
 70
     0
102
RTVSPost2010Prop52
140
1.0
102
RTVSPost2010PropOp52
 70
     0
102
RTVSPost2010Prop53
 90
        2
102
RTVSPost2010PropOp53
 70
     1
102
RTVSPost2010Prop54
  1
strokes_ogs.tif
102
RTVSPost2010PropOp54
 70
     1
102
RTVSPost2010Prop55
280
     0
102
RTVSPost2010PropOp55
 70
     1
102
RTVSPost2010Prop56
140
1.0
102
RTVSPost2010PropOp56
 70
     1
102
RTVSPost2010Prop57
140
1.0
102
RTVSPost2010PropOp57
 70
     1
  0
XRECORD
  5
A72
102
{ACAD_REACTORS
330
A71
102
}
330
A71
100
AcDbXrecord
280
     1
102
RTVSPropertyOp0
 70
     1
102
RTVSPropertyOp1
 70
     1
102
RTVSPropertyOp2
 70
     1
102
RTVSPropertyOp3
 70
     1
102
RTVSPropertyOp4
 70
     1
102
RTVSPropertyOp5
 70
     1
102
RTVSPropertyOp6
 70
     1
102
RTVSPropertyOp7
 70
     1
102
RTVSPropertyOp8
 70
     1
102
RTVSPropertyOp9
 70
     1
102
RTVSPropertyOp10
 70
     1
102
RTVSPropertyOp11
 70
     1
102
RTVSPropertyOp12
 70
     1
102
RTVSPropertyOp13
 70
     1
102
RTVSPropertyOp14
 70
     1
102
RTVSPropertyOp15
 70
     1
102
RTVSPropertyOp16
 70
     1
102
RTVSPropertyOp17
 70
     1
102
RTVSPropertyOp18
 70
     1
102
RTVSPropertyOp19
 70
     1
102
RTVSPropertyOp20
 70
     1
102
RTVSPropertyOp21
 70
     1
102
RTVSPropertyOp22
 70
     1
102
RTVSPropertyOp23
 70
     1
102
RTVSPropertyOp24
 70
     1
102
RTVSPropertyOp25
 70
     1
102
RTVSPropertyOp26
 70
     1
102
RTVSPropertyOp27
 70
     1
102
RTVSPropertyOp28
 70
     1
102
RTVSPropertyOp29
 70
     1
102
RTVSPropertyOp30
 70
     1
102
RTVSPropertyOp31
 70
     1
102
RTVSPropertyOp32
 70
     1
102
RTVSPropertyOp33
 70
     1
102
RTVSPropertyOp34
 70
     1
102
RTVSPropertyOp35
 70
     1
102
RTVSPropertyOp36
 70
     1
102
RTVSPropertyOp37
 70
     1
102
RTVSPropertyOp38
 70
     1
102
RTVSPropertyOp39
 70
     1
102
RTVSPropertyOp40
 70
     1
102
RTVSPropertyOp41
 70
     1
102
RTVSPropertyOp42
 70
     1
102
RTVSPropertyOp43
 70
     1
102
RTVSPropertyOp44
 70
     1
102
RTVSPropertyOp45
 70
     1
102
RTVSPropertyOp46
 70
     1
102
RTVSPropertyOp47
 70
     1
102
RTVSPropertyOp48
 70
     1
102
RTVSPropertyOp49
 70
     1
102
RTVSPropertyOp50
 70
     1
102
RTVSPropertyOp51
 70
     0
102
RTVSPropertyOp52
 70
     0
102
RTVSPropertyOp53
 70
     1
102
RTVSPropertyOp54
 70
     1
102
RTVSPropertyOp55
 70
     1
102
RTVSPropertyOp56
 70
     1
102
RTVSPropertyOp57
 70
     1
102
RTVSPost2010Prop28
280
     0
102
RTVSPost2010PropOp28
 70
     1
102
RTVSPost2010Prop29
280
     1
102
RTVSPost2010PropOp29
 70
     1
102
RTVSPost2010Prop30
280
     1
102
RTVSPost2010PropOp30
 70
     1
102
RTVSPost2010Prop31
280
     0
102
RTVSPost2010PropOp31
 70
     1
102
RTVSPost2010Prop32
280
     0
102
RTVSPost2010PropOp32
 70
     1
102
RTVSPost2010Prop33
280
     0
102
RTVSPost2010PropOp33
 70
     1
102
RTVSPost2010Prop34
280
     0
102
RTVSPost2010PropOp34
 70
     1
102
RTVSPost2010Prop35
280
     0
102
RTVSPost2010PropOp35
 70
     1
102
RTVSPost2010Prop36
280
     0
102
RTVSPost2010PropOp36
 70
     1
102
RTVSPost2010Prop37
 90
       50
102
RTVSPost2010PropOp37
 70
     1
102
RTVSPost2010Prop38
140
0.0
102
RTVSPost2010PropOp38
 70
     1
102
RTVSPost2010Prop39
140
1.0
102
RTVSPost2010PropOp39
 70
     1
102
RTVSPost2010Prop40
 90
        0
102
RTVSPost2010PropOp40
 70
     1
102
RTVSPost2010Prop41ColorIndex
 90
       18
102
RTVSPost2010Prop41ColorRGB
 90
        0
102
RTVSPost2010PropOp41
 70
     1
102
RTVSPost2010Prop42
 90
       50
102
RTVSPost2010PropOp42
 70
     1
102
RTVSPost2010Prop43
 90
        3
102
RTVSPost2010PropOp43
 70
     1
102
RTVSPost2010Prop44ColorIndex
 90
        5
102
RTVSPost2010Prop44ColorRGB
 90
      255
102
RTVSPost2010PropOp44
 70
     1
102
RTVSPost2010Prop45
280
     0
102
RTVSPost2010PropOp45
 70
     1
102
RTVSPost2010Prop46
 90
       50
102
RTVSPost2010PropOp46
 70
     1
102
RTVSPost2010Prop47
 90
       50
102
RTVSPost2010PropOp47
 70
     1
102
RTVSPost2010Prop48
 90
       50
102
RTVSPost2010PropOp48
 70
     1
102
RTVSPost2010Prop49
280
     0
102
RTVSPost2010PropOp49
 70
     1
102
RTVSPost2010Prop50
 90
       50
102
RTVSPost2010PropOp50
 70
     1
102
RTVSPost2010Prop51ColorIndex
 90
      256
102
RTVSPost2010Prop51ColorRGB
 90
-16777216
102
RTVSPost2010PropOp51
 70
     0
102
RTVSPost2010Prop52
140
1.0
102
RTVSPost2010PropOp52
 70
     0
102
RTVSPost2010Prop53
 90
        2
102
RTVSPost2010PropOp53
 70
     1
102
RTVSPost2010Prop54
  1
strokes_ogs.tif
102
RTVSPost2010PropOp54
 70
     1
102
RTVSPost2010Prop55
280
     0
102
RTVSPost2010PropOp55
 70
     1
102
RTVSPost2010Prop56
140
1.0
102
RTVSPost2010PropOp56
 70
     1
102
RTVSPost2010Prop57
140
1.0
102
RTVSPost2010PropOp57
 70
     1
  0
XRECORD
  5
A62
102
{ACAD_REACTORS
330
A61
102
}
330
A61
100
AcDbXrecord
280
     1
102
RTVSPropertyOp0
 70
     1
102
RTVSPropertyOp1
 70
     1
102
RTVSPropertyOp2
 70
     1
102
RTVSPropertyOp3
 70
     1
102
RTVSPropertyOp4
 70
     1
102
RTVSPropertyOp5
 70
     1
102
RTVSPropertyOp6
 70
     1
102
RTVSPropertyOp7
 70
     1
102
RTVSPropertyOp8
 70
     1
102
RTVSPropertyOp9
 70
     1
102
RTVSPropertyOp10
 70
     1
102
RTVSPropertyOp11
 70
     1
102
RTVSPropertyOp12
 70
     1
102
RTVSPropertyOp13
 70
     1
102
RTVSPropertyOp14
 70
     1
102
RTVSPropertyOp15
 70
     1
102
RTVSPropertyOp16
 70
     1
102
RTVSPropertyOp17
 70
     1
102
RTVSPropertyOp18
 70
     1
102
RTVSPropertyOp19
 70
     1
102
RTVSPropertyOp20
 70
     1
102
RTVSPropertyOp21
 70
     1
102
RTVSPropertyOp22
 70
     1
102
RTVSPropertyOp23
 70
     1
102
RTVSPropertyOp24
 70
     1
102
RTVSPropertyOp25
 70
     1
102
RTVSPropertyOp26
 70
     1
102
RTVSPropertyOp27
 70
     1
102
RTVSPropertyOp28
 70
     1
102
RTVSPropertyOp29
 70
     1
102
RTVSPropertyOp30
 70
     1
102
RTVSPropertyOp31
 70
     1
102
RTVSPropertyOp32
 70
     1
102
RTVSPropertyOp33
 70
     1
102
RTVSPropertyOp34
 70
     1
102
RTVSPropertyOp35
 70
     1
102
RTVSPropertyOp36
 70
     1
102
RTVSPropertyOp37
 70
     1
102
RTVSPropertyOp38
 70
     1
102
RTVSPropertyOp39
 70
     1
102
RTVSPropertyOp40
 70
     1
102
RTVSPropertyOp41
 70
     1
102
RTVSPropertyOp42
 70
     1
102
RTVSPropertyOp43
 70
     1
102
RTVSPropertyOp44
 70
     1
102
RTVSPropertyOp45
 70
     1
102
RTVSPropertyOp46
 70
     1
102
RTVSPropertyOp47
 70
     1
102
RTVSPropertyOp48
 70
     1
102
RTVSPropertyOp49
 70
     1
102
RTVSPropertyOp50
 70
     1
102
RTVSPropertyOp51
 70
     0
102
RTVSPropertyOp52
 70
     0
102
RTVSPropertyOp53
 70
     1
102
RTVSPropertyOp54
 70
     1
102
RTVSPropertyOp55
 70
     1
102
RTVSPropertyOp56
 70
     1
102
RTVSPropertyOp57
 70
     1
102
RTVSPost2010Prop28
280
     0
102
RTVSPost2010PropOp28
 70
     1
102
RTVSPost2010Prop29
280
     1
102
RTVSPost2010PropOp29
 70
     1
102
RTVSPost2010Prop30
280
     1
102
RTVSPost2010PropOp30
 70
     1
102
RTVSPost2010Prop31
280
     0
102
RTVSPost2010PropOp31
 70
     1
102
RTVSPost2010Prop32
280
     0
102
RTVSPost2010PropOp32
 70
     1
102
RTVSPost2010Prop33
280
     0
102
RTVSPost2010PropOp33
 70
     1
102
RTVSPost2010Prop34
280
     0
102
RTVSPost2010PropOp34
 70
     1
102
RTVSPost2010Prop35
280
     0
102
RTVSPost2010PropOp35
 70
     1
102
RTVSPost2010Prop36
280
     0
102
RTVSPost2010PropOp36
 70
     1
102
RTVSPost2010Prop37
 90
       50
102
RTVSPost2010PropOp37
 70
     1
102
RTVSPost2010Prop38
140
0.0
102
RTVSPost2010PropOp38
 70
     1
102
RTVSPost2010Prop39
140
1.0
102
RTVSPost2010PropOp39
 70
     1
102
RTVSPost2010Prop40
 90
        0
102
RTVSPost2010PropOp40
 70
     1
102
RTVSPost2010Prop41ColorIndex
 90
       18
102
RTVSPost2010Prop41ColorRGB
 90
        0
102
RTVSPost2010PropOp41
 70
     1
102
RTVSPost2010Prop42
 90
       50
102
RTVSPost2010PropOp42
 70
     1
102
RTVSPost2010Prop43
 90
        3
102
RTVSPost2010PropOp43
 70
     1
102
RTVSPost2010Prop44ColorIndex
 90
        5
102
RTVSPost2010Prop44ColorRGB
 90
      255
102
RTVSPost2010PropOp44
 70
     1
102
RTVSPost2010Prop45
280
     0
102
RTVSPost2010PropOp45
 70
     1
102
RTVSPost2010Prop46
 90
       50
102
RTVSPost2010PropOp46
 70
     1
102
RTVSPost2010Prop47
 90
       50
102
RTVSPost2010PropOp47
 70
     1
102
RTVSPost2010Prop48
 90
       50
102
RTVSPost2010PropOp48
 70
     1
102
RTVSPost2010Prop49
280
     0
102
RTVSPost2010PropOp49
 70
     1
102
RTVSPost2010Prop50
 90
       50
102
RTVSPost2010PropOp50
 70
     1
102
RTVSPost2010Prop51ColorIndex
 90
      256
102
RTVSPost2010Prop51ColorRGB
 90
-16777216
102
RTVSPost2010PropOp51
 70
     0
102
RTVSPost2010Prop52
140
1.0
102
RTVSPost2010PropOp52
 70
     0
102
RTVSPost2010Prop53
 90
        2
102
RTVSPost2010PropOp53
 70
     1
102
RTVSPost2010Prop54
  1
strokes_ogs.tif
102
RTVSPost2010PropOp54
 70
     1
102
RTVSPost2010Prop55
280
     0
102
RTVSPost2010PropOp55
 70
     1
102
RTVSPost2010Prop56
140
1.0
102
RTVSPost2010PropOp56
 70
     1
102
RTVSPost2010Prop57
140
1.0
102
RTVSPost2010PropOp57
 70
     1
  0
XRECORD
  5
A54
102
{ACAD_REACTORS
330
A53
102
}
330
A53
100
AcDbXrecord
280
     1
102
RTVSPropertyOp0
 70
     1
102
RTVSPropertyOp1
 70
     1
102
RTVSPropertyOp2
 70
     1
102
RTVSPropertyOp3
 70
     1
102
RTVSPropertyOp4
 70
     1
102
RTVSPropertyOp5
 70
     1
102
RTVSPropertyOp6
 70
     1
102
RTVSPropertyOp7
 70
     1
102
RTVSPropertyOp8
 70
     1
102
RTVSPropertyOp9
 70
     1
102
RTVSPropertyOp10
 70
     1
102
RTVSPropertyOp11
 70
     1
102
RTVSPropertyOp12
 70
     1
102
RTVSPropertyOp13
 70
     1
102
RTVSPropertyOp14
 70
     1
102
RTVSPropertyOp15
 70
     1
102
RTVSPropertyOp16
 70
     1
102
RTVSPropertyOp17
 70
     1
102
RTVSPropertyOp18
 70
     1
102
RTVSPropertyOp19
 70
     1
102
RTVSPropertyOp20
 70
     1
102
RTVSPropertyOp21
 70
     1
102
RTVSPropertyOp22
 70
     1
102
RTVSPropertyOp23
 70
     1
102
RTVSPropertyOp24
 70
     1
102
RTVSPropertyOp25
 70
     1
102
RTVSPropertyOp26
 70
     1
102
RTVSPropertyOp27
 70
     1
102
RTVSPropertyOp28
 70
     1
102
RTVSPropertyOp29
 70
     1
102
RTVSPropertyOp30
 70
     1
102
RTVSPropertyOp31
 70
     1
102
RTVSPropertyOp32
 70
     1
102
RTVSPropertyOp33
 70
     1
102
RTVSPropertyOp34
 70
     1
102
RTVSPropertyOp35
 70
     1
102
RTVSPropertyOp36
 70
     1
102
RTVSPropertyOp37
 70
     1
102
RTVSPropertyOp38
 70
     1
102
RTVSPropertyOp39
 70
     1
102
RTVSPropertyOp40
 70
     1
102
RTVSPropertyOp41
 70
     1
102
RTVSPropertyOp42
 70
     1
102
RTVSPropertyOp43
 70
     1
102
RTVSPropertyOp44
 70
     1
102
RTVSPropertyOp45
 70
     1
102
RTVSPropertyOp46
 70
     1
102
RTVSPropertyOp47
 70
     1
102
RTVSPropertyOp48
 70
     1
102
RTVSPropertyOp49
 70
     1
102
RTVSPropertyOp50
 70
     1
102
RTVSPropertyOp51
 70
     0
102
RTVSPropertyOp52
 70
     0
102
RTVSPropertyOp53
 70
     1
102
RTVSPropertyOp54
 70
     1
102
RTVSPropertyOp55
 70
     1
102
RTVSPropertyOp56
 70
     1
102
RTVSPropertyOp57
 70
     1
102
RTVSPost2010Prop28
280
     0
102
RTVSPost2010PropOp28
 70
     1
102
RTVSPost2010Prop29
280
     1
102
RTVSPost2010PropOp29
 70
     1
102
RTVSPost2010Prop30
280
     1
102
RTVSPost2010PropOp30
 70
     1
102
RTVSPost2010Prop31
280
     0
102
RTVSPost2010PropOp31
 70
     1
102
RTVSPost2010Prop32
280
     0
102
RTVSPost2010PropOp32
 70
     1
102
RTVSPost2010Prop33
280
     0
102
RTVSPost2010PropOp33
 70
     1
102
RTVSPost2010Prop34
280
     0
102
RTVSPost2010PropOp34
 70
     1
102
RTVSPost2010Prop35
280
     0
102
RTVSPost2010PropOp35
 70
     1
102
RTVSPost2010Prop36
280
     0
102
RTVSPost2010PropOp36
 70
     1
102
RTVSPost2010Prop37
 90
       50
102
RTVSPost2010PropOp37
 70
     1
102
RTVSPost2010Prop38
140
0.0
102
RTVSPost2010PropOp38
 70
     1
102
RTVSPost2010Prop39
140
1.0
102
RTVSPost2010PropOp39
 70
     1
102
RTVSPost2010Prop40
 90
        0
102
RTVSPost2010PropOp40
 70
     1
102
RTVSPost2010Prop41ColorIndex
 90
       18
102
RTVSPost2010Prop41ColorRGB
 90
        0
102
RTVSPost2010PropOp41
 70
     1
102
RTVSPost2010Prop42
 90
       50
102
RTVSPost2010PropOp42
 70
     1
102
RTVSPost2010Prop43
 90
        3
102
RTVSPost2010PropOp43
 70
     1
102
RTVSPost2010Prop44ColorIndex
 90
        5
102
RTVSPost2010Prop44ColorRGB
 90
      255
102
RTVSPost2010PropOp44
 70
     1
102
RTVSPost2010Prop45
280
     0
102
RTVSPost2010PropOp45
 70
     1
102
RTVSPost2010Prop46
 90
       50
102
RTVSPost2010PropOp46
 70
     1
102
RTVSPost2010Prop47
 90
       50
102
RTVSPost2010PropOp47
 70
     1
102
RTVSPost2010Prop48
 90
       50
102
RTVSPost2010PropOp48
 70
     1
102
RTVSPost2010Prop49
280
     0
102
RTVSPost2010PropOp49
 70
     1
102
RTVSPost2010Prop50
 90
       50
102
RTVSPost2010PropOp50
 70
     1
102
RTVSPost2010Prop51ColorIndex
 90
      256
102
RTVSPost2010Prop51ColorRGB
 90
-16777216
102
RTVSPost2010PropOp51
 70
     0
102
RTVSPost2010Prop52
140
1.0
102
RTVSPost2010PropOp52
 70
     0
102
RTVSPost2010Prop53
 90
        2
102
RTVSPost2010PropOp53
 70
     1
102
RTVSPost2010Prop54
  1
strokes_ogs.tif
102
RTVSPost2010PropOp54
 70
     1
102
RTVSPost2010Prop55
280
     0
102
RTVSPost2010PropOp55
 70
     1
102
RTVSPost2010Prop56
140
1.0
102
RTVSPost2010PropOp56
 70
     1
102
RTVSPost2010Prop57
140
1.0
102
RTVSPost2010PropOp57
 70
     1
  0
XRECORD
  5
A74
102
{ACAD_REACTORS
330
A73
102
}
330
A73
100
AcDbXrecord
280
     1
102
RTVSPropertyOp0
 70
     1
102
RTVSPropertyOp1
 70
     1
102
RTVSPropertyOp2
 70
     1
102
RTVSPropertyOp3
 70
     1
102
RTVSPropertyOp4
 70
     1
102
RTVSPropertyOp5
 70
     1
102
RTVSPropertyOp6
 70
     1
102
RTVSPropertyOp7
 70
     1
102
RTVSPropertyOp8
 70
     1
102
RTVSPropertyOp9
 70
     1
102
RTVSPropertyOp10
 70
     1
102
RTVSPropertyOp11
 70
     1
102
RTVSPropertyOp12
 70
     1
102
RTVSPropertyOp13
 70
     1
102
RTVSPropertyOp14
 70
     1
102
RTVSPropertyOp15
 70
     1
102
RTVSPropertyOp16
 70
     1
102
RTVSPropertyOp17
 70
     1
102
RTVSPropertyOp18
 70
     1
102
RTVSPropertyOp19
 70
     1
102
RTVSPropertyOp20
 70
     1
102
RTVSPropertyOp21
 70
     1
102
RTVSPropertyOp22
 70
     1
102
RTVSPropertyOp23
 70
     1
102
RTVSPropertyOp24
 70
     1
102
RTVSPropertyOp25
 70
     1
102
RTVSPropertyOp26
 70
     1
102
RTVSPropertyOp27
 70
     1
102
RTVSPropertyOp28
 70
     1
102
RTVSPropertyOp29
 70
     1
102
RTVSPropertyOp30
 70
     1
102
RTVSPropertyOp31
 70
     1
102
RTVSPropertyOp32
 70
     1
102
RTVSPropertyOp33
 70
     1
102
RTVSPropertyOp34
 70
     1
102
RTVSPropertyOp35
 70
     1
102
RTVSPropertyOp36
 70
     1
102
RTVSPropertyOp37
 70
     1
102
RTVSPropertyOp38
 70
     1
102
RTVSPropertyOp39
 70
     1
102
RTVSPropertyOp40
 70
     1
102
RTVSPropertyOp41
 70
     1
102
RTVSPropertyOp42
 70
     1
102
RTVSPropertyOp43
 70
     1
102
RTVSPropertyOp44
 70
     1
102
RTVSPropertyOp45
 70
     1
102
RTVSPropertyOp46
 70
     1
102
RTVSPropertyOp47
 70
     1
102
RTVSPropertyOp48
 70
     1
102
RTVSPropertyOp49
 70
     1
102
RTVSPropertyOp50
 70
     1
102
RTVSPropertyOp51
 70
     0
102
RTVSPropertyOp52
 70
     0
102
RTVSPropertyOp53
 70
     1
102
RTVSPropertyOp54
 70
     1
102
RTVSPropertyOp55
 70
     1
102
RTVSPropertyOp56
 70
     1
102
RTVSPropertyOp57
 70
     1
102
RTVSPost2010Prop28
280
     0
102
RTVSPost2010PropOp28
 70
     1
102
RTVSPost2010Prop29
280
     1
102
RTVSPost2010PropOp29
 70
     1
102
RTVSPost2010Prop30
280
     1
102
RTVSPost2010PropOp30
 70
     1
102
RTVSPost2010Prop31
280
     0
102
RTVSPost2010PropOp31
 70
     1
102
RTVSPost2010Prop32
280
     0
102
RTVSPost2010PropOp32
 70
     1
102
RTVSPost2010Prop33
280
     0
102
RTVSPost2010PropOp33
 70
     1
102
RTVSPost2010Prop34
280
     0
102
RTVSPost2010PropOp34
 70
     1
102
RTVSPost2010Prop35
280
     0
102
RTVSPost2010PropOp35
 70
     1
102
RTVSPost2010Prop36
280
     0
102
RTVSPost2010PropOp36
 70
     1
102
RTVSPost2010Prop37
 90
       50
102
RTVSPost2010PropOp37
 70
     1
102
RTVSPost2010Prop38
140
0.0
102
RTVSPost2010PropOp38
 70
     1
102
RTVSPost2010Prop39
140
1.0
102
RTVSPost2010PropOp39
 70
     1
102
RTVSPost2010Prop40
 90
        0
102
RTVSPost2010PropOp40
 70
     1
102
RTVSPost2010Prop41ColorIndex
 90
       18
102
RTVSPost2010Prop41ColorRGB
 90
        0
102
RTVSPost2010PropOp41
 70
     1
102
RTVSPost2010Prop42
 90
       50
102
RTVSPost2010PropOp42
 70
     1
102
RTVSPost2010Prop43
 90
        3
102
RTVSPost2010PropOp43
 70
     1
102
RTVSPost2010Prop44ColorIndex
 90
        5
102
RTVSPost2010Prop44ColorRGB
 90
      255
102
RTVSPost2010PropOp44
 70
     1
102
RTVSPost2010Prop45
280
     0
102
RTVSPost2010PropOp45
 70
     1
102
RTVSPost2010Prop46
 90
       50
102
RTVSPost2010PropOp46
 70
     1
102
RTVSPost2010Prop47
 90
       50
102
RTVSPost2010PropOp47
 70
     1
102
RTVSPost2010Prop48
 90
       50
102
RTVSPost2010PropOp48
 70
     1
102
RTVSPost2010Prop49
280
     0
102
RTVSPost2010PropOp49
 70
     1
102
RTVSPost2010Prop50
 90
       50
102
RTVSPost2010PropOp50
 70
     1
102
RTVSPost2010Prop51ColorIndex
 90
      256
102
RTVSPost2010Prop51ColorRGB
 90
-16777216
102
RTVSPost2010PropOp51
 70
     0
102
RTVSPost2010Prop52
140
1.0
102
RTVSPost2010PropOp52
 70
     0
102
RTVSPost2010Prop53
 90
        2
102
RTVSPost2010PropOp53
 70
     1
102
RTVSPost2010Prop54
  1
strokes_ogs.tif
102
RTVSPost2010PropOp54
 70
     1
102
RTVSPost2010Prop55
280
     0
102
RTVSPost2010PropOp55
 70
     1
102
RTVSPost2010Prop56
140
1.0
102
RTVSPost2010PropOp56
 70
     1
102
RTVSPost2010Prop57
140
1.0
102
RTVSPost2010PropOp57
 70
     1
  0
ENDSEC
  0
SECTION
  2
THUMBNAILIMAGE
 90
    16364
310
28000000B4000000550000000100080000000000C43B000000000000000000000001000000010000FFFFFF000000FF0000FFFF0000FF0000FFFF0000FF000000FF00FF000000000080808000C0C0C0000000FF007F7FFF000000A5005252A50000007F003F3F7F0000004C0026264C000000260013132600003FFF007F9FFF
310
000029A5005267A500001F7F003F4F7F0000134C00262F4C000009260013172600007FFF007FBFFF000052A500527CA500003F7F003F5F7F0000264C0026394C0000132600131C260000BFFF007FDFFF00007CA5005291A500005F7F003F6F7F0000394C0026424C00001C26001321260000FFFF007FFFFF0000A5A50052A5
310
A500007F7F003F7F7F00004C4C00264C4C00002626001326260000FFBF007FFFDF0000A57C0052A59100007F5F003F7F6F00004C3900264C420000261C001326210000FF7F007FFFBF0000A5520052A57C00007F3F003F7F5F00004C2600264C39000026130013261C0000FF3F007FFF9F0000A5290052A56700007F1F003F
310
7F4F00004C1300264C2F00002609001326170000FF00007FFF7F0000A5000052A55200007F00003F7F3F00004C0000264C260000260000132613003FFF00009FFF7F0029A5000067A552001F7F00004F7F3F00134C00002F4C260009260000172613007FFF0000BFFF7F0052A500007CA552003F7F00005F7F3F00264C0000
310
394C2600132600001C261300BFFF0000DFFF7F007CA5000091A552005F7F00006F7F3F00394C0000424C26001C26000021261300FFFF0000FFFF7F00A5A50000A5A552007F7F00007F7F3F004C4C00004C4C26002626000026261300FFBF0000FFDF7F00A57C0000A59152007F5F00007F6F3F004C3900004C422600261C00
310
0026211300FF7F0000FFBF7F00A5520000A57C52007F3F00007F5F3F004C2600004C39260026130000261C1300FF3F0000FF9F7F00A5290000A56752007F1F00007F4F3F004C1300004C2F26002609000026171300FF000000FF7F7F00A5000000A55252007F0000007F3F3F004C0000004C2626002600000026131300FF00
310
3F00FF7F9F00A5002900A55267007F001F007F3F4F004C0013004C262F002600090026131700FF007F00FF7FBF00A5005200A5527C007F003F007F3F5F004C0026004C2639002600130026131C00FF00BF00FF7FDF00A5007C00A55291007F005F007F3F6F004C0039004C26420026001C0026132100FF00FF00FF7FFF00A5
310
00A500A552A5007F007F007F3F7F004C004C004C264C002600260026132600BF00FF00DF7FFF007C00A5009152A5005F007F006F3F7F0039004C0042264C001C002600211326007F00FF00BF7FFF005200A5007C52A5003F007F005F3F7F0026004C0039264C00130026001C1326003F00FF009F7FFF002900A5006752A500
310
1F007F004F3F7F0013004C002F264C000900260017132600000000002D2D2D005B5B5B0089898900B7B7B700B3B3B30000000000000000000000000000000000000000000000000000000000000000000000000000000000000000000000000000000000000000000000000000000000000000000000000000000000000000
310
00000000000000000000000000000000000000000000000000000000000000000000000000000000000000000000000000000000000000000000000000000000000000000000000000000000000000000000000000000000000000000000000000000000000000000000000000000000000000000000000000000000000000
310
00000000000000000000000000000000000000000000000000000000000000000000000000000000000000000000000000000000000000000000000000000000000000000000000000000000000000000000000000000000000000000000000000000000000000000000000000000000000000000000000000000000000000
310
00000000000000000000000000000000000000000000000000000000000000000000000000000000000000000000000000000000000000000000000000000000000000000000000000000000000000000000000000000000000000000000000000000000000000000000000000000000000000000000000000000000000000
310
00000000000000000000000000000000000000000000000000000000000000000000000000000000000000000000000000000000000000000000000000000000000000000000000000000000000000000000000000000000000000000000000000000000000000000000000000000000000000000000000000000000000000
310
00000000000000000000000000000000000000000000000000000000000000000000000000000000000000000000000000000000000000000000000000000000000000000000000000000000000000000000000000000000000000000000000000000000000000000000000000000000000000000000000000000000000000
310
00000000000000000000000000000000000000000000000000000000000000000000000000000000000000000000000000000000000000000000000000000000000000000000000000000000000000000000000000000000000000000000000000000000000000000000000000000000000000000000000000000000000000
310
00000000000000000000000000000000000000000000000000000000000000000000000000000000000000000000000000000000000000000000000000000000000000000000000000000000000000000000000000000000000000000000000000000000000000000000000000000000000000000000000000000000000000
310
00000000000000000000000000000000000000000000000000000000000000000000000000000000000000000000000000000000000000000000000000000000000000000000000000000000000000000000000000000000000000000000000000000000000000000000000000000000000000000000000000000000000000
310
00000000000000000000000000000000000000000000000000000000000000000000000000000000000000000000000000000000000000000000000000000000000000000000000000000000000000000000000000000000000000000000000000000000000000000000000000000000000000000000000000000000000000
310
00000000000000000000000000000000000000000000000000000000000000000000000000000000000000000000000000000000000000000000000000000000000000000000000000000000000000000000000000000000000000000000000000000000000000000000000000000000000000000000000000000000000000
310
00000000000000000000000000000000000000000000000000000000000000000000000000000000000000000000000000000000000000000000000000000000000000000000000000000000000000000000000000000000000000000000000000000000000000000000000000000000000000000000000000000000000000
310
00000000000000000000000000000000000000000000000000000000000000000000000000000000000000000000000000000000000000000000000000000000000000000000000000000000000000000000000000000000000000000000000000000000000000000000000000000000000000000000000000000000000000
310
00000000000000000000000000000000000000000000000000000000000000000000000000000000000000000000000000000000000000000000000000000000000000000000000000000000000000000000000000000000000000000000000000000000000000000000000000000000000000000000000000000000000000
310
00000000000000000000000000000000000000000000000000000000000000000000000000000000000000000000000000000000000000000000000000000000000000000000000000000000000000000000000000000000000000000000000000000000000000000000000000000000000000000000000000000000000000
310
00000000000000000000000000000000000000000000000000000000000000000000000000000000000000000000000000000000000000000000000000000000000000000000000000000000000000000000000000000000000000000000000000000000000000000000000000000000000000000000000000000000000000
310
00000000000000000000000000000000000000000000000000000000000000000000000000000000000000000000000000000000000000000000000000000000000000000000000000000000000000000000000000000000000000000000000000000000000000000000000000000000000000000000000000000000000000
310
00000000000000000000000000000000000000000000000000000000000000000000000000000000000000000000000000000000000000000000000000000000000000000000000000000000000000000000000000000000000000000000000000000000000000030303030303000000000100000000030303030303030000
310
00020202020000000000000303030303030303030303030300000000000000000000000000000000000000000000000000000000000000000000000000000000000000000000000000000000000000000000000000000000000000000000000000000000000000000000000000000000000000000000000000000000000000
310
00000000000000000000000000000000000000000000000000000000000300010000030303030303030303030303000100000300000002020202000000000000030100000000010000000301030000000000000000000000000000000000000000000000000000000000000000000000000000000000000000000000000000
310
00000000000000000000000000000000000000000000000000000000000000000000000000000000000000000000000000000000000000000000000000000000000000000000000000000000000000000003030303030303030303030403030303030303030303030000000000000000000000000003030303010303030303
310
03030300000000000000000000000000000000000000000000000000000000000000000000000000000000000000000000000000000000000000000000000000000000000000000000000000000000000000000000000000000000000000000000000000000000000000000000000000000000000000000000000000000000
310
00000000000000030100000003030300000001000000030303030000010303000000000000000000000000000303030101030300030300000000000000000000000000000000000000000000000000000000000000000000000000000000000000000000000000000000000000000000000000000000000000000000000000
310
00000000000000000000000000000000000000000000000000000000000000000000000000000000000000000000000000000000000000000000000003030000030300000000000100000000000300030003030303030300000000000000000000000303030301030003030000000000000000000000000000000000000000
310
00000000000000000000000000000000000000000000000000000000000000000000000000000000000000000000000000000000000000000000000000000000000000000000000000000000000000000000000000000000000000000000000000000000000000000000000000000000000303030101030101030303030303
310
03030101030101030303030303000000000000000000000303030303030300030300000000000000000000000000000000000000000000000000000000000000000000000000000000000000000000000000000000000000000000000000000000000000000000000000000000000000000000000000000000000000000000
310
00000000000000000000000000000000000000000000000000000000000000000000000000000003010303030303030100010303000000030303030301010103030300000000000000000000030303030303030003030000000000000000000000000000000000000000000000000000000000000000000000000000000000
310
00000000000000000000000000000000000000000000000000000000000000000000000000000000000000000000000000000000000000000000000000000000000000000000000000000000000000000000000000000000000000000303030300000003030303010000000000000000030303030000000000000000000000
310
00000303030103030300010303000000000000000000000000000000000000000000000000000000000000000000000000000000000000000000000000000000000000000000000000000000000000000000000000000000000000000000000000000000000000000000000000000000000000000000000000000000000000
310
00000000000000000000000000000000000000030303000103030303030300000001030000000303030000000000000000000000000001010103000001000003010100000000000000000000000000000000000000000000000000000000000000000000000000000000000000000000000000000000000000000000000000
310
00000000000000000000000000000000000000000000000000000000000000000000000000000000000000000000000000000000000000000000000000000000000000000000000003030000030303010003030303030103030000030303000000000000000000000000000101010300000100000301010303030303000000
310
00000303000000000000000000000000000000000000000000000000000000000000000000000000000000000000000000000000000000000000000000000000000000000000000000000000000000000000000000000000000000000000000000000000000000000000000000000000000000000000000000000000000303
310
00000303000100030303030301010303000303030000000000000000000000000000030303000001000003030300000000030000000003000103000000000000000000000000000000000000000000000000000000000000000000000000000000000000000000000000000000000000000000000000000000000000000000
310
00000000000000000000000000000000000000000000000000000000000000000000000000000000000000000000000000000103010101030301010101030301030101030101010103000000000000000000000000000003030301010101010303030101010103010000000101010101000000000000000000000000000000
310
00000000000000000000000000000000000000000000000000000000000000000000000000000000000000000000000000000000000000000000000000000000000000000000000000000000000000000000000000000000000000000000000000000000000000000303000003030301000103030301010103010003030300
310
00000000000000000000000000030303000001000003030303030303030000000000030300000000000000000000000000000000000000000000000000000000000000000000000000000000000000000000000000000000000000000000000000000000000000000000000000000000000000000000000000000000000000
310
00000000000000000000000000000000000000000000000000000000000003030300010303030303030003030103030000030303000000000000000000000000000101010300000100000301010000000000000000000000000000000000000000000000000000000000000000000000000000000000000000000000000000
310
00000000000000000000000000000000000000000000000000000000000000000000000000000000000000000000000000000000000000000000000000000000000000000000000000000000000000000000000303030000030303030301000003010300000003030300000000000000000000000000000303030000010000
310
01030300000000000000000000000000000000000000000000000000000000000000000000000000000000000000000000000000000000000000000000000000000000000000000000000000000000000000000000000000000000000000000000000000000000000000000000000000000000000000000000000000000000
310
00000000000000000003030303030303010000010000030103030303030003000000000000000000000000000000030300000100000303030000000000000000000000000000000000000000000000000000000000000000000000000000000000000000000000000000000000000000000000000000000000000000000000
310
00000000000000000000000000000000000000000000000000000000000000000000000000000000000000000000000000000000000000000000000000000303000300000000030303030300000000030303000300000000000000000000000000000003030000010000030300000000000000000000000000000000000000
310
00000000000000000000000000000000000000000000000000000000000000000000000000000000000000000000000000000000000000000000000000000000000000000000000000000000000000000000000000000000000000000000000000000000000000000000000000000000000000030003030300000000030303
310
03000000000303000300000000000000000000000000000000030300000100000303000000000000000000000000000000000000000000000000000000000000000000000000000000000000000000000000000000000000000000000000000000000000000000000000000000000000000000000000000000000000000000
310
00000000000000000000000000000000000000000000000000000000000000000000000000000000000300000003030000000303030300000003030000030000000000000000000000000000000003030000010000030300000000000000000000000000000000000000000000000000000000000000000000000000000000
310
00000000000000000000000000000000000000000000000000000000000000000000000000000000000000000000000000000000000000000000000000000000000000000000000000000000000000000000000000000000000000000000030000000003030300030303030003030300000003000000000000000000000000
310
00000000030300000100000303030000000000000000000000000000000000000000000000000000000000000000000000000000000000000000000000000000000000000000000000000000000000000000000000000000000000000000000000000000000000000000000000000000000000000000000000000000000000
310
00000000000000000000000000000000000000000003030301000303030303030303030303030303030000000000000000000000000000000003030000010000010303000000000000000000000000000000000000000000000000000000000000000000000000000000000000000000000000000000000000000000000000
310
00000000000000000000000000000000000000000000000000000000000000000000000000000000000000000000000000000000000000000000000000000000000000000000000000000000030303030303030303030303030000000000000000000000000000000000000000000303030303030303030000000000000000
310
00000000000000000000000000000000000000000000000000000000000000000000000000000000000000000000000000000000000000000000000000000000000000000000000000000000000000000000000000000000000000000000000000000000000000000000000000000000000000000000000000000000000000
310
00000000000000000003000000000000000000000000000000000000000000000000000000000001010100000000000000000000000000000000000000000000000000000000000000000000000000000000000000000000000000000000000000000000000000000000000000000000000000000000000000000000000000
310
00000000000000000000000000000000000000000000000000000000000000000000000000000000000000000000000000000000000000000000000000000300000000000000000000000000000000000000000000000000000000000303030000000000000000000000000000000000000000000000000000000000000000
310
00000000000000000000000000000000000000000000000000000000000000000000000000000000000000000000000000000000000000000000000000000000000000000000000000000000000000000000000000000000000000000000000000000000000000000000000000000000000000000000000000000000000000
310
00000000000000000000000000000000000000000000000000000000000000000000000000000000000000000000000000000000000000000000000000000000000000000000000000000000000000000000000000000000000000000000000000000000000000000000000000000000000000000000000000000000000000
310
00000000000000000000000000000000000000000000000000000000000000000000000000000000000000000000000000000000000000000000000000000000000000000000000000000000000000000000000000000000000000000000000000000000000000000000000000000000000000000000000000000000000000
310
00000000000000000000000000000000000000000000000000000000000000000000000000000000000000000000000000000000000000000000000000000000000000000000000000000000000000000000000000000000000000000000000000000000000000000000000000000000000000000000000000000000000000
310
00000000000000000000000000000000000000000000000000000000000000000000000000000000000000000000000000000000000000000000000000000000000000000000000000000000000000000000000000000000000000000000000000000000000000000000000000000000000000000000000000000000000000
310
00000000000000000000000000000000000000000000000000000000000000000000000000000000000000000000000000000000000000000000000000000000000000000000000000000000000000000000000000000000000000000000000000000000000000000000000000000000000000000000000000000000000000
310
00000000000000000000000000000000000000000000000000000000000000000000000000000000000000000000000000000000000000000000000000000000000000000000000000000000000000000000000000000000000000000000000000000000000000000000000000000000000000000000000000000000000000
310
00000000000000000000000000000000000000000000000000000000000000000000000000000000000000000000000000000000000000000000000000000000000000000000000000000000000000000000000000000000000000000000000000000000000000000000000000000000000000000000000000000000000000
310
00000000000000000000000000000000000000000000000000000000000000000000000000000000000000000000000000000000000000000000000000000000000000000000000000000000000000000000000000000000000000000000000000000000000000000000000000000000000000000000000000000000000000
310
00000000000000000000000000000000000000000000000000000000000000000000000000000000000003030303030300000001000000010000030303030303000000000000000000000000000000000000000000000000000000000000000000000000000000000000000000000000000000000000000000000000000000
310
00000000000000000000000000000000000000000000000000000000000000000000000000000000000000000000000000000000000000000000000000000000000000000000000000000000000000000000000000000000000000000000000301010103030303030303030303030303030301030300000000000000000000
310
00000000000000000000000000000000000000000000000000000000000000000000000000000000000000000000000000000000000000000000000000000000000000000000000000000000000000000000000000000000000000000000000000000000000000000000000000000000000000000000000000000000000000
310
00000000000000000000000000000000000000000303030303030303030303030303030303030303030303030000000000000000000000000000000000000000000000000000000000000000000000000000000000000000000000000000000000000000000000000000000000000000000000000000000000000000000000
310
00000000000000000000000000000000000000000000000000000000000000000000000000000000000000000000000000000000000000000000000000000000000000000000000000030303030303030303030303030303030303030303030303000000000000000000000000000000000000000000000000000000000000
310
00000000000000000000000000000000000000000000000000000000000000000000000000000000000000000000000000000000000000000000000000000000000000000000000000000000000000000000000000000000000000000000000000000000000000000000000000000000000000000000000000000000000001
310
03010101010101010101010101010101010101010103010101010000000000000000000000000000000000000000000000000000000000000000000000000000000000000000000000000000000000000000000000000000000000000000000000000000000000000000000000000000000000000000000000000000000000
310
00000000000000000000000000000000000000000000000000000000000000000000000000000000000000000000000000000000030300000003030001000001030000010000000000000303030303000000000000000000000000000000000000000000000000000000000000000000000000000000000000000000000000
310
00000000000000000000000000000000000000000000000000000000000000000000000000000000000000000000000000000000000000000000000000000000000000000000000000000000000000000000000000000000000000000000000000000000000000000001010101010101010101010101010101010101010101
310
01030000000000000000000000000000000000000000000000000000000000000000000000000000000000000000000000000000000000000000000000000000000000000000000000000000000000000000000000000000000000000000000000000000000000000000000000000000000000000000000000000000000000
310
00000000000000000000000000000000000000000000000000000000000000030300000003000001000001030000010000000000000300000000000000000000000000000000000000000000000000000000000000000000000000000000000000000000000000000000000000000000000000000000000000000000000000
310
00000000000000000000000000000000000000000000000000000000000000000000000000000000000000000000000000000000000000000000000000000000000000000000000000000000000000000000000000030000000000000100000100000001000000000000030000000000000000000000000000000000000000
310
00000000000000000000000000000000000000000000000000000000000000000000000000000000000000000000000000000000000000000000000000000000000000000000000000000000000000000000000000000000000000000000000000000000000000000000000000000000000000000000000000000000000000
310
00000000000000000000000301030103030301030303030301030303030103010300000000000000000000000000000000000000000000000000000000000000000000000000000000000000000000000000000000000000000000000000000000000000000000000000000000000000000000000000000000000000000000
310
00000000000000000000000000000000000000000000000000000000000000000000000000000000000000000000000000000000000000000000000000000000030103010303030103030103030103030303010301030000000000000000000000000000000000000000000000000000000000000000000000000000000000
310
00000000000000000000000000000000000000000000000000000000000000000000000000000000000000000000000000000000000000000000000000000000000000000000000000000000000000000000000000000000000000000000000000000000000000000000000000000000000000000003010101030303010303
310
01030303010303030101030300000000000000000000000000000000000000000000000000000000000000000000000000000000000000000000000000000000000000000000000000000000000000000000000000000000000000000000000000000000000000000000000000000000000000000000000000000000000000
310
00000000000000000000000000000000000000000000000000000000000000000000000000000000000000030303030303030103030000000000000303030303030000000000000000000000000000000000000000000000000000000000000000000000000000000000000000000000000000000000000000000000000000
310
00000000000000000000000000000000000000000000000000000000000000000000000000000000000000000000000000000000000000000000000000000000000000000000000000000000000000000000000000000000000000000000000000000000000003010303000000000000000000000000000000000000000000
310
00000000000000000000000000000000000000000000000000000000000000000000000000000000000000000000000000000000000000000000000000000000000000000000000000000000000000000000000000000000000000000000000000000000000000000000000000000000000000000000000000000000000000
310
00000000000000000000000000000000000000000000000000000000030103030000000000000000000000000000000000000000000000000000000000000000000000000000000000000000000000000000000000000000000000000000000000000000000000000000000000000000000000000000000000000000000000
310
00000000000000000000000000000000000000000000000000000000000000000000000000000000000000000000000000000000000000000000000000000000000000000000000000000000000000000003010303000000000000000000000000000000000000000000000000000000000000000000000000000000000000
310
00000000000000000000000000000000000000000000000000000000000000000000000000000000000000000000000000000000000000000000000000000000000000000000000000000000000000000000000000000000000000000000000000000000000000000000000000000000000000000000000000000000000000
310
00000000000000030103030000000000000000000000000000000000000000000000000000000000000000000000000000000000000000000000000000000000000000000000000000000000000000000000000000000000000000000000000000000000000000000000000000000000000000000000000000000000000000
310
00000000000000000000000000000000000000000000000000000000000000000000000000000000000000000000000000000000000000000000000000010000000000000000000000000000000000000000000000000000000000000000000000000000000000000000000000000000000000000000000000000000000000
310
00000000000000000000000000000000000000000000000000000000000000000000000000000000000000000000000000000000000000000000000000000000000000000000000000000000000000000000000000000000000000000000000000000000000000000000000000000000000000000000000000000000000000
310
00000000000000000000000000000000000000000000000000000000000000000000000000000000000000000000000000000000000000000000000000000000000000000000000000000000000000000000000000000000000000000000000000000000000000000000000000000000000000000000000000000000000000
310
00000000000000000000000000000000000000000000000000000000000000000000000000000000000000000000000000000000000000000000000000000000000000000000000000000000000000000000000000000000000000000000000000000000000000000000000000000000000000000000000000000000000000
310
00000000000000000000000000000000000000000000000000000000000000000000000000000000000000000000000000000000000000000000000000000000000000000000000000000000000000000000000000000000000000000000000000000000000000000000000000000000000000000000000000000000000000
310
00000000000000000000000000000000000000000000000000000000000000000000000000000000000000000000000000000000000000000000000000000000000000000000000000000000000000000000000000000000000000000000000000000000000000000000000000000000000000000000000000000000000000
310
00000000000000000000000000000000000000000000000000000000000000000000000000000000000000000000000000000000000000000000000000000000000000000000000000000000000000000000000000000000000000000000000000000000000000000000000000000000000000000000000000000000000000
310
00000000000000000000000000000000000000000000000000000000000000000000000000000000000000000000000000000000000000000000000000000000000000000000000000000000000000000000000000000000000000000000000000000000000000000000000000000000000000000000000000000000000000
310
00000000000000000000000000000000000000000000000000000000000000000000000000000000000000000000000000000000000000000000000000000000000000000000000000000000000000000000000000000000000000000000000000000000000000000000000000000000000000000000000000000000000000
310
00000000000000000000000000000000000000000000000000000000000000000000000000000000000000000000000000000000000000000000000000000000000000000000000000000000000000000000000000000000000000000000000000000000000000000000000000000000000000000000000000000000000000
310
00000000000000000000000000000000000000000000000000000000000000000000000000000000000000000000000000000000000000000000000000000000000000000000000000000000000000000000000000000000000000000000000000000000000000000000000000000000000000000000000000000000000000
310
00000000000000000000000000000000000000000000000000000000000000000000000000000000000000000000000000000000000000000000000000000000000000000000000000000000000000000000000000000000000000000000000000000000000000000000000000000000000000000000000000000000000000
310
00000000000000000000000000000000000000000000000000000000000000000000000000000000000000000000000000000000000000000000000000000000000000000000000000000000000000000000000000000000000000000000000000000000000000000000000000000000000000000000000000000000000000
310
00000000000000000000000000000000000000000000000000000000000000000000000000000000000000000000000000000000000000000000000000000000000000000000000000000000000000000000000000000000000000000000000000000000000000000000000000000000000000000000000000000000000000
310
00000000000000000000000000000000000000000000000000000000000000000000000000000000000000000000000000000000000000000000000000000000000000000000000000000000000000000000000000000000000000000000000000000000000000000000000000000000000000000000000000000000000000
310
00000000000000000000000000000000000000000000000000000000000000000000000000000000000000000000000000000000000000000000000000000000000000000000000000000000000000000000000000000000000000000000000000000000000000000000000000000000000000000000000000000000000000
310
00000000000000000000000000000000000000000000000000000000000000000000000000000000000000000000000000000000000000000000000000000000000000000000000000000000000000000000000000000000000000000000000000000000000000000000000000000000000000000000000000000000000000
310
00000000000000000000000000000000000000000000000000000000000000000000000000000000000000000000000000000000000000000000000000000000000000000000000000000000000000000000000000000000000000000000000000000000000000000000000000000000000000000000000000000000000000
310
00000000000000000000000000000000000000000000000000000000000000000000000000000000000000000000000000000000000000000000000000000000000000000000000000000000000000000000000000000000000000000000000000000000000000000000000000000000000000000000000000000000000000
310
00000000000000000000000000000000000000000000000000000000000000000000000000000000000000000000000000000000000000000000000000000000000000000000000000000000000000000000000000000000000000000000000000000000000000000000000000000000000000000000000000000000000000
310
00000000000000000000000000000000000000000000000000000000000000000000000000000000000000000000000000000000000000000000000000000000000000000000000000000000000000000000000000000000000000000000000000000000000000000000000000000000000000000000000000000000000000
310
00000000000000000000000000000000000000000000000000000000000000000000000000000000000000000000000000000000000000000000000000000000000000000000000000000000000000000000000000000000000000000000000000000000000000000000000000000000000000000000000000000000000000
310
00000000000000000000000000000000000000000000000000000000000000000000000000000000000000000000000000000000000000000000000000000000000000000000000000000000000000000000000000000000000000000000000000000000000000000000000000000000000000000000000000000000000000
310
00000000000000000000000000000000000000000000000000000000000000000000000000000000000000000000000000000000000000000000000000000000000000000000000000000000000000000000000000000000000000000000000000000000000000000000000000000000000000000000000000000000000000
310
00000000000000000000000000000000000000000000000000000000000000000000000000000000000000000000000000000000000000000000000000000000000000000000000000000000000000000000000000000000000000000000000000000000000000000000000000000000000000000000000000000000000000
310
00000000000000000000000000000000000000000000000000000000000000000000000000000000000000000000000000000000000000000000000000000000000000000000000000000000000000000000000000000000000000000000000000000000000000000000000000000000000000000000000000000000000000
310
00000000000000000000000000000000000000000000000000000000000000000000000000000000000000000000000000000000000000000000000000000000000000000000000000000000000000000000000000000000000000000000000000000000000000000000000000000000000000000000000000000000000000
310
00000000000000000000000000000000000000000000000000000000000000000000000000000000000000000000000000000000000000000000000000000000000000000000000000000000000000000000000000000000000000000000000000000000000000000000000000000000000000000000000000000000000000
310
00000000000000000000000000000000000000000000000000000000000000000000000000000000000000000000000000000000000000000000000000000000000000000000000000000000000000000000000000000000000000000000000000000000000000000000000000000000000000000000000000000000000000
310
00000000000000000000000000000000000000000000000000000000000000000000000000000000000000000000000000000000000000000000000000000000000000000000000000000000000000000000000000000000000000000000000000000000000000000000000000000000000000000000000000000000000000
310
00000000000000000000000000000000000000000000000000000000000000000000000000000000000000000000000000000000000000000000000000000000000000000000000000000000000000000000000000000000000000000000000000000000000000000000000000000000000000000000000000000000000000
310
00000000000000000000000000000000000000000000000000000000000000000000000000000000000000000000000000000000000000000000000000000000000000000000000000000000000000000000000000000000000000000000000000000000000000000000000000000000000000000000000000000000000000
310
00000000000000000000000000000000000000000000000000000000000000000000000000000000000000000000000000000000000000000000000000000000000000000000000000000000000000000000000000000000000000000000000000000000000000000000000000000000000000000000000000000000000000
310
00000000000000000000000000000000000000000000000000000000000000000000000000000000000000000000000000000000000000000000000000000000000000000000000000000000000000000000000000000000000000000000000000000000000000000000000000000000000000000000000000000000000000
310
00000000000000000000000000000000000000000000000000000000000000000000000000000000000000000000000000000000000000000000000000000000000000000000000000000000000000000000000000000000000000000000000000000000000000000000000000000000000000000000000000000000000000
310
00000000000000000000000000000000000000000000000000000000000000000000000000000000000000000000000000000000000000000000000000000000000000000000000000000000000000000000000000000000000000000000000000000000000000000000000000000000000000000000000000000000000000
310
000000000000000000000000000000000000000000000000000000000000000000000000000000000000000000000000000000000000000000000000000000000000000000000000000000000000000000000000000000000000000000000000000000000000000000000000
  0
ENDSEC
  0
EOF
