  0
SECTION
  2
HEADER
  9
$ACADVER
  1
AC1015
  9
$ACADMAINTVER
 70
     6
  9
$DWGCODEPAGE
  3
ANSI_932
  9
$INSBASE
 10
452.4340339944167
 20
1485.490264293136
 30
0.0
  9
$EXTMIN
 10
278.8771499125869
 20
9.685457272414055
 30
0.0
  9
$EXTMAX
 10
1719.266144780301
 20
1399.814374021877
 30
0.0
  9
$LIMMIN
 10
0.0
 20
0.0
  9
$LIMMAX
 10
816.5000000000001
 20
565.0
  9
$ORTHOMODE
 70
     1
  9
$REGENMODE
 70
     1
  9
$FILLMODE
 70
     1
  9
$QTEXTMODE
 70
     0
  9
$MIRRTEXT
 70
     1
  9
$LTSCALE
 40
20.0
  9
$ATTMODE
 70
     1
  9
$TEXTSIZE
 40
15.0
  9
$TRACEWID
 40
0.05
  9
$TEXTSTYLE
  7
KANJI
  9
$CLAYER
  8
2
  9
$CELTYPE
  6
BYLAYER
  9
$CECOLOR
 62
   256
  9
$CELTSCALE
 40
1.0
  9
$DISPSILH
 70
     0
  9
$DIMSCALE
 40
5.0
  9
$DIMASZ
 40
2.0
  9
$DIMEXO
 40
0.5
  9
$DIMDLI
 40
0.0
  9
$DIMRND
 40
0.0
  9
$DIMDLE
 40
0.0
  9
$DIMEXE
 40
1.0
  9
$DIMTP
 40
0.0
  9
$DIMTM
 40
0.0
  9
$DIMTXT
 40
3.0
  9
$DIMCEN
 40
0.09
  9
$DIMTSZ
 40
0.0
  9
$DIMTOL
 70
     0
  9
$DIMLIM
 70
     0
  9
$DIMTIH
 70
     0
  9
$DIMTOH
 70
     0
  9
$DIMSE1
 70
     0
  9
$DIMSE2
 70
     0
  9
$DIMTAD
 70
     0
  9
$DIMZIN
 70
     8
  9
$DIMBLK
  1

  9
$DIMASO
 70
     0
  9
$DIMSHO
 70
     0
  9
$DIMPOST
  1

  9
$DIMAPOST
  1

  9
$DIMALT
 70
     0
  9
$DIMALTD
 70
     2
  9
$DIMALTF
 40
25.4
  9
$DIMLFAC
 40
1.0
  9
$DIMTOFL
 70
     1
  9
$DIMTVP
 40
1.0
  9
$DIMTIX
 70
     1
  9
$DIMSOXD
 70
     1
  9
$DIMSAH
 70
     0
  9
$DIMBLK1
  1

  9
$DIMBLK2
  1

  9
$DIMSTYLE
  2
STANDARD
  9
$DIMCLRD
 70
   256
  9
$DIMCLRE
 70
   256
  9
$DIMCLRT
 70
   256
  9
$DIMTFAC
 40
1.0
  9
$DIMGAP
 40
0.09
  9
$DIMJUST
 70
     0
  9
$DIMSD1
 70
     0
  9
$DIMSD2
 70
     0
  9
$DIMTOLJ
 70
     1
  9
$DIMTZIN
 70
     0
  9
$DIMALTZ
 70
     0
  9
$DIMALTTZ
 70
     0
  9
$DIMUPT
 70
     0
  9
$DIMDEC
 70
     1
  9
$DIMTDEC
 70
     4
  9
$DIMALTU
 70
     2
  9
$DIMALTTD
 70
     2
  9
$DIMTXSTY
  7
STANDARD
  9
$DIMAUNIT
 70
     0
  9
$DIMADEC
 70
     0
  9
$DIMALTRND
 40
0.0
  9
$DIMAZIN
 70
     0
  9
$DIMDSEP
 70
    46
  9
$DIMATFIT
 70
     3
  9
$DIMFRAC
 70
     0
  9
$DIMLDRBLK
  1

  9
$DIMLUNIT
 70
     2
  9
$DIMLWD
 70
    -2
  9
$DIMLWE
 70
    -2
  9
$DIMTMOVE
 70
     0
  9
$LUNITS
 70
     2
  9
$LUPREC
 70
     3
  9
$SKETCHINC
 40
0.1
  9
$FILLETRAD
 40
1.0
  9
$AUNITS
 70
     0
  9
$AUPREC
 70
     3
  9
$MENU
  1
C:\R13\WIN\SUPPORT\ACADFULL
  9
$ELEVATION
 40
0.0
  9
$PELEVATION
 40
0.0
  9
$THICKNESS
 40
0.0
  9
$LIMCHECK
 70
     0
  9
$CHAMFERA
 40
0.0
  9
$CHAMFERB
 40
0.0
  9
$CHAMFERC
 40
0.0
  9
$CHAMFERD
 40
0.0
  9
$SKPOLY
 70
     0
  9
$TDCREATE
 40
2457463.825045764
  9
$TDUCREATE
 40
2457463.450045764
  9
$TDUPDATE
 40
2458110.579595301
  9
$TDUUPDATE
 40
2458110.204595301
  9
$TDINDWG
 40
0.0099789468
  9
$TDUSRTIMER
 40
0.0099785069
  9
$USRTIMER
 70
     1
  9
$ANGBASE
 50
0.0
  9
$ANGDIR
 70
     0
  9
$PDMODE
 70
     0
  9
$PDSIZE
 40
0.0
  9
$PLINEWID
 40
0.0
  9
$SPLFRAME
 70
     0
  9
$SPLINETYPE
 70
     6
  9
$SPLINESEGS
 70
     8
  9
$HANDSEED
  5
6D1
  9
$SURFTAB1
 70
     6
  9
$SURFTAB2
 70
     6
  9
$SURFTYPE
 70
     6
  9
$SURFU
 70
     6
  9
$SURFV
 70
     6
  9
$UCSBASE
  2

  9
$UCSNAME
  2

  9
$UCSORG
 10
0.0
 20
0.0
 30
0.0
  9
$UCSXDIR
 10
1.0
 20
0.0
 30
0.0
  9
$UCSYDIR
 10
0.0
 20
1.0
 30
0.0
  9
$UCSORTHOREF
  2

  9
$UCSORTHOVIEW
 70
     0
  9
$UCSORGTOP
 10
0.0
 20
0.0
 30
0.0
  9
$UCSORGBOTTOM
 10
0.0
 20
0.0
 30
0.0
  9
$UCSORGLEFT
 10
0.0
 20
0.0
 30
0.0
  9
$UCSORGRIGHT
 10
0.0
 20
0.0
 30
0.0
  9
$UCSORGFRONT
 10
0.0
 20
0.0
 30
0.0
  9
$UCSORGBACK
 10
0.0
 20
0.0
 30
0.0
  9
$PUCSBASE
  2

  9
$PUCSNAME
  2

  9
$PUCSORG
 10
0.0
 20
0.0
 30
0.0
  9
$PUCSXDIR
 10
1.0
 20
0.0
 30
0.0
  9
$PUCSYDIR
 10
0.0
 20
1.0
 30
0.0
  9
$PUCSORTHOREF
  2

  9
$PUCSORTHOVIEW
 70
     0
  9
$PUCSORGTOP
 10
0.0
 20
0.0
 30
0.0
  9
$PUCSORGBOTTOM
 10
0.0
 20
0.0
 30
0.0
  9
$PUCSORGLEFT
 10
0.0
 20
0.0
 30
0.0
  9
$PUCSORGRIGHT
 10
0.0
 20
0.0
 30
0.0
  9
$PUCSORGFRONT
 10
0.0
 20
0.0
 30
0.0
  9
$PUCSORGBACK
 10
0.0
 20
0.0
 30
0.0
  9
$USERI1
 70
     0
  9
$USERI2
 70
     0
  9
$USERI3
 70
     0
  9
$USERI4
 70
     0
  9
$USERI5
 70
     0
  9
$USERR1
 40
0.0
  9
$USERR2
 40
0.0
  9
$USERR3
 40
0.0
  9
$USERR4
 40
2448925.372986111
  9
$USERR5
 40
0.04166667
  9
$WORLDVIEW
 70
     1
  9
$SHADEDGE
 70
     3
  9
$SHADEDIF
 70
    70
  9
$TILEMODE
 70
     1
  9
$MAXACTVP
 70
    16
  9
$PINSBASE
 10
0.0
 20
0.0
 30
0.0
  9
$PLIMCHECK
 70
     0
  9
$PEXTMIN
 10
1000000000000000E+20
 20
1000000000000000E+20
 30
1000000000000000E+20
  9
$PEXTMAX
 10
-1000000000000000E+20
 20
-1000000000000000E+20
 30
-1000000000000000E+20
  9
$PLIMMIN
 10
0.0
 20
0.0
  9
$PLIMMAX
 10
12.0
 20
9.0
  9
$UNITMODE
 70
     0
  9
$VISRETAIN
 70
     0
  9
$PLINEGEN
 70
     0
  9
$PSLTSCALE
 70
     0
  9
$TREEDEPTH
 70
  3020
  9
$CMLSTYLE
  2
STANDARD
  9
$CMLJUST
 70
     0
  9
$CMLSCALE
 40
1.0
  9
$PROXYGRAPHICS
 70
     1
  9
$MEASUREMENT
 70
     0
  9
$CELWEIGHT
370
    -1
  9
$ENDCAPS
280
     0
  9
$JOINSTYLE
280
     0
  9
$LWDISPLAY
290
     0
  9
$INSUNITS
 70
     0
  9
$HYPERLINKBASE
  1

  9
$STYLESHEET
  1
monochrome.ctb
  9
$XEDIT
290
     1
  9
$CEPSNTYPE
380
     0
  9
$PSTYLEMODE
290
     1
  9
$FINGERPRINTGUID
  2
{F7DCB3A0-E639-4E5D-89FB-EA2949E275C8}
  9
$VERSIONGUID
  2
{B17F6FE8-24A1-4F51-A23E-7742086EBE7D}
  9
$EXTNAMES
290
     1
  9
$PSVPSCALE
 40
0.0
  9
$OLESTARTUP
290
     0
  0
ENDSEC
  0
SECTION
  2
CLASSES
  0
CLASS
  1
ACDBDICTIONARYWDFLT
  2
AcDbDictionaryWithDefault
  3
ObjectDBX Classes
 90
        0
280
     0
281
     0
  0
CLASS
  1
MATERIAL
  2
AcDbMaterial
  3
ObjectDBX Classes
 90
     1153
280
     0
281
     0
  0
CLASS
  1
SORTENTSTABLE
  2
AcDbSortentsTable
  3
ObjectDBX Classes
 90
        0
280
     0
281
     0
  0
CLASS
  1
VISUALSTYLE
  2
AcDbVisualStyle
  3
ObjectDBX Classes
 90
     4095
280
     0
281
     0
  0
CLASS
  1
SCALE
  2
AcDbScale
  3
ObjectDBX Classes
 90
     1153
280
     0
281
     0
  0
CLASS
  1
DICTIONARYVAR
  2
AcDbDictionaryVar
  3
ObjectDBX Classes
 90
        0
280
     0
281
     0
  0
CLASS
  1
MLEADERSTYLE
  2
AcDbMLeaderStyle
  3
ACDB_MLEADERSTYLE_CLASS
 90
     4095
280
     0
281
     0
  0
CLASS
  1
ACDBPLACEHOLDER
  2
AcDbPlaceHolder
  3
ObjectDBX Classes
 90
        0
280
     0
281
     0
  0
CLASS
  1
LAYOUT
  2
AcDbLayout
  3
ObjectDBX Classes
 90
        0
280
     0
281
     0
  0
ENDSEC
  0
SECTION
  2
TABLES
  0
TABLE
  2
VPORT
  5
2C
102
{ACAD_XDICTIONARY
360
696
102
}
330
0
100
AcDbSymbolTable
 70
     1
  0
VPORT
  5
33
330
2C
100
AcDbSymbolTableRecord
100
AcDbViewportTableRecord
  2
*Active
 70
     0
 10
0.0
 20
0.0
 11
1.0
 21
1.0
 12
1230.210507019093
 22
637.8057001182071
 13
0.0
 23
0.0
 14
1.0
 24
1.0
 15
50.0
 25
50.0
 16
0.0
 26
0.0
 36
1.0
 17
0.0
 27
0.0
 37
0.0
 40
1665.067907777128
 41
1.827160493827161
 42
50.0
 43
0.0
 44
0.0
 50
0.0
 51
0.0
 71
     0
 72
  5000
 73
     1
 74
     0
 75
     0
 76
     0
 77
     0
 78
     0
281
     0
 65
     1
110
0.0
120
0.0
130
0.0
111
1.0
121
0.0
131
0.0
112
0.0
122
1.0
132
0.0
 79
     0
146
0.0
1001
ACAD_NAV_VCDISPLAY
1070
     3
  0
ENDTAB
  0
TABLE
  2
LTYPE
  5
F
330
0
100
AcDbSymbolTable
 70
     2
  0
LTYPE
  5
10
330
F
100
AcDbSymbolTableRecord
100
AcDbLinetypeTableRecord
  2
BYBLOCK
 70
     0
  3

 72
    65
 73
     0
 40
0.0
  0
LTYPE
  5
11
330
F
100
AcDbSymbolTableRecord
100
AcDbLinetypeTableRecord
  2
BYLAYER
 70
     0
  3

 72
    65
 73
     0
 40
0.0
  0
LTYPE
  5
E
330
F
100
AcDbSymbolTableRecord
100
AcDbLinetypeTableRecord
  2
CONTINUOUS
 70
     0
  3
Solid line
 72
    65
 73
     0
 40
0.0
  0
LTYPE
  5
CB
330
F
100
AcDbSymbolTableRecord
100
AcDbLinetypeTableRecord
  2
CENTER
 70
     0
  3
____ _ ____ _ ____ _ ____ _ ____ _ ____ _ ____
 72
    65
 73
     4
 40
2.0
 49
1.25
 74
     0
 49
-0.25
 74
     0
 49
0.25
 74
     0
 49
-0.25
 74
     0
  0
ENDTAB
  0
TABLE
  2
LAYER
  5
2
102
{ACAD_XDICTIONARY
360
3
102
}
330
0
100
AcDbSymbolTable
 70
     8
  0
LAYER
  5
1F
102
{ACAD_XDICTIONARY
360
20
102
}
330
2
100
AcDbSymbolTableRecord
100
AcDbLayerTableRecord
  2
0
 70
     0
 62
     7
  6
CONTINUOUS
370
    -3
390
7
  0
LAYER
  5
546
102
{ACAD_XDICTIONARY
360
547
102
}
330
2
100
AcDbSymbolTableRecord
100
AcDbLayerTableRecord
  2
1
 70
     0
 62
     9
  6
CONTINUOUS
370
    -3
390
7
  0
LAYER
  5
1
102
{ACAD_XDICTIONARY
360
5
102
}
330
2
100
AcDbSymbolTableRecord
100
AcDbLayerTableRecord
  2
2
 70
     0
 62
     4
  6
CONTINUOUS
370
    -3
390
7
  0
LAYER
  5
139
102
{ACAD_XDICTIONARY
360
13A
102
}
330
2
100
AcDbSymbolTableRecord
100
AcDbLayerTableRecord
  2
4
 70
     0
 62
     3
  6
CONTINUOUS
370
    -3
390
7
  0
LAYER
  5
C8
102
{ACAD_XDICTIONARY
360
C9
102
}
330
2
100
AcDbSymbolTableRecord
100
AcDbLayerTableRecord
  2
L-CENTER
 70
     0
 62
     1
  6
CENTER
370
    -3
390
7
  0
LAYER
  5
5B
102
{ACAD_XDICTIONARY
360
5C
102
}
330
2
100
AcDbSymbolTableRecord
100
AcDbLayerTableRecord
  2
3
 70
     0
 62
     2
  6
CONTINUOUS
370
    -3
390
7
  0
LAYER
  5
5FA
330
2
100
AcDbSymbolTableRecord
100
AcDbLayerTableRecord
  2
5
 70
     0
 62
     6
  6
CONTINUOUS
370
    -3
390
7
  0
LAYER
  5
659
330
2
100
AcDbSymbolTableRecord
100
AcDbLayerTableRecord
  2
Defpoints
 70
     0
 62
     7
  6
CONTINUOUS
290
     0
370
    -3
390
7
  0
ENDTAB
  0
TABLE
  2
STYLE
  5
13
330
0
100
AcDbSymbolTable
 70
     2
  0
STYLE
  5
17
330
13
100
AcDbSymbolTableRecord
100
AcDbTextStyleTableRecord
  2
STANDARD
 70
     0
 40
0.0
 41
1.0
 50
0.0
 71
     0
 42
9.0
  3
TXT
  4

  0
STYLE
  5
12
330
13
100
AcDbSymbolTableRecord
100
AcDbTextStyleTableRecord
  2
KANJI
 70
     0
 40
0.0
 41
1.0
 50
0.0
 71
     0
 42
15.0
  3
TXT
  4
BIGFONT
  0
ENDTAB
  0
TABLE
  2
VIEW
  5
2A
330
0
100
AcDbSymbolTable
 70
     0
  0
ENDTAB
  0
TABLE
  2
UCS
  5
2B
330
0
100
AcDbSymbolTable
 70
     0
  0
ENDTAB
  0
TABLE
  2
APPID
  5
D
330
0
100
AcDbSymbolTable
 70
     4
  0
APPID
  5
C
330
D
100
AcDbSymbolTableRecord
100
AcDbRegAppTableRecord
  2
ACAD
 70
     0
  0
APPID
  5
34
330
D
100
AcDbSymbolTableRecord
100
AcDbRegAppTableRecord
  2
ACAD_NAV_VCDISPLAY
 70
     0
  0
APPID
  5
25
330
D
100
AcDbSymbolTableRecord
100
AcDbRegAppTableRecord
  2
ACAD_PSEXT
 70
     0
  0
APPID
  5
688
330
D
100
AcDbSymbolTableRecord
100
AcDbRegAppTableRecord
  2
ACAD_MLEADERVER
 70
     0
  0
ENDTAB
  0
TABLE
  2
DIMSTYLE
  5
16
330
0
100
AcDbSymbolTable
 70
     1
100
AcDbDimStyleTable
  0
DIMSTYLE
105
15
330
16
100
AcDbSymbolTableRecord
100
AcDbDimStyleTableRecord
  2
STANDARD
 70
     0
178
     0
340
17
  0
ENDTAB
  0
TABLE
  2
BLOCK_RECORD
  5
1A
330
0
100
AcDbSymbolTable
 70
     0
  0
BLOCK_RECORD
  5
1B
102
{ACAD_XDICTIONARY
360
1C
102
}
330
1A
100
AcDbSymbolTableRecord
100
AcDbBlockTableRecord
  2
*MODEL_SPACE
340
23
  0
BLOCK_RECORD
  5
26
330
1A
100
AcDbSymbolTableRecord
100
AcDbBlockTableRecord
  2
*PAPER_SPACE
340
29
  0
ENDTAB
  0
ENDSEC
  0
SECTION
  2
BLOCKS
  0
BLOCK
  5
1E
330
1B
100
AcDbEntity
  8
0
100
AcDbBlockBegin
  2
*MODEL_SPACE
 70
     0
 10
0.0
 20
0.0
 30
0.0
  3
*MODEL_SPACE
  1

  0
ENDBLK
  5
22
330
1B
100
AcDbEntity
  8
0
100
AcDbBlockEnd
  0
BLOCK
  5
27
330
26
100
AcDbEntity
 67
     1
  8
0
100
AcDbBlockBegin
  2
*PAPER_SPACE
 70
     0
 10
0.0
 20
0.0
 30
0.0
  3
*PAPER_SPACE
  1

  0
ENDBLK
  5
28
330
26
100
AcDbEntity
 67
     1
  8
0
100
AcDbBlockEnd
  0
ENDSEC
  0
SECTION
  2
ENTITIES
  0
LINE
  5
138
330
1B
100
AcDbEntity
  8
4
100
AcDbLine
 10
301.2451281671683
 20
218.2727767177652
 30
0.0
 11
301.2451281671683
 21
93.27277671776517
 31
0.0
  0
LINE
  5
13C
330
1B
100
AcDbEntity
  8
4
100
AcDbLine
 10
291.2451281671683
 20
218.2727767177652
 30
0.0
 11
291.2451281671683
 21
93.27277671776517
 31
0.0
  0
LINE
  5
13D
330
1B
100
AcDbEntity
  8
4
100
AcDbLine
 10
306.2451281671683
 20
25.77302171776489
 30
0.0
 11
306.2451281671683
 21
316.7727767177652
 31
0.0
  0
ARC
  5
13E
330
1B
100
AcDbEntity
  8
4
100
AcDbCircle
 10
596.2451281671683
 20
316.7727767177652
 30
0.0
 40
274.999965
100
AcDbArc
 50
334.3043689999886
 51
205.6966329999939
  0
ARC
  5
13F
330
1B
100
AcDbEntity
  8
4
100
AcDbCircle
 10
596.2451281671683
 20
316.7727767177652
 30
0.0
 40
245.000035
100
AcDbArc
 50
273.9718390000004
 51
266.029133000001
  0
LINE
  5
140
330
1B
100
AcDbEntity
  8
L-CENTER
100
AcDbLine
 10
596.2451281671683
 20
665.3453617177652
 30
0.0
 11
596.2451281671682
 21
23.41672538300872
 31
0.0
  0
ARC
  5
141
330
1B
100
AcDbEntity
  8
4
100
AcDbCircle
 10
596.2451281671683
 20
316.7727767177652
 30
0.0
 40
274.999985
100
AcDbArc
 50
227.5024710000116
 51
267.1299410000008
  0
LINE
  5
142
330
1B
100
AcDbEntity
  8
4
100
AcDbLine
 10
319.2451281671683
 20
65.77302171776489
 30
0.0
 11
319.2451281671683
 21
155.7727767177652
 31
0.0
  0
ARC
  5
143
330
1B
100
AcDbEntity
  8
4
100
AcDbCircle
 10
596.2451281671683
 20
316.7727767177652
 30
0.0
 40
275.00006
100
AcDbArc
 50
272.8711280000014
 51
312.4985389999928
  0
LINE
  5
144
330
1B
100
AcDbEntity
  8
4
100
AcDbLine
 10
873.2451281671683
 20
65.77302171776489
 30
0.0
 11
873.2451281671683
 21
155.7727767177652
 31
0.0
  0
LINE
  5
145
330
1B
100
AcDbEntity
  8
4
100
AcDbLine
 10
891.2451281671683
 20
218.2727767177652
 30
0.0
 11
891.2451281671683
 21
93.27277671776517
 31
0.0
  0
LINE
  5
146
330
1B
100
AcDbEntity
  8
4
100
AcDbLine
 10
901.2451281671683
 20
218.2727767177652
 30
0.0
 11
901.2451281671683
 21
93.27277671776517
 31
0.0
  0
LINE
  5
147
330
1B
100
AcDbEntity
  8
4
100
AcDbLine
 10
886.2451281671683
 20
25.77302171776489
 30
0.0
 11
886.2451281671683
 21
316.7727767177652
 31
0.0
  0
LINE
  5
14A
330
1B
100
AcDbEntity
  8
4
100
AcDbLine
 10
456.2451281671683
 20
25.77302171776489
 30
0.0
 11
306.2451281671683
 21
25.77302171776489
 31
0.0
  0
LINE
  5
14B
330
1B
100
AcDbEntity
  8
4
100
AcDbLine
 10
309.2451281671683
 20
60.77302171776489
 30
0.0
 11
453.2451281671683
 21
60.77302171776489
 31
0.0
  0
LINE
  5
14C
330
1B
100
AcDbEntity
  8
4
100
AcDbLine
 10
319.2451281671683
 20
93.27277671776517
 30
0.0
 11
436.0178331671683
 21
93.27277671776517
 31
0.0
  0
LINE
  5
14D
330
1B
100
AcDbEntity
  8
4
100
AcDbLine
 10
319.2451281671683
 20
90.77277671776517
 30
0.0
 11
439.5639781671683
 21
90.77277671776517
 31
0.0
  0
ARC
  5
16A
330
1B
100
AcDbEntity
  8
4
100
AcDbCircle
 10
303.7451281671683
 20
90.77277671776517
 30
0.0
 40
2.5
100
AcDbArc
 50
0.0
 51
90.0
  0
LINE
  5
16B
330
1B
100
AcDbEntity
  8
4
100
AcDbLine
 10
291.2451281671683
 20
93.27277671776517
 30
0.0
 11
303.7451281671683
 21
93.27277671776517
 31
0.0
  0
LINE
  5
16C
330
1B
100
AcDbEntity
  8
L-CENTER
100
AcDbLine
 10
371.2451281671683
 20
10.77302171776489
 30
0.0
 11
371.2451281671683
 21
75.77302171776489
 31
0.0
  0
ARC
  5
16D
330
1B
100
AcDbEntity
  8
4
100
AcDbCircle
 10
309.2451281671683
 20
57.77302171776489
 30
0.0
 40
3.0
100
AcDbArc
 50
90.0
 51
180.0
  0
ARC
  5
16E
330
1B
100
AcDbEntity
  8
4
100
AcDbCircle
 10
324.2451281671683
 20
65.77302171776489
 30
0.0
 40
5.0
100
AcDbArc
 50
180.0
 51
270.0
  0
LINE
  5
177
330
1B
100
AcDbEntity
  8
4
100
AcDbLine
 10
736.2451281671683
 20
25.77302171776489
 30
0.0
 11
886.2451281671683
 21
25.77302171776489
 31
0.0
  0
LINE
  5
178
330
1B
100
AcDbEntity
  8
4
100
AcDbLine
 10
883.2451281671683
 20
60.77302171776489
 30
0.0
 11
739.2451281671683
 21
60.77302171776489
 31
0.0
  0
LINE
  5
195
330
1B
100
AcDbEntity
  8
4
100
AcDbLine
 10
462.2451281671683
 20
35.77302171776489
 30
0.0
 11
596.2451281671683
 21
35.77302171776489
 31
0.0
  0
LINE
  5
196
330
1B
100
AcDbEntity
  8
4
100
AcDbLine
 10
436.2451281671683
 20
57.77302171776489
 30
0.0
 11
436.2451281671683
 21
25.77302171776489
 31
0.0
  0
LINE
  5
197
330
1B
100
AcDbEntity
  8
4
100
AcDbLine
 10
456.2451281671683
 20
57.77302171776489
 30
0.0
 11
456.2451281671683
 21
25.77302171776489
 31
0.0
  0
ARC
  5
198
330
1B
100
AcDbEntity
  8
4
100
AcDbCircle
 10
462.2451281671683
 20
29.77302171776489
 30
0.0
 40
6.0
100
AcDbArc
 50
90.0
 51
180.0
  0
ARC
  5
199
330
1B
100
AcDbEntity
  8
4
100
AcDbCircle
 10
433.2451281671683
 20
57.77302171776489
 30
0.0
 40
3.0
100
AcDbArc
 50
0.0
 51
90.0
  0
ARC
  5
19A
330
1B
100
AcDbEntity
  8
4
100
AcDbCircle
 10
453.2451281671683
 20
57.77302171776489
 30
0.0
 40
3.0
100
AcDbArc
 50
0.0
 51
90.0
  0
LINE
  5
19B
330
1B
100
AcDbEntity
  8
4
100
AcDbLine
 10
730.2451281671683
 20
35.77302171776489
 30
0.0
 11
596.2451281671683
 21
35.77302171776489
 31
0.0
  0
ARC
  5
19C
330
1B
100
AcDbEntity
  8
4
100
AcDbCircle
 10
596.2451281671683
 20
61.77302171776489
 30
0.0
 40
24.00005
100
AcDbArc
 50
234.9815279999957
 51
305.0192840000062
  0
ARC
  5
19D
330
1B
100
AcDbEntity
  8
4
100
AcDbCircle
 10
596.2451281671683
 20
61.77302171776489
 30
0.0
 40
20.000075
100
AcDbArc
 50
31.96512499999997
 51
148.0354680000138
  0
CIRCLE
  5
19E
330
1B
100
AcDbEntity
  8
4
100
AcDbCircle
 10
596.2451281671683
 20
61.77302171776489
 30
0.0
 40
9.331055000000001
  0
CIRCLE
  5
19F
330
1B
100
AcDbEntity
  8
2
100
AcDbCircle
 10
596.2451281671683
 20
61.77302171776489
 30
0.0
 40
8.331055000000001
  0
LINE
  5
1A0
330
1B
100
AcDbEntity
  8
4
100
AcDbLine
 10
590.0302531671683
 20
58.18479171776505
 30
0.0
 11
596.2451281671683
 21
54.59666171776541
 31
0.0
  0
LINE
  5
1A1
330
1B
100
AcDbEntity
  8
4
100
AcDbLine
 10
596.2451281671683
 20
68.9493767177654
 30
0.0
 11
590.0302531671683
 21
65.36125171776519
 31
0.0
  0
LINE
  5
1A2
330
1B
100
AcDbEntity
  8
L-CENTER
100
AcDbLine
 10
615.6463084336192
 20
61.77302171776489
 30
0.0
 11
576.8439479007172
 21
61.77302171776489
 31
0.0
  0
LINE
  5
1A3
330
1B
100
AcDbEntity
  8
4
100
AcDbLine
 10
590.0302531671683
 20
65.36125171776519
 30
0.0
 11
590.0302531671683
 21
58.18479171776505
 31
0.0
  0
LINE
  5
1A4
330
1B
100
AcDbEntity
  8
4
100
AcDbLine
 10
602.4600031671683
 20
65.36125171776519
 30
0.0
 11
602.4600031671683
 21
58.18479171776505
 31
0.0
  0
LINE
  5
1A5
330
1B
100
AcDbEntity
  8
4
100
AcDbLine
 10
602.4600031671683
 20
58.18479171776505
 30
0.0
 11
596.2451281671683
 21
54.59666171776541
 31
0.0
  0
LINE
  5
1A6
330
1B
100
AcDbEntity
  8
4
100
AcDbLine
 10
596.2451281671683
 20
68.9493767177654
 30
0.0
 11
602.4600031671683
 21
65.36125171776519
 31
0.0
  0
LINE
  5
1A7
330
1B
100
AcDbEntity
  8
4
100
AcDbLine
 10
736.2451281671683
 20
57.77302171776489
 30
0.0
 11
736.2451281671683
 21
25.77302171776489
 31
0.0
  0
ARC
  5
1A8
330
1B
100
AcDbEntity
  8
4
100
AcDbCircle
 10
730.2451281671683
 20
29.77302171776489
 30
0.0
 40
6.0
100
AcDbArc
 50
0.0
 51
90.0
  0
ARC
  5
1A9
330
1B
100
AcDbEntity
  8
4
100
AcDbCircle
 10
739.2451281671683
 20
57.77302171776489
 30
0.0
 40
3.0
100
AcDbArc
 50
90.0
 51
180.0
  0
LINE
  5
1AA
330
1B
100
AcDbEntity
  8
4
100
AcDbLine
 10
873.2451281671683
 20
90.77277671776517
 30
0.0
 11
752.9262831671683
 21
90.77277671776517
 31
0.0
  0
LINE
  5
1AB
330
1B
100
AcDbEntity
  8
4
100
AcDbLine
 10
873.2451281671683
 20
93.27277671776517
 30
0.0
 11
756.4724231671682
 21
93.27277671776517
 31
0.0
  0
LINE
  5
1AC
330
1B
100
AcDbEntity
  8
4
100
AcDbLine
 10
756.2451281671683
 20
57.77302171776489
 30
0.0
 11
756.2451281671683
 21
25.77302171776489
 31
0.0
  0
LINE
  5
1AD
330
1B
100
AcDbEntity
  8
L-CENTER
100
AcDbLine
 10
821.2451281671683
 20
10.77302171776489
 30
0.0
 11
821.2451281671683
 21
75.77302171776489
 31
0.0
  0
ARC
  5
1AE
330
1B
100
AcDbEntity
  8
4
100
AcDbCircle
 10
759.2451281671683
 20
57.77302171776489
 30
0.0
 40
3.0
100
AcDbArc
 50
90.0
 51
180.0
  0
ARC
  5
1AF
330
1B
100
AcDbEntity
  8
4
100
AcDbCircle
 10
868.2451281671683
 20
65.77302171776489
 30
0.0
 40
5.0
100
AcDbArc
 50
270.0
 51
0.0
  0
ARC
  5
1B0
330
1B
100
AcDbEntity
  8
4
100
AcDbCircle
 10
883.2451281671683
 20
57.77302171776489
 30
0.0
 40
3.0
100
AcDbArc
 50
0.0
 51
90.0
  0
LINE
  5
1B1
330
1B
100
AcDbEntity
  8
4
100
AcDbLine
 10
901.2451281671683
 20
93.27277671776517
 30
0.0
 11
888.7451281671683
 21
93.27277671776517
 31
0.0
  0
ARC
  5
1B2
330
1B
100
AcDbEntity
  8
4
100
AcDbCircle
 10
888.7451281671683
 20
90.77277671776517
 30
0.0
 40
2.5
100
AcDbArc
 50
90.0
 51
180.0
  0
LINE
  5
1B3
330
1B
100
AcDbEntity
  8
L-CENTER
100
AcDbLine
 10
902.1322883618466
 20
316.7727767177652
 30
0.0
 11
290.3579679724899
 21
316.7727767177652
 31
0.0
  0
LINE
  5
1B4
330
1B
100
AcDbEntity
  8
L-CENTER
100
AcDbLine
 10
1004.965358167168
 20
155.7727767177652
 30
0.0
 11
281.7589859528571
 21
155.7727767177652
 31
0.0
  0
ARC
  5
1B5
330
1B
100
AcDbEntity
  8
4
100
AcDbCircle
 10
596.2451281671683
 20
832.7727767177653
 30
0.0
 40
650.000025
100
AcDbArc
 50
249.6007839999938
 51
268.2487890000004
  0
ARC
  5
1B6
330
1B
100
AcDbEntity
  8
4
100
AcDbCircle
 10
596.2451281671683
 20
-402.2272232822348
 30
0.0
 40
1000.000015
100
AcDbArc
 50
89.9999859999999
 51
104.8449309999956
  0
ARC
  5
1B7
330
1B
100
AcDbEntity
  8
4
100
AcDbCircle
 10
596.2451281671683
 20
-201.2272232822348
 30
0.0
 40
650.0000799999999
100
AcDbArc
 50
69.5106669999986
 51
110.4895649999914
  0
LINE
  5
1B8
330
1B
100
AcDbEntity
  8
4
100
AcDbLine
 10
381.2451281671683
 20
586.0662317177653
 30
0.0
 11
431.2451281671683
 21
586.0662317177653
 31
0.0
  0
LINE
  5
1B9
330
1B
100
AcDbEntity
  8
4
100
AcDbLine
 10
383.2451281671683
 20
591.5662317177653
 30
0.0
 11
429.2451281671683
 21
591.5662317177653
 31
0.0
  0
LINE
  5
1BA
330
1B
100
AcDbEntity
  8
4
100
AcDbLine
 10
383.2451281671683
 20
587.5662317177653
 30
0.0
 11
429.2451281671683
 21
587.5662317177653
 31
0.0
  0
LINE
  5
1BB
330
1B
100
AcDbEntity
  8
4
100
AcDbLine
 10
383.2451281671683
 20
596.5662317177653
 30
0.0
 11
429.2451281671683
 21
596.5662317177653
 31
0.0
  0
LINE
  5
1BC
330
1B
100
AcDbEntity
  8
4
100
AcDbLine
 10
381.2451281671683
 20
574.3867917177654
 30
0.0
 11
381.2451281671683
 21
586.0662317177653
 31
0.0
  0
ARC
  5
1BD
330
1B
100
AcDbEntity
  8
4
100
AcDbCircle
 10
1306.245128167168
 20
316.7725317177654
 30
0.0
 40
1000.00005
100
AcDbArc
 50
165.8771559999948
 51
180.0003500003384
  0
ARC
  5
1BE
330
1B
100
AcDbEntity
  8
4
100
AcDbCircle
 10
303.7451281671683
 20
220.7727767177652
 30
0.0
 40
2.5
100
AcDbArc
 50
270.0
 51
0.0
  0
LINE
  5
1BF
330
1B
100
AcDbEntity
  8
4
100
AcDbLine
 10
303.7451281671683
 20
218.2727767177652
 30
0.0
 11
291.2451281671683
 21
218.2727767177652
 31
0.0
  0
ARC
  5
1C0
330
1B
100
AcDbEntity
  8
4
100
AcDbCircle
 10
322.2451281671683
 20
155.7727767177652
 30
0.0
 40
3.0
100
AcDbArc
 50
90.0
 51
180.0
  0
LINE
  5
1C1
330
1B
100
AcDbEntity
  8
4
100
AcDbLine
 10
332.3176381671684
 20
218.2727767177652
 30
0.0
 11
306.2451281671683
 21
218.2727767177652
 31
0.0
  0
LINE
  5
1C2
330
1B
100
AcDbEntity
  8
4
100
AcDbLine
 10
331.4453231671682
 20
220.7727767177652
 30
0.0
 11
306.2451281671683
 21
220.7727767177652
 31
0.0
  0
ARC
  5
1C3
330
1B
100
AcDbEntity
  8
4
100
AcDbCircle
 10
332.3176381671684
 20
223.2727767177652
 30
0.0
 40
4.99996
100
AcDbArc
 50
270.0
 51
19.50815300000464
  0
ARC
  5
1C4
330
1B
100
AcDbEntity
  8
4
100
AcDbCircle
 10
331.4453231671682
 20
225.7727767177652
 30
0.0
 40
4.999975
100
AcDbArc
 50
270.0
 51
18.96577599999129
  0
ARC
  5
1C5
330
1B
100
AcDbEntity
  8
4
100
AcDbCircle
 10
341.3212981671684
 20
559.5620817177651
 30
0.0
 40
5.000005
100
AcDbArc
 50
104.8477970000041
 51
165.874869000011
  0
LINE
  5
1C6
330
1B
100
AcDbEntity
  8
4
100
AcDbLine
 10
383.2451281671683
 20
587.5662317177653
 30
0.0
 11
383.2451281671683
 21
596.5662317177653
 31
0.0
  0
LINE
  5
1C7
330
1B
100
AcDbEntity
  8
4
100
AcDbLine
 10
384.2451281671683
 20
587.5662317177653
 30
0.0
 11
384.2451281671683
 21
586.0662317177653
 31
0.0
  0
LINE
  5
1C8
330
1B
100
AcDbEntity
  8
L-CENTER
100
AcDbLine
 10
406.2451281671683
 20
603.7063417177651
 30
0.0
 11
406.2451281671683
 21
557.8836167177651
 31
0.0
  0
ARC
  5
1C9
330
1B
100
AcDbEntity
  8
4
100
AcDbCircle
 10
596.2451281671683
 20
-402.2272232822348
 30
0.0
 40
999.999985
100
AcDbArc
 50
75.1550830000026
 51
89.9999859999999
  0
CIRCLE
  5
1CA
330
1B
100
AcDbEntity
  8
4
100
AcDbCircle
 10
706.2451281671683
 20
330.7727767177652
 30
0.0
 40
80.0
  0
CIRCLE
  5
1CB
330
1B
100
AcDbEntity
  8
4
 62
     3
100
AcDbCircle
 10
706.2451281671683
 20
330.7727767177652
 30
0.0
 40
45.0
  0
CIRCLE
  5
1CC
330
1B
100
AcDbEntity
  8
L-CENTER
100
AcDbCircle
 10
706.2451281671683
 20
330.7727767177652
 30
0.0
 40
65.0
  0
ARC
  5
1CD
330
1B
100
AcDbEntity
  8
4
100
AcDbCircle
 10
596.2451281671683
 20
832.7727767177653
 30
0.0
 40
650.0000699999999
100
AcDbArc
 50
271.751814
 51
290.3999239999987
  0
LINE
  5
1CE
330
1B
100
AcDbEntity
  8
L-CENTER
100
AcDbLine
 10
799.2214481671685
 20
330.7727767177652
 30
0.0
 11
613.2688081671681
 21
330.7727767177652
 31
0.0
  0
LINE
  5
1CF
330
1B
100
AcDbEntity
  8
L-CENTER
100
AcDbLine
 10
764.1910452695081
 20
272.8271209975536
 30
0.0
 11
740.2232114611288
 21
296.794669725928
 31
0.0
  0
LINE
  5
1D0
330
1B
100
AcDbEntity
  8
L-CENTER
100
AcDbLine
 10
764.1910452695083
 20
388.7184324379763
 30
0.0
 11
740.2232114611287
 21
364.7508837096024
 31
0.0
  0
CIRCLE
  5
1D3
330
1B
100
AcDbEntity
  8
4
100
AcDbCircle
 10
514.8352181671683
 20
315.7727767177652
 30
0.0
 40
95.0
  0
LINE
  5
1D5
330
1B
100
AcDbEntity
  8
L-CENTER
100
AcDbLine
 10
514.8352181671683
 20
429.0615967177654
 30
0.0
 11
514.8352181671683
 21
204.483956717765
 31
0.0
  0
CIRCLE
  5
1D6
330
1B
100
AcDbEntity
  8
L-CENTER
100
AcDbCircle
 10
514.8352181671683
 20
315.7727767177652
 30
0.0
 40
82.5
  0
LINE
  5
1D7
330
1B
100
AcDbEntity
  8
L-CENTER
100
AcDbLine
 10
706.2451281671683
 20
423.7490967177654
 30
0.0
 11
706.2451281671683
 21
237.796456717765
 31
0.0
  0
LINE
  5
1D8
330
1B
100
AcDbEntity
  8
L-CENTER
100
AcDbLine
 10
514.8352181671683
 20
369.3644867177653
 30
0.0
 11
514.8352181671683
 21
264.3352526946572
 31
0.0
  0
LINE
  5
1D9
330
1B
100
AcDbEntity
  8
L-CENTER
100
AcDbLine
 10
627.1195852758287
 20
315.7727767177652
 30
0.0
 11
402.5508510585077
 21
315.7727767177652
 31
0.0
  0
LINE
  5
1DA
330
1B
100
AcDbEntity
  8
L-CENTER
100
AcDbLine
 10
626.637107015154
 20
180.7727767177652
 30
0.0
 11
565.8531493191826
 21
180.7727767177652
 31
0.0
  0
LINE
  5
1DB
330
1B
100
AcDbEntity
  8
L-CENTER
100
AcDbLine
 10
561.1879178011922
 20
269.4205487249291
 30
0.0
 11
585.1554757559111
 21
245.4527241427885
 31
0.0
  0
LINE
  5
1DC
330
1B
100
AcDbEntity
  8
L-CENTER
100
AcDbLine
 10
463.1142482308753
 20
315.7727767177652
 30
0.0
 11
565.2968928239682
 21
315.7727767177652
 31
0.0
  0
LINE
  5
1DD
330
1B
100
AcDbEntity
  8
L-CENTER
100
AcDbLine
 10
468.482631853807
 20
269.420435404404
 30
0.0
 11
444.5149405850066
 21
245.452744135603
 31
0.0
  0
CIRCLE
  5
1DE
330
1B
100
AcDbEntity
  8
4
100
AcDbCircle
 10
596.2451281671683
 20
180.7727767177652
 30
0.0
 40
18.0
  0
CIRCLE
  5
1DF
330
1B
100
AcDbEntity
  8
4
100
AcDbCircle
 10
596.2451281671683
 20
180.7727767177652
 30
0.0
 40
20.0
  0
LINE
  5
1E0
330
1B
100
AcDbEntity
  8
4
100
AcDbLine
 10
580.6565031671684
 20
171.7727767177652
 30
0.0
 11
596.2451281671683
 21
162.7727767177652
 31
0.0
  0
LINE
  5
1E1
330
1B
100
AcDbEntity
  8
4
100
AcDbLine
 10
596.2451281671683
 20
162.7727767177652
 30
0.0
 11
611.8335081671684
 21
171.7727767177652
 31
0.0
  0
LINE
  5
1E2
330
1B
100
AcDbEntity
  8
4
100
AcDbLine
 10
596.2451281671683
 20
198.7727767177652
 30
0.0
 11
580.6565031671684
 21
189.7727767177652
 31
0.0
  0
LINE
  5
1E3
330
1B
100
AcDbEntity
  8
4
100
AcDbLine
 10
580.6565031671684
 20
171.7727767177652
 30
0.0
 11
580.6565031671684
 21
189.7727767177652
 31
0.0
  0
LINE
  5
1E4
330
1B
100
AcDbEntity
  8
4
100
AcDbLine
 10
611.8335081671684
 20
171.7727767177652
 30
0.0
 11
611.8335081671684
 21
189.7727767177652
 31
0.0
  0
LINE
  5
1E5
330
1B
100
AcDbEntity
  8
4
100
AcDbLine
 10
611.8335081671684
 20
189.7727767177652
 30
0.0
 11
596.2451281671683
 21
198.7727767177652
 31
0.0
  0
LINE
  5
1E6
330
1B
100
AcDbEntity
  8
L-CENTER
100
AcDbLine
 10
648.2994733180948
 20
272.8268587443662
 30
0.0
 11
672.2670068876184
 21
296.7947077114062
 31
0.0
  0
LINE
  5
1E7
330
1B
100
AcDbEntity
  8
L-CENTER
100
AcDbLine
 10
561.1875592710462
 20
362.1253632406036
 30
0.0
 11
585.1552479033753
 21
386.0930571458752
 31
0.0
  0
LINE
  5
1E9
330
1B
100
AcDbEntity
  8
L-CENTER
100
AcDbLine
 10
468.4828743644342
 20
362.1253605417581
 30
0.0
 11
444.515185960989
 21
386.093054675914
 31
0.0
  0
LINE
  5
1EB
330
1B
100
AcDbEntity
  8
L-CENTER
100
AcDbLine
 10
648.2992110648279
 20
388.7184324379758
 30
0.0
 11
672.2670448732079
 21
364.7508837096024
 31
0.0
  0
ARC
  5
1EE
330
1B
100
AcDbEntity
  8
4
100
AcDbCircle
 10
-113.7547668328316
 20
316.7725317177654
 30
0.0
 40
999.9999200000001
100
AcDbArc
 50
0.0
 51
14.12329299998704
  0
LINE
  5
1F0
330
1B
100
AcDbEntity
  8
4
100
AcDbLine
 10
994.2451281671683
 20
137.7727767177652
 30
0.0
 11
915.2451281671683
 21
137.7727767177652
 31
0.0
  0
LINE
  5
1F1
330
1B
100
AcDbEntity
  8
4
100
AcDbLine
 10
994.2451281671683
 20
173.7727767177652
 30
0.0
 11
915.2451281671683
 21
173.7727767177652
 31
0.0
  0
LINE
  5
1F2
330
1B
100
AcDbEntity
  8
4
100
AcDbLine
 10
995.2451281671683
 20
177.2727767177652
 30
0.0
 11
920.2451281671683
 21
177.2727767177652
 31
0.0
  0
LINE
  5
1F5
330
1B
100
AcDbEntity
  8
4
100
AcDbLine
 10
915.2451281671683
 20
175.7727767177652
 30
0.0
 11
915.2451281671683
 21
135.7727767177652
 31
0.0
  0
LINE
  5
1F6
330
1B
100
AcDbEntity
  8
4
100
AcDbLine
 10
902.2451281671683
 20
124.7727767177652
 30
0.0
 11
902.2451281671683
 21
186.7727767177652
 31
0.0
  0
ARC
  5
1F7
330
1B
100
AcDbEntity
  8
4
100
AcDbCircle
 10
870.2451281671683
 20
155.7727767177652
 30
0.0
 40
3.0
100
AcDbArc
 50
0.0
 51
90.0
  0
LINE
  5
1F8
330
1B
100
AcDbEntity
  8
4
100
AcDbLine
 10
902.2451281671683
 20
124.7727767177652
 30
0.0
 11
901.2451281671683
 21
124.7727767177652
 31
0.0
  0
LINE
  5
1F9
330
1B
100
AcDbEntity
  8
4
100
AcDbLine
 10
902.2451281671683
 20
135.7727767177652
 30
0.0
 11
915.2451281671683
 21
135.7727767177652
 31
0.0
  0
LINE
  5
1FA
330
1B
100
AcDbEntity
  8
4
100
AcDbLine
 10
860.1726181671684
 20
218.2727767177652
 30
0.0
 11
886.2451281671683
 21
218.2727767177652
 31
0.0
  0
LINE
  5
1FB
330
1B
100
AcDbEntity
  8
4
100
AcDbLine
 10
861.0449331671683
 20
220.7727767177652
 30
0.0
 11
886.2451281671683
 21
220.7727767177652
 31
0.0
  0
ARC
  5
1FC
330
1B
100
AcDbEntity
  8
4
100
AcDbCircle
 10
861.0449331671683
 20
225.7727767177652
 30
0.0
 40
4.999975
100
AcDbArc
 50
161.0342240000089
 51
270.0
  0
ARC
  5
1FD
330
1B
100
AcDbEntity
  8
4
100
AcDbCircle
 10
860.1726181671684
 20
223.2727767177652
 30
0.0
 40
4.99996
100
AcDbArc
 50
160.4918429999888
 51
270.0
  0
LINE
  5
1FE
330
1B
100
AcDbEntity
  8
4
100
AcDbLine
 10
901.2451281671683
 20
186.7727767177652
 30
0.0
 11
902.2451281671683
 21
186.7727767177652
 31
0.0
  0
LINE
  5
1FF
330
1B
100
AcDbEntity
  8
4
100
AcDbLine
 10
920.2451281671683
 20
173.7727767177652
 30
0.0
 11
920.2451281671683
 21
177.2727767177652
 31
0.0
  0
LINE
  5
200
330
1B
100
AcDbEntity
  8
4
100
AcDbLine
 10
902.2451281671683
 20
175.7727767177652
 30
0.0
 11
915.2451281671683
 21
175.7727767177652
 31
0.0
  0
LINE
  5
201
330
1B
100
AcDbEntity
  8
4
100
AcDbLine
 10
888.7451281671683
 20
218.2727767177652
 30
0.0
 11
901.2451281671683
 21
218.2727767177652
 31
0.0
  0
ARC
  5
202
330
1B
100
AcDbEntity
  8
4
100
AcDbCircle
 10
888.7451281671683
 20
220.7727767177652
 30
0.0
 40
2.5
100
AcDbArc
 50
180.0
 51
270.0
  0
LINE
  5
208
330
1B
100
AcDbEntity
  8
4
100
AcDbLine
 10
995.2451281671683
 20
138.7727767177652
 30
0.0
 11
995.2451281671683
 21
177.2727767177652
 31
0.0
  0
LINE
  5
209
330
1B
100
AcDbEntity
  8
4
100
AcDbLine
 10
994.2451281671683
 20
137.7727767177652
 30
0.0
 11
994.2451281671683
 21
173.7727767177652
 31
0.0
  0
LINE
  5
20A
330
1B
100
AcDbEntity
  8
4
100
AcDbLine
 10
994.2451281671683
 20
137.7727767177652
 30
0.0
 11
995.2451281671683
 21
138.7727767177652
 31
0.0
  0
LINE
  5
20B
330
1B
100
AcDbEntity
  8
4
100
AcDbLine
 10
994.2451281671683
 20
173.7727767177652
 30
0.0
 11
995.2451281671683
 21
172.7727767177652
 31
0.0
  0
ARC
  5
213
330
1B
100
AcDbEntity
  8
4
100
AcDbCircle
 10
851.1689581671683
 20
559.5620817177651
 30
0.0
 40
5.000005
100
AcDbArc
 50
14.12513099998877
 51
75.1522029999952
  0
LINE
  5
214
330
1B
100
AcDbEntity
  8
4
100
AcDbLine
 10
394.7451281671683
 20
591.5662317177653
 30
0.0
 11
394.7451281671683
 21
596.5662317177653
 31
0.0
  0
LINE
  5
215
330
1B
100
AcDbEntity
  8
4
100
AcDbLine
 10
417.7451281671683
 20
591.5662317177653
 30
0.0
 11
417.7451281671683
 21
596.5662317177653
 31
0.0
  0
LINE
  5
216
330
1B
100
AcDbEntity
  8
4
100
AcDbLine
 10
429.2451281671683
 20
587.5662317177653
 30
0.0
 11
429.2451281671683
 21
596.5662317177653
 31
0.0
  0
LINE
  5
217
330
1B
100
AcDbEntity
  8
4
100
AcDbLine
 10
431.2451281671683
 20
586.0662317177653
 30
0.0
 11
431.2451281671683
 21
584.0662317177653
 31
0.0
  0
LINE
  5
218
330
1B
100
AcDbEntity
  8
4
100
AcDbLine
 10
428.2451281671683
 20
587.5662317177653
 30
0.0
 11
428.2451281671683
 21
586.0662317177653
 31
0.0
  0
LINE
  5
219
330
1B
100
AcDbEntity
  8
4
100
AcDbLine
 10
591.2451281671683
 20
602.7727767177653
 30
0.0
 11
591.2451281671683
 21
654.7727767177653
 31
0.0
  0
LINE
  5
21A
330
1B
100
AcDbEntity
  8
4
100
AcDbLine
 10
601.2451281671683
 20
602.7727767177653
 30
0.0
 11
601.2451281671683
 21
654.7727767177653
 31
0.0
  0
LINE
  5
21B
330
1B
100
AcDbEntity
  8
4
100
AcDbLine
 10
615.2451281671683
 20
599.7727767177653
 30
0.0
 11
596.2451281671683
 21
599.7727767177653
 31
0.0
  0
LINE
  5
21C
330
1B
100
AcDbEntity
  8
4
100
AcDbLine
 10
584.0593381671683
 20
608.7727767177653
 30
0.0
 11
583.7451281671683
 21
599.7727767177653
 31
0.0
  0
LINE
  5
21D
330
1B
100
AcDbEntity
  8
4
100
AcDbLine
 10
608.4309181671683
 20
608.7727767177653
 30
0.0
 11
608.7451281671683
 21
599.7727767177653
 31
0.0
  0
LINE
  5
21E
330
1B
100
AcDbEntity
  8
4
100
AcDbLine
 10
577.2451281671683
 20
599.7727767177653
 30
0.0
 11
596.2451281671683
 21
599.7727767177653
 31
0.0
  0
ARC
  5
21F
330
1B
100
AcDbEntity
  8
4
100
AcDbCircle
 10
590.2451281671683
 20
602.7727767177653
 30
0.0
 40
1.0
100
AcDbArc
 50
270.0
 51
0.0
  0
LINE
  5
220
330
1B
100
AcDbEntity
  8
4
100
AcDbLine
 10
577.2451281671683
 20
597.5923567177651
 30
0.0
 11
577.2451281671683
 21
599.7727767177653
 31
0.0
  0
ARC
  5
221
330
1B
100
AcDbEntity
  8
4
100
AcDbCircle
 10
602.2451281671683
 20
602.7727767177653
 30
0.0
 40
1.0
100
AcDbArc
 50
180.0
 51
270.0
  0
LINE
  5
222
330
1B
100
AcDbEntity
  8
4
100
AcDbLine
 10
591.2451281671683
 20
609.9522217177655
 30
0.0
 11
584.0593381671683
 21
608.7727767177653
 31
0.0
  0
LINE
  5
223
330
1B
100
AcDbEntity
  8
4
100
AcDbLine
 10
584.0593381671683
 20
608.7727767177653
 30
0.0
 11
591.2451281671683
 21
608.7727767177653
 31
0.0
  0
LINE
  5
224
330
1B
100
AcDbEntity
  8
4
100
AcDbLine
 10
601.2451281671683
 20
609.9522217177655
 30
0.0
 11
608.4309181671683
 21
608.7727767177653
 31
0.0
  0
LINE
  5
225
330
1B
100
AcDbEntity
  8
4
100
AcDbLine
 10
601.2451281671683
 20
608.7727767177653
 30
0.0
 11
608.4309181671683
 21
608.7727767177653
 31
0.0
  0
LINE
  5
226
330
1B
100
AcDbEntity
  8
4
100
AcDbLine
 10
615.2451281671683
 20
597.5923567177651
 30
0.0
 11
615.2451281671683
 21
599.7727767177653
 31
0.0
  0
ARC
  5
227
330
1B
100
AcDbEntity
  8
4
100
AcDbCircle
 10
596.2451281671683
 20
654.7727767177653
 30
0.0
 40
5.0
100
AcDbArc
 50
0.0
 51
180.0
  0
LINE
  5
228
330
1B
100
AcDbEntity
  8
4
100
AcDbLine
 10
1324.306944602883
 20
60.77302171776489
 30
0.0
 11
1343.306944602883
 21
155.7727767177652
 31
0.0
  0
LINE
  5
22C
330
1B
100
AcDbEntity
  8
L-CENTER
100
AcDbLine
 10
1446.806944602883
 20
9.685457272414055
 30
0.0
 11
1446.806944602883
 21
669.0261779396674
 31
0.0
  0
LINE
  5
22D
330
1B
100
AcDbEntity
  8
4
100
AcDbLine
 10
1555.806944602884
 20
94.08462171776489
 30
0.0
 11
1555.806944602884
 21
591.7727767177653
 31
0.0
  0
LINE
  5
22E
330
1B
100
AcDbEntity
  8
4
100
AcDbLine
 10
1530.806944602883
 20
75.77302171776489
 30
0.0
 11
1530.806944602883
 21
597.7727767177653
 31
0.0
  0
LINE
  5
22F
330
1B
100
AcDbEntity
  8
L-CENTER
100
AcDbLine
 10
1407.806944602883
 20
230.4365967177654
 30
0.0
 11
1407.806944602883
 21
81.10895671776495
 31
0.0
  0
ARC
  5
230
330
1B
100
AcDbEntity
  8
4
100
AcDbCircle
 10
1120.306944602883
 20
155.7727767177652
 30
0.0
 40
349.999905
100
AcDbArc
 50
351.1051689999957
 51
8.89580400000565
  0
ARC
  5
231
330
1B
100
AcDbEntity
  8
4
100
AcDbCircle
 10
1693.306944602884
 20
155.7727767177652
 30
0.0
 40
350.00001
100
AcDbArc
 50
170.8144390000119
 51
189.1859619999908
  0
ARC
  5
232
330
1B
100
AcDbEntity
  8
4
100
AcDbCircle
 10
1695.306944602884
 20
155.7727767177652
 30
0.0
 40
349.999975
100
AcDbArc
 50
171.1046430000091
 51
188.8962049999933
  0
CIRCLE
  5
233
330
1B
100
AcDbEntity
  8
L-CENTER
100
AcDbCircle
 10
1407.806944602883
 20
155.7727767177652
 30
0.0
 40
60.0
  0
LINE
  5
234
330
1B
100
AcDbEntity
  8
4
100
AcDbLine
 10
1569.306944602883
 20
60.77302171776489
 30
0.0
 11
1530.806944602883
 21
155.7727767177652
 31
0.0
  0
TEXT
  5
235
330
1B
100
AcDbEntity
  8
3
100
AcDbText
 10
1004.890491099779
 20
13.53967419954608
 30
0.0
 40
15.61517997527595
  1
LD7-05
  7
KANJI
100
AcDbText
  0
LINE
  5
237
330
1B
100
AcDbEntity
  8
4
100
AcDbLine
 10
1601.306944602883
 20
60.77302171776489
 30
0.0
 11
1292.306944602883
 21
60.77302171776489
 31
0.0
  0
LINE
  5
238
330
1B
100
AcDbEntity
  8
4
100
AcDbLine
 10
1604.306944602883
 20
25.77302171776489
 30
0.0
 11
1289.306944602883
 21
25.77302171776489
 31
0.0
  0
ARC
  5
239
330
1B
100
AcDbEntity
  8
4
100
AcDbCircle
 10
1407.806704602883
 20
443.2727767177652
 30
0.0
 40
350.0000900000001
100
AcDbArc
 50
261.1047279999988
 51
278.8965270000008
  0
ARC
  5
23A
330
1B
100
AcDbEntity
  8
4
100
AcDbCircle
 10
1407.806704602883
 20
441.2727767177652
 30
0.0
 40
349.999945
100
AcDbArc
 50
260.8144779999973
 51
261.9037140000037
  0
LINE
  5
242
330
1B
100
AcDbEntity
  8
L-CENTER
100
AcDbLine
 10
1324.306944602883
 20
75.77302171776489
 30
0.0
 11
1324.306944602883
 21
10.77302171776489
 31
0.0
  0
LINE
  5
243
330
1B
100
AcDbEntity
  8
4
100
AcDbLine
 10
1289.306944602883
 20
57.77302171776489
 30
0.0
 11
1289.306944602883
 21
25.77302171776489
 31
0.0
  0
ARC
  5
244
330
1B
100
AcDbEntity
  8
4
100
AcDbCircle
 10
1292.306944602883
 20
57.77302171776489
 30
0.0
 40
3.0
100
AcDbArc
 50
90.0
 51
180.0
  0
ARC
  5
245
330
1B
100
AcDbEntity
  8
4
100
AcDbCircle
 10
1352.731509602883
 20
100.6970917177649
 30
0.0
 40
4.999919999999999
100
AcDbArc
 50
189.1849810000035
 51
260.8122589999986
  0
ARC
  5
246
330
1B
100
AcDbEntity
  8
4
100
AcDbCircle
 10
1354.456849602883
 20
102.4226767177651
 30
0.0
 40
5.000084999999999
100
AcDbArc
 50
188.8956840000095
 51
261.1043050000021
  0
ARC
  5
247
330
1B
100
AcDbEntity
  8
4
100
AcDbCircle
 10
1545.806944602884
 20
75.77302171776489
 30
0.0
 40
15.0
100
AcDbArc
 50
180.0
 51
270.0009360000004
  0
ARC
  5
248
330
1B
100
AcDbEntity
  8
4
100
AcDbCircle
 10
788.0568981671684
 20
49.35798171776503
 30
0.0
 40
5.04553
100
AcDbArc
 50
118.9512040000113
 51
210.819213999999
  0
ARC
  5
249
330
1B
100
AcDbEntity
  8
4
100
AcDbCircle
 10
788.0568981671684
 20
49.35798171776503
 30
0.0
 40
5.04553
100
AcDbArc
 50
118.9512040000113
 51
210.819213999999
  0
ARC
  5
24A
330
1B
100
AcDbEntity
  8
4
100
AcDbCircle
 10
779.3911281671683
 20
44.18806171776521
 30
0.0
 40
5.04553
100
AcDbArc
 50
298.9512040000113
 51
30.81921399999898
  0
ARC
  5
24B
330
1B
100
AcDbEntity
  8
4
100
AcDbCircle
 10
779.3911281671683
 20
44.18806171776521
 30
0.0
 40
5.04553
100
AcDbArc
 50
298.9512040000113
 51
30.81921399999898
  0
LINE
  5
24C
330
1B
100
AcDbEntity
  8
4
100
AcDbLine
 10
1362.806944602883
 20
89.8113517177652
 30
0.0
 11
1362.806944602883
 21
60.77302171776489
 31
0.0
  0
ARC
  5
24D
330
1B
100
AcDbEntity
  8
4
100
AcDbCircle
 10
1357.806944602883
 20
89.8113517177652
 30
0.0
 40
5.000010000000001
100
AcDbArc
 50
0.0
 51
81.90470899999794
  0
ARC
  5
24E
330
1B
100
AcDbEntity
  8
4
100
AcDbCircle
 10
784.2756481671684
 20
35.35798171776503
 30
0.0
 40
5.04553
100
AcDbArc
 50
118.9512040000113
 51
210.819213999999
  0
ARC
  5
24F
330
1B
100
AcDbEntity
  8
4
100
AcDbCircle
 10
784.2756481671684
 20
35.35798171776503
 30
0.0
 40
5.04553
100
AcDbArc
 50
118.9512040000113
 51
210.819213999999
  0
ARC
  5
250
330
1B
100
AcDbEntity
  8
4
100
AcDbCircle
 10
775.6096331671683
 20
30.18806171776521
 30
0.0
 40
5.04553
100
AcDbArc
 50
298.9512040000113
 51
30.81921399999898
  0
ARC
  5
251
330
1B
100
AcDbEntity
  8
4
100
AcDbCircle
 10
775.6096331671683
 20
30.18806171776521
 30
0.0
 40
5.04553
100
AcDbArc
 50
298.9512040000113
 51
30.81921399999898
  0
ARC
  5
252
330
1B
100
AcDbEntity
  8
4
100
AcDbCircle
 10
1461.157044602883
 20
102.4226767177651
 30
0.0
 40
5.000084999999999
100
AcDbArc
 50
278.8956840000039
 51
351.104315000005
  0
ARC
  5
256
330
1B
100
AcDbEntity
  8
4
100
AcDbCircle
 10
783.1723781671683
 20
58.18806171776521
 30
0.0
 40
5.04553
100
AcDbArc
 50
298.9512040000113
 51
30.81921399999898
  0
ARC
  5
257
330
1B
100
AcDbEntity
  8
4
100
AcDbCircle
 10
783.1723781671683
 20
58.18806171776521
 30
0.0
 40
5.04553
100
AcDbArc
 50
298.9512040000113
 51
30.81921399999898
  0
LINE
  5
258
330
1B
100
AcDbEntity
  8
4
100
AcDbLine
 10
1604.306944602883
 20
57.77302171776489
 30
0.0
 11
1604.306944602883
 21
25.77302171776489
 31
0.0
  0
LINE
  5
259
330
1B
100
AcDbEntity
  8
L-CENTER
100
AcDbLine
 10
1569.306944602883
 20
10.77302171776489
 30
0.0
 11
1569.306944602883
 21
75.77302171776489
 31
0.0
  0
LINE
  5
25A
330
1B
100
AcDbEntity
  8
4
100
AcDbLine
 10
810.2451281671686
 20
25.77302171776489
 30
0.0
 11
810.2451281671686
 21
60.77302171776489
 31
0.0
  0
LINE
  5
25B
330
1B
100
AcDbEntity
  8
4
100
AcDbLine
 10
832.2451281671686
 20
60.77302171776489
 30
0.0
 11
832.2451281671686
 21
25.77302171776489
 31
0.0
  0
ARC
  5
25D
330
1B
100
AcDbEntity
  8
4
100
AcDbCircle
 10
1601.306944602883
 20
57.77302171776489
 30
0.0
 40
3.0
100
AcDbArc
 50
0.0
 51
90.0
  0
LINE
  5
262
330
1B
100
AcDbEntity
  8
L-CENTER
100
AcDbLine
 10
1719.266144780301
 20
315.7727767177652
 30
0.0
 11
1174.347744425465
 21
315.7727767177652
 31
0.0
  0
LINE
  5
263
330
1B
100
AcDbEntity
  8
4
100
AcDbLine
 10
1587.806944602884
 20
277.7727767177652
 30
0.0
 11
1711.806944602883
 21
277.7727767177652
 31
0.0
  0
LINE
  5
264
330
1B
100
AcDbEntity
  8
4
100
AcDbLine
 10
1587.806944602884
 20
353.7727767177652
 30
0.0
 11
1711.806944602883
 21
353.7727767177652
 31
0.0
  0
LINE
  5
265
330
1B
100
AcDbEntity
  8
4
100
AcDbLine
 10
1712.806944602884
 20
359.7727767177652
 30
0.0
 11
1602.806944602884
 21
359.7727767177652
 31
0.0
  0
LINE
  5
268
330
1B
100
AcDbEntity
  8
4
100
AcDbLine
 10
1533.806944602883
 20
148.3704317177652
 30
0.0
 11
1533.806944602883
 21
591.7727767177653
 31
0.0
  0
LINE
  5
269
330
1B
100
AcDbEntity
  8
4
100
AcDbLine
 10
1362.806944602883
 20
221.733956717765
 30
0.0
 11
1362.806944602883
 21
597.7727767177653
 31
0.0
  0
LINE
  5
26A
330
1B
100
AcDbEntity
  8
4
100
AcDbLine
 10
1345.806944602883
 20
197.5310767177651
 30
0.0
 11
1345.806944602883
 21
591.7727767177653
 31
0.0
  0
LINE
  5
26B
330
1B
100
AcDbEntity
  8
L-CENTER
100
AcDbLine
 10
1482.470764602883
 20
155.7727767177652
 30
0.0
 11
1333.143124602883
 21
155.7727767177652
 31
0.0
  0
LINE
  5
26C
330
1B
100
AcDbEntity
  8
L-CENTER
100
AcDbLine
 10
1594.664614602883
 20
316.7727767177652
 30
0.0
 11
1308.245669602883
 21
316.7727767177652
 31
0.0
  0
ARC
  5
26D
330
1B
100
AcDbEntity
  8
4
100
AcDbCircle
 10
1407.806704602883
 20
-131.7272232822348
 30
0.0
 40
349.999905
100
AcDbArc
 50
81.10419600000333
 51
98.89612600000052
  0
ARC
  5
26E
330
1B
100
AcDbEntity
  8
4
100
AcDbCircle
 10
1407.806704602883
 20
-129.7272232822348
 30
0.0
 40
350.00004
100
AcDbArc
 50
98.09709400000104
 51
99.18600200000247
  0
ARC
  5
26F
330
1B
100
AcDbEntity
  8
4
100
AcDbCircle
 10
7337.803284602884
 20
316.7727767177652
 30
0.0
 40
5999.999980000001
100
AcDbArc
 50
177.6604320000073
 51
181.6775680000129
  0
LINE
  5
271
330
1B
100
AcDbEntity
  8
4
100
AcDbLine
 10
1319.806944602883
 20
410.7727767177652
 30
0.0
 11
1319.806944602883
 21
220.7727767177652
 31
0.0
  0
LINE
  5
272
330
1B
100
AcDbEntity
  8
4
100
AcDbLine
 10
1331.806944602883
 20
220.7727767177652
 30
0.0
 11
1331.806944602883
 21
410.7727767177652
 31
0.0
  0
LINE
  5
273
330
1B
100
AcDbEntity
  8
4
100
AcDbLine
 10
1342.809874602883
 20
153.2876667177651
 30
0.0
 11
1342.809874602883
 21
561.7727767177653
 31
0.0
  0
LINE
  5
27B
330
1B
100
AcDbEntity
  8
4
100
AcDbLine
 10
1331.847229602883
 20
162.7727767177652
 30
0.0
 11
1331.847229602883
 21
198.7727767177652
 31
0.0
  0
LINE
  5
27C
330
1B
100
AcDbEntity
  8
4
100
AcDbLine
 10
1333.847229602883
 20
162.7727767177652
 30
0.0
 11
1333.847229602883
 21
198.7727767177652
 31
0.0
  0
LINE
  5
27D
330
1B
100
AcDbEntity
  8
4
100
AcDbLine
 10
1335.347229602883
 20
163.7727767177652
 30
0.0
 11
1335.347229602883
 21
197.7727767177652
 31
0.0
  0
LINE
  5
27E
330
1B
100
AcDbEntity
  8
4
100
AcDbLine
 10
1326.847229602883
 20
162.7727767177652
 30
0.0
 11
1326.847229602883
 21
198.7727767177652
 31
0.0
  0
LINE
  5
27F
330
1B
100
AcDbEntity
  8
4
100
AcDbLine
 10
1335.347229602883
 20
200.7727767177652
 30
0.0
 11
1335.347229602883
 21
160.7727767177652
 31
0.0
  0
LINE
  5
280
330
1B
100
AcDbEntity
  8
4
100
AcDbLine
 10
1333.847229602883
 20
162.7727767177652
 30
0.0
 11
1326.847229602883
 21
162.7727767177652
 31
0.0
  0
LINE
  5
281
330
1B
100
AcDbEntity
  8
4
100
AcDbLine
 10
1333.847229602883
 20
163.7727767177652
 30
0.0
 11
1335.347229602883
 21
163.7727767177652
 31
0.0
  0
LINE
  5
282
330
1B
100
AcDbEntity
  8
4
100
AcDbLine
 10
1335.347229602883
 20
160.7727767177652
 30
0.0
 11
1339.834044602883
 21
160.7727767177652
 31
0.0
  0
LINE
  5
283
330
1B
100
AcDbEntity
  8
L-CENTER
100
AcDbLine
 10
1322.553439602883
 20
180.7727767177652
 30
0.0
 11
1353.263489602883
 21
180.7727767177652
 31
0.0
  0
LINE
  5
284
330
1B
100
AcDbEntity
  8
4
100
AcDbLine
 10
1333.847229602883
 20
198.7727767177652
 30
0.0
 11
1326.847229602883
 21
198.7727767177652
 31
0.0
  0
LINE
  5
285
330
1B
100
AcDbEntity
  8
4
100
AcDbLine
 10
1331.847229602883
 20
171.7727767177652
 30
0.0
 11
1326.847229602883
 21
171.7727767177652
 31
0.0
  0
LINE
  5
286
330
1B
100
AcDbEntity
  8
4
100
AcDbLine
 10
1331.847229602883
 20
189.7727767177652
 30
0.0
 11
1326.847229602883
 21
189.7727767177652
 31
0.0
  0
LINE
  5
287
330
1B
100
AcDbEntity
  8
4
100
AcDbLine
 10
1335.347229602883
 20
197.7727767177652
 30
0.0
 11
1333.847229602883
 21
197.7727767177652
 31
0.0
  0
LINE
  5
288
330
1B
100
AcDbEntity
  8
4
100
AcDbLine
 10
1331.806944602883
 20
220.7727767177652
 30
0.0
 11
1338.573794602883
 21
220.7727767177652
 31
0.0
  0
LINE
  5
289
330
1B
100
AcDbEntity
  8
4
100
AcDbLine
 10
1319.806944602883
 20
220.7727767177652
 30
0.0
 11
1331.806944602883
 21
220.7727767177652
 31
0.0
  0
LINE
  5
28A
330
1B
100
AcDbEntity
  8
4
100
AcDbLine
 10
1335.347229602883
 20
200.7727767177652
 30
0.0
 11
1338.927064602883
 21
200.7727767177652
 31
0.0
  0
ARC
  5
28B
330
1B
100
AcDbEntity
  8
4
100
AcDbCircle
 10
1354.456849602883
 20
209.1228717177654
 30
0.0
 40
5.000084999999999
100
AcDbArc
 50
98.89569499999797
 51
171.1043049999888
  0
ARC
  5
28C
330
1B
100
AcDbEntity
  8
4
100
AcDbCircle
 10
1352.731509602883
 20
210.8484617177654
 30
0.0
 40
4.999919999999999
100
AcDbArc
 50
99.1877410000014
 51
170.8150189999965
  0
LINE
  5
28D
330
1B
100
AcDbEntity
  8
4
100
AcDbLine
 10
1319.806944602883
 20
275.6109117177651
 30
0.0
 11
1319.806944602883
 21
294.010811717765
 31
0.0
  0
LINE
  5
28E
330
1B
100
AcDbEntity
  8
4
100
AcDbLine
 10
1317.306944602883
 20
275.010811717765
 30
0.0
 11
1317.306944602883
 21
294.6109117177651
 31
0.0
  0
LINE
  5
28F
330
1B
100
AcDbEntity
  8
4
100
AcDbLine
 10
1310.306944602883
 20
277.4571017177649
 30
0.0
 11
1310.306944602883
 21
292.1646217177653
 31
0.0
  0
ARC
  5
290
330
1B
100
AcDbEntity
  8
4
100
AcDbCircle
 10
1324.210509602883
 20
284.8108617177653
 30
0.0
 40
13.90362
100
AcDbArc
 50
159.3323219999891
 51
200.6686150000066
  0
ARC
  5
291
330
1B
100
AcDbEntity
  8
4
100
AcDbCircle
 10
1314.097964602883
 20
264.7903567177653
 30
0.0
 40
3.79102
100
AcDbArc
 50
139.8141240000035
 51
220.1882559999892
  0
ARC
  5
292
330
1B
100
AcDbEntity
  8
4
100
AcDbCircle
 10
1314.097964602883
 20
250.0828367177654
 30
0.0
 40
3.790925
100
AcDbArc
 50
139.8117440000098
 51
220.1882559999902
  0
ARC
  5
293
330
1B
100
AcDbEntity
  8
4
100
AcDbCircle
 10
1324.210509602883
 20
257.4365967177654
 30
0.0
 40
13.90362
100
AcDbArc
 50
159.3323259999972
 51
200.6686180000107
  0
ARC
  5
294
330
1B
100
AcDbEntity
  8
4
100
AcDbCircle
 10
1314.097964602883
 20
277.4571017177649
 30
0.0
 40
3.790925
100
AcDbArc
 50
139.8117440000098
 51
220.1882559999902
  0
LINE
  5
295
330
1B
100
AcDbEntity
  8
4
100
AcDbLine
 10
1310.306944602883
 20
250.0828367177654
 30
0.0
 11
1310.306944602883
 21
264.7903567177653
 31
0.0
  0
LINE
  5
296
330
1B
100
AcDbEntity
  8
4
100
AcDbLine
 10
1317.306944602883
 20
247.6365467177651
 30
0.0
 11
1317.306944602883
 21
267.2366417177653
 31
0.0
  0
LINE
  5
297
330
1B
100
AcDbEntity
  8
4
100
AcDbLine
 10
1319.806944602883
 20
248.2366417177653
 30
0.0
 11
1319.806944602883
 21
266.6365467177651
 31
0.0
  0
LINE
  5
298
330
1B
100
AcDbEntity
  8
4
100
AcDbLine
 10
1338.168764602883
 20
250.7727767177652
 30
0.0
 11
1331.806944602883
 21
250.7727767177652
 31
0.0
  0
LINE
  5
299
330
1B
100
AcDbEntity
  8
4
100
AcDbLine
 10
1319.806944602883
 20
250.7727767177652
 30
0.0
 11
1331.806944602883
 21
250.7727767177652
 31
0.0
  0
LINE
  5
29A
330
1B
100
AcDbEntity
  8
4
100
AcDbLine
 10
1319.806944602883
 20
250.7727767177652
 30
0.0
 11
1331.806944602883
 21
250.7727767177652
 31
0.0
  0
LINE
  5
29B
330
1B
100
AcDbEntity
  8
4
100
AcDbLine
 10
1317.306944602883
 20
248.2366417177653
 30
0.0
 11
1319.806944602883
 21
248.2366417177653
 31
0.0
  0
LINE
  5
29C
330
1B
100
AcDbEntity
  8
4
100
AcDbLine
 10
1311.201964602883
 20
247.6365467177651
 30
0.0
 11
1317.306944602883
 21
247.6365467177651
 31
0.0
  0
LINE
  5
29D
330
1B
100
AcDbEntity
  8
4
100
AcDbLine
 10
1317.306944602883
 20
252.5291217177654
 30
0.0
 11
1311.201964602883
 21
252.5291217177654
 31
0.0
  0
LINE
  5
29E
330
1B
100
AcDbEntity
  8
4
100
AcDbLine
 10
1319.806944602883
 20
266.6365467177651
 30
0.0
 11
1317.306944602883
 21
266.6365467177651
 31
0.0
  0
LINE
  5
29F
330
1B
100
AcDbEntity
  8
4
100
AcDbLine
 10
1311.201964602883
 20
267.2366417177653
 30
0.0
 11
1317.306944602883
 21
267.2366417177653
 31
0.0
  0
LINE
  5
2A0
330
1B
100
AcDbEntity
  8
4
100
AcDbLine
 10
1317.306944602883
 20
262.344066717765
 30
0.0
 11
1311.201964602883
 21
262.344066717765
 31
0.0
  0
LINE
  5
2A1
330
1B
100
AcDbEntity
  8
4
100
AcDbLine
 10
1317.306944602883
 20
275.6109117177651
 30
0.0
 11
1319.806944602883
 21
275.6109117177651
 31
0.0
  0
LINE
  5
2A2
330
1B
100
AcDbEntity
  8
4
100
AcDbLine
 10
1317.306944602883
 20
279.9033917177652
 30
0.0
 11
1311.201964602883
 21
279.9033917177652
 31
0.0
  0
LINE
  5
2A3
330
1B
100
AcDbEntity
  8
4
100
AcDbLine
 10
1311.201964602883
 20
275.010811717765
 30
0.0
 11
1317.306944602883
 21
275.010811717765
 31
0.0
  0
ARC
  5
2A4
330
1B
100
AcDbEntity
  8
4
100
AcDbCircle
 10
1314.097964602883
 20
292.1646217177653
 30
0.0
 40
3.79102
100
AcDbArc
 50
139.8141240000035
 51
220.1882559999892
  0
LINE
  5
2A5
330
1B
100
AcDbEntity
  8
4
100
AcDbLine
 10
1317.306944602883
 20
289.718331717765
 30
0.0
 11
1311.201964602883
 21
289.718331717765
 31
0.0
  0
LINE
  5
2A6
330
1B
100
AcDbEntity
  8
4
100
AcDbLine
 10
1319.806944602883
 20
294.010811717765
 30
0.0
 11
1317.306944602883
 21
294.010811717765
 31
0.0
  0
LINE
  5
2A7
330
1B
100
AcDbEntity
  8
4
100
AcDbLine
 10
1311.201964602883
 20
294.6109117177651
 30
0.0
 11
1317.306944602883
 21
294.6109117177651
 31
0.0
  0
ARC
  5
2A9
330
1B
100
AcDbEntity
  8
4
100
AcDbCircle
 10
1314.097964602883
 20
384.0884517177655
 30
0.0
 40
3.79102
100
AcDbArc
 50
139.8141240000035
 51
220.1882559999892
  0
ARC
  5
2AA
330
1B
100
AcDbEntity
  8
4
100
AcDbCircle
 10
1314.097964602883
 20
366.7554417177652
 30
0.0
 40
3.790935
100
AcDbArc
 50
159.7397869999997
 51
220.1882669999929
  0
ARC
  5
2AB
330
1B
100
AcDbEntity
  8
4
100
AcDbCircle
 10
1324.210509602883
 20
376.734691717765
 30
0.0
 40
13.90362
100
AcDbArc
 50
159.3323259999972
 51
200.6686180000107
  0
ARC
  5
2AC
330
1B
100
AcDbEntity
  8
4
100
AcDbCircle
 10
1314.097964602883
 20
369.3809317177651
 30
0.0
 40
3.790925
100
AcDbArc
 50
139.8117440000098
 51
220.1882559999902
  0
LINE
  5
2AD
330
1B
100
AcDbEntity
  8
4
100
AcDbLine
 10
1310.306944602883
 20
369.3809317177651
 30
0.0
 11
1310.306944602883
 21
384.0884517177655
 31
0.0
  0
LINE
  5
2AE
330
1B
100
AcDbEntity
  8
4
100
AcDbLine
 10
1310.306944602883
 20
366.7554417177652
 30
0.0
 11
1310.306944602883
 21
381.4629617177651
 31
0.0
  0
LINE
  5
2AF
330
1B
100
AcDbEntity
  8
4
100
AcDbLine
 10
1319.806944602883
 20
367.5347367177654
 30
0.0
 11
1319.806944602883
 21
385.9346417177652
 31
0.0
  0
LINE
  5
2B0
330
1B
100
AcDbEntity
  8
4
100
AcDbLine
 10
1317.306944602883
 20
366.9346417177652
 30
0.0
 11
1317.306944602883
 21
386.5347367177654
 31
0.0
  0
LINE
  5
2B1
330
1B
100
AcDbEntity
  8
4
100
AcDbLine
 10
1317.306944602883
 20
364.3091517177653
 30
0.0
 11
1317.306944602883
 21
383.909251717765
 31
0.0
  0
LINE
  5
2B2
330
1B
100
AcDbEntity
  8
4
100
AcDbLine
 10
1319.806944602883
 20
364.909251717765
 30
0.0
 11
1319.806944602883
 21
383.3091517177653
 31
0.0
  0
LINE
  5
2B3
330
1B
100
AcDbEntity
  8
4
100
AcDbLine
 10
1317.306944602883
 20
364.909251717765
 30
0.0
 11
1319.806944602883
 21
364.909251717765
 31
0.0
  0
LINE
  5
2B4
330
1B
100
AcDbEntity
  8
4
100
AcDbLine
 10
1317.306944602883
 20
367.5347367177654
 30
0.0
 11
1319.806944602883
 21
367.5347367177654
 31
0.0
  0
LINE
  5
2B5
330
1B
100
AcDbEntity
  8
4
100
AcDbLine
 10
1311.201964602883
 20
364.3091517177653
 30
0.0
 11
1317.306944602883
 21
364.3091517177653
 31
0.0
  0
LINE
  5
2B6
330
1B
100
AcDbEntity
  8
4
100
AcDbLine
 10
1317.306944602883
 20
371.8272217177654
 30
0.0
 11
1311.201964602883
 21
371.8272217177654
 31
0.0
  0
LINE
  5
2B7
330
1B
100
AcDbEntity
  8
4
100
AcDbLine
 10
1311.201964602883
 20
366.9346417177652
 30
0.0
 11
1317.306944602883
 21
366.9346417177652
 31
0.0
  0
LINE
  5
2B8
330
1B
100
AcDbEntity
  8
4
100
AcDbLine
 10
1317.306944602883
 20
381.6421617177651
 30
0.0
 11
1311.201964602883
 21
381.6421617177651
 31
0.0
  0
LINE
  5
2B9
330
1B
100
AcDbEntity
  8
4
100
AcDbLine
 10
1319.806944602883
 20
385.9346417177652
 30
0.0
 11
1317.306944602883
 21
385.9346417177652
 31
0.0
  0
LINE
  5
2BA
330
1B
100
AcDbEntity
  8
4
100
AcDbLine
 10
1311.201964602883
 20
386.5347367177654
 30
0.0
 11
1317.306944602883
 21
386.5347367177654
 31
0.0
  0
LINE
  5
2BB
330
1B
100
AcDbEntity
  8
4
100
AcDbLine
 10
1338.542054602883
 20
410.7727767177652
 30
0.0
 11
1331.806944602883
 21
410.7727767177652
 31
0.0
  0
LINE
  5
2BC
330
1B
100
AcDbEntity
  8
4
100
AcDbLine
 10
1331.806944602883
 20
410.7727767177652
 30
0.0
 11
1319.806944602883
 21
410.7727767177652
 31
0.0
  0
LINE
  5
2BD
330
1B
100
AcDbEntity
  8
4
100
AcDbLine
 10
1342.809874602883
 20
561.7727767177653
 30
0.0
 11
1345.806944602883
 21
561.7727767177653
 31
0.0
  0
LINE
  5
2BE
330
1B
100
AcDbEntity
  8
4
100
AcDbLine
 10
1574.806944602883
 20
364.909251717765
 30
0.0
 11
1574.806944602883
 21
294.010811717765
 31
0.0
  0
LINE
  5
2BF
330
1B
100
AcDbEntity
  8
4
100
AcDbLine
 10
1573.806944602883
 20
410.7727767177652
 30
0.0
 11
1573.806944602883
 21
220.7727767177652
 31
0.0
  0
LINE
  5
2C0
330
1B
100
AcDbEntity
  8
4
100
AcDbLine
 10
1561.806944602883
 20
229.2752167177649
 30
0.0
 11
1561.806944602883
 21
404.270821717765
 31
0.0
  0
LINE
  5
2C1
330
1B
100
AcDbEntity
  8
4
100
AcDbLine
 10
1587.806944602884
 20
275.7727767177652
 30
0.0
 11
1587.806944602884
 21
355.7727767177652
 31
0.0
  0
LINE
  5
2C2
330
1B
100
AcDbEntity
  8
4
100
AcDbLine
 10
1412.806944602883
 20
169.2727767177652
 30
0.0
 11
1412.806944602883
 21
177.2727767177652
 31
0.0
  0
LINE
  5
2C3
330
1B
100
AcDbEntity
  8
4
100
AcDbLine
 10
1402.806944602883
 20
177.2727767177652
 30
0.0
 11
1402.806944602883
 21
169.2727767177652
 31
0.0
  0
CIRCLE
  5
2C4
330
1B
100
AcDbEntity
  8
4
100
AcDbCircle
 10
1407.806944602883
 20
155.7727767177652
 30
0.0
 40
31.0
  0
ARC
  5
2C5
330
1B
100
AcDbEntity
  8
4
100
AcDbCircle
 10
1407.806944602883
 20
155.7727767177652
 30
0.0
 40
17.99989
100
AcDbArc
 50
106.1277209999964
 51
73.87227900000364
  0
LINE
  5
2C6
330
1B
100
AcDbEntity
  8
4
100
AcDbLine
 10
1412.806944602883
 20
169.2727767177652
 30
0.0
 11
1402.806944602883
 21
169.2727767177652
 31
0.0
  0
ARC
  5
2C7
330
1B
100
AcDbEntity
  8
4
100
AcDbCircle
 10
1357.806944602883
 20
221.733956717765
 30
0.0
 40
5.000010000000001
100
AcDbArc
 50
278.0952910000021
 51
0.0
  0
LINE
  5
2C8
330
1B
100
AcDbEntity
  8
4
100
AcDbLine
 10
1412.806944602883
 20
177.2727767177652
 30
0.0
 11
1402.806944602883
 21
177.2727767177652
 31
0.0
  0
ARC
  5
2C9
330
1B
100
AcDbEntity
  8
4
100
AcDbCircle
 10
1461.157044602883
 20
209.1228717177654
 30
0.0
 40
5.000084999999999
100
AcDbArc
 50
8.895697000008086
 51
81.1043159999961
  0
LINE
  5
2CA
330
1B
100
AcDbEntity
  8
4
100
AcDbLine
 10
1558.806944602883
 20
229.2752167177649
 30
0.0
 11
1558.806944602883
 21
205.2752167177649
 31
0.0
  0
LINE
  5
2CB
330
1B
100
AcDbEntity
  8
4
100
AcDbLine
 10
1555.806944602884
 20
205.2752167177649
 30
0.0
 11
1555.806944602884
 21
229.2752167177649
 31
0.0
  0
ARC
  5
2CC
330
1B
100
AcDbEntity
  8
4
100
AcDbCircle
 10
1563.223204602883
 20
226.2752167177649
 30
0.0
 40
4.583600000000001
100
AcDbArc
 50
319.1186700000108
 51
40.88332600001215
  0
LINE
  5
2CD
330
1B
100
AcDbEntity
  8
L-CENTER
100
AcDbLine
 10
1505.245390765525
 20
217.2752167177649
 30
0.0
 11
1572.137988342848
 21
217.2752167177649
 31
0.0
  0
LINE
  5
2CE
330
1B
100
AcDbEntity
  8
4
100
AcDbLine
 10
1567.806944602884
 20
226.2752167177649
 30
0.0
 11
1567.806944602884
 21
208.2752167177649
 31
0.0
  0
ARC
  5
2CF
330
1B
100
AcDbEntity
  8
4
100
AcDbCircle
 10
1549.806944602883
 20
217.2752167177649
 30
0.0
 40
17.999935
100
AcDbArc
 50
340.5303929999938
 51
19.47133100000315
  0
LINE
  5
2D0
330
1B
100
AcDbEntity
  8
4
100
AcDbLine
 10
1573.806944602883
 20
220.7727767177652
 30
0.0
 11
1567.806944602884
 21
220.7727767177652
 31
0.0
  0
ARC
  5
2D1
330
1B
100
AcDbEntity
  8
4
100
AcDbCircle
 10
1563.223204602883
 20
208.2752167177649
 30
0.0
 40
4.583600000000001
100
AcDbArc
 50
319.1186700000108
 51
40.88332600001215
  0
LINE
  5
2D2
330
1B
100
AcDbEntity
  8
4
100
AcDbLine
 10
1555.806944602884
 20
205.2752167177649
 30
0.0
 11
1558.806944602883
 21
205.2752167177649
 31
0.0
  0
LINE
  5
2D3
330
1B
100
AcDbEntity
  8
4
100
AcDbLine
 10
1566.777404602883
 20
205.2752167177649
 30
0.0
 11
1558.806944602883
 21
205.2752167177649
 31
0.0
  0
LINE
  5
2D4
330
1B
100
AcDbEntity
  8
4
100
AcDbLine
 10
1558.806944602883
 20
211.2752167177649
 30
0.0
 11
1566.777404602883
 21
211.2752167177649
 31
0.0
  0
LINE
  5
2D5
330
1B
100
AcDbEntity
  8
4
100
AcDbLine
 10
1558.806944602883
 20
223.2752167177649
 30
0.0
 11
1566.777404602883
 21
223.2752167177649
 31
0.0
  0
LINE
  5
2D6
330
1B
100
AcDbEntity
  8
4
100
AcDbLine
 10
1583.306944602884
 20
292.1646217177653
 30
0.0
 11
1583.306944602884
 21
277.4571017177649
 31
0.0
  0
LINE
  5
2D7
330
1B
100
AcDbEntity
  8
4
100
AcDbLine
 10
1573.806944602883
 20
294.010811717765
 30
0.0
 11
1573.806944602883
 21
275.6109117177651
 31
0.0
  0
LINE
  5
2D8
330
1B
100
AcDbEntity
  8
4
100
AcDbLine
 10
1576.306944602883
 20
294.6109117177651
 30
0.0
 11
1576.306944602883
 21
275.010811717765
 31
0.0
  0
ARC
  5
2D9
330
1B
100
AcDbEntity
  8
4
100
AcDbCircle
 10
1569.403384602883
 20
284.8108617177653
 30
0.0
 40
13.90362
100
AcDbArc
 50
339.3323259999972
 51
20.66861800001074
  0
LINE
  5
2DA
330
1B
100
AcDbEntity
  8
L-CENTER
100
AcDbLine
 10
1588.050354602883
 20
257.4365967177654
 30
0.0
 11
1546.649380065148
 21
257.4365967177654
 31
0.0
  0
LINE
  5
2DB
330
1B
100
AcDbEntity
  8
4
100
AcDbLine
 10
1582.411929602883
 20
247.6365467177651
 30
0.0
 11
1576.306944602883
 21
247.6365467177651
 31
0.0
  0
LINE
  5
2DC
330
1B
100
AcDbEntity
  8
4
100
AcDbLine
 10
1576.306944602883
 20
252.5291217177654
 30
0.0
 11
1582.411929602883
 21
252.5291217177654
 31
0.0
  0
LINE
  5
2DD
330
1B
100
AcDbEntity
  8
4
100
AcDbLine
 10
1576.306944602883
 20
262.344066717765
 30
0.0
 11
1582.411929602883
 21
262.344066717765
 31
0.0
  0
LINE
  5
2DE
330
1B
100
AcDbEntity
  8
4
100
AcDbLine
 10
1582.411929602883
 20
267.2366417177653
 30
0.0
 11
1576.306944602883
 21
267.2366417177653
 31
0.0
  0
LINE
  5
2DF
330
1B
100
AcDbEntity
  8
L-CENTER
100
AcDbLine
 10
1588.050354602883
 20
284.8108617177653
 30
0.0
 11
1546.649380065148
 21
284.8104032004975
 31
0.0
  0
LINE
  5
2E0
330
1B
100
AcDbEntity
  8
4
100
AcDbLine
 10
1576.306944602883
 20
279.9033917177652
 30
0.0
 11
1582.411929602883
 21
279.9033917177652
 31
0.0
  0
LINE
  5
2E1
330
1B
100
AcDbEntity
  8
4
100
AcDbLine
 10
1582.411929602883
 20
275.010811717765
 30
0.0
 11
1576.306944602883
 21
275.010811717765
 31
0.0
  0
LINE
  5
2E2
330
1B
100
AcDbEntity
  8
4
100
AcDbLine
 10
1576.306944602883
 20
247.6365467177651
 30
0.0
 11
1576.306944602883
 21
267.2366417177653
 31
0.0
  0
LINE
  5
2E3
330
1B
100
AcDbEntity
  8
4
100
AcDbLine
 10
1573.806944602883
 20
248.2366417177653
 30
0.0
 11
1573.806944602883
 21
266.6365467177651
 31
0.0
  0
LINE
  5
2E4
330
1B
100
AcDbEntity
  8
4
100
AcDbLine
 10
1555.806944602884
 20
229.2752167177649
 30
0.0
 11
1558.806944602883
 21
229.2752167177649
 31
0.0
  0
LINE
  5
2E5
330
1B
100
AcDbEntity
  8
4
100
AcDbLine
 10
1566.777404602883
 20
229.2752167177649
 30
0.0
 11
1558.806944602883
 21
229.2752167177649
 31
0.0
  0
LINE
  5
2E6
330
1B
100
AcDbEntity
  8
4
100
AcDbLine
 10
1573.806944602883
 20
250.7727767177652
 30
0.0
 11
1561.806944602883
 21
250.7727767177652
 31
0.0
  0
LINE
  5
2E7
330
1B
100
AcDbEntity
  8
4
100
AcDbLine
 10
1555.806944602884
 20
250.7727767177652
 30
0.0
 11
1561.806944602883
 21
250.7727767177652
 31
0.0
  0
LINE
  5
2E8
330
1B
100
AcDbEntity
  8
4
100
AcDbLine
 10
1576.306944602883
 20
248.2366417177653
 30
0.0
 11
1573.806944602883
 21
248.2366417177653
 31
0.0
  0
LINE
  5
2E9
330
1B
100
AcDbEntity
  8
4
100
AcDbLine
 10
1574.806944602883
 20
266.6365467177651
 30
0.0
 11
1574.806944602883
 21
275.6109117177651
 31
0.0
  0
LINE
  5
2EA
330
1B
100
AcDbEntity
  8
4
100
AcDbLine
 10
1573.806944602883
 20
266.6365467177651
 30
0.0
 11
1576.306944602883
 21
266.6365467177651
 31
0.0
  0
LINE
  5
2EB
330
1B
100
AcDbEntity
  8
4
100
AcDbLine
 10
1573.806944602883
 20
275.6109117177651
 30
0.0
 11
1576.306944602883
 21
275.6109117177651
 31
0.0
  0
ARC
  5
2EC
330
1B
100
AcDbEntity
  8
4
100
AcDbCircle
 10
1569.403384602883
 20
257.4365967177654
 30
0.0
 40
13.90362
100
AcDbArc
 50
339.3313819999892
 51
20.66767400000277
  0
LINE
  5
2ED
330
1B
100
AcDbEntity
  8
4
100
AcDbLine
 10
1583.306944602884
 20
250.0828367177654
 30
0.0
 11
1583.306944602884
 21
264.7903567177653
 31
0.0
  0
ARC
  5
2EE
330
1B
100
AcDbEntity
  8
4
100
AcDbCircle
 10
1579.515929602883
 20
250.0828367177654
 30
0.0
 40
3.790925
100
AcDbArc
 50
319.8117440000098
 51
40.18825599999024
  0
ARC
  5
2EF
330
1B
100
AcDbEntity
  8
4
100
AcDbCircle
 10
1579.515929602883
 20
264.7903567177653
 30
0.0
 40
3.791115
100
AcDbArc
 50
319.8141240000058
 51
40.18587599999418
  0
LINE
  5
2F0
330
1B
100
AcDbEntity
  8
4
100
AcDbLine
 10
1582.912169602883
 20
275.7727767177652
 30
0.0
 11
1587.806944602884
 21
275.7727767177652
 31
0.0
  0
ARC
  5
2F1
330
1B
100
AcDbEntity
  8
4
100
AcDbCircle
 10
1579.515929602883
 20
277.4571017177649
 30
0.0
 40
3.79102
100
AcDbArc
 50
319.8141240000035
 51
40.18825599998923
  0
LINE
  5
2F2
330
1B
100
AcDbEntity
  8
4
100
AcDbLine
 10
1576.306944602883
 20
289.718331717765
 30
0.0
 11
1582.411929602883
 21
289.718331717765
 31
0.0
  0
LINE
  5
2F3
330
1B
100
AcDbEntity
  8
4
100
AcDbLine
 10
1582.411929602883
 20
294.6109117177651
 30
0.0
 11
1576.306944602883
 21
294.6109117177651
 31
0.0
  0
LINE
  5
2F4
330
1B
100
AcDbEntity
  8
4
100
AcDbLine
 10
1576.306944602883
 20
294.010811717765
 30
0.0
 11
1573.806944602883
 21
294.010811717765
 31
0.0
  0
ARC
  5
2F5
330
1B
100
AcDbEntity
  8
4
100
AcDbCircle
 10
1579.515929602883
 20
292.1646217177653
 30
0.0
 40
3.79102
100
AcDbArc
 50
319.8141240000035
 51
40.18825599998923
  0
LINE
  5
2FD
330
1B
100
AcDbEntity
  8
4
100
AcDbLine
 10
1574.806944602883
 20
355.7727767177652
 30
0.0
 11
1587.806944602884
 21
355.7727767177652
 31
0.0
  0
LINE
  5
2FE
330
1B
100
AcDbEntity
  8
L-CENTER
100
AcDbLine
 10
1588.050354602883
 20
376.734691717765
 30
0.0
 11
1546.649380065148
 21
376.734691717765
 31
0.0
  0
LINE
  5
2FF
330
1B
100
AcDbEntity
  8
L-CENTER
100
AcDbLine
 10
1588.050354602883
 20
374.1092017177651
 30
0.0
 11
1546.649380065148
 21
374.1092017177656
 31
0.0
  0
LINE
  5
300
330
1B
100
AcDbEntity
  8
4
100
AcDbLine
 10
1582.411929602883
 20
364.3091517177653
 30
0.0
 11
1576.306944602883
 21
364.3091517177653
 31
0.0
  0
LINE
  5
301
330
1B
100
AcDbEntity
  8
4
100
AcDbLine
 10
1576.306944602883
 20
381.6421617177651
 30
0.0
 11
1582.411929602883
 21
381.6421617177651
 31
0.0
  0
LINE
  5
302
330
1B
100
AcDbEntity
  8
4
100
AcDbLine
 10
1576.306944602883
 20
371.8272217177654
 30
0.0
 11
1582.411929602883
 21
371.8272217177654
 31
0.0
  0
LINE
  5
303
330
1B
100
AcDbEntity
  8
4
100
AcDbLine
 10
1582.411929602883
 20
366.9346417177652
 30
0.0
 11
1576.306944602883
 21
366.9346417177652
 31
0.0
  0
LINE
  5
304
330
1B
100
AcDbEntity
  8
4
100
AcDbLine
 10
1582.411929602883
 20
386.5347367177654
 30
0.0
 11
1576.306944602883
 21
386.5347367177654
 31
0.0
  0
LINE
  5
305
330
1B
100
AcDbEntity
  8
4
100
AcDbLine
 10
1573.806944602883
 20
367.5347367177654
 30
0.0
 11
1573.806944602883
 21
385.9346417177652
 31
0.0
  0
LINE
  5
306
330
1B
100
AcDbEntity
  8
4
100
AcDbLine
 10
1576.306944602883
 20
366.9346417177652
 30
0.0
 11
1576.306944602883
 21
386.5347367177654
 31
0.0
  0
LINE
  5
307
330
1B
100
AcDbEntity
  8
4
100
AcDbLine
 10
1576.306944602883
 20
364.3091517177653
 30
0.0
 11
1576.306944602883
 21
383.909251717765
 31
0.0
  0
LINE
  5
308
330
1B
100
AcDbEntity
  8
4
100
AcDbLine
 10
1573.806944602883
 20
364.909251717765
 30
0.0
 11
1573.806944602883
 21
383.3091517177653
 31
0.0
  0
LINE
  5
309
330
1B
100
AcDbEntity
  8
4
100
AcDbLine
 10
1576.306944602883
 20
364.909251717765
 30
0.0
 11
1573.806944602883
 21
364.909251717765
 31
0.0
  0
LINE
  5
30A
330
1B
100
AcDbEntity
  8
4
100
AcDbLine
 10
1576.306944602883
 20
367.5347367177654
 30
0.0
 11
1573.806944602883
 21
367.5347367177654
 31
0.0
  0
LINE
  5
30B
330
1B
100
AcDbEntity
  8
4
100
AcDbLine
 10
1573.806944602883
 20
385.9346417177652
 30
0.0
 11
1576.306944602883
 21
385.9346417177652
 31
0.0
  0
LINE
  5
30C
330
1B
100
AcDbEntity
  8
4
100
AcDbLine
 10
1583.306944602884
 20
369.3809317177651
 30
0.0
 11
1583.306944602884
 21
384.0884517177655
 31
0.0
  0
LINE
  5
30D
330
1B
100
AcDbEntity
  8
4
100
AcDbLine
 10
1583.306944602884
 20
366.7554417177652
 30
0.0
 11
1583.306944602884
 21
381.4629617177651
 31
0.0
  0
ARC
  5
30E
330
1B
100
AcDbEntity
  8
4
100
AcDbCircle
 10
1569.403384602883
 20
376.734691717765
 30
0.0
 40
13.903575
100
AcDbArc
 50
339.3323219999885
 51
20.66767400000268
  0
ARC
  5
30F
330
1B
100
AcDbEntity
  8
4
100
AcDbCircle
 10
1579.515929602883
 20
366.7554417177652
 30
0.0
 40
3.790935
100
AcDbArc
 50
319.8117330000071
 51
20.26021300000028
  0
ARC
  5
310
330
1B
100
AcDbEntity
  8
4
100
AcDbCircle
 10
1579.515929602883
 20
369.3809317177651
 30
0.0
 40
3.790925
100
AcDbArc
 50
319.8117440000098
 51
40.18825599999024
  0
LINE
  5
311
330
1B
100
AcDbEntity
  8
4
100
AcDbLine
 10
1602.806944602884
 20
353.7727767177652
 30
0.0
 11
1602.806944602884
 21
359.7727767177652
 31
0.0
  0
ARC
  5
312
330
1B
100
AcDbEntity
  8
4
100
AcDbCircle
 10
1579.515929602883
 20
384.0884517177655
 30
0.0
 40
3.791115
100
AcDbArc
 50
319.8141240000058
 51
40.18587599999418
  0
LINE
  5
313
330
1B
100
AcDbEntity
  8
L-CENTER
100
AcDbLine
 10
1505.245390765525
 20
416.270821717765
 30
0.0
 11
1573.671296574208
 21
416.270821717765
 31
0.0
  0
ARC
  5
314
330
1B
100
AcDbEntity
  8
4
100
AcDbCircle
 10
1563.223204602883
 20
407.270821717765
 30
0.0
 40
4.583600000000001
100
AcDbArc
 50
319.1186700000108
 51
40.88332600001215
  0
LINE
  5
315
330
1B
100
AcDbEntity
  8
4
100
AcDbLine
 10
1558.806944602883
 20
428.270821717765
 30
0.0
 11
1558.806944602883
 21
404.270821717765
 31
0.0
  0
LINE
  5
316
330
1B
100
AcDbEntity
  8
4
100
AcDbLine
 10
1555.806944602884
 20
404.270821717765
 30
0.0
 11
1555.806944602884
 21
428.270821717765
 31
0.0
  0
LINE
  5
317
330
1B
100
AcDbEntity
  8
4
100
AcDbLine
 10
1567.806944602884
 20
425.270821717765
 30
0.0
 11
1567.806944602884
 21
407.270821717765
 31
0.0
  0
LINE
  5
318
330
1B
100
AcDbEntity
  8
4
100
AcDbLine
 10
1555.806944602884
 20
404.270821717765
 30
0.0
 11
1558.806944602883
 21
404.270821717765
 31
0.0
  0
LINE
  5
319
330
1B
100
AcDbEntity
  8
4
100
AcDbLine
 10
1566.777404602883
 20
404.270821717765
 30
0.0
 11
1558.806944602883
 21
404.270821717765
 31
0.0
  0
LINE
  5
31A
330
1B
100
AcDbEntity
  8
4
100
AcDbLine
 10
1567.806944602884
 20
410.7727767177652
 30
0.0
 11
1573.806944602883
 21
410.7727767177652
 31
0.0
  0
ARC
  5
31B
330
1B
100
AcDbEntity
  8
4
100
AcDbCircle
 10
1563.223204602883
 20
425.270821717765
 30
0.0
 40
4.583600000000001
100
AcDbArc
 50
319.1186700000108
 51
40.88332600001215
  0
ARC
  5
31D
330
1B
100
AcDbEntity
  8
4
100
AcDbCircle
 10
1549.806944602883
 20
416.270821717765
 30
0.0
 40
17.999935
100
AcDbArc
 50
340.5303960000026
 51
19.47133100000315
  0
LINE
  5
31E
330
1B
100
AcDbEntity
  8
4
100
AcDbLine
 10
1555.806944602884
 20
428.270821717765
 30
0.0
 11
1558.806944602883
 21
428.270821717765
 31
0.0
  0
LINE
  5
31F
330
1B
100
AcDbEntity
  8
4
100
AcDbLine
 10
1566.777404602883
 20
428.270821717765
 30
0.0
 11
1558.806944602883
 21
428.270821717765
 31
0.0
  0
LINE
  5
320
330
1B
100
AcDbEntity
  8
4
100
AcDbLine
 10
1558.806944602883
 20
422.270821717765
 30
0.0
 11
1566.777404602883
 21
422.270821717765
 31
0.0
  0
LINE
  5
321
330
1B
100
AcDbEntity
  8
4
100
AcDbLine
 10
1558.806944602883
 20
410.270821717765
 30
0.0
 11
1566.777404602883
 21
410.270821717765
 31
0.0
  0
ARC
  5
323
330
1B
100
AcDbEntity
  8
4
100
AcDbCircle
 10
1563.223204602883
 20
547.9815167177653
 30
0.0
 40
4.583600000000001
100
AcDbArc
 50
319.1186700000089
 51
40.88332600001108
  0
LINE
  5
324
330
1B
100
AcDbEntity
  8
4
100
AcDbLine
 10
1558.806944602883
 20
568.9815167177653
 30
0.0
 11
1558.806944602883
 21
544.9815167177653
 31
0.0
  0
LINE
  5
325
330
1B
100
AcDbEntity
  8
4
100
AcDbLine
 10
1555.806944602884
 20
544.9815167177653
 30
0.0
 11
1555.806944602884
 21
568.9815167177653
 31
0.0
  0
LINE
  5
326
330
1B
100
AcDbEntity
  8
4
100
AcDbLine
 10
1567.806944602884
 20
565.9815167177653
 30
0.0
 11
1567.806944602884
 21
547.9815167177653
 31
0.0
  0
LINE
  5
327
330
1B
100
AcDbEntity
  8
4
100
AcDbLine
 10
1555.806944602884
 20
544.9815167177653
 30
0.0
 11
1558.806944602883
 21
544.9815167177653
 31
0.0
  0
LINE
  5
328
330
1B
100
AcDbEntity
  8
4
100
AcDbLine
 10
1566.777404602883
 20
544.9815167177653
 30
0.0
 11
1558.806944602883
 21
544.9815167177653
 31
0.0
  0
LINE
  5
329
330
1B
100
AcDbEntity
  8
L-CENTER
100
AcDbLine
 10
1505.245390765525
 20
556.9815167177653
 30
0.0
 11
1573.671296574208
 21
556.9815167177653
 31
0.0
  0
ARC
  5
32A
330
1B
100
AcDbEntity
  8
4
100
AcDbCircle
 10
1549.806944602883
 20
556.9815167177653
 30
0.0
 40
17.999975
100
AcDbArc
 50
340.5296600000135
 51
19.47133100000266
  0
ARC
  5
32B
330
1B
100
AcDbEntity
  8
4
100
AcDbCircle
 10
1563.223204602883
 20
565.9815167177653
 30
0.0
 40
4.583600000000001
100
AcDbArc
 50
319.1186700000089
 51
40.88332600001108
  0
LINE
  5
32C
330
1B
100
AcDbEntity
  8
4
100
AcDbLine
 10
1555.806944602884
 20
568.9815167177653
 30
0.0
 11
1558.806944602883
 21
568.9815167177653
 31
0.0
  0
LINE
  5
32D
330
1B
100
AcDbEntity
  8
4
100
AcDbLine
 10
1566.777404602883
 20
568.9815167177653
 30
0.0
 11
1558.806944602883
 21
568.9815167177653
 31
0.0
  0
LINE
  5
32E
330
1B
100
AcDbEntity
  8
4
100
AcDbLine
 10
1558.806944602883
 20
550.9815167177653
 30
0.0
 11
1566.777404602883
 21
550.9815167177653
 31
0.0
  0
LINE
  5
32F
330
1B
100
AcDbEntity
  8
4
100
AcDbLine
 10
1558.806944602883
 20
562.9815167177653
 30
0.0
 11
1566.777404602883
 21
562.9815167177653
 31
0.0
  0
LINE
  5
331
330
1B
100
AcDbEntity
  8
4
100
AcDbLine
 10
1345.806944602883
 20
591.7727767177653
 30
0.0
 11
1362.806944602883
 21
591.7727767177653
 31
0.0
  0
LINE
  5
335
330
1B
100
AcDbEntity
  8
4
100
AcDbLine
 10
1530.806944602883
 20
591.7727767177653
 30
0.0
 11
1533.806944602883
 21
591.7727767177653
 31
0.0
  0
LINE
  5
336
330
1B
100
AcDbEntity
  8
L-CENTER
100
AcDbLine
 10
1486.060345824785
 20
629.7727767177653
 30
0.0
 11
1407.553543380981
 21
629.7727767177653
 31
0.0
  0
LINE
  5
337
330
1B
100
AcDbEntity
  8
4
100
AcDbLine
 10
1407.806944602883
 20
599.7727767177653
 30
0.0
 11
1485.806944602883
 21
599.7727767177653
 31
0.0
  0
LINE
  5
338
330
1B
100
AcDbEntity
  8
4
100
AcDbLine
 10
1362.806944602883
 20
597.7727767177653
 30
0.0
 11
1530.806944602883
 21
597.7727767177653
 31
0.0
  0
CIRCLE
  5
339
330
1B
100
AcDbEntity
  8
4
100
AcDbCircle
 10
1446.806944602883
 20
629.7727767177653
 30
0.0
 40
17.5
  0
ARC
  5
33A
330
1B
100
AcDbEntity
  8
4
100
AcDbCircle
 10
1446.806944602883
 20
629.7727767177653
 30
0.0
 40
30.0
100
AcDbArc
 50
294.4275020000081
 51
245.5724979999918
  0
LINE
  5
33B
330
1B
100
AcDbEntity
  8
4
100
AcDbLine
 10
1458.992739602883
 20
608.7727767177653
 30
0.0
 11
1434.621154602883
 21
608.7727767177653
 31
0.0
  0
LINE
  5
33C
330
1B
100
AcDbEntity
  8
4
100
AcDbLine
 10
1468.806944602883
 20
599.7727767177653
 30
0.0
 11
1424.806944602884
 21
599.7727767177653
 31
0.0
  0
LINE
  5
33D
330
1B
100
AcDbEntity
  8
4
100
AcDbLine
 10
1424.806944602884
 20
599.7727767177653
 30
0.0
 11
1468.806944602883
 21
599.7727767177653
 31
0.0
  0
LINE
  5
33E
330
1B
100
AcDbEntity
  8
4
100
AcDbLine
 10
1462.806944602883
 20
599.7727767177653
 30
0.0
 11
1430.806944602883
 21
599.7727767177653
 31
0.0
  0
LINE
  5
33F
330
1B
100
AcDbEntity
  8
4
100
AcDbLine
 10
1434.621154602883
 20
608.7727767177653
 30
0.0
 11
1446.806944602883
 21
610.7727767177653
 31
0.0
  0
LINE
  5
340
330
1B
100
AcDbEntity
  8
4
100
AcDbLine
 10
1434.621154602883
 20
608.7727767177653
 30
0.0
 11
1434.306944602883
 21
599.7727767177653
 31
0.0
  0
LINE
  5
341
330
1B
100
AcDbEntity
  8
4
100
AcDbLine
 10
1407.806944602883
 20
599.7727767177653
 30
0.0
 11
1407.806944602883
 21
597.7727767177653
 31
0.0
  0
LINE
  5
342
330
1B
100
AcDbEntity
  8
4
100
AcDbLine
 10
1423.806944602883
 20
601.7727767177653
 30
0.0
 11
1434.376769602883
 21
601.7727767177653
 31
0.0
  0
LINE
  5
343
330
1B
100
AcDbEntity
  8
4
100
AcDbLine
 10
1423.806944602883
 20
605.7727767177653
 30
0.0
 11
1428.806944602883
 21
605.7727767177653
 31
0.0
  0
LINE
  5
344
330
1B
100
AcDbEntity
  8
4
100
AcDbLine
 10
1426.888244602883
 20
605.7727767177653
 30
0.0
 11
1426.888244602883
 21
607.3396467177654
 31
0.0
  0
LINE
  5
345
330
1B
100
AcDbEntity
  8
4
100
AcDbLine
 10
1424.806944602884
 20
599.7727767177653
 30
0.0
 11
1424.806944602884
 21
601.7727767177653
 31
0.0
  0
LINE
  5
346
330
1B
100
AcDbEntity
  8
4
100
AcDbLine
 10
1423.806944602883
 20
601.7727767177653
 30
0.0
 11
1423.806944602883
 21
605.7727767177653
 31
0.0
  0
LINE
  5
347
330
1B
100
AcDbEntity
  8
4
100
AcDbLine
 10
1458.992739602883
 20
608.7727767177653
 30
0.0
 11
1459.306944602883
 21
599.7727767177653
 31
0.0
  0
LINE
  5
348
330
1B
100
AcDbEntity
  8
4
100
AcDbLine
 10
1459.237124602883
 20
601.7727767177653
 30
0.0
 11
1469.806944602884
 21
601.7727767177653
 31
0.0
  0
LINE
  5
349
330
1B
100
AcDbEntity
  8
4
100
AcDbLine
 10
1464.806944602884
 20
605.7727767177653
 30
0.0
 11
1469.806944602884
 21
605.7727767177653
 31
0.0
  0
LINE
  5
34A
330
1B
100
AcDbEntity
  8
4
100
AcDbLine
 10
1469.806944602884
 20
601.7727767177653
 30
0.0
 11
1469.806944602884
 21
605.7727767177653
 31
0.0
  0
LINE
  5
34B
330
1B
100
AcDbEntity
  8
4
100
AcDbLine
 10
1468.806944602883
 20
601.7727767177653
 30
0.0
 11
1468.806944602883
 21
599.7727767177653
 31
0.0
  0
LINE
  5
34C
330
1B
100
AcDbEntity
  8
4
100
AcDbLine
 10
1466.725404602883
 20
605.7727767177653
 30
0.0
 11
1466.725404602883
 21
607.3394317177654
 31
0.0
  0
LINE
  5
34D
330
1B
100
AcDbEntity
  8
4
100
AcDbLine
 10
1485.806944602883
 20
597.7727767177653
 30
0.0
 11
1485.806944602883
 21
599.7727767177653
 31
0.0
  0
LINE
  5
34E
330
1B
100
AcDbEntity
  8
4
100
AcDbLine
 10
1446.806944602883
 20
610.7727767177653
 30
0.0
 11
1458.992739602883
 21
608.7727767177653
 31
0.0
  0
LINE
  5
34F
330
1B
100
AcDbEntity
  8
4
100
AcDbLine
 10
1555.806944602884
 20
591.7727767177653
 30
0.0
 11
1533.806944602883
 21
591.7727767177653
 31
0.0
  0
LINE
  5
350
330
1B
100
AcDbEntity
  8
4
100
AcDbLine
 10
1711.806944602883
 20
277.7727767177652
 30
0.0
 11
1711.806944602883
 21
353.7727767177652
 31
0.0
  0
LINE
  5
351
330
1B
100
AcDbEntity
  8
4
100
AcDbLine
 10
1712.806944602884
 20
278.7727767177652
 30
0.0
 11
1712.806944602884
 21
359.7727767177652
 31
0.0
  0
LINE
  5
352
330
1B
100
AcDbEntity
  8
4
100
AcDbLine
 10
1711.806944602883
 20
277.7727767177652
 30
0.0
 11
1712.806944602884
 21
278.7727767177652
 31
0.0
  0
LINE
  5
357
330
1B
100
AcDbEntity
  8
4
100
AcDbLine
 10
1711.806944602883
 20
353.7727767177652
 30
0.0
 11
1712.806944602884
 21
352.7727767177652
 31
0.0
  0
LINE
  5
358
330
1B
100
AcDbEntity
  8
4
100
AcDbLine
 10
321.2451281671683
 20
1208.000521955212
 30
0.0
 11
871.2451281671683
 21
1208.000521955212
 31
0.0
  0
LINE
  5
359
330
1B
100
AcDbEntity
  8
L-CENTER
100
AcDbLine
 10
291.2451281671683
 20
1121.000521955212
 30
0.0
 11
901.2451281671683
 21
1121.000521955212
 31
0.0
  0
LINE
  5
35A
330
1B
100
AcDbEntity
  8
4
100
AcDbLine
 10
419.5821281671688
 20
1006.000521955212
 30
0.0
 11
609.5821281671688
 21
1006.000521955211
 31
0.0
  0
LINE
  5
35B
330
1B
100
AcDbEntity
  8
4
100
AcDbLine
 10
438.2517623367075
 20
1271.126141382157
 30
0.0
 11
444.435604357645
 21
1248.400521955211
 31
0.0
  0
LINE
  5
35C
330
1B
100
AcDbEntity
  8
L-CENTER
100
AcDbLine
 10
371.2451281671692
 20
1268.500521955214
 30
0.0
 11
371.2451281671692
 21
1218.50052195521
 31
0.0
  0
LINE
  5
35D
330
1B
100
AcDbEntity
  8
4
100
AcDbLine
 10
306.2451281671683
 20
973.5005219552118
 30
0.0
 11
306.2451281671692
 21
1268.500521955212
 31
0.0
  0
LINE
  5
35E
330
1B
100
AcDbEntity
  8
4
100
AcDbLine
 10
301.2451281671683
 20
1019.500521955213
 30
0.0
 11
301.2451281671683
 21
1144.500521955213
 31
0.0
  0
ARC
  5
35F
330
1B
100
AcDbEntity
  8
4
100
AcDbCircle
 10
323.2451281671683
 20
1022.000521955211
 30
0.0
 40
2.0
100
AcDbArc
 50
180.0
 51
270.0
  0
LINE
  5
360
330
1B
100
AcDbEntity
  8
4
100
AcDbLine
 10
322.2451281671692
 20
1017.000521955212
 30
0.0
 11
351.2451281671683
 21
1017.000521955213
 31
0.0
  0
LINE
  5
361
330
1B
100
AcDbEntity
  8
4
100
AcDbLine
 10
316.2451281671683
 20
963.5005219552118
 30
0.0
 11
428.6026109426803
 21
963.5005219552113
 31
0.0
  0
ARC
  5
362
330
1B
100
AcDbEntity
  8
4
100
AcDbCircle
 10
316.2451281671683
 20
973.5005219552118
 30
0.0
 40
10.0
100
AcDbArc
 50
180.0
 51
270.0
  0
ARC
  5
363
330
1B
100
AcDbEntity
  8
4
100
AcDbCircle
 10
319.2451281671683
 20
1035.000521955211
 30
0.0
 40
2.0
100
AcDbArc
 50
0.0
 51
90.0
  0
LINE
  5
364
330
1B
100
AcDbEntity
  8
4
100
AcDbLine
 10
321.2451281671683
 20
1035.000521955211
 30
0.0
 11
321.2451281671683
 21
1022.000521955211
 31
0.0
  0
LINE
  5
365
330
1B
100
AcDbEntity
  8
4
100
AcDbLine
 10
301.2451281671683
 20
1019.500521955213
 30
0.0
 11
304.5867689536681
 21
1017.829701561962
 31
0.0
  0
ARC
  5
366
330
1B
100
AcDbEntity
  8
4
100
AcDbCircle
 10
308.2451281671692
 20
1039.000521955211
 30
0.0
 40
2.0
100
AcDbArc
 50
180.0
 51
270.0
  0
LINE
  5
367
330
1B
100
AcDbEntity
  8
4
100
AcDbLine
 10
308.2451281671692
 20
1037.000521955211
 30
0.0
 11
884.2451281671692
 21
1037.000521955211
 31
0.0
  0
LINE
  5
368
330
1B
100
AcDbEntity
  8
4
100
AcDbLine
 10
319.2451281671692
 20
998.5005219552118
 30
0.0
 11
306.2451281671692
 21
998.5005219552118
 31
0.0
  0
ARC
  5
369
330
1B
100
AcDbEntity
  8
4
100
AcDbCircle
 10
322.2451281671692
 20
1014.000521955212
 30
0.0
 40
3.0
100
AcDbArc
 50
90.0
 51
180.0
  0
LINE
  5
36A
330
1B
100
AcDbEntity
  8
4
100
AcDbLine
 10
319.2451281671692
 20
1037.000521955212
 30
0.0
 11
319.2451281671692
 21
998.5005219552118
 31
0.0
  0
ARC
  5
36B
330
1B
100
AcDbEntity
  8
4
100
AcDbCircle
 10
303.2451281671683
 20
1015.146419988963
 30
0.0
 40
3.0
100
AcDbArc
 50
0.0
 51
63.43494882292201
  0
LINE
  5
36C
330
1B
100
AcDbEntity
  8
4
100
AcDbLine
 10
444.5444478950597
 20
994.0005219552118
 30
0.0
 11
438.2517623367066
 21
970.8749025282655
 31
0.0
  0
CIRCLE
  5
36D
330
1B
100
AcDbEntity
  8
4
100
AcDbCircle
 10
371.2451281671683
 20
998.5005219552118
 30
0.0
 40
11.0
  0
LINE
  5
36E
330
1B
100
AcDbEntity
  8
L-CENTER
100
AcDbLine
 10
371.2451281671683
 20
973.5005219552108
 30
0.0
 11
371.2451281671683
 21
1023.500521955212
 31
0.0
  0
ARC
  5
36F
330
1B
100
AcDbEntity
  8
4
100
AcDbCircle
 10
428.6026109426803
 20
973.5005219552113
 30
0.0
 40
10.0
100
AcDbArc
 50
270.0
 51
344.7778667737406
  0
LINE
  5
370
330
1B
100
AcDbEntity
  8
L-CENTER
100
AcDbLine
 10
396.2451281671683
 20
998.5005219552118
 30
0.0
 11
346.2451281671674
 21
998.5005219552118
 31
0.0
  0
ARC
  5
371
330
1B
100
AcDbEntity
  8
4
100
AcDbCircle
 10
596.2451281671683
 20
7011.996351811978
 30
0.0
 40
6002.0
100
AcDbArc
 50
267.6605519446659
 51
272.3394480553341
  0
ARC
  5
372
330
1B
100
AcDbEntity
  8
4
100
AcDbCircle
 10
348.2451281671683
 20
1017.000521955211
 30
0.0
 40
3.0
100
AcDbArc
 50
0.0
 51
90.0
  0
LINE
  5
373
330
1B
100
AcDbEntity
  8
4
100
AcDbLine
 10
351.2451281671683
 20
1017.000521955211
 30
0.0
 11
351.2451281671683
 21
1014.998853063123
 31
0.0
  0
LINE
  5
374
330
1B
100
AcDbEntity
  8
4
100
AcDbLine
 10
323.2451281671683
 20
1020.000521955211
 30
0.0
 11
869.2451281671683
 21
1020.000521955211
 31
0.0
  0
LINE
  5
375
330
1B
100
AcDbEntity
  8
4
100
AcDbLine
 10
419.5821281671688
 20
1006.000521955212
 30
0.0
 11
419.5821281671688
 21
1009.68461328731
 31
0.0
  0
ARC
  5
376
330
1B
100
AcDbEntity
  8
4
100
AcDbCircle
 10
416.5821281671688
 20
1009.68461328731
 30
0.0
 40
3.0
100
AcDbArc
 50
0.0
 51
88.2855174011207
  0
LINE
  5
377
330
1B
100
AcDbEntity
  8
4
100
AcDbLine
 10
301.2451281671683
 20
1144.500521955213
 30
0.0
 11
304.586768953669
 21
1146.171342348463
 31
0.0
  0
ARC
  5
378
330
1B
100
AcDbEntity
  8
4
100
AcDbCircle
 10
303.2451281671692
 20
1148.854623921462
 30
0.0
 40
3.0
100
AcDbArc
 50
296.5650511770683
 51
0.0
  0
LINE
  5
379
330
1B
100
AcDbEntity
  8
4
100
AcDbLine
 10
319.2451281671692
 20
1243.500521955212
 30
0.0
 11
306.2451281671692
 21
1243.500521955212
 31
0.0
  0
LINE
  5
37A
330
1B
100
AcDbEntity
  8
4
100
AcDbLine
 10
321.2451281671683
 20
1208.000521955212
 30
0.0
 11
321.2451281671683
 21
1205.000521955212
 31
0.0
  0
ARC
  5
37B
330
1B
100
AcDbEntity
  8
4
100
AcDbCircle
 10
308.2451281671692
 20
1203.000521955212
 30
0.0
 40
2.0
100
AcDbArc
 50
90.0
 51
180.0
  0
LINE
  5
37C
330
1B
100
AcDbEntity
  8
4
100
AcDbLine
 10
308.2451281671692
 20
1205.000521955212
 30
0.0
 11
884.2451281671692
 21
1205.000521955211
 31
0.0
  0
LINE
  5
37D
330
1B
100
AcDbEntity
  8
4
100
AcDbLine
 10
319.2451281671692
 20
1205.000521955212
 30
0.0
 11
319.2451281671692
 21
1243.500521955212
 31
0.0
  0
LINE
  5
37E
330
1B
100
AcDbEntity
  8
L-CENTER
100
AcDbLine
 10
396.2451281671711
 20
1243.500521955212
 30
0.0
 11
346.2451281671674
 21
1243.500521955212
 31
0.0
  0
CIRCLE
  5
37F
330
1B
100
AcDbEntity
  8
4
100
AcDbCircle
 10
371.2451281671692
 20
1243.500521955212
 30
0.0
 40
11.0
  0
LINE
  5
380
330
1B
100
AcDbEntity
  8
4
100
AcDbLine
 10
316.2451281671692
 20
1278.500521955212
 30
0.0
 11
428.6026109426812
 21
1278.500521955212
 31
0.0
  0
ARC
  5
381
330
1B
100
AcDbEntity
  8
4
100
AcDbCircle
 10
316.2451281671692
 20
1268.500521955212
 30
0.0
 40
10.0
100
AcDbArc
 50
90.0
 51
180.0
  0
ARC
  5
382
330
1B
100
AcDbEntity
  8
4
100
AcDbCircle
 10
428.6026109426812
 20
1268.500521955212
 30
0.0
 40
10.0
100
AcDbArc
 50
15.22213322625935
 51
90.0
  0
LINE
  5
383
330
1B
100
AcDbEntity
  8
L-CENTER
100
AcDbLine
 10
821.2451281671674
 20
1268.500521955214
 30
0.0
 11
821.2451281671683
 21
1218.50052195521
 31
0.0
  0
LINE
  5
384
330
1B
100
AcDbEntity
  8
4
100
AcDbLine
 10
754.23849399763
 20
1271.126141382157
 30
0.0
 11
750.6396859902982
 21
1257.900521955214
 31
0.0
  0
LINE
  5
385
330
1B
100
AcDbEntity
  8
4
100
AcDbLine
 10
886.2451281671692
 20
973.5005219552118
 30
0.0
 11
886.2451281671683
 21
1268.500521955212
 31
0.0
  0
LINE
  5
386
330
1B
100
AcDbEntity
  8
4
100
AcDbLine
 10
750.5308424528854
 20
984.5005219552013
 30
0.0
 11
754.23849399763
 21
970.874902528265
 31
0.0
  0
LINE
  5
387
330
1B
100
AcDbEntity
  8
4
100
AcDbLine
 10
626.5821281671688
 20
1006.000521955212
 30
0.0
 11
786.5821281671688
 21
1006.000521955212
 31
0.0
  0
LINE
  5
388
330
1B
100
AcDbEntity
  8
L-CENTER
100
AcDbLine
 10
596.2451281671683
 20
1251.575745596549
 30
0.0
 11
596.2451281671683
 21
991.0005219552118
 31
0.0
  0
ARC
  5
389
330
1B
100
AcDbEntity
  8
4
100
AcDbCircle
 10
623.5821281671688
 20
1007.058576245022
 30
0.0
 40
3.0
100
AcDbArc
 50
0.0
 51
90.26083266185351
  0
LINE
  5
38A
330
1B
100
AcDbEntity
  8
4
100
AcDbLine
 10
626.5821281671688
 20
1006.000521955212
 30
0.0
 11
626.5821281671688
 21
1007.058576245022
 31
0.0
  0
LINE
  5
38B
330
1B
100
AcDbEntity
  8
4
100
AcDbLine
 10
609.5821281671688
 20
1006.000521955211
 30
0.0
 11
609.5821281671688
 21
1007.018574798061
 31
0.0
  0
ARC
  5
38C
330
1B
100
AcDbEntity
  8
4
100
AcDbCircle
 10
612.5821281671688
 20
1007.018574798061
 30
0.0
 40
3.0
100
AcDbArc
 50
90.15587715317314
 51
180.0
  0
LINE
  5
38D
330
1B
100
AcDbEntity
  8
4
100
AcDbLine
 10
891.2451281671683
 20
1019.500521955213
 30
0.0
 11
891.2451281671683
 21
1144.500521955213
 31
0.0
  0
CIRCLE
  5
38E
330
1B
100
AcDbEntity
  8
4
100
AcDbCircle
 10
821.2451281671692
 20
998.5005219552118
 30
0.0
 40
11.0
  0
LINE
  5
38F
330
1B
100
AcDbEntity
  8
L-CENTER
100
AcDbLine
 10
821.2451281671692
 20
973.5005219552108
 30
0.0
 11
821.2451281671692
 21
1023.500521955212
 31
0.0
  0
LINE
  5
390
330
1B
100
AcDbEntity
  8
4
100
AcDbLine
 10
876.2451281671692
 20
963.5005219552118
 30
0.0
 11
763.8876453916564
 21
963.5005219552108
 31
0.0
  0
ARC
  5
391
330
1B
100
AcDbEntity
  8
4
100
AcDbCircle
 10
763.8876453916564
 20
973.5005219552108
 30
0.0
 40
10.0
100
AcDbArc
 50
195.2221332262594
 51
270.0
  0
ARC
  5
392
330
1B
100
AcDbEntity
  8
4
100
AcDbCircle
 10
876.2451281671692
 20
973.5005219552118
 30
0.0
 40
10.0
100
AcDbArc
 50
270.0
 51
0.0
  0
LINE
  5
393
330
1B
100
AcDbEntity
  8
L-CENTER
100
AcDbLine
 10
796.2451281671692
 20
998.5005219552118
 30
0.0
 11
846.2451281671692
 21
998.5005219552118
 31
0.0
  0
ARC
  5
394
330
1B
100
AcDbEntity
  8
4
100
AcDbCircle
 10
789.5821281671688
 20
1010.109498127461
 30
0.0
 40
3.0
100
AcDbArc
 50
91.84501395329735
 51
180.0
  0
LINE
  5
395
330
1B
100
AcDbEntity
  8
4
100
AcDbLine
 10
786.5821281671688
 20
1006.000521955212
 30
0.0
 11
786.5821281671688
 21
1010.109498127461
 31
0.0
  0
ARC
  5
396
330
1B
100
AcDbEntity
  8
4
100
AcDbCircle
 10
884.2451281671692
 20
1039.000521955212
 30
0.0
 40
2.0
100
AcDbArc
 50
270.0
 51
0.0
  0
LINE
  5
397
330
1B
100
AcDbEntity
  8
4
100
AcDbLine
 10
891.2451281671683
 20
1019.500521955213
 30
0.0
 11
887.9034873806695
 21
1017.829701561962
 31
0.0
  0
LINE
  5
398
330
1B
100
AcDbEntity
  8
4
100
AcDbLine
 10
873.2451281671683
 20
998.5005219552118
 30
0.0
 11
886.2451281671683
 21
998.5005219552118
 31
0.0
  0
ARC
  5
399
330
1B
100
AcDbEntity
  8
4
100
AcDbCircle
 10
889.2451281671692
 20
1015.146419988963
 30
0.0
 40
3.0
100
AcDbArc
 50
116.565051177078
 51
180.0
  0
LINE
  5
39A
330
1B
100
AcDbEntity
  8
4
100
AcDbLine
 10
873.2451281671683
 20
1037.000521955211
 30
0.0
 11
873.2451281671683
 21
998.5005219552118
 31
0.0
  0
LINE
  5
39B
330
1B
100
AcDbEntity
  8
4
100
AcDbLine
 10
871.2451281671683
 20
1035.000521955211
 30
0.0
 11
871.2451281671683
 21
1022.000521955211
 31
0.0
  0
ARC
  5
39C
330
1B
100
AcDbEntity
  8
4
100
AcDbCircle
 10
844.2451281671683
 20
1017.000521955211
 30
0.0
 40
3.0
100
AcDbArc
 50
90.0
 51
180.0
  0
LINE
  5
39D
330
1B
100
AcDbEntity
  8
4
100
AcDbLine
 10
870.2451281671683
 20
1017.000521955212
 30
0.0
 11
841.2451281671683
 21
1017.000521955213
 31
0.0
  0
LINE
  5
39E
330
1B
100
AcDbEntity
  8
4
100
AcDbLine
 10
841.2451281671683
 20
1017.000521955211
 30
0.0
 11
841.2451281671683
 21
1014.998853063123
 31
0.0
  0
ARC
  5
39F
330
1B
100
AcDbEntity
  8
4
100
AcDbCircle
 10
873.2451281671683
 20
1035.000521955211
 30
0.0
 40
2.0
100
AcDbArc
 50
90.0
 51
180.0
  0
ARC
  5
3A0
330
1B
100
AcDbEntity
  8
4
100
AcDbCircle
 10
869.2451281671683
 20
1022.000521955211
 30
0.0
 40
2.0
100
AcDbArc
 50
270.0
 51
0.0
  0
ARC
  5
3A1
330
1B
100
AcDbEntity
  8
4
100
AcDbCircle
 10
870.2451281671683
 20
1014.000521955212
 30
0.0
 40
3.0
100
AcDbArc
 50
0.0
 51
90.0
  0
ARC
  5
3A2
330
1B
100
AcDbEntity
  8
4
100
AcDbCircle
 10
889.2451281671683
 20
1148.854623921462
 30
0.0
 40
3.0
100
AcDbArc
 50
180.0
 51
243.4349488229336
  0
LINE
  5
3A3
330
1B
100
AcDbEntity
  8
4
100
AcDbLine
 10
891.2451281671683
 20
1144.500521955213
 30
0.0
 11
887.9034873806686
 21
1146.171342348463
 31
0.0
  0
CIRCLE
  5
3A4
330
1B
100
AcDbEntity
  8
4
100
AcDbCircle
 10
821.2451281671683
 20
1243.500521955212
 30
0.0
 40
11.0
  0
LINE
  5
3A5
330
1B
100
AcDbEntity
  8
L-CENTER
100
AcDbLine
 10
796.2451281671665
 20
1243.500521955212
 30
0.0
 11
846.2451281671692
 21
1243.500521955212
 31
0.0
  0
LINE
  5
3A6
330
1B
100
AcDbEntity
  8
4
100
AcDbLine
 10
873.2451281671683
 20
1243.500521955212
 30
0.0
 11
886.2451281671683
 21
1243.500521955212
 31
0.0
  0
ARC
  5
3A7
330
1B
100
AcDbEntity
  8
4
100
AcDbCircle
 10
884.2451281671692
 20
1203.000521955212
 30
0.0
 40
2.0
100
AcDbArc
 50
0.0
 51
90.0
  0
LINE
  5
3A8
330
1B
100
AcDbEntity
  8
4
100
AcDbLine
 10
873.2451281671683
 20
1205.000521955212
 30
0.0
 11
873.2451281671683
 21
1243.500521955212
 31
0.0
  0
LINE
  5
3A9
330
1B
100
AcDbEntity
  8
4
100
AcDbLine
 10
871.2451281671683
 20
1208.000521955212
 30
0.0
 11
871.2451281671683
 21
1205.000521955212
 31
0.0
  0
LINE
  5
3AA
330
1B
100
AcDbEntity
  8
4
100
AcDbLine
 10
876.2451281671683
 20
1278.500521955212
 30
0.0
 11
763.8876453916564
 21
1278.500521955212
 31
0.0
  0
ARC
  5
3AB
330
1B
100
AcDbEntity
  8
4
100
AcDbCircle
 10
763.8876453916564
 20
1268.500521955212
 30
0.0
 40
10.0
100
AcDbArc
 50
90.0
 51
164.7778667737406
  0
ARC
  5
3AC
330
1B
100
AcDbEntity
  8
4
100
AcDbCircle
 10
876.2451281671683
 20
1268.500521955212
 30
0.0
 40
10.0
100
AcDbArc
 50
0.0
 51
90.0
  0
LINE
  5
3AD
330
1B
100
AcDbEntity
  8
4
100
AcDbLine
 10
322.9971120463863
 20
1230.400521955211
 30
0.0
 11
869.2255333310275
 21
1230.400521955212
 31
0.0
  0
LINE
  5
3AE
330
1B
100
AcDbEntity
  8
4
100
AcDbLine
 10
320.9971120463863
 20
1208.400521955211
 30
0.0
 11
871.2255333310279
 21
1208.400521955211
 31
0.0
  0
LINE
  5
3AF
330
1B
100
AcDbEntity
  8
4
100
AcDbLine
 10
419.5821281671681
 20
1236.400521955211
 30
0.0
 11
609.5821281671681
 21
1236.400521955211
 31
0.0
  0
LINE
  5
3B0
330
1B
100
AcDbEntity
  8
4
100
AcDbLine
 10
320.9971120463863
 20
1208.400521955211
 30
0.0
 11
320.9971120463863
 21
1228.400521955211
 31
0.0
  0
ARC
  5
3B1
330
1B
100
AcDbEntity
  8
4
100
AcDbCircle
 10
322.9971120463863
 20
1228.400521955211
 30
0.0
 40
2.0
100
AcDbArc
 50
90.0
 51
180.0
  0
ARC
  5
3B2
330
1B
100
AcDbEntity
  8
4
100
AcDbCircle
 10
416.5821281671681
 20
1232.716430623112
 30
0.0
 40
3.0
100
AcDbArc
 50
309.4689158039929
 51
0.0
  0
LINE
  5
3B3
330
1B
100
AcDbEntity
  8
4
100
AcDbLine
 10
419.5821281671681
 20
1236.400521955211
 30
0.0
 11
419.5821281671681
 21
1232.716430623112
 31
0.0
  0
LINE
  5
3B4
330
1B
100
AcDbEntity
  8
4
100
AcDbLine
 10
626.5821281671681
 20
1236.400521955211
 30
0.0
 11
786.5821281671681
 21
1236.400521955211
 31
0.0
  0
ARC
  5
3B5
330
1B
100
AcDbEntity
  8
4
100
AcDbCircle
 10
596.245128167169
 20
-4769.595307901555
 30
0.0
 40
6000.0
100
AcDbArc
 50
89.93244810815968
 51
90.06755189184032
  0
ARC
  5
3B6
330
1B
100
AcDbEntity
  8
4
100
AcDbCircle
 10
596.245128167169
 20
-4769.595307901555
 30
0.0
 40
6002.0
100
AcDbArc
 50
89.7391673381172
 51
89.84412284686243
  0
ARC
  5
3B7
330
1B
100
AcDbEntity
  8
4
100
AcDbCircle
 10
623.5821281671681
 20
1235.342467665401
 30
0.0
 40
3.0
100
AcDbArc
 50
269.7391673381465
 51
0.0
  0
LINE
  5
3B8
330
1B
100
AcDbEntity
  8
4
100
AcDbLine
 10
626.5821281671681
 20
1236.400521955211
 30
0.0
 11
626.5821281671681
 21
1235.342467665401
 31
0.0
  0
ARC
  5
3B9
330
1B
100
AcDbEntity
  8
4
100
AcDbCircle
 10
612.5821281671681
 20
1235.382469112362
 30
0.0
 40
3.0
100
AcDbArc
 50
180.0
 51
269.8441228468269
  0
LINE
  5
3BA
330
1B
100
AcDbEntity
  8
4
100
AcDbLine
 10
609.5821281671681
 20
1236.400521955211
 30
0.0
 11
609.5821281671681
 21
1235.382469112362
 31
0.0
  0
ARC
  5
3BB
330
1B
100
AcDbEntity
  8
4
100
AcDbCircle
 10
789.5821281671681
 20
1232.291545782961
 30
0.0
 40
3.0
100
AcDbArc
 50
180.0
 51
219.0753057444228
  0
LINE
  5
3BC
330
1B
100
AcDbEntity
  8
4
100
AcDbLine
 10
786.5821281671681
 20
1236.400521955211
 30
0.0
 11
786.5821281671681
 21
1232.291545782961
 31
0.0
  0
LINE
  5
3BD
330
1B
100
AcDbEntity
  8
4
100
AcDbLine
 10
871.2255333310279
 20
1208.400521955211
 30
0.0
 11
871.2255333310275
 21
1228.400521955211
 31
0.0
  0
ARC
  5
3BE
330
1B
100
AcDbEntity
  8
4
100
AcDbCircle
 10
869.2255333310275
 20
1228.400521955211
 30
0.0
 40
2.0
100
AcDbArc
 50
0.0
 51
90.0
  0
LINE
  5
3BF
330
1B
100
AcDbEntity
  8
L-CENTER
100
AcDbLine
 10
706.5821281671681
 20
1251.400521955211
 30
0.0
 11
706.5821281671681
 21
971.2402058310367
 31
0.0
  0
LINE
  5
3C0
330
1B
100
AcDbEntity
  8
L-CENTER
100
AcDbLine
 10
514.5821281671681
 20
1399.814374021877
 30
0.0
 11
514.5821281671681
 21
842.1866698885465
 31
0.0
  0
LINE
  5
3C1
330
1B
100
AcDbEntity
  8
4
100
AcDbLine
 10
419.5821281671681
 20
1248.400521955211
 30
0.0
 11
609.5821281671681
 21
1248.400521955211
 31
0.0
  0
LINE
  5
3C2
330
1B
100
AcDbEntity
  8
4
100
AcDbLine
 10
419.5821281671688
 20
994.0005219552118
 30
0.0
 11
609.5821281671688
 21
994.0005219552108
 31
0.0
  0
LINE
  5
3C3
330
1B
100
AcDbEntity
  8
4
100
AcDbLine
 10
419.5821281671681
 20
1248.400521955211
 30
0.0
 11
419.5821281671681
 21
1236.400521955211
 31
0.0
  0
LINE
  5
3C4
330
1B
100
AcDbEntity
  8
4
100
AcDbLine
 10
609.5821281671681
 20
1248.400521955211
 30
0.0
 11
609.5821281671681
 21
1236.400521955211
 31
0.0
  0
LINE
  5
3C5
330
1B
100
AcDbEntity
  8
4
100
AcDbLine
 10
609.5821281671688
 20
1006.000521955211
 30
0.0
 11
609.5821281671688
 21
994.0005219552108
 31
0.0
  0
LINE
  5
3C6
330
1B
100
AcDbEntity
  8
4
100
AcDbLine
 10
419.5821281671688
 20
994.0005219552118
 30
0.0
 11
419.5821281671688
 21
1006.000521955212
 31
0.0
  0
LINE
  5
3C7
330
1B
100
AcDbEntity
  8
4
100
AcDbLine
 10
419.5821281671688
 20
1005.600521955211
 30
0.0
 11
609.5821281671688
 21
1005.600521955211
 31
0.0
  0
LINE
  5
3C8
330
1B
100
AcDbEntity
  8
4
100
AcDbLine
 10
419.5821281671681
 20
1236.800521955212
 30
0.0
 11
609.5821281671681
 21
1236.800521955212
 31
0.0
  0
LINE
  5
3C9
330
1B
100
AcDbEntity
  8
4
100
AcDbLine
 10
626.5821281671681
 20
1248.400521955211
 30
0.0
 11
786.5821281671681
 21
1248.400521955211
 31
0.0
  0
LINE
  5
3CA
330
1B
100
AcDbEntity
  8
4
100
AcDbLine
 10
626.5821281671688
 20
994.0005219552118
 30
0.0
 11
786.5821281671688
 21
994.0005219552118
 31
0.0
  0
LINE
  5
3CB
330
1B
100
AcDbEntity
  8
4
100
AcDbLine
 10
626.5821281671681
 20
1248.400521955211
 30
0.0
 11
626.5821281671681
 21
1236.400521955211
 31
0.0
  0
LINE
  5
3CC
330
1B
100
AcDbEntity
  8
4
100
AcDbLine
 10
786.5821281671681
 20
1248.400521955211
 30
0.0
 11
786.5821281671681
 21
1236.400521955211
 31
0.0
  0
LINE
  5
3CD
330
1B
100
AcDbEntity
  8
4
100
AcDbLine
 10
786.5821281671688
 20
1006.000521955212
 30
0.0
 11
786.5821281671688
 21
994.0005219552118
 31
0.0
  0
LINE
  5
3CE
330
1B
100
AcDbEntity
  8
4
100
AcDbLine
 10
626.5821281671688
 20
1006.000521955212
 30
0.0
 11
626.5821281671688
 21
994.0005219552118
 31
0.0
  0
LINE
  5
3CF
330
1B
100
AcDbEntity
  8
4
100
AcDbLine
 10
626.5821281671688
 20
1005.600521955211
 30
0.0
 11
786.5821281671688
 21
1005.600521955211
 31
0.0
  0
LINE
  5
3D0
330
1B
100
AcDbEntity
  8
4
100
AcDbLine
 10
626.5821281671681
 20
1236.800521955212
 30
0.0
 11
786.5821281671681
 21
1236.800521955212
 31
0.0
  0
LINE
  5
3D1
330
1B
100
AcDbEntity
  8
L-CENTER
100
AcDbLine
 10
283.2187607554624
 20
1082.000521955212
 30
0.0
 11
1004.965358167168
 21
1082.000521955212
 31
0.0
  0
LINE
  5
3D2
330
1B
100
AcDbEntity
  8
4
100
AcDbLine
 10
291.2451281671683
 20
1144.500521955212
 30
0.0
 11
301.2451281671683
 21
1144.500521955212
 31
0.0
  0
LINE
  5
3D3
330
1B
100
AcDbEntity
  8
4
100
AcDbLine
 10
291.2451281671683
 20
1019.500521955212
 30
0.0
 11
301.2451281671683
 21
1019.500521955212
 31
0.0
  0
LINE
  5
3D4
330
1B
100
AcDbEntity
  8
4
100
AcDbLine
 10
901.2451281671684
 20
1019.500521955212
 30
0.0
 11
901.2451281671683
 21
1144.500521955211
 31
0.0
  0
LINE
  5
3D5
330
1B
100
AcDbEntity
  8
4
100
AcDbLine
 10
291.2451281671683
 20
1019.500521955212
 30
0.0
 11
291.2451281671683
 21
1144.500521955212
 31
0.0
  0
LINE
  5
3D6
330
1B
100
AcDbEntity
  8
4
100
AcDbLine
 10
891.2451281671683
 20
1144.500521955211
 30
0.0
 11
901.2451281671683
 21
1144.500521955211
 31
0.0
  0
LINE
  5
3D7
330
1B
100
AcDbEntity
  8
4
100
AcDbLine
 10
891.2451281671683
 20
1019.500521955211
 30
0.0
 11
901.2451281671684
 21
1019.500521955212
 31
0.0
  0
LINE
  5
3D8
330
1B
100
AcDbEntity
  8
4
100
AcDbLine
 10
891.6451281671683
 20
1019.500521955213
 30
0.0
 11
891.6451281671683
 21
1144.500521955213
 31
0.0
  0
LINE
  5
3D9
330
1B
100
AcDbEntity
  8
4
100
AcDbLine
 10
300.8451281671684
 20
1019.500521955213
 30
0.0
 11
300.8451281671684
 21
1144.500521955213
 31
0.0
  0
LINE
  5
3DA
330
1B
100
AcDbEntity
  8
4
100
AcDbLine
 10
994.2451281671683
 20
1077.000521955212
 30
0.0
 11
994.2451281671683
 21
1064.000521955212
 31
0.0
  0
LINE
  5
3DB
330
1B
100
AcDbEntity
  8
4
100
AcDbLine
 10
995.2451281671683
 20
1099.000521955212
 30
0.0
 11
995.2451281671683
 21
1065.000521955212
 31
0.0
  0
LINE
  5
3DC
330
1B
100
AcDbEntity
  8
4
100
AcDbLine
 10
915.2451281671683
 20
1102.000521955212
 30
0.0
 11
915.2451281671683
 21
1062.000521955212
 31
0.0
  0
LINE
  5
3DD
330
1B
100
AcDbEntity
  8
4
100
AcDbLine
 10
916.2451281671683
 20
1064.000521955212
 30
0.0
 11
994.2451281671683
 21
1064.000521955212
 31
0.0
  0
ARC
  5
3DE
330
1B
100
AcDbEntity
  8
4
100
AcDbCircle
 10
916.2451281671683
 20
1063.000521955212
 30
0.0
 40
1.0
100
AcDbArc
 50
90.0
 51
180.0
  0
LINE
  5
3DF
330
1B
100
AcDbEntity
  8
4
100
AcDbLine
 10
995.2451281671683
 20
1065.000521955212
 30
0.0
 11
994.2451281671683
 21
1064.000521955212
 31
0.0
  0
LINE
  5
3E0
330
1B
100
AcDbEntity
  8
4
100
AcDbLine
 10
916.2451281671683
 20
1100.000521955212
 30
0.0
 11
994.2451281671683
 21
1100.000521955212
 31
0.0
  0
LINE
  5
3E1
330
1B
100
AcDbEntity
  8
4
100
AcDbLine
 10
925.2451281671674
 20
1087.000521955212
 30
0.0
 11
995.2451281671683
 21
1087.000521955212
 31
0.0
  0
LINE
  5
3E2
330
1B
100
AcDbEntity
  8
4
100
AcDbLine
 10
925.2451281671674
 20
1077.000521955212
 30
0.0
 11
995.2451281671683
 21
1077.000521955212
 31
0.0
  0
ARC
  5
3E3
330
1B
100
AcDbEntity
  8
4
100
AcDbCircle
 10
916.2451281671683
 20
1101.000521955212
 30
0.0
 40
1.0
100
AcDbArc
 50
180.0
 51
270.0
  0
ARC
  5
3E4
330
1B
100
AcDbEntity
  8
4
100
AcDbCircle
 10
925.2451281671683
 20
1082.000521955212
 30
0.0
 40
5.0
100
AcDbArc
 50
90.0
 51
270.0
  0
LINE
  5
3E5
330
1B
100
AcDbEntity
  8
4
100
AcDbLine
 10
994.2451281671683
 20
1100.000521955212
 30
0.0
 11
995.2451281671683
 21
1099.000521955212
 31
0.0
  0
LINE
  5
3E6
330
1B
100
AcDbEntity
  8
4
100
AcDbLine
 10
994.2451281671683
 20
1100.000521955212
 30
0.0
 11
994.2451281671683
 21
1087.000521955212
 31
0.0
  0
LINE
  5
3E7
330
1B
100
AcDbEntity
  8
4
100
AcDbLine
 10
902.2451281671684
 20
1102.000521955212
 30
0.0
 11
915.2451281671683
 21
1102.000521955212
 31
0.0
  0
LINE
  5
3E8
330
1B
100
AcDbEntity
  8
4
100
AcDbLine
 10
902.2451281671683
 20
1062.000521955211
 30
0.0
 11
915.2451281671683
 21
1062.000521955212
 31
0.0
  0
LINE
  5
3E9
330
1B
100
AcDbEntity
  8
4
100
AcDbLine
 10
463.4392511005979
 20
381.0494285467215
 30
0.0
 11
453.9587329915692
 21
383.5897257178648
 31
0.0
  0
CIRCLE
  5
3EA
330
1B
100
AcDbEntity
  8
4
100
AcDbCircle
 10
456.499030162712
 20
374.1092076088365
 30
0.0
 40
8.5
  0
LINE
  5
3EB
330
1B
100
AcDbEntity
  8
4
100
AcDbLine
 10
453.9587329915692
 20
383.5897257178648
 30
0.0
 11
447.0185120536837
 21
376.6495047799789
 31
0.0
  0
LINE
  5
3EC
330
1B
100
AcDbEntity
  8
4
100
AcDbLine
 10
449.5588092248264
 20
367.1689866709502
 30
0.0
 11
459.0393273338548
 21
364.6286894998083
 31
0.0
  0
LINE
  5
3ED
330
1B
100
AcDbEntity
  8
4
100
AcDbLine
 10
459.0393273338548
 20
364.6286894998083
 30
0.0
 11
465.9795482717406
 21
371.5689104376933
 31
0.0
  0
LINE
  5
3EE
330
1B
100
AcDbEntity
  8
4
100
AcDbLine
 10
447.0185120536837
 20
376.6495047799789
 30
0.0
 11
449.5588092248264
 21
367.1689866709502
 31
0.0
  0
LINE
  5
3EF
330
1B
100
AcDbEntity
  8
4
100
AcDbLine
 10
465.9795482717406
 20
371.5689104376933
 30
0.0
 11
463.4392511005979
 21
381.0494285467215
 31
0.0
  0
LINE
  5
3F0
330
1B
100
AcDbEntity
  8
4
100
AcDbLine
 10
580.1119177164376
 20
264.3768573717442
 30
0.0
 11
570.6313996074089
 21
266.917154542887
 31
0.0
  0
CIRCLE
  5
3F1
330
1B
100
AcDbEntity
  8
4
100
AcDbCircle
 10
573.1716967785517
 20
257.4366364338588
 30
0.0
 40
8.5
  0
LINE
  5
3F2
330
1B
100
AcDbEntity
  8
4
100
AcDbLine
 10
570.6313996074089
 20
266.917154542887
 30
0.0
 11
563.6911786695234
 21
259.9769336050011
 31
0.0
  0
LINE
  5
3F3
330
1B
100
AcDbEntity
  8
4
100
AcDbLine
 10
566.2314758406661
 20
250.4964154959729
 30
0.0
 11
575.7119939496945
 21
247.9561183248305
 31
0.0
  0
LINE
  5
3F4
330
1B
100
AcDbEntity
  8
4
100
AcDbLine
 10
575.7119939496945
 20
247.9561183248305
 30
0.0
 11
582.6522148875804
 21
254.8963392627155
 31
0.0
  0
LINE
  5
3F5
330
1B
100
AcDbEntity
  8
4
100
AcDbLine
 10
563.6911786695234
 20
259.9769336050011
 30
0.0
 11
566.2314758406661
 21
250.4964154959729
 31
0.0
  0
LINE
  5
3F6
330
1B
100
AcDbEntity
  8
4
100
AcDbLine
 10
582.6522148875804
 20
254.8963392627155
 30
0.0
 11
580.1119177164376
 21
264.3768573717442
 31
0.0
  0
LINE
  5
3F7
330
1B
100
AcDbEntity
  8
4
100
AcDbLine
 10
459.0390833905499
 20
266.9171078790322
 30
0.0
 11
449.5585652815216
 21
264.3768107078894
 31
0.0
  0
LINE
  5
3F8
330
1B
100
AcDbEntity
  8
4
100
AcDbLine
 10
453.9584890482644
 20
247.9560716609752
 30
0.0
 11
463.4390071572928
 21
250.496368832118
 31
0.0
  0
LINE
  5
3F9
330
1B
100
AcDbEntity
  8
4
100
AcDbLine
 10
465.9793043284351
 20
259.9768869411463
 30
0.0
 11
459.0390833905499
 21
266.9171078790322
 31
0.0
  0
LINE
  5
3FA
330
1B
100
AcDbEntity
  8
4
100
AcDbLine
 10
463.4390071572928
 20
250.496368832118
 30
0.0
 11
465.9793043284351
 21
259.9768869411463
 31
0.0
  0
LINE
  5
3FB
330
1B
100
AcDbEntity
  8
4
100
AcDbLine
 10
447.0182681103784
 20
254.8962925988607
 30
0.0
 11
453.9584890482644
 21
247.9560716609752
 31
0.0
  0
CIRCLE
  5
3FC
330
1B
100
AcDbEntity
  8
4
100
AcDbCircle
 10
456.4987862194068
 20
257.4365897700035
 30
0.0
 40
8.5
  0
LINE
  5
3FD
330
1B
100
AcDbEntity
  8
4
100
AcDbLine
 10
449.5585652815216
 20
264.3768107078894
 30
0.0
 11
447.0182681103784
 21
254.8962925988607
 31
0.0
  0
LINE
  5
3FE
330
1B
100
AcDbEntity
  8
4
100
AcDbLine
 10
575.7117007583539
 20
383.5897283022676
 30
0.0
 11
566.2311826493255
 21
381.0494311311253
 31
0.0
  0
LINE
  5
3FF
330
1B
100
AcDbEntity
  8
4
100
AcDbLine
 10
570.6311064160684
 20
364.6286920842111
 30
0.0
 11
580.1116245250968
 21
367.1689892553539
 31
0.0
  0
LINE
  5
400
330
1B
100
AcDbEntity
  8
4
100
AcDbLine
 10
582.6519216962391
 20
376.6495073643822
 30
0.0
 11
575.7117007583539
 21
383.5897283022676
 31
0.0
  0
LINE
  5
401
330
1B
100
AcDbEntity
  8
4
100
AcDbLine
 10
580.1116245250968
 20
367.1689892553539
 30
0.0
 11
582.6519216962391
 21
376.6495073643822
 31
0.0
  0
LINE
  5
402
330
1B
100
AcDbEntity
  8
4
100
AcDbLine
 10
563.6908854781824
 20
371.5689130220966
 30
0.0
 11
570.6311064160684
 21
364.6286920842111
 31
0.0
  0
CIRCLE
  5
403
330
1B
100
AcDbEntity
  8
4
100
AcDbCircle
 10
573.1714035872108
 20
374.1092101932394
 30
0.0
 40
8.5
  0
LINE
  5
404
330
1B
100
AcDbEntity
  8
4
100
AcDbLine
 10
566.2311826493255
 20
381.0494311311253
 30
0.0
 11
563.6908854781824
 21
371.5689130220966
 31
0.0
  0
LINE
  5
405
330
1B
100
AcDbEntity
  8
L-CENTER
100
AcDbLine
 10
456.499030162712
 20
1223.858143348837
 30
0.0
 11
456.499030162712
 21
1260.768500209792
 31
0.0
  0
LINE
  5
406
330
1B
100
AcDbEntity
  8
4
100
AcDbLine
 10
466.3139847389355
 20
1248.400521955211
 30
0.0
 11
466.3139847389355
 21
1256.996995009359
 31
0.0
  0
ARC
  5
407
330
1B
100
AcDbEntity
  8
4
100
AcDbCircle
 10
456.4990301627121
 20
1244.121356657752
 30
0.0
 40
13.77916529745958
100
AcDbArc
 50
69.1359356360772
 51
110.8640643639228
  0
LINE
  5
408
330
1B
100
AcDbEntity
  8
4
100
AcDbLine
 10
463.8602460948794
 20
1257.900521955211
 30
0.0
 11
449.1378142305437
 21
1257.900521955211
 31
0.0
  0
ARC
  5
409
330
1B
100
AcDbEntity
  8
4
100
AcDbCircle
 10
449.1378142305438
 20
1254.116908026152
 30
0.0
 40
3.783613929059507
100
AcDbArc
 50
49.57010315518443
 51
130.4298968448156
  0
LINE
  5
40A
330
1B
100
AcDbEntity
  8
4
100
AcDbLine
 10
446.6840755864885
 20
1256.996995009359
 30
0.0
 11
446.6840755864885
 21
1248.400521955211
 31
0.0
  0
LINE
  5
40B
330
1B
100
AcDbEntity
  8
4
100
AcDbLine
 10
461.4065074508233
 20
1256.996995009359
 30
0.0
 11
461.4065074508233
 21
1250.900521955211
 31
0.0
  0
LINE
  5
40C
330
1B
100
AcDbEntity
  8
4
100
AcDbLine
 10
451.5915528745998
 20
1256.996995009359
 30
0.0
 11
451.5915528745998
 21
1250.900521955211
 31
0.0
  0
LINE
  5
40D
330
1B
100
AcDbEntity
  8
4
100
AcDbLine
 10
446.6840755864885
 20
1250.900521955211
 30
0.0
 11
466.3139847389355
 21
1250.900521955211
 31
0.0
  0
LINE
  5
40E
330
1B
100
AcDbEntity
  8
4
100
AcDbLine
 10
446.6840755864885
 20
1248.400521955211
 30
0.0
 11
466.3139847389355
 21
1248.400521955211
 31
0.0
  0
ARC
  5
40F
330
1B
100
AcDbEntity
  8
4
100
AcDbCircle
 10
463.8602460948795
 20
1254.116908026152
 30
0.0
 40
3.783613929059507
100
AcDbArc
 50
49.57010315518443
 51
130.4298968448156
  0
LINE
  5
410
330
1B
100
AcDbEntity
  8
L-CENTER
100
AcDbLine
 10
572.6652261716242
 20
1223.858143348837
 30
0.0
 11
572.6652261716242
 21
1260.768500209792
 31
0.0
  0
ARC
  5
411
330
1B
100
AcDbEntity
  8
4
100
AcDbCircle
 10
565.3040102394567
 20
1254.116908026152
 30
0.0
 40
3.783613929059507
100
AcDbArc
 50
49.57010315518443
 51
130.4298968448156
  0
LINE
  5
412
330
1B
100
AcDbEntity
  8
4
100
AcDbLine
 10
582.4801807478477
 20
1248.400521955211
 30
0.0
 11
562.8502715954007
 21
1248.400521955211
 31
0.0
  0
LINE
  5
413
330
1B
100
AcDbEntity
  8
4
100
AcDbLine
 10
582.4801807478477
 20
1250.900521955211
 30
0.0
 11
562.8502715954007
 21
1250.900521955211
 31
0.0
  0
LINE
  5
414
330
1B
100
AcDbEntity
  8
4
100
AcDbLine
 10
577.5727034597364
 20
1256.996995009359
 30
0.0
 11
577.5727034597364
 21
1250.900521955211
 31
0.0
  0
LINE
  5
415
330
1B
100
AcDbEntity
  8
4
100
AcDbLine
 10
567.7577488835129
 20
1256.996995009359
 30
0.0
 11
567.7577488835129
 21
1250.900521955211
 31
0.0
  0
LINE
  5
416
330
1B
100
AcDbEntity
  8
4
100
AcDbLine
 10
582.4801807478477
 20
1256.996995009359
 30
0.0
 11
582.4801807478477
 21
1248.400521955211
 31
0.0
  0
ARC
  5
417
330
1B
100
AcDbEntity
  8
4
100
AcDbCircle
 10
580.0264421037924
 20
1254.116908026152
 30
0.0
 40
3.783613929059507
100
AcDbArc
 50
49.57010315518443
 51
130.4298968448156
  0
LINE
  5
418
330
1B
100
AcDbEntity
  8
4
100
AcDbLine
 10
565.3040102394568
 20
1257.900521955211
 30
0.0
 11
580.0264421037925
 21
1257.900521955211
 31
0.0
  0
ARC
  5
419
330
1B
100
AcDbEntity
  8
4
100
AcDbCircle
 10
572.6652261716241
 20
1244.121356657752
 30
0.0
 40
13.77916529745958
100
AcDbArc
 50
69.13593563607698
 51
110.864064363923
  0
LINE
  5
41A
330
1B
100
AcDbEntity
  8
4
100
AcDbLine
 10
562.8502715954007
 20
1248.400521955211
 30
0.0
 11
562.8502715954007
 21
1256.996995009359
 31
0.0
  0
ARC
  5
41B
330
1B
100
AcDbEntity
  8
4
100
AcDbCircle
 10
463.8602460948795
 20
988.2841358842711
 30
0.0
 40
3.783613929059507
100
AcDbArc
 50
229.5701031551844
 51
310.4298968448156
  0
LINE
  5
41C
330
1B
100
AcDbEntity
  8
4
100
AcDbLine
 10
446.6840755864885
 20
994.0005219552118
 30
0.0
 11
466.3139847389355
 21
994.0005219552118
 31
0.0
  0
LINE
  5
41D
330
1B
100
AcDbEntity
  8
4
100
AcDbLine
 10
446.6840755864885
 20
991.5005219552118
 30
0.0
 11
466.3139847389355
 21
991.5005219552118
 31
0.0
  0
LINE
  5
41E
330
1B
100
AcDbEntity
  8
4
100
AcDbLine
 10
451.5915528745998
 20
985.4040489010645
 30
0.0
 11
451.5915528745998
 21
991.5005219552118
 31
0.0
  0
LINE
  5
41F
330
1B
100
AcDbEntity
  8
4
100
AcDbLine
 10
461.4065074508233
 20
985.4040489010645
 30
0.0
 11
461.4065074508233
 21
991.5005219552118
 31
0.0
  0
LINE
  5
420
330
1B
100
AcDbEntity
  8
4
100
AcDbLine
 10
446.6840755864885
 20
985.4040489010645
 30
0.0
 11
446.6840755864885
 21
994.0005219552118
 31
0.0
  0
ARC
  5
421
330
1B
100
AcDbEntity
  8
4
100
AcDbCircle
 10
449.1378142305438
 20
988.2841358842711
 30
0.0
 40
3.783613929059507
100
AcDbArc
 50
229.5701031551844
 51
310.4298968448156
  0
LINE
  5
422
330
1B
100
AcDbEntity
  8
4
100
AcDbLine
 10
463.8602460948794
 20
984.5005219552118
 30
0.0
 11
449.1378142305437
 21
984.5005219552118
 31
0.0
  0
ARC
  5
423
330
1B
100
AcDbEntity
  8
4
100
AcDbCircle
 10
456.4990301627121
 20
998.279687252671
 30
0.0
 40
13.77916529745958
100
AcDbArc
 50
249.1359356360772
 51
290.8640643639228
  0
LINE
  5
424
330
1B
100
AcDbEntity
  8
4
100
AcDbLine
 10
466.3139847389355
 20
994.0005219552118
 30
0.0
 11
466.3139847389355
 21
985.4040489010645
 31
0.0
  0
LINE
  5
425
330
1B
100
AcDbEntity
  8
L-CENTER
100
AcDbLine
 10
456.499030162712
 20
1018.542900561587
 30
0.0
 11
456.499030162712
 21
981.6325437006312
 31
0.0
  0
LINE
  5
426
330
1B
100
AcDbEntity
  8
4
100
AcDbLine
 10
562.8502715954007
 20
994.0005219552118
 30
0.0
 11
562.8502715954007
 21
985.4040489010645
 31
0.0
  0
ARC
  5
427
330
1B
100
AcDbEntity
  8
4
100
AcDbCircle
 10
572.6652261716241
 20
998.279687252671
 30
0.0
 40
13.77916529745958
100
AcDbArc
 50
249.1359356360769
 51
290.8640643639231
  0
LINE
  5
428
330
1B
100
AcDbEntity
  8
4
100
AcDbLine
 10
565.3040102394568
 20
984.5005219552118
 30
0.0
 11
580.0264421037925
 21
984.5005219552118
 31
0.0
  0
ARC
  5
429
330
1B
100
AcDbEntity
  8
4
100
AcDbCircle
 10
580.0264421037924
 20
988.2841358842711
 30
0.0
 40
3.783613929059507
100
AcDbArc
 50
229.5701031551844
 51
310.4298968448156
  0
LINE
  5
42A
330
1B
100
AcDbEntity
  8
4
100
AcDbLine
 10
582.4801807478477
 20
985.4040489010645
 30
0.0
 11
582.4801807478477
 21
994.0005219552118
 31
0.0
  0
LINE
  5
42B
330
1B
100
AcDbEntity
  8
4
100
AcDbLine
 10
567.7577488835129
 20
985.4040489010645
 30
0.0
 11
567.7577488835129
 21
991.5005219552118
 31
0.0
  0
LINE
  5
42C
330
1B
100
AcDbEntity
  8
4
100
AcDbLine
 10
577.5727034597364
 20
985.4040489010645
 30
0.0
 11
577.5727034597364
 21
991.5005219552118
 31
0.0
  0
LINE
  5
42D
330
1B
100
AcDbEntity
  8
4
100
AcDbLine
 10
582.4801807478477
 20
991.5005219552118
 30
0.0
 11
562.8502715954007
 21
991.5005219552118
 31
0.0
  0
LINE
  5
42E
330
1B
100
AcDbEntity
  8
4
100
AcDbLine
 10
582.4801807478477
 20
994.0005219552118
 30
0.0
 11
562.8502715954007
 21
994.0005219552118
 31
0.0
  0
ARC
  5
42F
330
1B
100
AcDbEntity
  8
4
100
AcDbCircle
 10
565.3040102394567
 20
988.2841358842711
 30
0.0
 40
3.783613929059507
100
AcDbArc
 50
229.5701031551844
 51
310.4298968448156
  0
LINE
  5
430
330
1B
100
AcDbEntity
  8
L-CENTER
100
AcDbLine
 10
572.6652261716242
 20
1018.542900561587
 30
0.0
 11
572.6652261716242
 21
981.6325437006312
 31
0.0
  0
LINE
  5
431
330
1B
100
AcDbEntity
  8
4
100
AcDbLine
 10
754.7474255364617
 20
386.215176182818
 30
0.0
 11
745.2669074274334
 21
383.6748790116752
 31
0.0
  0
LINE
  5
432
330
1B
100
AcDbEntity
  8
4
100
AcDbLine
 10
749.6668311941762
 20
367.2541399647606
 30
0.0
 11
759.1473493032046
 21
369.7944371359034
 31
0.0
  0
LINE
  5
433
330
1B
100
AcDbEntity
  8
4
100
AcDbLine
 10
761.6876464743469
 20
379.2749552449321
 30
0.0
 11
754.7474255364617
 21
386.215176182818
 31
0.0
  0
LINE
  5
434
330
1B
100
AcDbEntity
  8
4
100
AcDbLine
 10
759.1473493032046
 20
369.7944371359034
 30
0.0
 11
761.6876464743469
 21
379.2749552449321
 31
0.0
  0
LINE
  5
435
330
1B
100
AcDbEntity
  8
4
100
AcDbLine
 10
742.7266102562902
 20
374.1943609026465
 30
0.0
 11
749.6668311941762
 21
367.2541399647606
 31
0.0
  0
CIRCLE
  5
436
330
1B
100
AcDbEntity
  8
4
100
AcDbCircle
 10
752.2071283653186
 20
376.7346580737893
 30
0.0
 40
8.5
  0
LINE
  5
437
330
1B
100
AcDbEntity
  8
4
100
AcDbLine
 10
745.2669074274334
 20
383.6748790116752
 30
0.0
 11
742.7266102562902
 21
374.1943609026465
 31
0.0
  0
LINE
  5
438
330
1B
100
AcDbEntity
  8
4
100
AcDbLine
 10
662.8235372739997
 20
294.2913013369147
 30
0.0
 11
653.3430191649713
 21
291.7510041657723
 31
0.0
  0
LINE
  5
439
330
1B
100
AcDbEntity
  8
4
100
AcDbLine
 10
657.7429429317142
 20
275.3302651188577
 30
0.0
 11
667.2234610407426
 21
277.8705622900005
 31
0.0
  0
LINE
  5
43A
330
1B
100
AcDbEntity
  8
4
100
AcDbLine
 10
669.7637582118849
 20
287.3510803990292
 30
0.0
 11
662.8235372739997
 21
294.2913013369147
 31
0.0
  0
LINE
  5
43B
330
1B
100
AcDbEntity
  8
4
100
AcDbLine
 10
667.2234610407426
 20
277.8705622900005
 30
0.0
 11
669.7637582118849
 21
287.3510803990292
 31
0.0
  0
LINE
  5
43C
330
1B
100
AcDbEntity
  8
4
100
AcDbLine
 10
650.8027219938282
 20
282.2704860567436
 30
0.0
 11
657.7429429317142
 21
275.3302651188577
 31
0.0
  0
CIRCLE
  5
43D
330
1B
100
AcDbEntity
  8
4
100
AcDbCircle
 10
660.2832401028566
 20
284.8107832278864
 30
0.0
 40
8.5
  0
LINE
  5
43E
330
1B
100
AcDbEntity
  8
4
100
AcDbLine
 10
653.3430191649713
 20
291.7510041657723
 30
0.0
 11
650.8027219938282
 21
282.2704860567436
 31
0.0
  0
LINE
  5
43F
330
1B
100
AcDbEntity
  8
4
100
AcDbLine
 10
653.3429070311324
 20
369.7944371359034
 30
0.0
 11
662.8234251401608
 21
367.2541399647606
 31
0.0
  0
LINE
  5
440
330
1B
100
AcDbEntity
  8
4
100
AcDbLine
 10
662.8234251401608
 20
367.2541399647606
 30
0.0
 11
669.7636460780466
 21
374.1943609026461
 31
0.0
  0
LINE
  5
441
330
1B
100
AcDbEntity
  8
4
100
AcDbLine
 10
667.2233489069039
 20
383.6748790116743
 30
0.0
 11
657.7428307978753
 21
386.2151761828176
 31
0.0
  0
CIRCLE
  5
442
330
1B
100
AcDbEntity
  8
4
100
AcDbCircle
 10
660.2831279690181
 20
376.7346580737893
 30
0.0
 40
8.5
  0
LINE
  5
443
330
1B
100
AcDbEntity
  8
4
100
AcDbLine
 10
657.7428307978753
 20
386.2151761828176
 30
0.0
 11
650.8026098599896
 21
379.2749552449317
 31
0.0
  0
LINE
  5
444
330
1B
100
AcDbEntity
  8
4
100
AcDbLine
 10
650.8026098599896
 20
379.2749552449317
 30
0.0
 11
653.3429070311324
 21
369.7944371359034
 31
0.0
  0
LINE
  5
445
330
1B
100
AcDbEntity
  8
4
100
AcDbLine
 10
669.7636460780466
 20
374.1943609026461
 30
0.0
 11
667.2233489069039
 21
383.6748790116743
 31
0.0
  0
LINE
  5
446
330
1B
100
AcDbEntity
  8
4
100
AcDbLine
 10
745.266907427433
 20
277.8706744238551
 30
0.0
 11
754.7474255364614
 21
275.3303772527128
 31
0.0
  0
LINE
  5
447
330
1B
100
AcDbEntity
  8
4
100
AcDbLine
 10
754.7474255364614
 20
275.3303772527128
 30
0.0
 11
761.6876464743472
 21
282.2705981905982
 31
0.0
  0
LINE
  5
448
330
1B
100
AcDbEntity
  8
4
100
AcDbLine
 10
759.1473493032045
 20
291.7511162996265
 30
0.0
 11
749.6668311941759
 21
294.2914134707697
 31
0.0
  0
CIRCLE
  5
449
330
1B
100
AcDbEntity
  8
4
100
AcDbCircle
 10
752.2071283653186
 20
284.810895361741
 30
0.0
 40
8.5
  0
LINE
  5
44A
330
1B
100
AcDbEntity
  8
4
100
AcDbLine
 10
749.6668311941759
 20
294.2914134707697
 30
0.0
 11
742.7266102562902
 21
287.3511925328838
 31
0.0
  0
LINE
  5
44B
330
1B
100
AcDbEntity
  8
4
100
AcDbLine
 10
742.7266102562902
 20
287.3511925328838
 30
0.0
 11
745.266907427433
 21
277.8706744238551
 31
0.0
  0
LINE
  5
44C
330
1B
100
AcDbEntity
  8
4
100
AcDbLine
 10
761.6876464743472
 20
282.2705981905982
 30
0.0
 11
759.1473493032045
 21
291.7511162996265
 31
0.0
  0
LINE
  5
44D
330
1B
100
AcDbEntity
  8
4
100
AcDbLine
 10
650.4681733927945
 20
1248.400521955211
 30
0.0
 11
650.4681733927945
 21
1256.996995009359
 31
0.0
  0
ARC
  5
44E
330
1B
100
AcDbEntity
  8
4
100
AcDbCircle
 10
660.2831279690179
 20
1244.121356657752
 30
0.0
 40
13.77916529745958
100
AcDbArc
 50
69.13593563607698
 51
110.864064363923
  0
LINE
  5
44F
330
1B
100
AcDbEntity
  8
4
100
AcDbLine
 10
652.9219120368506
 20
1257.900521955211
 30
0.0
 11
667.6443439011863
 21
1257.900521955211
 31
0.0
  0
ARC
  5
450
330
1B
100
AcDbEntity
  8
4
100
AcDbCircle
 10
667.6443439011862
 20
1254.116908026152
 30
0.0
 40
3.783613929059507
100
AcDbArc
 50
49.57010315518443
 51
130.4298968448156
  0
LINE
  5
451
330
1B
100
AcDbEntity
  8
4
100
AcDbLine
 10
670.0980825452415
 20
1256.996995009359
 30
0.0
 11
670.0980825452415
 21
1248.400521955211
 31
0.0
  0
LINE
  5
452
330
1B
100
AcDbEntity
  8
4
100
AcDbLine
 10
655.3756506809067
 20
1256.996995009359
 30
0.0
 11
655.3756506809067
 21
1250.900521955211
 31
0.0
  0
LINE
  5
453
330
1B
100
AcDbEntity
  8
4
100
AcDbLine
 10
665.1906052571302
 20
1256.996995009359
 30
0.0
 11
665.1906052571302
 21
1250.900521955211
 31
0.0
  0
LINE
  5
454
330
1B
100
AcDbEntity
  8
4
100
AcDbLine
 10
670.0980825452415
 20
1250.900521955211
 30
0.0
 11
650.4681733927945
 21
1250.900521955211
 31
0.0
  0
LINE
  5
455
330
1B
100
AcDbEntity
  8
4
100
AcDbLine
 10
670.0980825452415
 20
1248.400521955211
 30
0.0
 11
650.4681733927945
 21
1248.400521955211
 31
0.0
  0
ARC
  5
456
330
1B
100
AcDbEntity
  8
4
100
AcDbCircle
 10
652.9219120368505
 20
1254.116908026152
 30
0.0
 40
3.783613929059507
100
AcDbArc
 50
49.57010315518443
 51
130.4298968448156
  0
LINE
  5
457
330
1B
100
AcDbEntity
  8
L-CENTER
100
AcDbLine
 10
660.283127969018
 20
1223.858143348837
 30
0.0
 11
660.283127969018
 21
1260.768500209792
 31
0.0
  0
LINE
  5
458
330
1B
100
AcDbEntity
  8
L-CENTER
100
AcDbLine
 10
752.8811283653181
 20
1223.858143348839
 30
0.0
 11
752.8811283653162
 21
1260.768500209795
 31
0.0
  0
ARC
  5
459
330
1B
100
AcDbEntity
  8
4
100
AcDbCircle
 10
760.242344297484
 20
1254.116908026155
 30
0.0
 40
3.783613929059507
100
AcDbArc
 50
49.57010315518443
 51
130.4298968448191
  0
LINE
  5
45A
330
1B
100
AcDbEntity
  8
4
100
AcDbLine
 10
743.0661737890933
 20
1248.400521955213
 30
0.0
 11
762.6960829415403
 21
1248.400521955214
 31
0.0
  0
LINE
  5
45B
330
1B
100
AcDbEntity
  8
4
100
AcDbLine
 10
743.0661737890932
 20
1250.900521955213
 30
0.0
 11
762.6960829415402
 21
1250.900521955214
 31
0.0
  0
LINE
  5
45C
330
1B
100
AcDbEntity
  8
4
100
AcDbLine
 10
747.9736510772042
 20
1256.996995009361
 30
0.0
 11
747.9736510772045
 21
1250.900521955214
 31
0.0
  0
LINE
  5
45D
330
1B
100
AcDbEntity
  8
4
100
AcDbLine
 10
757.7886056534277
 20
1256.996995009361
 30
0.0
 11
757.788605653428
 21
1250.900521955214
 31
0.0
  0
LINE
  5
45E
330
1B
100
AcDbEntity
  8
4
100
AcDbLine
 10
743.0661737890929
 20
1256.99699500936
 30
0.0
 11
743.0661737890933
 21
1248.400521955213
 31
0.0
  0
ARC
  5
45F
330
1B
100
AcDbEntity
  8
4
100
AcDbCircle
 10
745.5199124331483
 20
1254.116908026154
 30
0.0
 40
3.783613929059507
100
AcDbArc
 50
49.57010315518443
 51
130.4298968448191
  0
LINE
  5
460
330
1B
100
AcDbEntity
  8
4
100
AcDbLine
 10
760.2423442974838
 20
1257.900521955214
 30
0.0
 11
745.5199124331481
 21
1257.900521955213
 31
0.0
  0
ARC
  5
461
330
1B
100
AcDbEntity
  8
4
100
AcDbCircle
 10
752.8811283653172
 20
1244.121356657755
 30
0.0
 40
13.77916529745958
100
AcDbArc
 50
69.13593563607952
 51
110.8640643639251
  0
LINE
  5
462
330
1B
100
AcDbEntity
  8
4
100
AcDbLine
 10
762.6960829415403
 20
1248.400521955214
 30
0.0
 11
762.6960829415399
 21
1256.996995009361
 31
0.0
  0
ARC
  5
463
330
1B
100
AcDbEntity
  8
4
100
AcDbCircle
 10
652.9219120368373
 20
988.284135884272
 30
0.0
 40
3.783613929059507
100
AcDbArc
 50
229.570103155154
 51
310.4298968448156
  0
LINE
  5
464
330
1B
100
AcDbEntity
  8
4
100
AcDbLine
 10
670.0980825452289
 20
994.0005219552108
 30
0.0
 11
650.4681733927819
 21
994.0005219552127
 31
0.0
  0
LINE
  5
465
330
1B
100
AcDbEntity
  8
4
100
AcDbLine
 10
670.0980825452286
 20
991.5005219552108
 30
0.0
 11
650.4681733927816
 21
991.5005219552127
 31
0.0
  0
LINE
  5
466
330
1B
100
AcDbEntity
  8
4
100
AcDbLine
 10
665.1906052571168
 20
985.4040489010645
 30
0.0
 11
665.1906052571173
 21
991.5005219552118
 31
0.0
  0
LINE
  5
467
330
1B
100
AcDbEntity
  8
4
100
AcDbLine
 10
655.3756506808933
 20
985.4040489010654
 30
0.0
 11
655.3756506808938
 21
991.5005219552127
 31
0.0
  0
LINE
  5
468
330
1B
100
AcDbEntity
  8
4
100
AcDbLine
 10
670.0980825452281
 20
985.4040489010636
 30
0.0
 11
670.0980825452289
 21
994.0005219552108
 31
0.0
  0
ARC
  5
469
330
1B
100
AcDbEntity
  8
4
100
AcDbCircle
 10
667.644343901173
 20
988.2841358842707
 30
0.0
 40
3.783613929059507
100
AcDbArc
 50
229.570103155154
 51
310.4298968448156
  0
LINE
  5
46A
330
1B
100
AcDbEntity
  8
4
100
AcDbLine
 10
652.921912036837
 20
984.5005219552127
 30
0.0
 11
667.6443439011728
 21
984.5005219552113
 31
0.0
  0
ARC
  5
46B
330
1B
100
AcDbEntity
  8
4
100
AcDbCircle
 10
660.2831279690057
 20
998.279687252671
 30
0.0
 40
13.77916529745958
100
AcDbArc
 50
249.1359356360723
 51
290.8640643639184
  0
LINE
  5
46C
330
1B
100
AcDbEntity
  8
4
100
AcDbLine
 10
650.4681733927819
 20
994.0005219552127
 30
0.0
 11
650.4681733927811
 21
985.4040489010658
 31
0.0
  0
LINE
  5
46D
330
1B
100
AcDbEntity
  8
L-CENTER
100
AcDbLine
 10
660.2831279690079
 20
1018.542900561587
 30
0.0
 11
660.2831279690042
 21
981.6325437006312
 31
0.0
  0
LINE
  5
46E
330
1B
100
AcDbEntity
  8
4
100
AcDbLine
 10
762.6960829415277
 20
994.000521955199
 30
0.0
 11
762.6960829415265
 21
985.4040489010517
 31
0.0
  0
ARC
  5
46F
330
1B
100
AcDbEntity
  8
4
100
AcDbCircle
 10
752.881128365305
 20
998.2796872526601
 30
0.0
 40
13.77916529745958
100
AcDbArc
 50
249.1359356360705
 51
290.8640643639158
  0
LINE
  5
470
330
1B
100
AcDbEntity
  8
4
100
AcDbLine
 10
760.2423442974703
 20
984.5005219551995
 30
0.0
 11
745.5199124331346
 21
984.5005219552017
 31
0.0
  0
ARC
  5
471
330
1B
100
AcDbEntity
  8
4
100
AcDbCircle
 10
745.5199124331351
 20
988.2841358842611
 30
0.0
 40
3.783613929059507
100
AcDbArc
 50
229.5701031551527
 51
310.4298968448143
  0
LINE
  5
472
330
1B
100
AcDbEntity
  8
4
100
AcDbLine
 10
743.0661737890795
 20
985.4040489010549
 30
0.0
 11
743.0661737890807
 21
994.0005219552017
 31
0.0
  0
LINE
  5
473
330
1B
100
AcDbEntity
  8
4
100
AcDbLine
 10
757.7886056534143
 20
985.4040489010526
 30
0.0
 11
757.7886056534152
 21
991.5005219551999
 31
0.0
  0
LINE
  5
474
330
1B
100
AcDbEntity
  8
4
100
AcDbLine
 10
747.9736510771908
 20
985.404048901054
 30
0.0
 11
747.9736510771917
 21
991.5005219552017
 31
0.0
  0
LINE
  5
475
330
1B
100
AcDbEntity
  8
4
100
AcDbLine
 10
743.0661737890804
 20
991.5005219552017
 30
0.0
 11
762.6960829415274
 21
991.500521955199
 31
0.0
  0
LINE
  5
476
330
1B
100
AcDbEntity
  8
4
100
AcDbLine
 10
743.0661737890807
 20
994.0005219552017
 30
0.0
 11
762.6960829415277
 21
994.000521955199
 31
0.0
  0
ARC
  5
477
330
1B
100
AcDbEntity
  8
4
100
AcDbCircle
 10
760.2423442974708
 20
988.2841358842588
 30
0.0
 40
3.783613929059507
100
AcDbArc
 50
229.5701031551527
 51
310.4298968448143
  0
LINE
  5
478
330
1B
100
AcDbEntity
  8
L-CENTER
100
AcDbLine
 10
752.881128365308
 20
1018.542900561576
 30
0.0
 11
752.8811283653024
 21
981.6325437006203
 31
0.0
  0
LINE
  5
479
330
1B
100
AcDbEntity
  8
4
100
AcDbLine
 10
466.3139847389355
 20
1249.400521955212
 30
0.0
 11
562.8502715954007
 21
1249.400521955211
 31
0.0
  0
LINE
  5
47A
330
1B
100
AcDbEntity
  8
4
100
AcDbLine
 10
477.5821281671679
 20
1387.000521955211
 30
0.0
 11
551.5821281671679
 21
1387.000521955211
 31
0.0
  0
LINE
  5
47B
330
1B
100
AcDbEntity
  8
4
100
AcDbLine
 10
524.5821281671679
 20
1386.000521955211
 30
0.0
 11
552.5821281671679
 21
1386.000521955211
 31
0.0
  0
LINE
  5
47C
330
1B
100
AcDbEntity
  8
4
100
AcDbLine
 10
554.5821281671679
 20
1262.000521955211
 30
0.0
 11
474.5821281671679
 21
1262.000521955211
 31
0.0
  0
LINE
  5
47D
330
1B
100
AcDbEntity
  8
4
100
AcDbLine
 10
552.5821281671679
 20
1263.500521955211
 30
0.0
 11
552.5821281671679
 21
1386.000521955211
 31
0.0
  0
ARC
  5
47E
330
1B
100
AcDbEntity
  8
4
100
AcDbCircle
 10
554.082128167168
 20
1263.500521955212
 30
0.0
 40
1.5
100
AcDbArc
 50
180.0
 51
270.0
  0
LINE
  5
47F
330
1B
100
AcDbEntity
  8
4
100
AcDbLine
 10
551.5821281671679
 20
1387.000521955211
 30
0.0
 11
552.5821281671679
 21
1386.000521955211
 31
0.0
  0
LINE
  5
480
330
1B
100
AcDbEntity
  8
4
  6
Continuous
100
AcDbLine
 10
524.5821281671679
 20
1287.000521955211
 30
0.0
 11
524.5821281671679
 21
1387.000521955211
 31
0.0
  0
LINE
  5
481
330
1B
100
AcDbEntity
  8
4
  6
Continuous
100
AcDbLine
 10
504.5821281671679
 20
1287.000521955211
 30
0.0
 11
504.5821281671679
 21
1387.000521955211
 31
0.0
  0
LINE
  5
482
330
1B
100
AcDbEntity
  8
4
  6
Continuous
100
AcDbLine
 10
476.5821281671679
 20
1263.500521955211
 30
0.0
 11
476.5821281671679
 21
1386.000521955211
 31
0.0
  0
LINE
  5
483
330
1B
100
AcDbEntity
  8
4
100
AcDbLine
 10
514.5821281671679
 20
1277.000521955211
 30
0.0
 11
514.5821281671679
 21
1277.000521955211
 31
0.0
  0
ARC
  5
484
330
1B
100
AcDbEntity
  8
4
100
AcDbCircle
 10
514.582128167168
 20
1287.000521955212
 30
0.0
 40
10.0
100
AcDbArc
 50
270.0
 51
0.0
  0
ARC
  5
485
330
1B
100
AcDbEntity
  8
4
100
AcDbCircle
 10
514.582128167168
 20
1287.000521955212
 30
0.0
 40
10.0
100
AcDbArc
 50
180.0
 51
270.0
  0
ARC
  5
486
330
1B
100
AcDbEntity
  8
4
100
AcDbCircle
 10
475.082128167168
 20
1263.500521955212
 30
0.0
 40
1.5
100
AcDbArc
 50
270.0
 51
0.0
  0
LINE
  5
487
330
1B
100
AcDbEntity
  8
4
100
AcDbLine
 10
477.5821281671679
 20
1387.000521955211
 30
0.0
 11
476.5821281671679
 21
1386.000521955211
 31
0.0
  0
LINE
  5
488
330
1B
100
AcDbEntity
  8
4
100
AcDbLine
 10
476.5821281671679
 20
1386.000521955211
 30
0.0
 11
504.5821281671679
 21
1386.000521955211
 31
0.0
  0
LINE
  5
489
330
1B
100
AcDbEntity
  8
4
  6
Continuous
100
AcDbLine
 10
474.5821281671679
 20
1249.400521955211
 30
0.0
 11
474.5821281671679
 21
1262.000521955211
 31
0.0
  0
LINE
  5
48A
330
1B
100
AcDbEntity
  8
4
  6
Continuous
100
AcDbLine
 10
554.5821281671679
 20
1249.400521955211
 30
0.0
 11
554.5821281671679
 21
1262.000521955211
 31
0.0
  0
LINE
  5
48B
330
1B
100
AcDbEntity
  8
L-CENTER
100
AcDbLine
 10
1438.249505839676
 20
186.2153379545583
 30
0.0
 11
1462.217197108477
 21
210.1830292233579
 31
0.0
  0
LINE
  5
48C
330
1B
100
AcDbEntity
  8
L-CENTER
100
AcDbLine
 10
1377.364383366091
 20
186.2153379545579
 30
0.0
 11
1353.39669209729
 21
210.1830292233579
 31
0.0
  0
LINE
  5
48D
330
1B
100
AcDbEntity
  8
L-CENTER
100
AcDbLine
 10
1377.364383366091
 20
125.3302154809725
 30
0.0
 11
1353.39669209729
 21
101.3625242121724
 31
0.0
  0
LINE
  5
48E
330
1B
100
AcDbEntity
  8
L-CENTER
100
AcDbLine
 10
1438.249505839675
 20
125.330215480972
 30
0.0
 11
1462.217197108477
 21
101.3625242121719
 31
0.0
  0
LINE
  5
48F
330
1B
100
AcDbEntity
  8
4
100
AcDbLine
 10
1443.293130536191
 20
205.1394045268443
 30
0.0
 11
1440.752833365048
 21
195.6588864178156
 31
0.0
  0
CIRCLE
  5
490
330
1B
100
AcDbEntity
  8
4
100
AcDbCircle
 10
1450.233351474076
 20
198.1991835889584
 30
0.0
 40
8.5
  0
LINE
  5
491
330
1B
100
AcDbEntity
  8
4
100
AcDbLine
 10
1440.752833365048
 20
195.6588864178156
 30
0.0
 11
1447.693054302934
 21
188.7186654799297
 31
0.0
  0
LINE
  5
492
330
1B
100
AcDbEntity
  8
4
100
AcDbLine
 10
1457.173572411962
 20
191.2589626510725
 30
0.0
 11
1459.713869583104
 21
200.7394807601012
 31
0.0
  0
LINE
  5
493
330
1B
100
AcDbEntity
  8
4
100
AcDbLine
 10
1459.713869583104
 20
200.7394807601012
 30
0.0
 11
1452.773648645219
 21
207.6797016979866
 31
0.0
  0
LINE
  5
494
330
1B
100
AcDbEntity
  8
4
100
AcDbLine
 10
1447.693054302934
 20
188.7186654799297
 30
0.0
 11
1457.173572411962
 21
191.2589626510725
 31
0.0
  0
LINE
  5
495
330
1B
100
AcDbEntity
  8
4
100
AcDbLine
 10
1452.773648645219
 20
207.6797016979866
 30
0.0
 11
1443.293130536191
 21
205.1394045268443
 31
0.0
  0
LINE
  5
496
330
1B
100
AcDbEntity
  8
4
100
AcDbLine
 10
1374.861055840719
 20
195.6588864178146
 30
0.0
 11
1372.320758669576
 21
205.1394045268434
 31
0.0
  0
LINE
  5
497
330
1B
100
AcDbEntity
  8
4
100
AcDbLine
 10
1355.900019622662
 20
200.7394807601003
 30
0.0
 11
1358.440316793805
 21
191.2589626510716
 31
0.0
  0
LINE
  5
498
330
1B
100
AcDbEntity
  8
4
100
AcDbLine
 10
1362.840240560547
 20
207.6797016979862
 30
0.0
 11
1355.900019622662
 21
200.7394807601003
 31
0.0
  0
CIRCLE
  5
499
330
1B
100
AcDbEntity
  8
4
100
AcDbCircle
 10
1365.38053773169
 20
198.1991835889575
 30
0.0
 40
8.5
  0
LINE
  5
49A
330
1B
100
AcDbEntity
  8
4
100
AcDbLine
 10
1372.320758669576
 20
205.1394045268434
 30
0.0
 11
1362.840240560547
 21
207.6797016979862
 31
0.0
  0
LINE
  5
49B
330
1B
100
AcDbEntity
  8
4
100
AcDbLine
 10
1367.920834902833
 20
188.7186654799297
 30
0.0
 11
1374.861055840719
 21
195.6588864178146
 31
0.0
  0
LINE
  5
49C
330
1B
100
AcDbEntity
  8
4
100
AcDbLine
 10
1358.440316793805
 20
191.2589626510716
 30
0.0
 11
1367.920834902833
 21
188.7186654799297
 31
0.0
  0
LINE
  5
49D
330
1B
100
AcDbEntity
  8
4
100
AcDbLine
 10
1452.773648645219
 20
103.8658517375437
 30
0.0
 11
1443.293130536191
 21
106.4061489086861
 31
0.0
  0
LINE
  5
49E
330
1B
100
AcDbEntity
  8
4
100
AcDbLine
 10
1447.693054302934
 20
122.8268879556007
 30
0.0
 11
1457.173572411962
 21
120.2865907844579
 31
0.0
  0
LINE
  5
49F
330
1B
100
AcDbEntity
  8
4
100
AcDbLine
 10
1459.713869583104
 20
110.8060726754292
 30
0.0
 11
1452.773648645219
 21
103.8658517375437
 31
0.0
  0
LINE
  5
4A0
330
1B
100
AcDbEntity
  8
4
100
AcDbLine
 10
1457.173572411962
 20
120.2865907844579
 30
0.0
 11
1459.713869583104
 21
110.8060726754292
 31
0.0
  0
LINE
  5
4A1
330
1B
100
AcDbEntity
  8
4
100
AcDbLine
 10
1440.752833365048
 20
115.8866670177148
 30
0.0
 11
1447.693054302934
 21
122.8268879556007
 31
0.0
  0
CIRCLE
  5
4A2
330
1B
100
AcDbEntity
  8
4
100
AcDbCircle
 10
1450.233351474076
 20
113.346369846572
 30
0.0
 40
8.5
  0
LINE
  5
4A3
330
1B
100
AcDbEntity
  8
4
100
AcDbLine
 10
1443.293130536191
 20
106.4061489086861
 30
0.0
 11
1440.752833365048
 21
115.8866670177148
 31
0.0
  0
LINE
  5
4A4
330
1B
100
AcDbEntity
  8
4
100
AcDbLine
 10
1358.440316793805
 20
120.2865907844588
 30
0.0
 11
1367.920834902833
 21
122.8268879556007
 31
0.0
  0
LINE
  5
4A5
330
1B
100
AcDbEntity
  8
4
100
AcDbLine
 10
1367.920834902833
 20
122.8268879556007
 30
0.0
 11
1374.861055840719
 21
115.8866670177157
 31
0.0
  0
LINE
  5
4A6
330
1B
100
AcDbEntity
  8
4
100
AcDbLine
 10
1372.320758669576
 20
106.406148908687
 30
0.0
 11
1362.840240560547
 21
103.8658517375442
 31
0.0
  0
CIRCLE
  5
4A7
330
1B
100
AcDbEntity
  8
4
100
AcDbCircle
 10
1365.38053773169
 20
113.3463698465729
 30
0.0
 40
8.5
  0
LINE
  5
4A8
330
1B
100
AcDbEntity
  8
4
100
AcDbLine
 10
1362.840240560547
 20
103.8658517375442
 30
0.0
 11
1355.900019622662
 21
110.8060726754301
 31
0.0
  0
LINE
  5
4A9
330
1B
100
AcDbEntity
  8
4
100
AcDbLine
 10
1355.900019622662
 20
110.8060726754301
 30
0.0
 11
1358.440316793805
 21
120.2865907844588
 31
0.0
  0
LINE
  5
4AA
330
1B
100
AcDbEntity
  8
4
100
AcDbLine
 10
1374.861055840719
 20
115.8866670177157
 30
0.0
 11
1372.320758669576
 21
106.406148908687
 31
0.0
  0
LINE
  5
4AB
330
1B
100
AcDbEntity
  8
4
100
AcDbLine
 10
901.2451281671695
 20
208.014138165181
 30
0.0
 11
901.2451281671672
 21
188.384229012734
 31
0.0
  0
LINE
  5
4AC
330
1B
100
AcDbEntity
  8
4
100
AcDbLine
 10
903.7451281671695
 20
208.014138165181
 30
0.0
 11
903.7451281671672
 21
188.384229012734
 31
0.0
  0
ARC
  5
4AD
330
1B
100
AcDbEntity
  8
4
100
AcDbCircle
 10
906.9615142381081
 20
190.8379676567896
 30
0.0
 40
3.783613929059507
100
AcDbArc
 50
319.5701031551686
 51
40.42989684482902
  0
ARC
  5
4AE
330
1B
100
AcDbEntity
  8
4
100
AcDbCircle
 10
906.9615142381097
 20
205.5603995211253
 30
0.0
 40
3.783613929059507
100
AcDbArc
 50
319.5701031551686
 51
40.42989684482902
  0
LINE
  5
4AF
330
1B
100
AcDbEntity
  8
4
100
AcDbLine
 10
910.7451281671676
 20
190.8379676567891
 30
0.0
 11
910.745128167169
 21
205.5603995211249
 31
0.0
  0
ARC
  5
4B0
330
1B
100
AcDbEntity
  8
4
100
AcDbCircle
 10
896.9659628697091
 20
198.1991835889579
 30
0.0
 40
13.77916529745958
100
AcDbArc
 50
339.1359356360851
 51
20.86406436391432
  0
LINE
  5
4B1
330
1B
100
AcDbEntity
  8
L-CENTER
100
AcDbLine
 10
876.7027495607933
 20
198.1991835889602
 30
0.0
 11
913.6131064217491
 21
198.1991835889565
 31
0.0
  0
LINE
  5
4B2
330
1B
100
AcDbEntity
  8
4
100
AcDbLine
 10
909.8416012213163
 20
203.1066608770692
 30
0.0
 11
903.745128167169
 21
203.1066608770697
 31
0.0
  0
LINE
  5
4B3
330
1B
100
AcDbEntity
  8
4
100
AcDbLine
 10
909.8416012213154
 20
193.2917063008457
 30
0.0
 11
903.7451281671681
 21
193.2917063008462
 31
0.0
  0
LINE
  5
4B4
330
1B
100
AcDbEntity
  8
4
100
AcDbLine
 10
909.8416012213168
 20
208.0141381651805
 30
0.0
 11
901.2451281671695
 21
208.014138165181
 31
0.0
  0
LINE
  5
4B5
330
1B
100
AcDbEntity
  8
4
100
AcDbLine
 10
901.2451281671672
 20
188.384229012734
 30
0.0
 11
909.8416012213145
 21
188.3842290127335
 31
0.0
  0
LINE
  5
4B6
330
1B
100
AcDbEntity
  8
4
100
AcDbLine
 10
909.8416012213168
 20
103.5314152703498
 30
0.0
 11
901.2451281671695
 21
103.5314152703494
 31
0.0
  0
LINE
  5
4B7
330
1B
100
AcDbEntity
  8
4
100
AcDbLine
 10
909.8416012213154
 20
118.2538471346846
 30
0.0
 11
903.7451281671681
 21
118.2538471346842
 31
0.0
  0
LINE
  5
4B8
330
1B
100
AcDbEntity
  8
4
100
AcDbLine
 10
909.8416012213163
 20
108.4388925584611
 30
0.0
 11
903.745128167169
 21
108.4388925584607
 31
0.0
  0
LINE
  5
4B9
330
1B
100
AcDbEntity
  8
L-CENTER
100
AcDbLine
 10
876.7027495607933
 20
113.3463698465702
 30
0.0
 11
913.6131064217491
 21
113.3463698465738
 31
0.0
  0
ARC
  5
4BA
330
1B
100
AcDbEntity
  8
4
100
AcDbCircle
 10
896.9659628697091
 20
113.3463698465724
 30
0.0
 40
13.77916529745958
100
AcDbArc
 50
339.1359356360857
 51
20.86406436391492
  0
LINE
  5
4BB
330
1B
100
AcDbEntity
  8
4
100
AcDbLine
 10
910.7451281671676
 20
120.7075857787412
 30
0.0
 11
910.745128167169
 21
105.9851539144055
 31
0.0
  0
ARC
  5
4BC
330
1B
100
AcDbEntity
  8
4
100
AcDbCircle
 10
906.9615142381097
 20
105.985153914405
 30
0.0
 40
3.783613929059507
100
AcDbArc
 50
319.570103155171
 51
40.42989684483145
  0
LINE
  5
4BD
330
1B
100
AcDbEntity
  8
4
100
AcDbLine
 10
901.2451281671672
 20
123.1613244227964
 30
0.0
 11
909.8416012213145
 21
123.1613244227968
 31
0.0
  0
ARC
  5
4BE
330
1B
100
AcDbEntity
  8
4
100
AcDbCircle
 10
906.9615142381081
 20
120.7075857787407
 30
0.0
 40
3.783613929059507
100
AcDbArc
 50
319.570103155171
 51
40.42989684483145
  0
LINE
  5
4BF
330
1B
100
AcDbEntity
  8
4
100
AcDbLine
 10
903.7451281671695
 20
103.5314152703494
 30
0.0
 11
903.7451281671672
 21
123.1613244227964
 31
0.0
  0
LINE
  5
4C0
330
1B
100
AcDbEntity
  8
4
100
AcDbLine
 10
282.6486551130224
 20
208.0141381651914
 30
0.0
 11
291.2451281671697
 21
208.0141381651919
 31
0.0
  0
LINE
  5
4C1
330
1B
100
AcDbEntity
  8
4
100
AcDbLine
 10
282.6486551130232
 20
193.2917063008566
 30
0.0
 11
288.7451281671705
 21
193.2917063008571
 31
0.0
  0
LINE
  5
4C2
330
1B
100
AcDbEntity
  8
4
100
AcDbLine
 10
282.6486551130228
 20
203.1066608770801
 30
0.0
 11
288.74512816717
 21
203.1066608770806
 31
0.0
  0
LINE
  5
4C3
330
1B
100
AcDbEntity
  8
L-CENTER
100
AcDbLine
 10
315.7875067735455
 20
198.1991835889702
 30
0.0
 11
278.8771499125897
 21
198.1991835889675
 31
0.0
  0
ARC
  5
4C4
330
1B
100
AcDbEntity
  8
4
100
AcDbCircle
 10
295.5242934646297
 20
198.1991835889684
 30
0.0
 40
13.77916529745958
100
AcDbArc
 50
159.1359356360857
 51
200.8640643639143
  0
LINE
  5
4C5
330
1B
100
AcDbEntity
  8
4
100
AcDbLine
 10
281.7451281671709
 20
190.8379676568005
 30
0.0
 11
281.74512816717
 21
205.5603995211362
 31
0.0
  0
ARC
  5
4C6
330
1B
100
AcDbEntity
  8
4
100
AcDbCircle
 10
285.5287420962294
 20
205.5603995211362
 30
0.0
 40
3.783613929059507
100
AcDbArc
 50
139.5701031551704
 51
220.4298968448315
  0
LINE
  5
4C7
330
1B
100
AcDbEntity
  8
4
100
AcDbLine
 10
291.2451281671713
 20
188.3842290127449
 30
0.0
 11
282.648655113024
 21
188.3842290127444
 31
0.0
  0
ARC
  5
4C8
330
1B
100
AcDbEntity
  8
4
100
AcDbCircle
 10
285.5287420962305
 20
190.8379676568005
 30
0.0
 40
3.783613929059507
100
AcDbArc
 50
139.5701031551704
 51
220.4298968448315
  0
LINE
  5
4C9
330
1B
100
AcDbEntity
  8
4
100
AcDbLine
 10
288.7451281671697
 20
208.0141381651919
 30
0.0
 11
288.7451281671713
 21
188.3842290127449
 31
0.0
  0
LINE
  5
4CA
330
1B
100
AcDbEntity
  8
4
100
AcDbLine
 10
288.7451281671661
 20
103.5314152703603
 30
0.0
 11
288.745128167169
 21
123.1613244228073
 31
0.0
  0
ARC
  5
4CB
330
1B
100
AcDbEntity
  8
4
100
AcDbCircle
 10
285.528742096228
 20
120.7075857787516
 30
0.0
 40
3.783613929059507
100
AcDbArc
 50
139.5701031551685
 51
220.429896844829
  0
LINE
  5
4CC
330
1B
100
AcDbEntity
  8
4
100
AcDbLine
 10
291.245128167169
 20
123.1613244228068
 30
0.0
 11
282.6486551130217
 21
123.1613244228078
 31
0.0
  0
ARC
  5
4CD
330
1B
100
AcDbEntity
  8
4
100
AcDbCircle
 10
285.528742096226
 20
105.9851539144159
 30
0.0
 40
3.783613929059507
100
AcDbArc
 50
139.5701031551685
 51
220.429896844829
  0
LINE
  5
4CE
330
1B
100
AcDbEntity
  8
4
100
AcDbLine
 10
281.7451281671684
 20
120.7075857787521
 30
0.0
 11
281.7451281671666
 21
105.9851539144164
 31
0.0
  0
ARC
  5
4CF
330
1B
100
AcDbEntity
  8
4
100
AcDbCircle
 10
295.5242934646268
 20
113.3463698465829
 30
0.0
 40
13.77916529745958
100
AcDbArc
 50
159.1359356360852
 51
200.8640643639143
  0
LINE
  5
4D0
330
1B
100
AcDbEntity
  8
L-CENTER
100
AcDbLine
 10
315.7875067735425
 20
113.3463698465802
 30
0.0
 11
278.8771499125868
 21
113.3463698465847
 31
0.0
  0
LINE
  5
4D1
330
1B
100
AcDbEntity
  8
4
100
AcDbLine
 10
282.6486551130193
 20
108.438892558472
 30
0.0
 11
288.7451281671666
 21
108.4388925584716
 31
0.0
  0
LINE
  5
4D2
330
1B
100
AcDbEntity
  8
4
100
AcDbLine
 10
282.6486551130206
 20
118.2538471346955
 30
0.0
 11
288.7451281671679
 21
118.2538471346951
 31
0.0
  0
LINE
  5
4D3
330
1B
100
AcDbEntity
  8
4
100
AcDbLine
 10
282.6486551130188
 20
103.5314152703608
 30
0.0
 11
291.2451281671661
 21
103.5314152703598
 31
0.0
  0
LINE
  5
4D4
330
1B
100
AcDbEntity
  8
4
100
AcDbLine
 10
291.2451281671697
 20
208.0141381651919
 30
0.0
 11
291.2451281671713
 21
188.3842290127449
 31
0.0
  0
LINE
  5
4D5
330
1B
100
AcDbEntity
  8
4
100
AcDbLine
 10
282.6486551130188
 20
1029.759160507807
 30
0.0
 11
291.2451281671661
 21
1029.759160507806
 31
0.0
  0
LINE
  5
4D6
330
1B
100
AcDbEntity
  8
4
100
AcDbLine
 10
282.6486551130206
 20
1044.481592372142
 30
0.0
 11
288.7451281671679
 21
1044.481592372141
 31
0.0
  0
LINE
  5
4D7
330
1B
100
AcDbEntity
  8
4
100
AcDbLine
 10
282.6486551130193
 20
1034.666637795919
 30
0.0
 11
288.7451281671666
 21
1034.666637795918
 31
0.0
  0
LINE
  5
4D8
330
1B
100
AcDbEntity
  8
L-CENTER
100
AcDbLine
 10
315.7875067735425
 20
1039.574115084026
 30
0.0
 11
278.8771499125868
 21
1039.574115084031
 31
0.0
  0
ARC
  5
4D9
330
1B
100
AcDbEntity
  8
4
100
AcDbCircle
 10
295.5242934646268
 20
1039.574115084029
 30
0.0
 40
13.77916529745958
100
AcDbArc
 50
159.1359356360857
 51
200.8640643639143
  0
LINE
  5
4DA
330
1B
100
AcDbEntity
  8
4
100
AcDbLine
 10
281.7451281671684
 20
1046.935331016198
 30
0.0
 11
281.7451281671666
 21
1032.212899151863
 31
0.0
  0
ARC
  5
4DB
330
1B
100
AcDbEntity
  8
4
100
AcDbCircle
 10
285.528742096226
 20
1032.212899151863
 30
0.0
 40
3.783613929059507
100
AcDbArc
 50
139.5701031551685
 51
220.4298968448315
  0
LINE
  5
4DC
330
1B
100
AcDbEntity
  8
4
100
AcDbLine
 10
291.245128167169
 20
1049.389069660253
 30
0.0
 11
282.6486551130217
 21
1049.389069660254
 31
0.0
  0
ARC
  5
4DD
330
1B
100
AcDbEntity
  8
4
100
AcDbCircle
 10
285.528742096228
 20
1046.935331016198
 30
0.0
 40
3.783613929059507
100
AcDbArc
 50
139.5701031551685
 51
220.4298968448315
  0
LINE
  5
4DE
330
1B
100
AcDbEntity
  8
4
100
AcDbLine
 10
288.7451281671661
 20
1029.759160507806
 30
0.0
 11
288.745128167169
 21
1049.389069660253
 31
0.0
  0
LINE
  5
4DF
330
1B
100
AcDbEntity
  8
4
100
AcDbLine
 10
291.2451281671697
 20
1134.241883402639
 30
0.0
 11
291.2451281671713
 21
1114.611974250192
 31
0.0
  0
LINE
  5
4E0
330
1B
100
AcDbEntity
  8
4
100
AcDbLine
 10
288.7451281671697
 20
1134.241883402638
 30
0.0
 11
288.7451281671713
 21
1114.611974250191
 31
0.0
  0
ARC
  5
4E1
330
1B
100
AcDbEntity
  8
4
100
AcDbCircle
 10
285.5287420962305
 20
1117.065712894247
 30
0.0
 40
3.783613929059507
100
AcDbArc
 50
139.5701031551685
 51
220.4298968448315
  0
LINE
  5
4E2
330
1B
100
AcDbEntity
  8
4
100
AcDbLine
 10
291.2451281671713
 20
1114.611974250192
 30
0.0
 11
282.648655113024
 21
1114.611974250191
 31
0.0
  0
ARC
  5
4E3
330
1B
100
AcDbEntity
  8
4
100
AcDbCircle
 10
285.5287420962294
 20
1131.788144758583
 30
0.0
 40
3.783613929059507
100
AcDbArc
 50
139.5701031551685
 51
220.4298968448315
  0
LINE
  5
4E4
330
1B
100
AcDbEntity
  8
4
100
AcDbLine
 10
281.7451281671709
 20
1117.065712894247
 30
0.0
 11
281.74512816717
 21
1131.788144758583
 31
0.0
  0
ARC
  5
4E5
330
1B
100
AcDbEntity
  8
4
100
AcDbCircle
 10
295.5242934646297
 20
1124.426928826414
 30
0.0
 40
13.77916529745958
100
AcDbArc
 50
159.1359356360857
 51
200.8640643639143
  0
LINE
  5
4E6
330
1B
100
AcDbEntity
  8
L-CENTER
100
AcDbLine
 10
315.7875067735455
 20
1124.426928826416
 30
0.0
 11
278.8771499125897
 21
1124.426928826414
 31
0.0
  0
LINE
  5
4E7
330
1B
100
AcDbEntity
  8
4
100
AcDbLine
 10
282.6486551130228
 20
1129.334406114527
 30
0.0
 11
288.74512816717
 21
1129.334406114527
 31
0.0
  0
LINE
  5
4E8
330
1B
100
AcDbEntity
  8
4
100
AcDbLine
 10
282.6486551130232
 20
1119.519451538303
 30
0.0
 11
288.7451281671705
 21
1119.519451538303
 31
0.0
  0
LINE
  5
4E9
330
1B
100
AcDbEntity
  8
4
100
AcDbLine
 10
282.6486551130224
 20
1134.241883402638
 30
0.0
 11
291.2451281671697
 21
1134.241883402639
 31
0.0
  0
LINE
  5
4EA
330
1B
100
AcDbEntity
  8
4
100
AcDbLine
 10
909.8416012213142
 20
1134.241883402638
 30
0.0
 11
901.245128167167
 21
1134.241883402639
 31
0.0
  0
LINE
  5
4EB
330
1B
100
AcDbEntity
  8
4
100
AcDbLine
 10
909.8416012213135
 20
1119.519451538303
 30
0.0
 11
903.7451281671662
 21
1119.519451538303
 31
0.0
  0
LINE
  5
4EC
330
1B
100
AcDbEntity
  8
4
100
AcDbLine
 10
909.8416012213139
 20
1129.334406114527
 30
0.0
 11
903.7451281671666
 21
1129.334406114527
 31
0.0
  0
LINE
  5
4ED
330
1B
100
AcDbEntity
  8
L-CENTER
100
AcDbLine
 10
876.7027495607912
 20
1124.426928826416
 30
0.0
 11
913.6131064217469
 21
1124.426928826414
 31
0.0
  0
ARC
  5
4EE
330
1B
100
AcDbEntity
  8
4
100
AcDbCircle
 10
896.9659628697069
 20
1124.426928826414
 30
0.0
 40
13.77916529745958
100
AcDbArc
 50
339.1359356360857
 51
20.86406436391432
  0
LINE
  5
4EF
330
1B
100
AcDbEntity
  8
4
100
AcDbLine
 10
910.7451281671657
 20
1117.065712894247
 30
0.0
 11
910.7451281671666
 21
1131.788144758583
 31
0.0
  0
ARC
  5
4F0
330
1B
100
AcDbEntity
  8
4
100
AcDbCircle
 10
906.9615142381073
 20
1131.788144758583
 30
0.0
 40
3.783613929059507
100
AcDbArc
 50
319.5701031551686
 51
40.42989684483145
  0
LINE
  5
4F1
330
1B
100
AcDbEntity
  8
4
100
AcDbLine
 10
901.2451281671654
 20
1114.611974250192
 30
0.0
 11
909.8416012213127
 21
1114.611974250191
 31
0.0
  0
ARC
  5
4F2
330
1B
100
AcDbEntity
  8
4
100
AcDbCircle
 10
906.9615142381061
 20
1117.065712894247
 30
0.0
 40
3.783613929059507
100
AcDbArc
 50
319.5701031551686
 51
40.42989684483145
  0
LINE
  5
4F3
330
1B
100
AcDbEntity
  8
4
100
AcDbLine
 10
903.745128167167
 20
1134.241883402638
 30
0.0
 11
903.7451281671654
 21
1114.611974250191
 31
0.0
  0
LINE
  5
4F4
330
1B
100
AcDbEntity
  8
4
100
AcDbLine
 10
901.245128167167
 20
1134.241883402639
 30
0.0
 11
901.2451281671654
 21
1114.611974250192
 31
0.0
  0
LINE
  5
4F5
330
1B
100
AcDbEntity
  8
4
100
AcDbLine
 10
903.7451281671706
 20
1029.759160507806
 30
0.0
 11
903.7451281671676
 21
1049.389069660253
 31
0.0
  0
ARC
  5
4F6
330
1B
100
AcDbEntity
  8
4
100
AcDbCircle
 10
906.9615142381086
 20
1046.935331016198
 30
0.0
 40
3.783613929059507
100
AcDbArc
 50
319.5701031551686
 51
40.42989684483145
  0
LINE
  5
4F7
330
1B
100
AcDbEntity
  8
4
100
AcDbLine
 10
901.2451281671676
 20
1049.389069660253
 30
0.0
 11
909.8416012213149
 21
1049.389069660254
 31
0.0
  0
ARC
  5
4F8
330
1B
100
AcDbEntity
  8
4
100
AcDbCircle
 10
906.9615142381107
 20
1032.212899151863
 30
0.0
 40
3.783613929059507
100
AcDbArc
 50
319.5701031551686
 51
40.42989684483145
  0
LINE
  5
4F9
330
1B
100
AcDbEntity
  8
4
100
AcDbLine
 10
910.7451281671682
 20
1046.935331016198
 30
0.0
 11
910.74512816717
 21
1032.212899151863
 31
0.0
  0
ARC
  5
4FA
330
1B
100
AcDbEntity
  8
4
100
AcDbCircle
 10
896.9659628697099
 20
1039.574115084029
 30
0.0
 40
13.77916529745958
100
AcDbArc
 50
339.1359356360857
 51
20.86406436391432
  0
LINE
  5
4FB
330
1B
100
AcDbEntity
  8
4
100
AcDbLine
 10
909.8416012213173
 20
1034.666637795919
 30
0.0
 11
903.74512816717
 21
1034.666637795918
 31
0.0
  0
LINE
  5
4FC
330
1B
100
AcDbEntity
  8
4
100
AcDbLine
 10
909.8416012213161
 20
1044.481592372142
 30
0.0
 11
903.7451281671688
 21
1044.481592372141
 31
0.0
  0
LINE
  5
4FD
330
1B
100
AcDbEntity
  8
4
100
AcDbLine
 10
909.8416012213179
 20
1029.759160507807
 30
0.0
 11
901.2451281671706
 21
1029.759160507806
 31
0.0
  0
LINE
  5
4FE
330
1B
100
AcDbEntity
  8
L-CENTER
100
AcDbLine
 10
876.7027495607941
 20
1039.574115084026
 30
0.0
 11
913.6131064217499
 21
1039.574115084031
 31
0.0
  0
LINE
  5
4FF
330
1B
100
AcDbEntity
  8
4
100
AcDbLine
 10
580.2451281671683
 20
1082.000521955212
 30
0.0
 11
612.2451281671683
 21
1082.000521955212
 31
0.0
  0
ARC
  5
500
330
1B
100
AcDbEntity
  8
4
100
AcDbCircle
 10
580.2451281671683
 20
1085.000521955212
 30
0.0
 40
3.0
100
AcDbArc
 50
180.0
 51
270.0
  0
ARC
  5
501
330
1B
100
AcDbEntity
  8
4
100
AcDbCircle
 10
612.2451281671683
 20
1085.000521955212
 30
0.0
 40
3.0
100
AcDbArc
 50
270.0
 51
0.0
  0
LINE
  5
502
330
1B
100
AcDbEntity
  8
4
100
AcDbLine
 10
615.2451281671683
 20
1085.000521955212
 30
0.0
 11
615.2451281671683
 21
1157.000521955212
 31
0.0
  0
LINE
  5
503
330
1B
100
AcDbEntity
  8
4
100
AcDbLine
 10
577.2451281671683
 20
1085.000521955212
 30
0.0
 11
577.2451281671683
 21
1157.000521955212
 31
0.0
  0
LINE
  5
504
330
1B
100
AcDbEntity
  8
4
100
AcDbLine
 10
580.2451281671683
 20
1160.000521955212
 30
0.0
 11
612.2451281671683
 21
1160.000521955212
 31
0.0
  0
ARC
  5
505
330
1B
100
AcDbEntity
  8
4
100
AcDbCircle
 10
580.2451281671683
 20
1157.000521955212
 30
0.0
 40
3.0
100
AcDbArc
 50
90.0
 51
180.0
  0
ARC
  5
506
330
1B
100
AcDbEntity
  8
4
100
AcDbCircle
 10
612.2451281671683
 20
1157.000521955212
 30
0.0
 40
3.0
100
AcDbArc
 50
0.0
 51
90.0
  0
CIRCLE
  5
507
330
1B
100
AcDbEntity
  8
4
100
AcDbCircle
 10
406.2451281671683
 20
1121.000521955212
 30
0.0
 40
25.0
  0
LINE
  5
508
330
1B
100
AcDbEntity
  8
L-CENTER
100
AcDbLine
 10
406.2451281671683
 20
1086.000521955213
 30
0.0
 11
406.2451281671683
 21
1156.000521955211
 31
0.0
  0
CIRCLE
  5
509
330
1B
100
AcDbEntity
  8
4
100
AcDbCircle
 10
406.2451281671683
 20
1121.000521955212
 30
0.0
 40
23.0
  0
LWPOLYLINE
  5
50A
330
1B
100
AcDbEntity
  8
4
100
AcDbPolyline
 90
        6
 70
     1
 43
0.0
 10
429.2451281671683
 20
1121.000521955212
 10
417.7451281671683
 20
1140.919106242254
 10
394.7451281671683
 20
1140.919106242254
 10
383.2451281671683
 20
1121.000521955212
 10
394.7451281671683
 20
1101.08193766817
 10
417.7451281671683
 20
1101.08193766817
  0
ARC
  5
50B
330
1B
100
AcDbEntity
  8
4
100
AcDbCircle
 10
596.2451281671684
 20
1121.000521955212
 30
0.0
 40
15.0
100
AcDbArc
 50
294.6243183521607
 51
65.37568164783926
  0
ARC
  5
50C
330
1B
100
AcDbEntity
  8
4
100
AcDbCircle
 10
596.2451281671684
 20
1121.000521955212
 30
0.0
 40
13.5
100
AcDbArc
 50
297.5784679781224
 51
62.42153202187757
  0
LINE
  5
50D
330
1B
100
AcDbEntity
  8
4
100
AcDbLine
 10
602.4951281671683
 20
1097.250521955212
 30
0.0
 11
602.4951281671683
 21
1144.750521955212
 31
0.0
  0
ARC
  5
50E
330
1B
100
AcDbEntity
  8
4
100
AcDbCircle
 10
596.2451281671684
 20
1121.000521955212
 30
0.0
 40
13.5
100
AcDbArc
 50
117.578467978122
 51
242.421532021878
  0
ARC
  5
50F
330
1B
100
AcDbEntity
  8
4
100
AcDbCircle
 10
596.2451281671684
 20
1121.000521955212
 30
0.0
 40
15.0
100
AcDbArc
 50
114.6243183521603
 51
245.3756816478396
  0
LINE
  5
510
330
1B
100
AcDbEntity
  8
4
100
AcDbLine
 10
589.9951281671683
 20
1097.250521955212
 30
0.0
 11
589.9951281671683
 21
1144.750521955212
 31
0.0
  0
ARC
  5
511
330
1B
100
AcDbEntity
  8
4
100
AcDbCircle
 10
596.2451281671684
 20
1097.250521955212
 30
0.0
 40
6.25
100
AcDbArc
 50
180.0
 51
0.0
  0
ARC
  5
512
330
1B
100
AcDbEntity
  8
4
100
AcDbCircle
 10
596.2451281671684
 20
1144.750521955212
 30
0.0
 40
6.25
100
AcDbArc
 50
0.0
 51
180.0
  0
LINE
  5
513
330
1B
100
AcDbEntity
  8
4
100
AcDbLine
 10
616.2451281671683
 20
1010.029674130402
 30
0.0
 11
616.2451281671683
 21
1009.500521955212
 31
0.0
  0
LINE
  5
514
330
1B
100
AcDbEntity
  8
4
100
AcDbLine
 10
610.8969165160374
 20
1009.500521955212
 30
0.0
 11
616.2451281671683
 21
1009.500521955212
 31
0.0
  0
LINE
  5
515
330
1B
100
AcDbEntity
  8
4
100
AcDbLine
 10
609.7473830674178
 20
1008.000521955212
 30
0.0
 11
611.2451281671683
 21
1008.000521955212
 31
0.0
  0
LINE
  5
516
330
1B
100
AcDbEntity
  8
4
100
AcDbLine
 10
609.5821281671688
 20
1006.000521955212
 30
0.0
 11
611.2451281671683
 21
1006.000521955212
 31
0.0
  0
LINE
  5
517
330
1B
100
AcDbEntity
  8
4
100
AcDbLine
 10
610.2451281671683
 20
1008.000521955212
 30
0.0
 11
610.2451281671683
 21
1008.899646567026
 31
0.0
  0
LINE
  5
518
330
1B
100
AcDbEntity
  8
4
100
AcDbLine
 10
611.2451281671683
 20
1006.000521955212
 30
0.0
 11
611.2451281671683
 21
1008.000521955212
 31
0.0
  0
LINE
  5
519
330
1B
100
AcDbEntity
  8
4
100
AcDbLine
 10
902.2451281671683
 20
1051.000521955212
 30
0.0
 11
902.2451281671683
 21
1113.000521955212
 31
0.0
  0
LINE
  5
51A
330
1B
100
AcDbEntity
  8
4
100
AcDbLine
 10
902.2451281671683
 20
1051.000521955212
 30
0.0
 11
901.2451281671683
 21
1051.000521955212
 31
0.0
  0
LINE
  5
51B
330
1B
100
AcDbEntity
  8
4
100
AcDbLine
 10
901.2451281671683
 20
1113.000521955212
 30
0.0
 11
902.2451281671683
 21
1113.000521955212
 31
0.0
  0
LINE
  5
51C
330
1B
100
AcDbEntity
  8
4
100
AcDbLine
 10
586.7451281671683
 20
513.773021717765
 30
0.0
 11
590.7451281671683
 21
513.773021717765
 31
0.0
  0
LINE
  5
51D
330
1B
100
AcDbEntity
  8
4
100
AcDbLine
 10
586.7451281671683
 20
491.773021717765
 30
0.0
 11
590.7451281671683
 21
491.773021717765
 31
0.0
  0
LINE
  5
51E
330
1B
100
AcDbEntity
  8
4
100
AcDbLine
 10
582.7451281671683
 20
517.773021717765
 30
0.0
 11
590.7451281671683
 21
517.773021717765
 31
0.0
  0
LINE
  5
51F
330
1B
100
AcDbEntity
  8
4
100
AcDbLine
 10
582.7451281671683
 20
487.773021717765
 30
0.0
 11
590.7451281671683
 21
487.773021717765
 31
0.0
  0
LINE
  5
520
330
1B
100
AcDbEntity
  8
4
100
AcDbLine
 10
561.7451281671683
 20
522.773021717765
 30
0.0
 11
630.7451281671683
 21
522.773021717765
 31
0.0
  0
LINE
  5
521
330
1B
100
AcDbEntity
  8
4
100
AcDbLine
 10
561.7451281671683
 20
482.773021717765
 30
0.0
 11
630.7451281671683
 21
482.773021717765
 31
0.0
  0
LINE
  5
522
330
1B
100
AcDbEntity
  8
4
100
AcDbLine
 10
568.7451281671683
 20
491.773021717765
 30
0.0
 11
568.7451281671683
 21
517.773021717765
 31
0.0
  0
LINE
  5
523
330
1B
100
AcDbEntity
  8
4
100
AcDbLine
 10
564.7451281671683
 20
487.773021717765
 30
0.0
 11
564.7451281671683
 21
517.773021717765
 31
0.0
  0
LINE
  5
524
330
1B
100
AcDbEntity
  8
4
100
AcDbLine
 10
582.7451281671683
 20
487.773021717765
 30
0.0
 11
582.7451281671683
 21
517.773021717765
 31
0.0
  0
LINE
  5
525
330
1B
100
AcDbEntity
  8
4
100
AcDbLine
 10
558.7451281671683
 20
485.773021717765
 30
0.0
 11
558.7451281671683
 21
519.773021717765
 31
0.0
  0
LINE
  5
526
330
1B
100
AcDbEntity
  8
4
100
AcDbLine
 10
564.7451281671683
 20
487.773021717765
 30
0.0
 11
577.7451281671683
 21
487.773021717765
 31
0.0
  0
ARC
  5
527
330
1B
100
AcDbEntity
  8
4
100
AcDbCircle
 10
561.7451281671683
 20
485.773021717765
 30
0.0
 40
3.0
100
AcDbArc
 50
180.0
 51
270.0
  0
LINE
  5
528
330
1B
100
AcDbEntity
  8
4
100
AcDbLine
 10
586.7451281671683
 20
491.773021717765
 30
0.0
 11
586.7451281671683
 21
513.773021717765
 31
0.0
  0
LINE
  5
529
330
1B
100
AcDbEntity
  8
4
100
AcDbLine
 10
568.7451281671683
 20
491.773021717765
 30
0.0
 11
577.7451281671683
 21
491.773021717765
 31
0.0
  0
LINE
  5
52A
330
1B
100
AcDbEntity
  8
4
100
AcDbLine
 10
577.7451281671683
 20
487.773021717765
 30
0.0
 11
577.7451281671683
 21
491.773021717765
 31
0.0
  0
LINE
  5
52B
330
1B
100
AcDbEntity
  8
4
100
AcDbLine
 10
564.7451281671683
 20
517.773021717765
 30
0.0
 11
568.7451281671683
 21
517.773021717765
 31
0.0
  0
ARC
  5
52C
330
1B
100
AcDbEntity
  8
4
100
AcDbCircle
 10
561.7451281671683
 20
519.773021717765
 30
0.0
 40
3.0
100
AcDbArc
 50
90.0
 51
180.0
  0
LINE
  5
52D
330
1B
100
AcDbEntity
  8
4
100
AcDbLine
 10
614.7451281671683
 20
507.773021717765
 30
0.0
 11
614.7451281671683
 21
517.773021717765
 31
0.0
  0
LINE
  5
52E
330
1B
100
AcDbEntity
  8
4
100
AcDbLine
 10
629.7451281671688
 20
513.773021717765
 30
0.0
 11
629.7451281671683
 21
517.773021717765
 31
0.0
  0
LINE
  5
52F
330
1B
100
AcDbEntity
  8
4
100
AcDbLine
 10
633.7451281671683
 20
485.773021717765
 30
0.0
 11
633.7451281671683
 21
519.773021717765
 31
0.0
  0
ARC
  5
530
330
1B
100
AcDbEntity
  8
4
100
AcDbCircle
 10
590.7451281671683
 20
510.773021717765
 30
0.0
 40
7.0
100
AcDbArc
 50
0.0
 51
90.0
  0
ARC
  5
531
330
1B
100
AcDbEntity
  8
4
100
AcDbCircle
 10
630.7451281671683
 20
485.773021717765
 30
0.0
 40
3.0
100
AcDbArc
 50
270.0
 51
0.0
  0
LINE
  5
532
330
1B
100
AcDbEntity
  8
4
100
AcDbLine
 10
602.7451281671683
 20
500.273021717765
 30
0.0
 11
609.7451281671683
 21
500.273021717765
 31
0.0
  0
LINE
  5
533
330
1B
100
AcDbEntity
  8
4
100
AcDbLine
 10
602.7451281671683
 20
505.273021717765
 30
0.0
 11
609.7451281671683
 21
505.273021717765
 31
0.0
  0
LINE
  5
534
330
1B
100
AcDbEntity
  8
4
100
AcDbLine
 10
602.7451281671683
 20
500.273021717765
 30
0.0
 11
602.7451281671683
 21
505.273021717765
 31
0.0
  0
ARC
  5
535
330
1B
100
AcDbEntity
  8
4
100
AcDbCircle
 10
590.7451281671683
 20
494.773021717765
 30
0.0
 40
7.0
100
AcDbArc
 50
270.0
 51
0.0
  0
LINE
  5
536
330
1B
100
AcDbEntity
  8
4
100
AcDbLine
 10
593.7451281671683
 20
494.773021717765
 30
0.0
 11
593.7451281671683
 21
510.773021717765
 31
0.0
  0
ARC
  5
537
330
1B
100
AcDbEntity
  8
4
100
AcDbCircle
 10
590.7451281671683
 20
510.773021717765
 30
0.0
 40
3.0
100
AcDbArc
 50
0.0
 51
90.0
  0
ARC
  5
538
330
1B
100
AcDbEntity
  8
4
100
AcDbCircle
 10
590.7451281671683
 20
494.773021717765
 30
0.0
 40
3.0
100
AcDbArc
 50
270.0000000000021
 51
0.0
  0
LINE
  5
539
330
1B
100
AcDbEntity
  8
4
100
AcDbLine
 10
597.7451281671683
 20
494.773021717765
 30
0.0
 11
597.7451281671683
 21
510.773021717765
 31
0.0
  0
LINE
  5
53A
330
1B
100
AcDbEntity
  8
4
100
AcDbLine
 10
620.6718351533614
 20
487.773021717765
 30
0.0
 11
624.7451281671683
 21
487.773021717765
 31
0.0
  0
LINE
  5
53B
330
1B
100
AcDbEntity
  8
4
100
AcDbLine
 10
618.7451281671683
 20
513.773021717765
 30
0.0
 11
625.6718351533614
 21
513.773021717765
 31
0.0
  0
LINE
  5
53C
330
1B
100
AcDbEntity
  8
4
100
AcDbLine
 10
620.6718351533614
 20
487.773021717765
 30
0.0
 11
625.6718351533614
 21
513.773021717765
 31
0.0
  0
LINE
  5
53D
330
1B
100
AcDbEntity
  8
4
100
AcDbLine
 10
609.7451281671683
 20
500.273021717765
 30
0.0
 11
609.7451281671683
 21
505.273021717765
 31
0.0
  0
LINE
  5
53E
330
1B
100
AcDbEntity
  8
4
100
AcDbLine
 10
618.7451281671683
 20
507.773021717765
 30
0.0
 11
618.7451281671683
 21
513.773021717765
 31
0.0
  0
LINE
  5
53F
330
1B
100
AcDbEntity
  8
4
100
AcDbLine
 10
614.7451281671683
 20
507.773021717765
 30
0.0
 11
618.7451281671683
 21
507.773021717765
 31
0.0
  0
LINE
  5
540
330
1B
100
AcDbEntity
  8
4
100
AcDbLine
 10
624.7451281671683
 20
487.773021717765
 30
0.0
 11
629.7451281671683
 21
513.773021717765
 31
0.0
  0
ARC
  5
541
330
1B
100
AcDbEntity
  8
4
100
AcDbCircle
 10
630.7451281671683
 20
519.773021717765
 30
0.0
 40
3.0
100
AcDbArc
 50
0.0
 51
90.0
  0
LINE
  5
542
330
1B
100
AcDbEntity
  8
4
100
AcDbLine
 10
614.7451281671683
 20
517.773021717765
 30
0.0
 11
629.7451281671683
 21
517.773021717765
 31
0.0
  0
LINE
  5
623
330
1B
100
AcDbEntity
  8
L-CENTER
100
AcDbLine
 10
1305.563534602883
 20
257.4365967177654
 30
0.0
 11
1346.964509140618
 21
257.4365967177654
 31
0.0
  0
LINE
  5
624
330
1B
100
AcDbEntity
  8
L-CENTER
100
AcDbLine
 10
1305.563534602883
 20
284.8108617177653
 30
0.0
 11
1346.964509140618
 21
284.8104032004975
 31
0.0
  0
LINE
  5
625
330
1B
100
AcDbEntity
  8
L-CENTER
100
AcDbLine
 10
1305.563534602883
 20
376.734691717765
 30
0.0
 11
1346.964509140618
 21
376.734691717765
 31
0.0
  0
LINE
  5
626
330
1B
100
AcDbEntity
  8
L-CENTER
100
AcDbLine
 10
1305.563534602883
 20
374.1092017177651
 30
0.0
 11
1346.964509140618
 21
374.1092017177656
 31
0.0
  0
LINE
  5
644
330
1B
100
AcDbEntity
  8
L-CENTER
100
AcDbLine
 10
611.8430380360691
 20
629.7727767177653
 30
0.0
 11
580.6472182982676
 21
629.7727767177653
 31
0.0
  0
LINE
  5
646
330
1B
100
AcDbEntity
  8
4
100
AcDbLine
 10
1305.806944602883
 20
277.7727767177652
 30
0.0
 11
1181.806944602883
 21
277.7727767177652
 31
0.0
  0
LINE
  5
647
330
1B
100
AcDbEntity
  8
4
100
AcDbLine
 10
1305.806944602883
 20
353.7727767177652
 30
0.0
 11
1181.806944602883
 21
353.7727767177652
 31
0.0
  0
LINE
  5
648
330
1B
100
AcDbEntity
  8
4
100
AcDbLine
 10
1180.806944602883
 20
359.7727767177652
 30
0.0
 11
1290.806944602883
 21
359.7727767177652
 31
0.0
  0
LINE
  5
649
330
1B
100
AcDbEntity
  8
4
100
AcDbLine
 10
1305.806944602883
 20
275.7727767177652
 30
0.0
 11
1305.806944602883
 21
355.7727767177652
 31
0.0
  0
LINE
  5
64A
330
1B
100
AcDbEntity
  8
4
100
AcDbLine
 10
1310.701719602883
 20
275.7727767177652
 30
0.0
 11
1305.806944602883
 21
275.7727767177652
 31
0.0
  0
LINE
  5
64B
330
1B
100
AcDbEntity
  8
4
100
AcDbLine
 10
1318.806944602883
 20
355.7727767177652
 30
0.0
 11
1305.806944602883
 21
355.7727767177652
 31
0.0
  0
LINE
  5
64C
330
1B
100
AcDbEntity
  8
4
100
AcDbLine
 10
1290.806944602883
 20
353.7727767177652
 30
0.0
 11
1290.806944602883
 21
359.7727767177652
 31
0.0
  0
LINE
  5
64D
330
1B
100
AcDbEntity
  8
4
100
AcDbLine
 10
1181.806944602883
 20
277.7727767177652
 30
0.0
 11
1181.806944602883
 21
353.7727767177652
 31
0.0
  0
LINE
  5
64E
330
1B
100
AcDbEntity
  8
4
100
AcDbLine
 10
1180.806944602883
 20
278.7727767177652
 30
0.0
 11
1180.806944602883
 21
359.7727767177652
 31
0.0
  0
LINE
  5
64F
330
1B
100
AcDbEntity
  8
4
100
AcDbLine
 10
1181.806944602883
 20
277.7727767177652
 30
0.0
 11
1180.806944602883
 21
278.7727767177652
 31
0.0
  0
LINE
  5
650
330
1B
100
AcDbEntity
  8
4
100
AcDbLine
 10
1181.806944602883
 20
353.7727767177652
 30
0.0
 11
1180.806944602883
 21
352.7727767177652
 31
0.0
  0
LINE
  5
660
330
1B
100
AcDbEntity
  8
4
100
AcDbLine
 10
1318.806944602883
 20
364.909251717765
 30
0.0
 11
1318.806944602883
 21
294.010811717765
 31
0.0
  0
LINE
  5
661
330
1B
100
AcDbEntity
  8
4
100
AcDbLine
 10
1318.806944602883
 20
275.6109117177652
 30
0.0
 11
1318.806944602883
 21
266.6365467177651
 31
0.0
  0
LINE
  5
66E
330
1B
100
AcDbEntity
  8
4
100
AcDbLine
 10
466.3139847389355
 20
992.6005219552112
 30
0.0
 11
562.8502715954007
 21
992.6005219552121
 31
0.0
  0
LINE
  5
66F
330
1B
100
AcDbEntity
  8
4
100
AcDbLine
 10
477.5821281671679
 20
855.0005219552127
 30
0.0
 11
551.5821281671679
 21
855.0005219552127
 31
0.0
  0
LINE
  5
670
330
1B
100
AcDbEntity
  8
4
100
AcDbLine
 10
524.5821281671679
 20
856.0005219552127
 30
0.0
 11
552.5821281671679
 21
856.0005219552127
 31
0.0
  0
LINE
  5
671
330
1B
100
AcDbEntity
  8
4
100
AcDbLine
 10
554.5821281671679
 20
980.0005219552127
 30
0.0
 11
474.5821281671679
 21
980.0005219552127
 31
0.0
  0
LINE
  5
672
330
1B
100
AcDbEntity
  8
4
100
AcDbLine
 10
552.5821281671679
 20
978.5005219552127
 30
0.0
 11
552.5821281671679
 21
856.0005219552127
 31
0.0
  0
ARC
  5
673
330
1B
100
AcDbEntity
  8
4
100
AcDbCircle
 10
554.082128167168
 20
978.5005219552118
 30
0.0
 40
1.5
100
AcDbArc
 50
90.0
 51
180.0
  0
LINE
  5
674
330
1B
100
AcDbEntity
  8
4
100
AcDbLine
 10
551.5821281671679
 20
855.0005219552127
 30
0.0
 11
552.5821281671679
 21
856.0005219552127
 31
0.0
  0
LINE
  5
675
330
1B
100
AcDbEntity
  8
4
  6
Continuous
100
AcDbLine
 10
524.5821281671679
 20
955.0005219552127
 30
0.0
 11
524.5821281671679
 21
855.0005219552127
 31
0.0
  0
LINE
  5
676
330
1B
100
AcDbEntity
  8
4
  6
Continuous
100
AcDbLine
 10
504.5821281671679
 20
955.0005219552127
 30
0.0
 11
504.5821281671679
 21
855.0005219552127
 31
0.0
  0
LINE
  5
677
330
1B
100
AcDbEntity
  8
4
  6
Continuous
100
AcDbLine
 10
476.5821281671679
 20
978.5005219552127
 30
0.0
 11
476.5821281671679
 21
856.0005219552127
 31
0.0
  0
LINE
  5
678
330
1B
100
AcDbEntity
  8
4
100
AcDbLine
 10
514.5821281671679
 20
965.0005219552127
 30
0.0
 11
514.5821281671679
 21
965.0005219552127
 31
0.0
  0
ARC
  5
679
330
1B
100
AcDbEntity
  8
4
100
AcDbCircle
 10
514.582128167168
 20
955.0005219552118
 30
0.0
 40
10.0
100
AcDbArc
 50
0.0
 51
90.0
  0
ARC
  5
67A
330
1B
100
AcDbEntity
  8
4
100
AcDbCircle
 10
514.582128167168
 20
955.0005219552118
 30
0.0
 40
10.0
100
AcDbArc
 50
90.0
 51
180.0
  0
ARC
  5
67B
330
1B
100
AcDbEntity
  8
4
100
AcDbCircle
 10
475.082128167168
 20
978.5005219552118
 30
0.0
 40
1.5
100
AcDbArc
 50
0.0
 51
90.0
  0
LINE
  5
67C
330
1B
100
AcDbEntity
  8
4
100
AcDbLine
 10
477.5821281671679
 20
855.0005219552127
 30
0.0
 11
476.5821281671679
 21
856.0005219552127
 31
0.0
  0
LINE
  5
67D
330
1B
100
AcDbEntity
  8
4
100
AcDbLine
 10
476.5821281671679
 20
856.0005219552127
 30
0.0
 11
504.5821281671679
 21
856.0005219552127
 31
0.0
  0
LINE
  5
67E
330
1B
100
AcDbEntity
  8
4
  6
Continuous
100
AcDbLine
 10
474.5821281671679
 20
992.6005219552121
 30
0.0
 11
474.5821281671679
 21
980.0005219552127
 31
0.0
  0
LINE
  5
67F
330
1B
100
AcDbEntity
  8
4
  6
Continuous
100
AcDbLine
 10
554.5821281671679
 20
992.6005219552121
 30
0.0
 11
554.5821281671679
 21
980.0005219552127
 31
0.0
  0
LINE
  5
681
330
1B
100
AcDbEntity
  8
4
100
AcDbLine
 10
524.8352181671683
 20
359.7727767177652
 30
0.0
 11
504.8352181671683
 21
359.7727767177652
 31
0.0
  0
LINE
  5
682
330
1B
100
AcDbEntity
  8
4
100
AcDbLine
 10
524.8352181671683
 20
346.7727767177652
 30
0.0
 11
504.8352181671683
 21
346.7727767177652
 31
0.0
  0
LINE
  5
683
330
1B
100
AcDbEntity
  8
4
100
AcDbLine
 10
524.8352181671683
 20
346.7727767177652
 30
0.0
 11
524.8352181671683
 21
359.7727767177652
 31
0.0
  0
LINE
  5
684
330
1B
100
AcDbEntity
  8
4
100
AcDbLine
 10
504.8352181671683
 20
359.7727767177652
 30
0.0
 11
504.8352181671683
 21
346.7727767177652
 31
0.0
  0
ARC
  5
685
330
1B
100
AcDbEntity
  8
4
100
AcDbCircle
 10
514.8352181671683
 20
315.7727767177652
 30
0.0
 40
38.000005
100
AcDbArc
 50
105.2575212340481
 51
74.74247999999483
  0
CIRCLE
  5
686
330
1B
100
AcDbEntity
  8
4
100
AcDbCircle
 10
514.8352181671683
 20
315.7727767177652
 30
0.0
 40
50.0
  0
ENDSEC
  0
SECTION
  2
OBJECTS
  0
DICTIONARY
  5
9
330
0
100
AcDbDictionary
281
     1
  3
ACAD_COLOR
350
2F
  3
ACAD_GROUP
350
2D
  3
ACAD_LAYOUT
350
24
  3
ACAD_MATERIAL
350
B
  3
ACAD_MLEADERSTYLE
350
62A
  3
ACAD_MLINESTYLE
350
19
  3
ACAD_PLOTSETTINGS
350
2E
  3
ACAD_PLOTSTYLENAME
350
8
  3
ACAD_SCALELIST
350
36
  3
ACAD_VISUALSTYLE
350
30
  3
ACDBHEADERROUNDTRIPXREC
350
692
  3
AcDbVariableDictionary
350
627
  3
DWGPROPS
350
695
  0
DICTIONARY
  5
696
330
2C
100
AcDbDictionary
280
     1
281
     1
  3
ACAD_XREC_ROUNDTRIP
360
697
  0
DICTIONARY
  5
3
330
2
100
AcDbDictionary
280
     1
281
     1
  3
ACAD_LAYERSTATES
360
4
  0
DICTIONARY
  5
20
330
1F
100
AcDbDictionary
280
     1
281
     1
  3
ADSK_XREC_LAYER_RECONCILED
360
21
  0
DICTIONARY
  5
547
330
546
100
AcDbDictionary
280
     1
281
     1
  3
ADSK_XREC_LAYER_RECONCILED
360
548
  0
DICTIONARY
  5
5
330
1
100
AcDbDictionary
280
     1
281
     1
  3
ADSK_XREC_LAYER_RECONCILED
360
6
  0
DICTIONARY
  5
13A
330
139
100
AcDbDictionary
280
     1
281
     1
  3
ADSK_XREC_LAYER_RECONCILED
360
13B
  0
DICTIONARY
  5
C9
330
C8
100
AcDbDictionary
280
     1
281
     1
  3
ADSK_XREC_LAYER_RECONCILED
360
CA
  0
DICTIONARY
  5
5C
330
5B
100
AcDbDictionary
280
     1
281
     1
  3
ADSK_XREC_LAYER_RECONCILED
360
5D
  0
DICTIONARY
  5
1C
330
1B
100
AcDbDictionary
280
     1
281
     1
  3
ACAD_SORTENTS
360
1D
  0
DICTIONARY
  5
2F
102
{ACAD_REACTORS
330
9
102
}
330
9
100
AcDbDictionary
281
     1
  0
DICTIONARY
  5
2D
102
{ACAD_REACTORS
330
9
102
}
330
9
100
AcDbDictionary
281
     1
  0
DICTIONARY
  5
24
102
{ACAD_REACTORS
330
9
102
}
330
9
100
AcDbDictionary
281
     1
  3
Model
350
23
  3
ﾚｲｱｳﾄ1
350
29
  0
DICTIONARY
  5
B
102
{ACAD_REACTORS
330
9
102
}
330
9
100
AcDbDictionary
281
     1
  3
ByBlock
350
59
  3
ByLayer
350
14
  3
Global
350
A
  0
DICTIONARY
  5
62A
102
{ACAD_REACTORS
330
9
102
}
330
9
100
AcDbDictionary
281
     1
  3
Standard
350
687
  0
DICTIONARY
  5
19
102
{ACAD_REACTORS
330
9
102
}
330
9
100
AcDbDictionary
281
     1
  3
STANDARD
350
18
  0
DICTIONARY
  5
2E
102
{ACAD_REACTORS
330
9
102
}
330
9
100
AcDbDictionary
281
     1
  0
ACDBDICTIONARYWDFLT
  5
8
102
{ACAD_REACTORS
330
9
102
}
330
9
100
AcDbDictionary
281
     1
  3
Normal
350
7
100
AcDbDictionaryWithDefault
340
7
  0
DICTIONARY
  5
36
102
{ACAD_REACTORS
330
9
102
}
330
9
100
AcDbDictionary
281
     1
  3
*A1
350
58
  0
DICTIONARY
  5
30
102
{ACAD_REACTORS
330
9
102
}
330
9
100
AcDbDictionary
281
     1
  3
2dWireframe
350
632
  3
Basic
350
634
  3
Brighten
350
637
  3
ColorChange
350
63B
  3
Conceptual
350
635
  3
Dim
350
636
  3
EdgeColorOff
350
63E
  3
Facepattern
350
63A
  3
Flat
350
62E
  3
FlatWithEdges
350
62F
  3
Gouraud
350
630
  3
GouraudWithEdges
350
631
  3
Hidden
350
633
  3
JitterOff
350
63C
  3
Linepattern
350
639
  3
OverhangOff
350
63D
  3
Realistic
350
31
  3
Shaded
350
643
  3
Shaded with edges
350
642
  3
Shades of Gray
350
63F
  3
Sketchy
350
640
  3
Thicken
350
638
  3
Wireframe
350
32
  3
X-Ray
350
641
  0
DICTIONARY
  5
692
102
{ACAD_REACTORS
330
9
102
}
330
9
100
AcDbDictionary
281
     1
  3
COLORDICT
350
693
  3
MATERIALDICT
350
694
  0
DICTIONARY
  5
627
102
{ACAD_REACTORS
330
9
102
}
330
9
100
AcDbDictionary
281
     1
  3
CANNOSCALE
350
628
  3
CMLEADERSTYLE
350
68B
  3
DIMASSOC
350
690
  3
HIDETEXT
350
691
  3
MSLTSCALE
350
698
  3
XCLIPFRAME
350
62B
  0
XRECORD
  5
695
102
{ACAD_REACTORS
330
9
102
}
330
9
100
AcDbXrecord
280
     1
  1
DWGPROPS COOKIE
  2

  3

  4

  6

  7

  8
sg-d03
  9

300
=
301
=
302
=
303
=
304
=
305
=
306
=
307
=
308
=
309
=
 40
0.0
 41
2457463.450045764
 42
2458110.204595301
  1

 90
        0
  0
XRECORD
  5
697
102
{ACAD_REACTORS
330
696
102
}
330
696
100
AcDbXrecord
280
     1
102
VTR_0.000_0.000_1.000_1.000_GRIDDISPLAY
 70
     3
102
VTR_0.000_0.000_1.000_1.000_GRIDMAJOR
 70
     5
102
VTR_0.000_0.000_1.000_1.000_DEFAULTLIGHTING
280
     1
102
VTR_0.000_0.000_1.000_1.000_DEFAULTLIGHTINGTYPE
 70
     1
102
VTR_0.000_0.000_1.000_1.000_BRIGHTNESS
141
0.0
102
VTR_0.000_0.000_1.000_1.000_CONTRAST
142
0.0
  0
DICTIONARY
  5
4
102
{ACAD_REACTORS
330
3
102
}
330
3
100
AcDbDictionary
281
     1
  0
XRECORD
  5
21
102
{ACAD_REACTORS
330
20
102
}
330
20
100
AcDbXrecord
280
     1
290
     1
  0
XRECORD
  5
548
102
{ACAD_REACTORS
330
547
102
}
330
547
100
AcDbXrecord
280
     1
290
     1
  0
XRECORD
  5
6
102
{ACAD_REACTORS
330
5
102
}
330
5
100
AcDbXrecord
280
     1
290
     1
  0
XRECORD
  5
13B
102
{ACAD_REACTORS
330
13A
102
}
330
13A
100
AcDbXrecord
280
     1
290
     1
  0
XRECORD
  5
CA
102
{ACAD_REACTORS
330
C9
102
}
330
C9
100
AcDbXrecord
280
     1
290
     1
  0
XRECORD
  5
5D
102
{ACAD_REACTORS
330
5C
102
}
330
5C
100
AcDbXrecord
280
     1
290
     1
  0
SORTENTSTABLE
  5
1D
102
{ACAD_REACTORS
330
1C
102
}
330
1C
100
AcDbSortentsTable
330
1B
331
0
  5
165
331
0
  5
19E
331
0
  5
19D
331
0
  5
19C
331
0
  5
19B
331
0
  5
19A
331
0
  5
199
331
0
  5
198
331
0
  5
197
331
0
  5
196
331
0
  5
195
331
0
  5
194
331
0
  5
193
331
0
  5
192
331
0
  5
191
331
0
  5
190
331
0
  5
18F
331
0
  5
18E
331
0
  5
18D
331
0
  5
18C
331
0
  5
18B
331
0
  5
18A
331
0
  5
189
331
0
  5
188
331
0
  5
187
331
0
  5
186
331
0
  5
185
331
0
  5
184
331
0
  5
183
331
0
  5
182
331
0
  5
181
331
0
  5
180
331
0
  5
17F
331
0
  5
17E
331
0
  5
17D
331
0
  5
17C
331
0
  5
17B
331
0
  5
17A
331
0
  5
179
331
0
  5
178
331
0
  5
177
331
0
  5
176
331
0
  5
175
331
0
  5
174
331
0
  5
173
331
0
  5
172
331
0
  5
171
331
0
  5
170
331
0
  5
16F
331
0
  5
16E
331
0
  5
16D
331
0
  5
16C
331
0
  5
16B
331
0
  5
16A
331
0
  5
169
331
0
  5
168
331
0
  5
167
331
0
  5
166
331
0
  5
15A
331
0
  5
159
331
0
  5
158
331
0
  5
157
331
0
  5
156
331
0
  5
155
331
0
  5
154
331
0
  5
153
331
0
  5
152
331
0
  5
151
331
0
  5
150
331
0
  5
14F
331
0
  5
14E
331
0
  5
14D
331
0
  5
14C
331
0
  5
14B
331
0
  5
14A
331
0
  5
149
331
0
  5
148
331
0
  5
147
331
0
  5
146
331
0
  5
145
331
0
  5
144
331
0
  5
143
331
0
  5
142
331
0
  5
141
331
0
  5
140
331
0
  5
13F
331
0
  5
13E
331
0
  5
13D
331
0
  5
13C
331
0
  5
138
331
0
  5
137
331
0
  5
136
331
0
  5
135
331
0
  5
134
331
0
  5
133
331
0
  5
132
331
0
  5
131
331
0
  5
130
331
0
  5
12F
331
0
  5
12E
331
0
  5
12D
331
0
  5
12C
331
0
  5
12B
331
0
  5
12A
331
0
  5
129
331
0
  5
128
331
0
  5
127
331
0
  5
126
331
0
  5
125
331
0
  5
124
331
0
  5
123
331
0
  5
122
331
0
  5
121
331
0
  5
120
331
0
  5
11F
331
0
  5
11E
331
0
  5
11D
331
0
  5
11C
331
0
  5
11B
331
0
  5
11A
331
0
  5
119
331
0
  5
118
331
0
  5
117
331
0
  5
116
331
0
  5
115
331
0
  5
114
331
0
  5
113
331
0
  5
112
331
0
  5
111
331
0
  5
110
331
0
  5
10F
331
0
  5
10E
331
0
  5
10D
331
0
  5
10C
331
0
  5
10B
331
0
  5
10A
331
0
  5
109
331
0
  5
108
331
0
  5
107
331
0
  5
106
331
0
  5
105
331
0
  5
104
331
0
  5
103
331
0
  5
102
331
0
  5
101
331
0
  5
100
331
0
  5
FF
331
0
  5
FD
331
0
  5
FC
331
0
  5
FB
331
0
  5
FA
331
0
  5
F9
331
0
  5
F8
331
0
  5
F7
331
0
  5
F6
331
0
  5
F5
331
0
  5
F4
331
0
  5
F3
331
0
  5
F2
331
0
  5
F1
331
0
  5
F0
331
0
  5
EF
331
0
  5
EE
331
0
  5
ED
331
0
  5
EC
331
0
  5
EB
331
0
  5
EA
331
0
  5
E9
331
0
  5
E8
331
0
  5
E7
331
0
  5
E6
331
0
  5
E5
331
0
  5
E4
331
0
  5
E3
331
0
  5
E2
331
0
  5
E1
331
0
  5
E0
331
0
  5
DF
331
0
  5
DE
331
0
  5
DD
331
0
  5
DC
331
0
  5
DB
331
0
  5
DA
331
0
  5
D9
331
0
  5
D8
331
0
  5
D7
331
0
  5
D6
331
0
  5
D5
331
0
  5
D4
331
0
  5
D3
331
0
  5
D2
331
0
  5
D1
331
0
  5
D0
331
0
  5
CF
331
0
  5
CE
331
0
  5
CD
331
0
  5
CC
331
0
  5
C7
331
0
  5
C6
331
0
  5
C5
331
0
  5
C4
331
0
  5
C3
331
0
  5
C2
331
0
  5
C1
331
138
  5
C0
331
13C
  5
BF
331
13D
  5
BE
331
13E
  5
BD
331
13F
  5
BC
331
140
  5
BB
331
141
  5
BA
331
142
  5
B9
331
143
  5
B8
331
144
  5
B7
331
145
  5
B6
331
146
  5
B5
331
147
  5
B4
331
0
  5
B3
331
0
  5
B2
331
14A
  5
B1
331
14B
  5
B0
331
14C
  5
AF
331
14D
  5
AE
331
0
  5
AD
331
0
  5
AC
331
0
  5
AB
331
0
  5
AA
331
0
  5
A9
331
0
  5
A8
331
0
  5
A7
331
0
  5
A6
331
0
  5
A5
331
0
  5
A4
331
0
  5
A3
331
0
  5
A2
331
0
  5
A1
331
0
  5
A0
331
0
  5
9F
331
0
  5
9E
331
0
  5
9D
331
0
  5
9C
331
0
  5
9B
331
0
  5
9A
331
0
  5
99
331
0
  5
98
331
0
  5
97
331
0
  5
96
331
0
  5
95
331
0
  5
94
331
0
  5
93
331
0
  5
92
331
16A
  5
91
331
16B
  5
90
331
16C
  5
8F
331
16D
  5
8E
331
16E
  5
8D
331
0
  5
8C
331
0
  5
8B
331
0
  5
8A
331
0
  5
89
331
0
  5
88
331
0
  5
87
331
0
  5
86
331
0
  5
85
331
177
  5
84
331
178
  5
83
331
0
  5
82
331
0
  5
81
331
0
  5
80
331
0
  5
7F
331
0
  5
7E
331
0
  5
7D
331
0
  5
7C
331
0
  5
7B
331
0
  5
7A
331
0
  5
79
331
0
  5
78
331
0
  5
77
331
0
  5
76
331
0
  5
75
331
0
  5
74
331
0
  5
73
331
0
  5
72
331
0
  5
71
331
0
  5
70
331
0
  5
6F
331
0
  5
6E
331
0
  5
6D
331
0
  5
6C
331
0
  5
6B
331
0
  5
6A
331
0
  5
69
331
0
  5
68
331
0
  5
67
331
195
  5
66
331
196
  5
65
331
197
  5
64
331
198
  5
63
331
199
  5
62
331
19A
  5
61
331
19B
  5
60
331
19C
  5
5F
331
19D
  5
5E
331
19E
  5
5A
331
272
  5
274
331
273
  5
275
331
0
  5
276
331
0
  5
277
331
0
  5
278
331
0
  5
279
331
0
  5
27A
331
0
  5
27B
331
0
  5
27C
331
27B
  5
27D
331
27C
  5
27E
331
27D
  5
27F
331
27E
  5
280
331
27F
  5
281
331
280
  5
282
331
281
  5
283
331
282
  5
284
331
283
  5
285
331
284
  5
286
331
285
  5
287
331
286
  5
288
331
287
  5
289
331
288
  5
28A
331
289
  5
28B
331
28A
  5
28C
331
28B
  5
28D
331
28C
  5
28E
331
28D
  5
28F
331
28E
  5
290
331
28F
  5
291
331
290
  5
292
331
291
  5
293
331
292
  5
294
331
293
  5
295
331
294
  5
296
331
295
  5
297
331
296
  5
298
331
297
  5
299
331
298
  5
29A
331
299
  5
29B
331
29A
  5
29C
331
29B
  5
29D
331
29C
  5
29E
331
29D
  5
29F
331
29E
  5
2A0
331
29F
  5
2A1
331
2A0
  5
2A2
331
2A1
  5
2A3
331
2A2
  5
2A4
331
2A3
  5
2A5
331
2A4
  5
2A6
331
2A5
  5
2A7
331
2A6
  5
2A8
331
2A7
  5
2A9
331
0
  5
2AA
331
2A9
  5
2AB
331
2AA
  5
2AC
331
2AB
  5
2AD
331
2AC
  5
2AE
331
2AD
  5
2AF
331
2AE
  5
2B0
331
2AF
  5
2B1
331
2B0
  5
2B2
331
2B1
  5
2B3
331
2B2
  5
2B4
331
2B3
  5
2B5
331
2B4
  5
2B6
331
2B5
  5
2B7
331
2B6
  5
2B8
331
2B7
  5
2B9
331
2B8
  5
2BA
331
2B9
  5
2BB
331
2BA
  5
2BC
331
2BB
  5
2BD
331
2BC
  5
2BE
331
2BD
  5
2BF
331
2BE
  5
2C0
331
2BF
  5
2C1
331
2C0
  5
2C2
331
2C1
  5
2C3
331
2C2
  5
2C4
331
2C3
  5
2C5
331
2C4
  5
2C6
331
2C5
  5
2C7
331
2C6
  5
2C8
331
2C7
  5
2C9
331
2C8
  5
2CA
331
2C9
  5
2CB
331
2CA
  5
2CC
331
2CB
  5
2CD
331
2CC
  5
2CE
331
2CD
  5
2CF
331
2CE
  5
2D0
331
2CF
  5
2D1
331
2D0
  5
2D2
331
2D1
  5
2D3
331
2D2
  5
2D4
331
2D3
  5
2D5
331
2D4
  5
2D6
331
2D5
  5
2D7
331
2D6
  5
2D8
331
2D7
  5
2D9
331
2D8
  5
2DA
331
2D9
  5
2DB
331
2DA
  5
2DC
331
2DB
  5
2DD
331
2DC
  5
2DE
331
2DD
  5
2DF
331
2DE
  5
2E0
331
2DF
  5
2E1
331
2E0
  5
2E2
331
2E1
  5
2E3
331
2E2
  5
2E4
331
2E3
  5
2E5
331
2E4
  5
2E6
331
2E5
  5
2E7
331
2E6
  5
2E8
331
2E7
  5
2E9
331
2E8
  5
2EA
331
2E9
  5
2EB
331
2EA
  5
2EC
331
2EB
  5
2ED
331
2EC
  5
2EE
331
2ED
  5
2EF
331
2EE
  5
2F0
331
2EF
  5
2F1
331
2F0
  5
2F2
331
2F1
  5
2F3
331
2F2
  5
2F4
331
2F3
  5
2F5
331
2F4
  5
2F6
331
2F5
  5
2F7
331
0
  5
2F8
331
0
  5
2F9
331
0
  5
2FA
331
0
  5
2FB
331
0
  5
2FC
331
0
  5
2FD
331
0
  5
2FE
331
2FD
  5
2FF
331
2FE
  5
300
331
2FF
  5
301
331
300
  5
302
331
301
  5
303
331
302
  5
304
331
303
  5
305
331
304
  5
306
331
305
  5
307
331
306
  5
308
331
307
  5
309
331
308
  5
30A
331
309
  5
30B
331
30A
  5
30C
331
30B
  5
30D
331
30C
  5
30E
331
30D
  5
30F
331
30E
  5
310
331
30F
  5
311
331
310
  5
312
331
311
  5
313
331
312
  5
314
331
313
  5
315
331
314
  5
316
331
315
  5
317
331
316
  5
318
331
317
  5
319
331
318
  5
31A
331
319
  5
31B
331
31A
  5
31C
331
31B
  5
31D
331
31D
  5
31F
331
31E
  5
320
331
31F
  5
321
331
320
  5
322
331
321
  5
323
331
0
  5
324
331
323
  5
325
331
324
  5
326
331
325
  5
327
331
326
  5
328
331
327
  5
329
331
328
  5
32A
331
329
  5
32B
331
32A
  5
32C
331
32B
  5
32D
331
32C
  5
32E
331
32D
  5
32F
331
32E
  5
330
331
32F
  5
331
331
0
  5
332
331
331
  5
333
331
0
  5
334
331
0
  5
335
331
0
  5
336
331
335
  5
337
331
336
  5
338
331
337
  5
339
331
338
  5
33A
331
339
  5
33B
331
33A
  5
33C
331
33B
  5
33D
331
33C
  5
33E
331
33D
  5
33F
331
33E
  5
340
331
33F
  5
341
331
340
  5
342
331
341
  5
343
331
342
  5
344
331
343
  5
345
331
344
  5
346
331
345
  5
347
331
346
  5
348
331
347
  5
349
331
348
  5
34A
331
349
  5
34B
331
34A
  5
34C
331
34B
  5
34D
331
34C
  5
34E
331
34D
  5
34F
331
34E
  5
350
331
34F
  5
351
331
350
  5
352
331
351
  5
353
331
352
  5
354
331
0
  5
355
331
0
  5
356
331
0
  5
357
331
0
  5
358
331
357
  5
359
331
358
  5
35A
331
359
  5
35B
331
35A
  5
35C
331
35B
  5
35D
331
35C
  5
35E
331
35D
  5
35F
331
35E
  5
360
331
35F
  5
361
331
360
  5
362
331
361
  5
363
331
362
  5
364
331
363
  5
365
331
364
  5
366
331
365
  5
367
331
366
  5
368
331
367
  5
369
331
368
  5
36A
331
369
  5
36B
331
36A
  5
36C
331
36B
  5
36D
331
36C
  5
36E
331
36D
  5
36F
331
36E
  5
370
331
36F
  5
371
331
370
  5
372
331
371
  5
373
331
372
  5
374
331
373
  5
375
331
374
  5
376
331
375
  5
377
331
376
  5
378
331
377
  5
379
331
378
  5
37A
331
379
  5
37B
331
37A
  5
37C
331
37B
  5
37D
331
37C
  5
37E
331
37D
  5
37F
331
37E
  5
380
331
37F
  5
381
331
380
  5
382
331
381
  5
383
331
382
  5
384
331
383
  5
385
331
384
  5
386
331
385
  5
387
331
386
  5
388
331
387
  5
389
331
388
  5
38A
331
389
  5
38B
331
38A
  5
38C
331
38B
  5
38D
331
38C
  5
38E
331
38D
  5
38F
331
38E
  5
390
331
38F
  5
391
331
390
  5
392
331
391
  5
393
331
392
  5
394
331
393
  5
395
331
394
  5
396
331
395
  5
397
331
396
  5
398
331
397
  5
399
331
398
  5
39A
331
399
  5
39B
331
39A
  5
39C
331
39B
  5
39D
331
39C
  5
39E
331
39D
  5
39F
331
39E
  5
3A0
331
39F
  5
3A1
331
3A0
  5
3A2
331
3A1
  5
3A3
331
3A2
  5
3A4
331
3A3
  5
3A5
331
3A4
  5
3A6
331
3A5
  5
3A7
331
3A6
  5
3A8
331
3A7
  5
3A9
331
3A8
  5
3AA
331
3A9
  5
3AB
331
3AA
  5
3AC
331
3AB
  5
3AD
331
3AC
  5
3AE
331
3AD
  5
3AF
331
3AE
  5
3B0
331
3AF
  5
3B1
331
3B0
  5
3B2
331
3B1
  5
3B3
331
3B2
  5
3B4
331
3B3
  5
3B5
331
3B4
  5
3B6
331
3B5
  5
3B7
331
3B6
  5
3B8
331
3B7
  5
3B9
331
3B8
  5
3BA
331
3B9
  5
3BB
331
3BA
  5
3BC
331
3BB
  5
3BD
331
3BC
  5
3BE
331
3BD
  5
3BF
331
3BE
  5
3C0
331
3BF
  5
3C1
331
3C0
  5
3C2
331
3C1
  5
3C3
331
3C2
  5
3C4
331
3C3
  5
3C5
331
3C4
  5
3C6
331
3C5
  5
3C7
331
3C6
  5
3C8
331
3C7
  5
3C9
331
3C8
  5
3CA
331
3C9
  5
3CB
331
3CA
  5
3CC
331
3CB
  5
3CD
331
3CC
  5
3CE
331
3CD
  5
3CF
331
3CE
  5
3D0
331
3CF
  5
3D1
331
3D0
  5
3D2
331
3D1
  5
3D3
331
3D2
  5
3D4
331
3D3
  5
3D5
331
3D4
  5
3D6
331
3D5
  5
3D7
331
3D6
  5
3D8
331
3D7
  5
3D9
331
3D8
  5
3DA
331
3D9
  5
3DB
331
3DA
  5
3DC
331
3DB
  5
3DD
331
3DC
  5
3DE
331
3DD
  5
3DF
331
3DE
  5
3E0
331
3DF
  5
3E1
331
3E0
  5
3E2
331
3E1
  5
3E3
331
3E2
  5
3E4
331
3E3
  5
3E5
331
3E4
  5
3E6
331
3E5
  5
3E7
331
3E6
  5
3E8
331
3E7
  5
3E9
331
3E8
  5
3EA
331
3E9
  5
3EB
331
3EA
  5
3EC
331
3EB
  5
3ED
331
3EC
  5
3EE
331
3ED
  5
3EF
331
3EE
  5
3F0
331
3EF
  5
3F1
331
3F0
  5
3F2
331
3F1
  5
3F3
331
3F2
  5
3F4
331
3F3
  5
3F5
331
3F4
  5
3F6
331
3F5
  5
3F7
331
3F6
  5
3F8
331
3F7
  5
3F9
331
3F8
  5
3FA
331
3F9
  5
3FB
331
3FA
  5
3FC
331
3FB
  5
3FD
331
3FC
  5
3FE
331
3FD
  5
3FF
331
3FE
  5
400
331
3FF
  5
401
331
400
  5
402
331
401
  5
403
331
402
  5
404
331
403
  5
405
331
404
  5
406
331
405
  5
407
331
406
  5
408
331
407
  5
409
331
408
  5
40A
331
409
  5
40B
331
40A
  5
40C
331
40B
  5
40D
331
40C
  5
40E
331
40D
  5
40F
331
40E
  5
410
331
40F
  5
411
331
410
  5
412
331
411
  5
413
331
412
  5
414
331
413
  5
415
331
414
  5
416
331
415
  5
417
331
416
  5
418
331
417
  5
419
331
418
  5
41A
331
419
  5
41B
331
41A
  5
41C
331
41B
  5
41D
331
41C
  5
41E
331
41D
  5
41F
331
41E
  5
420
331
41F
  5
421
331
420
  5
422
331
421
  5
423
331
422
  5
424
331
423
  5
425
331
424
  5
426
331
425
  5
427
331
426
  5
428
331
427
  5
429
331
428
  5
42A
331
429
  5
42B
331
42A
  5
42C
331
42B
  5
42D
331
42C
  5
42E
331
42D
  5
42F
331
42E
  5
430
331
42F
  5
431
331
430
  5
432
331
431
  5
433
331
432
  5
434
331
433
  5
435
331
434
  5
436
331
435
  5
437
331
436
  5
438
331
437
  5
439
331
438
  5
43A
331
439
  5
43B
331
43A
  5
43C
331
43B
  5
43D
331
43C
  5
43E
331
43D
  5
43F
331
43E
  5
440
331
43F
  5
441
331
440
  5
442
331
441
  5
443
331
442
  5
444
331
443
  5
445
331
444
  5
446
331
445
  5
447
331
446
  5
448
331
447
  5
449
331
448
  5
44A
331
449
  5
44B
331
44A
  5
44C
331
44B
  5
44D
331
44C
  5
44E
331
44D
  5
44F
331
44E
  5
450
331
44F
  5
451
331
450
  5
452
331
451
  5
453
331
452
  5
454
331
453
  5
455
331
454
  5
456
331
455
  5
457
331
456
  5
458
331
457
  5
459
331
458
  5
45A
331
459
  5
45B
331
45A
  5
45C
331
45B
  5
45D
331
45C
  5
45E
331
45D
  5
45F
331
45E
  5
460
331
45F
  5
461
331
460
  5
462
331
461
  5
463
331
462
  5
464
331
463
  5
465
331
464
  5
466
331
465
  5
467
331
466
  5
468
331
467
  5
469
331
468
  5
46A
331
469
  5
46B
331
46A
  5
46C
331
46B
  5
46D
331
46C
  5
46E
331
46D
  5
46F
331
46E
  5
470
331
46F
  5
471
331
470
  5
472
331
471
  5
473
331
472
  5
474
331
473
  5
475
331
474
  5
476
331
475
  5
477
331
476
  5
478
331
477
  5
479
331
478
  5
47A
331
479
  5
47B
331
47A
  5
47C
331
47B
  5
47D
331
47C
  5
47E
331
47D
  5
47F
331
47E
  5
480
331
47F
  5
481
331
480
  5
482
331
481
  5
483
331
482
  5
484
331
483
  5
485
331
484
  5
486
331
485
  5
487
331
486
  5
488
331
487
  5
489
331
488
  5
48A
331
489
  5
48B
331
48A
  5
48C
331
48B
  5
48D
331
48C
  5
48E
331
48D
  5
48F
331
48E
  5
490
331
48F
  5
491
331
490
  5
492
331
491
  5
493
331
492
  5
494
331
493
  5
495
331
494
  5
496
331
495
  5
497
331
496
  5
498
331
497
  5
499
331
498
  5
49A
331
499
  5
49B
331
49A
  5
49C
331
49B
  5
49D
331
49C
  5
49E
331
49D
  5
49F
331
49E
  5
4A0
331
49F
  5
4A1
331
4A0
  5
4A2
331
4A1
  5
4A3
331
4A2
  5
4A4
331
4A3
  5
4A5
331
4A4
  5
4A6
331
4A5
  5
4A7
331
4A6
  5
4A8
331
4A7
  5
4A9
331
4A8
  5
4AA
331
4A9
  5
4AB
331
4AA
  5
4AC
331
4AB
  5
4AD
331
4AC
  5
4AE
331
4AD
  5
4AF
331
4AE
  5
4B0
331
4AF
  5
4B1
331
4B0
  5
4B2
331
4B1
  5
4B3
331
4B2
  5
4B4
331
4B3
  5
4B5
331
4B4
  5
4B6
331
4B5
  5
4B7
331
4B6
  5
4B8
331
4B7
  5
4B9
331
4B8
  5
4BA
331
4B9
  5
4BB
331
4BA
  5
4BC
331
4BB
  5
4BD
331
4BC
  5
4BE
331
4BD
  5
4BF
331
4BE
  5
4C0
331
4BF
  5
4C1
331
4C0
  5
4C2
331
4C1
  5
4C3
331
4C2
  5
4C4
331
4C3
  5
4C5
331
4C4
  5
4C6
331
4C5
  5
4C7
331
4C6
  5
4C8
331
4C7
  5
4C9
331
4C8
  5
4CA
331
4C9
  5
4CB
331
4CA
  5
4CC
331
4CB
  5
4CD
331
4CC
  5
4CE
331
4CD
  5
4CF
331
4CE
  5
4D0
331
4CF
  5
4D1
331
4D0
  5
4D2
331
4D1
  5
4D3
331
4D2
  5
4D4
331
4D3
  5
4D5
331
4D4
  5
4D6
331
4D5
  5
4D7
331
4D6
  5
4D8
331
4D7
  5
4D9
331
4D8
  5
4DA
331
4D9
  5
4DB
331
4DA
  5
4DC
331
4DB
  5
4DD
331
4DC
  5
4DE
331
4DD
  5
4DF
331
4DE
  5
4E0
331
4DF
  5
4E1
331
4E0
  5
4E2
331
4E1
  5
4E3
331
4E2
  5
4E4
331
4E3
  5
4E5
331
4E4
  5
4E6
331
4E5
  5
4E7
331
4E6
  5
4E8
331
4E7
  5
4E9
331
4E8
  5
4EA
331
4E9
  5
4EB
331
4EA
  5
4EC
331
4EB
  5
4ED
331
4EC
  5
4EE
331
4ED
  5
4EF
331
4EE
  5
4F0
331
4EF
  5
4F1
331
4F0
  5
4F2
331
4F1
  5
4F3
331
4F2
  5
4F4
331
4F3
  5
4F5
331
4F4
  5
4F6
331
4F5
  5
4F7
331
4F6
  5
4F8
331
4F7
  5
4F9
331
4F8
  5
4FA
331
4F9
  5
4FB
331
4FA
  5
4FC
331
4FB
  5
4FD
331
4FC
  5
4FE
331
4FD
  5
4FF
331
4FE
  5
500
331
4FF
  5
501
331
500
  5
502
331
501
  5
503
331
502
  5
504
331
503
  5
505
331
504
  5
506
331
505
  5
507
331
506
  5
508
331
507
  5
509
331
508
  5
50A
331
509
  5
50B
331
50A
  5
50C
331
50B
  5
50D
331
50C
  5
50E
331
50D
  5
50F
331
50E
  5
510
331
50F
  5
511
331
510
  5
512
331
511
  5
513
331
512
  5
514
331
513
  5
515
331
514
  5
516
331
515
  5
517
331
516
  5
518
331
517
  5
519
331
518
  5
51A
331
519
  5
51B
331
51A
  5
51C
331
51B
  5
51D
331
51C
  5
51E
331
51D
  5
51F
331
51E
  5
520
331
51F
  5
521
331
520
  5
522
331
521
  5
523
331
522
  5
524
331
523
  5
525
331
524
  5
526
331
525
  5
527
331
526
  5
528
331
527
  5
529
331
528
  5
52A
331
529
  5
52B
331
52A
  5
52C
331
52B
  5
52D
331
52C
  5
52E
331
52D
  5
52F
331
52E
  5
530
331
52F
  5
531
331
530
  5
532
331
531
  5
533
331
532
  5
534
331
533
  5
535
331
534
  5
536
331
535
  5
537
331
536
  5
538
331
537
  5
539
331
538
  5
53A
331
539
  5
53B
331
53A
  5
53C
331
53B
  5
53D
331
53C
  5
53E
331
53D
  5
53F
331
53E
  5
540
331
53F
  5
541
331
540
  5
542
331
541
  5
543
331
542
  5
544
331
0
  5
545
331
0
  5
549
331
0
  5
54A
331
0
  5
54B
331
0
  5
54C
331
0
  5
54D
331
0
  5
54E
331
0
  5
54F
331
0
  5
550
331
0
  5
551
331
0
  5
552
331
0
  5
553
331
0
  5
554
331
0
  5
555
331
0
  5
556
331
0
  5
557
331
0
  5
558
331
0
  5
559
331
0
  5
55A
331
0
  5
55B
331
0
  5
55C
331
0
  5
55D
331
0
  5
55E
331
0
  5
55F
331
0
  5
560
331
0
  5
561
331
0
  5
562
331
0
  5
563
331
0
  5
564
331
0
  5
565
331
0
  5
566
331
0
  5
567
331
0
  5
568
331
0
  5
569
331
0
  5
56A
331
0
  5
56B
331
0
  5
56C
331
0
  5
56D
331
0
  5
56E
331
0
  5
56F
331
0
  5
570
331
0
  5
571
331
0
  5
572
331
0
  5
573
331
0
  5
574
331
0
  5
575
331
0
  5
576
331
0
  5
577
331
0
  5
578
331
0
  5
579
331
0
  5
57A
331
0
  5
57B
331
0
  5
57C
331
0
  5
57D
331
0
  5
57E
331
0
  5
57F
331
0
  5
580
331
0
  5
581
331
0
  5
582
331
0
  5
583
331
0
  5
584
331
0
  5
585
331
0
  5
586
331
0
  5
587
331
0
  5
588
331
0
  5
589
331
0
  5
58A
331
0
  5
58B
331
0
  5
58C
331
0
  5
58D
331
0
  5
58E
331
0
  5
58F
331
0
  5
590
331
0
  5
591
331
0
  5
592
331
0
  5
593
331
0
  5
594
331
0
  5
595
331
0
  5
596
331
0
  5
597
331
0
  5
598
331
0
  5
599
331
0
  5
59A
331
0
  5
59B
331
0
  5
59C
331
0
  5
59D
331
0
  5
59E
331
0
  5
59F
331
0
  5
5A0
331
0
  5
5A1
331
0
  5
5A2
331
0
  5
5A3
331
0
  5
5A4
331
0
  5
5A5
331
0
  5
5A6
331
0
  5
5A7
331
0
  5
5A8
331
0
  5
5A9
331
0
  5
5AA
331
0
  5
5AB
331
0
  5
5AC
331
0
  5
5AD
331
0
  5
5AE
331
0
  5
5AF
331
0
  5
5B0
331
0
  5
5B1
331
0
  5
5B2
331
0
  5
5B3
331
0
  5
5B4
331
0
  5
5B5
331
0
  5
5B6
331
0
  5
5B7
331
0
  5
5B8
331
0
  5
5B9
331
0
  5
5BA
331
0
  5
5BB
331
0
  5
5BC
331
0
  5
5BD
331
0
  5
5BE
331
0
  5
5BF
331
0
  5
5C0
331
0
  5
5C1
331
0
  5
5C2
331
0
  5
5C3
331
0
  5
5C4
331
0
  5
5C5
331
0
  5
5C6
331
0
  5
5C7
331
0
  5
5C8
331
0
  5
5C9
331
0
  5
5CA
331
0
  5
5CB
331
0
  5
5CC
331
0
  5
5CD
331
0
  5
5CE
331
0
  5
5CF
331
0
  5
5D0
331
0
  5
5D1
331
0
  5
5D2
331
0
  5
5D3
331
0
  5
5D4
331
0
  5
5D5
331
0
  5
5D6
331
0
  5
5D7
331
0
  5
5D8
331
0
  5
5D9
331
0
  5
5DA
331
0
  5
5DB
331
0
  5
5DC
331
0
  5
5DD
331
0
  5
5DE
331
0
  5
5DF
331
0
  5
5E0
331
0
  5
5E1
331
0
  5
5E2
331
0
  5
5E3
331
0
  5
5E4
331
0
  5
5E5
331
0
  5
5E6
331
0
  5
5E7
331
0
  5
5E8
331
0
  5
5E9
331
0
  5
5EA
331
0
  5
5EB
331
0
  5
5EC
331
0
  5
5ED
331
0
  5
5EE
331
0
  5
5EF
331
0
  5
5F0
331
0
  5
5F1
331
0
  5
5F2
331
0
  5
5F3
331
0
  5
5F4
331
0
  5
5F5
331
0
  5
5F6
331
0
  5
5F7
331
0
  5
5F8
331
0
  5
5F9
331
0
  5
5FB
331
0
  5
5FC
331
0
  5
5FD
331
0
  5
5FE
331
0
  5
5FF
331
0
  5
600
331
0
  5
601
331
0
  5
602
331
0
  5
603
331
0
  5
604
331
0
  5
605
331
0
  5
606
331
0
  5
607
331
0
  5
608
331
0
  5
609
331
0
  5
60A
331
0
  5
60B
331
0
  5
60C
331
0
  5
60D
331
0
  5
60E
331
0
  5
60F
331
0
  5
610
331
0
  5
611
331
0
  5
612
331
0
  5
613
331
0
  5
614
331
0
  5
615
331
0
  5
616
331
0
  5
617
331
0
  5
618
331
0
  5
619
331
0
  5
61A
331
0
  5
61B
331
0
  5
61C
331
0
  5
61D
331
0
  5
61E
331
0
  5
61F
331
0
  5
620
331
0
  5
621
331
0
  5
622
331
0
  5
623
331
0
  5
624
331
623
  5
625
331
624
  5
626
331
625
  5
644
331
626
  5
646
331
644
  5
647
331
646
  5
648
331
647
  5
649
331
648
  5
64A
331
649
  5
64B
331
64A
  5
64C
331
64B
  5
64D
331
64C
  5
64E
331
64D
  5
64F
331
64E
  5
650
331
64F
  5
651
331
650
  5
652
331
0
  5
654
331
0
  5
655
331
0
  5
656
331
0
  5
657
331
0
  5
658
331
0
  5
65A
331
0
  5
65B
331
0
  5
65C
331
0
  5
65D
331
0
  5
65E
331
0
  5
65F
331
0
  5
660
331
0
  5
661
331
660
  5
272
331
661
  5
273
  0
LAYOUT
  5
23
102
{ACAD_REACTORS
330
24
102
}
330
24
100
AcDbPlotSettings
  1

  2
Bullzip PDF Printer.pc3
  4
A3
  6

 40
0.2
 41
0.0
 42
0.0
 43
0.0
 44
420.2
 45
297.1
 46
25.0
 47
12.0
 48
99.99999984166652
 49
0.0
140
2009.999995466666
141
1362.499996820832
142
1.0
143
5.0
 70
 11936
 72
     1
 73
     0
 74
     4
  7
monochrome.ctb
 75
     0
147
0.2
148
-99.99999984166652
149
0.0
100
AcDbLayout
  1
Model
 70
     0
 71
     0
 10
0.0
 20
0.0
 11
12.0
 21
9.0
 12
0.0
 22
0.0
 32
0.0
 14
278.8771499125869
 24
9.685457272414055
 34
0.0
 15
1719.266144780301
 25
1399.814374021877
 35
0.0
146
0.0
 13
0.0
 23
0.0
 33
0.0
 16
1.0
 26
0.0
 36
0.0
 17
0.0
 27
1.0
 37
0.0
 76
     0
330
1B
331
33
1001
ACAD_PSEXT
1000
Bullzip PDF Printer.pc3
1000
Bullzip PDF Printer
1000
BULLZIP
1000
Bullzip PDF Printer 10.1.0.1871
1070
     0
  0
LAYOUT
  5
29
102
{ACAD_REACTORS
330
24
102
}
330
24
100
AcDbPlotSettings
  1

  2
SR-LP8000S!1
  4

  6

 40
0.0
 41
0.0
 42
0.0
 43
0.0
 44
0.0
 45
0.0
 46
0.0
 47
0.0
 48
0.0
 49
0.0
140
0.0
141
0.0
142
1.0
143
1.0
 70
   688
 72
     0
 73
     0
 74
     5
  7
monochrome.ctb
 75
    16
147
1.0
148
0.0
149
0.0
100
AcDbLayout
  1
ﾚｲｱｳﾄ1
 70
     0
 71
     1
 10
0.0
 20
0.0
 11
12.0
 21
9.0
 12
0.0
 22
0.0
 32
0.0
 14
1000000000000000E+20
 24
1000000000000000E+20
 34
1000000000000000E+20
 15
-1000000000000000E+20
 25
-1000000000000000E+20
 35
-1000000000000000E+20
146
0.0
 13
0.0
 23
0.0
 33
0.0
 16
1.0
 26
0.0
 36
0.0
 17
0.0
 27
1.0
 37
0.0
 76
     0
330
26
  0
MATERIAL
  5
59
102
{ACAD_REACTORS
330
B
102
}
102
{ACAD_XDICTIONARY
360
69D
102
}
330
B
100
AcDbMaterial
  1
ByBlock
 72
     0
 73
     2
 43
0.0208333333333333
 43
0.0
 43
0.0
 43
0.0
 43
0.0
 43
0.0208333333333333
 43
0.0
 43
0.0
 43
0.0
 43
0.0
 43
1.0
 43
0.0
 43
0.0
 43
0.0
 43
0.0
 43
1.0
 77
     0
 78
     2
 47
0.0208333333333333
 47
0.0
 47
0.0
 47
0.0
 47
0.0
 47
0.0208333333333333
 47
0.0
 47
0.0
 47
0.0
 47
0.0
 47
1.0
 47
0.0
 47
0.0
 47
0.0
 47
0.0
 47
1.0
171
     0
172
     2
 49
0.0208333333333333
 49
0.0
 49
0.0
 49
0.0
 49
0.0
 49
0.0208333333333333
 49
0.0
 49
0.0
 49
0.0
 49
0.0
 49
1.0
 49
0.0
 49
0.0
 49
0.0
 49
0.0
 49
1.0
175
     0
176
     2
142
0.0208333333333333
142
0.0
142
0.0
142
0.0
142
0.0
142
0.0208333333333333
142
0.0
142
0.0
142
0.0
142
0.0
142
1.0
142
0.0
142
0.0
142
0.0
142
0.0
142
1.0
179
     0
270
     2
144
0.0208333333333333
144
0.0
144
0.0
144
0.0
144
0.0
144
0.0208333333333333
144
0.0
144
0.0
144
0.0
144
0.0
144
1.0
144
0.0
144
0.0
144
0.0
144
0.0
144
1.0
274
     2
147
0.0208333333333333
147
0.0
147
0.0
147
0.0
147
0.0
147
0.0208333333333333
147
0.0
147
0.0
147
0.0
147
0.0
147
1.0
147
0.0
147
0.0
147
0.0
147
0.0
147
1.0
  0
MATERIAL
  5
14
102
{ACAD_REACTORS
330
B
102
}
102
{ACAD_XDICTIONARY
360
699
102
}
330
B
100
AcDbMaterial
  1
ByLayer
 72
     0
 73
     2
 43
0.0208333333333333
 43
0.0
 43
0.0
 43
0.0
 43
0.0
 43
0.0208333333333333
 43
0.0
 43
0.0
 43
0.0
 43
0.0
 43
1.0
 43
0.0
 43
0.0
 43
0.0
 43
0.0
 43
1.0
 77
     0
 78
     2
 47
0.0208333333333333
 47
0.0
 47
0.0
 47
0.0
 47
0.0
 47
0.0208333333333333
 47
0.0
 47
0.0
 47
0.0
 47
0.0
 47
1.0
 47
0.0
 47
0.0
 47
0.0
 47
0.0
 47
1.0
171
     0
172
     2
 49
0.0208333333333333
 49
0.0
 49
0.0
 49
0.0
 49
0.0
 49
0.0208333333333333
 49
0.0
 49
0.0
 49
0.0
 49
0.0
 49
1.0
 49
0.0
 49
0.0
 49
0.0
 49
0.0
 49
1.0
175
     0
176
     2
142
0.0208333333333333
142
0.0
142
0.0
142
0.0
142
0.0
142
0.0208333333333333
142
0.0
142
0.0
142
0.0
142
0.0
142
1.0
142
0.0
142
0.0
142
0.0
142
0.0
142
1.0
179
     0
270
     2
144
0.0208333333333333
144
0.0
144
0.0
144
0.0
144
0.0
144
0.0208333333333333
144
0.0
144
0.0
144
0.0
144
0.0
144
1.0
144
0.0
144
0.0
144
0.0
144
0.0
144
1.0
274
     2
147
0.0208333333333333
147
0.0
147
0.0
147
0.0
147
0.0
147
0.0208333333333333
147
0.0
147
0.0
147
0.0
147
0.0
147
1.0
147
0.0
147
0.0
147
0.0
147
0.0
147
1.0
  0
MATERIAL
  5
A
102
{ACAD_REACTORS
330
B
102
}
102
{ACAD_XDICTIONARY
360
69B
102
}
330
B
100
AcDbMaterial
  1
Global
 72
     0
 73
     2
 43
0.0208333333333333
 43
0.0
 43
0.0
 43
0.0
 43
0.0
 43
0.0208333333333333
 43
0.0
 43
0.0
 43
0.0
 43
0.0
 43
1.0
 43
0.0
 43
0.0
 43
0.0
 43
0.0
 43
1.0
 77
     0
 78
     2
 47
0.0208333333333333
 47
0.0
 47
0.0
 47
0.0
 47
0.0
 47
0.0208333333333333
 47
0.0
 47
0.0
 47
0.0
 47
0.0
 47
1.0
 47
0.0
 47
0.0
 47
0.0
 47
0.0
 47
1.0
171
     0
172
     2
 49
0.0208333333333333
 49
0.0
 49
0.0
 49
0.0
 49
0.0
 49
0.0208333333333333
 49
0.0
 49
0.0
 49
0.0
 49
0.0
 49
1.0
 49
0.0
 49
0.0
 49
0.0
 49
0.0
 49
1.0
175
     0
176
     2
142
0.0208333333333333
142
0.0
142
0.0
142
0.0
142
0.0
142
0.0208333333333333
142
0.0
142
0.0
142
0.0
142
0.0
142
1.0
142
0.0
142
0.0
142
0.0
142
0.0
142
1.0
179
     0
270
     2
144
0.0208333333333333
144
0.0
144
0.0
144
0.0
144
0.0
144
0.0208333333333333
144
0.0
144
0.0
144
0.0
144
0.0
144
1.0
144
0.0
144
0.0
144
0.0
144
0.0
144
1.0
274
     2
147
0.0208333333333333
147
0.0
147
0.0
147
0.0
147
0.0
147
0.0208333333333333
147
0.0
147
0.0
147
0.0
147
0.0
147
1.0
147
0.0
147
0.0
147
0.0
147
0.0
147
1.0
1001
ACAD
1070
    -1
1070
     3
1070
     0
1000

1071
        0
  0
MLEADERSTYLE
  5
687
102
{ACAD_REACTORS
330
62A
102
}
102
{ACAD_XDICTIONARY
360
6CF
102
}
330
62A
100
AcDbMLeaderStyle
170
     2
171
     1
172
     0
 90
        2
 40
0.0
 41
0.0
173
     1
 91
-1056964608
340
11
 92
       -2
290
     1
 42
0.09
291
     1
 43
0.36
  3
Standard
341
0
 44
0.18
300

342
12
174
     1
178
     6
175
     1
176
     0
 93
-1056964608
 45
0.18
292
     0
297
     0
 46
0.18
343
0
 94
-1056964608
 47
1.0
 49
1.0
140
1.0
293
     1
141
0.0
294
     1
177
     0
142
1.0
295
     0
296
     0
143
0.125
1001
ACAD_MLEADERVER
1070
     2
  0
MLINESTYLE
  5
18
102
{ACAD_REACTORS
330
19
102
}
330
19
100
AcDbMlineStyle
  2
STANDARD
 70
     0
  3

 62
     0
 51
90.0
 52
90.0
 71
     2
 49
0.5
 62
   256
  6
BYLAYER
 49
-0.5
 62
   256
  6
BYLAYER
  0
ACDBPLACEHOLDER
  5
7
102
{ACAD_REACTORS
330
8
102
}
330
8
  0
SCALE
  5
58
102
{ACAD_REACTORS
330
36
102
}
330
36
100
AcDbScale
 70
     0
300
1:1
140
1.0
141
1.0
290
     1
  0
VISUALSTYLE
  5
632
102
{ACAD_REACTORS
330
30
102
}
102
{ACAD_XDICTIONARY
360
6AB
102
}
330
30
100
AcDbVisualStyle
  2
2dWireframe
 70
     4
 71
     0
 72
     2
 73
     0
 90
        0
 40
0.6
 41
30.0
 62
     5
 63
     7
 74
     1
 91
        4
 64
     7
 65
   257
 75
     1
175
     1
 42
1.0
 92
        0
 66
   257
 43
1.0
 76
     1
 77
     6
 78
     2
 67
     7
 79
     5
170
     0
171
     0
290
     0
174
     0
 93
        1
 44
0.0
173
     0
291
     0
 45
0.0
1001
ACAD
1000
AcDbSavedByObjectVersion
1070
     0
  0
VISUALSTYLE
  5
634
102
{ACAD_REACTORS
330
30
102
}
102
{ACAD_XDICTIONARY
360
6AF
102
}
330
30
100
AcDbVisualStyle
  2
Basic
 70
     7
 71
     1
 72
     0
 73
     1
 90
        0
 40
0.6
 41
30.0
 62
     5
 63
     7
 74
     0
 91
        4
 64
     7
 65
   257
 75
     1
175
     1
 42
1.0
 92
        8
 66
     7
 43
1.0
 76
     1
 77
     6
 78
     2
 67
     7
 79
     5
170
     0
171
     0
290
     0
174
     0
 93
        1
 44
0.0
173
     0
291
     1
 45
0.0
1001
ACAD
1000
AcDbSavedByObjectVersion
1070
     0
  0
VISUALSTYLE
  5
637
102
{ACAD_REACTORS
330
30
102
}
102
{ACAD_XDICTIONARY
360
6B5
102
}
330
30
100
AcDbVisualStyle
  2
Brighten
 70
    12
 71
     2
 72
     2
 73
     0
 90
        0
 40
0.6
 41
30.0
 62
     5
 63
     7
 74
     1
 91
        4
 64
     7
 65
   257
 75
     1
175
     1
 42
1.0
 92
        8
 66
     7
 43
1.0
 76
     1
 77
     6
 78
     2
 67
     7
 79
     5
170
     0
171
     0
290
     0
174
     0
 93
        1
 44
50.0
173
     0
291
     1
 45
0.0
1001
ACAD
1000
AcDbSavedByObjectVersion
1070
     0
  0
VISUALSTYLE
  5
63B
102
{ACAD_REACTORS
330
30
102
}
102
{ACAD_XDICTIONARY
360
6BD
102
}
330
30
100
AcDbVisualStyle
  2
ColorChange
 70
    16
 71
     2
 72
     2
 73
     3
 90
        0
 40
0.6
 41
30.0
 62
     5
 63
     8
 74
     1
 91
        4
 64
     7
 65
   257
 75
     1
175
     1
 42
1.0
 92
        8
 66
     8
 43
1.0
 76
     1
 77
     6
 78
     2
 67
     7
 79
     5
170
     0
171
     0
290
     0
174
     0
 93
        1
 44
0.0
173
     0
291
     1
 45
0.0
1001
ACAD
1000
AcDbSavedByObjectVersion
1070
     0
  0
VISUALSTYLE
  5
635
102
{ACAD_REACTORS
330
30
102
}
102
{ACAD_XDICTIONARY
360
6B1
102
}
330
30
100
AcDbVisualStyle
  2
Conceptual
 70
     9
 71
     3
 72
     2
 73
     0
 90
        0
 40
0.6
 41
30.0
 62
     5
 63
     7
 74
     2
 91
        2
 64
     7
 65
   257
 75
     1
175
     1
 42
40.0
 92
        8
 66
     7
 43
1.0
 76
     1
 77
     6
 78
     2
 67
     7
 79
     3
170
     0
171
     0
290
     0
174
     0
 93
        1
 44
0.0
173
     0
291
     0
 45
0.0
1001
ACAD
1000
AcDbSavedByObjectVersion
1070
     0
  0
VISUALSTYLE
  5
636
102
{ACAD_REACTORS
330
30
102
}
102
{ACAD_XDICTIONARY
360
6B3
102
}
330
30
100
AcDbVisualStyle
  2
Dim
 70
    11
 71
     2
 72
     2
 73
     0
 90
        0
 40
0.6
 41
30.0
 62
     5
 63
     7
 74
     1
 91
        4
 64
     7
 65
   257
 75
     1
175
     1
 42
1.0
 92
        8
 66
     7
 43
1.0
 76
     1
 77
     6
 78
     2
 67
     7
 79
     5
170
     0
171
     0
290
     0
174
     0
 93
        1
 44
-50.0
173
     0
291
     1
 45
0.0
1001
ACAD
1000
AcDbSavedByObjectVersion
1070
     0
  0
VISUALSTYLE
  5
63E
102
{ACAD_REACTORS
330
30
102
}
102
{ACAD_XDICTIONARY
360
6C3
102
}
330
30
100
AcDbVisualStyle
  2
EdgeColorOff
 70
    22
 71
     2
 72
     2
 73
     0
 90
        0
 40
0.6
 41
30.0
 62
     5
 63
     7
 74
     1
 91
        4
 64
     7
 65
   257
 75
     1
175
     1
 42
1.0
 92
        8
 66
     7
 43
1.0
 76
     1
 77
     6
 78
     2
 67
     7
 79
     5
170
     0
171
     0
290
     0
174
     0
 93
        1
 44
0.0
173
     0
291
     1
 45
0.0
1001
ACAD
1000
AcDbSavedByObjectVersion
1070
     0
  0
VISUALSTYLE
  5
63A
102
{ACAD_REACTORS
330
30
102
}
102
{ACAD_XDICTIONARY
360
6BB
102
}
330
30
100
AcDbVisualStyle
  2
Facepattern
 70
    15
 71
     2
 72
     2
 73
     0
 90
        0
 40
0.6
 41
30.0
 62
     5
 63
     7
 74
     1
 91
        4
 64
     7
 65
   257
 75
     1
175
     1
 42
1.0
 92
        8
 66
     7
 43
1.0
 76
     1
 77
     6
 78
     2
 67
     7
 79
     5
170
     0
171
     0
290
     0
174
     0
 93
        1
 44
0.0
173
     0
291
     1
 45
0.0
1001
ACAD
1000
AcDbSavedByObjectVersion
1070
     0
  0
VISUALSTYLE
  5
62E
102
{ACAD_REACTORS
330
30
102
}
102
{ACAD_XDICTIONARY
360
6A3
102
}
330
30
100
AcDbVisualStyle
  2
Flat
 70
     0
 71
     2
 72
     1
 73
     1
 90
        2
 40
0.6
 41
30.0
 62
     5
 63
     7
 74
     0
 91
        4
 64
     7
 65
   257
 75
     1
175
     1
 42
1.0
 92
        8
 66
     7
 43
1.0
 76
     1
 77
     6
 78
     2
 67
     7
 79
     5
170
     0
171
     0
290
     0
174
     0
 93
       13
 44
0.0
173
     0
291
     1
 45
0.0
1001
ACAD
1000
AcDbSavedByObjectVersion
1070
     0
  0
VISUALSTYLE
  5
62F
102
{ACAD_REACTORS
330
30
102
}
102
{ACAD_XDICTIONARY
360
6A5
102
}
330
30
100
AcDbVisualStyle
  2
FlatWithEdges
 70
     1
 71
     2
 72
     1
 73
     1
 90
        2
 40
0.6
 41
30.0
 62
     5
 63
     7
 74
     1
 91
        4
 64
     7
 65
   257
 75
     1
175
     1
 42
1.0
 92
        0
 66
   257
 43
1.0
 76
     1
 77
     6
 78
     2
 67
     7
 79
     5
170
     0
171
     0
290
     0
174
     0
 93
       13
 44
0.0
173
     0
291
     1
 45
0.0
1001
ACAD
1000
AcDbSavedByObjectVersion
1070
     0
  0
VISUALSTYLE
  5
630
102
{ACAD_REACTORS
330
30
102
}
102
{ACAD_XDICTIONARY
360
6A7
102
}
330
30
100
AcDbVisualStyle
  2
Gouraud
 70
     2
 71
     2
 72
     2
 73
     1
 90
        2
 40
0.6
 41
30.0
 62
     5
 63
     7
 74
     0
 91
        4
 64
     7
 65
   257
 75
     1
175
     1
 42
1.0
 92
        0
 66
     7
 43
1.0
 76
     1
 77
     6
 78
     2
 67
     7
 79
     5
170
     0
171
     0
290
     0
174
     0
 93
       13
 44
0.0
173
     0
291
     1
 45
0.0
1001
ACAD
1000
AcDbSavedByObjectVersion
1070
     0
  0
VISUALSTYLE
  5
631
102
{ACAD_REACTORS
330
30
102
}
102
{ACAD_XDICTIONARY
360
6A9
102
}
330
30
100
AcDbVisualStyle
  2
GouraudWithEdges
 70
     3
 71
     2
 72
     2
 73
     1
 90
        2
 40
0.6
 41
30.0
 62
     5
 63
     7
 74
     1
 91
        4
 64
     7
 65
   257
 75
     1
175
     1
 42
1.0
 92
        0
 66
   257
 43
1.0
 76
     1
 77
     6
 78
     2
 67
     7
 79
     5
170
     0
171
     0
290
     0
174
     0
 93
       13
 44
0.0
173
     0
291
     1
 45
0.0
1001
ACAD
1000
AcDbSavedByObjectVersion
1070
     0
  0
VISUALSTYLE
  5
633
102
{ACAD_REACTORS
330
30
102
}
102
{ACAD_XDICTIONARY
360
6AD
102
}
330
30
100
AcDbVisualStyle
  2
Hidden
 70
     6
 71
     1
 72
     2
 73
     2
 90
        0
 40
0.6
 41
30.0
 62
     5
 63
     7
 74
     2
 91
        2
 64
     7
 65
   257
 75
     2
175
     1
 42
40.0
 92
        0
 66
   257
 43
1.0
 76
     1
 77
     6
 78
     2
 67
     7
 79
     3
170
     0
171
     0
290
     0
174
     0
 93
        1
 44
0.0
173
     0
291
     0
 45
0.0
1001
ACAD
1000
AcDbSavedByObjectVersion
1070
     0
  0
VISUALSTYLE
  5
63C
102
{ACAD_REACTORS
330
30
102
}
102
{ACAD_XDICTIONARY
360
6BF
102
}
330
30
100
AcDbVisualStyle
  2
JitterOff
 70
    20
 71
     2
 72
     2
 73
     0
 90
        0
 40
0.6
 41
30.0
 62
     5
 63
     7
 74
     1
 91
        4
 64
     7
 65
   257
 75
     1
175
     1
 42
1.0
 92
       10
 66
     7
 43
1.0
 76
     1
 77
     6
 78
     2
 67
     7
 79
     5
170
     0
171
     0
290
     0
174
     0
 93
        1
 44
0.0
173
     0
291
     1
 45
0.0
1001
ACAD
1000
AcDbSavedByObjectVersion
1070
     0
  0
VISUALSTYLE
  5
639
102
{ACAD_REACTORS
330
30
102
}
102
{ACAD_XDICTIONARY
360
6B9
102
}
330
30
100
AcDbVisualStyle
  2
Linepattern
 70
    14
 71
     2
 72
     2
 73
     0
 90
        0
 40
0.6
 41
30.0
 62
     5
 63
     7
 74
     1
 91
        4
 64
     7
 65
   257
 75
     7
175
     7
 42
1.0
 92
        8
 66
     7
 43
1.0
 76
     1
 77
     6
 78
     2
 67
     7
 79
     5
170
     0
171
     0
290
     0
174
     0
 93
        1
 44
0.0
173
     0
291
     1
 45
0.0
1001
ACAD
1000
AcDbSavedByObjectVersion
1070
     0
  0
VISUALSTYLE
  5
63D
102
{ACAD_REACTORS
330
30
102
}
102
{ACAD_XDICTIONARY
360
6C1
102
}
330
30
100
AcDbVisualStyle
  2
OverhangOff
 70
    21
 71
     2
 72
     2
 73
     0
 90
        0
 40
0.6
 41
30.0
 62
     5
 63
     7
 74
     1
 91
        4
 64
     7
 65
   257
 75
     1
175
     1
 42
1.0
 92
        9
 66
     7
 43
1.0
 76
     1
 77
     6
 78
     2
 67
     7
 79
     5
170
     0
171
     0
290
     0
174
     0
 93
        1
 44
0.0
173
     0
291
     1
 45
0.0
1001
ACAD
1000
AcDbSavedByObjectVersion
1070
     0
  0
VISUALSTYLE
  5
31
102
{ACAD_REACTORS
330
30
102
}
102
{ACAD_XDICTIONARY
360
69F
102
}
330
30
100
AcDbVisualStyle
  2
Realistic
 70
     8
 71
     2
 72
     3
 73
     0
 90
        2
 40
0.6
 41
30.0
 62
     5
 63
     7
 74
     0
 91
        0
 64
     7
 65
   257
 75
     1
175
     1
 42
1.0
 92
        8
 66
   257
 43
1.0
 76
     1
 77
     6
 78
     2
 67
     7
 79
     3
170
     0
171
     0
290
     0
174
     0
 93
       13
 44
0.0
173
     0
291
     0
 45
0.0
1001
ACAD
1000
AcDbSavedByObjectVersion
1070
     0
  0
VISUALSTYLE
  5
643
102
{ACAD_REACTORS
330
30
102
}
102
{ACAD_XDICTIONARY
360
6CD
102
}
330
30
100
AcDbVisualStyle
  2
Shaded
 70
    27
 71
     2
 72
     2
 73
     1
 90
        2
 40
0.6
 41
30.0
 62
     5
 63
     7
 74
     0
 91
        4
 64
     7
 65
   257
 75
     1
175
     1
 42
1.0
 92
        8
 66
   257
 43
1.0
 76
     1
 77
     6
 78
     2
 67
   251
 79
     3
170
     0
171
     0
290
     0
174
     0
 93
        5
 44
0.0
173
     0
291
     0
 45
0.0
1001
ACAD
1000
AcDbSavedByObjectVersion
1070
     0
  0
VISUALSTYLE
  5
642
102
{ACAD_REACTORS
330
30
102
}
102
{ACAD_XDICTIONARY
360
6CB
102
}
330
30
100
AcDbVisualStyle
  2
Shaded with edges
 70
    26
 71
     2
 72
     2
 73
     1
 90
        2
 40
0.6
 41
30.0
 62
     5
 63
     7
 74
     1
 91
       10
 64
     7
 65
   257
 75
     2
175
     1
 42
1.0
 92
        8
 66
   257
 43
1.0
 76
     1
 77
     6
 78
     2
 67
     7
 79
     3
170
     0
171
     0
290
     0
174
     0
 93
        5
 44
0.0
173
     0
291
     0
 45
0.0
1001
ACAD
1000
AcDbSavedByObjectVersion
1070
     0
  0
VISUALSTYLE
  5
63F
102
{ACAD_REACTORS
330
30
102
}
102
{ACAD_XDICTIONARY
360
6C5
102
}
330
30
100
AcDbVisualStyle
  2
Shades of Gray
 70
    23
 71
     2
 72
     2
 73
     3
 90
        0
 40
0.6
 41
30.0
 62
     5
 63
     7
 74
     2
 91
        2
 64
     7
 65
     7
 75
     1
175
     1
 42
40.0
 92
        8
 66
     7
 43
1.0
 76
     1
 77
     6
 78
     2
 67
     7
 79
     3
170
     0
171
     0
290
     0
174
     0
 93
        1
 44
0.0
173
     0
291
     0
 45
0.0
1001
ACAD
1000
AcDbSavedByObjectVersion
1070
     0
  0
VISUALSTYLE
  5
640
102
{ACAD_REACTORS
330
30
102
}
102
{ACAD_XDICTIONARY
360
6C7
102
}
330
30
100
AcDbVisualStyle
  2
Sketchy
 70
    24
 71
     1
 72
     2
 73
     2
 90
        0
 40
0.6
 41
30.0
 62
     5
 63
     7
 74
     2
 91
        2
 64
     7
 65
     7
 75
     1
175
     1
 42
40.0
 92
       11
 66
     7
 43
1.0
 76
     1
 77
     6
 78
     2
 67
     7
 79
     6
170
     0
171
     0
290
     0
174
     0
 93
        1
 44
0.0
173
     0
291
     0
 45
0.0
1001
ACAD
1000
AcDbSavedByObjectVersion
1070
     0
  0
VISUALSTYLE
  5
638
102
{ACAD_REACTORS
330
30
102
}
102
{ACAD_XDICTIONARY
360
6B7
102
}
330
30
100
AcDbVisualStyle
  2
Thicken
 70
    13
 71
     2
 72
     2
 73
     0
 90
        0
 40
0.6
 41
30.0
 62
     5
 63
     7
 74
     1
 91
        4
 64
     7
 65
   257
 75
     1
175
     1
 42
1.0
 92
       12
 66
     7
 43
1.0
 76
     1
 77
     6
 78
     2
 67
     7
 79
     5
170
     0
171
     0
290
     0
174
     0
 93
        1
 44
0.0
173
     0
291
     1
 45
0.0
1001
ACAD
1000
AcDbSavedByObjectVersion
1070
     0
  0
VISUALSTYLE
  5
32
102
{ACAD_REACTORS
330
30
102
}
102
{ACAD_XDICTIONARY
360
6A1
102
}
330
30
100
AcDbVisualStyle
  2
Wireframe
 70
     5
 71
     0
 72
     2
 73
     0
 90
        0
 40
0.6
 41
30.0
 62
     5
 63
     7
 74
     1
 91
        4
 64
     7
 65
   257
 75
     1
175
     1
 42
1.0
 92
        0
 66
   257
 43
1.0
 76
     1
 77
     6
 78
     2
 67
     7
 79
     3
170
     0
171
     0
290
     0
174
     0
 93
        1
 44
0.0
173
     0
291
     0
 45
0.0
1001
ACAD
1000
AcDbSavedByObjectVersion
1070
     0
  0
VISUALSTYLE
  5
641
102
{ACAD_REACTORS
330
30
102
}
102
{ACAD_XDICTIONARY
360
6C9
102
}
330
30
100
AcDbVisualStyle
  2
X-Ray
 70
    25
 71
     2
 72
     2
 73
     1
 90
        1
 40
0.5
 41
30.0
 62
     5
 63
     7
 74
     1
 91
        0
 64
     7
 65
   257
 75
     1
175
     1
 42
1.0
 92
        8
 66
     7
 43
1.0
 76
     1
 77
     6
 78
     2
 67
     7
 79
     3
170
     0
171
     0
290
     0
174
     0
 93
       13
 44
0.0
173
     0
291
     0
 45
0.0
1001
ACAD
1000
AcDbSavedByObjectVersion
1070
     0
  0
XRECORD
  5
693
102
{ACAD_REACTORS
330
692
102
}
330
692
100
AcDbXrecord
280
     1
340
2F
  0
XRECORD
  5
694
102
{ACAD_REACTORS
330
692
102
}
330
692
100
AcDbXrecord
280
     1
340
B
  0
DICTIONARYVAR
  5
628
102
{ACAD_REACTORS
330
627
102
}
330
627
100
DictionaryVariables
280
     0
  1
1:1
  0
DICTIONARYVAR
  5
68B
102
{ACAD_REACTORS
330
627
102
}
330
627
100
DictionaryVariables
280
     0
  1
Standard
  0
DICTIONARYVAR
  5
690
102
{ACAD_REACTORS
330
627
102
}
330
627
100
DictionaryVariables
280
     0
  1
0
  0
DICTIONARYVAR
  5
691
102
{ACAD_REACTORS
330
627
102
}
330
627
100
DictionaryVariables
280
     0
  1
1
  0
DICTIONARYVAR
  5
698
102
{ACAD_REACTORS
330
627
102
}
330
627
100
DictionaryVariables
280
     0
  1
1
  0
DICTIONARYVAR
  5
62B
102
{ACAD_REACTORS
330
627
102
}
330
627
100
DictionaryVariables
280
     0
  1
0
  0
DICTIONARY
  5
69D
330
59
100
AcDbDictionary
280
     1
281
     1
  3
ACAD_XREC_ROUNDTRIP
360
69E
  0
DICTIONARY
  5
699
330
14
100
AcDbDictionary
280
     1
281
     1
  3
ACAD_XREC_ROUNDTRIP
360
69A
  0
DICTIONARY
  5
69B
330
A
100
AcDbDictionary
280
     1
281
     1
  3
ACAD_XREC_ROUNDTRIP
360
69C
  0
DICTIONARY
  5
6CF
330
687
100
AcDbDictionary
280
     1
281
     1
  3
ACAD_XREC_ROUNDTRIP
360
6D0
  0
DICTIONARY
  5
6AB
330
632
100
AcDbDictionary
280
     1
281
     1
  3
ACAD_XREC_ROUNDTRIP
360
6AC
  0
DICTIONARY
  5
6AF
330
634
100
AcDbDictionary
280
     1
281
     1
  3
ACAD_XREC_ROUNDTRIP
360
6B0
  0
DICTIONARY
  5
6B5
330
637
100
AcDbDictionary
280
     1
281
     1
  3
ACAD_XREC_ROUNDTRIP
360
6B6
  0
DICTIONARY
  5
6BD
330
63B
100
AcDbDictionary
280
     1
281
     1
  3
ACAD_XREC_ROUNDTRIP
360
6BE
  0
DICTIONARY
  5
6B1
330
635
100
AcDbDictionary
280
     1
281
     1
  3
ACAD_XREC_ROUNDTRIP
360
6B2
  0
DICTIONARY
  5
6B3
330
636
100
AcDbDictionary
280
     1
281
     1
  3
ACAD_XREC_ROUNDTRIP
360
6B4
  0
DICTIONARY
  5
6C3
330
63E
100
AcDbDictionary
280
     1
281
     1
  3
ACAD_XREC_ROUNDTRIP
360
6C4
  0
DICTIONARY
  5
6BB
330
63A
100
AcDbDictionary
280
     1
281
     1
  3
ACAD_XREC_ROUNDTRIP
360
6BC
  0
DICTIONARY
  5
6A3
330
62E
100
AcDbDictionary
280
     1
281
     1
  3
ACAD_XREC_ROUNDTRIP
360
6A4
  0
DICTIONARY
  5
6A5
330
62F
100
AcDbDictionary
280
     1
281
     1
  3
ACAD_XREC_ROUNDTRIP
360
6A6
  0
DICTIONARY
  5
6A7
330
630
100
AcDbDictionary
280
     1
281
     1
  3
ACAD_XREC_ROUNDTRIP
360
6A8
  0
DICTIONARY
  5
6A9
330
631
100
AcDbDictionary
280
     1
281
     1
  3
ACAD_XREC_ROUNDTRIP
360
6AA
  0
DICTIONARY
  5
6AD
330
633
100
AcDbDictionary
280
     1
281
     1
  3
ACAD_XREC_ROUNDTRIP
360
6AE
  0
DICTIONARY
  5
6BF
330
63C
100
AcDbDictionary
280
     1
281
     1
  3
ACAD_XREC_ROUNDTRIP
360
6C0
  0
DICTIONARY
  5
6B9
330
639
100
AcDbDictionary
280
     1
281
     1
  3
ACAD_XREC_ROUNDTRIP
360
6BA
  0
DICTIONARY
  5
6C1
330
63D
100
AcDbDictionary
280
     1
281
     1
  3
ACAD_XREC_ROUNDTRIP
360
6C2
  0
DICTIONARY
  5
69F
330
31
100
AcDbDictionary
280
     1
281
     1
  3
ACAD_XREC_ROUNDTRIP
360
6A0
  0
DICTIONARY
  5
6CD
330
643
100
AcDbDictionary
280
     1
281
     1
  3
ACAD_XREC_ROUNDTRIP
360
6CE
  0
DICTIONARY
  5
6CB
330
642
100
AcDbDictionary
280
     1
281
     1
  3
ACAD_XREC_ROUNDTRIP
360
6CC
  0
DICTIONARY
  5
6C5
330
63F
100
AcDbDictionary
280
     1
281
     1
  3
ACAD_XREC_ROUNDTRIP
360
6C6
  0
DICTIONARY
  5
6C7
330
640
100
AcDbDictionary
280
     1
281
     1
  3
ACAD_XREC_ROUNDTRIP
360
6C8
  0
DICTIONARY
  5
6B7
330
638
100
AcDbDictionary
280
     1
281
     1
  3
ACAD_XREC_ROUNDTRIP
360
6B8
  0
DICTIONARY
  5
6A1
330
32
100
AcDbDictionary
280
     1
281
     1
  3
ACAD_XREC_ROUNDTRIP
360
6A2
  0
DICTIONARY
  5
6C9
330
641
100
AcDbDictionary
280
     1
281
     1
  3
ACAD_XREC_ROUNDTRIP
360
6CA
  0
XRECORD
  5
69E
102
{ACAD_REACTORS
330
69D
102
}
330
69D
100
AcDbXrecord
280
     1
102
MATERIAL
148
0.0
149
0.0
149
0.0
 93
        0
 94
      127
282
     0
 72
     0
 77
     0
171
     0
175
     0
179
     0
273
     0
  0
XRECORD
  5
69A
102
{ACAD_REACTORS
330
699
102
}
330
699
100
AcDbXrecord
280
     1
102
MATERIAL
148
0.0
149
0.0
149
0.0
 93
        0
 94
      127
282
     0
 72
     0
 77
     0
171
     0
175
     0
179
     0
273
     0
  0
XRECORD
  5
69C
102
{ACAD_REACTORS
330
69B
102
}
330
69B
100
AcDbXrecord
280
     1
102
MATERIAL
148
0.0
149
0.0
149
0.0
 93
        0
 94
      127
282
     0
 72
     0
 77
     0
171
     0
175
     0
179
     0
273
     0
  0
XRECORD
  5
6D0
102
{ACAD_REACTORS
330
6CF
102
}
330
6CF
100
AcDbXrecord
280
     1
102
ACAD_ROUNDTRIP_2010_MLEADER_STYLE
  0
XRECORD
  5
6AC
102
{ACAD_REACTORS
330
6AB
102
}
330
6AB
100
AcDbXrecord
280
     1
102
RTVSPropertyOp0
 70
     1
102
RTVSPropertyOp1
 70
     1
102
RTVSPropertyOp2
 70
     1
102
RTVSPropertyOp3
 70
     1
102
RTVSPropertyOp4
 70
     1
102
RTVSPropertyOp5
 70
     1
102
RTVSPropertyOp6
 70
     1
102
RTVSPropertyOp7
 70
     1
102
RTVSPropertyOp8
 70
     1
102
RTVSPropertyOp9
 70
     1
102
RTVSPropertyOp10
 70
     1
102
RTVSPropertyOp11
 70
     1
102
RTVSPropertyOp12
 70
     1
102
RTVSPropertyOp13
 70
     1
102
RTVSPropertyOp14
 70
     1
102
RTVSPropertyOp15
 70
     1
102
RTVSPropertyOp16
 70
     1
102
RTVSPropertyOp17
 70
     1
102
RTVSPropertyOp18
 70
     1
102
RTVSPropertyOp19
 70
     1
102
RTVSPropertyOp20
 70
     1
102
RTVSPropertyOp21
 70
     1
102
RTVSPropertyOp22
 70
     1
102
RTVSPropertyOp23
 70
     1
102
RTVSPropertyOp24
 70
     1
102
RTVSPropertyOp25
 70
     1
102
RTVSPropertyOp26
 70
     1
102
RTVSPropertyOp27
 70
     1
102
RTVSPropertyOp28
 70
     1
102
RTVSPropertyOp29
 70
     1
102
RTVSPropertyOp30
 70
     1
102
RTVSPropertyOp31
 70
     1
102
RTVSPropertyOp32
 70
     1
102
RTVSPropertyOp33
 70
     1
102
RTVSPropertyOp34
 70
     1
102
RTVSPropertyOp35
 70
     1
102
RTVSPropertyOp36
 70
     1
102
RTVSPropertyOp37
 70
     1
102
RTVSPropertyOp38
 70
     1
102
RTVSPropertyOp39
 70
     1
102
RTVSPropertyOp40
 70
     1
102
RTVSPropertyOp41
 70
     1
102
RTVSPropertyOp42
 70
     1
102
RTVSPropertyOp43
 70
     1
102
RTVSPropertyOp44
 70
     1
102
RTVSPropertyOp45
 70
     1
102
RTVSPropertyOp46
 70
     1
102
RTVSPropertyOp47
 70
     1
102
RTVSPropertyOp48
 70
     1
102
RTVSPropertyOp49
 70
     1
102
RTVSPropertyOp50
 70
     1
102
RTVSPropertyOp51
 70
     0
102
RTVSPropertyOp52
 70
     0
102
RTVSPropertyOp53
 70
     1
102
RTVSPropertyOp54
 70
     1
102
RTVSPropertyOp55
 70
     1
102
RTVSPropertyOp56
 70
     1
102
RTVSPropertyOp57
 70
     1
102
RTVSPost2010Prop28
280
     1
102
RTVSPost2010PropOp28
 70
     1
102
RTVSPost2010Prop29
280
     1
102
RTVSPost2010PropOp29
 70
     1
102
RTVSPost2010Prop30
280
     0
102
RTVSPost2010PropOp30
 70
     1
102
RTVSPost2010Prop31
280
     0
102
RTVSPost2010PropOp31
 70
     1
102
RTVSPost2010Prop32
280
     0
102
RTVSPost2010PropOp32
 70
     1
102
RTVSPost2010Prop33
280
     0
102
RTVSPost2010PropOp33
 70
     1
102
RTVSPost2010Prop34
280
     0
102
RTVSPost2010PropOp34
 70
     1
102
RTVSPost2010Prop35
280
     0
102
RTVSPost2010PropOp35
 70
     1
102
RTVSPost2010Prop36
280
     0
102
RTVSPost2010PropOp36
 70
     1
102
RTVSPost2010Prop37
 90
       50
102
RTVSPost2010PropOp37
 70
     1
102
RTVSPost2010Prop38
140
0.0
102
RTVSPost2010PropOp38
 70
     1
102
RTVSPost2010Prop39
140
1.0
102
RTVSPost2010PropOp39
 70
     1
102
RTVSPost2010Prop40
 90
        0
102
RTVSPost2010PropOp40
 70
     1
102
RTVSPost2010Prop41ColorIndex
 90
       18
102
RTVSPost2010Prop41ColorRGB
 90
        0
102
RTVSPost2010PropOp41
 70
     1
102
RTVSPost2010Prop42
 90
       50
102
RTVSPost2010PropOp42
 70
     1
102
RTVSPost2010Prop43
 90
        3
102
RTVSPost2010PropOp43
 70
     1
102
RTVSPost2010Prop44ColorIndex
 90
        5
102
RTVSPost2010Prop44ColorRGB
 90
      255
102
RTVSPost2010PropOp44
 70
     1
102
RTVSPost2010Prop45
280
     0
102
RTVSPost2010PropOp45
 70
     1
102
RTVSPost2010Prop46
 90
       50
102
RTVSPost2010PropOp46
 70
     1
102
RTVSPost2010Prop47
 90
       50
102
RTVSPost2010PropOp47
 70
     1
102
RTVSPost2010Prop48
 90
       50
102
RTVSPost2010PropOp48
 70
     1
102
RTVSPost2010Prop49
280
     0
102
RTVSPost2010PropOp49
 70
     1
102
RTVSPost2010Prop50
 90
       50
102
RTVSPost2010PropOp50
 70
     1
102
RTVSPost2010Prop51ColorIndex
 90
      256
102
RTVSPost2010Prop51ColorRGB
 90
-16777216
102
RTVSPost2010PropOp51
 70
     0
102
RTVSPost2010Prop52
140
1.0
102
RTVSPost2010PropOp52
 70
     0
102
RTVSPost2010Prop53
 90
        2
102
RTVSPost2010PropOp53
 70
     1
102
RTVSPost2010Prop54
  1
strokes_ogs.tif
102
RTVSPost2010PropOp54
 70
     1
102
RTVSPost2010Prop55
280
     0
102
RTVSPost2010PropOp55
 70
     1
102
RTVSPost2010Prop56
140
1.0
102
RTVSPost2010PropOp56
 70
     1
102
RTVSPost2010Prop57
140
1.0
102
RTVSPost2010PropOp57
 70
     1
  0
XRECORD
  5
6B0
102
{ACAD_REACTORS
330
6AF
102
}
330
6AF
100
AcDbXrecord
280
     1
102
RTVSPropertyOp0
 70
     1
102
RTVSPropertyOp1
 70
     1
102
RTVSPropertyOp2
 70
     1
102
RTVSPropertyOp3
 70
     1
102
RTVSPropertyOp4
 70
     1
102
RTVSPropertyOp5
 70
     1
102
RTVSPropertyOp6
 70
     1
102
RTVSPropertyOp7
 70
     1
102
RTVSPropertyOp8
 70
     1
102
RTVSPropertyOp9
 70
     1
102
RTVSPropertyOp10
 70
     1
102
RTVSPropertyOp11
 70
     1
102
RTVSPropertyOp12
 70
     1
102
RTVSPropertyOp13
 70
     1
102
RTVSPropertyOp14
 70
     1
102
RTVSPropertyOp15
 70
     1
102
RTVSPropertyOp16
 70
     1
102
RTVSPropertyOp17
 70
     1
102
RTVSPropertyOp18
 70
     1
102
RTVSPropertyOp19
 70
     1
102
RTVSPropertyOp20
 70
     1
102
RTVSPropertyOp21
 70
     1
102
RTVSPropertyOp22
 70
     1
102
RTVSPropertyOp23
 70
     1
102
RTVSPropertyOp24
 70
     1
102
RTVSPropertyOp25
 70
     1
102
RTVSPropertyOp26
 70
     1
102
RTVSPropertyOp27
 70
     1
102
RTVSPropertyOp28
 70
     1
102
RTVSPropertyOp29
 70
     1
102
RTVSPropertyOp30
 70
     1
102
RTVSPropertyOp31
 70
     1
102
RTVSPropertyOp32
 70
     1
102
RTVSPropertyOp33
 70
     1
102
RTVSPropertyOp34
 70
     1
102
RTVSPropertyOp35
 70
     1
102
RTVSPropertyOp36
 70
     1
102
RTVSPropertyOp37
 70
     1
102
RTVSPropertyOp38
 70
     1
102
RTVSPropertyOp39
 70
     1
102
RTVSPropertyOp40
 70
     1
102
RTVSPropertyOp41
 70
     1
102
RTVSPropertyOp42
 70
     1
102
RTVSPropertyOp43
 70
     1
102
RTVSPropertyOp44
 70
     1
102
RTVSPropertyOp45
 70
     1
102
RTVSPropertyOp46
 70
     1
102
RTVSPropertyOp47
 70
     1
102
RTVSPropertyOp48
 70
     1
102
RTVSPropertyOp49
 70
     1
102
RTVSPropertyOp50
 70
     1
102
RTVSPropertyOp51
 70
     0
102
RTVSPropertyOp52
 70
     0
102
RTVSPropertyOp53
 70
     1
102
RTVSPropertyOp54
 70
     1
102
RTVSPropertyOp55
 70
     1
102
RTVSPropertyOp56
 70
     1
102
RTVSPropertyOp57
 70
     1
102
RTVSPost2010Prop28
280
     0
102
RTVSPost2010PropOp28
 70
     1
102
RTVSPost2010Prop29
280
     1
102
RTVSPost2010PropOp29
 70
     1
102
RTVSPost2010Prop30
280
     1
102
RTVSPost2010PropOp30
 70
     1
102
RTVSPost2010Prop31
280
     0
102
RTVSPost2010PropOp31
 70
     1
102
RTVSPost2010Prop32
280
     0
102
RTVSPost2010PropOp32
 70
     1
102
RTVSPost2010Prop33
280
     0
102
RTVSPost2010PropOp33
 70
     1
102
RTVSPost2010Prop34
280
     0
102
RTVSPost2010PropOp34
 70
     1
102
RTVSPost2010Prop35
280
     0
102
RTVSPost2010PropOp35
 70
     1
102
RTVSPost2010Prop36
280
     0
102
RTVSPost2010PropOp36
 70
     1
102
RTVSPost2010Prop37
 90
       50
102
RTVSPost2010PropOp37
 70
     1
102
RTVSPost2010Prop38
140
0.0
102
RTVSPost2010PropOp38
 70
     1
102
RTVSPost2010Prop39
140
1.0
102
RTVSPost2010PropOp39
 70
     1
102
RTVSPost2010Prop40
 90
        0
102
RTVSPost2010PropOp40
 70
     1
102
RTVSPost2010Prop41ColorIndex
 90
       18
102
RTVSPost2010Prop41ColorRGB
 90
        0
102
RTVSPost2010PropOp41
 70
     1
102
RTVSPost2010Prop42
 90
       50
102
RTVSPost2010PropOp42
 70
     1
102
RTVSPost2010Prop43
 90
        3
102
RTVSPost2010PropOp43
 70
     1
102
RTVSPost2010Prop44ColorIndex
 90
        5
102
RTVSPost2010Prop44ColorRGB
 90
      255
102
RTVSPost2010PropOp44
 70
     1
102
RTVSPost2010Prop45
280
     0
102
RTVSPost2010PropOp45
 70
     1
102
RTVSPost2010Prop46
 90
       50
102
RTVSPost2010PropOp46
 70
     1
102
RTVSPost2010Prop47
 90
       50
102
RTVSPost2010PropOp47
 70
     1
102
RTVSPost2010Prop48
 90
       50
102
RTVSPost2010PropOp48
 70
     1
102
RTVSPost2010Prop49
280
     0
102
RTVSPost2010PropOp49
 70
     1
102
RTVSPost2010Prop50
 90
       50
102
RTVSPost2010PropOp50
 70
     1
102
RTVSPost2010Prop51ColorIndex
 90
      256
102
RTVSPost2010Prop51ColorRGB
 90
-16777216
102
RTVSPost2010PropOp51
 70
     0
102
RTVSPost2010Prop52
140
1.0
102
RTVSPost2010PropOp52
 70
     0
102
RTVSPost2010Prop53
 90
        2
102
RTVSPost2010PropOp53
 70
     1
102
RTVSPost2010Prop54
  1
strokes_ogs.tif
102
RTVSPost2010PropOp54
 70
     1
102
RTVSPost2010Prop55
280
     0
102
RTVSPost2010PropOp55
 70
     1
102
RTVSPost2010Prop56
140
1.0
102
RTVSPost2010PropOp56
 70
     1
102
RTVSPost2010Prop57
140
1.0
102
RTVSPost2010PropOp57
 70
     1
  0
XRECORD
  5
6B6
102
{ACAD_REACTORS
330
6B5
102
}
330
6B5
100
AcDbXrecord
280
     1
102
RTVSPropertyOp0
 70
     1
102
RTVSPropertyOp1
 70
     1
102
RTVSPropertyOp2
 70
     1
102
RTVSPropertyOp3
 70
     1
102
RTVSPropertyOp4
 70
     1
102
RTVSPropertyOp5
 70
     1
102
RTVSPropertyOp6
 70
     1
102
RTVSPropertyOp7
 70
     1
102
RTVSPropertyOp8
 70
     1
102
RTVSPropertyOp9
 70
     1
102
RTVSPropertyOp10
 70
     1
102
RTVSPropertyOp11
 70
     1
102
RTVSPropertyOp12
 70
     1
102
RTVSPropertyOp13
 70
     1
102
RTVSPropertyOp14
 70
     1
102
RTVSPropertyOp15
 70
     1
102
RTVSPropertyOp16
 70
     1
102
RTVSPropertyOp17
 70
     1
102
RTVSPropertyOp18
 70
     1
102
RTVSPropertyOp19
 70
     1
102
RTVSPropertyOp20
 70
     1
102
RTVSPropertyOp21
 70
     1
102
RTVSPropertyOp22
 70
     1
102
RTVSPropertyOp23
 70
     1
102
RTVSPropertyOp24
 70
     1
102
RTVSPropertyOp25
 70
     1
102
RTVSPropertyOp26
 70
     1
102
RTVSPropertyOp27
 70
     1
102
RTVSPropertyOp28
 70
     1
102
RTVSPropertyOp29
 70
     1
102
RTVSPropertyOp30
 70
     1
102
RTVSPropertyOp31
 70
     1
102
RTVSPropertyOp32
 70
     1
102
RTVSPropertyOp33
 70
     1
102
RTVSPropertyOp34
 70
     1
102
RTVSPropertyOp35
 70
     1
102
RTVSPropertyOp36
 70
     1
102
RTVSPropertyOp37
 70
     1
102
RTVSPropertyOp38
 70
     1
102
RTVSPropertyOp39
 70
     1
102
RTVSPropertyOp40
 70
     1
102
RTVSPropertyOp41
 70
     1
102
RTVSPropertyOp42
 70
     1
102
RTVSPropertyOp43
 70
     1
102
RTVSPropertyOp44
 70
     1
102
RTVSPropertyOp45
 70
     1
102
RTVSPropertyOp46
 70
     1
102
RTVSPropertyOp47
 70
     1
102
RTVSPropertyOp48
 70
     1
102
RTVSPropertyOp49
 70
     1
102
RTVSPropertyOp50
 70
     1
102
RTVSPropertyOp51
 70
     0
102
RTVSPropertyOp52
 70
     0
102
RTVSPropertyOp53
 70
     1
102
RTVSPropertyOp54
 70
     1
102
RTVSPropertyOp55
 70
     1
102
RTVSPropertyOp56
 70
     1
102
RTVSPropertyOp57
 70
     1
102
RTVSPost2010Prop28
280
     0
102
RTVSPost2010PropOp28
 70
     1
102
RTVSPost2010Prop29
280
     1
102
RTVSPost2010PropOp29
 70
     1
102
RTVSPost2010Prop30
280
     1
102
RTVSPost2010PropOp30
 70
     1
102
RTVSPost2010Prop31
280
     0
102
RTVSPost2010PropOp31
 70
     1
102
RTVSPost2010Prop32
280
     0
102
RTVSPost2010PropOp32
 70
     1
102
RTVSPost2010Prop33
280
     0
102
RTVSPost2010PropOp33
 70
     1
102
RTVSPost2010Prop34
280
     0
102
RTVSPost2010PropOp34
 70
     1
102
RTVSPost2010Prop35
280
     0
102
RTVSPost2010PropOp35
 70
     1
102
RTVSPost2010Prop36
280
     0
102
RTVSPost2010PropOp36
 70
     1
102
RTVSPost2010Prop37
 90
       50
102
RTVSPost2010PropOp37
 70
     1
102
RTVSPost2010Prop38
140
0.0
102
RTVSPost2010PropOp38
 70
     1
102
RTVSPost2010Prop39
140
1.0
102
RTVSPost2010PropOp39
 70
     1
102
RTVSPost2010Prop40
 90
        0
102
RTVSPost2010PropOp40
 70
     1
102
RTVSPost2010Prop41ColorIndex
 90
       18
102
RTVSPost2010Prop41ColorRGB
 90
        0
102
RTVSPost2010PropOp41
 70
     1
102
RTVSPost2010Prop42
 90
       50
102
RTVSPost2010PropOp42
 70
     1
102
RTVSPost2010Prop43
 90
        3
102
RTVSPost2010PropOp43
 70
     1
102
RTVSPost2010Prop44ColorIndex
 90
        5
102
RTVSPost2010Prop44ColorRGB
 90
      255
102
RTVSPost2010PropOp44
 70
     1
102
RTVSPost2010Prop45
280
     0
102
RTVSPost2010PropOp45
 70
     1
102
RTVSPost2010Prop46
 90
       50
102
RTVSPost2010PropOp46
 70
     1
102
RTVSPost2010Prop47
 90
       50
102
RTVSPost2010PropOp47
 70
     1
102
RTVSPost2010Prop48
 90
       50
102
RTVSPost2010PropOp48
 70
     1
102
RTVSPost2010Prop49
280
     0
102
RTVSPost2010PropOp49
 70
     1
102
RTVSPost2010Prop50
 90
       50
102
RTVSPost2010PropOp50
 70
     1
102
RTVSPost2010Prop51ColorIndex
 90
      256
102
RTVSPost2010Prop51ColorRGB
 90
-16777216
102
RTVSPost2010PropOp51
 70
     0
102
RTVSPost2010Prop52
140
1.0
102
RTVSPost2010PropOp52
 70
     0
102
RTVSPost2010Prop53
 90
        2
102
RTVSPost2010PropOp53
 70
     1
102
RTVSPost2010Prop54
  1
strokes_ogs.tif
102
RTVSPost2010PropOp54
 70
     1
102
RTVSPost2010Prop55
280
     0
102
RTVSPost2010PropOp55
 70
     1
102
RTVSPost2010Prop56
140
1.0
102
RTVSPost2010PropOp56
 70
     1
102
RTVSPost2010Prop57
140
1.0
102
RTVSPost2010PropOp57
 70
     1
  0
XRECORD
  5
6BE
102
{ACAD_REACTORS
330
6BD
102
}
330
6BD
100
AcDbXrecord
280
     1
102
RTVSPropertyOp0
 70
     1
102
RTVSPropertyOp1
 70
     1
102
RTVSPropertyOp2
 70
     1
102
RTVSPropertyOp3
 70
     1
102
RTVSPropertyOp4
 70
     1
102
RTVSPropertyOp5
 70
     1
102
RTVSPropertyOp6
 70
     1
102
RTVSPropertyOp7
 70
     1
102
RTVSPropertyOp8
 70
     1
102
RTVSPropertyOp9
 70
     1
102
RTVSPropertyOp10
 70
     1
102
RTVSPropertyOp11
 70
     1
102
RTVSPropertyOp12
 70
     1
102
RTVSPropertyOp13
 70
     1
102
RTVSPropertyOp14
 70
     1
102
RTVSPropertyOp15
 70
     1
102
RTVSPropertyOp16
 70
     1
102
RTVSPropertyOp17
 70
     1
102
RTVSPropertyOp18
 70
     1
102
RTVSPropertyOp19
 70
     1
102
RTVSPropertyOp20
 70
     1
102
RTVSPropertyOp21
 70
     1
102
RTVSPropertyOp22
 70
     1
102
RTVSPropertyOp23
 70
     1
102
RTVSPropertyOp24
 70
     1
102
RTVSPropertyOp25
 70
     1
102
RTVSPropertyOp26
 70
     1
102
RTVSPropertyOp27
 70
     1
102
RTVSPropertyOp28
 70
     1
102
RTVSPropertyOp29
 70
     1
102
RTVSPropertyOp30
 70
     1
102
RTVSPropertyOp31
 70
     1
102
RTVSPropertyOp32
 70
     1
102
RTVSPropertyOp33
 70
     1
102
RTVSPropertyOp34
 70
     1
102
RTVSPropertyOp35
 70
     1
102
RTVSPropertyOp36
 70
     1
102
RTVSPropertyOp37
 70
     1
102
RTVSPropertyOp38
 70
     1
102
RTVSPropertyOp39
 70
     1
102
RTVSPropertyOp40
 70
     1
102
RTVSPropertyOp41
 70
     1
102
RTVSPropertyOp42
 70
     1
102
RTVSPropertyOp43
 70
     1
102
RTVSPropertyOp44
 70
     1
102
RTVSPropertyOp45
 70
     1
102
RTVSPropertyOp46
 70
     1
102
RTVSPropertyOp47
 70
     1
102
RTVSPropertyOp48
 70
     1
102
RTVSPropertyOp49
 70
     1
102
RTVSPropertyOp50
 70
     1
102
RTVSPropertyOp51
 70
     0
102
RTVSPropertyOp52
 70
     0
102
RTVSPropertyOp53
 70
     1
102
RTVSPropertyOp54
 70
     1
102
RTVSPropertyOp55
 70
     1
102
RTVSPropertyOp56
 70
     1
102
RTVSPropertyOp57
 70
     1
102
RTVSPost2010Prop28
280
     0
102
RTVSPost2010PropOp28
 70
     1
102
RTVSPost2010Prop29
280
     1
102
RTVSPost2010PropOp29
 70
     1
102
RTVSPost2010Prop30
280
     1
102
RTVSPost2010PropOp30
 70
     1
102
RTVSPost2010Prop31
280
     0
102
RTVSPost2010PropOp31
 70
     1
102
RTVSPost2010Prop32
280
     0
102
RTVSPost2010PropOp32
 70
     1
102
RTVSPost2010Prop33
280
     0
102
RTVSPost2010PropOp33
 70
     1
102
RTVSPost2010Prop34
280
     0
102
RTVSPost2010PropOp34
 70
     1
102
RTVSPost2010Prop35
280
     0
102
RTVSPost2010PropOp35
 70
     1
102
RTVSPost2010Prop36
280
     0
102
RTVSPost2010PropOp36
 70
     1
102
RTVSPost2010Prop37
 90
       50
102
RTVSPost2010PropOp37
 70
     1
102
RTVSPost2010Prop38
140
0.0
102
RTVSPost2010PropOp38
 70
     1
102
RTVSPost2010Prop39
140
1.0
102
RTVSPost2010PropOp39
 70
     1
102
RTVSPost2010Prop40
 90
        0
102
RTVSPost2010PropOp40
 70
     1
102
RTVSPost2010Prop41ColorIndex
 90
       18
102
RTVSPost2010Prop41ColorRGB
 90
        0
102
RTVSPost2010PropOp41
 70
     1
102
RTVSPost2010Prop42
 90
       50
102
RTVSPost2010PropOp42
 70
     1
102
RTVSPost2010Prop43
 90
        3
102
RTVSPost2010PropOp43
 70
     1
102
RTVSPost2010Prop44ColorIndex
 90
        5
102
RTVSPost2010Prop44ColorRGB
 90
      255
102
RTVSPost2010PropOp44
 70
     1
102
RTVSPost2010Prop45
280
     0
102
RTVSPost2010PropOp45
 70
     1
102
RTVSPost2010Prop46
 90
       50
102
RTVSPost2010PropOp46
 70
     1
102
RTVSPost2010Prop47
 90
       50
102
RTVSPost2010PropOp47
 70
     1
102
RTVSPost2010Prop48
 90
       50
102
RTVSPost2010PropOp48
 70
     1
102
RTVSPost2010Prop49
280
     0
102
RTVSPost2010PropOp49
 70
     1
102
RTVSPost2010Prop50
 90
       50
102
RTVSPost2010PropOp50
 70
     1
102
RTVSPost2010Prop51ColorIndex
 90
      256
102
RTVSPost2010Prop51ColorRGB
 90
-16777216
102
RTVSPost2010PropOp51
 70
     0
102
RTVSPost2010Prop52
140
1.0
102
RTVSPost2010PropOp52
 70
     0
102
RTVSPost2010Prop53
 90
        2
102
RTVSPost2010PropOp53
 70
     1
102
RTVSPost2010Prop54
  1
strokes_ogs.tif
102
RTVSPost2010PropOp54
 70
     1
102
RTVSPost2010Prop55
280
     0
102
RTVSPost2010PropOp55
 70
     1
102
RTVSPost2010Prop56
140
1.0
102
RTVSPost2010PropOp56
 70
     1
102
RTVSPost2010Prop57
140
1.0
102
RTVSPost2010PropOp57
 70
     1
  0
XRECORD
  5
6B2
102
{ACAD_REACTORS
330
6B1
102
}
330
6B1
100
AcDbXrecord
280
     1
102
RTVSPropertyOp0
 70
     1
102
RTVSPropertyOp1
 70
     1
102
RTVSPropertyOp2
 70
     1
102
RTVSPropertyOp3
 70
     1
102
RTVSPropertyOp4
 70
     1
102
RTVSPropertyOp5
 70
     1
102
RTVSPropertyOp6
 70
     1
102
RTVSPropertyOp7
 70
     1
102
RTVSPropertyOp8
 70
     1
102
RTVSPropertyOp9
 70
     1
102
RTVSPropertyOp10
 70
     1
102
RTVSPropertyOp11
 70
     1
102
RTVSPropertyOp12
 70
     1
102
RTVSPropertyOp13
 70
     1
102
RTVSPropertyOp14
 70
     1
102
RTVSPropertyOp15
 70
     1
102
RTVSPropertyOp16
 70
     1
102
RTVSPropertyOp17
 70
     1
102
RTVSPropertyOp18
 70
     1
102
RTVSPropertyOp19
 70
     1
102
RTVSPropertyOp20
 70
     1
102
RTVSPropertyOp21
 70
     1
102
RTVSPropertyOp22
 70
     1
102
RTVSPropertyOp23
 70
     1
102
RTVSPropertyOp24
 70
     1
102
RTVSPropertyOp25
 70
     1
102
RTVSPropertyOp26
 70
     1
102
RTVSPropertyOp27
 70
     1
102
RTVSPropertyOp28
 70
     1
102
RTVSPropertyOp29
 70
     1
102
RTVSPropertyOp30
 70
     1
102
RTVSPropertyOp31
 70
     1
102
RTVSPropertyOp32
 70
     1
102
RTVSPropertyOp33
 70
     1
102
RTVSPropertyOp34
 70
     1
102
RTVSPropertyOp35
 70
     1
102
RTVSPropertyOp36
 70
     1
102
RTVSPropertyOp37
 70
     1
102
RTVSPropertyOp38
 70
     1
102
RTVSPropertyOp39
 70
     1
102
RTVSPropertyOp40
 70
     1
102
RTVSPropertyOp41
 70
     1
102
RTVSPropertyOp42
 70
     1
102
RTVSPropertyOp43
 70
     1
102
RTVSPropertyOp44
 70
     1
102
RTVSPropertyOp45
 70
     1
102
RTVSPropertyOp46
 70
     1
102
RTVSPropertyOp47
 70
     1
102
RTVSPropertyOp48
 70
     1
102
RTVSPropertyOp49
 70
     1
102
RTVSPropertyOp50
 70
     1
102
RTVSPropertyOp51
 70
     0
102
RTVSPropertyOp52
 70
     0
102
RTVSPropertyOp53
 70
     1
102
RTVSPropertyOp54
 70
     1
102
RTVSPropertyOp55
 70
     1
102
RTVSPropertyOp56
 70
     1
102
RTVSPropertyOp57
 70
     1
102
RTVSPost2010Prop28
280
     0
102
RTVSPost2010PropOp28
 70
     1
102
RTVSPost2010Prop29
280
     1
102
RTVSPost2010PropOp29
 70
     1
102
RTVSPost2010Prop30
280
     1
102
RTVSPost2010PropOp30
 70
     1
102
RTVSPost2010Prop31
280
     0
102
RTVSPost2010PropOp31
 70
     1
102
RTVSPost2010Prop32
280
     0
102
RTVSPost2010PropOp32
 70
     1
102
RTVSPost2010Prop33
280
     0
102
RTVSPost2010PropOp33
 70
     1
102
RTVSPost2010Prop34
280
     0
102
RTVSPost2010PropOp34
 70
     1
102
RTVSPost2010Prop35
280
     0
102
RTVSPost2010PropOp35
 70
     1
102
RTVSPost2010Prop36
280
     0
102
RTVSPost2010PropOp36
 70
     1
102
RTVSPost2010Prop37
 90
       50
102
RTVSPost2010PropOp37
 70
     1
102
RTVSPost2010Prop38
140
0.0
102
RTVSPost2010PropOp38
 70
     1
102
RTVSPost2010Prop39
140
1.0
102
RTVSPost2010PropOp39
 70
     1
102
RTVSPost2010Prop40
 90
        0
102
RTVSPost2010PropOp40
 70
     1
102
RTVSPost2010Prop41ColorIndex
 90
       18
102
RTVSPost2010Prop41ColorRGB
 90
        0
102
RTVSPost2010PropOp41
 70
     1
102
RTVSPost2010Prop42
 90
       50
102
RTVSPost2010PropOp42
 70
     1
102
RTVSPost2010Prop43
 90
        3
102
RTVSPost2010PropOp43
 70
     1
102
RTVSPost2010Prop44ColorIndex
 90
        5
102
RTVSPost2010Prop44ColorRGB
 90
      255
102
RTVSPost2010PropOp44
 70
     1
102
RTVSPost2010Prop45
280
     0
102
RTVSPost2010PropOp45
 70
     1
102
RTVSPost2010Prop46
 90
       50
102
RTVSPost2010PropOp46
 70
     1
102
RTVSPost2010Prop47
 90
       50
102
RTVSPost2010PropOp47
 70
     1
102
RTVSPost2010Prop48
 90
       50
102
RTVSPost2010PropOp48
 70
     1
102
RTVSPost2010Prop49
280
     0
102
RTVSPost2010PropOp49
 70
     1
102
RTVSPost2010Prop50
 90
       50
102
RTVSPost2010PropOp50
 70
     1
102
RTVSPost2010Prop51ColorIndex
 90
      256
102
RTVSPost2010Prop51ColorRGB
 90
-16777216
102
RTVSPost2010PropOp51
 70
     0
102
RTVSPost2010Prop52
140
1.0
102
RTVSPost2010PropOp52
 70
     0
102
RTVSPost2010Prop53
 90
        2
102
RTVSPost2010PropOp53
 70
     1
102
RTVSPost2010Prop54
  1
strokes_ogs.tif
102
RTVSPost2010PropOp54
 70
     1
102
RTVSPost2010Prop55
280
     0
102
RTVSPost2010PropOp55
 70
     1
102
RTVSPost2010Prop56
140
1.0
102
RTVSPost2010PropOp56
 70
     1
102
RTVSPost2010Prop57
140
1.0
102
RTVSPost2010PropOp57
 70
     1
  0
XRECORD
  5
6B4
102
{ACAD_REACTORS
330
6B3
102
}
330
6B3
100
AcDbXrecord
280
     1
102
RTVSPropertyOp0
 70
     1
102
RTVSPropertyOp1
 70
     1
102
RTVSPropertyOp2
 70
     1
102
RTVSPropertyOp3
 70
     1
102
RTVSPropertyOp4
 70
     1
102
RTVSPropertyOp5
 70
     1
102
RTVSPropertyOp6
 70
     1
102
RTVSPropertyOp7
 70
     1
102
RTVSPropertyOp8
 70
     1
102
RTVSPropertyOp9
 70
     1
102
RTVSPropertyOp10
 70
     1
102
RTVSPropertyOp11
 70
     1
102
RTVSPropertyOp12
 70
     1
102
RTVSPropertyOp13
 70
     1
102
RTVSPropertyOp14
 70
     1
102
RTVSPropertyOp15
 70
     1
102
RTVSPropertyOp16
 70
     1
102
RTVSPropertyOp17
 70
     1
102
RTVSPropertyOp18
 70
     1
102
RTVSPropertyOp19
 70
     1
102
RTVSPropertyOp20
 70
     1
102
RTVSPropertyOp21
 70
     1
102
RTVSPropertyOp22
 70
     1
102
RTVSPropertyOp23
 70
     1
102
RTVSPropertyOp24
 70
     1
102
RTVSPropertyOp25
 70
     1
102
RTVSPropertyOp26
 70
     1
102
RTVSPropertyOp27
 70
     1
102
RTVSPropertyOp28
 70
     1
102
RTVSPropertyOp29
 70
     1
102
RTVSPropertyOp30
 70
     1
102
RTVSPropertyOp31
 70
     1
102
RTVSPropertyOp32
 70
     1
102
RTVSPropertyOp33
 70
     1
102
RTVSPropertyOp34
 70
     1
102
RTVSPropertyOp35
 70
     1
102
RTVSPropertyOp36
 70
     1
102
RTVSPropertyOp37
 70
     1
102
RTVSPropertyOp38
 70
     1
102
RTVSPropertyOp39
 70
     1
102
RTVSPropertyOp40
 70
     1
102
RTVSPropertyOp41
 70
     1
102
RTVSPropertyOp42
 70
     1
102
RTVSPropertyOp43
 70
     1
102
RTVSPropertyOp44
 70
     1
102
RTVSPropertyOp45
 70
     1
102
RTVSPropertyOp46
 70
     1
102
RTVSPropertyOp47
 70
     1
102
RTVSPropertyOp48
 70
     1
102
RTVSPropertyOp49
 70
     1
102
RTVSPropertyOp50
 70
     1
102
RTVSPropertyOp51
 70
     0
102
RTVSPropertyOp52
 70
     0
102
RTVSPropertyOp53
 70
     1
102
RTVSPropertyOp54
 70
     1
102
RTVSPropertyOp55
 70
     1
102
RTVSPropertyOp56
 70
     1
102
RTVSPropertyOp57
 70
     1
102
RTVSPost2010Prop28
280
     0
102
RTVSPost2010PropOp28
 70
     1
102
RTVSPost2010Prop29
280
     1
102
RTVSPost2010PropOp29
 70
     1
102
RTVSPost2010Prop30
280
     1
102
RTVSPost2010PropOp30
 70
     1
102
RTVSPost2010Prop31
280
     0
102
RTVSPost2010PropOp31
 70
     1
102
RTVSPost2010Prop32
280
     0
102
RTVSPost2010PropOp32
 70
     1
102
RTVSPost2010Prop33
280
     0
102
RTVSPost2010PropOp33
 70
     1
102
RTVSPost2010Prop34
280
     0
102
RTVSPost2010PropOp34
 70
     1
102
RTVSPost2010Prop35
280
     0
102
RTVSPost2010PropOp35
 70
     1
102
RTVSPost2010Prop36
280
     0
102
RTVSPost2010PropOp36
 70
     1
102
RTVSPost2010Prop37
 90
       50
102
RTVSPost2010PropOp37
 70
     1
102
RTVSPost2010Prop38
140
0.0
102
RTVSPost2010PropOp38
 70
     1
102
RTVSPost2010Prop39
140
1.0
102
RTVSPost2010PropOp39
 70
     1
102
RTVSPost2010Prop40
 90
        0
102
RTVSPost2010PropOp40
 70
     1
102
RTVSPost2010Prop41ColorIndex
 90
       18
102
RTVSPost2010Prop41ColorRGB
 90
        0
102
RTVSPost2010PropOp41
 70
     1
102
RTVSPost2010Prop42
 90
       50
102
RTVSPost2010PropOp42
 70
     1
102
RTVSPost2010Prop43
 90
        3
102
RTVSPost2010PropOp43
 70
     1
102
RTVSPost2010Prop44ColorIndex
 90
        5
102
RTVSPost2010Prop44ColorRGB
 90
      255
102
RTVSPost2010PropOp44
 70
     1
102
RTVSPost2010Prop45
280
     0
102
RTVSPost2010PropOp45
 70
     1
102
RTVSPost2010Prop46
 90
       50
102
RTVSPost2010PropOp46
 70
     1
102
RTVSPost2010Prop47
 90
       50
102
RTVSPost2010PropOp47
 70
     1
102
RTVSPost2010Prop48
 90
       50
102
RTVSPost2010PropOp48
 70
     1
102
RTVSPost2010Prop49
280
     0
102
RTVSPost2010PropOp49
 70
     1
102
RTVSPost2010Prop50
 90
       50
102
RTVSPost2010PropOp50
 70
     1
102
RTVSPost2010Prop51ColorIndex
 90
      256
102
RTVSPost2010Prop51ColorRGB
 90
-16777216
102
RTVSPost2010PropOp51
 70
     0
102
RTVSPost2010Prop52
140
1.0
102
RTVSPost2010PropOp52
 70
     0
102
RTVSPost2010Prop53
 90
        2
102
RTVSPost2010PropOp53
 70
     1
102
RTVSPost2010Prop54
  1
strokes_ogs.tif
102
RTVSPost2010PropOp54
 70
     1
102
RTVSPost2010Prop55
280
     0
102
RTVSPost2010PropOp55
 70
     1
102
RTVSPost2010Prop56
140
1.0
102
RTVSPost2010PropOp56
 70
     1
102
RTVSPost2010Prop57
140
1.0
102
RTVSPost2010PropOp57
 70
     1
  0
XRECORD
  5
6C4
102
{ACAD_REACTORS
330
6C3
102
}
330
6C3
100
AcDbXrecord
280
     1
102
RTVSPropertyOp0
 70
     0
102
RTVSPropertyOp1
 70
     0
102
RTVSPropertyOp2
 70
     0
102
RTVSPropertyOp3
 70
     0
102
RTVSPropertyOp4
 70
     0
102
RTVSPropertyOp5
 70
     0
102
RTVSPropertyOp6
 70
     0
102
RTVSPropertyOp7
 70
     0
102
RTVSPropertyOp8
 70
     0
102
RTVSPropertyOp9
 70
     0
102
RTVSPropertyOp10
 70
     0
102
RTVSPropertyOp11
 70
     0
102
RTVSPropertyOp12
 70
     0
102
RTVSPropertyOp13
 70
     0
102
RTVSPropertyOp14
 70
     0
102
RTVSPropertyOp15
 70
     0
102
RTVSPropertyOp16
 70
     0
102
RTVSPropertyOp17
 70
     0
102
RTVSPropertyOp18
 70
     0
102
RTVSPropertyOp19
 70
     0
102
RTVSPropertyOp20
 70
     0
102
RTVSPropertyOp21
 70
     0
102
RTVSPropertyOp22
 70
     0
102
RTVSPropertyOp23
 70
     0
102
RTVSPropertyOp24
 70
     0
102
RTVSPropertyOp25
 70
     0
102
RTVSPropertyOp26
 70
     0
102
RTVSPropertyOp27
 70
     0
102
RTVSPropertyOp28
 70
     1
102
RTVSPropertyOp29
 70
     1
102
RTVSPropertyOp30
 70
     1
102
RTVSPropertyOp31
 70
     1
102
RTVSPropertyOp32
 70
     1
102
RTVSPropertyOp33
 70
     1
102
RTVSPropertyOp34
 70
     1
102
RTVSPropertyOp35
 70
     1
102
RTVSPropertyOp36
 70
     1
102
RTVSPropertyOp37
 70
     1
102
RTVSPropertyOp38
 70
     1
102
RTVSPropertyOp39
 70
     1
102
RTVSPropertyOp40
 70
     1
102
RTVSPropertyOp41
 70
     1
102
RTVSPropertyOp42
 70
     1
102
RTVSPropertyOp43
 70
     1
102
RTVSPropertyOp44
 70
     1
102
RTVSPropertyOp45
 70
     1
102
RTVSPropertyOp46
 70
     1
102
RTVSPropertyOp47
 70
     1
102
RTVSPropertyOp48
 70
     1
102
RTVSPropertyOp49
 70
     1
102
RTVSPropertyOp50
 70
     1
102
RTVSPropertyOp51
 70
     0
102
RTVSPropertyOp52
 70
     0
102
RTVSPropertyOp53
 70
     1
102
RTVSPropertyOp54
 70
     1
102
RTVSPropertyOp55
 70
     1
102
RTVSPropertyOp56
 70
     1
102
RTVSPropertyOp57
 70
     1
102
RTVSPost2010Prop28
280
     0
102
RTVSPost2010PropOp28
 70
     1
102
RTVSPost2010Prop29
280
     1
102
RTVSPost2010PropOp29
 70
     1
102
RTVSPost2010Prop30
280
     1
102
RTVSPost2010PropOp30
 70
     1
102
RTVSPost2010Prop31
280
     0
102
RTVSPost2010PropOp31
 70
     1
102
RTVSPost2010Prop32
280
     0
102
RTVSPost2010PropOp32
 70
     1
102
RTVSPost2010Prop33
280
     0
102
RTVSPost2010PropOp33
 70
     1
102
RTVSPost2010Prop34
280
     0
102
RTVSPost2010PropOp34
 70
     1
102
RTVSPost2010Prop35
280
     0
102
RTVSPost2010PropOp35
 70
     1
102
RTVSPost2010Prop36
280
     0
102
RTVSPost2010PropOp36
 70
     1
102
RTVSPost2010Prop37
 90
       50
102
RTVSPost2010PropOp37
 70
     1
102
RTVSPost2010Prop38
140
0.0
102
RTVSPost2010PropOp38
 70
     1
102
RTVSPost2010Prop39
140
1.0
102
RTVSPost2010PropOp39
 70
     1
102
RTVSPost2010Prop40
 90
        0
102
RTVSPost2010PropOp40
 70
     1
102
RTVSPost2010Prop41ColorIndex
 90
       18
102
RTVSPost2010Prop41ColorRGB
 90
        0
102
RTVSPost2010PropOp41
 70
     1
102
RTVSPost2010Prop42
 90
       50
102
RTVSPost2010PropOp42
 70
     1
102
RTVSPost2010Prop43
 90
        3
102
RTVSPost2010PropOp43
 70
     1
102
RTVSPost2010Prop44ColorIndex
 90
        5
102
RTVSPost2010Prop44ColorRGB
 90
      255
102
RTVSPost2010PropOp44
 70
     1
102
RTVSPost2010Prop45
280
     0
102
RTVSPost2010PropOp45
 70
     1
102
RTVSPost2010Prop46
 90
       50
102
RTVSPost2010PropOp46
 70
     1
102
RTVSPost2010Prop47
 90
       50
102
RTVSPost2010PropOp47
 70
     1
102
RTVSPost2010Prop48
 90
       50
102
RTVSPost2010PropOp48
 70
     1
102
RTVSPost2010Prop49
280
     0
102
RTVSPost2010PropOp49
 70
     1
102
RTVSPost2010Prop50
 90
       50
102
RTVSPost2010PropOp50
 70
     1
102
RTVSPost2010Prop51ColorIndex
 90
      256
102
RTVSPost2010Prop51ColorRGB
 90
-16777216
102
RTVSPost2010PropOp51
 70
     0
102
RTVSPost2010Prop52
140
1.0
102
RTVSPost2010PropOp52
 70
     0
102
RTVSPost2010Prop53
 90
        2
102
RTVSPost2010PropOp53
 70
     1
102
RTVSPost2010Prop54
  1
strokes_ogs.tif
102
RTVSPost2010PropOp54
 70
     1
102
RTVSPost2010Prop55
280
     0
102
RTVSPost2010PropOp55
 70
     1
102
RTVSPost2010Prop56
140
1.0
102
RTVSPost2010PropOp56
 70
     1
102
RTVSPost2010Prop57
140
1.0
102
RTVSPost2010PropOp57
 70
     1
  0
XRECORD
  5
6BC
102
{ACAD_REACTORS
330
6BB
102
}
330
6BB
100
AcDbXrecord
280
     1
102
RTVSPropertyOp0
 70
     1
102
RTVSPropertyOp1
 70
     1
102
RTVSPropertyOp2
 70
     1
102
RTVSPropertyOp3
 70
     1
102
RTVSPropertyOp4
 70
     1
102
RTVSPropertyOp5
 70
     1
102
RTVSPropertyOp6
 70
     1
102
RTVSPropertyOp7
 70
     1
102
RTVSPropertyOp8
 70
     1
102
RTVSPropertyOp9
 70
     1
102
RTVSPropertyOp10
 70
     1
102
RTVSPropertyOp11
 70
     1
102
RTVSPropertyOp12
 70
     1
102
RTVSPropertyOp13
 70
     1
102
RTVSPropertyOp14
 70
     1
102
RTVSPropertyOp15
 70
     1
102
RTVSPropertyOp16
 70
     1
102
RTVSPropertyOp17
 70
     1
102
RTVSPropertyOp18
 70
     1
102
RTVSPropertyOp19
 70
     1
102
RTVSPropertyOp20
 70
     1
102
RTVSPropertyOp21
 70
     1
102
RTVSPropertyOp22
 70
     1
102
RTVSPropertyOp23
 70
     1
102
RTVSPropertyOp24
 70
     1
102
RTVSPropertyOp25
 70
     1
102
RTVSPropertyOp26
 70
     1
102
RTVSPropertyOp27
 70
     1
102
RTVSPropertyOp28
 70
     1
102
RTVSPropertyOp29
 70
     1
102
RTVSPropertyOp30
 70
     1
102
RTVSPropertyOp31
 70
     1
102
RTVSPropertyOp32
 70
     1
102
RTVSPropertyOp33
 70
     1
102
RTVSPropertyOp34
 70
     1
102
RTVSPropertyOp35
 70
     1
102
RTVSPropertyOp36
 70
     1
102
RTVSPropertyOp37
 70
     1
102
RTVSPropertyOp38
 70
     1
102
RTVSPropertyOp39
 70
     1
102
RTVSPropertyOp40
 70
     1
102
RTVSPropertyOp41
 70
     1
102
RTVSPropertyOp42
 70
     1
102
RTVSPropertyOp43
 70
     1
102
RTVSPropertyOp44
 70
     1
102
RTVSPropertyOp45
 70
     1
102
RTVSPropertyOp46
 70
     1
102
RTVSPropertyOp47
 70
     1
102
RTVSPropertyOp48
 70
     1
102
RTVSPropertyOp49
 70
     1
102
RTVSPropertyOp50
 70
     1
102
RTVSPropertyOp51
 70
     0
102
RTVSPropertyOp52
 70
     0
102
RTVSPropertyOp53
 70
     1
102
RTVSPropertyOp54
 70
     1
102
RTVSPropertyOp55
 70
     1
102
RTVSPropertyOp56
 70
     1
102
RTVSPropertyOp57
 70
     1
102
RTVSPost2010Prop28
280
     0
102
RTVSPost2010PropOp28
 70
     1
102
RTVSPost2010Prop29
280
     1
102
RTVSPost2010PropOp29
 70
     1
102
RTVSPost2010Prop30
280
     1
102
RTVSPost2010PropOp30
 70
     1
102
RTVSPost2010Prop31
280
     0
102
RTVSPost2010PropOp31
 70
     1
102
RTVSPost2010Prop32
280
     0
102
RTVSPost2010PropOp32
 70
     1
102
RTVSPost2010Prop33
280
     0
102
RTVSPost2010PropOp33
 70
     1
102
RTVSPost2010Prop34
280
     0
102
RTVSPost2010PropOp34
 70
     1
102
RTVSPost2010Prop35
280
     0
102
RTVSPost2010PropOp35
 70
     1
102
RTVSPost2010Prop36
280
     0
102
RTVSPost2010PropOp36
 70
     1
102
RTVSPost2010Prop37
 90
       50
102
RTVSPost2010PropOp37
 70
     1
102
RTVSPost2010Prop38
140
0.0
102
RTVSPost2010PropOp38
 70
     1
102
RTVSPost2010Prop39
140
1.0
102
RTVSPost2010PropOp39
 70
     1
102
RTVSPost2010Prop40
 90
        0
102
RTVSPost2010PropOp40
 70
     1
102
RTVSPost2010Prop41ColorIndex
 90
       18
102
RTVSPost2010Prop41ColorRGB
 90
        0
102
RTVSPost2010PropOp41
 70
     1
102
RTVSPost2010Prop42
 90
       50
102
RTVSPost2010PropOp42
 70
     1
102
RTVSPost2010Prop43
 90
        3
102
RTVSPost2010PropOp43
 70
     1
102
RTVSPost2010Prop44ColorIndex
 90
        5
102
RTVSPost2010Prop44ColorRGB
 90
      255
102
RTVSPost2010PropOp44
 70
     1
102
RTVSPost2010Prop45
280
     0
102
RTVSPost2010PropOp45
 70
     1
102
RTVSPost2010Prop46
 90
       50
102
RTVSPost2010PropOp46
 70
     1
102
RTVSPost2010Prop47
 90
       50
102
RTVSPost2010PropOp47
 70
     1
102
RTVSPost2010Prop48
 90
       50
102
RTVSPost2010PropOp48
 70
     1
102
RTVSPost2010Prop49
280
     0
102
RTVSPost2010PropOp49
 70
     1
102
RTVSPost2010Prop50
 90
       50
102
RTVSPost2010PropOp50
 70
     1
102
RTVSPost2010Prop51ColorIndex
 90
      256
102
RTVSPost2010Prop51ColorRGB
 90
-16777216
102
RTVSPost2010PropOp51
 70
     0
102
RTVSPost2010Prop52
140
1.0
102
RTVSPost2010PropOp52
 70
     0
102
RTVSPost2010Prop53
 90
        2
102
RTVSPost2010PropOp53
 70
     1
102
RTVSPost2010Prop54
  1
strokes_ogs.tif
102
RTVSPost2010PropOp54
 70
     1
102
RTVSPost2010Prop55
280
     0
102
RTVSPost2010PropOp55
 70
     1
102
RTVSPost2010Prop56
140
1.0
102
RTVSPost2010PropOp56
 70
     1
102
RTVSPost2010Prop57
140
1.0
102
RTVSPost2010PropOp57
 70
     1
  0
XRECORD
  5
6A4
102
{ACAD_REACTORS
330
6A3
102
}
330
6A3
100
AcDbXrecord
280
     1
102
RTVSPropertyOp0
 70
     1
102
RTVSPropertyOp1
 70
     1
102
RTVSPropertyOp2
 70
     1
102
RTVSPropertyOp3
 70
     1
102
RTVSPropertyOp4
 70
     1
102
RTVSPropertyOp5
 70
     1
102
RTVSPropertyOp6
 70
     1
102
RTVSPropertyOp7
 70
     1
102
RTVSPropertyOp8
 70
     1
102
RTVSPropertyOp9
 70
     1
102
RTVSPropertyOp10
 70
     1
102
RTVSPropertyOp11
 70
     1
102
RTVSPropertyOp12
 70
     1
102
RTVSPropertyOp13
 70
     1
102
RTVSPropertyOp14
 70
     1
102
RTVSPropertyOp15
 70
     1
102
RTVSPropertyOp16
 70
     1
102
RTVSPropertyOp17
 70
     1
102
RTVSPropertyOp18
 70
     1
102
RTVSPropertyOp19
 70
     1
102
RTVSPropertyOp20
 70
     1
102
RTVSPropertyOp21
 70
     1
102
RTVSPropertyOp22
 70
     1
102
RTVSPropertyOp23
 70
     1
102
RTVSPropertyOp24
 70
     1
102
RTVSPropertyOp25
 70
     1
102
RTVSPropertyOp26
 70
     1
102
RTVSPropertyOp27
 70
     1
102
RTVSPropertyOp28
 70
     1
102
RTVSPropertyOp29
 70
     1
102
RTVSPropertyOp30
 70
     1
102
RTVSPropertyOp31
 70
     1
102
RTVSPropertyOp32
 70
     1
102
RTVSPropertyOp33
 70
     1
102
RTVSPropertyOp34
 70
     1
102
RTVSPropertyOp35
 70
     1
102
RTVSPropertyOp36
 70
     1
102
RTVSPropertyOp37
 70
     1
102
RTVSPropertyOp38
 70
     1
102
RTVSPropertyOp39
 70
     1
102
RTVSPropertyOp40
 70
     1
102
RTVSPropertyOp41
 70
     1
102
RTVSPropertyOp42
 70
     1
102
RTVSPropertyOp43
 70
     1
102
RTVSPropertyOp44
 70
     1
102
RTVSPropertyOp45
 70
     1
102
RTVSPropertyOp46
 70
     1
102
RTVSPropertyOp47
 70
     1
102
RTVSPropertyOp48
 70
     1
102
RTVSPropertyOp49
 70
     1
102
RTVSPropertyOp50
 70
     1
102
RTVSPropertyOp51
 70
     0
102
RTVSPropertyOp52
 70
     0
102
RTVSPropertyOp53
 70
     1
102
RTVSPropertyOp54
 70
     1
102
RTVSPropertyOp55
 70
     1
102
RTVSPropertyOp56
 70
     1
102
RTVSPropertyOp57
 70
     1
102
RTVSPost2010Prop28
280
     0
102
RTVSPost2010PropOp28
 70
     1
102
RTVSPost2010Prop29
280
     1
102
RTVSPost2010PropOp29
 70
     1
102
RTVSPost2010Prop30
280
     1
102
RTVSPost2010PropOp30
 70
     1
102
RTVSPost2010Prop31
280
     0
102
RTVSPost2010PropOp31
 70
     1
102
RTVSPost2010Prop32
280
     0
102
RTVSPost2010PropOp32
 70
     1
102
RTVSPost2010Prop33
280
     0
102
RTVSPost2010PropOp33
 70
     1
102
RTVSPost2010Prop34
280
     0
102
RTVSPost2010PropOp34
 70
     1
102
RTVSPost2010Prop35
280
     0
102
RTVSPost2010PropOp35
 70
     1
102
RTVSPost2010Prop36
280
     0
102
RTVSPost2010PropOp36
 70
     1
102
RTVSPost2010Prop37
 90
       50
102
RTVSPost2010PropOp37
 70
     1
102
RTVSPost2010Prop38
140
0.0
102
RTVSPost2010PropOp38
 70
     1
102
RTVSPost2010Prop39
140
1.0
102
RTVSPost2010PropOp39
 70
     1
102
RTVSPost2010Prop40
 90
        0
102
RTVSPost2010PropOp40
 70
     1
102
RTVSPost2010Prop41ColorIndex
 90
       18
102
RTVSPost2010Prop41ColorRGB
 90
        0
102
RTVSPost2010PropOp41
 70
     1
102
RTVSPost2010Prop42
 90
       50
102
RTVSPost2010PropOp42
 70
     1
102
RTVSPost2010Prop43
 90
        3
102
RTVSPost2010PropOp43
 70
     1
102
RTVSPost2010Prop44ColorIndex
 90
        5
102
RTVSPost2010Prop44ColorRGB
 90
      255
102
RTVSPost2010PropOp44
 70
     1
102
RTVSPost2010Prop45
280
     0
102
RTVSPost2010PropOp45
 70
     1
102
RTVSPost2010Prop46
 90
       50
102
RTVSPost2010PropOp46
 70
     1
102
RTVSPost2010Prop47
 90
       50
102
RTVSPost2010PropOp47
 70
     1
102
RTVSPost2010Prop48
 90
       50
102
RTVSPost2010PropOp48
 70
     1
102
RTVSPost2010Prop49
280
     0
102
RTVSPost2010PropOp49
 70
     1
102
RTVSPost2010Prop50
 90
       50
102
RTVSPost2010PropOp50
 70
     1
102
RTVSPost2010Prop51ColorIndex
 90
      256
102
RTVSPost2010Prop51ColorRGB
 90
-16777216
102
RTVSPost2010PropOp51
 70
     0
102
RTVSPost2010Prop52
140
1.0
102
RTVSPost2010PropOp52
 70
     0
102
RTVSPost2010Prop53
 90
        2
102
RTVSPost2010PropOp53
 70
     1
102
RTVSPost2010Prop54
  1
strokes_ogs.tif
102
RTVSPost2010PropOp54
 70
     1
102
RTVSPost2010Prop55
280
     0
102
RTVSPost2010PropOp55
 70
     1
102
RTVSPost2010Prop56
140
1.0
102
RTVSPost2010PropOp56
 70
     1
102
RTVSPost2010Prop57
140
1.0
102
RTVSPost2010PropOp57
 70
     1
  0
XRECORD
  5
6A6
102
{ACAD_REACTORS
330
6A5
102
}
330
6A5
100
AcDbXrecord
280
     1
102
RTVSPropertyOp0
 70
     1
102
RTVSPropertyOp1
 70
     1
102
RTVSPropertyOp2
 70
     1
102
RTVSPropertyOp3
 70
     1
102
RTVSPropertyOp4
 70
     1
102
RTVSPropertyOp5
 70
     1
102
RTVSPropertyOp6
 70
     1
102
RTVSPropertyOp7
 70
     1
102
RTVSPropertyOp8
 70
     1
102
RTVSPropertyOp9
 70
     1
102
RTVSPropertyOp10
 70
     1
102
RTVSPropertyOp11
 70
     1
102
RTVSPropertyOp12
 70
     1
102
RTVSPropertyOp13
 70
     1
102
RTVSPropertyOp14
 70
     1
102
RTVSPropertyOp15
 70
     1
102
RTVSPropertyOp16
 70
     1
102
RTVSPropertyOp17
 70
     1
102
RTVSPropertyOp18
 70
     1
102
RTVSPropertyOp19
 70
     1
102
RTVSPropertyOp20
 70
     1
102
RTVSPropertyOp21
 70
     1
102
RTVSPropertyOp22
 70
     1
102
RTVSPropertyOp23
 70
     1
102
RTVSPropertyOp24
 70
     1
102
RTVSPropertyOp25
 70
     1
102
RTVSPropertyOp26
 70
     1
102
RTVSPropertyOp27
 70
     1
102
RTVSPropertyOp28
 70
     1
102
RTVSPropertyOp29
 70
     1
102
RTVSPropertyOp30
 70
     1
102
RTVSPropertyOp31
 70
     1
102
RTVSPropertyOp32
 70
     1
102
RTVSPropertyOp33
 70
     1
102
RTVSPropertyOp34
 70
     1
102
RTVSPropertyOp35
 70
     1
102
RTVSPropertyOp36
 70
     1
102
RTVSPropertyOp37
 70
     1
102
RTVSPropertyOp38
 70
     1
102
RTVSPropertyOp39
 70
     1
102
RTVSPropertyOp40
 70
     1
102
RTVSPropertyOp41
 70
     1
102
RTVSPropertyOp42
 70
     1
102
RTVSPropertyOp43
 70
     1
102
RTVSPropertyOp44
 70
     1
102
RTVSPropertyOp45
 70
     1
102
RTVSPropertyOp46
 70
     1
102
RTVSPropertyOp47
 70
     1
102
RTVSPropertyOp48
 70
     1
102
RTVSPropertyOp49
 70
     1
102
RTVSPropertyOp50
 70
     1
102
RTVSPropertyOp51
 70
     0
102
RTVSPropertyOp52
 70
     0
102
RTVSPropertyOp53
 70
     1
102
RTVSPropertyOp54
 70
     1
102
RTVSPropertyOp55
 70
     1
102
RTVSPropertyOp56
 70
     1
102
RTVSPropertyOp57
 70
     1
102
RTVSPost2010Prop28
280
     0
102
RTVSPost2010PropOp28
 70
     1
102
RTVSPost2010Prop29
280
     1
102
RTVSPost2010PropOp29
 70
     1
102
RTVSPost2010Prop30
280
     1
102
RTVSPost2010PropOp30
 70
     1
102
RTVSPost2010Prop31
280
     0
102
RTVSPost2010PropOp31
 70
     1
102
RTVSPost2010Prop32
280
     0
102
RTVSPost2010PropOp32
 70
     1
102
RTVSPost2010Prop33
280
     0
102
RTVSPost2010PropOp33
 70
     1
102
RTVSPost2010Prop34
280
     0
102
RTVSPost2010PropOp34
 70
     1
102
RTVSPost2010Prop35
280
     0
102
RTVSPost2010PropOp35
 70
     1
102
RTVSPost2010Prop36
280
     0
102
RTVSPost2010PropOp36
 70
     1
102
RTVSPost2010Prop37
 90
       50
102
RTVSPost2010PropOp37
 70
     1
102
RTVSPost2010Prop38
140
0.0
102
RTVSPost2010PropOp38
 70
     1
102
RTVSPost2010Prop39
140
1.0
102
RTVSPost2010PropOp39
 70
     1
102
RTVSPost2010Prop40
 90
        0
102
RTVSPost2010PropOp40
 70
     1
102
RTVSPost2010Prop41ColorIndex
 90
       18
102
RTVSPost2010Prop41ColorRGB
 90
        0
102
RTVSPost2010PropOp41
 70
     1
102
RTVSPost2010Prop42
 90
       50
102
RTVSPost2010PropOp42
 70
     1
102
RTVSPost2010Prop43
 90
        3
102
RTVSPost2010PropOp43
 70
     1
102
RTVSPost2010Prop44ColorIndex
 90
        5
102
RTVSPost2010Prop44ColorRGB
 90
      255
102
RTVSPost2010PropOp44
 70
     1
102
RTVSPost2010Prop45
280
     0
102
RTVSPost2010PropOp45
 70
     1
102
RTVSPost2010Prop46
 90
       50
102
RTVSPost2010PropOp46
 70
     1
102
RTVSPost2010Prop47
 90
       50
102
RTVSPost2010PropOp47
 70
     1
102
RTVSPost2010Prop48
 90
       50
102
RTVSPost2010PropOp48
 70
     1
102
RTVSPost2010Prop49
280
     0
102
RTVSPost2010PropOp49
 70
     1
102
RTVSPost2010Prop50
 90
       50
102
RTVSPost2010PropOp50
 70
     1
102
RTVSPost2010Prop51ColorIndex
 90
      256
102
RTVSPost2010Prop51ColorRGB
 90
-16777216
102
RTVSPost2010PropOp51
 70
     0
102
RTVSPost2010Prop52
140
1.0
102
RTVSPost2010PropOp52
 70
     0
102
RTVSPost2010Prop53
 90
        2
102
RTVSPost2010PropOp53
 70
     1
102
RTVSPost2010Prop54
  1
strokes_ogs.tif
102
RTVSPost2010PropOp54
 70
     1
102
RTVSPost2010Prop55
280
     0
102
RTVSPost2010PropOp55
 70
     1
102
RTVSPost2010Prop56
140
1.0
102
RTVSPost2010PropOp56
 70
     1
102
RTVSPost2010Prop57
140
1.0
102
RTVSPost2010PropOp57
 70
     1
  0
XRECORD
  5
6A8
102
{ACAD_REACTORS
330
6A7
102
}
330
6A7
100
AcDbXrecord
280
     1
102
RTVSPropertyOp0
 70
     1
102
RTVSPropertyOp1
 70
     1
102
RTVSPropertyOp2
 70
     1
102
RTVSPropertyOp3
 70
     1
102
RTVSPropertyOp4
 70
     1
102
RTVSPropertyOp5
 70
     1
102
RTVSPropertyOp6
 70
     1
102
RTVSPropertyOp7
 70
     1
102
RTVSPropertyOp8
 70
     1
102
RTVSPropertyOp9
 70
     1
102
RTVSPropertyOp10
 70
     1
102
RTVSPropertyOp11
 70
     1
102
RTVSPropertyOp12
 70
     1
102
RTVSPropertyOp13
 70
     1
102
RTVSPropertyOp14
 70
     1
102
RTVSPropertyOp15
 70
     1
102
RTVSPropertyOp16
 70
     1
102
RTVSPropertyOp17
 70
     1
102
RTVSPropertyOp18
 70
     1
102
RTVSPropertyOp19
 70
     1
102
RTVSPropertyOp20
 70
     1
102
RTVSPropertyOp21
 70
     1
102
RTVSPropertyOp22
 70
     1
102
RTVSPropertyOp23
 70
     1
102
RTVSPropertyOp24
 70
     1
102
RTVSPropertyOp25
 70
     1
102
RTVSPropertyOp26
 70
     1
102
RTVSPropertyOp27
 70
     1
102
RTVSPropertyOp28
 70
     1
102
RTVSPropertyOp29
 70
     1
102
RTVSPropertyOp30
 70
     1
102
RTVSPropertyOp31
 70
     1
102
RTVSPropertyOp32
 70
     1
102
RTVSPropertyOp33
 70
     1
102
RTVSPropertyOp34
 70
     1
102
RTVSPropertyOp35
 70
     1
102
RTVSPropertyOp36
 70
     1
102
RTVSPropertyOp37
 70
     1
102
RTVSPropertyOp38
 70
     1
102
RTVSPropertyOp39
 70
     1
102
RTVSPropertyOp40
 70
     1
102
RTVSPropertyOp41
 70
     1
102
RTVSPropertyOp42
 70
     1
102
RTVSPropertyOp43
 70
     1
102
RTVSPropertyOp44
 70
     1
102
RTVSPropertyOp45
 70
     1
102
RTVSPropertyOp46
 70
     1
102
RTVSPropertyOp47
 70
     1
102
RTVSPropertyOp48
 70
     1
102
RTVSPropertyOp49
 70
     1
102
RTVSPropertyOp50
 70
     1
102
RTVSPropertyOp51
 70
     0
102
RTVSPropertyOp52
 70
     0
102
RTVSPropertyOp53
 70
     1
102
RTVSPropertyOp54
 70
     1
102
RTVSPropertyOp55
 70
     1
102
RTVSPropertyOp56
 70
     1
102
RTVSPropertyOp57
 70
     1
102
RTVSPost2010Prop28
280
     0
102
RTVSPost2010PropOp28
 70
     1
102
RTVSPost2010Prop29
280
     1
102
RTVSPost2010PropOp29
 70
     1
102
RTVSPost2010Prop30
280
     1
102
RTVSPost2010PropOp30
 70
     1
102
RTVSPost2010Prop31
280
     0
102
RTVSPost2010PropOp31
 70
     1
102
RTVSPost2010Prop32
280
     0
102
RTVSPost2010PropOp32
 70
     1
102
RTVSPost2010Prop33
280
     0
102
RTVSPost2010PropOp33
 70
     1
102
RTVSPost2010Prop34
280
     0
102
RTVSPost2010PropOp34
 70
     1
102
RTVSPost2010Prop35
280
     0
102
RTVSPost2010PropOp35
 70
     1
102
RTVSPost2010Prop36
280
     0
102
RTVSPost2010PropOp36
 70
     1
102
RTVSPost2010Prop37
 90
       50
102
RTVSPost2010PropOp37
 70
     1
102
RTVSPost2010Prop38
140
0.0
102
RTVSPost2010PropOp38
 70
     1
102
RTVSPost2010Prop39
140
1.0
102
RTVSPost2010PropOp39
 70
     1
102
RTVSPost2010Prop40
 90
        0
102
RTVSPost2010PropOp40
 70
     1
102
RTVSPost2010Prop41ColorIndex
 90
       18
102
RTVSPost2010Prop41ColorRGB
 90
        0
102
RTVSPost2010PropOp41
 70
     1
102
RTVSPost2010Prop42
 90
       50
102
RTVSPost2010PropOp42
 70
     1
102
RTVSPost2010Prop43
 90
        3
102
RTVSPost2010PropOp43
 70
     1
102
RTVSPost2010Prop44ColorIndex
 90
        5
102
RTVSPost2010Prop44ColorRGB
 90
      255
102
RTVSPost2010PropOp44
 70
     1
102
RTVSPost2010Prop45
280
     0
102
RTVSPost2010PropOp45
 70
     1
102
RTVSPost2010Prop46
 90
       50
102
RTVSPost2010PropOp46
 70
     1
102
RTVSPost2010Prop47
 90
       50
102
RTVSPost2010PropOp47
 70
     1
102
RTVSPost2010Prop48
 90
       50
102
RTVSPost2010PropOp48
 70
     1
102
RTVSPost2010Prop49
280
     0
102
RTVSPost2010PropOp49
 70
     1
102
RTVSPost2010Prop50
 90
       50
102
RTVSPost2010PropOp50
 70
     1
102
RTVSPost2010Prop51ColorIndex
 90
      256
102
RTVSPost2010Prop51ColorRGB
 90
-16777216
102
RTVSPost2010PropOp51
 70
     0
102
RTVSPost2010Prop52
140
1.0
102
RTVSPost2010PropOp52
 70
     0
102
RTVSPost2010Prop53
 90
        2
102
RTVSPost2010PropOp53
 70
     1
102
RTVSPost2010Prop54
  1
strokes_ogs.tif
102
RTVSPost2010PropOp54
 70
     1
102
RTVSPost2010Prop55
280
     0
102
RTVSPost2010PropOp55
 70
     1
102
RTVSPost2010Prop56
140
1.0
102
RTVSPost2010PropOp56
 70
     1
102
RTVSPost2010Prop57
140
1.0
102
RTVSPost2010PropOp57
 70
     1
  0
XRECORD
  5
6AA
102
{ACAD_REACTORS
330
6A9
102
}
330
6A9
100
AcDbXrecord
280
     1
102
RTVSPropertyOp0
 70
     1
102
RTVSPropertyOp1
 70
     1
102
RTVSPropertyOp2
 70
     1
102
RTVSPropertyOp3
 70
     1
102
RTVSPropertyOp4
 70
     1
102
RTVSPropertyOp5
 70
     1
102
RTVSPropertyOp6
 70
     1
102
RTVSPropertyOp7
 70
     1
102
RTVSPropertyOp8
 70
     1
102
RTVSPropertyOp9
 70
     1
102
RTVSPropertyOp10
 70
     1
102
RTVSPropertyOp11
 70
     1
102
RTVSPropertyOp12
 70
     1
102
RTVSPropertyOp13
 70
     1
102
RTVSPropertyOp14
 70
     1
102
RTVSPropertyOp15
 70
     1
102
RTVSPropertyOp16
 70
     1
102
RTVSPropertyOp17
 70
     1
102
RTVSPropertyOp18
 70
     1
102
RTVSPropertyOp19
 70
     1
102
RTVSPropertyOp20
 70
     1
102
RTVSPropertyOp21
 70
     1
102
RTVSPropertyOp22
 70
     1
102
RTVSPropertyOp23
 70
     1
102
RTVSPropertyOp24
 70
     1
102
RTVSPropertyOp25
 70
     1
102
RTVSPropertyOp26
 70
     1
102
RTVSPropertyOp27
 70
     1
102
RTVSPropertyOp28
 70
     1
102
RTVSPropertyOp29
 70
     1
102
RTVSPropertyOp30
 70
     1
102
RTVSPropertyOp31
 70
     1
102
RTVSPropertyOp32
 70
     1
102
RTVSPropertyOp33
 70
     1
102
RTVSPropertyOp34
 70
     1
102
RTVSPropertyOp35
 70
     1
102
RTVSPropertyOp36
 70
     1
102
RTVSPropertyOp37
 70
     1
102
RTVSPropertyOp38
 70
     1
102
RTVSPropertyOp39
 70
     1
102
RTVSPropertyOp40
 70
     1
102
RTVSPropertyOp41
 70
     1
102
RTVSPropertyOp42
 70
     1
102
RTVSPropertyOp43
 70
     1
102
RTVSPropertyOp44
 70
     1
102
RTVSPropertyOp45
 70
     1
102
RTVSPropertyOp46
 70
     1
102
RTVSPropertyOp47
 70
     1
102
RTVSPropertyOp48
 70
     1
102
RTVSPropertyOp49
 70
     1
102
RTVSPropertyOp50
 70
     1
102
RTVSPropertyOp51
 70
     0
102
RTVSPropertyOp52
 70
     0
102
RTVSPropertyOp53
 70
     1
102
RTVSPropertyOp54
 70
     1
102
RTVSPropertyOp55
 70
     1
102
RTVSPropertyOp56
 70
     1
102
RTVSPropertyOp57
 70
     1
102
RTVSPost2010Prop28
280
     0
102
RTVSPost2010PropOp28
 70
     1
102
RTVSPost2010Prop29
280
     1
102
RTVSPost2010PropOp29
 70
     1
102
RTVSPost2010Prop30
280
     1
102
RTVSPost2010PropOp30
 70
     1
102
RTVSPost2010Prop31
280
     0
102
RTVSPost2010PropOp31
 70
     1
102
RTVSPost2010Prop32
280
     0
102
RTVSPost2010PropOp32
 70
     1
102
RTVSPost2010Prop33
280
     0
102
RTVSPost2010PropOp33
 70
     1
102
RTVSPost2010Prop34
280
     0
102
RTVSPost2010PropOp34
 70
     1
102
RTVSPost2010Prop35
280
     0
102
RTVSPost2010PropOp35
 70
     1
102
RTVSPost2010Prop36
280
     0
102
RTVSPost2010PropOp36
 70
     1
102
RTVSPost2010Prop37
 90
       50
102
RTVSPost2010PropOp37
 70
     1
102
RTVSPost2010Prop38
140
0.0
102
RTVSPost2010PropOp38
 70
     1
102
RTVSPost2010Prop39
140
1.0
102
RTVSPost2010PropOp39
 70
     1
102
RTVSPost2010Prop40
 90
        0
102
RTVSPost2010PropOp40
 70
     1
102
RTVSPost2010Prop41ColorIndex
 90
       18
102
RTVSPost2010Prop41ColorRGB
 90
        0
102
RTVSPost2010PropOp41
 70
     1
102
RTVSPost2010Prop42
 90
       50
102
RTVSPost2010PropOp42
 70
     1
102
RTVSPost2010Prop43
 90
        3
102
RTVSPost2010PropOp43
 70
     1
102
RTVSPost2010Prop44ColorIndex
 90
        5
102
RTVSPost2010Prop44ColorRGB
 90
      255
102
RTVSPost2010PropOp44
 70
     1
102
RTVSPost2010Prop45
280
     0
102
RTVSPost2010PropOp45
 70
     1
102
RTVSPost2010Prop46
 90
       50
102
RTVSPost2010PropOp46
 70
     1
102
RTVSPost2010Prop47
 90
       50
102
RTVSPost2010PropOp47
 70
     1
102
RTVSPost2010Prop48
 90
       50
102
RTVSPost2010PropOp48
 70
     1
102
RTVSPost2010Prop49
280
     0
102
RTVSPost2010PropOp49
 70
     1
102
RTVSPost2010Prop50
 90
       50
102
RTVSPost2010PropOp50
 70
     1
102
RTVSPost2010Prop51ColorIndex
 90
      256
102
RTVSPost2010Prop51ColorRGB
 90
-16777216
102
RTVSPost2010PropOp51
 70
     0
102
RTVSPost2010Prop52
140
1.0
102
RTVSPost2010PropOp52
 70
     0
102
RTVSPost2010Prop53
 90
        2
102
RTVSPost2010PropOp53
 70
     1
102
RTVSPost2010Prop54
  1
strokes_ogs.tif
102
RTVSPost2010PropOp54
 70
     1
102
RTVSPost2010Prop55
280
     0
102
RTVSPost2010PropOp55
 70
     1
102
RTVSPost2010Prop56
140
1.0
102
RTVSPost2010PropOp56
 70
     1
102
RTVSPost2010Prop57
140
1.0
102
RTVSPost2010PropOp57
 70
     1
  0
XRECORD
  5
6AE
102
{ACAD_REACTORS
330
6AD
102
}
330
6AD
100
AcDbXrecord
280
     1
102
RTVSPropertyOp0
 70
     1
102
RTVSPropertyOp1
 70
     1
102
RTVSPropertyOp2
 70
     1
102
RTVSPropertyOp3
 70
     1
102
RTVSPropertyOp4
 70
     1
102
RTVSPropertyOp5
 70
     1
102
RTVSPropertyOp6
 70
     1
102
RTVSPropertyOp7
 70
     1
102
RTVSPropertyOp8
 70
     1
102
RTVSPropertyOp9
 70
     1
102
RTVSPropertyOp10
 70
     1
102
RTVSPropertyOp11
 70
     1
102
RTVSPropertyOp12
 70
     1
102
RTVSPropertyOp13
 70
     1
102
RTVSPropertyOp14
 70
     1
102
RTVSPropertyOp15
 70
     1
102
RTVSPropertyOp16
 70
     1
102
RTVSPropertyOp17
 70
     1
102
RTVSPropertyOp18
 70
     1
102
RTVSPropertyOp19
 70
     1
102
RTVSPropertyOp20
 70
     1
102
RTVSPropertyOp21
 70
     1
102
RTVSPropertyOp22
 70
     1
102
RTVSPropertyOp23
 70
     1
102
RTVSPropertyOp24
 70
     1
102
RTVSPropertyOp25
 70
     1
102
RTVSPropertyOp26
 70
     1
102
RTVSPropertyOp27
 70
     1
102
RTVSPropertyOp28
 70
     1
102
RTVSPropertyOp29
 70
     1
102
RTVSPropertyOp30
 70
     1
102
RTVSPropertyOp31
 70
     1
102
RTVSPropertyOp32
 70
     1
102
RTVSPropertyOp33
 70
     1
102
RTVSPropertyOp34
 70
     1
102
RTVSPropertyOp35
 70
     1
102
RTVSPropertyOp36
 70
     1
102
RTVSPropertyOp37
 70
     1
102
RTVSPropertyOp38
 70
     1
102
RTVSPropertyOp39
 70
     1
102
RTVSPropertyOp40
 70
     1
102
RTVSPropertyOp41
 70
     1
102
RTVSPropertyOp42
 70
     1
102
RTVSPropertyOp43
 70
     1
102
RTVSPropertyOp44
 70
     1
102
RTVSPropertyOp45
 70
     1
102
RTVSPropertyOp46
 70
     1
102
RTVSPropertyOp47
 70
     1
102
RTVSPropertyOp48
 70
     1
102
RTVSPropertyOp49
 70
     1
102
RTVSPropertyOp50
 70
     1
102
RTVSPropertyOp51
 70
     0
102
RTVSPropertyOp52
 70
     0
102
RTVSPropertyOp53
 70
     1
102
RTVSPropertyOp54
 70
     1
102
RTVSPropertyOp55
 70
     1
102
RTVSPropertyOp56
 70
     1
102
RTVSPropertyOp57
 70
     1
102
RTVSPost2010Prop28
280
     0
102
RTVSPost2010PropOp28
 70
     1
102
RTVSPost2010Prop29
280
     1
102
RTVSPost2010PropOp29
 70
     1
102
RTVSPost2010Prop30
280
     1
102
RTVSPost2010PropOp30
 70
     1
102
RTVSPost2010Prop31
280
     0
102
RTVSPost2010PropOp31
 70
     1
102
RTVSPost2010Prop32
280
     0
102
RTVSPost2010PropOp32
 70
     1
102
RTVSPost2010Prop33
280
     0
102
RTVSPost2010PropOp33
 70
     1
102
RTVSPost2010Prop34
280
     0
102
RTVSPost2010PropOp34
 70
     1
102
RTVSPost2010Prop35
280
     0
102
RTVSPost2010PropOp35
 70
     1
102
RTVSPost2010Prop36
280
     0
102
RTVSPost2010PropOp36
 70
     1
102
RTVSPost2010Prop37
 90
       50
102
RTVSPost2010PropOp37
 70
     1
102
RTVSPost2010Prop38
140
0.0
102
RTVSPost2010PropOp38
 70
     1
102
RTVSPost2010Prop39
140
1.0
102
RTVSPost2010PropOp39
 70
     1
102
RTVSPost2010Prop40
 90
        0
102
RTVSPost2010PropOp40
 70
     1
102
RTVSPost2010Prop41ColorIndex
 90
       18
102
RTVSPost2010Prop41ColorRGB
 90
        0
102
RTVSPost2010PropOp41
 70
     1
102
RTVSPost2010Prop42
 90
       50
102
RTVSPost2010PropOp42
 70
     1
102
RTVSPost2010Prop43
 90
        3
102
RTVSPost2010PropOp43
 70
     1
102
RTVSPost2010Prop44ColorIndex
 90
        5
102
RTVSPost2010Prop44ColorRGB
 90
      255
102
RTVSPost2010PropOp44
 70
     1
102
RTVSPost2010Prop45
280
     0
102
RTVSPost2010PropOp45
 70
     1
102
RTVSPost2010Prop46
 90
       50
102
RTVSPost2010PropOp46
 70
     1
102
RTVSPost2010Prop47
 90
       50
102
RTVSPost2010PropOp47
 70
     1
102
RTVSPost2010Prop48
 90
       50
102
RTVSPost2010PropOp48
 70
     1
102
RTVSPost2010Prop49
280
     0
102
RTVSPost2010PropOp49
 70
     1
102
RTVSPost2010Prop50
 90
       50
102
RTVSPost2010PropOp50
 70
     1
102
RTVSPost2010Prop51ColorIndex
 90
      256
102
RTVSPost2010Prop51ColorRGB
 90
-16777216
102
RTVSPost2010PropOp51
 70
     0
102
RTVSPost2010Prop52
140
1.0
102
RTVSPost2010PropOp52
 70
     0
102
RTVSPost2010Prop53
 90
        2
102
RTVSPost2010PropOp53
 70
     1
102
RTVSPost2010Prop54
  1
strokes_ogs.tif
102
RTVSPost2010PropOp54
 70
     1
102
RTVSPost2010Prop55
280
     0
102
RTVSPost2010PropOp55
 70
     1
102
RTVSPost2010Prop56
140
1.0
102
RTVSPost2010PropOp56
 70
     1
102
RTVSPost2010Prop57
140
1.0
102
RTVSPost2010PropOp57
 70
     1
  0
XRECORD
  5
6C0
102
{ACAD_REACTORS
330
6BF
102
}
330
6BF
100
AcDbXrecord
280
     1
102
RTVSPropertyOp0
 70
     0
102
RTVSPropertyOp1
 70
     0
102
RTVSPropertyOp2
 70
     0
102
RTVSPropertyOp3
 70
     0
102
RTVSPropertyOp4
 70
     0
102
RTVSPropertyOp5
 70
     0
102
RTVSPropertyOp6
 70
     0
102
RTVSPropertyOp7
 70
     0
102
RTVSPropertyOp8
 70
     0
102
RTVSPropertyOp9
 70
     0
102
RTVSPropertyOp10
 70
     0
102
RTVSPropertyOp11
 70
     0
102
RTVSPropertyOp12
 70
     0
102
RTVSPropertyOp13
 70
     0
102
RTVSPropertyOp14
 70
     0
102
RTVSPropertyOp15
 70
     0
102
RTVSPropertyOp16
 70
     0
102
RTVSPropertyOp17
 70
     0
102
RTVSPropertyOp18
 70
     0
102
RTVSPropertyOp19
 70
     0
102
RTVSPropertyOp20
 70
     0
102
RTVSPropertyOp21
 70
     0
102
RTVSPropertyOp22
 70
     0
102
RTVSPropertyOp23
 70
     0
102
RTVSPropertyOp24
 70
     0
102
RTVSPropertyOp25
 70
     0
102
RTVSPropertyOp26
 70
     0
102
RTVSPropertyOp27
 70
     0
102
RTVSPropertyOp28
 70
     1
102
RTVSPropertyOp29
 70
     1
102
RTVSPropertyOp30
 70
     1
102
RTVSPropertyOp31
 70
     1
102
RTVSPropertyOp32
 70
     1
102
RTVSPropertyOp33
 70
     1
102
RTVSPropertyOp34
 70
     1
102
RTVSPropertyOp35
 70
     1
102
RTVSPropertyOp36
 70
     1
102
RTVSPropertyOp37
 70
     1
102
RTVSPropertyOp38
 70
     1
102
RTVSPropertyOp39
 70
     1
102
RTVSPropertyOp40
 70
     1
102
RTVSPropertyOp41
 70
     1
102
RTVSPropertyOp42
 70
     1
102
RTVSPropertyOp43
 70
     1
102
RTVSPropertyOp44
 70
     1
102
RTVSPropertyOp45
 70
     1
102
RTVSPropertyOp46
 70
     1
102
RTVSPropertyOp47
 70
     1
102
RTVSPropertyOp48
 70
     1
102
RTVSPropertyOp49
 70
     1
102
RTVSPropertyOp50
 70
     1
102
RTVSPropertyOp51
 70
     0
102
RTVSPropertyOp52
 70
     0
102
RTVSPropertyOp53
 70
     1
102
RTVSPropertyOp54
 70
     1
102
RTVSPropertyOp55
 70
     1
102
RTVSPropertyOp56
 70
     1
102
RTVSPropertyOp57
 70
     1
102
RTVSPost2010Prop28
280
     0
102
RTVSPost2010PropOp28
 70
     1
102
RTVSPost2010Prop29
280
     1
102
RTVSPost2010PropOp29
 70
     1
102
RTVSPost2010Prop30
280
     1
102
RTVSPost2010PropOp30
 70
     1
102
RTVSPost2010Prop31
280
     0
102
RTVSPost2010PropOp31
 70
     1
102
RTVSPost2010Prop32
280
     0
102
RTVSPost2010PropOp32
 70
     1
102
RTVSPost2010Prop33
280
     0
102
RTVSPost2010PropOp33
 70
     1
102
RTVSPost2010Prop34
280
     0
102
RTVSPost2010PropOp34
 70
     1
102
RTVSPost2010Prop35
280
     0
102
RTVSPost2010PropOp35
 70
     1
102
RTVSPost2010Prop36
280
     0
102
RTVSPost2010PropOp36
 70
     1
102
RTVSPost2010Prop37
 90
       50
102
RTVSPost2010PropOp37
 70
     1
102
RTVSPost2010Prop38
140
0.0
102
RTVSPost2010PropOp38
 70
     1
102
RTVSPost2010Prop39
140
1.0
102
RTVSPost2010PropOp39
 70
     1
102
RTVSPost2010Prop40
 90
        0
102
RTVSPost2010PropOp40
 70
     1
102
RTVSPost2010Prop41ColorIndex
 90
       18
102
RTVSPost2010Prop41ColorRGB
 90
        0
102
RTVSPost2010PropOp41
 70
     1
102
RTVSPost2010Prop42
 90
       50
102
RTVSPost2010PropOp42
 70
     1
102
RTVSPost2010Prop43
 90
        3
102
RTVSPost2010PropOp43
 70
     1
102
RTVSPost2010Prop44ColorIndex
 90
        5
102
RTVSPost2010Prop44ColorRGB
 90
      255
102
RTVSPost2010PropOp44
 70
     1
102
RTVSPost2010Prop45
280
     0
102
RTVSPost2010PropOp45
 70
     1
102
RTVSPost2010Prop46
 90
       50
102
RTVSPost2010PropOp46
 70
     1
102
RTVSPost2010Prop47
 90
       50
102
RTVSPost2010PropOp47
 70
     1
102
RTVSPost2010Prop48
 90
       50
102
RTVSPost2010PropOp48
 70
     1
102
RTVSPost2010Prop49
280
     0
102
RTVSPost2010PropOp49
 70
     1
102
RTVSPost2010Prop50
 90
       50
102
RTVSPost2010PropOp50
 70
     1
102
RTVSPost2010Prop51ColorIndex
 90
      256
102
RTVSPost2010Prop51ColorRGB
 90
-16777216
102
RTVSPost2010PropOp51
 70
     0
102
RTVSPost2010Prop52
140
1.0
102
RTVSPost2010PropOp52
 70
     0
102
RTVSPost2010Prop53
 90
        2
102
RTVSPost2010PropOp53
 70
     1
102
RTVSPost2010Prop54
  1
strokes_ogs.tif
102
RTVSPost2010PropOp54
 70
     1
102
RTVSPost2010Prop55
280
     0
102
RTVSPost2010PropOp55
 70
     1
102
RTVSPost2010Prop56
140
1.0
102
RTVSPost2010PropOp56
 70
     1
102
RTVSPost2010Prop57
140
1.0
102
RTVSPost2010PropOp57
 70
     1
  0
XRECORD
  5
6BA
102
{ACAD_REACTORS
330
6B9
102
}
330
6B9
100
AcDbXrecord
280
     1
102
RTVSPropertyOp0
 70
     1
102
RTVSPropertyOp1
 70
     1
102
RTVSPropertyOp2
 70
     1
102
RTVSPropertyOp3
 70
     1
102
RTVSPropertyOp4
 70
     1
102
RTVSPropertyOp5
 70
     1
102
RTVSPropertyOp6
 70
     1
102
RTVSPropertyOp7
 70
     1
102
RTVSPropertyOp8
 70
     1
102
RTVSPropertyOp9
 70
     1
102
RTVSPropertyOp10
 70
     1
102
RTVSPropertyOp11
 70
     1
102
RTVSPropertyOp12
 70
     1
102
RTVSPropertyOp13
 70
     1
102
RTVSPropertyOp14
 70
     1
102
RTVSPropertyOp15
 70
     1
102
RTVSPropertyOp16
 70
     1
102
RTVSPropertyOp17
 70
     1
102
RTVSPropertyOp18
 70
     1
102
RTVSPropertyOp19
 70
     1
102
RTVSPropertyOp20
 70
     1
102
RTVSPropertyOp21
 70
     1
102
RTVSPropertyOp22
 70
     1
102
RTVSPropertyOp23
 70
     1
102
RTVSPropertyOp24
 70
     1
102
RTVSPropertyOp25
 70
     1
102
RTVSPropertyOp26
 70
     1
102
RTVSPropertyOp27
 70
     1
102
RTVSPropertyOp28
 70
     1
102
RTVSPropertyOp29
 70
     1
102
RTVSPropertyOp30
 70
     1
102
RTVSPropertyOp31
 70
     1
102
RTVSPropertyOp32
 70
     1
102
RTVSPropertyOp33
 70
     1
102
RTVSPropertyOp34
 70
     1
102
RTVSPropertyOp35
 70
     1
102
RTVSPropertyOp36
 70
     1
102
RTVSPropertyOp37
 70
     1
102
RTVSPropertyOp38
 70
     1
102
RTVSPropertyOp39
 70
     1
102
RTVSPropertyOp40
 70
     1
102
RTVSPropertyOp41
 70
     1
102
RTVSPropertyOp42
 70
     1
102
RTVSPropertyOp43
 70
     1
102
RTVSPropertyOp44
 70
     1
102
RTVSPropertyOp45
 70
     1
102
RTVSPropertyOp46
 70
     1
102
RTVSPropertyOp47
 70
     1
102
RTVSPropertyOp48
 70
     1
102
RTVSPropertyOp49
 70
     1
102
RTVSPropertyOp50
 70
     1
102
RTVSPropertyOp51
 70
     0
102
RTVSPropertyOp52
 70
     0
102
RTVSPropertyOp53
 70
     1
102
RTVSPropertyOp54
 70
     1
102
RTVSPropertyOp55
 70
     1
102
RTVSPropertyOp56
 70
     1
102
RTVSPropertyOp57
 70
     1
102
RTVSPost2010Prop28
280
     0
102
RTVSPost2010PropOp28
 70
     1
102
RTVSPost2010Prop29
280
     1
102
RTVSPost2010PropOp29
 70
     1
102
RTVSPost2010Prop30
280
     1
102
RTVSPost2010PropOp30
 70
     1
102
RTVSPost2010Prop31
280
     0
102
RTVSPost2010PropOp31
 70
     1
102
RTVSPost2010Prop32
280
     0
102
RTVSPost2010PropOp32
 70
     1
102
RTVSPost2010Prop33
280
     0
102
RTVSPost2010PropOp33
 70
     1
102
RTVSPost2010Prop34
280
     0
102
RTVSPost2010PropOp34
 70
     1
102
RTVSPost2010Prop35
280
     0
102
RTVSPost2010PropOp35
 70
     1
102
RTVSPost2010Prop36
280
     0
102
RTVSPost2010PropOp36
 70
     1
102
RTVSPost2010Prop37
 90
       50
102
RTVSPost2010PropOp37
 70
     1
102
RTVSPost2010Prop38
140
0.0
102
RTVSPost2010PropOp38
 70
     1
102
RTVSPost2010Prop39
140
1.0
102
RTVSPost2010PropOp39
 70
     1
102
RTVSPost2010Prop40
 90
        0
102
RTVSPost2010PropOp40
 70
     1
102
RTVSPost2010Prop41ColorIndex
 90
       18
102
RTVSPost2010Prop41ColorRGB
 90
        0
102
RTVSPost2010PropOp41
 70
     1
102
RTVSPost2010Prop42
 90
       50
102
RTVSPost2010PropOp42
 70
     1
102
RTVSPost2010Prop43
 90
        3
102
RTVSPost2010PropOp43
 70
     1
102
RTVSPost2010Prop44ColorIndex
 90
        5
102
RTVSPost2010Prop44ColorRGB
 90
      255
102
RTVSPost2010PropOp44
 70
     1
102
RTVSPost2010Prop45
280
     0
102
RTVSPost2010PropOp45
 70
     1
102
RTVSPost2010Prop46
 90
       50
102
RTVSPost2010PropOp46
 70
     1
102
RTVSPost2010Prop47
 90
       50
102
RTVSPost2010PropOp47
 70
     1
102
RTVSPost2010Prop48
 90
       50
102
RTVSPost2010PropOp48
 70
     1
102
RTVSPost2010Prop49
280
     0
102
RTVSPost2010PropOp49
 70
     1
102
RTVSPost2010Prop50
 90
       50
102
RTVSPost2010PropOp50
 70
     1
102
RTVSPost2010Prop51ColorIndex
 90
      256
102
RTVSPost2010Prop51ColorRGB
 90
-16777216
102
RTVSPost2010PropOp51
 70
     0
102
RTVSPost2010Prop52
140
1.0
102
RTVSPost2010PropOp52
 70
     0
102
RTVSPost2010Prop53
 90
        2
102
RTVSPost2010PropOp53
 70
     1
102
RTVSPost2010Prop54
  1
strokes_ogs.tif
102
RTVSPost2010PropOp54
 70
     1
102
RTVSPost2010Prop55
280
     0
102
RTVSPost2010PropOp55
 70
     1
102
RTVSPost2010Prop56
140
1.0
102
RTVSPost2010PropOp56
 70
     1
102
RTVSPost2010Prop57
140
1.0
102
RTVSPost2010PropOp57
 70
     1
  0
XRECORD
  5
6C2
102
{ACAD_REACTORS
330
6C1
102
}
330
6C1
100
AcDbXrecord
280
     1
102
RTVSPropertyOp0
 70
     0
102
RTVSPropertyOp1
 70
     0
102
RTVSPropertyOp2
 70
     0
102
RTVSPropertyOp3
 70
     0
102
RTVSPropertyOp4
 70
     0
102
RTVSPropertyOp5
 70
     0
102
RTVSPropertyOp6
 70
     0
102
RTVSPropertyOp7
 70
     0
102
RTVSPropertyOp8
 70
     0
102
RTVSPropertyOp9
 70
     0
102
RTVSPropertyOp10
 70
     0
102
RTVSPropertyOp11
 70
     0
102
RTVSPropertyOp12
 70
     0
102
RTVSPropertyOp13
 70
     0
102
RTVSPropertyOp14
 70
     0
102
RTVSPropertyOp15
 70
     0
102
RTVSPropertyOp16
 70
     0
102
RTVSPropertyOp17
 70
     0
102
RTVSPropertyOp18
 70
     0
102
RTVSPropertyOp19
 70
     0
102
RTVSPropertyOp20
 70
     0
102
RTVSPropertyOp21
 70
     0
102
RTVSPropertyOp22
 70
     0
102
RTVSPropertyOp23
 70
     0
102
RTVSPropertyOp24
 70
     0
102
RTVSPropertyOp25
 70
     0
102
RTVSPropertyOp26
 70
     0
102
RTVSPropertyOp27
 70
     0
102
RTVSPropertyOp28
 70
     1
102
RTVSPropertyOp29
 70
     1
102
RTVSPropertyOp30
 70
     1
102
RTVSPropertyOp31
 70
     1
102
RTVSPropertyOp32
 70
     1
102
RTVSPropertyOp33
 70
     1
102
RTVSPropertyOp34
 70
     1
102
RTVSPropertyOp35
 70
     1
102
RTVSPropertyOp36
 70
     1
102
RTVSPropertyOp37
 70
     1
102
RTVSPropertyOp38
 70
     1
102
RTVSPropertyOp39
 70
     1
102
RTVSPropertyOp40
 70
     1
102
RTVSPropertyOp41
 70
     1
102
RTVSPropertyOp42
 70
     1
102
RTVSPropertyOp43
 70
     1
102
RTVSPropertyOp44
 70
     1
102
RTVSPropertyOp45
 70
     1
102
RTVSPropertyOp46
 70
     1
102
RTVSPropertyOp47
 70
     1
102
RTVSPropertyOp48
 70
     1
102
RTVSPropertyOp49
 70
     1
102
RTVSPropertyOp50
 70
     1
102
RTVSPropertyOp51
 70
     0
102
RTVSPropertyOp52
 70
     0
102
RTVSPropertyOp53
 70
     1
102
RTVSPropertyOp54
 70
     1
102
RTVSPropertyOp55
 70
     1
102
RTVSPropertyOp56
 70
     1
102
RTVSPropertyOp57
 70
     1
102
RTVSPost2010Prop28
280
     0
102
RTVSPost2010PropOp28
 70
     1
102
RTVSPost2010Prop29
280
     1
102
RTVSPost2010PropOp29
 70
     1
102
RTVSPost2010Prop30
280
     1
102
RTVSPost2010PropOp30
 70
     1
102
RTVSPost2010Prop31
280
     0
102
RTVSPost2010PropOp31
 70
     1
102
RTVSPost2010Prop32
280
     0
102
RTVSPost2010PropOp32
 70
     1
102
RTVSPost2010Prop33
280
     0
102
RTVSPost2010PropOp33
 70
     1
102
RTVSPost2010Prop34
280
     0
102
RTVSPost2010PropOp34
 70
     1
102
RTVSPost2010Prop35
280
     0
102
RTVSPost2010PropOp35
 70
     1
102
RTVSPost2010Prop36
280
     0
102
RTVSPost2010PropOp36
 70
     1
102
RTVSPost2010Prop37
 90
       50
102
RTVSPost2010PropOp37
 70
     1
102
RTVSPost2010Prop38
140
0.0
102
RTVSPost2010PropOp38
 70
     1
102
RTVSPost2010Prop39
140
1.0
102
RTVSPost2010PropOp39
 70
     1
102
RTVSPost2010Prop40
 90
        0
102
RTVSPost2010PropOp40
 70
     1
102
RTVSPost2010Prop41ColorIndex
 90
       18
102
RTVSPost2010Prop41ColorRGB
 90
        0
102
RTVSPost2010PropOp41
 70
     1
102
RTVSPost2010Prop42
 90
       50
102
RTVSPost2010PropOp42
 70
     1
102
RTVSPost2010Prop43
 90
        3
102
RTVSPost2010PropOp43
 70
     1
102
RTVSPost2010Prop44ColorIndex
 90
        5
102
RTVSPost2010Prop44ColorRGB
 90
      255
102
RTVSPost2010PropOp44
 70
     1
102
RTVSPost2010Prop45
280
     0
102
RTVSPost2010PropOp45
 70
     1
102
RTVSPost2010Prop46
 90
       50
102
RTVSPost2010PropOp46
 70
     1
102
RTVSPost2010Prop47
 90
       50
102
RTVSPost2010PropOp47
 70
     1
102
RTVSPost2010Prop48
 90
       50
102
RTVSPost2010PropOp48
 70
     1
102
RTVSPost2010Prop49
280
     0
102
RTVSPost2010PropOp49
 70
     1
102
RTVSPost2010Prop50
 90
       50
102
RTVSPost2010PropOp50
 70
     1
102
RTVSPost2010Prop51ColorIndex
 90
      256
102
RTVSPost2010Prop51ColorRGB
 90
-16777216
102
RTVSPost2010PropOp51
 70
     0
102
RTVSPost2010Prop52
140
1.0
102
RTVSPost2010PropOp52
 70
     0
102
RTVSPost2010Prop53
 90
        2
102
RTVSPost2010PropOp53
 70
     1
102
RTVSPost2010Prop54
  1
strokes_ogs.tif
102
RTVSPost2010PropOp54
 70
     1
102
RTVSPost2010Prop55
280
     0
102
RTVSPost2010PropOp55
 70
     1
102
RTVSPost2010Prop56
140
1.0
102
RTVSPost2010PropOp56
 70
     1
102
RTVSPost2010Prop57
140
1.0
102
RTVSPost2010PropOp57
 70
     1
  0
XRECORD
  5
6A0
102
{ACAD_REACTORS
330
69F
102
}
330
69F
100
AcDbXrecord
280
     1
102
RTVSPropertyOp0
 70
     1
102
RTVSPropertyOp1
 70
     1
102
RTVSPropertyOp2
 70
     1
102
RTVSPropertyOp3
 70
     1
102
RTVSPropertyOp4
 70
     1
102
RTVSPropertyOp5
 70
     1
102
RTVSPropertyOp6
 70
     1
102
RTVSPropertyOp7
 70
     1
102
RTVSPropertyOp8
 70
     1
102
RTVSPropertyOp9
 70
     1
102
RTVSPropertyOp10
 70
     1
102
RTVSPropertyOp11
 70
     1
102
RTVSPropertyOp12
 70
     1
102
RTVSPropertyOp13
 70
     1
102
RTVSPropertyOp14
 70
     1
102
RTVSPropertyOp15
 70
     1
102
RTVSPropertyOp16
 70
     1
102
RTVSPropertyOp17
 70
     1
102
RTVSPropertyOp18
 70
     1
102
RTVSPropertyOp19
 70
     1
102
RTVSPropertyOp20
 70
     1
102
RTVSPropertyOp21
 70
     1
102
RTVSPropertyOp22
 70
     1
102
RTVSPropertyOp23
 70
     1
102
RTVSPropertyOp24
 70
     1
102
RTVSPropertyOp25
 70
     1
102
RTVSPropertyOp26
 70
     1
102
RTVSPropertyOp27
 70
     1
102
RTVSPropertyOp28
 70
     1
102
RTVSPropertyOp29
 70
     1
102
RTVSPropertyOp30
 70
     1
102
RTVSPropertyOp31
 70
     1
102
RTVSPropertyOp32
 70
     1
102
RTVSPropertyOp33
 70
     1
102
RTVSPropertyOp34
 70
     1
102
RTVSPropertyOp35
 70
     1
102
RTVSPropertyOp36
 70
     1
102
RTVSPropertyOp37
 70
     1
102
RTVSPropertyOp38
 70
     1
102
RTVSPropertyOp39
 70
     1
102
RTVSPropertyOp40
 70
     1
102
RTVSPropertyOp41
 70
     1
102
RTVSPropertyOp42
 70
     1
102
RTVSPropertyOp43
 70
     1
102
RTVSPropertyOp44
 70
     1
102
RTVSPropertyOp45
 70
     1
102
RTVSPropertyOp46
 70
     1
102
RTVSPropertyOp47
 70
     1
102
RTVSPropertyOp48
 70
     1
102
RTVSPropertyOp49
 70
     1
102
RTVSPropertyOp50
 70
     1
102
RTVSPropertyOp51
 70
     0
102
RTVSPropertyOp52
 70
     0
102
RTVSPropertyOp53
 70
     1
102
RTVSPropertyOp54
 70
     1
102
RTVSPropertyOp55
 70
     1
102
RTVSPropertyOp56
 70
     1
102
RTVSPropertyOp57
 70
     1
102
RTVSPost2010Prop28
280
     0
102
RTVSPost2010PropOp28
 70
     1
102
RTVSPost2010Prop29
280
     1
102
RTVSPost2010PropOp29
 70
     1
102
RTVSPost2010Prop30
280
     1
102
RTVSPost2010PropOp30
 70
     1
102
RTVSPost2010Prop31
280
     0
102
RTVSPost2010PropOp31
 70
     1
102
RTVSPost2010Prop32
280
     0
102
RTVSPost2010PropOp32
 70
     1
102
RTVSPost2010Prop33
280
     0
102
RTVSPost2010PropOp33
 70
     1
102
RTVSPost2010Prop34
280
     0
102
RTVSPost2010PropOp34
 70
     1
102
RTVSPost2010Prop35
280
     0
102
RTVSPost2010PropOp35
 70
     1
102
RTVSPost2010Prop36
280
     0
102
RTVSPost2010PropOp36
 70
     1
102
RTVSPost2010Prop37
 90
       50
102
RTVSPost2010PropOp37
 70
     1
102
RTVSPost2010Prop38
140
0.0
102
RTVSPost2010PropOp38
 70
     1
102
RTVSPost2010Prop39
140
1.0
102
RTVSPost2010PropOp39
 70
     1
102
RTVSPost2010Prop40
 90
        0
102
RTVSPost2010PropOp40
 70
     1
102
RTVSPost2010Prop41ColorIndex
 90
       18
102
RTVSPost2010Prop41ColorRGB
 90
        0
102
RTVSPost2010PropOp41
 70
     1
102
RTVSPost2010Prop42
 90
       50
102
RTVSPost2010PropOp42
 70
     1
102
RTVSPost2010Prop43
 90
        3
102
RTVSPost2010PropOp43
 70
     1
102
RTVSPost2010Prop44ColorIndex
 90
        5
102
RTVSPost2010Prop44ColorRGB
 90
      255
102
RTVSPost2010PropOp44
 70
     1
102
RTVSPost2010Prop45
280
     0
102
RTVSPost2010PropOp45
 70
     1
102
RTVSPost2010Prop46
 90
       50
102
RTVSPost2010PropOp46
 70
     1
102
RTVSPost2010Prop47
 90
       50
102
RTVSPost2010PropOp47
 70
     1
102
RTVSPost2010Prop48
 90
       50
102
RTVSPost2010PropOp48
 70
     1
102
RTVSPost2010Prop49
280
     0
102
RTVSPost2010PropOp49
 70
     1
102
RTVSPost2010Prop50
 90
       50
102
RTVSPost2010PropOp50
 70
     1
102
RTVSPost2010Prop51ColorIndex
 90
      256
102
RTVSPost2010Prop51ColorRGB
 90
-16777216
102
RTVSPost2010PropOp51
 70
     0
102
RTVSPost2010Prop52
140
1.0
102
RTVSPost2010PropOp52
 70
     0
102
RTVSPost2010Prop53
 90
        2
102
RTVSPost2010PropOp53
 70
     1
102
RTVSPost2010Prop54
  1
strokes_ogs.tif
102
RTVSPost2010PropOp54
 70
     1
102
RTVSPost2010Prop55
280
     0
102
RTVSPost2010PropOp55
 70
     1
102
RTVSPost2010Prop56
140
1.0
102
RTVSPost2010PropOp56
 70
     1
102
RTVSPost2010Prop57
140
1.0
102
RTVSPost2010PropOp57
 70
     1
  0
XRECORD
  5
6CE
102
{ACAD_REACTORS
330
6CD
102
}
330
6CD
100
AcDbXrecord
280
     1
102
RTVSPropertyOp0
 70
     1
102
RTVSPropertyOp1
 70
     1
102
RTVSPropertyOp2
 70
     1
102
RTVSPropertyOp3
 70
     1
102
RTVSPropertyOp4
 70
     1
102
RTVSPropertyOp5
 70
     1
102
RTVSPropertyOp6
 70
     1
102
RTVSPropertyOp7
 70
     1
102
RTVSPropertyOp8
 70
     1
102
RTVSPropertyOp9
 70
     1
102
RTVSPropertyOp10
 70
     1
102
RTVSPropertyOp11
 70
     1
102
RTVSPropertyOp12
 70
     1
102
RTVSPropertyOp13
 70
     1
102
RTVSPropertyOp14
 70
     1
102
RTVSPropertyOp15
 70
     1
102
RTVSPropertyOp16
 70
     1
102
RTVSPropertyOp17
 70
     1
102
RTVSPropertyOp18
 70
     1
102
RTVSPropertyOp19
 70
     1
102
RTVSPropertyOp20
 70
     1
102
RTVSPropertyOp21
 70
     1
102
RTVSPropertyOp22
 70
     1
102
RTVSPropertyOp23
 70
     1
102
RTVSPropertyOp24
 70
     1
102
RTVSPropertyOp25
 70
     1
102
RTVSPropertyOp26
 70
     1
102
RTVSPropertyOp27
 70
     1
102
RTVSPropertyOp28
 70
     1
102
RTVSPropertyOp29
 70
     1
102
RTVSPropertyOp30
 70
     1
102
RTVSPropertyOp31
 70
     1
102
RTVSPropertyOp32
 70
     1
102
RTVSPropertyOp33
 70
     1
102
RTVSPropertyOp34
 70
     1
102
RTVSPropertyOp35
 70
     1
102
RTVSPropertyOp36
 70
     1
102
RTVSPropertyOp37
 70
     1
102
RTVSPropertyOp38
 70
     1
102
RTVSPropertyOp39
 70
     1
102
RTVSPropertyOp40
 70
     1
102
RTVSPropertyOp41
 70
     1
102
RTVSPropertyOp42
 70
     1
102
RTVSPropertyOp43
 70
     1
102
RTVSPropertyOp44
 70
     1
102
RTVSPropertyOp45
 70
     1
102
RTVSPropertyOp46
 70
     1
102
RTVSPropertyOp47
 70
     1
102
RTVSPropertyOp48
 70
     1
102
RTVSPropertyOp49
 70
     1
102
RTVSPropertyOp50
 70
     1
102
RTVSPropertyOp51
 70
     0
102
RTVSPropertyOp52
 70
     0
102
RTVSPropertyOp53
 70
     1
102
RTVSPropertyOp54
 70
     1
102
RTVSPropertyOp55
 70
     1
102
RTVSPropertyOp56
 70
     1
102
RTVSPropertyOp57
 70
     1
102
RTVSPost2010Prop28
280
     0
102
RTVSPost2010PropOp28
 70
     1
102
RTVSPost2010Prop29
280
     1
102
RTVSPost2010PropOp29
 70
     1
102
RTVSPost2010Prop30
280
     1
102
RTVSPost2010PropOp30
 70
     1
102
RTVSPost2010Prop31
280
     0
102
RTVSPost2010PropOp31
 70
     1
102
RTVSPost2010Prop32
280
     0
102
RTVSPost2010PropOp32
 70
     1
102
RTVSPost2010Prop33
280
     0
102
RTVSPost2010PropOp33
 70
     1
102
RTVSPost2010Prop34
280
     0
102
RTVSPost2010PropOp34
 70
     1
102
RTVSPost2010Prop35
280
     0
102
RTVSPost2010PropOp35
 70
     1
102
RTVSPost2010Prop36
280
     0
102
RTVSPost2010PropOp36
 70
     1
102
RTVSPost2010Prop37
 90
       50
102
RTVSPost2010PropOp37
 70
     1
102
RTVSPost2010Prop38
140
0.0
102
RTVSPost2010PropOp38
 70
     1
102
RTVSPost2010Prop39
140
1.0
102
RTVSPost2010PropOp39
 70
     1
102
RTVSPost2010Prop40
 90
        0
102
RTVSPost2010PropOp40
 70
     1
102
RTVSPost2010Prop41ColorIndex
 90
       18
102
RTVSPost2010Prop41ColorRGB
 90
        0
102
RTVSPost2010PropOp41
 70
     1
102
RTVSPost2010Prop42
 90
       50
102
RTVSPost2010PropOp42
 70
     1
102
RTVSPost2010Prop43
 90
        3
102
RTVSPost2010PropOp43
 70
     1
102
RTVSPost2010Prop44ColorIndex
 90
        5
102
RTVSPost2010Prop44ColorRGB
 90
      255
102
RTVSPost2010PropOp44
 70
     1
102
RTVSPost2010Prop45
280
     0
102
RTVSPost2010PropOp45
 70
     1
102
RTVSPost2010Prop46
 90
       50
102
RTVSPost2010PropOp46
 70
     1
102
RTVSPost2010Prop47
 90
       50
102
RTVSPost2010PropOp47
 70
     1
102
RTVSPost2010Prop48
 90
       50
102
RTVSPost2010PropOp48
 70
     1
102
RTVSPost2010Prop49
280
     0
102
RTVSPost2010PropOp49
 70
     1
102
RTVSPost2010Prop50
 90
       50
102
RTVSPost2010PropOp50
 70
     1
102
RTVSPost2010Prop51ColorIndex
 90
      256
102
RTVSPost2010Prop51ColorRGB
 90
-16777216
102
RTVSPost2010PropOp51
 70
     0
102
RTVSPost2010Prop52
140
1.0
102
RTVSPost2010PropOp52
 70
     0
102
RTVSPost2010Prop53
 90
        2
102
RTVSPost2010PropOp53
 70
     1
102
RTVSPost2010Prop54
  1
strokes_ogs.tif
102
RTVSPost2010PropOp54
 70
     1
102
RTVSPost2010Prop55
280
     0
102
RTVSPost2010PropOp55
 70
     1
102
RTVSPost2010Prop56
140
1.0
102
RTVSPost2010PropOp56
 70
     1
102
RTVSPost2010Prop57
140
1.0
102
RTVSPost2010PropOp57
 70
     1
  0
XRECORD
  5
6CC
102
{ACAD_REACTORS
330
6CB
102
}
330
6CB
100
AcDbXrecord
280
     1
102
RTVSPropertyOp0
 70
     1
102
RTVSPropertyOp1
 70
     1
102
RTVSPropertyOp2
 70
     1
102
RTVSPropertyOp3
 70
     1
102
RTVSPropertyOp4
 70
     1
102
RTVSPropertyOp5
 70
     1
102
RTVSPropertyOp6
 70
     1
102
RTVSPropertyOp7
 70
     1
102
RTVSPropertyOp8
 70
     1
102
RTVSPropertyOp9
 70
     1
102
RTVSPropertyOp10
 70
     1
102
RTVSPropertyOp11
 70
     1
102
RTVSPropertyOp12
 70
     1
102
RTVSPropertyOp13
 70
     1
102
RTVSPropertyOp14
 70
     1
102
RTVSPropertyOp15
 70
     1
102
RTVSPropertyOp16
 70
     1
102
RTVSPropertyOp17
 70
     1
102
RTVSPropertyOp18
 70
     1
102
RTVSPropertyOp19
 70
     1
102
RTVSPropertyOp20
 70
     1
102
RTVSPropertyOp21
 70
     1
102
RTVSPropertyOp22
 70
     1
102
RTVSPropertyOp23
 70
     1
102
RTVSPropertyOp24
 70
     1
102
RTVSPropertyOp25
 70
     1
102
RTVSPropertyOp26
 70
     1
102
RTVSPropertyOp27
 70
     1
102
RTVSPropertyOp28
 70
     1
102
RTVSPropertyOp29
 70
     1
102
RTVSPropertyOp30
 70
     1
102
RTVSPropertyOp31
 70
     1
102
RTVSPropertyOp32
 70
     1
102
RTVSPropertyOp33
 70
     1
102
RTVSPropertyOp34
 70
     1
102
RTVSPropertyOp35
 70
     1
102
RTVSPropertyOp36
 70
     1
102
RTVSPropertyOp37
 70
     1
102
RTVSPropertyOp38
 70
     1
102
RTVSPropertyOp39
 70
     1
102
RTVSPropertyOp40
 70
     1
102
RTVSPropertyOp41
 70
     1
102
RTVSPropertyOp42
 70
     1
102
RTVSPropertyOp43
 70
     1
102
RTVSPropertyOp44
 70
     1
102
RTVSPropertyOp45
 70
     1
102
RTVSPropertyOp46
 70
     1
102
RTVSPropertyOp47
 70
     1
102
RTVSPropertyOp48
 70
     1
102
RTVSPropertyOp49
 70
     1
102
RTVSPropertyOp50
 70
     1
102
RTVSPropertyOp51
 70
     0
102
RTVSPropertyOp52
 70
     0
102
RTVSPropertyOp53
 70
     1
102
RTVSPropertyOp54
 70
     1
102
RTVSPropertyOp55
 70
     1
102
RTVSPropertyOp56
 70
     1
102
RTVSPropertyOp57
 70
     1
102
RTVSPost2010Prop28
280
     0
102
RTVSPost2010PropOp28
 70
     1
102
RTVSPost2010Prop29
280
     1
102
RTVSPost2010PropOp29
 70
     1
102
RTVSPost2010Prop30
280
     1
102
RTVSPost2010PropOp30
 70
     1
102
RTVSPost2010Prop31
280
     0
102
RTVSPost2010PropOp31
 70
     1
102
RTVSPost2010Prop32
280
     0
102
RTVSPost2010PropOp32
 70
     1
102
RTVSPost2010Prop33
280
     0
102
RTVSPost2010PropOp33
 70
     1
102
RTVSPost2010Prop34
280
     0
102
RTVSPost2010PropOp34
 70
     1
102
RTVSPost2010Prop35
280
     0
102
RTVSPost2010PropOp35
 70
     1
102
RTVSPost2010Prop36
280
     0
102
RTVSPost2010PropOp36
 70
     1
102
RTVSPost2010Prop37
 90
       50
102
RTVSPost2010PropOp37
 70
     1
102
RTVSPost2010Prop38
140
0.0
102
RTVSPost2010PropOp38
 70
     1
102
RTVSPost2010Prop39
140
1.0
102
RTVSPost2010PropOp39
 70
     1
102
RTVSPost2010Prop40
 90
        0
102
RTVSPost2010PropOp40
 70
     1
102
RTVSPost2010Prop41ColorIndex
 90
       18
102
RTVSPost2010Prop41ColorRGB
 90
        0
102
RTVSPost2010PropOp41
 70
     1
102
RTVSPost2010Prop42
 90
       50
102
RTVSPost2010PropOp42
 70
     1
102
RTVSPost2010Prop43
 90
        3
102
RTVSPost2010PropOp43
 70
     1
102
RTVSPost2010Prop44ColorIndex
 90
        5
102
RTVSPost2010Prop44ColorRGB
 90
      255
102
RTVSPost2010PropOp44
 70
     1
102
RTVSPost2010Prop45
280
     0
102
RTVSPost2010PropOp45
 70
     1
102
RTVSPost2010Prop46
 90
       50
102
RTVSPost2010PropOp46
 70
     1
102
RTVSPost2010Prop47
 90
       50
102
RTVSPost2010PropOp47
 70
     1
102
RTVSPost2010Prop48
 90
       50
102
RTVSPost2010PropOp48
 70
     1
102
RTVSPost2010Prop49
280
     0
102
RTVSPost2010PropOp49
 70
     1
102
RTVSPost2010Prop50
 90
       50
102
RTVSPost2010PropOp50
 70
     1
102
RTVSPost2010Prop51ColorIndex
 90
      256
102
RTVSPost2010Prop51ColorRGB
 90
-16777216
102
RTVSPost2010PropOp51
 70
     0
102
RTVSPost2010Prop52
140
1.0
102
RTVSPost2010PropOp52
 70
     0
102
RTVSPost2010Prop53
 90
        2
102
RTVSPost2010PropOp53
 70
     1
102
RTVSPost2010Prop54
  1
strokes_ogs.tif
102
RTVSPost2010PropOp54
 70
     1
102
RTVSPost2010Prop55
280
     0
102
RTVSPost2010PropOp55
 70
     1
102
RTVSPost2010Prop56
140
1.0
102
RTVSPost2010PropOp56
 70
     1
102
RTVSPost2010Prop57
140
1.0
102
RTVSPost2010PropOp57
 70
     1
  0
XRECORD
  5
6C6
102
{ACAD_REACTORS
330
6C5
102
}
330
6C5
100
AcDbXrecord
280
     1
102
RTVSPropertyOp0
 70
     1
102
RTVSPropertyOp1
 70
     1
102
RTVSPropertyOp2
 70
     1
102
RTVSPropertyOp3
 70
     1
102
RTVSPropertyOp4
 70
     1
102
RTVSPropertyOp5
 70
     1
102
RTVSPropertyOp6
 70
     1
102
RTVSPropertyOp7
 70
     1
102
RTVSPropertyOp8
 70
     1
102
RTVSPropertyOp9
 70
     1
102
RTVSPropertyOp10
 70
     1
102
RTVSPropertyOp11
 70
     1
102
RTVSPropertyOp12
 70
     1
102
RTVSPropertyOp13
 70
     1
102
RTVSPropertyOp14
 70
     1
102
RTVSPropertyOp15
 70
     1
102
RTVSPropertyOp16
 70
     1
102
RTVSPropertyOp17
 70
     1
102
RTVSPropertyOp18
 70
     1
102
RTVSPropertyOp19
 70
     1
102
RTVSPropertyOp20
 70
     1
102
RTVSPropertyOp21
 70
     1
102
RTVSPropertyOp22
 70
     1
102
RTVSPropertyOp23
 70
     1
102
RTVSPropertyOp24
 70
     1
102
RTVSPropertyOp25
 70
     1
102
RTVSPropertyOp26
 70
     1
102
RTVSPropertyOp27
 70
     1
102
RTVSPropertyOp28
 70
     1
102
RTVSPropertyOp29
 70
     1
102
RTVSPropertyOp30
 70
     1
102
RTVSPropertyOp31
 70
     1
102
RTVSPropertyOp32
 70
     1
102
RTVSPropertyOp33
 70
     1
102
RTVSPropertyOp34
 70
     1
102
RTVSPropertyOp35
 70
     1
102
RTVSPropertyOp36
 70
     1
102
RTVSPropertyOp37
 70
     1
102
RTVSPropertyOp38
 70
     1
102
RTVSPropertyOp39
 70
     1
102
RTVSPropertyOp40
 70
     1
102
RTVSPropertyOp41
 70
     1
102
RTVSPropertyOp42
 70
     1
102
RTVSPropertyOp43
 70
     1
102
RTVSPropertyOp44
 70
     1
102
RTVSPropertyOp45
 70
     1
102
RTVSPropertyOp46
 70
     1
102
RTVSPropertyOp47
 70
     1
102
RTVSPropertyOp48
 70
     1
102
RTVSPropertyOp49
 70
     1
102
RTVSPropertyOp50
 70
     1
102
RTVSPropertyOp51
 70
     0
102
RTVSPropertyOp52
 70
     0
102
RTVSPropertyOp53
 70
     1
102
RTVSPropertyOp54
 70
     1
102
RTVSPropertyOp55
 70
     1
102
RTVSPropertyOp56
 70
     1
102
RTVSPropertyOp57
 70
     1
102
RTVSPost2010Prop28
280
     0
102
RTVSPost2010PropOp28
 70
     1
102
RTVSPost2010Prop29
280
     1
102
RTVSPost2010PropOp29
 70
     1
102
RTVSPost2010Prop30
280
     1
102
RTVSPost2010PropOp30
 70
     1
102
RTVSPost2010Prop31
280
     0
102
RTVSPost2010PropOp31
 70
     1
102
RTVSPost2010Prop32
280
     0
102
RTVSPost2010PropOp32
 70
     1
102
RTVSPost2010Prop33
280
     0
102
RTVSPost2010PropOp33
 70
     1
102
RTVSPost2010Prop34
280
     0
102
RTVSPost2010PropOp34
 70
     1
102
RTVSPost2010Prop35
280
     0
102
RTVSPost2010PropOp35
 70
     1
102
RTVSPost2010Prop36
280
     0
102
RTVSPost2010PropOp36
 70
     1
102
RTVSPost2010Prop37
 90
       50
102
RTVSPost2010PropOp37
 70
     1
102
RTVSPost2010Prop38
140
0.0
102
RTVSPost2010PropOp38
 70
     1
102
RTVSPost2010Prop39
140
1.0
102
RTVSPost2010PropOp39
 70
     1
102
RTVSPost2010Prop40
 90
        0
102
RTVSPost2010PropOp40
 70
     1
102
RTVSPost2010Prop41ColorIndex
 90
       18
102
RTVSPost2010Prop41ColorRGB
 90
        0
102
RTVSPost2010PropOp41
 70
     1
102
RTVSPost2010Prop42
 90
       50
102
RTVSPost2010PropOp42
 70
     1
102
RTVSPost2010Prop43
 90
        3
102
RTVSPost2010PropOp43
 70
     1
102
RTVSPost2010Prop44ColorIndex
 90
        5
102
RTVSPost2010Prop44ColorRGB
 90
      255
102
RTVSPost2010PropOp44
 70
     1
102
RTVSPost2010Prop45
280
     0
102
RTVSPost2010PropOp45
 70
     1
102
RTVSPost2010Prop46
 90
       50
102
RTVSPost2010PropOp46
 70
     1
102
RTVSPost2010Prop47
 90
       50
102
RTVSPost2010PropOp47
 70
     1
102
RTVSPost2010Prop48
 90
       50
102
RTVSPost2010PropOp48
 70
     1
102
RTVSPost2010Prop49
280
     0
102
RTVSPost2010PropOp49
 70
     1
102
RTVSPost2010Prop50
 90
       50
102
RTVSPost2010PropOp50
 70
     1
102
RTVSPost2010Prop51ColorIndex
 90
      256
102
RTVSPost2010Prop51ColorRGB
 90
-16777216
102
RTVSPost2010PropOp51
 70
     0
102
RTVSPost2010Prop52
140
1.0
102
RTVSPost2010PropOp52
 70
     0
102
RTVSPost2010Prop53
 90
        2
102
RTVSPost2010PropOp53
 70
     1
102
RTVSPost2010Prop54
  1
strokes_ogs.tif
102
RTVSPost2010PropOp54
 70
     1
102
RTVSPost2010Prop55
280
     0
102
RTVSPost2010PropOp55
 70
     1
102
RTVSPost2010Prop56
140
1.0
102
RTVSPost2010PropOp56
 70
     1
102
RTVSPost2010Prop57
140
1.0
102
RTVSPost2010PropOp57
 70
     1
  0
XRECORD
  5
6C8
102
{ACAD_REACTORS
330
6C7
102
}
330
6C7
100
AcDbXrecord
280
     1
102
RTVSPropertyOp0
 70
     1
102
RTVSPropertyOp1
 70
     1
102
RTVSPropertyOp2
 70
     1
102
RTVSPropertyOp3
 70
     1
102
RTVSPropertyOp4
 70
     1
102
RTVSPropertyOp5
 70
     1
102
RTVSPropertyOp6
 70
     1
102
RTVSPropertyOp7
 70
     1
102
RTVSPropertyOp8
 70
     1
102
RTVSPropertyOp9
 70
     1
102
RTVSPropertyOp10
 70
     1
102
RTVSPropertyOp11
 70
     1
102
RTVSPropertyOp12
 70
     1
102
RTVSPropertyOp13
 70
     1
102
RTVSPropertyOp14
 70
     1
102
RTVSPropertyOp15
 70
     1
102
RTVSPropertyOp16
 70
     1
102
RTVSPropertyOp17
 70
     1
102
RTVSPropertyOp18
 70
     1
102
RTVSPropertyOp19
 70
     1
102
RTVSPropertyOp20
 70
     1
102
RTVSPropertyOp21
 70
     1
102
RTVSPropertyOp22
 70
     1
102
RTVSPropertyOp23
 70
     1
102
RTVSPropertyOp24
 70
     1
102
RTVSPropertyOp25
 70
     1
102
RTVSPropertyOp26
 70
     1
102
RTVSPropertyOp27
 70
     1
102
RTVSPropertyOp28
 70
     1
102
RTVSPropertyOp29
 70
     1
102
RTVSPropertyOp30
 70
     1
102
RTVSPropertyOp31
 70
     1
102
RTVSPropertyOp32
 70
     1
102
RTVSPropertyOp33
 70
     1
102
RTVSPropertyOp34
 70
     1
102
RTVSPropertyOp35
 70
     1
102
RTVSPropertyOp36
 70
     1
102
RTVSPropertyOp37
 70
     1
102
RTVSPropertyOp38
 70
     1
102
RTVSPropertyOp39
 70
     1
102
RTVSPropertyOp40
 70
     1
102
RTVSPropertyOp41
 70
     1
102
RTVSPropertyOp42
 70
     1
102
RTVSPropertyOp43
 70
     1
102
RTVSPropertyOp44
 70
     1
102
RTVSPropertyOp45
 70
     1
102
RTVSPropertyOp46
 70
     1
102
RTVSPropertyOp47
 70
     1
102
RTVSPropertyOp48
 70
     1
102
RTVSPropertyOp49
 70
     1
102
RTVSPropertyOp50
 70
     1
102
RTVSPropertyOp51
 70
     0
102
RTVSPropertyOp52
 70
     0
102
RTVSPropertyOp53
 70
     1
102
RTVSPropertyOp54
 70
     1
102
RTVSPropertyOp55
 70
     1
102
RTVSPropertyOp56
 70
     1
102
RTVSPropertyOp57
 70
     1
102
RTVSPost2010Prop28
280
     0
102
RTVSPost2010PropOp28
 70
     1
102
RTVSPost2010Prop29
280
     1
102
RTVSPost2010PropOp29
 70
     1
102
RTVSPost2010Prop30
280
     1
102
RTVSPost2010PropOp30
 70
     1
102
RTVSPost2010Prop31
280
     0
102
RTVSPost2010PropOp31
 70
     1
102
RTVSPost2010Prop32
280
     0
102
RTVSPost2010PropOp32
 70
     1
102
RTVSPost2010Prop33
280
     0
102
RTVSPost2010PropOp33
 70
     1
102
RTVSPost2010Prop34
280
     0
102
RTVSPost2010PropOp34
 70
     1
102
RTVSPost2010Prop35
280
     0
102
RTVSPost2010PropOp35
 70
     1
102
RTVSPost2010Prop36
280
     0
102
RTVSPost2010PropOp36
 70
     1
102
RTVSPost2010Prop37
 90
       50
102
RTVSPost2010PropOp37
 70
     1
102
RTVSPost2010Prop38
140
0.0
102
RTVSPost2010PropOp38
 70
     1
102
RTVSPost2010Prop39
140
1.0
102
RTVSPost2010PropOp39
 70
     1
102
RTVSPost2010Prop40
 90
        0
102
RTVSPost2010PropOp40
 70
     1
102
RTVSPost2010Prop41ColorIndex
 90
       18
102
RTVSPost2010Prop41ColorRGB
 90
        0
102
RTVSPost2010PropOp41
 70
     1
102
RTVSPost2010Prop42
 90
       50
102
RTVSPost2010PropOp42
 70
     1
102
RTVSPost2010Prop43
 90
        3
102
RTVSPost2010PropOp43
 70
     1
102
RTVSPost2010Prop44ColorIndex
 90
        5
102
RTVSPost2010Prop44ColorRGB
 90
      255
102
RTVSPost2010PropOp44
 70
     1
102
RTVSPost2010Prop45
280
     0
102
RTVSPost2010PropOp45
 70
     1
102
RTVSPost2010Prop46
 90
       50
102
RTVSPost2010PropOp46
 70
     1
102
RTVSPost2010Prop47
 90
       50
102
RTVSPost2010PropOp47
 70
     1
102
RTVSPost2010Prop48
 90
       50
102
RTVSPost2010PropOp48
 70
     1
102
RTVSPost2010Prop49
280
     0
102
RTVSPost2010PropOp49
 70
     1
102
RTVSPost2010Prop50
 90
       50
102
RTVSPost2010PropOp50
 70
     1
102
RTVSPost2010Prop51ColorIndex
 90
      256
102
RTVSPost2010Prop51ColorRGB
 90
-16777216
102
RTVSPost2010PropOp51
 70
     0
102
RTVSPost2010Prop52
140
1.0
102
RTVSPost2010PropOp52
 70
     0
102
RTVSPost2010Prop53
 90
        2
102
RTVSPost2010PropOp53
 70
     1
102
RTVSPost2010Prop54
  1
strokes_ogs.tif
102
RTVSPost2010PropOp54
 70
     1
102
RTVSPost2010Prop55
280
     0
102
RTVSPost2010PropOp55
 70
     1
102
RTVSPost2010Prop56
140
1.0
102
RTVSPost2010PropOp56
 70
     1
102
RTVSPost2010Prop57
140
1.0
102
RTVSPost2010PropOp57
 70
     1
  0
XRECORD
  5
6B8
102
{ACAD_REACTORS
330
6B7
102
}
330
6B7
100
AcDbXrecord
280
     1
102
RTVSPropertyOp0
 70
     1
102
RTVSPropertyOp1
 70
     1
102
RTVSPropertyOp2
 70
     1
102
RTVSPropertyOp3
 70
     1
102
RTVSPropertyOp4
 70
     1
102
RTVSPropertyOp5
 70
     1
102
RTVSPropertyOp6
 70
     1
102
RTVSPropertyOp7
 70
     1
102
RTVSPropertyOp8
 70
     1
102
RTVSPropertyOp9
 70
     1
102
RTVSPropertyOp10
 70
     1
102
RTVSPropertyOp11
 70
     1
102
RTVSPropertyOp12
 70
     1
102
RTVSPropertyOp13
 70
     1
102
RTVSPropertyOp14
 70
     1
102
RTVSPropertyOp15
 70
     1
102
RTVSPropertyOp16
 70
     1
102
RTVSPropertyOp17
 70
     1
102
RTVSPropertyOp18
 70
     1
102
RTVSPropertyOp19
 70
     1
102
RTVSPropertyOp20
 70
     1
102
RTVSPropertyOp21
 70
     1
102
RTVSPropertyOp22
 70
     1
102
RTVSPropertyOp23
 70
     1
102
RTVSPropertyOp24
 70
     1
102
RTVSPropertyOp25
 70
     1
102
RTVSPropertyOp26
 70
     1
102
RTVSPropertyOp27
 70
     1
102
RTVSPropertyOp28
 70
     1
102
RTVSPropertyOp29
 70
     1
102
RTVSPropertyOp30
 70
     1
102
RTVSPropertyOp31
 70
     1
102
RTVSPropertyOp32
 70
     1
102
RTVSPropertyOp33
 70
     1
102
RTVSPropertyOp34
 70
     1
102
RTVSPropertyOp35
 70
     1
102
RTVSPropertyOp36
 70
     1
102
RTVSPropertyOp37
 70
     1
102
RTVSPropertyOp38
 70
     1
102
RTVSPropertyOp39
 70
     1
102
RTVSPropertyOp40
 70
     1
102
RTVSPropertyOp41
 70
     1
102
RTVSPropertyOp42
 70
     1
102
RTVSPropertyOp43
 70
     1
102
RTVSPropertyOp44
 70
     1
102
RTVSPropertyOp45
 70
     1
102
RTVSPropertyOp46
 70
     1
102
RTVSPropertyOp47
 70
     1
102
RTVSPropertyOp48
 70
     1
102
RTVSPropertyOp49
 70
     1
102
RTVSPropertyOp50
 70
     1
102
RTVSPropertyOp51
 70
     0
102
RTVSPropertyOp52
 70
     0
102
RTVSPropertyOp53
 70
     1
102
RTVSPropertyOp54
 70
     1
102
RTVSPropertyOp55
 70
     1
102
RTVSPropertyOp56
 70
     1
102
RTVSPropertyOp57
 70
     1
102
RTVSPost2010Prop28
280
     0
102
RTVSPost2010PropOp28
 70
     1
102
RTVSPost2010Prop29
280
     1
102
RTVSPost2010PropOp29
 70
     1
102
RTVSPost2010Prop30
280
     1
102
RTVSPost2010PropOp30
 70
     1
102
RTVSPost2010Prop31
280
     0
102
RTVSPost2010PropOp31
 70
     1
102
RTVSPost2010Prop32
280
     0
102
RTVSPost2010PropOp32
 70
     1
102
RTVSPost2010Prop33
280
     0
102
RTVSPost2010PropOp33
 70
     1
102
RTVSPost2010Prop34
280
     0
102
RTVSPost2010PropOp34
 70
     1
102
RTVSPost2010Prop35
280
     0
102
RTVSPost2010PropOp35
 70
     1
102
RTVSPost2010Prop36
280
     0
102
RTVSPost2010PropOp36
 70
     1
102
RTVSPost2010Prop37
 90
       50
102
RTVSPost2010PropOp37
 70
     1
102
RTVSPost2010Prop38
140
0.0
102
RTVSPost2010PropOp38
 70
     1
102
RTVSPost2010Prop39
140
1.0
102
RTVSPost2010PropOp39
 70
     1
102
RTVSPost2010Prop40
 90
        0
102
RTVSPost2010PropOp40
 70
     1
102
RTVSPost2010Prop41ColorIndex
 90
       18
102
RTVSPost2010Prop41ColorRGB
 90
        0
102
RTVSPost2010PropOp41
 70
     1
102
RTVSPost2010Prop42
 90
       50
102
RTVSPost2010PropOp42
 70
     1
102
RTVSPost2010Prop43
 90
        3
102
RTVSPost2010PropOp43
 70
     1
102
RTVSPost2010Prop44ColorIndex
 90
        5
102
RTVSPost2010Prop44ColorRGB
 90
      255
102
RTVSPost2010PropOp44
 70
     1
102
RTVSPost2010Prop45
280
     0
102
RTVSPost2010PropOp45
 70
     1
102
RTVSPost2010Prop46
 90
       50
102
RTVSPost2010PropOp46
 70
     1
102
RTVSPost2010Prop47
 90
       50
102
RTVSPost2010PropOp47
 70
     1
102
RTVSPost2010Prop48
 90
       50
102
RTVSPost2010PropOp48
 70
     1
102
RTVSPost2010Prop49
280
     0
102
RTVSPost2010PropOp49
 70
     1
102
RTVSPost2010Prop50
 90
       50
102
RTVSPost2010PropOp50
 70
     1
102
RTVSPost2010Prop51ColorIndex
 90
      256
102
RTVSPost2010Prop51ColorRGB
 90
-16777216
102
RTVSPost2010PropOp51
 70
     0
102
RTVSPost2010Prop52
140
1.0
102
RTVSPost2010PropOp52
 70
     0
102
RTVSPost2010Prop53
 90
        2
102
RTVSPost2010PropOp53
 70
     1
102
RTVSPost2010Prop54
  1
strokes_ogs.tif
102
RTVSPost2010PropOp54
 70
     1
102
RTVSPost2010Prop55
280
     0
102
RTVSPost2010PropOp55
 70
     1
102
RTVSPost2010Prop56
140
1.0
102
RTVSPost2010PropOp56
 70
     1
102
RTVSPost2010Prop57
140
1.0
102
RTVSPost2010PropOp57
 70
     1
  0
XRECORD
  5
6A2
102
{ACAD_REACTORS
330
6A1
102
}
330
6A1
100
AcDbXrecord
280
     1
102
RTVSPropertyOp0
 70
     1
102
RTVSPropertyOp1
 70
     1
102
RTVSPropertyOp2
 70
     1
102
RTVSPropertyOp3
 70
     1
102
RTVSPropertyOp4
 70
     1
102
RTVSPropertyOp5
 70
     1
102
RTVSPropertyOp6
 70
     1
102
RTVSPropertyOp7
 70
     1
102
RTVSPropertyOp8
 70
     1
102
RTVSPropertyOp9
 70
     1
102
RTVSPropertyOp10
 70
     1
102
RTVSPropertyOp11
 70
     1
102
RTVSPropertyOp12
 70
     1
102
RTVSPropertyOp13
 70
     1
102
RTVSPropertyOp14
 70
     1
102
RTVSPropertyOp15
 70
     1
102
RTVSPropertyOp16
 70
     1
102
RTVSPropertyOp17
 70
     1
102
RTVSPropertyOp18
 70
     1
102
RTVSPropertyOp19
 70
     1
102
RTVSPropertyOp20
 70
     1
102
RTVSPropertyOp21
 70
     1
102
RTVSPropertyOp22
 70
     1
102
RTVSPropertyOp23
 70
     1
102
RTVSPropertyOp24
 70
     1
102
RTVSPropertyOp25
 70
     1
102
RTVSPropertyOp26
 70
     1
102
RTVSPropertyOp27
 70
     1
102
RTVSPropertyOp28
 70
     1
102
RTVSPropertyOp29
 70
     1
102
RTVSPropertyOp30
 70
     1
102
RTVSPropertyOp31
 70
     1
102
RTVSPropertyOp32
 70
     1
102
RTVSPropertyOp33
 70
     1
102
RTVSPropertyOp34
 70
     1
102
RTVSPropertyOp35
 70
     1
102
RTVSPropertyOp36
 70
     1
102
RTVSPropertyOp37
 70
     1
102
RTVSPropertyOp38
 70
     1
102
RTVSPropertyOp39
 70
     1
102
RTVSPropertyOp40
 70
     1
102
RTVSPropertyOp41
 70
     1
102
RTVSPropertyOp42
 70
     1
102
RTVSPropertyOp43
 70
     1
102
RTVSPropertyOp44
 70
     1
102
RTVSPropertyOp45
 70
     1
102
RTVSPropertyOp46
 70
     1
102
RTVSPropertyOp47
 70
     1
102
RTVSPropertyOp48
 70
     1
102
RTVSPropertyOp49
 70
     1
102
RTVSPropertyOp50
 70
     1
102
RTVSPropertyOp51
 70
     0
102
RTVSPropertyOp52
 70
     0
102
RTVSPropertyOp53
 70
     1
102
RTVSPropertyOp54
 70
     1
102
RTVSPropertyOp55
 70
     1
102
RTVSPropertyOp56
 70
     1
102
RTVSPropertyOp57
 70
     1
102
RTVSPost2010Prop28
280
     0
102
RTVSPost2010PropOp28
 70
     1
102
RTVSPost2010Prop29
280
     1
102
RTVSPost2010PropOp29
 70
     1
102
RTVSPost2010Prop30
280
     1
102
RTVSPost2010PropOp30
 70
     1
102
RTVSPost2010Prop31
280
     0
102
RTVSPost2010PropOp31
 70
     1
102
RTVSPost2010Prop32
280
     0
102
RTVSPost2010PropOp32
 70
     1
102
RTVSPost2010Prop33
280
     0
102
RTVSPost2010PropOp33
 70
     1
102
RTVSPost2010Prop34
280
     0
102
RTVSPost2010PropOp34
 70
     1
102
RTVSPost2010Prop35
280
     0
102
RTVSPost2010PropOp35
 70
     1
102
RTVSPost2010Prop36
280
     0
102
RTVSPost2010PropOp36
 70
     1
102
RTVSPost2010Prop37
 90
       50
102
RTVSPost2010PropOp37
 70
     1
102
RTVSPost2010Prop38
140
0.0
102
RTVSPost2010PropOp38
 70
     1
102
RTVSPost2010Prop39
140
1.0
102
RTVSPost2010PropOp39
 70
     1
102
RTVSPost2010Prop40
 90
        0
102
RTVSPost2010PropOp40
 70
     1
102
RTVSPost2010Prop41ColorIndex
 90
       18
102
RTVSPost2010Prop41ColorRGB
 90
        0
102
RTVSPost2010PropOp41
 70
     1
102
RTVSPost2010Prop42
 90
       50
102
RTVSPost2010PropOp42
 70
     1
102
RTVSPost2010Prop43
 90
        3
102
RTVSPost2010PropOp43
 70
     1
102
RTVSPost2010Prop44ColorIndex
 90
        5
102
RTVSPost2010Prop44ColorRGB
 90
      255
102
RTVSPost2010PropOp44
 70
     1
102
RTVSPost2010Prop45
280
     0
102
RTVSPost2010PropOp45
 70
     1
102
RTVSPost2010Prop46
 90
       50
102
RTVSPost2010PropOp46
 70
     1
102
RTVSPost2010Prop47
 90
       50
102
RTVSPost2010PropOp47
 70
     1
102
RTVSPost2010Prop48
 90
       50
102
RTVSPost2010PropOp48
 70
     1
102
RTVSPost2010Prop49
280
     0
102
RTVSPost2010PropOp49
 70
     1
102
RTVSPost2010Prop50
 90
       50
102
RTVSPost2010PropOp50
 70
     1
102
RTVSPost2010Prop51ColorIndex
 90
      256
102
RTVSPost2010Prop51ColorRGB
 90
-16777216
102
RTVSPost2010PropOp51
 70
     0
102
RTVSPost2010Prop52
140
1.0
102
RTVSPost2010PropOp52
 70
     0
102
RTVSPost2010Prop53
 90
        2
102
RTVSPost2010PropOp53
 70
     1
102
RTVSPost2010Prop54
  1
strokes_ogs.tif
102
RTVSPost2010PropOp54
 70
     1
102
RTVSPost2010Prop55
280
     0
102
RTVSPost2010PropOp55
 70
     1
102
RTVSPost2010Prop56
140
1.0
102
RTVSPost2010PropOp56
 70
     1
102
RTVSPost2010Prop57
140
1.0
102
RTVSPost2010PropOp57
 70
     1
  0
XRECORD
  5
6CA
102
{ACAD_REACTORS
330
6C9
102
}
330
6C9
100
AcDbXrecord
280
     1
102
RTVSPropertyOp0
 70
     1
102
RTVSPropertyOp1
 70
     1
102
RTVSPropertyOp2
 70
     1
102
RTVSPropertyOp3
 70
     1
102
RTVSPropertyOp4
 70
     1
102
RTVSPropertyOp5
 70
     1
102
RTVSPropertyOp6
 70
     1
102
RTVSPropertyOp7
 70
     1
102
RTVSPropertyOp8
 70
     1
102
RTVSPropertyOp9
 70
     1
102
RTVSPropertyOp10
 70
     1
102
RTVSPropertyOp11
 70
     1
102
RTVSPropertyOp12
 70
     1
102
RTVSPropertyOp13
 70
     1
102
RTVSPropertyOp14
 70
     1
102
RTVSPropertyOp15
 70
     1
102
RTVSPropertyOp16
 70
     1
102
RTVSPropertyOp17
 70
     1
102
RTVSPropertyOp18
 70
     1
102
RTVSPropertyOp19
 70
     1
102
RTVSPropertyOp20
 70
     1
102
RTVSPropertyOp21
 70
     1
102
RTVSPropertyOp22
 70
     1
102
RTVSPropertyOp23
 70
     1
102
RTVSPropertyOp24
 70
     1
102
RTVSPropertyOp25
 70
     1
102
RTVSPropertyOp26
 70
     1
102
RTVSPropertyOp27
 70
     1
102
RTVSPropertyOp28
 70
     1
102
RTVSPropertyOp29
 70
     1
102
RTVSPropertyOp30
 70
     1
102
RTVSPropertyOp31
 70
     1
102
RTVSPropertyOp32
 70
     1
102
RTVSPropertyOp33
 70
     1
102
RTVSPropertyOp34
 70
     1
102
RTVSPropertyOp35
 70
     1
102
RTVSPropertyOp36
 70
     1
102
RTVSPropertyOp37
 70
     1
102
RTVSPropertyOp38
 70
     1
102
RTVSPropertyOp39
 70
     1
102
RTVSPropertyOp40
 70
     1
102
RTVSPropertyOp41
 70
     1
102
RTVSPropertyOp42
 70
     1
102
RTVSPropertyOp43
 70
     1
102
RTVSPropertyOp44
 70
     1
102
RTVSPropertyOp45
 70
     1
102
RTVSPropertyOp46
 70
     1
102
RTVSPropertyOp47
 70
     1
102
RTVSPropertyOp48
 70
     1
102
RTVSPropertyOp49
 70
     1
102
RTVSPropertyOp50
 70
     1
102
RTVSPropertyOp51
 70
     0
102
RTVSPropertyOp52
 70
     0
102
RTVSPropertyOp53
 70
     1
102
RTVSPropertyOp54
 70
     1
102
RTVSPropertyOp55
 70
     1
102
RTVSPropertyOp56
 70
     1
102
RTVSPropertyOp57
 70
     1
102
RTVSPost2010Prop28
280
     0
102
RTVSPost2010PropOp28
 70
     1
102
RTVSPost2010Prop29
280
     1
102
RTVSPost2010PropOp29
 70
     1
102
RTVSPost2010Prop30
280
     1
102
RTVSPost2010PropOp30
 70
     1
102
RTVSPost2010Prop31
280
     0
102
RTVSPost2010PropOp31
 70
     1
102
RTVSPost2010Prop32
280
     0
102
RTVSPost2010PropOp32
 70
     1
102
RTVSPost2010Prop33
280
     0
102
RTVSPost2010PropOp33
 70
     1
102
RTVSPost2010Prop34
280
     0
102
RTVSPost2010PropOp34
 70
     1
102
RTVSPost2010Prop35
280
     0
102
RTVSPost2010PropOp35
 70
     1
102
RTVSPost2010Prop36
280
     0
102
RTVSPost2010PropOp36
 70
     1
102
RTVSPost2010Prop37
 90
       50
102
RTVSPost2010PropOp37
 70
     1
102
RTVSPost2010Prop38
140
0.0
102
RTVSPost2010PropOp38
 70
     1
102
RTVSPost2010Prop39
140
1.0
102
RTVSPost2010PropOp39
 70
     1
102
RTVSPost2010Prop40
 90
        0
102
RTVSPost2010PropOp40
 70
     1
102
RTVSPost2010Prop41ColorIndex
 90
       18
102
RTVSPost2010Prop41ColorRGB
 90
        0
102
RTVSPost2010PropOp41
 70
     1
102
RTVSPost2010Prop42
 90
       50
102
RTVSPost2010PropOp42
 70
     1
102
RTVSPost2010Prop43
 90
        3
102
RTVSPost2010PropOp43
 70
     1
102
RTVSPost2010Prop44ColorIndex
 90
        5
102
RTVSPost2010Prop44ColorRGB
 90
      255
102
RTVSPost2010PropOp44
 70
     1
102
RTVSPost2010Prop45
280
     0
102
RTVSPost2010PropOp45
 70
     1
102
RTVSPost2010Prop46
 90
       50
102
RTVSPost2010PropOp46
 70
     1
102
RTVSPost2010Prop47
 90
       50
102
RTVSPost2010PropOp47
 70
     1
102
RTVSPost2010Prop48
 90
       50
102
RTVSPost2010PropOp48
 70
     1
102
RTVSPost2010Prop49
280
     0
102
RTVSPost2010PropOp49
 70
     1
102
RTVSPost2010Prop50
 90
       50
102
RTVSPost2010PropOp50
 70
     1
102
RTVSPost2010Prop51ColorIndex
 90
      256
102
RTVSPost2010Prop51ColorRGB
 90
-16777216
102
RTVSPost2010PropOp51
 70
     0
102
RTVSPost2010Prop52
140
1.0
102
RTVSPost2010PropOp52
 70
     0
102
RTVSPost2010Prop53
 90
        2
102
RTVSPost2010PropOp53
 70
     1
102
RTVSPost2010Prop54
  1
strokes_ogs.tif
102
RTVSPost2010PropOp54
 70
     1
102
RTVSPost2010Prop55
280
     0
102
RTVSPost2010PropOp55
 70
     1
102
RTVSPost2010Prop56
140
1.0
102
RTVSPost2010PropOp56
 70
     1
102
RTVSPost2010Prop57
140
1.0
102
RTVSPost2010PropOp57
 70
     1
  0
ENDSEC
  0
SECTION
  2
THUMBNAILIMAGE
 90
    16364
310
28000000B4000000550000000100080000000000C43B000000000000000000000001000000010000FFFFFF000000FF0000FFFF0000FF0000FFFF0000FF000000FF00FF000000000080808000C0C0C0000000FF007F7FFF000000A5005252A50000007F003F3F7F0000004C0026264C000000260013132600003FFF007F9FFF
310
000029A5005267A500001F7F003F4F7F0000134C00262F4C000009260013172600007FFF007FBFFF000052A500527CA500003F7F003F5F7F0000264C0026394C0000132600131C260000BFFF007FDFFF00007CA5005291A500005F7F003F6F7F0000394C0026424C00001C26001321260000FFFF007FFFFF0000A5A50052A5
310
A500007F7F003F7F7F00004C4C00264C4C00002626001326260000FFBF007FFFDF0000A57C0052A59100007F5F003F7F6F00004C3900264C420000261C001326210000FF7F007FFFBF0000A5520052A57C00007F3F003F7F5F00004C2600264C39000026130013261C0000FF3F007FFF9F0000A5290052A56700007F1F003F
310
7F4F00004C1300264C2F00002609001326170000FF00007FFF7F0000A5000052A55200007F00003F7F3F00004C0000264C260000260000132613003FFF00009FFF7F0029A5000067A552001F7F00004F7F3F00134C00002F4C260009260000172613007FFF0000BFFF7F0052A500007CA552003F7F00005F7F3F00264C0000
310
394C2600132600001C261300BFFF0000DFFF7F007CA5000091A552005F7F00006F7F3F00394C0000424C26001C26000021261300FFFF0000FFFF7F00A5A50000A5A552007F7F00007F7F3F004C4C00004C4C26002626000026261300FFBF0000FFDF7F00A57C0000A59152007F5F00007F6F3F004C3900004C422600261C00
310
0026211300FF7F0000FFBF7F00A5520000A57C52007F3F00007F5F3F004C2600004C39260026130000261C1300FF3F0000FF9F7F00A5290000A56752007F1F00007F4F3F004C1300004C2F26002609000026171300FF000000FF7F7F00A5000000A55252007F0000007F3F3F004C0000004C2626002600000026131300FF00
310
3F00FF7F9F00A5002900A55267007F001F007F3F4F004C0013004C262F002600090026131700FF007F00FF7FBF00A5005200A5527C007F003F007F3F5F004C0026004C2639002600130026131C00FF00BF00FF7FDF00A5007C00A55291007F005F007F3F6F004C0039004C26420026001C0026132100FF00FF00FF7FFF00A5
310
00A500A552A5007F007F007F3F7F004C004C004C264C002600260026132600BF00FF00DF7FFF007C00A5009152A5005F007F006F3F7F0039004C0042264C001C002600211326007F00FF00BF7FFF005200A5007C52A5003F007F005F3F7F0026004C0039264C00130026001C1326003F00FF009F7FFF002900A5006752A500
310
1F007F004F3F7F0013004C002F264C000900260017132600000000002D2D2D005B5B5B0089898900B7B7B700B3B3B30000000000000000000000000000000000000000000000000000000000000000000000000000000000000000000000000000000000000000000000000000000000000000000000000000000000000000
310
00000000000000000000000000000000000000000000000000000000000000000000000000000000000000000000000000000000000000000000000000000000000000000000000000000000000000000000000000000000000000000000000000000000000000000000000000000000000000000000000000000000000000
310
00000000000000000000000000000000000000000000000000000000000000000000000000000000000000000000000000000000000000000000000000000000000000000000000000000000000000000000000000000000000000000000000000000000000000000000000000000000000000000000000000000000000000
310
00000000000000000000000000000000000000000000000000000000000000000000000000000000000000000000000000000000000000000000000000000000000000000000000000000000000000000000000000000000000000000000000000000000000000000000000000000000000000000000000000000000000000
310
00000000000000000000000000000000000000000000000000000000000000000000000000000000000000000000000000000000000000000000000000000000000000000000000000000000000000000000000000000000000000000000000000000000000000000000000000000000000000000000000000000000000000
310
00000000000000000000000000000000000000000000000000000000000000000000000000000000000000000000000000000000000000000000000000000000000000000000000000000000000000000000000000000000000000000000000000000000000000000000000000000000000000000000000000000000000000
310
00000000000000000000000000000000000000000000000000000000000000000000000000000000000000000000000000000000000000000000000000000000000000000000000000000000000000000000000000000000000000000000000000000000000000000000000000000000000000000000000000000000000000
310
00000000000000000000000000000000000000000000000000000000000000000000000000000000000000000000000000000000000000000000000000000000000000000000000000000000000000000000000000000000000000000000000000000000000000000000000000000000000000000000000000000000000000
310
00000000000000000000000000000000000000000000000000000000000000000000000000000000000000000000000000000000000000000000000000000000000000000000000000000000000000000000000000000000000000000000000000000000000000000000000000000000000000000000000000000000000000
310
00000000000000000000000000000000000000000000000000000000000000000000000000000000000000000000000000000000000000000000000000000000000000000000000000000000000000000000000000000000000000000000000000000000000000000000000000000000000000000000000000000000000000
310
00000000000000000000000000000000000000000000000000000000000000000000000000000000000000000000000000000000000000000000000000000000000000000000000000000000000000000000000000000000000000000000000000000000000000000000000000000000000000000000000000000000000000
310
00000000000000000000000000000000000000000000000000000000000000000000000000000000000000000000000000000000000000000000000000000000000000000000000000000000000000000000000000000000000000000000000000000000000000000000000000000000000000000000000000000000000000
310
00000000000000000000000000000000000000000000000000000000000000000000000000000000000000000000000000000000000000000000000000000000000000000000000000000000000000000000000000000000000000000000000000000000000000000000000000000000000000000000000000000000000000
310
00000000000000000000000000000000000000000000000000000000000000000000000000000000000000000000000000000000000000000000000000000001000000000000000000000000000000000000000000000100000000000000000000000000000000000000000000000000010000000000010000000000010000
310
00000000000000000000000000000000000000000000000000000000000000000000000000000000000000000000000000000000000000000000000000000000000000000000000000000000000000000000000000000000000000000000000000000000000000000000000000000000000303030303030303000000000000
310
00010000000000000303030303030303000000000002020202020200000000000000000003030103030303030303030303030103030000000000000000000000000000000000000000000000000000000000000000000000000000000000000000000000000000000000000000000000000000000000000000000000000000
310
00000000000000000000000000000000000000000000000000000000000000000000000000000003000001000003030303030303030301030303030303030303000303000300000000000000000000000000000000000000000300010000000000010000000000010003000000000000000000000000000000000000000000
310
00000000000000000000000000000000000000000000000000000000000000000000000000000000000000000000000000000000000000000000000000000000000000000000000000000000000000000000000000000000000000000303030303030303000303000000030301000003030003030303030303030000000000
310
00000000000000000000000000000003030103030303030303030303030103030000000000000000000000000000000000000000000000000000000000000000000000000000000000000000000000000000000000000000000000000000000000000000000000000000000000000000000000000000000000000000000000
310
00000000000000000000000000000000000003000001000000030300000303030301030303030003030000000100000300000000000000000000000000000000000000000000010003000100010000000300010000000000000000000000000000000000000000000000000000000000000000000000000000000000000000
310
00000000000000000000000000000000000000000000000000000000000000000000000000000000000000000000000000000000000000000000000000000000000000000000030303030303030303030303000000000100000000030300030303030303030303000000000000000000000000000000000000000003010303
310
03030301000003030300000000000000000000000000000000000000000000000000000000000000000000000000000000000000000000000000000000000000000000000000000000000000000000000000000000000000000000000000000000000000000000000000000000000000000000000000000000000103010000
310
00000300030000000000000001000000000000030303000000000103030000000000000000000000000000000000000000000303010303030300000303030000000000000000000000000000000000000000000000000000000000000000000000000000000000000000000000000000000000000000000000000000000000
310
00000000000000000000000000000000000000000000000000000000000000000000000000000000000000000000000000030300000000000300000000000000000100000000000000000300000000030303030303030000000000000000000000000000000000030003030303010000030003000000000000000000000000
310
00000000000000000000000000000000000000000000000000000000000000000000000000000000000000000000000000000000000000000000000000000000000000000000000000000000000000000000000000000000000000000000000000000000000001030301010101010101010101010103030101010101010101
310
01010101010303030101010301000000000000000000000000000000030303030103030101000300030000000000000000000000000000000000000000000000000000000000000000000000000000000000000000000000000000000000000000000000000000000000000000000000000000000000000000000000000000
310
00000000000000000000000000000000000000000000000000000000030300000003000000000000030301030303030303000000000003000000030303030303030000000000000000000000000000000003010001030301010000030003000000000000000000000000000000000000000000000000000000000000000000
310
00000000000000000000000000000000000000000000000000000000000000000000000000000000000000000000000000000000000000000000000000000000000000000000000000000000000000000103010003000300000303030100000003030300000003030303000300030001030300000000000000000000000000
310
00000000000000030303000100030300000300030000000000000000000000000000000000000000000000000000000000000000000000000000000000000000000000000000000000000000000000000000000000000000000000000000000000000000000000000000000000000000000000000000000000000000000000
310
00000000000000030303000303030300000001030000000100000000000000000303030003030303000000000000000000000000000000000000000003010303030303010001010103030000000000000000000000000000000000000000000000000000000000000000000000000000000000000000000000000000000000
310
00000000000000000000000000000000000000000000000000000000000000000000000000000000000000000000000000000000000000000000000000030300030000000101010101010101010000000001000000000003000303000000000000000000000000000000000000000000000303030001000100000003000303
310
00000000000000000000000000000000000000000000000000000000000000000000000000000000000000000000000000000000000000000000000000000000000000000000000000000000000000000000000000000000000000000000000000000000000000000000000000000000000003030003000000030300010000
310
03030100000303010303030000000303030000000000000000000000000000000000000000000101010300000001000000030103030000000000000000000000000000000000000000000000000000000000000000000000000000000000000000000000000000000000000000000000000000000000000000000000000000
310
00000000000000000000000000000000000000000000000000000000000000000000000000000000030303000000030103030303030301030003030101010303000000030303000000000000000000000000000003030303030303030101030000000100000003010103030303030303030000000000000000000000000000
310
00000000000000000000000000000000000000000000000000000000000000000000000000000000000000000000000000000000000000000000000000000000000000000000000000000000000000000000000000000000000000000003030300000001000303010003030101030103010103030303000003000300000000
310
00000000000000000000030300000000000303030300000001000000030003030000000000000300000000000000000000000000000000000000000000000000000000000000000000000000000000000000000000000000000000000000000000000000000000000000000000000000000000000000000000000000000000
310
00000000000000000000000000000000000001030101010101010103030101030301010101030101010301010101010103010000000000000000000000000003030101010101030303010101010101010101010303010101010101030000000000000000000000000000000000000000000000000000000000000000000000
310
00000000000000000000000000000000000000000000000000000000000000000000000000000000000000000000000000000000000000000000000000000000000000000000000003030300000001000303010003030101010101010101010101010003000300000000000000000000000000000303000000000003030303
310
00000001000000030003030000000000000300000000000000000000000000000000000000000000000000000000000000000000000000000000000000000000000000000000000000000000000000000000000000000000000000000000000000000000000000000000000000000000000000000000000000000000000303
310
03000000030103030303030101030301030301000301030000030003000000000000000000000000000003030303030303030303030000000100000003000303030303030303030000000000000000000000000000000000000000000000000000000000000000000000000000000000000000000000000000000000000000
310
00000000000000000000000000000000000000000000000000000000000000000000000000000000000000000000000000000003030003000000030300030300030301000303010103030303000003000300000000000000000000000000000000000000000001010103000000010000000301010300000000000000000000
310
00000000000000000000000000000000000000000000000000000000000000000000000000000000000000000000000000000000000000000000000000000000000000000000000000000000000000000000000000000000000000000000000000000000000000000303000300000003010101010101030100010301010103
310
03000000030303000000000000000000000000000000000000000000030303030000000100000003000303000000000000000000000000000000000000000000000000000000000000000000000000000000000000000000000000000000000000000000000000000000000000000000000000000000000000000000000000
310
00000000000000000000000000000000000000000000000000000000000003030003030303000003010303000001000000030103030303030300030300000000000000000000000000000000000000000000030303000000010000010101030300000000000000000000000000000000000000000000000000000000000000
310
00000000000000000000000000000000000000000000000000000000000000000000000000000000000000000000000000000000000000000000000000000000000000000000000000000000000000000000000300030003000003030301000000000100000000010303000000030300030000000000000000000000000000
310
00000000000000000003030000000100000003000300000000000000000000000000000000000000000000000000000000000000000000000000000000000000000000000000000000000000000000000000000000000000000000000000000000000000000000000000000000000000000000000000000000000000000000
310
00000000000000000003000300030000000000000303030303030303030000000000030003000300000000000000000000000000000000000000000000000303000000010000000300030000000000000000000000000000000000000000000000000000000000000000000000000000000000000000000000000000000000
310
00000000000000000000000000000000000000000000000000000000000000000000000000000000000000000000000000000000000000000000000000000300000300030000000000000000000100000000000000000300000300030000000000000000000000000000000000000000000000030300000001000000030003
310
00000000000000000000000000000000000000000000000000000000000000000000000000000000000000000000000000000000000000000000000000000000000000000000000000000000000000000000000000000000000000000000000000000000000000000000000000000000000000000300000300030000000000
310
00030303030300000000000300000300000300000000000000000000000000000000000000000000000303000000010000000300030000000000000000000000000000000000000000000000000000000000000000000000000000000000000000000000000000000000000000000000000000000000000000000000000000
310
00000000000000000000000000000000000000000000000000000000000000000000000000000000000003000003030003000000000003030303030000000003000003000000030000000000000000000000000000000000000000000000030300000001000000030003000000000000000000000000000000000000000000
310
00000000000000000000000000000000000000000000000000000000000000000000000000000000000000000000000000000000000000000000000000000000000000000000000000000000000000000000000000000000000000000000000300000000030003030300000303030303000003030000030000000300000000
310
00000000000000000000000000000000000000000303000000010000000300030000000000000000000000000000000000000000000000000000000000000000000000000000000000000000000000000000000000000000000000000000000000000000000000000000000000000000000000000000000000000000000000
310
00000000000000000000000000000000000000000003000000010003030000030300000100030303000303030000000003000000000000000000000000000000000000000000000000030300000001000001010103010000000000000000000000000000000000000000000000000000000000000000000000000000000000
310
00000000000000000000000000000000000000000000000000000000000000000000000000000000000000000000000000000000000000000000000000000000000000000000000000000303030301000000030000000303030300000003000000030303030300000000000000000000000000000000000000000000000003
310
03000000010000000300030000000000000000000000000000000000000000000000000000000000000000000000000000000000000000000000000000000000000000000000000000000000000000000000000000000000000000000000000000000000000000000000000000000000000000000000000000000000000000
310
00000003010303030303030303030303030303030303030000000000000000000000000000000000000000000000000000000000030303030303030303030303000000000000000000000000000000000000000000000000000000000000000000000000000000000000000000000000000000000000000000000000000000
310
00000000000000000000000000000000000000000000000000000000000000000000000000000000000000000000000000000000000000000001000000000000000003030300000000000000000000000000000000000000000000000000000000000000000000000000000003030303030000000000000000000000000000
310
00000000000000000000000000000000000000000000000000000000000000000000000000000000000000000000000000000000000000000000000000000000000000000000000000000000000000000000000000000000000000000000000000000000000000000000000000000000000000000000000101000000000000
310
00000000000000000000000000000000000000000000000000000000000000000000010301030300000000000000000000000000000000000000000000000000000000000000000000000000000000000000000000000000000000000000000000000000000000000000000000000000000000000000000000000000000000
310
00000000000000000000000000000000000000000000000000000000000000000000000000000000000000000003030000000000000000000000000000000000000000000000000000000000000000000000000000000000030303000000000000000000000000000000000000000000000000000000000000000000000000
310
00000000000000000000000000000000000000000000000000000000000000000000000000000000000000000000000000000000000000000000000000000000000000000000000000000000000000000000000000000000000000000000000000000303000000000000000000000000000000000000000000000000000000
310
00000000000000000000000000000003000000000000000000000000000000000000000000000000000000000000000000000000000000000000000000000000000000000000000000000000000000000000000000000000000000000000000000000000000000000000000000000000000000000000000000000000000000
310
00000000000000000000000000000000000000000000000000000000000000000000000000000000000000000000000000000000000000000000000000000000000000000000000000000000000000000000000000000000000000000000000000000000000000000000000000000000000000000000000000000000000000
310
00000000000000000000000000000000000000000000000000000000000000000000000000000000000000000000000000000000000000000000000000000000000000000000000000000000000000000000000000000000000000000000000000000000000000000000000000000000000000000000000000000000000000
310
00000000000000000000000000000000000000000000000000000000000000000000000000000000000000000000000000000000000000000000000000000000000000000000000000000000000000000000000000000000000000000000000000000000000000000000000000000000000000000000000000000000000000
310
00000000000000000000000000000000000000000000000000000000000000000000000000000000000000000000000000000000000000000000000000000000000000000000000000000000000000000000000000000000000000000000000000000000000000000000000000000000000000000000000000000000000000
310
00000000000000000000000000000000000000000000000000000000000000000000000000000000000000000000000000000000000000000000000000000000000000000000000000000000000000000000000000000000000000000000000000000000000000000000000000000000000000000000000000000000000000
310
00000000000000000000000000000000000000000000000000000000000000000000000000000000000000000000000000000000000000000000000000000000000000000000000000000000000000000000000000000000000000000000000000000000000000000000000000000000000000000000000000000000000000
310
00000000000000000000000000000000000000000000000000000000000000000000000000000000000000000000000000000000000000000000000000000000000000000000000000000000000000000000000000000000000000000000000000000000000000000000000000000000000000000000000000000000000000
310
00000000000000000000000000000000000000000000000000000000000000000000000000000000000000000000000000000000000000000000000000000000000000000000000000000000000000000000000000000000000000000000000000000000000000000000000000000000000000000000000000000000000000
310
00000000000000000000000000000000000000000000000000000000000000000000000000000000000000000000000000000000000000000000000000000000000000000000000000000000000000000000000000000000000000000000000000000000000000000000000000000000000000000000000000000000000000
310
00000000000000000000000000000000000000000000000000000000000000000000000000000000000000000000000000000000000000000000000000000000000000000000000000000000000000000000000000000000000000000000000000000000000000000000000000000000000000000000000000000000000000
310
00000000000000000000000000000000000000000000000000000000000000000000000000000000000000000000000000000000000000000000000000000000000000000000000000000000000000000000000000000000000000000000000000000000000000000000000000000000000000000000000000000000000000
310
00000000000000000000000000000000000000000000000000000000000000000000000000000000000000000000000000000000000000000000000000000001000000000000000000000000000000000000000000000000000000000000000000000000000000000000000000000000000000000000000000000000000000
310
00000000000000000000000000000000000000000000000000000000000000000000000000000000000000000000000000000000000000000000000000000000000000000000000000000000000000000000000000000000000000000000000000000000000000000000000000000000000000030303030000000000000000
310
00000000000000000000000000000000000000000000000000000000000000000000000000000000000000000000000000000000000000000000000000000000000000000000000000000000000000000000000000000000000000000000000000000000000000000000000000000000000000000000000000000000000000
310
00000000000000000000000000000000000000000000000000000000000000000000000000000000000303030300000000000000000000000000000000000000000000000000000000000000000000000000000000000000000000000000000000000000000000000000000000000000000000000000000000000000000000
310
00000000000000000000000000000000000000000000000000000000000000000000000000000000000000000000000000000000000000000000000000000000000000000000000000000000000000000000000000000000000000000000030303030000000000000000000000000000000000000000000000000000000000
310
00000000000000000000000000000000000000000000000000000000000000000000000000000000000000000000000000000000000000000000000000000000000000000000000000000000000000000000000000000000000000000000000000000000000000000000000000000000000000000000000000000000000000
310
00000000000000000000000000000000000000000303030300000000000000000000000000000000000000000000000000000000000000000000000000000000000000000000000000000000000000000000000000000000000000000000000000000000000000000000000000000000000000000000000000000000000000
310
00000000000000000000000000000000000000000000000000000000000000000000000000000000000000000000000000000000000000000000000000000000000000000000000000030303030000000000000000000000000000000000000000000000000000000000000000000000000000000000000000000000000000
310
00000000000000000000000000000000000000000000000000000000000000000000000000000000000000000000000000000000000000000000000000000000000000000000000000000000000000000000000000000000000000000000000000000000000000000000000000000000000000000003030303030303030003
310
03030300000000000000000000030303030303030000000000000000000000000000000000000000000000000000000000000000000000000000000000000000000000000000000000000000000000000000000000000000000000000000000000000000000000000000000000000000000000000000000000000000000000
310
00000000000000000000000000000000000000000000000000000000000000000000000000000000000000030000010000000303030303030303000003010001000301000001000003000000000000000000000000000000000000000000000000000000000000000000000000000000000000000000000000000000000000
310
00000000000000000000000000000000000000000000000000000000000000000000000000000000000000000000000000000000000000000000000000000000000000000000000000000000000000000000000000000000000000000000000003000101010003030303030303030303030301030303030103010101000300
310
00000000000000000000000000000000000000000000000000000000000000000000000000000000000000000000000000000000000000000000000000000000000000000000000000000000000000000000000000000000000000000000000000000000000000000000000000000000000000000000000000000000000000
310
00000000000000000000000000000000000000000003030303030303030301030103030103030303010301030301030301030303030000000000000000000000000000000000000000000000000000000000000000000000000000000000000000000000000000000000000000000000000000000000000000000000000000
310
00000000000000000000000000000000000000000000000000000000000000000000000000000000000000000000000000000000000000000000000000000000000000000000000000010301030303030303030303010303030301030303030103030303030303030101010000000000000000000000000000000000000000
310
00000000000000000000000000000000000000000000000000000000000000000000000000000000000000000000000000000000000000000000000000000000000000000000000000000000000000000000000000000000000000000000000000000000000000000000000000000000000000000000000000000000000000
310
03030000000000000000000100000000010000000001000000000000000003030303030303000000000000000000000000000000000000000000000000000000000000000000000000000000000000000000000000000000000000000000000000000000000000000000000000000000000000000000000000000000000000
310
00000000000000000000000000000000000000000000000000000000000000000000000000000000000000000000000000000000000303010101010101010101010101010303030101010101010101010101010103030303030301000000000000000000000000000000000000000000000000000000000000000000000000
310
00000000000000000000000000000000000000000000000000000000000000000000000000000000000000000000000000000000000000000000000000000000000000000000000000000000000000000000000000000000000000000000000000000000000000000000030300000003030300000001000000030303000000
310
01000000000000000003030303030303000000000000000000000000000000000000000000000000000000000000000000000000000000000000000000000000000000000000000000000000000000000000000000000000000000000000000000000000000000000000000000000000000000000000000000000000000000
310
00000000000000000000000000000000000000000000000000000000000000010301010101030103010101010101010303030101010101010101010101010103030000000000000000000000000000000000000000000000000000000000000000000000000000000000000000000000000000000000000000000000000000
310
00000000000000000000000000000000000000000000000000000000000000000000000000000000000000000000000000000000000000000000000000000000000000000000000000000000000000000000000000030300000003030300000001000000030303000000010000000000000000030303000000000000000000
310
00000000000000000000000000000000000000000000000000000000000000000000000000000000000000000000000000000000000000000000000000000000000000000000000000000000000000000000000000000000000000000000000000000000000000000000000000000000000000000000000000000000000000
310
00000000000000000000000003000000000100000000010000000303030000000100000000000000000300000000000000000000000000000000000000000000000000000000000000000000000000000000000000000000000000000000000000000000000000000000000000000000000000000000000000000000000000
310
00000000000000000000000000000000000000000000000000000000000000000000000000000000000000000000000000000000000000000000000000000000000300000000000000000001000000000100000000010000000000000000030000000000000000000000000000000000000000000000000000000000000000
310
00000000000000000000000000000000000000000000000000000000000000000000000000000000000000000000000000000000000000000000000000000000000000000000000000000000000000000000000000000000000000000000000000000000000000000000000000000000000000000000030303030303030303
310
03010303030301030303030103030303030303030300000000000000000000000000000000000000000000000000000000000000000000000000000000000000000000000000000000000000000000000000000000000000000000000000000000000000000000000000000000000000000000000000000000000000000000
310
00000000000000000000000000000000000000000000000000000000000000000000000000000000000000000303030303030303010301030301030303030103010303010303030303030000000000000000000000000000000000000000000000000000000000000000000000000000000000000000000000000000000000
310
00000000000000000000000000000000000000000000000000000000000000000000000000000000000000000000000000000000000000000000000000000000000000000000000000000000000000000000000000000000000000000000000000030303030303030301030303030103030303010303030301030303030303
310
00000000000000000000000000000000000000000000000000000000000000000000000000000000000000000000000000000000000000000000000000000000000000000000000000000000000000000000000000000000000000000000000000000000000000000000000000000000000000000000000000000000000000
310
00000000000000000000000000000000000000000000000300000303000303030303030303030303030103030303030300030300030000000000000000000000000000000000000000000000000000000000000000000000000000000000000000000000000000000000000000000000000000000000000000000000000000
310
00000000000000000000000000000000000000000000000000000000000000000000000000000000000000000000000000000000000000000000000000000000000000000000000000000000030303030303030300030303030000000000000000000003030303030303000000000000000000000000000000000000000000
310
00000000000000000000000000000000000000000000000000000000000000000000000000000000000000000000000000000000000000000000000000000000000000000000000000000000000000000000000000000000000000000000000000000000000000000000000000000000000000000000000000000000000000
310
00000000000000000000000303030300000000000000000000000000000000000000000000000000000000000000000000000000000000000000000000000000000000000000000000000000000000000000000000000000000000000000000000000000000000000000000000000000000000000000000000000000000000
310
00000000000000000000000000000000000000000000000000000000000000000000000000000000000000000000000000000000000000000000000000000000030303030000000000000000000000000000000000000000000000000000000000000000000000000000000000000000000000000000000000000000000000
310
00000000000000000000000000000000000000000000000000000000000000000000000000000000000000000000000000000000000000000000000000000000000000000000000000000000000000000000000000000000000000000000000000000000000000000000000000000000000000000003030303000000000000
310
00000000000000000000000000000000000000000000000000000000000000000000000000000000000000000000000000000000000000000000000000000000000000000000000000000000000000000000000000000000000000000000000000000000000000000000000000000000000000000000000000000000000000
310
00000000000000000000000000000000000000000000000000000000000000000000000000000000000000030303030000000000000000000000000000000000000000000000000000000000000000000000000000000000000000000000000000000000000000000000000000000000000000000000000000000000000000
310
00000000000000000000000000000000000000000000000000000000000000000000000000000000000000000000000000000000000000000000000000000000000000000000000000000000000000000000000000000000000000000000000003030303000000000000000000000000000000000000000000000000000000
310
00000000000000000000000000000000000000000000000000000000000000000000000000000000000000000000000000000000000000000000000000000000000000000000000000000000000000000000000000000000000000000000000000000000000000000000000000000000000000000000000000000000000000
310
00000000000000000000000000000000000000000000030303030000000000000000000000000000000000000000000000000000000000000000000000000000000000000000000000000000000000000000000000000000000000000000000000000000000000000000000000000000000000000000000000000000000000
310
00000000000000000000000000000000000000000000000000000000000000000000000000000000000000000000000000000000000000000000000000000000000000000000000000000000000000000000000000000000000000000000000000000000000000000000000000000000000000000000000000000000000000
310
00000000000000000000000000000000000000000000000000000000000000000000000000000000000000000000000000000000000000000000000000000000000000000000000000000000000000000000000000000000000000000000000000000000000000000000000000000000000000000000000000000000000000
310
00000000000000000000000000000000000000000000000000000000000000000000000000000000000000000000000000000000000000000000000000000000000000000000000000000000000000000000000000000000000000000000000000000000000000000000000000000000000000000000000000000000000000
310
00000000000000000000000000000000000000000000000000000000000000000000000000000000000000000000000000000000000000000000000000000000000000000000000000000000000000000000000000000000000000000000000000000000000000000000000000000000000000000000000000000000000000
310
00000000000000000000000000000000000000000000000000000000000000000000000000000000000000000000000000000000000000000000000000000000000000000000000000000000000000000000000000000000000000000000000000000000000000000000000000000000000000000000000000000000000000
310
000000000000000000000000000000000000000000000000000000000000000000000000000000000000000000000000000000000000000000000000000000000000000000000000000000000000000000000000000000000000000000000000000000000000000000000000
  0
ENDSEC
  0
EOF
