  0
SECTION
  2
HEADER
  9
$ACADVER
  1
AC1015
  9
$ACADMAINTVER
 70
     6
  9
$DWGCODEPAGE
  3
ANSI_932
  9
$INSBASE
 10
452.4340339944167
 20
1485.490264293136
 30
0.0
  9
$EXTMIN
 10
112.0447619060266
 20
22.84154938324536
 30
0.0
  9
$EXTMAX
 10
1524.629377019225
 20
1291.656614066043
 30
0.0
  9
$LIMMIN
 10
0.0
 20
0.0
  9
$LIMMAX
 10
816.5000000000001
 20
565.0
  9
$ORTHOMODE
 70
     1
  9
$REGENMODE
 70
     1
  9
$FILLMODE
 70
     1
  9
$QTEXTMODE
 70
     0
  9
$MIRRTEXT
 70
     1
  9
$LTSCALE
 40
20.0
  9
$ATTMODE
 70
     1
  9
$TEXTSIZE
 40
15.0
  9
$TRACEWID
 40
0.05
  9
$TEXTSTYLE
  7
KANJI
  9
$CLAYER
  8
2
  9
$CELTYPE
  6
BYLAYER
  9
$CECOLOR
 62
   256
  9
$CELTSCALE
 40
1.0
  9
$DISPSILH
 70
     0
  9
$DIMSCALE
 40
5.0
  9
$DIMASZ
 40
2.0
  9
$DIMEXO
 40
0.5
  9
$DIMDLI
 40
0.0
  9
$DIMRND
 40
0.0
  9
$DIMDLE
 40
0.0
  9
$DIMEXE
 40
1.0
  9
$DIMTP
 40
0.0
  9
$DIMTM
 40
0.0
  9
$DIMTXT
 40
3.0
  9
$DIMCEN
 40
0.09
  9
$DIMTSZ
 40
0.0
  9
$DIMTOL
 70
     0
  9
$DIMLIM
 70
     0
  9
$DIMTIH
 70
     0
  9
$DIMTOH
 70
     0
  9
$DIMSE1
 70
     0
  9
$DIMSE2
 70
     0
  9
$DIMTAD
 70
     0
  9
$DIMZIN
 70
     8
  9
$DIMBLK
  1

  9
$DIMASO
 70
     0
  9
$DIMSHO
 70
     0
  9
$DIMPOST
  1

  9
$DIMAPOST
  1

  9
$DIMALT
 70
     0
  9
$DIMALTD
 70
     2
  9
$DIMALTF
 40
25.4
  9
$DIMLFAC
 40
1.0
  9
$DIMTOFL
 70
     1
  9
$DIMTVP
 40
1.0
  9
$DIMTIX
 70
     1
  9
$DIMSOXD
 70
     1
  9
$DIMSAH
 70
     0
  9
$DIMBLK1
  1

  9
$DIMBLK2
  1

  9
$DIMSTYLE
  2
STANDARD
  9
$DIMCLRD
 70
   256
  9
$DIMCLRE
 70
   256
  9
$DIMCLRT
 70
   256
  9
$DIMTFAC
 40
1.0
  9
$DIMGAP
 40
0.09
  9
$DIMJUST
 70
     0
  9
$DIMSD1
 70
     0
  9
$DIMSD2
 70
     0
  9
$DIMTOLJ
 70
     1
  9
$DIMTZIN
 70
     0
  9
$DIMALTZ
 70
     0
  9
$DIMALTTZ
 70
     0
  9
$DIMUPT
 70
     0
  9
$DIMDEC
 70
     1
  9
$DIMTDEC
 70
     4
  9
$DIMALTU
 70
     2
  9
$DIMALTTD
 70
     2
  9
$DIMTXSTY
  7
STANDARD
  9
$DIMAUNIT
 70
     0
  9
$DIMADEC
 70
     0
  9
$DIMALTRND
 40
0.0
  9
$DIMAZIN
 70
     0
  9
$DIMDSEP
 70
    46
  9
$DIMATFIT
 70
     3
  9
$DIMFRAC
 70
     0
  9
$DIMLDRBLK
  1

  9
$DIMLUNIT
 70
     2
  9
$DIMLWD
 70
    -2
  9
$DIMLWE
 70
    -2
  9
$DIMTMOVE
 70
     0
  9
$LUNITS
 70
     2
  9
$LUPREC
 70
     3
  9
$SKETCHINC
 40
0.1
  9
$FILLETRAD
 40
1.0
  9
$AUNITS
 70
     0
  9
$AUPREC
 70
     3
  9
$MENU
  1
C:\R13\WIN\SUPPORT\ACADFULL
  9
$ELEVATION
 40
0.0
  9
$PELEVATION
 40
0.0
  9
$THICKNESS
 40
0.0
  9
$LIMCHECK
 70
     0
  9
$CHAMFERA
 40
0.0
  9
$CHAMFERB
 40
0.0
  9
$CHAMFERC
 40
0.0
  9
$CHAMFERD
 40
0.0
  9
$SKPOLY
 70
     0
  9
$TDCREATE
 40
2457463.825045764
  9
$TDUCREATE
 40
2457463.450045764
  9
$TDUPDATE
 40
2458110.570343808
  9
$TDUUPDATE
 40
2458110.195343808
  9
$TDINDWG
 40
0.033063125
  9
$TDUSRTIMER
 40
0.0330628009
  9
$USRTIMER
 70
     1
  9
$ANGBASE
 50
0.0
  9
$ANGDIR
 70
     0
  9
$PDMODE
 70
     0
  9
$PDSIZE
 40
0.0
  9
$PLINEWID
 40
0.0
  9
$SPLFRAME
 70
     0
  9
$SPLINETYPE
 70
     6
  9
$SPLINESEGS
 70
     8
  9
$HANDSEED
  5
81F
  9
$SURFTAB1
 70
     6
  9
$SURFTAB2
 70
     6
  9
$SURFTYPE
 70
     6
  9
$SURFU
 70
     6
  9
$SURFV
 70
     6
  9
$UCSBASE
  2

  9
$UCSNAME
  2

  9
$UCSORG
 10
0.0
 20
0.0
 30
0.0
  9
$UCSXDIR
 10
1.0
 20
0.0
 30
0.0
  9
$UCSYDIR
 10
0.0
 20
1.0
 30
0.0
  9
$UCSORTHOREF
  2

  9
$UCSORTHOVIEW
 70
     0
  9
$UCSORGTOP
 10
0.0
 20
0.0
 30
0.0
  9
$UCSORGBOTTOM
 10
0.0
 20
0.0
 30
0.0
  9
$UCSORGLEFT
 10
0.0
 20
0.0
 30
0.0
  9
$UCSORGRIGHT
 10
0.0
 20
0.0
 30
0.0
  9
$UCSORGFRONT
 10
0.0
 20
0.0
 30
0.0
  9
$UCSORGBACK
 10
0.0
 20
0.0
 30
0.0
  9
$PUCSBASE
  2

  9
$PUCSNAME
  2

  9
$PUCSORG
 10
0.0
 20
0.0
 30
0.0
  9
$PUCSXDIR
 10
1.0
 20
0.0
 30
0.0
  9
$PUCSYDIR
 10
0.0
 20
1.0
 30
0.0
  9
$PUCSORTHOREF
  2

  9
$PUCSORTHOVIEW
 70
     0
  9
$PUCSORGTOP
 10
0.0
 20
0.0
 30
0.0
  9
$PUCSORGBOTTOM
 10
0.0
 20
0.0
 30
0.0
  9
$PUCSORGLEFT
 10
0.0
 20
0.0
 30
0.0
  9
$PUCSORGRIGHT
 10
0.0
 20
0.0
 30
0.0
  9
$PUCSORGFRONT
 10
0.0
 20
0.0
 30
0.0
  9
$PUCSORGBACK
 10
0.0
 20
0.0
 30
0.0
  9
$USERI1
 70
     0
  9
$USERI2
 70
     0
  9
$USERI3
 70
     0
  9
$USERI4
 70
     0
  9
$USERI5
 70
     0
  9
$USERR1
 40
0.0
  9
$USERR2
 40
0.0
  9
$USERR3
 40
0.0
  9
$USERR4
 40
2448925.372986111
  9
$USERR5
 40
0.04166667
  9
$WORLDVIEW
 70
     1
  9
$SHADEDGE
 70
     3
  9
$SHADEDIF
 70
    70
  9
$TILEMODE
 70
     1
  9
$MAXACTVP
 70
    16
  9
$PINSBASE
 10
0.0
 20
0.0
 30
0.0
  9
$PLIMCHECK
 70
     0
  9
$PEXTMIN
 10
1000000000000000E+20
 20
1000000000000000E+20
 30
1000000000000000E+20
  9
$PEXTMAX
 10
-1000000000000000E+20
 20
-1000000000000000E+20
 30
-1000000000000000E+20
  9
$PLIMMIN
 10
0.0
 20
0.0
  9
$PLIMMAX
 10
12.0
 20
9.0
  9
$UNITMODE
 70
     0
  9
$VISRETAIN
 70
     0
  9
$PLINEGEN
 70
     0
  9
$PSLTSCALE
 70
     0
  9
$TREEDEPTH
 70
  3020
  9
$CMLSTYLE
  2
STANDARD
  9
$CMLJUST
 70
     0
  9
$CMLSCALE
 40
1.0
  9
$PROXYGRAPHICS
 70
     1
  9
$MEASUREMENT
 70
     0
  9
$CELWEIGHT
370
    -1
  9
$ENDCAPS
280
     0
  9
$JOINSTYLE
280
     0
  9
$LWDISPLAY
290
     0
  9
$INSUNITS
 70
     0
  9
$HYPERLINKBASE
  1

  9
$STYLESHEET
  1
monochrome.ctb
  9
$XEDIT
290
     1
  9
$CEPSNTYPE
380
     0
  9
$PSTYLEMODE
290
     1
  9
$FINGERPRINTGUID
  2
{F7DCB3A0-E639-4E5D-89FB-EA2949E275C8}
  9
$VERSIONGUID
  2
{B17F6FE8-24A1-4F51-A23E-7742086EBE7D}
  9
$EXTNAMES
290
     1
  9
$PSVPSCALE
 40
0.0
  9
$OLESTARTUP
290
     0
  0
ENDSEC
  0
SECTION
  2
CLASSES
  0
CLASS
  1
ACDBDICTIONARYWDFLT
  2
AcDbDictionaryWithDefault
  3
ObjectDBX Classes
 90
        0
280
     0
281
     0
  0
CLASS
  1
MATERIAL
  2
AcDbMaterial
  3
ObjectDBX Classes
 90
     1153
280
     0
281
     0
  0
CLASS
  1
SORTENTSTABLE
  2
AcDbSortentsTable
  3
ObjectDBX Classes
 90
        0
280
     0
281
     0
  0
CLASS
  1
VISUALSTYLE
  2
AcDbVisualStyle
  3
ObjectDBX Classes
 90
     4095
280
     0
281
     0
  0
CLASS
  1
SCALE
  2
AcDbScale
  3
ObjectDBX Classes
 90
     1153
280
     0
281
     0
  0
CLASS
  1
DICTIONARYVAR
  2
AcDbDictionaryVar
  3
ObjectDBX Classes
 90
        0
280
     0
281
     0
  0
CLASS
  1
MLEADERSTYLE
  2
AcDbMLeaderStyle
  3
ACDB_MLEADERSTYLE_CLASS
 90
     4095
280
     0
281
     0
  0
CLASS
  1
ACDBPLACEHOLDER
  2
AcDbPlaceHolder
  3
ObjectDBX Classes
 90
        0
280
     0
281
     0
  0
CLASS
  1
LAYOUT
  2
AcDbLayout
  3
ObjectDBX Classes
 90
        0
280
     0
281
     0
  0
ENDSEC
  0
SECTION
  2
TABLES
  0
TABLE
  2
VPORT
  5
2C
102
{ACAD_XDICTIONARY
360
7E5
102
}
330
0
100
AcDbSymbolTable
 70
     1
  0
VPORT
  5
33
330
2C
100
AcDbSymbolTableRecord
100
AcDbViewportTableRecord
  2
*Active
 70
     0
 10
0.0
 20
0.0
 11
1.0
 21
1.0
 12
1362.268244602296
 22
731.4229123580005
 13
0.0
 23
0.0
 14
1.0
 24
1.0
 15
50.0
 25
50.0
 16
0.0
 26
0.0
 36
1.0
 17
0.0
 27
0.0
 37
0.0
 40
1665.067907777129
 41
1.82716049382716
 42
50.0
 43
0.0
 44
0.0
 50
0.0
 51
0.0
 71
     0
 72
  5000
 73
     1
 74
     0
 75
     0
 76
     0
 77
     0
 78
     0
281
     0
 65
     1
110
0.0
120
0.0
130
0.0
111
1.0
121
0.0
131
0.0
112
0.0
122
1.0
132
0.0
 79
     0
146
0.0
1001
ACAD_NAV_VCDISPLAY
1070
     3
  0
ENDTAB
  0
TABLE
  2
LTYPE
  5
F
330
0
100
AcDbSymbolTable
 70
     2
  0
LTYPE
  5
10
330
F
100
AcDbSymbolTableRecord
100
AcDbLinetypeTableRecord
  2
BYBLOCK
 70
     0
  3

 72
    65
 73
     0
 40
0.0
  0
LTYPE
  5
11
330
F
100
AcDbSymbolTableRecord
100
AcDbLinetypeTableRecord
  2
BYLAYER
 70
     0
  3

 72
    65
 73
     0
 40
0.0
  0
LTYPE
  5
E
330
F
100
AcDbSymbolTableRecord
100
AcDbLinetypeTableRecord
  2
CONTINUOUS
 70
     0
  3
Solid line
 72
    65
 73
     0
 40
0.0
  0
LTYPE
  5
CB
330
F
100
AcDbSymbolTableRecord
100
AcDbLinetypeTableRecord
  2
CENTER
 70
     0
  3
____ _ ____ _ ____ _ ____ _ ____ _ ____ _ ____
 72
    65
 73
     4
 40
2.0
 49
1.25
 74
     0
 49
-0.25
 74
     0
 49
0.25
 74
     0
 49
-0.25
 74
     0
  0
ENDTAB
  0
TABLE
  2
LAYER
  5
2
102
{ACAD_XDICTIONARY
360
3
102
}
330
0
100
AcDbSymbolTable
 70
     8
  0
LAYER
  5
1F
102
{ACAD_XDICTIONARY
360
20
102
}
330
2
100
AcDbSymbolTableRecord
100
AcDbLayerTableRecord
  2
0
 70
     0
 62
     7
  6
CONTINUOUS
370
    -3
390
7
  0
LAYER
  5
546
102
{ACAD_XDICTIONARY
360
547
102
}
330
2
100
AcDbSymbolTableRecord
100
AcDbLayerTableRecord
  2
1
 70
     0
 62
     9
  6
CONTINUOUS
370
    -3
390
7
  0
LAYER
  5
1
102
{ACAD_XDICTIONARY
360
5
102
}
330
2
100
AcDbSymbolTableRecord
100
AcDbLayerTableRecord
  2
2
 70
     0
 62
     4
  6
CONTINUOUS
370
    -3
390
7
  0
LAYER
  5
139
102
{ACAD_XDICTIONARY
360
13A
102
}
330
2
100
AcDbSymbolTableRecord
100
AcDbLayerTableRecord
  2
4
 70
     0
 62
     3
  6
CONTINUOUS
370
    -3
390
7
  0
LAYER
  5
C8
102
{ACAD_XDICTIONARY
360
C9
102
}
330
2
100
AcDbSymbolTableRecord
100
AcDbLayerTableRecord
  2
L-CENTER
 70
     0
 62
     1
  6
CENTER
370
    -3
390
7
  0
LAYER
  5
5B
102
{ACAD_XDICTIONARY
360
5C
102
}
330
2
100
AcDbSymbolTableRecord
100
AcDbLayerTableRecord
  2
3
 70
     0
 62
     2
  6
CONTINUOUS
370
    -3
390
7
  0
LAYER
  5
5FA
330
2
100
AcDbSymbolTableRecord
100
AcDbLayerTableRecord
  2
5
 70
     0
 62
     6
  6
CONTINUOUS
370
    -3
390
7
  0
LAYER
  5
659
330
2
100
AcDbSymbolTableRecord
100
AcDbLayerTableRecord
  2
Defpoints
 70
     0
 62
     7
  6
CONTINUOUS
290
     0
370
    -3
390
7
  0
ENDTAB
  0
TABLE
  2
STYLE
  5
13
330
0
100
AcDbSymbolTable
 70
     2
  0
STYLE
  5
17
330
13
100
AcDbSymbolTableRecord
100
AcDbTextStyleTableRecord
  2
STANDARD
 70
     0
 40
0.0
 41
1.0
 50
0.0
 71
     0
 42
9.0
  3
TXT
  4

  0
STYLE
  5
12
330
13
100
AcDbSymbolTableRecord
100
AcDbTextStyleTableRecord
  2
KANJI
 70
     0
 40
0.0
 41
1.0
 50
0.0
 71
     0
 42
15.0
  3
TXT
  4
BIGFONT
  0
ENDTAB
  0
TABLE
  2
VIEW
  5
2A
330
0
100
AcDbSymbolTable
 70
     0
  0
ENDTAB
  0
TABLE
  2
UCS
  5
2B
330
0
100
AcDbSymbolTable
 70
     0
  0
ENDTAB
  0
TABLE
  2
APPID
  5
D
330
0
100
AcDbSymbolTable
 70
     4
  0
APPID
  5
C
330
D
100
AcDbSymbolTableRecord
100
AcDbRegAppTableRecord
  2
ACAD
 70
     0
  0
APPID
  5
34
330
D
100
AcDbSymbolTableRecord
100
AcDbRegAppTableRecord
  2
ACAD_NAV_VCDISPLAY
 70
     0
  0
APPID
  5
25
330
D
100
AcDbSymbolTableRecord
100
AcDbRegAppTableRecord
  2
ACAD_PSEXT
 70
     0
  0
APPID
  5
688
330
D
100
AcDbSymbolTableRecord
100
AcDbRegAppTableRecord
  2
ACAD_MLEADERVER
 70
     0
  0
ENDTAB
  0
TABLE
  2
DIMSTYLE
  5
16
330
0
100
AcDbSymbolTable
 70
     1
100
AcDbDimStyleTable
  0
DIMSTYLE
105
15
330
16
100
AcDbSymbolTableRecord
100
AcDbDimStyleTableRecord
  2
STANDARD
 70
     0
178
     0
340
17
  0
ENDTAB
  0
TABLE
  2
BLOCK_RECORD
  5
1A
330
0
100
AcDbSymbolTable
 70
     0
  0
BLOCK_RECORD
  5
1B
102
{ACAD_XDICTIONARY
360
1C
102
}
330
1A
100
AcDbSymbolTableRecord
100
AcDbBlockTableRecord
  2
*MODEL_SPACE
340
23
  0
BLOCK_RECORD
  5
26
330
1A
100
AcDbSymbolTableRecord
100
AcDbBlockTableRecord
  2
*PAPER_SPACE
340
29
  0
ENDTAB
  0
ENDSEC
  0
SECTION
  2
BLOCKS
  0
BLOCK
  5
1E
330
1B
100
AcDbEntity
  8
0
100
AcDbBlockBegin
  2
*MODEL_SPACE
 70
     0
 10
0.0
 20
0.0
 30
0.0
  3
*MODEL_SPACE
  1

  0
ENDBLK
  5
22
330
1B
100
AcDbEntity
  8
0
100
AcDbBlockEnd
  0
BLOCK
  5
27
330
26
100
AcDbEntity
 67
     1
  8
0
100
AcDbBlockBegin
  2
*PAPER_SPACE
 70
     0
 10
0.0
 20
0.0
 30
0.0
  3
*PAPER_SPACE
  1

  0
ENDBLK
  5
28
330
26
100
AcDbEntity
 67
     1
  8
0
100
AcDbBlockEnd
  0
ENDSEC
  0
SECTION
  2
ENTITIES
  0
LINE
  5
138
330
1B
100
AcDbEntity
  8
4
100
AcDbLine
 10
301.2451281671683
 20
231.4288688285964
 30
0.0
 11
301.2451281671683
 21
106.4288688285964
 31
0.0
  0
LINE
  5
13C
330
1B
100
AcDbEntity
  8
4
100
AcDbLine
 10
291.2451281671683
 20
231.4288688285964
 30
0.0
 11
291.2451281671683
 21
106.4288688285964
 31
0.0
  0
LINE
  5
13D
330
1B
100
AcDbEntity
  8
4
100
AcDbLine
 10
306.2451281671683
 20
38.92911382859609
 30
0.0
 11
306.2451281671683
 21
329.9288688285964
 31
0.0
  0
ARC
  5
13E
330
1B
100
AcDbEntity
  8
4
100
AcDbCircle
 10
596.2451281671683
 20
329.9288688285964
 30
0.0
 40
274.999965
100
AcDbArc
 50
334.3043689999886
 51
205.6966329999939
  0
ARC
  5
13F
330
1B
100
AcDbEntity
  8
4
100
AcDbCircle
 10
596.2451281671683
 20
329.9288688285964
 30
0.0
 40
245.000035
100
AcDbArc
 50
273.9718390000004
 51
266.029133000001
  0
LINE
  5
140
330
1B
100
AcDbEntity
  8
L-CENTER
100
AcDbLine
 10
596.2451281671683
 20
678.5014538285964
 30
0.0
 11
596.2451281671682
 21
36.57281749383992
 31
0.0
  0
ARC
  5
141
330
1B
100
AcDbEntity
  8
4
100
AcDbCircle
 10
596.2451281671683
 20
329.9288688285964
 30
0.0
 40
274.999985
100
AcDbArc
 50
227.5024710000116
 51
267.1299410000008
  0
LINE
  5
142
330
1B
100
AcDbEntity
  8
4
100
AcDbLine
 10
319.2451281671683
 20
78.92911382859609
 30
0.0
 11
319.2451281671683
 21
168.9288688285964
 31
0.0
  0
ARC
  5
143
330
1B
100
AcDbEntity
  8
4
100
AcDbCircle
 10
596.2451281671683
 20
329.9288688285964
 30
0.0
 40
275.00006
100
AcDbArc
 50
272.8711280000014
 51
312.4985389999928
  0
LINE
  5
144
330
1B
100
AcDbEntity
  8
4
100
AcDbLine
 10
873.2451281671683
 20
78.92911382859609
 30
0.0
 11
873.2451281671683
 21
168.9288688285964
 31
0.0
  0
LINE
  5
145
330
1B
100
AcDbEntity
  8
4
100
AcDbLine
 10
891.2451281671683
 20
231.4288688285964
 30
0.0
 11
891.2451281671683
 21
106.4288688285964
 31
0.0
  0
LINE
  5
146
330
1B
100
AcDbEntity
  8
4
100
AcDbLine
 10
901.2451281671683
 20
231.4288688285964
 30
0.0
 11
901.2451281671683
 21
106.4288688285964
 31
0.0
  0
LINE
  5
147
330
1B
100
AcDbEntity
  8
4
100
AcDbLine
 10
886.2451281671683
 20
38.92911382859609
 30
0.0
 11
886.2451281671683
 21
329.9288688285964
 31
0.0
  0
LINE
  5
14A
330
1B
100
AcDbEntity
  8
4
100
AcDbLine
 10
456.2451281671683
 20
38.92911382859609
 30
0.0
 11
306.2451281671683
 21
38.92911382859609
 31
0.0
  0
LINE
  5
14B
330
1B
100
AcDbEntity
  8
4
100
AcDbLine
 10
309.2451281671683
 20
73.92911382859609
 30
0.0
 11
453.2451281671683
 21
73.92911382859609
 31
0.0
  0
LINE
  5
14C
330
1B
100
AcDbEntity
  8
4
100
AcDbLine
 10
319.2451281671683
 20
106.4288688285964
 30
0.0
 11
436.0178331671683
 21
106.4288688285964
 31
0.0
  0
LINE
  5
14D
330
1B
100
AcDbEntity
  8
4
100
AcDbLine
 10
319.2451281671683
 20
103.9288688285964
 30
0.0
 11
439.5639781671683
 21
103.9288688285964
 31
0.0
  0
LINE
  5
151
330
1B
100
AcDbEntity
  8
L-CENTER
100
AcDbLine
 10
140.510399945999
 20
140.4632307886239
 30
0.0
 11
140.510399945999
 21
197.3945068685688
 31
0.0
  0
LINE
  5
15E
330
1B
100
AcDbEntity
  8
L-CENTER
100
AcDbLine
 10
168.9760379859714
 20
168.9288688285964
 30
0.0
 11
112.0447619060266
 21
168.9288688285964
 31
0.0
  0
ARC
  5
15F
330
1B
100
AcDbEntity
  8
4
100
AcDbCircle
 10
140.510399945999
 20
168.9288688285964
 30
0.0
 40
17.999995
100
AcDbArc
 50
106.1276248152462
 51
73.87237500000064
  0
LINE
  5
160
330
1B
100
AcDbEntity
  8
4
100
AcDbLine
 10
145.510399945999
 20
182.4288688285964
 30
0.0
 11
135.510399945999
 21
182.4288688285964
 31
0.0
  0
LINE
  5
161
330
1B
100
AcDbEntity
  8
4
100
AcDbLine
 10
145.510399945999
 20
190.4288688285964
 30
0.0
 11
135.510399945999
 21
190.4288688285964
 31
0.0
  0
LINE
  5
163
330
1B
100
AcDbEntity
  8
4
100
AcDbLine
 10
135.510399945999
 20
190.4288688285964
 30
0.0
 11
135.510399945999
 21
182.4288688285964
 31
0.0
  0
LINE
  5
165
330
1B
100
AcDbEntity
  8
4
100
AcDbLine
 10
145.510399945999
 20
182.4288688285964
 30
0.0
 11
145.510399945999
 21
190.4288688285964
 31
0.0
  0
ARC
  5
16A
330
1B
100
AcDbEntity
  8
4
100
AcDbCircle
 10
303.7451281671683
 20
103.9288688285964
 30
0.0
 40
2.5
100
AcDbArc
 50
0.0
 51
90.0
  0
LINE
  5
16B
330
1B
100
AcDbEntity
  8
4
100
AcDbLine
 10
291.2451281671683
 20
106.4288688285964
 30
0.0
 11
303.7451281671683
 21
106.4288688285964
 31
0.0
  0
LINE
  5
16C
330
1B
100
AcDbEntity
  8
L-CENTER
100
AcDbLine
 10
371.2451281671683
 20
23.92911382859609
 30
0.0
 11
371.2451281671683
 21
88.92911382859609
 31
0.0
  0
ARC
  5
16D
330
1B
100
AcDbEntity
  8
4
100
AcDbCircle
 10
309.2451281671683
 20
70.92911382859609
 30
0.0
 40
3.0
100
AcDbArc
 50
90.0
 51
180.0
  0
ARC
  5
16E
330
1B
100
AcDbEntity
  8
4
100
AcDbCircle
 10
324.2451281671683
 20
78.92911382859609
 30
0.0
 40
5.0
100
AcDbArc
 50
180.0
 51
270.0
  0
LINE
  5
177
330
1B
100
AcDbEntity
  8
4
100
AcDbLine
 10
736.2451281671683
 20
38.92911382859609
 30
0.0
 11
886.2451281671683
 21
38.92911382859609
 31
0.0
  0
LINE
  5
178
330
1B
100
AcDbEntity
  8
4
100
AcDbLine
 10
883.2451281671683
 20
73.92911382859609
 30
0.0
 11
739.2451281671683
 21
73.92911382859609
 31
0.0
  0
LINE
  5
195
330
1B
100
AcDbEntity
  8
4
100
AcDbLine
 10
462.2451281671683
 20
48.92911382859609
 30
0.0
 11
596.2451281671683
 21
48.92911382859609
 31
0.0
  0
LINE
  5
196
330
1B
100
AcDbEntity
  8
4
100
AcDbLine
 10
436.2451281671683
 20
70.92911382859609
 30
0.0
 11
436.2451281671683
 21
38.92911382859609
 31
0.0
  0
LINE
  5
197
330
1B
100
AcDbEntity
  8
4
100
AcDbLine
 10
456.2451281671683
 20
70.92911382859609
 30
0.0
 11
456.2451281671683
 21
38.92911382859609
 31
0.0
  0
ARC
  5
198
330
1B
100
AcDbEntity
  8
4
100
AcDbCircle
 10
462.2451281671683
 20
42.92911382859609
 30
0.0
 40
6.0
100
AcDbArc
 50
90.0
 51
180.0
  0
ARC
  5
199
330
1B
100
AcDbEntity
  8
4
100
AcDbCircle
 10
433.2451281671683
 20
70.92911382859609
 30
0.0
 40
3.0
100
AcDbArc
 50
0.0
 51
90.0
  0
ARC
  5
19A
330
1B
100
AcDbEntity
  8
4
100
AcDbCircle
 10
453.2451281671683
 20
70.92911382859609
 30
0.0
 40
3.0
100
AcDbArc
 50
0.0
 51
90.0
  0
LINE
  5
19B
330
1B
100
AcDbEntity
  8
4
100
AcDbLine
 10
730.2451281671683
 20
48.92911382859609
 30
0.0
 11
596.2451281671683
 21
48.92911382859609
 31
0.0
  0
ARC
  5
19C
330
1B
100
AcDbEntity
  8
4
100
AcDbCircle
 10
596.2451281671683
 20
74.92911382859609
 30
0.0
 40
24.00005
100
AcDbArc
 50
234.9815279999957
 51
305.0192840000062
  0
ARC
  5
19D
330
1B
100
AcDbEntity
  8
4
100
AcDbCircle
 10
596.2451281671683
 20
74.92911382859609
 30
0.0
 40
20.000075
100
AcDbArc
 50
31.96512499999997
 51
148.0354680000138
  0
CIRCLE
  5
19E
330
1B
100
AcDbEntity
  8
4
100
AcDbCircle
 10
596.2451281671683
 20
74.92911382859609
 30
0.0
 40
9.331055000000001
  0
CIRCLE
  5
19F
330
1B
100
AcDbEntity
  8
2
100
AcDbCircle
 10
596.2451281671683
 20
74.92911382859609
 30
0.0
 40
8.331055000000001
  0
LINE
  5
1A0
330
1B
100
AcDbEntity
  8
4
100
AcDbLine
 10
590.0302531671683
 20
71.34088382859625
 30
0.0
 11
596.2451281671683
 21
67.75275382859661
 31
0.0
  0
LINE
  5
1A1
330
1B
100
AcDbEntity
  8
4
100
AcDbLine
 10
596.2451281671683
 20
82.1054688285966
 30
0.0
 11
590.0302531671683
 21
78.51734382859638
 31
0.0
  0
LINE
  5
1A2
330
1B
100
AcDbEntity
  8
L-CENTER
100
AcDbLine
 10
615.6463084336192
 20
74.92911382859609
 30
0.0
 11
576.8439479007172
 21
74.92911382859609
 31
0.0
  0
LINE
  5
1A3
330
1B
100
AcDbEntity
  8
4
100
AcDbLine
 10
590.0302531671683
 20
78.51734382859638
 30
0.0
 11
590.0302531671683
 21
71.34088382859625
 31
0.0
  0
LINE
  5
1A4
330
1B
100
AcDbEntity
  8
4
100
AcDbLine
 10
602.4600031671683
 20
78.51734382859638
 30
0.0
 11
602.4600031671683
 21
71.34088382859625
 31
0.0
  0
LINE
  5
1A5
330
1B
100
AcDbEntity
  8
4
100
AcDbLine
 10
602.4600031671683
 20
71.34088382859625
 30
0.0
 11
596.2451281671683
 21
67.75275382859661
 31
0.0
  0
LINE
  5
1A6
330
1B
100
AcDbEntity
  8
4
100
AcDbLine
 10
596.2451281671683
 20
82.1054688285966
 30
0.0
 11
602.4600031671683
 21
78.51734382859638
 31
0.0
  0
LINE
  5
1A7
330
1B
100
AcDbEntity
  8
4
100
AcDbLine
 10
736.2451281671683
 20
70.92911382859609
 30
0.0
 11
736.2451281671683
 21
38.92911382859609
 31
0.0
  0
ARC
  5
1A8
330
1B
100
AcDbEntity
  8
4
100
AcDbCircle
 10
730.2451281671683
 20
42.92911382859609
 30
0.0
 40
6.0
100
AcDbArc
 50
0.0
 51
90.0
  0
ARC
  5
1A9
330
1B
100
AcDbEntity
  8
4
100
AcDbCircle
 10
739.2451281671683
 20
70.92911382859609
 30
0.0
 40
3.0
100
AcDbArc
 50
90.0
 51
180.0
  0
LINE
  5
1AA
330
1B
100
AcDbEntity
  8
4
100
AcDbLine
 10
873.2451281671683
 20
103.9288688285964
 30
0.0
 11
752.9262831671683
 21
103.9288688285964
 31
0.0
  0
LINE
  5
1AB
330
1B
100
AcDbEntity
  8
4
100
AcDbLine
 10
873.2451281671683
 20
106.4288688285964
 30
0.0
 11
756.4724231671682
 21
106.4288688285964
 31
0.0
  0
LINE
  5
1AC
330
1B
100
AcDbEntity
  8
4
100
AcDbLine
 10
756.2451281671683
 20
70.92911382859609
 30
0.0
 11
756.2451281671683
 21
38.92911382859609
 31
0.0
  0
LINE
  5
1AD
330
1B
100
AcDbEntity
  8
L-CENTER
100
AcDbLine
 10
821.2451281671683
 20
23.92911382859609
 30
0.0
 11
821.2451281671683
 21
88.92911382859609
 31
0.0
  0
ARC
  5
1AE
330
1B
100
AcDbEntity
  8
4
100
AcDbCircle
 10
759.2451281671683
 20
70.92911382859609
 30
0.0
 40
3.0
100
AcDbArc
 50
90.0
 51
180.0
  0
ARC
  5
1AF
330
1B
100
AcDbEntity
  8
4
100
AcDbCircle
 10
868.2451281671683
 20
78.92911382859609
 30
0.0
 40
5.0
100
AcDbArc
 50
270.0
 51
0.0
  0
ARC
  5
1B0
330
1B
100
AcDbEntity
  8
4
100
AcDbCircle
 10
883.2451281671683
 20
70.92911382859609
 30
0.0
 40
3.0
100
AcDbArc
 50
0.0
 51
90.0
  0
LINE
  5
1B1
330
1B
100
AcDbEntity
  8
4
100
AcDbLine
 10
901.2451281671683
 20
106.4288688285964
 30
0.0
 11
888.7451281671683
 21
106.4288688285964
 31
0.0
  0
ARC
  5
1B2
330
1B
100
AcDbEntity
  8
4
100
AcDbCircle
 10
888.7451281671683
 20
103.9288688285964
 30
0.0
 40
2.5
100
AcDbArc
 50
90.0
 51
180.0
  0
LINE
  5
1B3
330
1B
100
AcDbEntity
  8
L-CENTER
100
AcDbLine
 10
902.1322883618466
 20
329.9288688285964
 30
0.0
 11
290.3579679724899
 21
329.9288688285964
 31
0.0
  0
LINE
  5
1B4
330
1B
100
AcDbEntity
  8
L-CENTER
100
AcDbLine
 10
906.9921117038045
 20
168.9288688285964
 30
0.0
 11
187.5248981671681
 21
168.9288688285964
 31
0.0
  0
ARC
  5
1B5
330
1B
100
AcDbEntity
  8
4
100
AcDbCircle
 10
596.2451281671683
 20
845.9288688285965
 30
0.0
 40
650.000025
100
AcDbArc
 50
249.6007839999938
 51
268.2487890000004
  0
ARC
  5
1B6
330
1B
100
AcDbEntity
  8
4
100
AcDbCircle
 10
596.2451281671683
 20
-389.0711311714036
 30
0.0
 40
1000.000015
100
AcDbArc
 50
89.9999859999999
 51
104.8449309999956
  0
ARC
  5
1B7
330
1B
100
AcDbEntity
  8
4
100
AcDbCircle
 10
596.2451281671683
 20
-188.0711311714036
 30
0.0
 40
650.0000799999999
100
AcDbArc
 50
69.5106669999986
 51
110.4895649999914
  0
LINE
  5
1B8
330
1B
100
AcDbEntity
  8
4
100
AcDbLine
 10
381.2451281671683
 20
599.2223238285965
 30
0.0
 11
431.2451281671683
 21
599.2223238285965
 31
0.0
  0
LINE
  5
1B9
330
1B
100
AcDbEntity
  8
4
100
AcDbLine
 10
383.2451281671683
 20
604.7223238285965
 30
0.0
 11
429.2451281671683
 21
604.7223238285965
 31
0.0
  0
LINE
  5
1BA
330
1B
100
AcDbEntity
  8
4
100
AcDbLine
 10
383.2451281671683
 20
600.7223238285965
 30
0.0
 11
429.2451281671683
 21
600.7223238285965
 31
0.0
  0
LINE
  5
1BB
330
1B
100
AcDbEntity
  8
4
100
AcDbLine
 10
383.2451281671683
 20
609.7223238285965
 30
0.0
 11
429.2451281671683
 21
609.7223238285965
 31
0.0
  0
LINE
  5
1BC
330
1B
100
AcDbEntity
  8
4
100
AcDbLine
 10
381.2451281671683
 20
587.5428838285966
 30
0.0
 11
381.2451281671683
 21
599.2223238285965
 31
0.0
  0
ARC
  5
1BD
330
1B
100
AcDbEntity
  8
4
100
AcDbCircle
 10
1306.245128167168
 20
329.9286238285966
 30
0.0
 40
1000.00005
100
AcDbArc
 50
165.8771559999948
 51
180.0003500003384
  0
ARC
  5
1BE
330
1B
100
AcDbEntity
  8
4
100
AcDbCircle
 10
303.7451281671683
 20
233.9288688285964
 30
0.0
 40
2.5
100
AcDbArc
 50
270.0
 51
0.0
  0
LINE
  5
1BF
330
1B
100
AcDbEntity
  8
4
100
AcDbLine
 10
303.7451281671683
 20
231.4288688285964
 30
0.0
 11
291.2451281671683
 21
231.4288688285964
 31
0.0
  0
ARC
  5
1C0
330
1B
100
AcDbEntity
  8
4
100
AcDbCircle
 10
322.2451281671683
 20
168.9288688285964
 30
0.0
 40
3.0
100
AcDbArc
 50
90.0
 51
180.0
  0
LINE
  5
1C1
330
1B
100
AcDbEntity
  8
4
100
AcDbLine
 10
332.3176381671684
 20
231.4288688285964
 30
0.0
 11
306.2451281671683
 21
231.4288688285964
 31
0.0
  0
LINE
  5
1C2
330
1B
100
AcDbEntity
  8
4
100
AcDbLine
 10
331.4453231671682
 20
233.9288688285964
 30
0.0
 11
306.2451281671683
 21
233.9288688285964
 31
0.0
  0
ARC
  5
1C3
330
1B
100
AcDbEntity
  8
4
100
AcDbCircle
 10
332.3176381671684
 20
236.4288688285964
 30
0.0
 40
4.99996
100
AcDbArc
 50
270.0
 51
19.50815300000464
  0
ARC
  5
1C4
330
1B
100
AcDbEntity
  8
4
100
AcDbCircle
 10
331.4453231671682
 20
238.9288688285964
 30
0.0
 40
4.999975
100
AcDbArc
 50
270.0
 51
18.96577599999129
  0
ARC
  5
1C5
330
1B
100
AcDbEntity
  8
4
100
AcDbCircle
 10
341.3212981671684
 20
572.7181738285963
 30
0.0
 40
5.000005
100
AcDbArc
 50
104.8477970000041
 51
165.874869000011
  0
LINE
  5
1C6
330
1B
100
AcDbEntity
  8
4
100
AcDbLine
 10
383.2451281671683
 20
600.7223238285965
 30
0.0
 11
383.2451281671683
 21
609.7223238285965
 31
0.0
  0
LINE
  5
1C7
330
1B
100
AcDbEntity
  8
4
100
AcDbLine
 10
384.2451281671683
 20
600.7223238285965
 30
0.0
 11
384.2451281671683
 21
599.2223238285965
 31
0.0
  0
LINE
  5
1C8
330
1B
100
AcDbEntity
  8
L-CENTER
100
AcDbLine
 10
406.2451281671683
 20
616.8624338285963
 30
0.0
 11
406.2451281671683
 21
571.0397088285963
 31
0.0
  0
ARC
  5
1C9
330
1B
100
AcDbEntity
  8
4
100
AcDbCircle
 10
596.2451281671683
 20
-389.0711311714036
 30
0.0
 40
999.999985
100
AcDbArc
 50
75.1550830000026
 51
89.9999859999999
  0
CIRCLE
  5
1CA
330
1B
100
AcDbEntity
  8
4
100
AcDbCircle
 10
706.2451281671683
 20
343.9288688285964
 30
0.0
 40
80.0
  0
CIRCLE
  5
1CB
330
1B
100
AcDbEntity
  8
4
 62
     3
100
AcDbCircle
 10
706.2451281671683
 20
343.9288688285964
 30
0.0
 40
45.0
  0
CIRCLE
  5
1CC
330
1B
100
AcDbEntity
  8
L-CENTER
100
AcDbCircle
 10
706.2451281671683
 20
343.9288688285964
 30
0.0
 40
65.0
  0
ARC
  5
1CD
330
1B
100
AcDbEntity
  8
4
100
AcDbCircle
 10
596.2451281671683
 20
845.9288688285965
 30
0.0
 40
650.0000699999999
100
AcDbArc
 50
271.751814
 51
290.3999239999987
  0
LINE
  5
1CE
330
1B
100
AcDbEntity
  8
L-CENTER
100
AcDbLine
 10
799.2214481671685
 20
343.9288688285964
 30
0.0
 11
613.2688081671681
 21
343.9288688285964
 31
0.0
  0
LINE
  5
1CF
330
1B
100
AcDbEntity
  8
L-CENTER
100
AcDbLine
 10
764.1910452695081
 20
285.9832131083848
 30
0.0
 11
740.2232114611288
 21
309.9507618367592
 31
0.0
  0
LINE
  5
1D0
330
1B
100
AcDbEntity
  8
L-CENTER
100
AcDbLine
 10
764.1910452695083
 20
401.8745245488075
 30
0.0
 11
740.2232114611287
 21
377.9069758204336
 31
0.0
  0
CIRCLE
  5
1D3
330
1B
100
AcDbEntity
  8
4
100
AcDbCircle
 10
514.8352181671683
 20
328.9288688285964
 30
0.0
 40
95.0
  0
LINE
  5
1D5
330
1B
100
AcDbEntity
  8
L-CENTER
100
AcDbLine
 10
514.8352181671683
 20
442.2176888285966
 30
0.0
 11
514.8352181671683
 21
217.6400488285962
 31
0.0
  0
CIRCLE
  5
1D6
330
1B
100
AcDbEntity
  8
L-CENTER
100
AcDbCircle
 10
514.8352181671683
 20
328.9288688285964
 30
0.0
 40
82.5
  0
LINE
  5
1D7
330
1B
100
AcDbEntity
  8
L-CENTER
100
AcDbLine
 10
706.2451281671683
 20
436.9051888285966
 30
0.0
 11
706.2451281671683
 21
250.9525488285962
 31
0.0
  0
LINE
  5
1D8
330
1B
100
AcDbEntity
  8
L-CENTER
100
AcDbLine
 10
514.8352181671683
 20
382.5205788285965
 30
0.0
 11
514.8352181671683
 21
277.4913448054884
 31
0.0
  0
LINE
  5
1D9
330
1B
100
AcDbEntity
  8
L-CENTER
100
AcDbLine
 10
627.1195852758287
 20
328.9288688285964
 30
0.0
 11
402.5508510585077
 21
328.9288688285964
 31
0.0
  0
LINE
  5
1DA
330
1B
100
AcDbEntity
  8
L-CENTER
100
AcDbLine
 10
626.637107015154
 20
193.9288688285964
 30
0.0
 11
565.8531493191826
 21
193.9288688285964
 31
0.0
  0
LINE
  5
1DB
330
1B
100
AcDbEntity
  8
L-CENTER
100
AcDbLine
 10
561.1879178011922
 20
282.5766408357603
 30
0.0
 11
585.1554757559111
 21
258.6088162536197
 31
0.0
  0
LINE
  5
1DC
330
1B
100
AcDbEntity
  8
L-CENTER
100
AcDbLine
 10
463.1142482308753
 20
328.9288688285964
 30
0.0
 11
565.2968928239682
 21
328.9288688285964
 31
0.0
  0
LINE
  5
1DD
330
1B
100
AcDbEntity
  8
L-CENTER
100
AcDbLine
 10
468.482631853807
 20
282.5765275152352
 30
0.0
 11
444.5149405850066
 21
258.6088362464342
 31
0.0
  0
CIRCLE
  5
1DE
330
1B
100
AcDbEntity
  8
4
100
AcDbCircle
 10
596.2451281671683
 20
193.9288688285964
 30
0.0
 40
18.0
  0
CIRCLE
  5
1DF
330
1B
100
AcDbEntity
  8
4
100
AcDbCircle
 10
596.2451281671683
 20
193.9288688285964
 30
0.0
 40
20.0
  0
LINE
  5
1E0
330
1B
100
AcDbEntity
  8
4
100
AcDbLine
 10
580.6565031671684
 20
184.9288688285964
 30
0.0
 11
596.2451281671683
 21
175.9288688285964
 31
0.0
  0
LINE
  5
1E1
330
1B
100
AcDbEntity
  8
4
100
AcDbLine
 10
596.2451281671683
 20
175.9288688285964
 30
0.0
 11
611.8335081671684
 21
184.9288688285964
 31
0.0
  0
LINE
  5
1E2
330
1B
100
AcDbEntity
  8
4
100
AcDbLine
 10
596.2451281671683
 20
211.9288688285964
 30
0.0
 11
580.6565031671684
 21
202.9288688285964
 31
0.0
  0
LINE
  5
1E3
330
1B
100
AcDbEntity
  8
4
100
AcDbLine
 10
580.6565031671684
 20
184.9288688285964
 30
0.0
 11
580.6565031671684
 21
202.9288688285964
 31
0.0
  0
LINE
  5
1E4
330
1B
100
AcDbEntity
  8
4
100
AcDbLine
 10
611.8335081671684
 20
184.9288688285964
 30
0.0
 11
611.8335081671684
 21
202.9288688285964
 31
0.0
  0
LINE
  5
1E5
330
1B
100
AcDbEntity
  8
4
100
AcDbLine
 10
611.8335081671684
 20
202.9288688285964
 30
0.0
 11
596.2451281671683
 21
211.9288688285964
 31
0.0
  0
LINE
  5
1E6
330
1B
100
AcDbEntity
  8
L-CENTER
100
AcDbLine
 10
648.2994733180948
 20
285.9829508551974
 30
0.0
 11
672.2670068876184
 21
309.9507998222374
 31
0.0
  0
LINE
  5
1E7
330
1B
100
AcDbEntity
  8
L-CENTER
100
AcDbLine
 10
561.1875592710462
 20
375.2814553514348
 30
0.0
 11
585.1552479033753
 21
399.2491492567063
 31
0.0
  0
LINE
  5
1E9
330
1B
100
AcDbEntity
  8
L-CENTER
100
AcDbLine
 10
468.4828743644342
 20
375.2814526525893
 30
0.0
 11
444.515185960989
 21
399.2491467867452
 31
0.0
  0
LINE
  5
1EB
330
1B
100
AcDbEntity
  8
L-CENTER
100
AcDbLine
 10
648.2992110648279
 20
401.874524548807
 30
0.0
 11
672.2670448732079
 21
377.9069758204336
 31
0.0
  0
ARC
  5
1EE
330
1B
100
AcDbEntity
  8
4
100
AcDbCircle
 10
-113.7547668328316
 20
329.9286238285966
 30
0.0
 40
999.9999200000001
100
AcDbArc
 50
0.0
 51
14.12329299998704
  0
ARC
  5
1F7
330
1B
100
AcDbEntity
  8
4
100
AcDbCircle
 10
870.2451281671683
 20
168.9288688285964
 30
0.0
 40
3.0
100
AcDbArc
 50
0.0
 51
90.0
  0
LINE
  5
1FA
330
1B
100
AcDbEntity
  8
4
100
AcDbLine
 10
860.1726181671684
 20
231.4288688285964
 30
0.0
 11
886.2451281671683
 21
231.4288688285964
 31
0.0
  0
LINE
  5
1FB
330
1B
100
AcDbEntity
  8
4
100
AcDbLine
 10
861.0449331671683
 20
233.9288688285964
 30
0.0
 11
886.2451281671683
 21
233.9288688285964
 31
0.0
  0
ARC
  5
1FC
330
1B
100
AcDbEntity
  8
4
100
AcDbCircle
 10
861.0449331671683
 20
238.9288688285964
 30
0.0
 40
4.999975
100
AcDbArc
 50
161.0342240000089
 51
270.0
  0
ARC
  5
1FD
330
1B
100
AcDbEntity
  8
4
100
AcDbCircle
 10
860.1726181671684
 20
236.4288688285964
 30
0.0
 40
4.99996
100
AcDbArc
 50
160.4918429999888
 51
270.0
  0
LINE
  5
201
330
1B
100
AcDbEntity
  8
4
100
AcDbLine
 10
888.7451281671683
 20
231.4288688285964
 30
0.0
 11
901.2451281671683
 21
231.4288688285964
 31
0.0
  0
ARC
  5
202
330
1B
100
AcDbEntity
  8
4
100
AcDbCircle
 10
888.7451281671683
 20
233.9288688285964
 30
0.0
 40
2.5
100
AcDbArc
 50
180.0
 51
270.0
  0
ARC
  5
213
330
1B
100
AcDbEntity
  8
4
100
AcDbCircle
 10
851.1689581671683
 20
572.7181738285963
 30
0.0
 40
5.000005
100
AcDbArc
 50
14.12513099998877
 51
75.1522029999952
  0
LINE
  5
214
330
1B
100
AcDbEntity
  8
4
100
AcDbLine
 10
394.7451281671683
 20
604.7223238285965
 30
0.0
 11
394.7451281671683
 21
609.7223238285965
 31
0.0
  0
LINE
  5
215
330
1B
100
AcDbEntity
  8
4
100
AcDbLine
 10
417.7451281671683
 20
604.7223238285965
 30
0.0
 11
417.7451281671683
 21
609.7223238285965
 31
0.0
  0
LINE
  5
216
330
1B
100
AcDbEntity
  8
4
100
AcDbLine
 10
429.2451281671683
 20
600.7223238285965
 30
0.0
 11
429.2451281671683
 21
609.7223238285965
 31
0.0
  0
LINE
  5
217
330
1B
100
AcDbEntity
  8
4
100
AcDbLine
 10
431.2451281671683
 20
599.2223238285965
 30
0.0
 11
431.2451281671683
 21
597.2223238285965
 31
0.0
  0
LINE
  5
218
330
1B
100
AcDbEntity
  8
4
100
AcDbLine
 10
428.2451281671683
 20
600.7223238285965
 30
0.0
 11
428.2451281671683
 21
599.2223238285965
 31
0.0
  0
LINE
  5
219
330
1B
100
AcDbEntity
  8
4
100
AcDbLine
 10
591.2451281671683
 20
615.9288688285965
 30
0.0
 11
591.2451281671683
 21
667.9288688285965
 31
0.0
  0
LINE
  5
21A
330
1B
100
AcDbEntity
  8
4
100
AcDbLine
 10
601.2451281671683
 20
615.9288688285965
 30
0.0
 11
601.2451281671683
 21
667.9288688285965
 31
0.0
  0
LINE
  5
21B
330
1B
100
AcDbEntity
  8
4
100
AcDbLine
 10
615.2451281671683
 20
612.9288688285965
 30
0.0
 11
596.2451281671683
 21
612.9288688285965
 31
0.0
  0
LINE
  5
21C
330
1B
100
AcDbEntity
  8
4
100
AcDbLine
 10
584.0593381671683
 20
621.9288688285965
 30
0.0
 11
583.7451281671683
 21
612.9288688285965
 31
0.0
  0
LINE
  5
21D
330
1B
100
AcDbEntity
  8
4
100
AcDbLine
 10
608.4309181671683
 20
621.9288688285965
 30
0.0
 11
608.7451281671683
 21
612.9288688285965
 31
0.0
  0
LINE
  5
21E
330
1B
100
AcDbEntity
  8
4
100
AcDbLine
 10
577.2451281671683
 20
612.9288688285965
 30
0.0
 11
596.2451281671683
 21
612.9288688285965
 31
0.0
  0
ARC
  5
21F
330
1B
100
AcDbEntity
  8
4
100
AcDbCircle
 10
590.2451281671683
 20
615.9288688285965
 30
0.0
 40
1.0
100
AcDbArc
 50
270.0
 51
0.0
  0
LINE
  5
220
330
1B
100
AcDbEntity
  8
4
100
AcDbLine
 10
577.2451281671683
 20
610.7484488285963
 30
0.0
 11
577.2451281671683
 21
612.9288688285965
 31
0.0
  0
ARC
  5
221
330
1B
100
AcDbEntity
  8
4
100
AcDbCircle
 10
602.2451281671683
 20
615.9288688285965
 30
0.0
 40
1.0
100
AcDbArc
 50
180.0
 51
270.0
  0
LINE
  5
222
330
1B
100
AcDbEntity
  8
4
100
AcDbLine
 10
591.2451281671683
 20
623.1083138285967
 30
0.0
 11
584.0593381671683
 21
621.9288688285965
 31
0.0
  0
LINE
  5
223
330
1B
100
AcDbEntity
  8
4
100
AcDbLine
 10
584.0593381671683
 20
621.9288688285965
 30
0.0
 11
591.2451281671683
 21
621.9288688285965
 31
0.0
  0
LINE
  5
224
330
1B
100
AcDbEntity
  8
4
100
AcDbLine
 10
601.2451281671683
 20
623.1083138285967
 30
0.0
 11
608.4309181671683
 21
621.9288688285965
 31
0.0
  0
LINE
  5
225
330
1B
100
AcDbEntity
  8
4
100
AcDbLine
 10
601.2451281671683
 20
621.9288688285965
 30
0.0
 11
608.4309181671683
 21
621.9288688285965
 31
0.0
  0
LINE
  5
226
330
1B
100
AcDbEntity
  8
4
100
AcDbLine
 10
615.2451281671683
 20
610.7484488285963
 30
0.0
 11
615.2451281671683
 21
612.9288688285965
 31
0.0
  0
ARC
  5
227
330
1B
100
AcDbEntity
  8
4
100
AcDbCircle
 10
596.2451281671683
 20
667.9288688285965
 30
0.0
 40
5.0
100
AcDbArc
 50
0.0
 51
180.0
  0
LINE
  5
228
330
1B
100
AcDbEntity
  8
4
100
AcDbLine
 10
1244.629377019225
 20
73.92911382859609
 30
0.0
 11
1263.629377019225
 21
168.9288688285964
 31
0.0
  0
LINE
  5
22C
330
1B
100
AcDbEntity
  8
L-CENTER
100
AcDbLine
 10
1367.129377019225
 20
22.84154938324525
 30
0.0
 11
1367.129377019225
 21
682.1822700504986
 31
0.0
  0
LINE
  5
22D
330
1B
100
AcDbEntity
  8
4
100
AcDbLine
 10
1476.129377019226
 20
107.2407138285961
 30
0.0
 11
1476.129377019226
 21
604.9288688285965
 31
0.0
  0
LINE
  5
22E
330
1B
100
AcDbEntity
  8
4
100
AcDbLine
 10
1451.129377019225
 20
88.92911382859609
 30
0.0
 11
1451.129377019225
 21
610.9288688285965
 31
0.0
  0
LINE
  5
22F
330
1B
100
AcDbEntity
  8
L-CENTER
100
AcDbLine
 10
1328.129377019225
 20
243.5926888285966
 30
0.0
 11
1328.129377019225
 21
94.26504882859615
 31
0.0
  0
ARC
  5
230
330
1B
100
AcDbEntity
  8
4
100
AcDbCircle
 10
1040.629377019225
 20
168.9288688285964
 30
0.0
 40
349.999905
100
AcDbArc
 50
351.1051689999957
 51
8.89580400000565
  0
ARC
  5
231
330
1B
100
AcDbEntity
  8
4
100
AcDbCircle
 10
1613.629377019226
 20
168.9288688285964
 30
0.0
 40
350.00001
100
AcDbArc
 50
170.8144390000119
 51
189.1859619999908
  0
ARC
  5
232
330
1B
100
AcDbEntity
  8
4
100
AcDbCircle
 10
1615.629377019226
 20
168.9288688285964
 30
0.0
 40
349.999975
100
AcDbArc
 50
171.1046430000091
 51
188.8962049999933
  0
CIRCLE
  5
233
330
1B
100
AcDbEntity
  8
L-CENTER
100
AcDbCircle
 10
1328.129377019225
 20
168.9288688285964
 30
0.0
 40
60.0
  0
LINE
  5
234
330
1B
100
AcDbEntity
  8
4
100
AcDbLine
 10
1489.629377019225
 20
73.92911382859609
 30
0.0
 11
1451.129377019225
 21
168.9288688285964
 31
0.0
  0
TEXT
  5
235
330
1B
100
AcDbEntity
  8
3
100
AcDbText
 10
996.9158950322073
 20
36.33157596186527
 30
0.0
 40
15.61517997527595
  1
LD7-03
  7
KANJI
100
AcDbText
  0
LINE
  5
237
330
1B
100
AcDbEntity
  8
4
100
AcDbLine
 10
1521.629377019225
 20
73.92911382859609
 30
0.0
 11
1212.629377019225
 21
73.92911382859609
 31
0.0
  0
LINE
  5
238
330
1B
100
AcDbEntity
  8
4
100
AcDbLine
 10
1524.629377019225
 20
38.92911382859609
 30
0.0
 11
1209.629377019225
 21
38.92911382859609
 31
0.0
  0
ARC
  5
239
330
1B
100
AcDbEntity
  8
4
100
AcDbCircle
 10
1328.129137019225
 20
456.4288688285964
 30
0.0
 40
350.0000900000001
100
AcDbArc
 50
261.1047279999988
 51
278.8965270000008
  0
ARC
  5
23A
330
1B
100
AcDbEntity
  8
4
100
AcDbCircle
 10
1328.129137019225
 20
454.4288688285964
 30
0.0
 40
349.999945
100
AcDbArc
 50
260.8144779999973
 51
261.9037140000037
  0
LINE
  5
242
330
1B
100
AcDbEntity
  8
L-CENTER
100
AcDbLine
 10
1244.629377019225
 20
88.92911382859609
 30
0.0
 11
1244.629377019225
 21
23.92911382859609
 31
0.0
  0
LINE
  5
243
330
1B
100
AcDbEntity
  8
4
100
AcDbLine
 10
1209.629377019225
 20
70.92911382859609
 30
0.0
 11
1209.629377019225
 21
38.92911382859609
 31
0.0
  0
ARC
  5
244
330
1B
100
AcDbEntity
  8
4
100
AcDbCircle
 10
1212.629377019225
 20
70.92911382859609
 30
0.0
 40
3.0
100
AcDbArc
 50
90.0
 51
180.0
  0
ARC
  5
245
330
1B
100
AcDbEntity
  8
4
100
AcDbCircle
 10
1273.053942019225
 20
113.8531838285961
 30
0.0
 40
4.999919999999999
100
AcDbArc
 50
189.1849810000035
 51
260.8122589999986
  0
ARC
  5
246
330
1B
100
AcDbEntity
  8
4
100
AcDbCircle
 10
1274.779282019225
 20
115.5787688285963
 30
0.0
 40
5.000084999999999
100
AcDbArc
 50
188.8956840000095
 51
261.1043050000021
  0
ARC
  5
247
330
1B
100
AcDbEntity
  8
4
100
AcDbCircle
 10
1466.129377019226
 20
88.92911382859609
 30
0.0
 40
15.0
100
AcDbArc
 50
180.0
 51
270.0009360000004
  0
ARC
  5
248
330
1B
100
AcDbEntity
  8
4
100
AcDbCircle
 10
788.0568981671684
 20
62.51407382859622
 30
0.0
 40
5.04553
100
AcDbArc
 50
118.9512040000113
 51
210.819213999999
  0
ARC
  5
249
330
1B
100
AcDbEntity
  8
4
100
AcDbCircle
 10
788.0568981671684
 20
62.51407382859622
 30
0.0
 40
5.04553
100
AcDbArc
 50
118.9512040000113
 51
210.819213999999
  0
ARC
  5
24A
330
1B
100
AcDbEntity
  8
4
100
AcDbCircle
 10
779.3911281671683
 20
57.3441538285964
 30
0.0
 40
5.04553
100
AcDbArc
 50
298.9512040000113
 51
30.81921399999898
  0
ARC
  5
24B
330
1B
100
AcDbEntity
  8
4
100
AcDbCircle
 10
779.3911281671683
 20
57.3441538285964
 30
0.0
 40
5.04553
100
AcDbArc
 50
298.9512040000113
 51
30.81921399999898
  0
LINE
  5
24C
330
1B
100
AcDbEntity
  8
4
100
AcDbLine
 10
1283.129377019225
 20
102.9674438285964
 30
0.0
 11
1283.129377019225
 21
73.92911382859609
 31
0.0
  0
ARC
  5
24D
330
1B
100
AcDbEntity
  8
4
100
AcDbCircle
 10
1278.129377019225
 20
102.9674438285964
 30
0.0
 40
5.000010000000001
100
AcDbArc
 50
0.0
 51
81.90470899999794
  0
ARC
  5
24E
330
1B
100
AcDbEntity
  8
4
100
AcDbCircle
 10
784.2756481671684
 20
48.51407382859622
 30
0.0
 40
5.04553
100
AcDbArc
 50
118.9512040000113
 51
210.819213999999
  0
ARC
  5
24F
330
1B
100
AcDbEntity
  8
4
100
AcDbCircle
 10
784.2756481671684
 20
48.51407382859622
 30
0.0
 40
5.04553
100
AcDbArc
 50
118.9512040000113
 51
210.819213999999
  0
ARC
  5
250
330
1B
100
AcDbEntity
  8
4
100
AcDbCircle
 10
775.6096331671683
 20
43.3441538285964
 30
0.0
 40
5.04553
100
AcDbArc
 50
298.9512040000113
 51
30.81921399999898
  0
ARC
  5
251
330
1B
100
AcDbEntity
  8
4
100
AcDbCircle
 10
775.6096331671683
 20
43.3441538285964
 30
0.0
 40
5.04553
100
AcDbArc
 50
298.9512040000113
 51
30.81921399999898
  0
ARC
  5
252
330
1B
100
AcDbEntity
  8
4
100
AcDbCircle
 10
1381.479477019225
 20
115.5787688285963
 30
0.0
 40
5.000084999999999
100
AcDbArc
 50
278.8956840000039
 51
351.104315000005
  0
ARC
  5
256
330
1B
100
AcDbEntity
  8
4
100
AcDbCircle
 10
783.1723781671683
 20
71.3441538285964
 30
0.0
 40
5.04553
100
AcDbArc
 50
298.9512040000113
 51
30.81921399999898
  0
ARC
  5
257
330
1B
100
AcDbEntity
  8
4
100
AcDbCircle
 10
783.1723781671683
 20
71.3441538285964
 30
0.0
 40
5.04553
100
AcDbArc
 50
298.9512040000113
 51
30.81921399999898
  0
LINE
  5
258
330
1B
100
AcDbEntity
  8
4
100
AcDbLine
 10
1524.629377019225
 20
70.92911382859609
 30
0.0
 11
1524.629377019225
 21
38.92911382859609
 31
0.0
  0
LINE
  5
259
330
1B
100
AcDbEntity
  8
L-CENTER
100
AcDbLine
 10
1489.629377019225
 20
23.92911382859609
 30
0.0
 11
1489.629377019225
 21
88.92911382859609
 31
0.0
  0
LINE
  5
25A
330
1B
100
AcDbEntity
  8
4
100
AcDbLine
 10
810.2451281671686
 20
38.92911382859609
 30
0.0
 11
810.2451281671686
 21
73.92911382859609
 31
0.0
  0
LINE
  5
25B
330
1B
100
AcDbEntity
  8
4
100
AcDbLine
 10
832.2451281671686
 20
73.92911382859609
 30
0.0
 11
832.2451281671686
 21
38.92911382859609
 31
0.0
  0
ARC
  5
25D
330
1B
100
AcDbEntity
  8
4
100
AcDbCircle
 10
1521.629377019225
 20
70.92911382859609
 30
0.0
 40
3.0
100
AcDbArc
 50
0.0
 51
90.0
  0
LINE
  5
262
330
1B
100
AcDbEntity
  8
L-CENTER
100
AcDbLine
 10
1504.281020026067
 20
328.9288688285964
 30
0.0
 11
1094.670176841807
 21
328.9288688285964
 31
0.0
  0
LINE
  5
268
330
1B
100
AcDbEntity
  8
4
100
AcDbLine
 10
1454.129377019225
 20
161.5265238285964
 30
0.0
 11
1454.129377019225
 21
604.9288688285965
 31
0.0
  0
LINE
  5
269
330
1B
100
AcDbEntity
  8
4
100
AcDbLine
 10
1283.129377019225
 20
234.8900488285962
 30
0.0
 11
1283.129377019225
 21
610.9288688285965
 31
0.0
  0
LINE
  5
26A
330
1B
100
AcDbEntity
  8
4
100
AcDbLine
 10
1266.129377019225
 20
210.6871688285963
 30
0.0
 11
1266.129377019225
 21
604.9288688285965
 31
0.0
  0
LINE
  5
26B
330
1B
100
AcDbEntity
  8
L-CENTER
100
AcDbLine
 10
1402.793197019226
 20
168.9288688285964
 30
0.0
 11
1253.465557019225
 21
168.9288688285964
 31
0.0
  0
LINE
  5
26C
330
1B
100
AcDbEntity
  8
L-CENTER
100
AcDbLine
 10
1504.281020026067
 20
329.9288688285964
 30
0.0
 11
1228.568102019226
 21
329.9288688285964
 31
0.0
  0
ARC
  5
26D
330
1B
100
AcDbEntity
  8
4
100
AcDbCircle
 10
1328.129137019225
 20
-118.5711311714036
 30
0.0
 40
349.999905
100
AcDbArc
 50
81.10419600000333
 51
98.89612600000052
  0
ARC
  5
26E
330
1B
100
AcDbEntity
  8
4
100
AcDbCircle
 10
1328.129137019225
 20
-116.5711311714036
 30
0.0
 40
350.00004
100
AcDbArc
 50
98.09709400000104
 51
99.18600200000247
  0
ARC
  5
26F
330
1B
100
AcDbEntity
  8
4
100
AcDbCircle
 10
7258.125717019225
 20
329.9288688285964
 30
0.0
 40
5999.999980000001
100
AcDbArc
 50
177.6604320000073
 51
181.6775680000129
  0
LINE
  5
271
330
1B
100
AcDbEntity
  8
4
100
AcDbLine
 10
1240.129377019225
 20
423.9288688285964
 30
0.0
 11
1240.129377019225
 21
233.9288688285964
 31
0.0
  0
LINE
  5
272
330
1B
100
AcDbEntity
  8
4
100
AcDbLine
 10
1252.129377019225
 20
233.9288688285964
 30
0.0
 11
1252.129377019225
 21
423.9288688285964
 31
0.0
  0
LINE
  5
273
330
1B
100
AcDbEntity
  8
4
100
AcDbLine
 10
1263.132307019225
 20
166.4437588285963
 30
0.0
 11
1263.132307019225
 21
574.9288688285965
 31
0.0
  0
LINE
  5
27B
330
1B
100
AcDbEntity
  8
4
100
AcDbLine
 10
1252.169662019225
 20
175.9288688285964
 30
0.0
 11
1252.169662019225
 21
211.9288688285964
 31
0.0
  0
LINE
  5
27C
330
1B
100
AcDbEntity
  8
4
100
AcDbLine
 10
1254.169662019225
 20
175.9288688285964
 30
0.0
 11
1254.169662019225
 21
211.9288688285964
 31
0.0
  0
LINE
  5
27D
330
1B
100
AcDbEntity
  8
4
100
AcDbLine
 10
1255.669662019225
 20
176.9288688285964
 30
0.0
 11
1255.669662019225
 21
210.9288688285964
 31
0.0
  0
LINE
  5
27E
330
1B
100
AcDbEntity
  8
4
100
AcDbLine
 10
1247.169662019225
 20
175.9288688285964
 30
0.0
 11
1247.169662019225
 21
211.9288688285964
 31
0.0
  0
LINE
  5
27F
330
1B
100
AcDbEntity
  8
4
100
AcDbLine
 10
1255.669662019225
 20
213.9288688285964
 30
0.0
 11
1255.669662019225
 21
173.9288688285964
 31
0.0
  0
LINE
  5
280
330
1B
100
AcDbEntity
  8
4
100
AcDbLine
 10
1254.169662019225
 20
175.9288688285964
 30
0.0
 11
1247.169662019225
 21
175.9288688285964
 31
0.0
  0
LINE
  5
281
330
1B
100
AcDbEntity
  8
4
100
AcDbLine
 10
1254.169662019225
 20
176.9288688285964
 30
0.0
 11
1255.669662019225
 21
176.9288688285964
 31
0.0
  0
LINE
  5
282
330
1B
100
AcDbEntity
  8
4
100
AcDbLine
 10
1255.669662019225
 20
173.9288688285964
 30
0.0
 11
1260.156477019225
 21
173.9288688285964
 31
0.0
  0
LINE
  5
283
330
1B
100
AcDbEntity
  8
L-CENTER
100
AcDbLine
 10
1242.875872019225
 20
193.9288688285964
 30
0.0
 11
1273.585922019225
 21
193.9288688285964
 31
0.0
  0
LINE
  5
284
330
1B
100
AcDbEntity
  8
4
100
AcDbLine
 10
1254.169662019225
 20
211.9288688285964
 30
0.0
 11
1247.169662019225
 21
211.9288688285964
 31
0.0
  0
LINE
  5
285
330
1B
100
AcDbEntity
  8
4
100
AcDbLine
 10
1252.169662019225
 20
184.9288688285964
 30
0.0
 11
1247.169662019225
 21
184.9288688285964
 31
0.0
  0
LINE
  5
286
330
1B
100
AcDbEntity
  8
4
100
AcDbLine
 10
1252.169662019225
 20
202.9288688285964
 30
0.0
 11
1247.169662019225
 21
202.9288688285964
 31
0.0
  0
LINE
  5
287
330
1B
100
AcDbEntity
  8
4
100
AcDbLine
 10
1255.669662019225
 20
210.9288688285964
 30
0.0
 11
1254.169662019225
 21
210.9288688285964
 31
0.0
  0
LINE
  5
288
330
1B
100
AcDbEntity
  8
4
100
AcDbLine
 10
1252.129377019225
 20
233.9288688285964
 30
0.0
 11
1258.896227019226
 21
233.9288688285964
 31
0.0
  0
LINE
  5
289
330
1B
100
AcDbEntity
  8
4
100
AcDbLine
 10
1240.129377019225
 20
233.9288688285964
 30
0.0
 11
1252.129377019225
 21
233.9288688285964
 31
0.0
  0
LINE
  5
28A
330
1B
100
AcDbEntity
  8
4
100
AcDbLine
 10
1255.669662019225
 20
213.9288688285964
 30
0.0
 11
1259.249497019225
 21
213.9288688285964
 31
0.0
  0
ARC
  5
28B
330
1B
100
AcDbEntity
  8
4
100
AcDbCircle
 10
1274.779282019225
 20
222.2789638285966
 30
0.0
 40
5.000084999999999
100
AcDbArc
 50
98.89569499999797
 51
171.1043049999888
  0
ARC
  5
28C
330
1B
100
AcDbEntity
  8
4
100
AcDbCircle
 10
1273.053942019225
 20
224.0045538285966
 30
0.0
 40
4.999919999999999
100
AcDbArc
 50
99.1877410000014
 51
170.8150189999965
  0
LINE
  5
28D
330
1B
100
AcDbEntity
  8
4
100
AcDbLine
 10
1240.129377019225
 20
288.7670038285963
 30
0.0
 11
1240.129377019225
 21
307.1669038285962
 31
0.0
  0
LINE
  5
28E
330
1B
100
AcDbEntity
  8
4
100
AcDbLine
 10
1237.629377019225
 20
288.1669038285962
 30
0.0
 11
1237.629377019225
 21
307.7670038285963
 31
0.0
  0
LINE
  5
28F
330
1B
100
AcDbEntity
  8
4
100
AcDbLine
 10
1230.629377019225
 20
290.6131938285961
 30
0.0
 11
1230.629377019225
 21
305.3207138285965
 31
0.0
  0
ARC
  5
290
330
1B
100
AcDbEntity
  8
4
100
AcDbCircle
 10
1244.532942019225
 20
297.9669538285965
 30
0.0
 40
13.90362
100
AcDbArc
 50
159.3323219999891
 51
200.6686150000066
  0
ARC
  5
291
330
1B
100
AcDbEntity
  8
4
100
AcDbCircle
 10
1234.420397019225
 20
277.9464488285965
 30
0.0
 40
3.79102
100
AcDbArc
 50
139.8141240000035
 51
220.1882559999892
  0
ARC
  5
292
330
1B
100
AcDbEntity
  8
4
100
AcDbCircle
 10
1234.420397019225
 20
263.2389288285966
 30
0.0
 40
3.790925
100
AcDbArc
 50
139.8117440000098
 51
220.1882559999902
  0
ARC
  5
293
330
1B
100
AcDbEntity
  8
4
100
AcDbCircle
 10
1244.532942019225
 20
270.5926888285966
 30
0.0
 40
13.90362
100
AcDbArc
 50
159.3323259999972
 51
200.6686180000107
  0
ARC
  5
294
330
1B
100
AcDbEntity
  8
4
100
AcDbCircle
 10
1234.420397019225
 20
290.6131938285961
 30
0.0
 40
3.790925
100
AcDbArc
 50
139.8117440000098
 51
220.1882559999902
  0
LINE
  5
295
330
1B
100
AcDbEntity
  8
4
100
AcDbLine
 10
1230.629377019225
 20
263.2389288285966
 30
0.0
 11
1230.629377019225
 21
277.9464488285965
 31
0.0
  0
LINE
  5
296
330
1B
100
AcDbEntity
  8
4
100
AcDbLine
 10
1237.629377019225
 20
260.7926388285963
 30
0.0
 11
1237.629377019225
 21
280.3927338285965
 31
0.0
  0
LINE
  5
297
330
1B
100
AcDbEntity
  8
4
100
AcDbLine
 10
1240.129377019225
 20
261.3927338285965
 30
0.0
 11
1240.129377019225
 21
279.7926388285963
 31
0.0
  0
LINE
  5
298
330
1B
100
AcDbEntity
  8
4
100
AcDbLine
 10
1258.491197019225
 20
263.9288688285964
 30
0.0
 11
1252.129377019225
 21
263.9288688285964
 31
0.0
  0
LINE
  5
299
330
1B
100
AcDbEntity
  8
4
100
AcDbLine
 10
1240.129377019225
 20
263.9288688285964
 30
0.0
 11
1252.129377019225
 21
263.9288688285964
 31
0.0
  0
LINE
  5
29A
330
1B
100
AcDbEntity
  8
4
100
AcDbLine
 10
1240.129377019225
 20
263.9288688285964
 30
0.0
 11
1252.129377019225
 21
263.9288688285964
 31
0.0
  0
LINE
  5
29B
330
1B
100
AcDbEntity
  8
4
100
AcDbLine
 10
1237.629377019225
 20
261.3927338285965
 30
0.0
 11
1240.129377019225
 21
261.3927338285965
 31
0.0
  0
LINE
  5
29C
330
1B
100
AcDbEntity
  8
4
100
AcDbLine
 10
1231.524397019225
 20
260.7926388285963
 30
0.0
 11
1237.629377019225
 21
260.7926388285963
 31
0.0
  0
LINE
  5
29D
330
1B
100
AcDbEntity
  8
4
100
AcDbLine
 10
1237.629377019225
 20
265.6852138285966
 30
0.0
 11
1231.524397019225
 21
265.6852138285966
 31
0.0
  0
LINE
  5
29E
330
1B
100
AcDbEntity
  8
4
100
AcDbLine
 10
1240.129377019225
 20
279.7926388285963
 30
0.0
 11
1237.629377019225
 21
279.7926388285963
 31
0.0
  0
LINE
  5
29F
330
1B
100
AcDbEntity
  8
4
100
AcDbLine
 10
1231.524397019225
 20
280.3927338285965
 30
0.0
 11
1237.629377019225
 21
280.3927338285965
 31
0.0
  0
LINE
  5
2A0
330
1B
100
AcDbEntity
  8
4
100
AcDbLine
 10
1237.629377019225
 20
275.5001588285962
 30
0.0
 11
1231.524397019225
 21
275.5001588285962
 31
0.0
  0
LINE
  5
2A1
330
1B
100
AcDbEntity
  8
4
100
AcDbLine
 10
1237.629377019225
 20
288.7670038285963
 30
0.0
 11
1240.129377019225
 21
288.7670038285963
 31
0.0
  0
LINE
  5
2A2
330
1B
100
AcDbEntity
  8
4
100
AcDbLine
 10
1237.629377019225
 20
293.0594838285964
 30
0.0
 11
1231.524397019225
 21
293.0594838285964
 31
0.0
  0
LINE
  5
2A3
330
1B
100
AcDbEntity
  8
4
100
AcDbLine
 10
1231.524397019225
 20
288.1669038285962
 30
0.0
 11
1237.629377019225
 21
288.1669038285962
 31
0.0
  0
ARC
  5
2A4
330
1B
100
AcDbEntity
  8
4
100
AcDbCircle
 10
1234.420397019225
 20
305.3207138285965
 30
0.0
 40
3.79102
100
AcDbArc
 50
139.8141240000035
 51
220.1882559999892
  0
LINE
  5
2A5
330
1B
100
AcDbEntity
  8
4
100
AcDbLine
 10
1237.629377019225
 20
302.8744238285962
 30
0.0
 11
1231.524397019225
 21
302.8744238285962
 31
0.0
  0
LINE
  5
2A6
330
1B
100
AcDbEntity
  8
4
100
AcDbLine
 10
1240.129377019225
 20
307.1669038285962
 30
0.0
 11
1237.629377019225
 21
307.1669038285962
 31
0.0
  0
LINE
  5
2A7
330
1B
100
AcDbEntity
  8
4
100
AcDbLine
 10
1231.524397019225
 20
307.7670038285963
 30
0.0
 11
1237.629377019225
 21
307.7670038285963
 31
0.0
  0
ARC
  5
2A9
330
1B
100
AcDbEntity
  8
4
100
AcDbCircle
 10
1234.420397019225
 20
397.2445438285966
 30
0.0
 40
3.79102
100
AcDbArc
 50
139.8141240000035
 51
220.1882559999892
  0
ARC
  5
2AA
330
1B
100
AcDbEntity
  8
4
100
AcDbCircle
 10
1234.420397019225
 20
379.9115338285964
 30
0.0
 40
3.790935
100
AcDbArc
 50
159.7397869999997
 51
220.1882669999929
  0
ARC
  5
2AB
330
1B
100
AcDbEntity
  8
4
100
AcDbCircle
 10
1244.532942019225
 20
389.8907838285962
 30
0.0
 40
13.90362
100
AcDbArc
 50
159.3323259999972
 51
200.6686180000107
  0
ARC
  5
2AC
330
1B
100
AcDbEntity
  8
4
100
AcDbCircle
 10
1234.420397019225
 20
382.5370238285963
 30
0.0
 40
3.790925
100
AcDbArc
 50
139.8117440000098
 51
220.1882559999902
  0
LINE
  5
2AD
330
1B
100
AcDbEntity
  8
4
100
AcDbLine
 10
1230.629377019225
 20
382.5370238285963
 30
0.0
 11
1230.629377019225
 21
397.2445438285966
 31
0.0
  0
LINE
  5
2AE
330
1B
100
AcDbEntity
  8
4
100
AcDbLine
 10
1230.629377019225
 20
379.9115338285964
 30
0.0
 11
1230.629377019225
 21
394.6190538285963
 31
0.0
  0
LINE
  5
2AF
330
1B
100
AcDbEntity
  8
4
100
AcDbLine
 10
1240.129377019225
 20
380.6908288285966
 30
0.0
 11
1240.129377019225
 21
399.0907338285964
 31
0.0
  0
LINE
  5
2B0
330
1B
100
AcDbEntity
  8
4
100
AcDbLine
 10
1237.629377019225
 20
380.0907338285964
 30
0.0
 11
1237.629377019225
 21
399.6908288285966
 31
0.0
  0
LINE
  5
2B1
330
1B
100
AcDbEntity
  8
4
100
AcDbLine
 10
1237.629377019225
 20
377.4652438285965
 30
0.0
 11
1237.629377019225
 21
397.0653438285962
 31
0.0
  0
LINE
  5
2B2
330
1B
100
AcDbEntity
  8
4
100
AcDbLine
 10
1240.129377019225
 20
378.0653438285962
 30
0.0
 11
1240.129377019225
 21
396.4652438285965
 31
0.0
  0
LINE
  5
2B3
330
1B
100
AcDbEntity
  8
4
100
AcDbLine
 10
1237.629377019225
 20
378.0653438285962
 30
0.0
 11
1240.129377019225
 21
378.0653438285962
 31
0.0
  0
LINE
  5
2B4
330
1B
100
AcDbEntity
  8
4
100
AcDbLine
 10
1237.629377019225
 20
380.6908288285966
 30
0.0
 11
1240.129377019225
 21
380.6908288285966
 31
0.0
  0
LINE
  5
2B5
330
1B
100
AcDbEntity
  8
4
100
AcDbLine
 10
1231.524397019225
 20
377.4652438285965
 30
0.0
 11
1237.629377019225
 21
377.4652438285965
 31
0.0
  0
LINE
  5
2B6
330
1B
100
AcDbEntity
  8
4
100
AcDbLine
 10
1237.629377019225
 20
384.9833138285966
 30
0.0
 11
1231.524397019225
 21
384.9833138285966
 31
0.0
  0
LINE
  5
2B7
330
1B
100
AcDbEntity
  8
4
100
AcDbLine
 10
1231.524397019225
 20
380.0907338285964
 30
0.0
 11
1237.629377019225
 21
380.0907338285964
 31
0.0
  0
LINE
  5
2B8
330
1B
100
AcDbEntity
  8
4
100
AcDbLine
 10
1237.629377019225
 20
394.7982538285963
 30
0.0
 11
1231.524397019225
 21
394.7982538285963
 31
0.0
  0
LINE
  5
2B9
330
1B
100
AcDbEntity
  8
4
100
AcDbLine
 10
1240.129377019225
 20
399.0907338285964
 30
0.0
 11
1237.629377019225
 21
399.0907338285964
 31
0.0
  0
LINE
  5
2BA
330
1B
100
AcDbEntity
  8
4
100
AcDbLine
 10
1231.524397019225
 20
399.6908288285966
 30
0.0
 11
1237.629377019225
 21
399.6908288285966
 31
0.0
  0
LINE
  5
2BB
330
1B
100
AcDbEntity
  8
4
100
AcDbLine
 10
1258.864487019225
 20
423.9288688285964
 30
0.0
 11
1252.129377019225
 21
423.9288688285964
 31
0.0
  0
LINE
  5
2BC
330
1B
100
AcDbEntity
  8
4
100
AcDbLine
 10
1252.129377019225
 20
423.9288688285964
 30
0.0
 11
1240.129377019225
 21
423.9288688285964
 31
0.0
  0
LINE
  5
2BD
330
1B
100
AcDbEntity
  8
4
100
AcDbLine
 10
1263.132307019225
 20
574.9288688285965
 30
0.0
 11
1266.129377019225
 21
574.9288688285965
 31
0.0
  0
LINE
  5
2BF
330
1B
100
AcDbEntity
  8
4
100
AcDbLine
 10
1494.129377019225
 20
423.9288688285964
 30
0.0
 11
1494.129377019225
 21
233.9288688285964
 31
0.0
  0
LINE
  5
2C0
330
1B
100
AcDbEntity
  8
4
100
AcDbLine
 10
1482.129377019225
 20
242.4313088285961
 30
0.0
 11
1482.129377019225
 21
417.4269138285962
 31
0.0
  0
ARC
  5
2C7
330
1B
100
AcDbEntity
  8
4
100
AcDbCircle
 10
1278.129377019225
 20
234.8900488285962
 30
0.0
 40
5.000010000000001
100
AcDbArc
 50
278.0952910000021
 51
0.0
  0
ARC
  5
2C9
330
1B
100
AcDbEntity
  8
4
100
AcDbCircle
 10
1381.479477019225
 20
222.2789638285966
 30
0.0
 40
5.000084999999999
100
AcDbArc
 50
8.895697000008086
 51
81.1043159999961
  0
LINE
  5
2CA
330
1B
100
AcDbEntity
  8
4
100
AcDbLine
 10
1479.129377019225
 20
242.4313088285961
 30
0.0
 11
1479.129377019225
 21
218.4313088285961
 31
0.0
  0
LINE
  5
2CB
330
1B
100
AcDbEntity
  8
4
100
AcDbLine
 10
1476.129377019226
 20
218.4313088285961
 30
0.0
 11
1476.129377019226
 21
242.4313088285961
 31
0.0
  0
ARC
  5
2CC
330
1B
100
AcDbEntity
  8
4
100
AcDbCircle
 10
1483.545637019226
 20
239.4313088285961
 30
0.0
 40
4.583600000000001
100
AcDbArc
 50
319.1186700000108
 51
40.88332600001215
  0
LINE
  5
2CD
330
1B
100
AcDbEntity
  8
L-CENTER
100
AcDbLine
 10
1425.567823181867
 20
230.4313088285961
 30
0.0
 11
1492.46042075919
 21
230.4313088285961
 31
0.0
  0
LINE
  5
2CE
330
1B
100
AcDbEntity
  8
4
100
AcDbLine
 10
1488.129377019226
 20
239.4313088285961
 30
0.0
 11
1488.129377019226
 21
221.4313088285961
 31
0.0
  0
ARC
  5
2CF
330
1B
100
AcDbEntity
  8
4
100
AcDbCircle
 10
1470.129377019225
 20
230.4313088285961
 30
0.0
 40
17.999935
100
AcDbArc
 50
340.5303929999938
 51
19.47133100000315
  0
LINE
  5
2D0
330
1B
100
AcDbEntity
  8
4
100
AcDbLine
 10
1494.129377019225
 20
233.9288688285964
 30
0.0
 11
1488.129377019226
 21
233.9288688285964
 31
0.0
  0
ARC
  5
2D1
330
1B
100
AcDbEntity
  8
4
100
AcDbCircle
 10
1483.545637019226
 20
221.4313088285961
 30
0.0
 40
4.583600000000001
100
AcDbArc
 50
319.1186700000108
 51
40.88332600001215
  0
LINE
  5
2D2
330
1B
100
AcDbEntity
  8
4
100
AcDbLine
 10
1476.129377019226
 20
218.4313088285961
 30
0.0
 11
1479.129377019225
 21
218.4313088285961
 31
0.0
  0
LINE
  5
2D3
330
1B
100
AcDbEntity
  8
4
100
AcDbLine
 10
1487.099837019225
 20
218.4313088285961
 30
0.0
 11
1479.129377019225
 21
218.4313088285961
 31
0.0
  0
LINE
  5
2D4
330
1B
100
AcDbEntity
  8
4
100
AcDbLine
 10
1479.129377019225
 20
224.4313088285961
 30
0.0
 11
1487.099837019225
 21
224.4313088285961
 31
0.0
  0
LINE
  5
2D5
330
1B
100
AcDbEntity
  8
4
100
AcDbLine
 10
1479.129377019225
 20
236.4313088285961
 30
0.0
 11
1487.099837019225
 21
236.4313088285961
 31
0.0
  0
LINE
  5
2D6
330
1B
100
AcDbEntity
  8
4
100
AcDbLine
 10
1503.629377019226
 20
305.3207138285965
 30
0.0
 11
1503.629377019226
 21
290.6131938285961
 31
0.0
  0
LINE
  5
2D7
330
1B
100
AcDbEntity
  8
4
100
AcDbLine
 10
1494.129377019225
 20
307.1669038285962
 30
0.0
 11
1494.129377019225
 21
288.7670038285963
 31
0.0
  0
LINE
  5
2D8
330
1B
100
AcDbEntity
  8
4
100
AcDbLine
 10
1496.629377019225
 20
307.7670038285963
 30
0.0
 11
1496.629377019225
 21
288.1669038285962
 31
0.0
  0
ARC
  5
2D9
330
1B
100
AcDbEntity
  8
4
100
AcDbCircle
 10
1489.725817019225
 20
297.9669538285965
 30
0.0
 40
13.90362
100
AcDbArc
 50
339.3323259999972
 51
20.66861800001074
  0
LINE
  5
2DA
330
1B
100
AcDbEntity
  8
L-CENTER
100
AcDbLine
 10
1508.372787019225
 20
270.5926888285966
 30
0.0
 11
1466.97181248149
 21
270.5926888285966
 31
0.0
  0
LINE
  5
2DB
330
1B
100
AcDbEntity
  8
4
100
AcDbLine
 10
1502.734362019225
 20
260.7926388285963
 30
0.0
 11
1496.629377019225
 21
260.7926388285963
 31
0.0
  0
LINE
  5
2DC
330
1B
100
AcDbEntity
  8
4
100
AcDbLine
 10
1496.629377019225
 20
265.6852138285966
 30
0.0
 11
1502.734362019225
 21
265.6852138285966
 31
0.0
  0
LINE
  5
2DD
330
1B
100
AcDbEntity
  8
4
100
AcDbLine
 10
1496.629377019225
 20
275.5001588285962
 30
0.0
 11
1502.734362019225
 21
275.5001588285962
 31
0.0
  0
LINE
  5
2DE
330
1B
100
AcDbEntity
  8
4
100
AcDbLine
 10
1502.734362019225
 20
280.3927338285965
 30
0.0
 11
1496.629377019225
 21
280.3927338285965
 31
0.0
  0
LINE
  5
2DF
330
1B
100
AcDbEntity
  8
L-CENTER
100
AcDbLine
 10
1508.372787019225
 20
297.9669538285965
 30
0.0
 11
1466.97181248149
 21
297.9664953113287
 31
0.0
  0
LINE
  5
2E0
330
1B
100
AcDbEntity
  8
4
100
AcDbLine
 10
1496.629377019225
 20
293.0594838285964
 30
0.0
 11
1502.734362019225
 21
293.0594838285964
 31
0.0
  0
LINE
  5
2E1
330
1B
100
AcDbEntity
  8
4
100
AcDbLine
 10
1502.734362019225
 20
288.1669038285962
 30
0.0
 11
1496.629377019225
 21
288.1669038285962
 31
0.0
  0
LINE
  5
2E2
330
1B
100
AcDbEntity
  8
4
100
AcDbLine
 10
1496.629377019225
 20
260.7926388285963
 30
0.0
 11
1496.629377019225
 21
280.3927338285965
 31
0.0
  0
LINE
  5
2E3
330
1B
100
AcDbEntity
  8
4
100
AcDbLine
 10
1494.129377019225
 20
261.3927338285965
 30
0.0
 11
1494.129377019225
 21
279.7926388285963
 31
0.0
  0
LINE
  5
2E4
330
1B
100
AcDbEntity
  8
4
100
AcDbLine
 10
1476.129377019226
 20
242.4313088285961
 30
0.0
 11
1479.129377019225
 21
242.4313088285961
 31
0.0
  0
LINE
  5
2E5
330
1B
100
AcDbEntity
  8
4
100
AcDbLine
 10
1487.099837019225
 20
242.4313088285961
 30
0.0
 11
1479.129377019225
 21
242.4313088285961
 31
0.0
  0
LINE
  5
2E6
330
1B
100
AcDbEntity
  8
4
100
AcDbLine
 10
1494.129377019225
 20
263.9288688285964
 30
0.0
 11
1482.129377019225
 21
263.9288688285964
 31
0.0
  0
LINE
  5
2E7
330
1B
100
AcDbEntity
  8
4
100
AcDbLine
 10
1476.129377019226
 20
263.9288688285964
 30
0.0
 11
1482.129377019225
 21
263.9288688285964
 31
0.0
  0
LINE
  5
2E8
330
1B
100
AcDbEntity
  8
4
100
AcDbLine
 10
1496.629377019225
 20
261.3927338285965
 30
0.0
 11
1494.129377019225
 21
261.3927338285965
 31
0.0
  0
LINE
  5
2E9
330
1B
100
AcDbEntity
  8
4
100
AcDbLine
 10
1495.129377019225
 20
279.7926388285963
 30
0.0
 11
1495.129377019225
 21
288.7670038285963
 31
0.0
  0
LINE
  5
2EA
330
1B
100
AcDbEntity
  8
4
100
AcDbLine
 10
1494.129377019225
 20
279.7926388285963
 30
0.0
 11
1496.629377019225
 21
279.7926388285963
 31
0.0
  0
LINE
  5
2EB
330
1B
100
AcDbEntity
  8
4
100
AcDbLine
 10
1494.129377019225
 20
288.7670038285963
 30
0.0
 11
1496.629377019225
 21
288.7670038285963
 31
0.0
  0
ARC
  5
2EC
330
1B
100
AcDbEntity
  8
4
100
AcDbCircle
 10
1489.725817019225
 20
270.5926888285966
 30
0.0
 40
13.90362
100
AcDbArc
 50
339.3313819999892
 51
20.66767400000277
  0
LINE
  5
2ED
330
1B
100
AcDbEntity
  8
4
100
AcDbLine
 10
1503.629377019226
 20
263.2389288285966
 30
0.0
 11
1503.629377019226
 21
277.9464488285965
 31
0.0
  0
ARC
  5
2EE
330
1B
100
AcDbEntity
  8
4
100
AcDbCircle
 10
1499.838362019225
 20
263.2389288285966
 30
0.0
 40
3.790925
100
AcDbArc
 50
319.8117440000098
 51
40.18825599999024
  0
ARC
  5
2EF
330
1B
100
AcDbEntity
  8
4
100
AcDbCircle
 10
1499.838362019225
 20
277.9464488285965
 30
0.0
 40
3.791115
100
AcDbArc
 50
319.8141240000058
 51
40.18587599999418
  0
ARC
  5
2F1
330
1B
100
AcDbEntity
  8
4
100
AcDbCircle
 10
1499.838362019225
 20
290.6131938285961
 30
0.0
 40
3.79102
100
AcDbArc
 50
319.8141240000035
 51
40.18825599998923
  0
LINE
  5
2F2
330
1B
100
AcDbEntity
  8
4
100
AcDbLine
 10
1496.629377019225
 20
302.8744238285962
 30
0.0
 11
1502.734362019225
 21
302.8744238285962
 31
0.0
  0
LINE
  5
2F3
330
1B
100
AcDbEntity
  8
4
100
AcDbLine
 10
1502.734362019225
 20
307.7670038285963
 30
0.0
 11
1496.629377019225
 21
307.7670038285963
 31
0.0
  0
LINE
  5
2F4
330
1B
100
AcDbEntity
  8
4
100
AcDbLine
 10
1496.629377019225
 20
307.1669038285962
 30
0.0
 11
1494.129377019225
 21
307.1669038285962
 31
0.0
  0
ARC
  5
2F5
330
1B
100
AcDbEntity
  8
4
100
AcDbCircle
 10
1499.838362019225
 20
305.3207138285965
 30
0.0
 40
3.79102
100
AcDbArc
 50
319.8141240000035
 51
40.18825599998923
  0
LINE
  5
2FE
330
1B
100
AcDbEntity
  8
L-CENTER
100
AcDbLine
 10
1508.372787019225
 20
389.8907838285962
 30
0.0
 11
1466.97181248149
 21
389.8907838285962
 31
0.0
  0
LINE
  5
2FF
330
1B
100
AcDbEntity
  8
L-CENTER
100
AcDbLine
 10
1508.372787019225
 20
387.2652938285963
 30
0.0
 11
1466.97181248149
 21
387.2652938285968
 31
0.0
  0
LINE
  5
300
330
1B
100
AcDbEntity
  8
4
100
AcDbLine
 10
1502.734362019225
 20
377.4652438285965
 30
0.0
 11
1496.629377019225
 21
377.4652438285965
 31
0.0
  0
LINE
  5
301
330
1B
100
AcDbEntity
  8
4
100
AcDbLine
 10
1496.629377019225
 20
394.7982538285963
 30
0.0
 11
1502.734362019225
 21
394.7982538285963
 31
0.0
  0
LINE
  5
302
330
1B
100
AcDbEntity
  8
4
100
AcDbLine
 10
1496.629377019225
 20
384.9833138285966
 30
0.0
 11
1502.734362019225
 21
384.9833138285966
 31
0.0
  0
LINE
  5
303
330
1B
100
AcDbEntity
  8
4
100
AcDbLine
 10
1502.734362019225
 20
380.0907338285964
 30
0.0
 11
1496.629377019225
 21
380.0907338285964
 31
0.0
  0
LINE
  5
304
330
1B
100
AcDbEntity
  8
4
100
AcDbLine
 10
1502.734362019225
 20
399.6908288285966
 30
0.0
 11
1496.629377019225
 21
399.6908288285966
 31
0.0
  0
LINE
  5
305
330
1B
100
AcDbEntity
  8
4
100
AcDbLine
 10
1494.129377019225
 20
380.6908288285966
 30
0.0
 11
1494.129377019225
 21
399.0907338285964
 31
0.0
  0
LINE
  5
306
330
1B
100
AcDbEntity
  8
4
100
AcDbLine
 10
1496.629377019225
 20
380.0907338285964
 30
0.0
 11
1496.629377019225
 21
399.6908288285966
 31
0.0
  0
LINE
  5
307
330
1B
100
AcDbEntity
  8
4
100
AcDbLine
 10
1496.629377019225
 20
377.4652438285965
 30
0.0
 11
1496.629377019225
 21
397.0653438285962
 31
0.0
  0
LINE
  5
308
330
1B
100
AcDbEntity
  8
4
100
AcDbLine
 10
1494.129377019225
 20
378.0653438285962
 30
0.0
 11
1494.129377019225
 21
396.4652438285965
 31
0.0
  0
LINE
  5
309
330
1B
100
AcDbEntity
  8
4
100
AcDbLine
 10
1496.629377019225
 20
378.0653438285962
 30
0.0
 11
1494.129377019225
 21
378.0653438285962
 31
0.0
  0
LINE
  5
30A
330
1B
100
AcDbEntity
  8
4
100
AcDbLine
 10
1496.629377019225
 20
380.6908288285966
 30
0.0
 11
1494.129377019225
 21
380.6908288285966
 31
0.0
  0
LINE
  5
30B
330
1B
100
AcDbEntity
  8
4
100
AcDbLine
 10
1494.129377019225
 20
399.0907338285964
 30
0.0
 11
1496.629377019225
 21
399.0907338285964
 31
0.0
  0
LINE
  5
30C
330
1B
100
AcDbEntity
  8
4
100
AcDbLine
 10
1503.629377019226
 20
382.5370238285963
 30
0.0
 11
1503.629377019226
 21
397.2445438285966
 31
0.0
  0
LINE
  5
30D
330
1B
100
AcDbEntity
  8
4
100
AcDbLine
 10
1503.629377019226
 20
379.9115338285964
 30
0.0
 11
1503.629377019226
 21
394.6190538285963
 31
0.0
  0
ARC
  5
30E
330
1B
100
AcDbEntity
  8
4
100
AcDbCircle
 10
1489.725817019225
 20
389.8907838285962
 30
0.0
 40
13.903575
100
AcDbArc
 50
339.3323219999885
 51
20.66767400000268
  0
ARC
  5
30F
330
1B
100
AcDbEntity
  8
4
100
AcDbCircle
 10
1499.838362019225
 20
379.9115338285964
 30
0.0
 40
3.790935
100
AcDbArc
 50
319.8117330000071
 51
20.26021300000028
  0
ARC
  5
310
330
1B
100
AcDbEntity
  8
4
100
AcDbCircle
 10
1499.838362019225
 20
382.5370238285963
 30
0.0
 40
3.790925
100
AcDbArc
 50
319.8117440000098
 51
40.18825599999024
  0
ARC
  5
312
330
1B
100
AcDbEntity
  8
4
100
AcDbCircle
 10
1499.838362019225
 20
397.2445438285966
 30
0.0
 40
3.791115
100
AcDbArc
 50
319.8141240000058
 51
40.18587599999418
  0
LINE
  5
313
330
1B
100
AcDbEntity
  8
L-CENTER
100
AcDbLine
 10
1425.567823181867
 20
429.4269138285962
 30
0.0
 11
1493.99372899055
 21
429.4269138285962
 31
0.0
  0
ARC
  5
314
330
1B
100
AcDbEntity
  8
4
100
AcDbCircle
 10
1483.545637019226
 20
420.4269138285962
 30
0.0
 40
4.583600000000001
100
AcDbArc
 50
319.1186700000108
 51
40.88332600001215
  0
LINE
  5
315
330
1B
100
AcDbEntity
  8
4
100
AcDbLine
 10
1479.129377019225
 20
441.4269138285962
 30
0.0
 11
1479.129377019225
 21
417.4269138285962
 31
0.0
  0
LINE
  5
316
330
1B
100
AcDbEntity
  8
4
100
AcDbLine
 10
1476.129377019226
 20
417.4269138285962
 30
0.0
 11
1476.129377019226
 21
441.4269138285962
 31
0.0
  0
LINE
  5
317
330
1B
100
AcDbEntity
  8
4
100
AcDbLine
 10
1488.129377019226
 20
438.4269138285962
 30
0.0
 11
1488.129377019226
 21
420.4269138285962
 31
0.0
  0
LINE
  5
318
330
1B
100
AcDbEntity
  8
4
100
AcDbLine
 10
1476.129377019226
 20
417.4269138285962
 30
0.0
 11
1479.129377019225
 21
417.4269138285962
 31
0.0
  0
LINE
  5
319
330
1B
100
AcDbEntity
  8
4
100
AcDbLine
 10
1487.099837019225
 20
417.4269138285962
 30
0.0
 11
1479.129377019225
 21
417.4269138285962
 31
0.0
  0
LINE
  5
31A
330
1B
100
AcDbEntity
  8
4
100
AcDbLine
 10
1488.129377019226
 20
423.9288688285964
 30
0.0
 11
1494.129377019225
 21
423.9288688285964
 31
0.0
  0
ARC
  5
31B
330
1B
100
AcDbEntity
  8
4
100
AcDbCircle
 10
1483.545637019226
 20
438.4269138285962
 30
0.0
 40
4.583600000000001
100
AcDbArc
 50
319.1186700000108
 51
40.88332600001215
  0
ARC
  5
31D
330
1B
100
AcDbEntity
  8
4
100
AcDbCircle
 10
1470.129377019225
 20
429.4269138285962
 30
0.0
 40
17.999935
100
AcDbArc
 50
340.5303960000026
 51
19.47133100000315
  0
LINE
  5
31E
330
1B
100
AcDbEntity
  8
4
100
AcDbLine
 10
1476.129377019226
 20
441.4269138285962
 30
0.0
 11
1479.129377019225
 21
441.4269138285962
 31
0.0
  0
LINE
  5
31F
330
1B
100
AcDbEntity
  8
4
100
AcDbLine
 10
1487.099837019225
 20
441.4269138285962
 30
0.0
 11
1479.129377019225
 21
441.4269138285962
 31
0.0
  0
LINE
  5
320
330
1B
100
AcDbEntity
  8
4
100
AcDbLine
 10
1479.129377019225
 20
435.4269138285962
 30
0.0
 11
1487.099837019225
 21
435.4269138285962
 31
0.0
  0
LINE
  5
321
330
1B
100
AcDbEntity
  8
4
100
AcDbLine
 10
1479.129377019225
 20
423.4269138285962
 30
0.0
 11
1487.099837019225
 21
423.4269138285962
 31
0.0
  0
ARC
  5
323
330
1B
100
AcDbEntity
  8
4
100
AcDbCircle
 10
1483.545637019226
 20
561.1376088285965
 30
0.0
 40
4.583600000000001
100
AcDbArc
 50
319.1186700000089
 51
40.88332600001108
  0
LINE
  5
324
330
1B
100
AcDbEntity
  8
4
100
AcDbLine
 10
1479.129377019225
 20
582.1376088285965
 30
0.0
 11
1479.129377019225
 21
558.1376088285965
 31
0.0
  0
LINE
  5
325
330
1B
100
AcDbEntity
  8
4
100
AcDbLine
 10
1476.129377019226
 20
558.1376088285965
 30
0.0
 11
1476.129377019226
 21
582.1376088285965
 31
0.0
  0
LINE
  5
326
330
1B
100
AcDbEntity
  8
4
100
AcDbLine
 10
1488.129377019226
 20
579.1376088285965
 30
0.0
 11
1488.129377019226
 21
561.1376088285965
 31
0.0
  0
LINE
  5
327
330
1B
100
AcDbEntity
  8
4
100
AcDbLine
 10
1476.129377019226
 20
558.1376088285965
 30
0.0
 11
1479.129377019225
 21
558.1376088285965
 31
0.0
  0
LINE
  5
328
330
1B
100
AcDbEntity
  8
4
100
AcDbLine
 10
1487.099837019225
 20
558.1376088285965
 30
0.0
 11
1479.129377019225
 21
558.1376088285965
 31
0.0
  0
LINE
  5
329
330
1B
100
AcDbEntity
  8
L-CENTER
100
AcDbLine
 10
1425.567823181867
 20
570.1376088285965
 30
0.0
 11
1493.99372899055
 21
570.1376088285965
 31
0.0
  0
ARC
  5
32A
330
1B
100
AcDbEntity
  8
4
100
AcDbCircle
 10
1470.129377019225
 20
570.1376088285965
 30
0.0
 40
17.999975
100
AcDbArc
 50
340.5296600000135
 51
19.47133100000266
  0
ARC
  5
32B
330
1B
100
AcDbEntity
  8
4
100
AcDbCircle
 10
1483.545637019226
 20
579.1376088285965
 30
0.0
 40
4.583600000000001
100
AcDbArc
 50
319.1186700000089
 51
40.88332600001108
  0
LINE
  5
32C
330
1B
100
AcDbEntity
  8
4
100
AcDbLine
 10
1476.129377019226
 20
582.1376088285965
 30
0.0
 11
1479.129377019225
 21
582.1376088285965
 31
0.0
  0
LINE
  5
32D
330
1B
100
AcDbEntity
  8
4
100
AcDbLine
 10
1487.099837019225
 20
582.1376088285965
 30
0.0
 11
1479.129377019225
 21
582.1376088285965
 31
0.0
  0
LINE
  5
32E
330
1B
100
AcDbEntity
  8
4
100
AcDbLine
 10
1479.129377019225
 20
564.1376088285965
 30
0.0
 11
1487.099837019225
 21
564.1376088285965
 31
0.0
  0
LINE
  5
32F
330
1B
100
AcDbEntity
  8
4
100
AcDbLine
 10
1479.129377019225
 20
576.1376088285965
 30
0.0
 11
1487.099837019225
 21
576.1376088285965
 31
0.0
  0
LINE
  5
331
330
1B
100
AcDbEntity
  8
4
100
AcDbLine
 10
1266.129377019225
 20
604.9288688285965
 30
0.0
 11
1283.129377019225
 21
604.9288688285965
 31
0.0
  0
LINE
  5
335
330
1B
100
AcDbEntity
  8
4
100
AcDbLine
 10
1451.129377019225
 20
604.9288688285965
 30
0.0
 11
1454.129377019225
 21
604.9288688285965
 31
0.0
  0
LINE
  5
336
330
1B
100
AcDbEntity
  8
L-CENTER
100
AcDbLine
 10
1406.382778241127
 20
642.9288688285965
 30
0.0
 11
1327.875975797323
 21
642.9288688285965
 31
0.0
  0
LINE
  5
337
330
1B
100
AcDbEntity
  8
4
100
AcDbLine
 10
1328.129377019225
 20
612.9288688285965
 30
0.0
 11
1406.129377019225
 21
612.9288688285965
 31
0.0
  0
LINE
  5
338
330
1B
100
AcDbEntity
  8
4
100
AcDbLine
 10
1283.129377019225
 20
610.9288688285965
 30
0.0
 11
1451.129377019225
 21
610.9288688285965
 31
0.0
  0
CIRCLE
  5
339
330
1B
100
AcDbEntity
  8
4
100
AcDbCircle
 10
1367.129377019225
 20
642.9288688285965
 30
0.0
 40
17.5
  0
ARC
  5
33A
330
1B
100
AcDbEntity
  8
4
100
AcDbCircle
 10
1367.129377019225
 20
642.9288688285965
 30
0.0
 40
30.0
100
AcDbArc
 50
294.4275020000081
 51
245.5724979999918
  0
LINE
  5
33B
330
1B
100
AcDbEntity
  8
4
100
AcDbLine
 10
1379.315172019225
 20
621.9288688285965
 30
0.0
 11
1354.943587019225
 21
621.9288688285965
 31
0.0
  0
LINE
  5
33C
330
1B
100
AcDbEntity
  8
4
100
AcDbLine
 10
1389.129377019225
 20
612.9288688285965
 30
0.0
 11
1345.129377019226
 21
612.9288688285965
 31
0.0
  0
LINE
  5
33D
330
1B
100
AcDbEntity
  8
4
100
AcDbLine
 10
1345.129377019226
 20
612.9288688285965
 30
0.0
 11
1389.129377019225
 21
612.9288688285965
 31
0.0
  0
LINE
  5
33E
330
1B
100
AcDbEntity
  8
4
100
AcDbLine
 10
1383.129377019225
 20
612.9288688285965
 30
0.0
 11
1351.129377019225
 21
612.9288688285965
 31
0.0
  0
LINE
  5
33F
330
1B
100
AcDbEntity
  8
4
100
AcDbLine
 10
1354.943587019225
 20
621.9288688285965
 30
0.0
 11
1367.129377019225
 21
623.9288688285965
 31
0.0
  0
LINE
  5
340
330
1B
100
AcDbEntity
  8
4
100
AcDbLine
 10
1354.943587019225
 20
621.9288688285965
 30
0.0
 11
1354.629377019225
 21
612.9288688285965
 31
0.0
  0
LINE
  5
341
330
1B
100
AcDbEntity
  8
4
100
AcDbLine
 10
1328.129377019225
 20
612.9288688285965
 30
0.0
 11
1328.129377019225
 21
610.9288688285965
 31
0.0
  0
LINE
  5
342
330
1B
100
AcDbEntity
  8
4
100
AcDbLine
 10
1344.129377019225
 20
614.9288688285965
 30
0.0
 11
1354.699202019225
 21
614.9288688285965
 31
0.0
  0
LINE
  5
343
330
1B
100
AcDbEntity
  8
4
100
AcDbLine
 10
1344.129377019225
 20
618.9288688285965
 30
0.0
 11
1349.129377019225
 21
618.9288688285965
 31
0.0
  0
LINE
  5
344
330
1B
100
AcDbEntity
  8
4
100
AcDbLine
 10
1347.210677019225
 20
618.9288688285965
 30
0.0
 11
1347.210677019225
 21
620.4957388285966
 31
0.0
  0
LINE
  5
345
330
1B
100
AcDbEntity
  8
4
100
AcDbLine
 10
1345.129377019226
 20
612.9288688285965
 30
0.0
 11
1345.129377019226
 21
614.9288688285965
 31
0.0
  0
LINE
  5
346
330
1B
100
AcDbEntity
  8
4
100
AcDbLine
 10
1344.129377019225
 20
614.9288688285965
 30
0.0
 11
1344.129377019225
 21
618.9288688285965
 31
0.0
  0
LINE
  5
347
330
1B
100
AcDbEntity
  8
4
100
AcDbLine
 10
1379.315172019225
 20
621.9288688285965
 30
0.0
 11
1379.629377019225
 21
612.9288688285965
 31
0.0
  0
LINE
  5
348
330
1B
100
AcDbEntity
  8
4
100
AcDbLine
 10
1379.559557019225
 20
614.9288688285965
 30
0.0
 11
1390.129377019226
 21
614.9288688285965
 31
0.0
  0
LINE
  5
349
330
1B
100
AcDbEntity
  8
4
100
AcDbLine
 10
1385.129377019226
 20
618.9288688285965
 30
0.0
 11
1390.129377019226
 21
618.9288688285965
 31
0.0
  0
LINE
  5
34A
330
1B
100
AcDbEntity
  8
4
100
AcDbLine
 10
1390.129377019226
 20
614.9288688285965
 30
0.0
 11
1390.129377019226
 21
618.9288688285965
 31
0.0
  0
LINE
  5
34B
330
1B
100
AcDbEntity
  8
4
100
AcDbLine
 10
1389.129377019225
 20
614.9288688285965
 30
0.0
 11
1389.129377019225
 21
612.9288688285965
 31
0.0
  0
LINE
  5
34C
330
1B
100
AcDbEntity
  8
4
100
AcDbLine
 10
1387.047837019225
 20
618.9288688285965
 30
0.0
 11
1387.047837019225
 21
620.4955238285966
 31
0.0
  0
LINE
  5
34D
330
1B
100
AcDbEntity
  8
4
100
AcDbLine
 10
1406.129377019225
 20
610.9288688285965
 30
0.0
 11
1406.129377019225
 21
612.9288688285965
 31
0.0
  0
LINE
  5
34E
330
1B
100
AcDbEntity
  8
4
100
AcDbLine
 10
1367.129377019225
 20
623.9288688285965
 30
0.0
 11
1379.315172019225
 21
621.9288688285965
 31
0.0
  0
LINE
  5
34F
330
1B
100
AcDbEntity
  8
4
100
AcDbLine
 10
1476.129377019226
 20
604.9288688285965
 30
0.0
 11
1454.129377019225
 21
604.9288688285965
 31
0.0
  0
LINE
  5
358
330
1B
100
AcDbEntity
  8
4
100
AcDbLine
 10
321.2451281671683
 20
1221.156614066043
 30
0.0
 11
871.2451281671683
 21
1221.156614066043
 31
0.0
  0
LINE
  5
359
330
1B
100
AcDbEntity
  8
L-CENTER
100
AcDbLine
 10
291.2451281671683
 20
1134.156614066043
 30
0.0
 11
901.2451281671683
 21
1134.156614066043
 31
0.0
  0
LINE
  5
35A
330
1B
100
AcDbEntity
  8
4
100
AcDbLine
 10
419.5821281671688
 20
1019.156614066043
 30
0.0
 11
609.5821281671688
 21
1019.156614066042
 31
0.0
  0
LINE
  5
35B
330
1B
100
AcDbEntity
  8
4
100
AcDbLine
 10
438.2517623367075
 20
1284.282233492988
 30
0.0
 11
444.435604357645
 21
1261.556614066043
 31
0.0
  0
LINE
  5
35C
330
1B
100
AcDbEntity
  8
L-CENTER
100
AcDbLine
 10
371.2451281671692
 20
1281.656614066045
 30
0.0
 11
371.2451281671692
 21
1231.656614066041
 31
0.0
  0
LINE
  5
35D
330
1B
100
AcDbEntity
  8
4
100
AcDbLine
 10
306.2451281671683
 20
986.656614066043
 30
0.0
 11
306.2451281671692
 21
1281.656614066043
 31
0.0
  0
LINE
  5
35E
330
1B
100
AcDbEntity
  8
4
100
AcDbLine
 10
301.2451281671683
 20
1032.656614066044
 30
0.0
 11
301.2451281671683
 21
1157.656614066044
 31
0.0
  0
ARC
  5
35F
330
1B
100
AcDbEntity
  8
4
100
AcDbCircle
 10
323.2451281671683
 20
1035.156614066042
 30
0.0
 40
2.0
100
AcDbArc
 50
180.0
 51
270.0
  0
LINE
  5
360
330
1B
100
AcDbEntity
  8
4
100
AcDbLine
 10
322.2451281671692
 20
1030.156614066043
 30
0.0
 11
351.2451281671683
 21
1030.156614066044
 31
0.0
  0
LINE
  5
361
330
1B
100
AcDbEntity
  8
4
100
AcDbLine
 10
316.2451281671683
 20
976.656614066043
 30
0.0
 11
428.6026109426803
 21
976.6566140660425
 31
0.0
  0
ARC
  5
362
330
1B
100
AcDbEntity
  8
4
100
AcDbCircle
 10
316.2451281671683
 20
986.656614066043
 30
0.0
 40
10.0
100
AcDbArc
 50
180.0
 51
270.0
  0
ARC
  5
363
330
1B
100
AcDbEntity
  8
4
100
AcDbCircle
 10
319.2451281671683
 20
1048.156614066042
 30
0.0
 40
2.0
100
AcDbArc
 50
0.0
 51
90.0
  0
LINE
  5
364
330
1B
100
AcDbEntity
  8
4
100
AcDbLine
 10
321.2451281671683
 20
1048.156614066042
 30
0.0
 11
321.2451281671683
 21
1035.156614066042
 31
0.0
  0
LINE
  5
365
330
1B
100
AcDbEntity
  8
4
100
AcDbLine
 10
301.2451281671683
 20
1032.656614066044
 30
0.0
 11
304.5867689536681
 21
1030.985793672794
 31
0.0
  0
ARC
  5
366
330
1B
100
AcDbEntity
  8
4
100
AcDbCircle
 10
308.2451281671692
 20
1052.156614066042
 30
0.0
 40
2.0
100
AcDbArc
 50
180.0
 51
270.0
  0
LINE
  5
367
330
1B
100
AcDbEntity
  8
4
100
AcDbLine
 10
308.2451281671692
 20
1050.156614066042
 30
0.0
 11
884.2451281671692
 21
1050.156614066042
 31
0.0
  0
LINE
  5
368
330
1B
100
AcDbEntity
  8
4
100
AcDbLine
 10
319.2451281671692
 20
1011.656614066043
 30
0.0
 11
306.2451281671692
 21
1011.656614066043
 31
0.0
  0
ARC
  5
369
330
1B
100
AcDbEntity
  8
4
100
AcDbCircle
 10
322.2451281671692
 20
1027.156614066043
 30
0.0
 40
3.0
100
AcDbArc
 50
90.0
 51
180.0
  0
LINE
  5
36A
330
1B
100
AcDbEntity
  8
4
100
AcDbLine
 10
319.2451281671692
 20
1050.156614066043
 30
0.0
 11
319.2451281671692
 21
1011.656614066043
 31
0.0
  0
ARC
  5
36B
330
1B
100
AcDbEntity
  8
4
100
AcDbCircle
 10
303.2451281671683
 20
1028.302512099794
 30
0.0
 40
3.0
100
AcDbArc
 50
0.0
 51
63.43494882292201
  0
LINE
  5
36C
330
1B
100
AcDbEntity
  8
4
100
AcDbLine
 10
444.5444478950597
 20
1007.156614066043
 30
0.0
 11
438.2517623367066
 21
984.0309946390967
 31
0.0
  0
CIRCLE
  5
36D
330
1B
100
AcDbEntity
  8
4
100
AcDbCircle
 10
371.2451281671683
 20
1011.656614066043
 30
0.0
 40
11.0
  0
LINE
  5
36E
330
1B
100
AcDbEntity
  8
L-CENTER
100
AcDbLine
 10
371.2451281671683
 20
986.656614066042
 30
0.0
 11
371.2451281671683
 21
1036.656614066043
 31
0.0
  0
ARC
  5
36F
330
1B
100
AcDbEntity
  8
4
100
AcDbCircle
 10
428.6026109426803
 20
986.6566140660425
 30
0.0
 40
10.0
100
AcDbArc
 50
270.0
 51
344.7778667737406
  0
LINE
  5
370
330
1B
100
AcDbEntity
  8
L-CENTER
100
AcDbLine
 10
396.2451281671683
 20
1011.656614066043
 30
0.0
 11
346.2451281671674
 21
1011.656614066043
 31
0.0
  0
ARC
  5
371
330
1B
100
AcDbEntity
  8
4
100
AcDbCircle
 10
596.2451281671683
 20
7025.152443922809
 30
0.0
 40
6002.0
100
AcDbArc
 50
267.6605519446659
 51
272.3394480553341
  0
ARC
  5
372
330
1B
100
AcDbEntity
  8
4
100
AcDbCircle
 10
348.2451281671683
 20
1030.156614066042
 30
0.0
 40
3.0
100
AcDbArc
 50
0.0
 51
90.0
  0
LINE
  5
373
330
1B
100
AcDbEntity
  8
4
100
AcDbLine
 10
351.2451281671683
 20
1030.156614066042
 30
0.0
 11
351.2451281671683
 21
1028.154945173954
 31
0.0
  0
LINE
  5
374
330
1B
100
AcDbEntity
  8
4
100
AcDbLine
 10
323.2451281671683
 20
1033.156614066042
 30
0.0
 11
869.2451281671683
 21
1033.156614066042
 31
0.0
  0
LINE
  5
375
330
1B
100
AcDbEntity
  8
4
100
AcDbLine
 10
419.5821281671688
 20
1019.156614066043
 30
0.0
 11
419.5821281671688
 21
1022.840705398141
 31
0.0
  0
ARC
  5
376
330
1B
100
AcDbEntity
  8
4
100
AcDbCircle
 10
416.5821281671688
 20
1022.840705398141
 30
0.0
 40
3.0
100
AcDbArc
 50
0.0
 51
88.2855174011207
  0
LINE
  5
377
330
1B
100
AcDbEntity
  8
4
100
AcDbLine
 10
301.2451281671683
 20
1157.656614066044
 30
0.0
 11
304.586768953669
 21
1159.327434459294
 31
0.0
  0
ARC
  5
378
330
1B
100
AcDbEntity
  8
4
100
AcDbCircle
 10
303.2451281671692
 20
1162.010716032294
 30
0.0
 40
3.0
100
AcDbArc
 50
296.5650511770683
 51
0.0
  0
LINE
  5
379
330
1B
100
AcDbEntity
  8
4
100
AcDbLine
 10
319.2451281671692
 20
1256.656614066043
 30
0.0
 11
306.2451281671692
 21
1256.656614066043
 31
0.0
  0
LINE
  5
37A
330
1B
100
AcDbEntity
  8
4
100
AcDbLine
 10
321.2451281671683
 20
1221.156614066043
 30
0.0
 11
321.2451281671683
 21
1218.156614066043
 31
0.0
  0
ARC
  5
37B
330
1B
100
AcDbEntity
  8
4
100
AcDbCircle
 10
308.2451281671692
 20
1216.156614066043
 30
0.0
 40
2.0
100
AcDbArc
 50
90.0
 51
180.0
  0
LINE
  5
37C
330
1B
100
AcDbEntity
  8
4
100
AcDbLine
 10
308.2451281671692
 20
1218.156614066043
 30
0.0
 11
884.2451281671692
 21
1218.156614066042
 31
0.0
  0
LINE
  5
37D
330
1B
100
AcDbEntity
  8
4
100
AcDbLine
 10
319.2451281671692
 20
1218.156614066043
 30
0.0
 11
319.2451281671692
 21
1256.656614066043
 31
0.0
  0
LINE
  5
37E
330
1B
100
AcDbEntity
  8
L-CENTER
100
AcDbLine
 10
396.2451281671711
 20
1256.656614066043
 30
0.0
 11
346.2451281671674
 21
1256.656614066043
 31
0.0
  0
CIRCLE
  5
37F
330
1B
100
AcDbEntity
  8
4
100
AcDbCircle
 10
371.2451281671692
 20
1256.656614066043
 30
0.0
 40
11.0
  0
LINE
  5
380
330
1B
100
AcDbEntity
  8
4
100
AcDbLine
 10
316.2451281671692
 20
1291.656614066043
 30
0.0
 11
428.6026109426812
 21
1291.656614066043
 31
0.0
  0
ARC
  5
381
330
1B
100
AcDbEntity
  8
4
100
AcDbCircle
 10
316.2451281671692
 20
1281.656614066043
 30
0.0
 40
10.0
100
AcDbArc
 50
90.0
 51
180.0
  0
ARC
  5
382
330
1B
100
AcDbEntity
  8
4
100
AcDbCircle
 10
428.6026109426812
 20
1281.656614066043
 30
0.0
 40
10.0
100
AcDbArc
 50
15.22213322625935
 51
90.0
  0
LINE
  5
383
330
1B
100
AcDbEntity
  8
L-CENTER
100
AcDbLine
 10
821.2451281671674
 20
1281.656614066045
 30
0.0
 11
821.2451281671683
 21
1231.656614066041
 31
0.0
  0
LINE
  5
384
330
1B
100
AcDbEntity
  8
4
100
AcDbLine
 10
754.23849399763
 20
1284.282233492988
 30
0.0
 11
750.6396859902982
 21
1271.056614066045
 31
0.0
  0
LINE
  5
385
330
1B
100
AcDbEntity
  8
4
100
AcDbLine
 10
886.2451281671692
 20
986.656614066043
 30
0.0
 11
886.2451281671683
 21
1281.656614066043
 31
0.0
  0
LINE
  5
386
330
1B
100
AcDbEntity
  8
4
100
AcDbLine
 10
750.5308424528854
 20
997.6566140660325
 30
0.0
 11
754.23849399763
 21
984.0309946390962
 31
0.0
  0
LINE
  5
387
330
1B
100
AcDbEntity
  8
4
100
AcDbLine
 10
626.5821281671688
 20
1019.156614066043
 30
0.0
 11
786.5821281671688
 21
1019.156614066043
 31
0.0
  0
LINE
  5
388
330
1B
100
AcDbEntity
  8
L-CENTER
100
AcDbLine
 10
596.2451281671683
 20
1264.73183770738
 30
0.0
 11
596.2451281671683
 21
1004.156614066043
 31
0.0
  0
ARC
  5
389
330
1B
100
AcDbEntity
  8
4
100
AcDbCircle
 10
623.5821281671688
 20
1020.214668355854
 30
0.0
 40
3.0
100
AcDbArc
 50
0.0
 51
90.26083266185351
  0
LINE
  5
38A
330
1B
100
AcDbEntity
  8
4
100
AcDbLine
 10
626.5821281671688
 20
1019.156614066043
 30
0.0
 11
626.5821281671688
 21
1020.214668355854
 31
0.0
  0
LINE
  5
38B
330
1B
100
AcDbEntity
  8
4
100
AcDbLine
 10
609.5821281671688
 20
1019.156614066042
 30
0.0
 11
609.5821281671688
 21
1020.174666908892
 31
0.0
  0
ARC
  5
38C
330
1B
100
AcDbEntity
  8
4
100
AcDbCircle
 10
612.5821281671688
 20
1020.174666908892
 30
0.0
 40
3.0
100
AcDbArc
 50
90.15587715317314
 51
180.0
  0
LINE
  5
38D
330
1B
100
AcDbEntity
  8
4
100
AcDbLine
 10
891.2451281671683
 20
1032.656614066044
 30
0.0
 11
891.2451281671683
 21
1157.656614066044
 31
0.0
  0
CIRCLE
  5
38E
330
1B
100
AcDbEntity
  8
4
100
AcDbCircle
 10
821.2451281671692
 20
1011.656614066043
 30
0.0
 40
11.0
  0
LINE
  5
38F
330
1B
100
AcDbEntity
  8
L-CENTER
100
AcDbLine
 10
821.2451281671692
 20
986.656614066042
 30
0.0
 11
821.2451281671692
 21
1036.656614066043
 31
0.0
  0
LINE
  5
390
330
1B
100
AcDbEntity
  8
4
100
AcDbLine
 10
876.2451281671692
 20
976.656614066043
 30
0.0
 11
763.8876453916564
 21
976.656614066042
 31
0.0
  0
ARC
  5
391
330
1B
100
AcDbEntity
  8
4
100
AcDbCircle
 10
763.8876453916564
 20
986.656614066042
 30
0.0
 40
10.0
100
AcDbArc
 50
195.2221332262594
 51
270.0
  0
ARC
  5
392
330
1B
100
AcDbEntity
  8
4
100
AcDbCircle
 10
876.2451281671692
 20
986.656614066043
 30
0.0
 40
10.0
100
AcDbArc
 50
270.0
 51
0.0
  0
LINE
  5
393
330
1B
100
AcDbEntity
  8
L-CENTER
100
AcDbLine
 10
796.2451281671692
 20
1011.656614066043
 30
0.0
 11
846.2451281671692
 21
1011.656614066043
 31
0.0
  0
ARC
  5
394
330
1B
100
AcDbEntity
  8
4
100
AcDbCircle
 10
789.5821281671688
 20
1023.265590238293
 30
0.0
 40
3.0
100
AcDbArc
 50
91.84501395329735
 51
180.0
  0
LINE
  5
395
330
1B
100
AcDbEntity
  8
4
100
AcDbLine
 10
786.5821281671688
 20
1019.156614066043
 30
0.0
 11
786.5821281671688
 21
1023.265590238293
 31
0.0
  0
ARC
  5
396
330
1B
100
AcDbEntity
  8
4
100
AcDbCircle
 10
884.2451281671692
 20
1052.156614066043
 30
0.0
 40
2.0
100
AcDbArc
 50
270.0
 51
0.0
  0
LINE
  5
397
330
1B
100
AcDbEntity
  8
4
100
AcDbLine
 10
891.2451281671683
 20
1032.656614066044
 30
0.0
 11
887.9034873806695
 21
1030.985793672794
 31
0.0
  0
LINE
  5
398
330
1B
100
AcDbEntity
  8
4
100
AcDbLine
 10
873.2451281671683
 20
1011.656614066043
 30
0.0
 11
886.2451281671683
 21
1011.656614066043
 31
0.0
  0
ARC
  5
399
330
1B
100
AcDbEntity
  8
4
100
AcDbCircle
 10
889.2451281671692
 20
1028.302512099794
 30
0.0
 40
3.0
100
AcDbArc
 50
116.565051177078
 51
180.0
  0
LINE
  5
39A
330
1B
100
AcDbEntity
  8
4
100
AcDbLine
 10
873.2451281671683
 20
1050.156614066042
 30
0.0
 11
873.2451281671683
 21
1011.656614066043
 31
0.0
  0
LINE
  5
39B
330
1B
100
AcDbEntity
  8
4
100
AcDbLine
 10
871.2451281671683
 20
1048.156614066042
 30
0.0
 11
871.2451281671683
 21
1035.156614066042
 31
0.0
  0
ARC
  5
39C
330
1B
100
AcDbEntity
  8
4
100
AcDbCircle
 10
844.2451281671683
 20
1030.156614066042
 30
0.0
 40
3.0
100
AcDbArc
 50
90.0
 51
180.0
  0
LINE
  5
39D
330
1B
100
AcDbEntity
  8
4
100
AcDbLine
 10
870.2451281671683
 20
1030.156614066043
 30
0.0
 11
841.2451281671683
 21
1030.156614066044
 31
0.0
  0
LINE
  5
39E
330
1B
100
AcDbEntity
  8
4
100
AcDbLine
 10
841.2451281671683
 20
1030.156614066042
 30
0.0
 11
841.2451281671683
 21
1028.154945173954
 31
0.0
  0
ARC
  5
39F
330
1B
100
AcDbEntity
  8
4
100
AcDbCircle
 10
873.2451281671683
 20
1048.156614066042
 30
0.0
 40
2.0
100
AcDbArc
 50
90.0
 51
180.0
  0
ARC
  5
3A0
330
1B
100
AcDbEntity
  8
4
100
AcDbCircle
 10
869.2451281671683
 20
1035.156614066042
 30
0.0
 40
2.0
100
AcDbArc
 50
270.0
 51
0.0
  0
ARC
  5
3A1
330
1B
100
AcDbEntity
  8
4
100
AcDbCircle
 10
870.2451281671683
 20
1027.156614066043
 30
0.0
 40
3.0
100
AcDbArc
 50
0.0
 51
90.0
  0
ARC
  5
3A2
330
1B
100
AcDbEntity
  8
4
100
AcDbCircle
 10
889.2451281671683
 20
1162.010716032294
 30
0.0
 40
3.0
100
AcDbArc
 50
180.0
 51
243.4349488229336
  0
LINE
  5
3A3
330
1B
100
AcDbEntity
  8
4
100
AcDbLine
 10
891.2451281671683
 20
1157.656614066044
 30
0.0
 11
887.9034873806686
 21
1159.327434459294
 31
0.0
  0
CIRCLE
  5
3A4
330
1B
100
AcDbEntity
  8
4
100
AcDbCircle
 10
821.2451281671683
 20
1256.656614066043
 30
0.0
 40
11.0
  0
LINE
  5
3A5
330
1B
100
AcDbEntity
  8
L-CENTER
100
AcDbLine
 10
796.2451281671665
 20
1256.656614066043
 30
0.0
 11
846.2451281671692
 21
1256.656614066043
 31
0.0
  0
LINE
  5
3A6
330
1B
100
AcDbEntity
  8
4
100
AcDbLine
 10
873.2451281671683
 20
1256.656614066043
 30
0.0
 11
886.2451281671683
 21
1256.656614066043
 31
0.0
  0
ARC
  5
3A7
330
1B
100
AcDbEntity
  8
4
100
AcDbCircle
 10
884.2451281671692
 20
1216.156614066043
 30
0.0
 40
2.0
100
AcDbArc
 50
0.0
 51
90.0
  0
LINE
  5
3A8
330
1B
100
AcDbEntity
  8
4
100
AcDbLine
 10
873.2451281671683
 20
1218.156614066043
 30
0.0
 11
873.2451281671683
 21
1256.656614066043
 31
0.0
  0
LINE
  5
3A9
330
1B
100
AcDbEntity
  8
4
100
AcDbLine
 10
871.2451281671683
 20
1221.156614066043
 30
0.0
 11
871.2451281671683
 21
1218.156614066043
 31
0.0
  0
LINE
  5
3AA
330
1B
100
AcDbEntity
  8
4
100
AcDbLine
 10
876.2451281671683
 20
1291.656614066043
 30
0.0
 11
763.8876453916564
 21
1291.656614066043
 31
0.0
  0
ARC
  5
3AB
330
1B
100
AcDbEntity
  8
4
100
AcDbCircle
 10
763.8876453916564
 20
1281.656614066043
 30
0.0
 40
10.0
100
AcDbArc
 50
90.0
 51
164.7778667737406
  0
ARC
  5
3AC
330
1B
100
AcDbEntity
  8
4
100
AcDbCircle
 10
876.2451281671683
 20
1281.656614066043
 30
0.0
 40
10.0
100
AcDbArc
 50
0.0
 51
90.0
  0
LINE
  5
3AD
330
1B
100
AcDbEntity
  8
4
100
AcDbLine
 10
322.9971120463863
 20
1243.556614066043
 30
0.0
 11
869.2255333310275
 21
1243.556614066043
 31
0.0
  0
LINE
  5
3AE
330
1B
100
AcDbEntity
  8
4
100
AcDbLine
 10
320.9971120463863
 20
1221.556614066043
 30
0.0
 11
871.2255333310279
 21
1221.556614066043
 31
0.0
  0
LINE
  5
3AF
330
1B
100
AcDbEntity
  8
4
100
AcDbLine
 10
419.5821281671681
 20
1249.556614066043
 30
0.0
 11
609.5821281671681
 21
1249.556614066043
 31
0.0
  0
LINE
  5
3B0
330
1B
100
AcDbEntity
  8
4
100
AcDbLine
 10
320.9971120463863
 20
1221.556614066043
 30
0.0
 11
320.9971120463863
 21
1241.556614066043
 31
0.0
  0
ARC
  5
3B1
330
1B
100
AcDbEntity
  8
4
100
AcDbCircle
 10
322.9971120463863
 20
1241.556614066043
 30
0.0
 40
2.0
100
AcDbArc
 50
90.0
 51
180.0
  0
ARC
  5
3B2
330
1B
100
AcDbEntity
  8
4
100
AcDbCircle
 10
416.5821281671681
 20
1245.872522733943
 30
0.0
 40
3.0
100
AcDbArc
 50
309.4689158039929
 51
0.0
  0
LINE
  5
3B3
330
1B
100
AcDbEntity
  8
4
100
AcDbLine
 10
419.5821281671681
 20
1249.556614066043
 30
0.0
 11
419.5821281671681
 21
1245.872522733943
 31
0.0
  0
LINE
  5
3B4
330
1B
100
AcDbEntity
  8
4
100
AcDbLine
 10
626.5821281671681
 20
1249.556614066043
 30
0.0
 11
786.5821281671681
 21
1249.556614066043
 31
0.0
  0
ARC
  5
3B5
330
1B
100
AcDbEntity
  8
4
100
AcDbCircle
 10
596.245128167169
 20
-4756.439215790724
 30
0.0
 40
6000.0
100
AcDbArc
 50
89.93244810815968
 51
90.06755189184032
  0
ARC
  5
3B6
330
1B
100
AcDbEntity
  8
4
100
AcDbCircle
 10
596.245128167169
 20
-4756.439215790724
 30
0.0
 40
6002.0
100
AcDbArc
 50
89.7391673381172
 51
89.84412284686243
  0
ARC
  5
3B7
330
1B
100
AcDbEntity
  8
4
100
AcDbCircle
 10
623.5821281671681
 20
1248.498559776232
 30
0.0
 40
3.0
100
AcDbArc
 50
269.7391673381465
 51
0.0
  0
LINE
  5
3B8
330
1B
100
AcDbEntity
  8
4
100
AcDbLine
 10
626.5821281671681
 20
1249.556614066043
 30
0.0
 11
626.5821281671681
 21
1248.498559776232
 31
0.0
  0
ARC
  5
3B9
330
1B
100
AcDbEntity
  8
4
100
AcDbCircle
 10
612.5821281671681
 20
1248.538561223193
 30
0.0
 40
3.0
100
AcDbArc
 50
180.0
 51
269.8441228468269
  0
LINE
  5
3BA
330
1B
100
AcDbEntity
  8
4
100
AcDbLine
 10
609.5821281671681
 20
1249.556614066043
 30
0.0
 11
609.5821281671681
 21
1248.538561223193
 31
0.0
  0
ARC
  5
3BB
330
1B
100
AcDbEntity
  8
4
100
AcDbCircle
 10
789.5821281671681
 20
1245.447637893792
 30
0.0
 40
3.0
100
AcDbArc
 50
180.0
 51
219.0753057444228
  0
LINE
  5
3BC
330
1B
100
AcDbEntity
  8
4
100
AcDbLine
 10
786.5821281671681
 20
1249.556614066043
 30
0.0
 11
786.5821281671681
 21
1245.447637893792
 31
0.0
  0
LINE
  5
3BD
330
1B
100
AcDbEntity
  8
4
100
AcDbLine
 10
871.2255333310279
 20
1221.556614066043
 30
0.0
 11
871.2255333310275
 21
1241.556614066043
 31
0.0
  0
ARC
  5
3BE
330
1B
100
AcDbEntity
  8
4
100
AcDbCircle
 10
869.2255333310275
 20
1241.556614066043
 30
0.0
 40
2.0
100
AcDbArc
 50
0.0
 51
90.0
  0
LINE
  5
3BF
330
1B
100
AcDbEntity
  8
L-CENTER
100
AcDbLine
 10
706.5821281671681
 20
1264.556614066043
 30
0.0
 11
706.5821281671681
 21
984.3962979418679
 31
0.0
  0
LINE
  5
3C0
330
1B
100
AcDbEntity
  8
L-CENTER
100
AcDbLine
 10
514.5821281671681
 20
1267.180783154547
 30
0.0
 11
514.5821281671681
 21
855.3427619993777
 31
0.0
  0
LINE
  5
3C1
330
1B
100
AcDbEntity
  8
4
100
AcDbLine
 10
419.5821281671681
 20
1261.556614066043
 30
0.0
 11
609.5821281671681
 21
1261.556614066043
 31
0.0
  0
LINE
  5
3C2
330
1B
100
AcDbEntity
  8
4
100
AcDbLine
 10
419.5821281671688
 20
1007.156614066043
 30
0.0
 11
609.5821281671688
 21
1007.156614066042
 31
0.0
  0
LINE
  5
3C3
330
1B
100
AcDbEntity
  8
4
100
AcDbLine
 10
419.5821281671681
 20
1261.556614066043
 30
0.0
 11
419.5821281671681
 21
1249.556614066043
 31
0.0
  0
LINE
  5
3C4
330
1B
100
AcDbEntity
  8
4
100
AcDbLine
 10
609.5821281671681
 20
1261.556614066043
 30
0.0
 11
609.5821281671681
 21
1249.556614066043
 31
0.0
  0
LINE
  5
3C5
330
1B
100
AcDbEntity
  8
4
100
AcDbLine
 10
609.5821281671688
 20
1019.156614066042
 30
0.0
 11
609.5821281671688
 21
1007.156614066042
 31
0.0
  0
LINE
  5
3C6
330
1B
100
AcDbEntity
  8
4
100
AcDbLine
 10
419.5821281671688
 20
1007.156614066043
 30
0.0
 11
419.5821281671688
 21
1019.156614066043
 31
0.0
  0
LINE
  5
3C7
330
1B
100
AcDbEntity
  8
4
100
AcDbLine
 10
419.5821281671688
 20
1018.756614066042
 30
0.0
 11
609.5821281671688
 21
1018.756614066042
 31
0.0
  0
LINE
  5
3C8
330
1B
100
AcDbEntity
  8
4
100
AcDbLine
 10
419.5821281671681
 20
1249.956614066043
 30
0.0
 11
609.5821281671681
 21
1249.956614066043
 31
0.0
  0
LINE
  5
3C9
330
1B
100
AcDbEntity
  8
4
100
AcDbLine
 10
626.5821281671681
 20
1261.556614066043
 30
0.0
 11
786.5821281671681
 21
1261.556614066043
 31
0.0
  0
LINE
  5
3CA
330
1B
100
AcDbEntity
  8
4
100
AcDbLine
 10
626.5821281671688
 20
1007.156614066043
 30
0.0
 11
786.5821281671688
 21
1007.156614066043
 31
0.0
  0
LINE
  5
3CB
330
1B
100
AcDbEntity
  8
4
100
AcDbLine
 10
626.5821281671681
 20
1261.556614066043
 30
0.0
 11
626.5821281671681
 21
1249.556614066043
 31
0.0
  0
LINE
  5
3CC
330
1B
100
AcDbEntity
  8
4
100
AcDbLine
 10
786.5821281671681
 20
1261.556614066043
 30
0.0
 11
786.5821281671681
 21
1249.556614066043
 31
0.0
  0
LINE
  5
3CD
330
1B
100
AcDbEntity
  8
4
100
AcDbLine
 10
786.5821281671688
 20
1019.156614066043
 30
0.0
 11
786.5821281671688
 21
1007.156614066043
 31
0.0
  0
LINE
  5
3CE
330
1B
100
AcDbEntity
  8
4
100
AcDbLine
 10
626.5821281671688
 20
1019.156614066043
 30
0.0
 11
626.5821281671688
 21
1007.156614066043
 31
0.0
  0
LINE
  5
3CF
330
1B
100
AcDbEntity
  8
4
100
AcDbLine
 10
626.5821281671688
 20
1018.756614066042
 30
0.0
 11
786.5821281671688
 21
1018.756614066042
 31
0.0
  0
LINE
  5
3D0
330
1B
100
AcDbEntity
  8
4
100
AcDbLine
 10
626.5821281671681
 20
1249.956614066043
 30
0.0
 11
786.5821281671681
 21
1249.956614066043
 31
0.0
  0
LINE
  5
3D1
330
1B
100
AcDbEntity
  8
L-CENTER
100
AcDbLine
 10
187.5248981671683
 20
1095.156614066043
 30
0.0
 11
906.9921117038047
 21
1095.156614066043
 31
0.0
  0
LINE
  5
3D2
330
1B
100
AcDbEntity
  8
4
100
AcDbLine
 10
291.2451281671683
 20
1157.656614066043
 30
0.0
 11
301.2451281671683
 21
1157.656614066043
 31
0.0
  0
LINE
  5
3D3
330
1B
100
AcDbEntity
  8
4
100
AcDbLine
 10
291.2451281671683
 20
1032.656614066043
 30
0.0
 11
301.2451281671683
 21
1032.656614066043
 31
0.0
  0
LINE
  5
3D4
330
1B
100
AcDbEntity
  8
4
100
AcDbLine
 10
901.2451281671684
 20
1032.656614066043
 30
0.0
 11
901.2451281671683
 21
1157.656614066042
 31
0.0
  0
LINE
  5
3D5
330
1B
100
AcDbEntity
  8
4
100
AcDbLine
 10
291.2451281671683
 20
1032.656614066043
 30
0.0
 11
291.2451281671683
 21
1157.656614066043
 31
0.0
  0
LINE
  5
3D6
330
1B
100
AcDbEntity
  8
4
100
AcDbLine
 10
891.2451281671683
 20
1157.656614066042
 30
0.0
 11
901.2451281671683
 21
1157.656614066042
 31
0.0
  0
LINE
  5
3D7
330
1B
100
AcDbEntity
  8
4
100
AcDbLine
 10
891.2451281671683
 20
1032.656614066042
 30
0.0
 11
901.2451281671684
 21
1032.656614066043
 31
0.0
  0
LINE
  5
3D8
330
1B
100
AcDbEntity
  8
4
100
AcDbLine
 10
891.6451281671683
 20
1032.656614066044
 30
0.0
 11
891.6451281671683
 21
1157.656614066044
 31
0.0
  0
LINE
  5
3D9
330
1B
100
AcDbEntity
  8
4
100
AcDbLine
 10
300.8451281671684
 20
1032.656614066044
 30
0.0
 11
300.8451281671684
 21
1157.656614066044
 31
0.0
  0
LINE
  5
3E9
330
1B
100
AcDbEntity
  8
4
100
AcDbLine
 10
463.4392511005979
 20
394.2055206575527
 30
0.0
 11
453.9587329915692
 21
396.745817828696
 31
0.0
  0
CIRCLE
  5
3EA
330
1B
100
AcDbEntity
  8
4
100
AcDbCircle
 10
456.499030162712
 20
387.2652997196677
 30
0.0
 40
8.5
  0
LINE
  5
3EB
330
1B
100
AcDbEntity
  8
4
100
AcDbLine
 10
453.9587329915692
 20
396.745817828696
 30
0.0
 11
447.0185120536837
 21
389.8055968908101
 31
0.0
  0
LINE
  5
3EC
330
1B
100
AcDbEntity
  8
4
100
AcDbLine
 10
449.5588092248264
 20
380.3250787817814
 30
0.0
 11
459.0393273338548
 21
377.7847816106395
 31
0.0
  0
LINE
  5
3ED
330
1B
100
AcDbEntity
  8
4
100
AcDbLine
 10
459.0393273338548
 20
377.7847816106395
 30
0.0
 11
465.9795482717406
 21
384.7250025485245
 31
0.0
  0
LINE
  5
3EE
330
1B
100
AcDbEntity
  8
4
100
AcDbLine
 10
447.0185120536837
 20
389.8055968908101
 30
0.0
 11
449.5588092248264
 21
380.3250787817814
 31
0.0
  0
LINE
  5
3EF
330
1B
100
AcDbEntity
  8
4
100
AcDbLine
 10
465.9795482717406
 20
384.7250025485245
 30
0.0
 11
463.4392511005979
 21
394.2055206575527
 31
0.0
  0
LINE
  5
3F0
330
1B
100
AcDbEntity
  8
4
100
AcDbLine
 10
580.1119177164376
 20
277.5329494825754
 30
0.0
 11
570.6313996074089
 21
280.0732466537182
 31
0.0
  0
CIRCLE
  5
3F1
330
1B
100
AcDbEntity
  8
4
100
AcDbCircle
 10
573.1716967785517
 20
270.59272854469
 30
0.0
 40
8.5
  0
LINE
  5
3F2
330
1B
100
AcDbEntity
  8
4
100
AcDbLine
 10
570.6313996074089
 20
280.0732466537182
 30
0.0
 11
563.6911786695234
 21
273.1330257158323
 31
0.0
  0
LINE
  5
3F3
330
1B
100
AcDbEntity
  8
4
100
AcDbLine
 10
566.2314758406661
 20
263.6525076068041
 30
0.0
 11
575.7119939496945
 21
261.1122104356617
 31
0.0
  0
LINE
  5
3F4
330
1B
100
AcDbEntity
  8
4
100
AcDbLine
 10
575.7119939496945
 20
261.1122104356617
 30
0.0
 11
582.6522148875804
 21
268.0524313735467
 31
0.0
  0
LINE
  5
3F5
330
1B
100
AcDbEntity
  8
4
100
AcDbLine
 10
563.6911786695234
 20
273.1330257158323
 30
0.0
 11
566.2314758406661
 21
263.6525076068041
 31
0.0
  0
LINE
  5
3F6
330
1B
100
AcDbEntity
  8
4
100
AcDbLine
 10
582.6522148875804
 20
268.0524313735467
 30
0.0
 11
580.1119177164376
 21
277.5329494825754
 31
0.0
  0
LINE
  5
3F7
330
1B
100
AcDbEntity
  8
4
100
AcDbLine
 10
459.0390833905499
 20
280.0731999898634
 30
0.0
 11
449.5585652815216
 21
277.5329028187206
 31
0.0
  0
LINE
  5
3F8
330
1B
100
AcDbEntity
  8
4
100
AcDbLine
 10
453.9584890482644
 20
261.1121637718064
 30
0.0
 11
463.4390071572928
 21
263.6524609429492
 31
0.0
  0
LINE
  5
3F9
330
1B
100
AcDbEntity
  8
4
100
AcDbLine
 10
465.9793043284351
 20
273.1329790519775
 30
0.0
 11
459.0390833905499
 21
280.0731999898634
 31
0.0
  0
LINE
  5
3FA
330
1B
100
AcDbEntity
  8
4
100
AcDbLine
 10
463.4390071572928
 20
263.6524609429492
 30
0.0
 11
465.9793043284351
 21
273.1329790519775
 31
0.0
  0
LINE
  5
3FB
330
1B
100
AcDbEntity
  8
4
100
AcDbLine
 10
447.0182681103784
 20
268.0523847096919
 30
0.0
 11
453.9584890482644
 21
261.1121637718064
 31
0.0
  0
CIRCLE
  5
3FC
330
1B
100
AcDbEntity
  8
4
100
AcDbCircle
 10
456.4987862194068
 20
270.5926818808347
 30
0.0
 40
8.5
  0
LINE
  5
3FD
330
1B
100
AcDbEntity
  8
4
100
AcDbLine
 10
449.5585652815216
 20
277.5329028187206
 30
0.0
 11
447.0182681103784
 21
268.0523847096919
 31
0.0
  0
LINE
  5
3FE
330
1B
100
AcDbEntity
  8
4
100
AcDbLine
 10
575.7117007583539
 20
396.7458204130988
 30
0.0
 11
566.2311826493255
 21
394.2055232419565
 31
0.0
  0
LINE
  5
3FF
330
1B
100
AcDbEntity
  8
4
100
AcDbLine
 10
570.6311064160684
 20
377.7847841950423
 30
0.0
 11
580.1116245250968
 21
380.3250813661851
 31
0.0
  0
LINE
  5
400
330
1B
100
AcDbEntity
  8
4
100
AcDbLine
 10
582.6519216962391
 20
389.8055994752134
 30
0.0
 11
575.7117007583539
 21
396.7458204130988
 31
0.0
  0
LINE
  5
401
330
1B
100
AcDbEntity
  8
4
100
AcDbLine
 10
580.1116245250968
 20
380.3250813661851
 30
0.0
 11
582.6519216962391
 21
389.8055994752134
 31
0.0
  0
LINE
  5
402
330
1B
100
AcDbEntity
  8
4
100
AcDbLine
 10
563.6908854781824
 20
384.7250051329278
 30
0.0
 11
570.6311064160684
 21
377.7847841950423
 31
0.0
  0
CIRCLE
  5
403
330
1B
100
AcDbEntity
  8
4
100
AcDbCircle
 10
573.1714035872108
 20
387.2653023040706
 30
0.0
 40
8.5
  0
LINE
  5
404
330
1B
100
AcDbEntity
  8
4
100
AcDbLine
 10
566.2311826493255
 20
394.2055232419565
 30
0.0
 11
563.6908854781824
 21
384.7250051329278
 31
0.0
  0
LINE
  5
405
330
1B
100
AcDbEntity
  8
L-CENTER
100
AcDbLine
 10
456.499030162712
 20
1237.014235459668
 30
0.0
 11
456.499030162712
 21
1273.924592320623
 31
0.0
  0
LINE
  5
406
330
1B
100
AcDbEntity
  8
4
100
AcDbLine
 10
466.3139847389355
 20
1261.556614066043
 30
0.0
 11
466.3139847389355
 21
1270.15308712019
 31
0.0
  0
ARC
  5
407
330
1B
100
AcDbEntity
  8
4
100
AcDbCircle
 10
456.4990301627121
 20
1257.277448768583
 30
0.0
 40
13.77916529745958
100
AcDbArc
 50
69.1359356360772
 51
110.8640643639228
  0
LINE
  5
408
330
1B
100
AcDbEntity
  8
4
100
AcDbLine
 10
463.8602460948794
 20
1271.056614066043
 30
0.0
 11
449.1378142305437
 21
1271.056614066043
 31
0.0
  0
ARC
  5
409
330
1B
100
AcDbEntity
  8
4
100
AcDbCircle
 10
449.1378142305438
 20
1267.273000136983
 30
0.0
 40
3.783613929059507
100
AcDbArc
 50
49.57010315518443
 51
130.4298968448156
  0
LINE
  5
40A
330
1B
100
AcDbEntity
  8
4
100
AcDbLine
 10
446.6840755864885
 20
1270.15308712019
 30
0.0
 11
446.6840755864885
 21
1261.556614066043
 31
0.0
  0
LINE
  5
40B
330
1B
100
AcDbEntity
  8
4
100
AcDbLine
 10
461.4065074508233
 20
1270.15308712019
 30
0.0
 11
461.4065074508233
 21
1264.056614066043
 31
0.0
  0
LINE
  5
40C
330
1B
100
AcDbEntity
  8
4
100
AcDbLine
 10
451.5915528745998
 20
1270.15308712019
 30
0.0
 11
451.5915528745998
 21
1264.056614066043
 31
0.0
  0
LINE
  5
40D
330
1B
100
AcDbEntity
  8
4
100
AcDbLine
 10
446.6840755864885
 20
1264.056614066043
 30
0.0
 11
466.3139847389355
 21
1264.056614066043
 31
0.0
  0
LINE
  5
40E
330
1B
100
AcDbEntity
  8
4
100
AcDbLine
 10
446.6840755864885
 20
1261.556614066043
 30
0.0
 11
466.3139847389355
 21
1261.556614066043
 31
0.0
  0
ARC
  5
40F
330
1B
100
AcDbEntity
  8
4
100
AcDbCircle
 10
463.8602460948795
 20
1267.273000136983
 30
0.0
 40
3.783613929059507
100
AcDbArc
 50
49.57010315518443
 51
130.4298968448156
  0
LINE
  5
410
330
1B
100
AcDbEntity
  8
L-CENTER
100
AcDbLine
 10
572.6652261716242
 20
1237.014235459668
 30
0.0
 11
572.6652261716242
 21
1273.924592320623
 31
0.0
  0
ARC
  5
411
330
1B
100
AcDbEntity
  8
4
100
AcDbCircle
 10
565.3040102394567
 20
1267.273000136983
 30
0.0
 40
3.783613929059507
100
AcDbArc
 50
49.57010315518443
 51
130.4298968448156
  0
LINE
  5
412
330
1B
100
AcDbEntity
  8
4
100
AcDbLine
 10
582.4801807478477
 20
1261.556614066043
 30
0.0
 11
562.8502715954007
 21
1261.556614066043
 31
0.0
  0
LINE
  5
413
330
1B
100
AcDbEntity
  8
4
100
AcDbLine
 10
582.4801807478477
 20
1264.056614066043
 30
0.0
 11
562.8502715954007
 21
1264.056614066043
 31
0.0
  0
LINE
  5
414
330
1B
100
AcDbEntity
  8
4
100
AcDbLine
 10
577.5727034597364
 20
1270.15308712019
 30
0.0
 11
577.5727034597364
 21
1264.056614066043
 31
0.0
  0
LINE
  5
415
330
1B
100
AcDbEntity
  8
4
100
AcDbLine
 10
567.7577488835129
 20
1270.15308712019
 30
0.0
 11
567.7577488835129
 21
1264.056614066043
 31
0.0
  0
LINE
  5
416
330
1B
100
AcDbEntity
  8
4
100
AcDbLine
 10
582.4801807478477
 20
1270.15308712019
 30
0.0
 11
582.4801807478477
 21
1261.556614066043
 31
0.0
  0
ARC
  5
417
330
1B
100
AcDbEntity
  8
4
100
AcDbCircle
 10
580.0264421037924
 20
1267.273000136983
 30
0.0
 40
3.783613929059507
100
AcDbArc
 50
49.57010315518443
 51
130.4298968448156
  0
LINE
  5
418
330
1B
100
AcDbEntity
  8
4
100
AcDbLine
 10
565.3040102394568
 20
1271.056614066043
 30
0.0
 11
580.0264421037925
 21
1271.056614066043
 31
0.0
  0
ARC
  5
419
330
1B
100
AcDbEntity
  8
4
100
AcDbCircle
 10
572.6652261716241
 20
1257.277448768583
 30
0.0
 40
13.77916529745958
100
AcDbArc
 50
69.13593563607698
 51
110.864064363923
  0
LINE
  5
41A
330
1B
100
AcDbEntity
  8
4
100
AcDbLine
 10
562.8502715954007
 20
1261.556614066043
 30
0.0
 11
562.8502715954007
 21
1270.15308712019
 31
0.0
  0
ARC
  5
41B
330
1B
100
AcDbEntity
  8
4
100
AcDbCircle
 10
463.8602460948795
 20
1001.440227995102
 30
0.0
 40
3.783613929059507
100
AcDbArc
 50
229.5701031551844
 51
310.4298968448156
  0
LINE
  5
41C
330
1B
100
AcDbEntity
  8
4
100
AcDbLine
 10
446.6840755864885
 20
1007.156614066043
 30
0.0
 11
466.3139847389355
 21
1007.156614066043
 31
0.0
  0
LINE
  5
41D
330
1B
100
AcDbEntity
  8
4
100
AcDbLine
 10
446.6840755864885
 20
1004.656614066043
 30
0.0
 11
466.3139847389355
 21
1004.656614066043
 31
0.0
  0
LINE
  5
41E
330
1B
100
AcDbEntity
  8
4
100
AcDbLine
 10
451.5915528745998
 20
998.5601410118957
 30
0.0
 11
451.5915528745998
 21
1004.656614066043
 31
0.0
  0
LINE
  5
41F
330
1B
100
AcDbEntity
  8
4
100
AcDbLine
 10
461.4065074508233
 20
998.5601410118957
 30
0.0
 11
461.4065074508233
 21
1004.656614066043
 31
0.0
  0
LINE
  5
420
330
1B
100
AcDbEntity
  8
4
100
AcDbLine
 10
446.6840755864885
 20
998.5601410118957
 30
0.0
 11
446.6840755864885
 21
1007.156614066043
 31
0.0
  0
ARC
  5
421
330
1B
100
AcDbEntity
  8
4
100
AcDbCircle
 10
449.1378142305438
 20
1001.440227995102
 30
0.0
 40
3.783613929059507
100
AcDbArc
 50
229.5701031551844
 51
310.4298968448156
  0
LINE
  5
422
330
1B
100
AcDbEntity
  8
4
100
AcDbLine
 10
463.8602460948794
 20
997.656614066043
 30
0.0
 11
449.1378142305437
 21
997.656614066043
 31
0.0
  0
ARC
  5
423
330
1B
100
AcDbEntity
  8
4
100
AcDbCircle
 10
456.4990301627121
 20
1011.435779363502
 30
0.0
 40
13.77916529745958
100
AcDbArc
 50
249.1359356360772
 51
290.8640643639228
  0
LINE
  5
424
330
1B
100
AcDbEntity
  8
4
100
AcDbLine
 10
466.3139847389355
 20
1007.156614066043
 30
0.0
 11
466.3139847389355
 21
998.5601410118957
 31
0.0
  0
LINE
  5
425
330
1B
100
AcDbEntity
  8
L-CENTER
100
AcDbLine
 10
456.499030162712
 20
1031.698992672419
 30
0.0
 11
456.499030162712
 21
994.7886358114624
 31
0.0
  0
LINE
  5
426
330
1B
100
AcDbEntity
  8
4
100
AcDbLine
 10
562.8502715954007
 20
1007.156614066043
 30
0.0
 11
562.8502715954007
 21
998.5601410118957
 31
0.0
  0
ARC
  5
427
330
1B
100
AcDbEntity
  8
4
100
AcDbCircle
 10
572.6652261716241
 20
1011.435779363502
 30
0.0
 40
13.77916529745958
100
AcDbArc
 50
249.1359356360769
 51
290.8640643639231
  0
LINE
  5
428
330
1B
100
AcDbEntity
  8
4
100
AcDbLine
 10
565.3040102394568
 20
997.656614066043
 30
0.0
 11
580.0264421037925
 21
997.656614066043
 31
0.0
  0
ARC
  5
429
330
1B
100
AcDbEntity
  8
4
100
AcDbCircle
 10
580.0264421037924
 20
1001.440227995102
 30
0.0
 40
3.783613929059507
100
AcDbArc
 50
229.5701031551844
 51
310.4298968448156
  0
LINE
  5
42A
330
1B
100
AcDbEntity
  8
4
100
AcDbLine
 10
582.4801807478477
 20
998.5601410118957
 30
0.0
 11
582.4801807478477
 21
1007.156614066043
 31
0.0
  0
LINE
  5
42B
330
1B
100
AcDbEntity
  8
4
100
AcDbLine
 10
567.7577488835129
 20
998.5601410118957
 30
0.0
 11
567.7577488835129
 21
1004.656614066043
 31
0.0
  0
LINE
  5
42C
330
1B
100
AcDbEntity
  8
4
100
AcDbLine
 10
577.5727034597364
 20
998.5601410118957
 30
0.0
 11
577.5727034597364
 21
1004.656614066043
 31
0.0
  0
LINE
  5
42D
330
1B
100
AcDbEntity
  8
4
100
AcDbLine
 10
582.4801807478477
 20
1004.656614066043
 30
0.0
 11
562.8502715954007
 21
1004.656614066043
 31
0.0
  0
LINE
  5
42E
330
1B
100
AcDbEntity
  8
4
100
AcDbLine
 10
582.4801807478477
 20
1007.156614066043
 30
0.0
 11
562.8502715954007
 21
1007.156614066043
 31
0.0
  0
ARC
  5
42F
330
1B
100
AcDbEntity
  8
4
100
AcDbCircle
 10
565.3040102394567
 20
1001.440227995102
 30
0.0
 40
3.783613929059507
100
AcDbArc
 50
229.5701031551844
 51
310.4298968448156
  0
LINE
  5
430
330
1B
100
AcDbEntity
  8
L-CENTER
100
AcDbLine
 10
572.6652261716242
 20
1031.698992672419
 30
0.0
 11
572.6652261716242
 21
994.7886358114624
 31
0.0
  0
LINE
  5
431
330
1B
100
AcDbEntity
  8
4
100
AcDbLine
 10
754.7474255364617
 20
399.3712682936492
 30
0.0
 11
745.2669074274334
 21
396.8309711225064
 31
0.0
  0
LINE
  5
432
330
1B
100
AcDbEntity
  8
4
100
AcDbLine
 10
749.6668311941762
 20
380.4102320755918
 30
0.0
 11
759.1473493032046
 21
382.9505292467346
 31
0.0
  0
LINE
  5
433
330
1B
100
AcDbEntity
  8
4
100
AcDbLine
 10
761.6876464743469
 20
392.4310473557633
 30
0.0
 11
754.7474255364617
 21
399.3712682936492
 31
0.0
  0
LINE
  5
434
330
1B
100
AcDbEntity
  8
4
100
AcDbLine
 10
759.1473493032046
 20
382.9505292467346
 30
0.0
 11
761.6876464743469
 21
392.4310473557633
 31
0.0
  0
LINE
  5
435
330
1B
100
AcDbEntity
  8
4
100
AcDbLine
 10
742.7266102562902
 20
387.3504530134777
 30
0.0
 11
749.6668311941762
 21
380.4102320755918
 31
0.0
  0
CIRCLE
  5
436
330
1B
100
AcDbEntity
  8
4
100
AcDbCircle
 10
752.2071283653186
 20
389.8907501846205
 30
0.0
 40
8.5
  0
LINE
  5
437
330
1B
100
AcDbEntity
  8
4
100
AcDbLine
 10
745.2669074274334
 20
396.8309711225064
 30
0.0
 11
742.7266102562902
 21
387.3504530134777
 31
0.0
  0
LINE
  5
438
330
1B
100
AcDbEntity
  8
4
100
AcDbLine
 10
662.8235372739997
 20
307.4473934477459
 30
0.0
 11
653.3430191649713
 21
304.9070962766035
 31
0.0
  0
LINE
  5
439
330
1B
100
AcDbEntity
  8
4
100
AcDbLine
 10
657.7429429317142
 20
288.4863572296889
 30
0.0
 11
667.2234610407426
 21
291.0266544008317
 31
0.0
  0
LINE
  5
43A
330
1B
100
AcDbEntity
  8
4
100
AcDbLine
 10
669.7637582118849
 20
300.5071725098604
 30
0.0
 11
662.8235372739997
 21
307.4473934477459
 31
0.0
  0
LINE
  5
43B
330
1B
100
AcDbEntity
  8
4
100
AcDbLine
 10
667.2234610407426
 20
291.0266544008317
 30
0.0
 11
669.7637582118849
 21
300.5071725098604
 31
0.0
  0
LINE
  5
43C
330
1B
100
AcDbEntity
  8
4
100
AcDbLine
 10
650.8027219938282
 20
295.4265781675748
 30
0.0
 11
657.7429429317142
 21
288.4863572296889
 31
0.0
  0
CIRCLE
  5
43D
330
1B
100
AcDbEntity
  8
4
100
AcDbCircle
 10
660.2832401028566
 20
297.9668753387176
 30
0.0
 40
8.5
  0
LINE
  5
43E
330
1B
100
AcDbEntity
  8
4
100
AcDbLine
 10
653.3430191649713
 20
304.9070962766035
 30
0.0
 11
650.8027219938282
 21
295.4265781675748
 31
0.0
  0
LINE
  5
43F
330
1B
100
AcDbEntity
  8
4
100
AcDbLine
 10
653.3429070311324
 20
382.9505292467346
 30
0.0
 11
662.8234251401608
 21
380.4102320755918
 31
0.0
  0
LINE
  5
440
330
1B
100
AcDbEntity
  8
4
100
AcDbLine
 10
662.8234251401608
 20
380.4102320755918
 30
0.0
 11
669.7636460780466
 21
387.3504530134772
 31
0.0
  0
LINE
  5
441
330
1B
100
AcDbEntity
  8
4
100
AcDbLine
 10
667.2233489069039
 20
396.8309711225055
 30
0.0
 11
657.7428307978753
 21
399.3712682936488
 31
0.0
  0
CIRCLE
  5
442
330
1B
100
AcDbEntity
  8
4
100
AcDbCircle
 10
660.2831279690181
 20
389.8907501846205
 30
0.0
 40
8.5
  0
LINE
  5
443
330
1B
100
AcDbEntity
  8
4
100
AcDbLine
 10
657.7428307978753
 20
399.3712682936488
 30
0.0
 11
650.8026098599896
 21
392.4310473557629
 31
0.0
  0
LINE
  5
444
330
1B
100
AcDbEntity
  8
4
100
AcDbLine
 10
650.8026098599896
 20
392.4310473557629
 30
0.0
 11
653.3429070311324
 21
382.9505292467346
 31
0.0
  0
LINE
  5
445
330
1B
100
AcDbEntity
  8
4
100
AcDbLine
 10
669.7636460780466
 20
387.3504530134772
 30
0.0
 11
667.2233489069039
 21
396.8309711225055
 31
0.0
  0
LINE
  5
446
330
1B
100
AcDbEntity
  8
4
100
AcDbLine
 10
745.266907427433
 20
291.0267665346863
 30
0.0
 11
754.7474255364614
 21
288.486469363544
 31
0.0
  0
LINE
  5
447
330
1B
100
AcDbEntity
  8
4
100
AcDbLine
 10
754.7474255364614
 20
288.486469363544
 30
0.0
 11
761.6876464743472
 21
295.4266903014294
 31
0.0
  0
LINE
  5
448
330
1B
100
AcDbEntity
  8
4
100
AcDbLine
 10
759.1473493032045
 20
304.9072084104577
 30
0.0
 11
749.6668311941759
 21
307.4475055816009
 31
0.0
  0
CIRCLE
  5
449
330
1B
100
AcDbEntity
  8
4
100
AcDbCircle
 10
752.2071283653186
 20
297.9669874725722
 30
0.0
 40
8.5
  0
LINE
  5
44A
330
1B
100
AcDbEntity
  8
4
100
AcDbLine
 10
749.6668311941759
 20
307.4475055816009
 30
0.0
 11
742.7266102562902
 21
300.507284643715
 31
0.0
  0
LINE
  5
44B
330
1B
100
AcDbEntity
  8
4
100
AcDbLine
 10
742.7266102562902
 20
300.507284643715
 30
0.0
 11
745.266907427433
 21
291.0267665346863
 31
0.0
  0
LINE
  5
44C
330
1B
100
AcDbEntity
  8
4
100
AcDbLine
 10
761.6876464743472
 20
295.4266903014294
 30
0.0
 11
759.1473493032045
 21
304.9072084104577
 31
0.0
  0
LINE
  5
44D
330
1B
100
AcDbEntity
  8
4
100
AcDbLine
 10
650.4681733927945
 20
1261.556614066043
 30
0.0
 11
650.4681733927945
 21
1270.15308712019
 31
0.0
  0
ARC
  5
44E
330
1B
100
AcDbEntity
  8
4
100
AcDbCircle
 10
660.2831279690179
 20
1257.277448768583
 30
0.0
 40
13.77916529745958
100
AcDbArc
 50
69.13593563607698
 51
110.864064363923
  0
LINE
  5
44F
330
1B
100
AcDbEntity
  8
4
100
AcDbLine
 10
652.9219120368506
 20
1271.056614066043
 30
0.0
 11
667.6443439011863
 21
1271.056614066043
 31
0.0
  0
ARC
  5
450
330
1B
100
AcDbEntity
  8
4
100
AcDbCircle
 10
667.6443439011862
 20
1267.273000136983
 30
0.0
 40
3.783613929059507
100
AcDbArc
 50
49.57010315518443
 51
130.4298968448156
  0
LINE
  5
451
330
1B
100
AcDbEntity
  8
4
100
AcDbLine
 10
670.0980825452415
 20
1270.15308712019
 30
0.0
 11
670.0980825452415
 21
1261.556614066043
 31
0.0
  0
LINE
  5
452
330
1B
100
AcDbEntity
  8
4
100
AcDbLine
 10
655.3756506809067
 20
1270.15308712019
 30
0.0
 11
655.3756506809067
 21
1264.056614066043
 31
0.0
  0
LINE
  5
453
330
1B
100
AcDbEntity
  8
4
100
AcDbLine
 10
665.1906052571302
 20
1270.15308712019
 30
0.0
 11
665.1906052571302
 21
1264.056614066043
 31
0.0
  0
LINE
  5
454
330
1B
100
AcDbEntity
  8
4
100
AcDbLine
 10
670.0980825452415
 20
1264.056614066043
 30
0.0
 11
650.4681733927945
 21
1264.056614066043
 31
0.0
  0
LINE
  5
455
330
1B
100
AcDbEntity
  8
4
100
AcDbLine
 10
670.0980825452415
 20
1261.556614066043
 30
0.0
 11
650.4681733927945
 21
1261.556614066043
 31
0.0
  0
ARC
  5
456
330
1B
100
AcDbEntity
  8
4
100
AcDbCircle
 10
652.9219120368505
 20
1267.273000136983
 30
0.0
 40
3.783613929059507
100
AcDbArc
 50
49.57010315518443
 51
130.4298968448156
  0
LINE
  5
457
330
1B
100
AcDbEntity
  8
L-CENTER
100
AcDbLine
 10
660.283127969018
 20
1237.014235459668
 30
0.0
 11
660.283127969018
 21
1273.924592320623
 31
0.0
  0
LINE
  5
458
330
1B
100
AcDbEntity
  8
L-CENTER
100
AcDbLine
 10
752.8811283653181
 20
1237.014235459671
 30
0.0
 11
752.8811283653162
 21
1273.924592320626
 31
0.0
  0
ARC
  5
459
330
1B
100
AcDbEntity
  8
4
100
AcDbCircle
 10
760.242344297484
 20
1267.273000136986
 30
0.0
 40
3.783613929059507
100
AcDbArc
 50
49.57010315518443
 51
130.4298968448191
  0
LINE
  5
45A
330
1B
100
AcDbEntity
  8
4
100
AcDbLine
 10
743.0661737890933
 20
1261.556614066044
 30
0.0
 11
762.6960829415403
 21
1261.556614066045
 31
0.0
  0
LINE
  5
45B
330
1B
100
AcDbEntity
  8
4
100
AcDbLine
 10
743.0661737890932
 20
1264.056614066044
 30
0.0
 11
762.6960829415402
 21
1264.056614066045
 31
0.0
  0
LINE
  5
45C
330
1B
100
AcDbEntity
  8
4
100
AcDbLine
 10
747.9736510772042
 20
1270.153087120193
 30
0.0
 11
747.9736510772045
 21
1264.056614066045
 31
0.0
  0
LINE
  5
45D
330
1B
100
AcDbEntity
  8
4
100
AcDbLine
 10
757.7886056534277
 20
1270.153087120193
 30
0.0
 11
757.788605653428
 21
1264.056614066045
 31
0.0
  0
LINE
  5
45E
330
1B
100
AcDbEntity
  8
4
100
AcDbLine
 10
743.0661737890929
 20
1270.153087120192
 30
0.0
 11
743.0661737890933
 21
1261.556614066044
 31
0.0
  0
ARC
  5
45F
330
1B
100
AcDbEntity
  8
4
100
AcDbCircle
 10
745.5199124331483
 20
1267.273000136985
 30
0.0
 40
3.783613929059507
100
AcDbArc
 50
49.57010315518443
 51
130.4298968448191
  0
LINE
  5
460
330
1B
100
AcDbEntity
  8
4
100
AcDbLine
 10
760.2423442974838
 20
1271.056614066045
 30
0.0
 11
745.5199124331481
 21
1271.056614066044
 31
0.0
  0
ARC
  5
461
330
1B
100
AcDbEntity
  8
4
100
AcDbCircle
 10
752.8811283653172
 20
1257.277448768586
 30
0.0
 40
13.77916529745958
100
AcDbArc
 50
69.13593563607952
 51
110.8640643639251
  0
LINE
  5
462
330
1B
100
AcDbEntity
  8
4
100
AcDbLine
 10
762.6960829415403
 20
1261.556614066045
 30
0.0
 11
762.6960829415399
 21
1270.153087120193
 31
0.0
  0
ARC
  5
463
330
1B
100
AcDbEntity
  8
4
100
AcDbCircle
 10
652.9219120368373
 20
1001.440227995103
 30
0.0
 40
3.783613929059507
100
AcDbArc
 50
229.570103155154
 51
310.4298968448156
  0
LINE
  5
464
330
1B
100
AcDbEntity
  8
4
100
AcDbLine
 10
670.0980825452289
 20
1007.156614066042
 30
0.0
 11
650.4681733927819
 21
1007.156614066044
 31
0.0
  0
LINE
  5
465
330
1B
100
AcDbEntity
  8
4
100
AcDbLine
 10
670.0980825452286
 20
1004.656614066042
 30
0.0
 11
650.4681733927816
 21
1004.656614066044
 31
0.0
  0
LINE
  5
466
330
1B
100
AcDbEntity
  8
4
100
AcDbLine
 10
665.1906052571168
 20
998.5601410118957
 30
0.0
 11
665.1906052571173
 21
1004.656614066043
 31
0.0
  0
LINE
  5
467
330
1B
100
AcDbEntity
  8
4
100
AcDbLine
 10
655.3756506808933
 20
998.5601410118966
 30
0.0
 11
655.3756506808938
 21
1004.656614066044
 31
0.0
  0
LINE
  5
468
330
1B
100
AcDbEntity
  8
4
100
AcDbLine
 10
670.0980825452281
 20
998.5601410118948
 30
0.0
 11
670.0980825452289
 21
1007.156614066042
 31
0.0
  0
ARC
  5
469
330
1B
100
AcDbEntity
  8
4
100
AcDbCircle
 10
667.644343901173
 20
1001.440227995102
 30
0.0
 40
3.783613929059507
100
AcDbArc
 50
229.570103155154
 51
310.4298968448156
  0
LINE
  5
46A
330
1B
100
AcDbEntity
  8
4
100
AcDbLine
 10
652.921912036837
 20
997.6566140660439
 30
0.0
 11
667.6443439011728
 21
997.6566140660425
 31
0.0
  0
ARC
  5
46B
330
1B
100
AcDbEntity
  8
4
100
AcDbCircle
 10
660.2831279690057
 20
1011.435779363502
 30
0.0
 40
13.77916529745958
100
AcDbArc
 50
249.1359356360723
 51
290.8640643639184
  0
LINE
  5
46C
330
1B
100
AcDbEntity
  8
4
100
AcDbLine
 10
650.4681733927819
 20
1007.156614066044
 30
0.0
 11
650.4681733927811
 21
998.560141011897
 31
0.0
  0
LINE
  5
46D
330
1B
100
AcDbEntity
  8
L-CENTER
100
AcDbLine
 10
660.2831279690079
 20
1031.698992672419
 30
0.0
 11
660.2831279690042
 21
994.7886358114624
 31
0.0
  0
LINE
  5
46E
330
1B
100
AcDbEntity
  8
4
100
AcDbLine
 10
762.6960829415277
 20
1007.15661406603
 30
0.0
 11
762.6960829415265
 21
998.5601410118829
 31
0.0
  0
ARC
  5
46F
330
1B
100
AcDbEntity
  8
4
100
AcDbCircle
 10
752.881128365305
 20
1011.435779363491
 30
0.0
 40
13.77916529745958
100
AcDbArc
 50
249.1359356360705
 51
290.8640643639158
  0
LINE
  5
470
330
1B
100
AcDbEntity
  8
4
100
AcDbLine
 10
760.2423442974703
 20
997.6566140660307
 30
0.0
 11
745.5199124331346
 21
997.656614066033
 31
0.0
  0
ARC
  5
471
330
1B
100
AcDbEntity
  8
4
100
AcDbCircle
 10
745.5199124331351
 20
1001.440227995092
 30
0.0
 40
3.783613929059507
100
AcDbArc
 50
229.5701031551527
 51
310.4298968448143
  0
LINE
  5
472
330
1B
100
AcDbEntity
  8
4
100
AcDbLine
 10
743.0661737890795
 20
998.5601410118861
 30
0.0
 11
743.0661737890807
 21
1007.156614066033
 31
0.0
  0
LINE
  5
473
330
1B
100
AcDbEntity
  8
4
100
AcDbLine
 10
757.7886056534143
 20
998.5601410118838
 30
0.0
 11
757.7886056534152
 21
1004.656614066031
 31
0.0
  0
LINE
  5
474
330
1B
100
AcDbEntity
  8
4
100
AcDbLine
 10
747.9736510771908
 20
998.5601410118852
 30
0.0
 11
747.9736510771917
 21
1004.656614066033
 31
0.0
  0
LINE
  5
475
330
1B
100
AcDbEntity
  8
4
100
AcDbLine
 10
743.0661737890804
 20
1004.656614066033
 30
0.0
 11
762.6960829415274
 21
1004.65661406603
 31
0.0
  0
LINE
  5
476
330
1B
100
AcDbEntity
  8
4
100
AcDbLine
 10
743.0661737890807
 20
1007.156614066033
 30
0.0
 11
762.6960829415277
 21
1007.15661406603
 31
0.0
  0
ARC
  5
477
330
1B
100
AcDbEntity
  8
4
100
AcDbCircle
 10
760.2423442974708
 20
1001.44022799509
 30
0.0
 40
3.783613929059507
100
AcDbArc
 50
229.5701031551527
 51
310.4298968448143
  0
LINE
  5
478
330
1B
100
AcDbEntity
  8
L-CENTER
100
AcDbLine
 10
752.881128365308
 20
1031.698992672407
 30
0.0
 11
752.8811283653024
 21
994.7886358114515
 31
0.0
  0
LINE
  5
48B
330
1B
100
AcDbEntity
  8
L-CENTER
100
AcDbLine
 10
1358.571938256018
 20
199.3714300653895
 30
0.0
 11
1382.539629524819
 21
223.3391213341891
 31
0.0
  0
LINE
  5
48C
330
1B
100
AcDbEntity
  8
L-CENTER
100
AcDbLine
 10
1297.686815782433
 20
199.3714300653891
 30
0.0
 11
1273.719124513632
 21
223.3391213341891
 31
0.0
  0
LINE
  5
48D
330
1B
100
AcDbEntity
  8
L-CENTER
100
AcDbLine
 10
1297.686815782433
 20
138.4863075918037
 30
0.0
 11
1273.719124513632
 21
114.5186163230036
 31
0.0
  0
LINE
  5
48E
330
1B
100
AcDbEntity
  8
L-CENTER
100
AcDbLine
 10
1358.571938256017
 20
138.4863075918032
 30
0.0
 11
1382.539629524819
 21
114.5186163230031
 31
0.0
  0
LINE
  5
48F
330
1B
100
AcDbEntity
  8
4
100
AcDbLine
 10
1363.615562952533
 20
218.2954966376755
 30
0.0
 11
1361.07526578139
 21
208.8149785286467
 31
0.0
  0
CIRCLE
  5
490
330
1B
100
AcDbEntity
  8
4
100
AcDbCircle
 10
1370.555783890418
 20
211.3552756997896
 30
0.0
 40
8.5
  0
LINE
  5
491
330
1B
100
AcDbEntity
  8
4
100
AcDbLine
 10
1361.07526578139
 20
208.8149785286467
 30
0.0
 11
1368.015486719276
 21
201.8747575907609
 31
0.0
  0
LINE
  5
492
330
1B
100
AcDbEntity
  8
4
100
AcDbLine
 10
1377.496004828304
 20
204.4150547619037
 30
0.0
 11
1380.036301999447
 21
213.8955728709324
 31
0.0
  0
LINE
  5
493
330
1B
100
AcDbEntity
  8
4
100
AcDbLine
 10
1380.036301999447
 20
213.8955728709324
 30
0.0
 11
1373.096081061561
 21
220.8357938088178
 31
0.0
  0
LINE
  5
494
330
1B
100
AcDbEntity
  8
4
100
AcDbLine
 10
1368.015486719276
 20
201.8747575907609
 30
0.0
 11
1377.496004828304
 21
204.4150547619037
 31
0.0
  0
LINE
  5
495
330
1B
100
AcDbEntity
  8
4
100
AcDbLine
 10
1373.096081061561
 20
220.8357938088178
 30
0.0
 11
1363.615562952533
 21
218.2954966376755
 31
0.0
  0
LINE
  5
496
330
1B
100
AcDbEntity
  8
4
100
AcDbLine
 10
1295.183488257061
 20
208.8149785286458
 30
0.0
 11
1292.643191085918
 21
218.2954966376745
 31
0.0
  0
LINE
  5
497
330
1B
100
AcDbEntity
  8
4
100
AcDbLine
 10
1276.222452039004
 20
213.8955728709315
 30
0.0
 11
1278.762749210147
 21
204.4150547619028
 31
0.0
  0
LINE
  5
498
330
1B
100
AcDbEntity
  8
4
100
AcDbLine
 10
1283.16267297689
 20
220.8357938088174
 30
0.0
 11
1276.222452039004
 21
213.8955728709315
 31
0.0
  0
CIRCLE
  5
499
330
1B
100
AcDbEntity
  8
4
100
AcDbCircle
 10
1285.702970148032
 20
211.3552756997886
 30
0.0
 40
8.5
  0
LINE
  5
49A
330
1B
100
AcDbEntity
  8
4
100
AcDbLine
 10
1292.643191085918
 20
218.2954966376745
 30
0.0
 11
1283.16267297689
 21
220.8357938088174
 31
0.0
  0
LINE
  5
49B
330
1B
100
AcDbEntity
  8
4
100
AcDbLine
 10
1288.243267319175
 20
201.8747575907609
 30
0.0
 11
1295.183488257061
 21
208.8149785286458
 31
0.0
  0
LINE
  5
49C
330
1B
100
AcDbEntity
  8
4
100
AcDbLine
 10
1278.762749210147
 20
204.4150547619028
 30
0.0
 11
1288.243267319175
 21
201.8747575907609
 31
0.0
  0
LINE
  5
49D
330
1B
100
AcDbEntity
  8
4
100
AcDbLine
 10
1373.096081061561
 20
117.0219438483749
 30
0.0
 11
1363.615562952533
 21
119.5622410195173
 31
0.0
  0
LINE
  5
49E
330
1B
100
AcDbEntity
  8
4
100
AcDbLine
 10
1368.015486719276
 20
135.9829800664319
 30
0.0
 11
1377.496004828304
 21
133.4426828952891
 31
0.0
  0
LINE
  5
49F
330
1B
100
AcDbEntity
  8
4
100
AcDbLine
 10
1380.036301999447
 20
123.9621647862604
 30
0.0
 11
1373.096081061561
 21
117.0219438483749
 31
0.0
  0
LINE
  5
4A0
330
1B
100
AcDbEntity
  8
4
100
AcDbLine
 10
1377.496004828304
 20
133.4426828952891
 30
0.0
 11
1380.036301999447
 21
123.9621647862604
 31
0.0
  0
LINE
  5
4A1
330
1B
100
AcDbEntity
  8
4
100
AcDbLine
 10
1361.07526578139
 20
129.042759128546
 30
0.0
 11
1368.015486719276
 21
135.9829800664319
 31
0.0
  0
CIRCLE
  5
4A2
330
1B
100
AcDbEntity
  8
4
100
AcDbCircle
 10
1370.555783890418
 20
126.5024619574032
 30
0.0
 40
8.5
  0
LINE
  5
4A3
330
1B
100
AcDbEntity
  8
4
100
AcDbLine
 10
1363.615562952533
 20
119.5622410195173
 30
0.0
 11
1361.07526578139
 21
129.042759128546
 31
0.0
  0
LINE
  5
4A4
330
1B
100
AcDbEntity
  8
4
100
AcDbLine
 10
1278.762749210147
 20
133.44268289529
 30
0.0
 11
1288.243267319175
 21
135.9829800664319
 31
0.0
  0
LINE
  5
4A5
330
1B
100
AcDbEntity
  8
4
100
AcDbLine
 10
1288.243267319175
 20
135.9829800664319
 30
0.0
 11
1295.183488257061
 21
129.0427591285469
 31
0.0
  0
LINE
  5
4A6
330
1B
100
AcDbEntity
  8
4
100
AcDbLine
 10
1292.643191085918
 20
119.5622410195182
 30
0.0
 11
1283.16267297689
 21
117.0219438483754
 31
0.0
  0
CIRCLE
  5
4A7
330
1B
100
AcDbEntity
  8
4
100
AcDbCircle
 10
1285.702970148032
 20
126.5024619574041
 30
0.0
 40
8.5
  0
LINE
  5
4A8
330
1B
100
AcDbEntity
  8
4
100
AcDbLine
 10
1283.16267297689
 20
117.0219438483754
 30
0.0
 11
1276.222452039004
 21
123.9621647862613
 31
0.0
  0
LINE
  5
4A9
330
1B
100
AcDbEntity
  8
4
100
AcDbLine
 10
1276.222452039004
 20
123.9621647862613
 30
0.0
 11
1278.762749210147
 21
133.44268289529
 31
0.0
  0
LINE
  5
4AA
330
1B
100
AcDbEntity
  8
4
100
AcDbLine
 10
1295.183488257061
 20
129.0427591285469
 30
0.0
 11
1292.643191085918
 21
119.5622410195182
 31
0.0
  0
LINE
  5
4AB
330
1B
100
AcDbEntity
  8
4
100
AcDbLine
 10
901.2451281671695
 20
221.1702302760121
 30
0.0
 11
901.2451281671672
 21
201.5403211235651
 31
0.0
  0
LINE
  5
4AC
330
1B
100
AcDbEntity
  8
4
100
AcDbLine
 10
903.7451281671695
 20
221.1702302760121
 30
0.0
 11
903.7451281671672
 21
201.5403211235651
 31
0.0
  0
ARC
  5
4AD
330
1B
100
AcDbEntity
  8
4
100
AcDbCircle
 10
906.9615142381081
 20
203.9940597676208
 30
0.0
 40
3.783613929059507
100
AcDbArc
 50
319.5701031551686
 51
40.42989684482902
  0
ARC
  5
4AE
330
1B
100
AcDbEntity
  8
4
100
AcDbCircle
 10
906.9615142381097
 20
218.7164916319565
 30
0.0
 40
3.783613929059507
100
AcDbArc
 50
319.5701031551686
 51
40.42989684482902
  0
LINE
  5
4AF
330
1B
100
AcDbEntity
  8
4
100
AcDbLine
 10
910.7451281671676
 20
203.9940597676203
 30
0.0
 11
910.745128167169
 21
218.716491631956
 31
0.0
  0
ARC
  5
4B0
330
1B
100
AcDbEntity
  8
4
100
AcDbCircle
 10
896.9659628697091
 20
211.3552756997891
 30
0.0
 40
13.77916529745958
100
AcDbArc
 50
339.1359356360851
 51
20.86406436391432
  0
LINE
  5
4B1
330
1B
100
AcDbEntity
  8
L-CENTER
100
AcDbLine
 10
876.7027495607933
 20
211.3552756997914
 30
0.0
 11
913.6131064217491
 21
211.3552756997877
 31
0.0
  0
LINE
  5
4B2
330
1B
100
AcDbEntity
  8
4
100
AcDbLine
 10
909.8416012213163
 20
216.2627529879004
 30
0.0
 11
903.745128167169
 21
216.2627529879009
 31
0.0
  0
LINE
  5
4B3
330
1B
100
AcDbEntity
  8
4
100
AcDbLine
 10
909.8416012213154
 20
206.4477984116769
 30
0.0
 11
903.7451281671681
 21
206.4477984116774
 31
0.0
  0
LINE
  5
4B4
330
1B
100
AcDbEntity
  8
4
100
AcDbLine
 10
909.8416012213168
 20
221.1702302760117
 30
0.0
 11
901.2451281671695
 21
221.1702302760121
 31
0.0
  0
LINE
  5
4B5
330
1B
100
AcDbEntity
  8
4
100
AcDbLine
 10
901.2451281671672
 20
201.5403211235651
 30
0.0
 11
909.8416012213145
 21
201.5403211235647
 31
0.0
  0
LINE
  5
4B6
330
1B
100
AcDbEntity
  8
4
100
AcDbLine
 10
909.8416012213168
 20
116.687507381181
 30
0.0
 11
901.2451281671695
 21
116.6875073811806
 31
0.0
  0
LINE
  5
4B7
330
1B
100
AcDbEntity
  8
4
100
AcDbLine
 10
909.8416012213154
 20
131.4099392455158
 30
0.0
 11
903.7451281671681
 21
131.4099392455154
 31
0.0
  0
LINE
  5
4B8
330
1B
100
AcDbEntity
  8
4
100
AcDbLine
 10
909.8416012213163
 20
121.5949846692923
 30
0.0
 11
903.745128167169
 21
121.5949846692919
 31
0.0
  0
LINE
  5
4B9
330
1B
100
AcDbEntity
  8
L-CENTER
100
AcDbLine
 10
876.7027495607933
 20
126.5024619574014
 30
0.0
 11
913.6131064217491
 21
126.502461957405
 31
0.0
  0
ARC
  5
4BA
330
1B
100
AcDbEntity
  8
4
100
AcDbCircle
 10
896.9659628697091
 20
126.5024619574036
 30
0.0
 40
13.77916529745958
100
AcDbArc
 50
339.1359356360857
 51
20.86406436391492
  0
LINE
  5
4BB
330
1B
100
AcDbEntity
  8
4
100
AcDbLine
 10
910.7451281671676
 20
133.8636778895724
 30
0.0
 11
910.745128167169
 21
119.1412460252367
 31
0.0
  0
ARC
  5
4BC
330
1B
100
AcDbEntity
  8
4
100
AcDbCircle
 10
906.9615142381097
 20
119.1412460252362
 30
0.0
 40
3.783613929059507
100
AcDbArc
 50
319.570103155171
 51
40.42989684483145
  0
LINE
  5
4BD
330
1B
100
AcDbEntity
  8
4
100
AcDbLine
 10
901.2451281671672
 20
136.3174165336276
 30
0.0
 11
909.8416012213145
 21
136.317416533628
 31
0.0
  0
ARC
  5
4BE
330
1B
100
AcDbEntity
  8
4
100
AcDbCircle
 10
906.9615142381081
 20
133.8636778895719
 30
0.0
 40
3.783613929059507
100
AcDbArc
 50
319.570103155171
 51
40.42989684483145
  0
LINE
  5
4BF
330
1B
100
AcDbEntity
  8
4
100
AcDbLine
 10
903.7451281671695
 20
116.6875073811806
 30
0.0
 11
903.7451281671672
 21
136.3174165336276
 31
0.0
  0
LINE
  5
4C0
330
1B
100
AcDbEntity
  8
4
100
AcDbLine
 10
282.6486551130224
 20
221.1702302760226
 30
0.0
 11
291.2451281671697
 21
221.1702302760231
 31
0.0
  0
LINE
  5
4C1
330
1B
100
AcDbEntity
  8
4
100
AcDbLine
 10
282.6486551130232
 20
206.4477984116878
 30
0.0
 11
288.7451281671705
 21
206.4477984116883
 31
0.0
  0
LINE
  5
4C2
330
1B
100
AcDbEntity
  8
4
100
AcDbLine
 10
282.6486551130228
 20
216.2627529879113
 30
0.0
 11
288.74512816717
 21
216.2627529879118
 31
0.0
  0
LINE
  5
4C3
330
1B
100
AcDbEntity
  8
L-CENTER
100
AcDbLine
 10
315.7875067735455
 20
211.3552756998014
 30
0.0
 11
278.8771499125897
 21
211.3552756997987
 31
0.0
  0
ARC
  5
4C4
330
1B
100
AcDbEntity
  8
4
100
AcDbCircle
 10
295.5242934646297
 20
211.3552756997996
 30
0.0
 40
13.77916529745958
100
AcDbArc
 50
159.1359356360857
 51
200.8640643639143
  0
LINE
  5
4C5
330
1B
100
AcDbEntity
  8
4
100
AcDbLine
 10
281.7451281671709
 20
203.9940597676317
 30
0.0
 11
281.74512816717
 21
218.7164916319674
 31
0.0
  0
ARC
  5
4C6
330
1B
100
AcDbEntity
  8
4
100
AcDbCircle
 10
285.5287420962294
 20
218.7164916319674
 30
0.0
 40
3.783613929059507
100
AcDbArc
 50
139.5701031551704
 51
220.4298968448315
  0
LINE
  5
4C7
330
1B
100
AcDbEntity
  8
4
100
AcDbLine
 10
291.2451281671713
 20
201.5403211235761
 30
0.0
 11
282.648655113024
 21
201.5403211235756
 31
0.0
  0
ARC
  5
4C8
330
1B
100
AcDbEntity
  8
4
100
AcDbCircle
 10
285.5287420962305
 20
203.9940597676317
 30
0.0
 40
3.783613929059507
100
AcDbArc
 50
139.5701031551704
 51
220.4298968448315
  0
LINE
  5
4C9
330
1B
100
AcDbEntity
  8
4
100
AcDbLine
 10
288.7451281671697
 20
221.1702302760231
 30
0.0
 11
288.7451281671713
 21
201.5403211235761
 31
0.0
  0
LINE
  5
4CA
330
1B
100
AcDbEntity
  8
4
100
AcDbLine
 10
288.7451281671661
 20
116.6875073811915
 30
0.0
 11
288.745128167169
 21
136.3174165336385
 31
0.0
  0
ARC
  5
4CB
330
1B
100
AcDbEntity
  8
4
100
AcDbCircle
 10
285.528742096228
 20
133.8636778895828
 30
0.0
 40
3.783613929059507
100
AcDbArc
 50
139.5701031551685
 51
220.429896844829
  0
LINE
  5
4CC
330
1B
100
AcDbEntity
  8
4
100
AcDbLine
 10
291.245128167169
 20
136.317416533638
 30
0.0
 11
282.6486551130217
 21
136.3174165336389
 31
0.0
  0
ARC
  5
4CD
330
1B
100
AcDbEntity
  8
4
100
AcDbCircle
 10
285.528742096226
 20
119.1412460252471
 30
0.0
 40
3.783613929059507
100
AcDbArc
 50
139.5701031551685
 51
220.429896844829
  0
LINE
  5
4CE
330
1B
100
AcDbEntity
  8
4
100
AcDbLine
 10
281.7451281671684
 20
133.8636778895833
 30
0.0
 11
281.7451281671666
 21
119.1412460252476
 31
0.0
  0
ARC
  5
4CF
330
1B
100
AcDbEntity
  8
4
100
AcDbCircle
 10
295.5242934646268
 20
126.5024619574141
 30
0.0
 40
13.77916529745958
100
AcDbArc
 50
159.1359356360852
 51
200.8640643639143
  0
LINE
  5
4D0
330
1B
100
AcDbEntity
  8
L-CENTER
100
AcDbLine
 10
315.7875067735425
 20
126.5024619574114
 30
0.0
 11
278.8771499125868
 21
126.5024619574159
 31
0.0
  0
LINE
  5
4D1
330
1B
100
AcDbEntity
  8
4
100
AcDbLine
 10
282.6486551130193
 20
121.5949846693032
 30
0.0
 11
288.7451281671666
 21
121.5949846693028
 31
0.0
  0
LINE
  5
4D2
330
1B
100
AcDbEntity
  8
4
100
AcDbLine
 10
282.6486551130206
 20
131.4099392455267
 30
0.0
 11
288.7451281671679
 21
131.4099392455263
 31
0.0
  0
LINE
  5
4D3
330
1B
100
AcDbEntity
  8
4
100
AcDbLine
 10
282.6486551130188
 20
116.6875073811919
 30
0.0
 11
291.2451281671661
 21
116.687507381191
 31
0.0
  0
LINE
  5
4D4
330
1B
100
AcDbEntity
  8
4
100
AcDbLine
 10
291.2451281671697
 20
221.1702302760231
 30
0.0
 11
291.2451281671713
 21
201.5403211235761
 31
0.0
  0
LINE
  5
4D5
330
1B
100
AcDbEntity
  8
4
100
AcDbLine
 10
282.6486551130188
 20
1042.915252618639
 30
0.0
 11
291.2451281671661
 21
1042.915252618638
 31
0.0
  0
LINE
  5
4D6
330
1B
100
AcDbEntity
  8
4
100
AcDbLine
 10
282.6486551130206
 20
1057.637684482973
 30
0.0
 11
288.7451281671679
 21
1057.637684482972
 31
0.0
  0
LINE
  5
4D7
330
1B
100
AcDbEntity
  8
4
100
AcDbLine
 10
282.6486551130193
 20
1047.82272990675
 30
0.0
 11
288.7451281671666
 21
1047.822729906749
 31
0.0
  0
LINE
  5
4D8
330
1B
100
AcDbEntity
  8
L-CENTER
100
AcDbLine
 10
315.7875067735425
 20
1052.730207194857
 30
0.0
 11
278.8771499125868
 21
1052.730207194862
 31
0.0
  0
ARC
  5
4D9
330
1B
100
AcDbEntity
  8
4
100
AcDbCircle
 10
295.5242934646268
 20
1052.73020719486
 30
0.0
 40
13.77916529745958
100
AcDbArc
 50
159.1359356360857
 51
200.8640643639143
  0
LINE
  5
4DA
330
1B
100
AcDbEntity
  8
4
100
AcDbLine
 10
281.7451281671684
 20
1060.091423127029
 30
0.0
 11
281.7451281671666
 21
1045.368991262694
 31
0.0
  0
ARC
  5
4DB
330
1B
100
AcDbEntity
  8
4
100
AcDbCircle
 10
285.528742096226
 20
1045.368991262694
 30
0.0
 40
3.783613929059507
100
AcDbArc
 50
139.5701031551685
 51
220.4298968448315
  0
LINE
  5
4DC
330
1B
100
AcDbEntity
  8
4
100
AcDbLine
 10
291.245128167169
 20
1062.545161771085
 30
0.0
 11
282.6486551130217
 21
1062.545161771086
 31
0.0
  0
ARC
  5
4DD
330
1B
100
AcDbEntity
  8
4
100
AcDbCircle
 10
285.528742096228
 20
1060.091423127029
 30
0.0
 40
3.783613929059507
100
AcDbArc
 50
139.5701031551685
 51
220.4298968448315
  0
LINE
  5
4DE
330
1B
100
AcDbEntity
  8
4
100
AcDbLine
 10
288.7451281671661
 20
1042.915252618638
 30
0.0
 11
288.745128167169
 21
1062.545161771085
 31
0.0
  0
LINE
  5
4DF
330
1B
100
AcDbEntity
  8
4
100
AcDbLine
 10
291.2451281671697
 20
1147.39797551347
 30
0.0
 11
291.2451281671713
 21
1127.768066361023
 31
0.0
  0
LINE
  5
4E0
330
1B
100
AcDbEntity
  8
4
100
AcDbLine
 10
288.7451281671697
 20
1147.397975513469
 30
0.0
 11
288.7451281671713
 21
1127.768066361022
 31
0.0
  0
ARC
  5
4E1
330
1B
100
AcDbEntity
  8
4
100
AcDbCircle
 10
285.5287420962305
 20
1130.221805005078
 30
0.0
 40
3.783613929059507
100
AcDbArc
 50
139.5701031551685
 51
220.4298968448315
  0
LINE
  5
4E2
330
1B
100
AcDbEntity
  8
4
100
AcDbLine
 10
291.2451281671713
 20
1127.768066361023
 30
0.0
 11
282.648655113024
 21
1127.768066361022
 31
0.0
  0
ARC
  5
4E3
330
1B
100
AcDbEntity
  8
4
100
AcDbCircle
 10
285.5287420962294
 20
1144.944236869414
 30
0.0
 40
3.783613929059507
100
AcDbArc
 50
139.5701031551685
 51
220.4298968448315
  0
LINE
  5
4E4
330
1B
100
AcDbEntity
  8
4
100
AcDbLine
 10
281.7451281671709
 20
1130.221805005078
 30
0.0
 11
281.74512816717
 21
1144.944236869414
 31
0.0
  0
ARC
  5
4E5
330
1B
100
AcDbEntity
  8
4
100
AcDbCircle
 10
295.5242934646297
 20
1137.583020937246
 30
0.0
 40
13.77916529745958
100
AcDbArc
 50
159.1359356360857
 51
200.8640643639143
  0
LINE
  5
4E6
330
1B
100
AcDbEntity
  8
L-CENTER
100
AcDbLine
 10
315.7875067735455
 20
1137.583020937248
 30
0.0
 11
278.8771499125897
 21
1137.583020937246
 31
0.0
  0
LINE
  5
4E7
330
1B
100
AcDbEntity
  8
4
100
AcDbLine
 10
282.6486551130228
 20
1142.490498225358
 30
0.0
 11
288.74512816717
 21
1142.490498225358
 31
0.0
  0
LINE
  5
4E8
330
1B
100
AcDbEntity
  8
4
100
AcDbLine
 10
282.6486551130232
 20
1132.675543649134
 30
0.0
 11
288.7451281671705
 21
1132.675543649134
 31
0.0
  0
LINE
  5
4E9
330
1B
100
AcDbEntity
  8
4
100
AcDbLine
 10
282.6486551130224
 20
1147.397975513469
 30
0.0
 11
291.2451281671697
 21
1147.39797551347
 31
0.0
  0
LINE
  5
4EA
330
1B
100
AcDbEntity
  8
4
100
AcDbLine
 10
909.8416012213142
 20
1147.397975513469
 30
0.0
 11
901.245128167167
 21
1147.39797551347
 31
0.0
  0
LINE
  5
4EB
330
1B
100
AcDbEntity
  8
4
100
AcDbLine
 10
909.8416012213135
 20
1132.675543649134
 30
0.0
 11
903.7451281671662
 21
1132.675543649134
 31
0.0
  0
LINE
  5
4EC
330
1B
100
AcDbEntity
  8
4
100
AcDbLine
 10
909.8416012213139
 20
1142.490498225358
 30
0.0
 11
903.7451281671666
 21
1142.490498225358
 31
0.0
  0
LINE
  5
4ED
330
1B
100
AcDbEntity
  8
L-CENTER
100
AcDbLine
 10
876.7027495607912
 20
1137.583020937248
 30
0.0
 11
913.6131064217469
 21
1137.583020937246
 31
0.0
  0
ARC
  5
4EE
330
1B
100
AcDbEntity
  8
4
100
AcDbCircle
 10
896.9659628697069
 20
1137.583020937246
 30
0.0
 40
13.77916529745958
100
AcDbArc
 50
339.1359356360857
 51
20.86406436391432
  0
LINE
  5
4EF
330
1B
100
AcDbEntity
  8
4
100
AcDbLine
 10
910.7451281671657
 20
1130.221805005078
 30
0.0
 11
910.7451281671666
 21
1144.944236869414
 31
0.0
  0
ARC
  5
4F0
330
1B
100
AcDbEntity
  8
4
100
AcDbCircle
 10
906.9615142381073
 20
1144.944236869414
 30
0.0
 40
3.783613929059507
100
AcDbArc
 50
319.5701031551686
 51
40.42989684483145
  0
LINE
  5
4F1
330
1B
100
AcDbEntity
  8
4
100
AcDbLine
 10
901.2451281671654
 20
1127.768066361023
 30
0.0
 11
909.8416012213127
 21
1127.768066361022
 31
0.0
  0
ARC
  5
4F2
330
1B
100
AcDbEntity
  8
4
100
AcDbCircle
 10
906.9615142381061
 20
1130.221805005078
 30
0.0
 40
3.783613929059507
100
AcDbArc
 50
319.5701031551686
 51
40.42989684483145
  0
LINE
  5
4F3
330
1B
100
AcDbEntity
  8
4
100
AcDbLine
 10
903.745128167167
 20
1147.397975513469
 30
0.0
 11
903.7451281671654
 21
1127.768066361022
 31
0.0
  0
LINE
  5
4F4
330
1B
100
AcDbEntity
  8
4
100
AcDbLine
 10
901.245128167167
 20
1147.39797551347
 30
0.0
 11
901.2451281671654
 21
1127.768066361023
 31
0.0
  0
LINE
  5
4F5
330
1B
100
AcDbEntity
  8
4
100
AcDbLine
 10
903.7451281671706
 20
1042.915252618638
 30
0.0
 11
903.7451281671676
 21
1062.545161771085
 31
0.0
  0
ARC
  5
4F6
330
1B
100
AcDbEntity
  8
4
100
AcDbCircle
 10
906.9615142381086
 20
1060.091423127029
 30
0.0
 40
3.783613929059507
100
AcDbArc
 50
319.5701031551686
 51
40.42989684483145
  0
LINE
  5
4F7
330
1B
100
AcDbEntity
  8
4
100
AcDbLine
 10
901.2451281671676
 20
1062.545161771085
 30
0.0
 11
909.8416012213149
 21
1062.545161771086
 31
0.0
  0
ARC
  5
4F8
330
1B
100
AcDbEntity
  8
4
100
AcDbCircle
 10
906.9615142381107
 20
1045.368991262694
 30
0.0
 40
3.783613929059507
100
AcDbArc
 50
319.5701031551686
 51
40.42989684483145
  0
LINE
  5
4F9
330
1B
100
AcDbEntity
  8
4
100
AcDbLine
 10
910.7451281671682
 20
1060.091423127029
 30
0.0
 11
910.74512816717
 21
1045.368991262694
 31
0.0
  0
ARC
  5
4FA
330
1B
100
AcDbEntity
  8
4
100
AcDbCircle
 10
896.9659628697099
 20
1052.73020719486
 30
0.0
 40
13.77916529745958
100
AcDbArc
 50
339.1359356360857
 51
20.86406436391432
  0
LINE
  5
4FB
330
1B
100
AcDbEntity
  8
4
100
AcDbLine
 10
909.8416012213173
 20
1047.82272990675
 30
0.0
 11
903.74512816717
 21
1047.822729906749
 31
0.0
  0
LINE
  5
4FC
330
1B
100
AcDbEntity
  8
4
100
AcDbLine
 10
909.8416012213161
 20
1057.637684482973
 30
0.0
 11
903.7451281671688
 21
1057.637684482972
 31
0.0
  0
LINE
  5
4FD
330
1B
100
AcDbEntity
  8
4
100
AcDbLine
 10
909.8416012213179
 20
1042.915252618639
 30
0.0
 11
901.2451281671706
 21
1042.915252618638
 31
0.0
  0
LINE
  5
4FE
330
1B
100
AcDbEntity
  8
L-CENTER
100
AcDbLine
 10
876.7027495607941
 20
1052.730207194857
 30
0.0
 11
913.6131064217499
 21
1052.730207194862
 31
0.0
  0
LINE
  5
4FF
330
1B
100
AcDbEntity
  8
4
100
AcDbLine
 10
580.2451281671683
 20
1095.156614066043
 30
0.0
 11
612.2451281671683
 21
1095.156614066043
 31
0.0
  0
ARC
  5
500
330
1B
100
AcDbEntity
  8
4
100
AcDbCircle
 10
580.2451281671683
 20
1098.156614066043
 30
0.0
 40
3.0
100
AcDbArc
 50
180.0
 51
270.0
  0
ARC
  5
501
330
1B
100
AcDbEntity
  8
4
100
AcDbCircle
 10
612.2451281671683
 20
1098.156614066043
 30
0.0
 40
3.0
100
AcDbArc
 50
270.0
 51
0.0
  0
LINE
  5
502
330
1B
100
AcDbEntity
  8
4
100
AcDbLine
 10
615.2451281671683
 20
1098.156614066043
 30
0.0
 11
615.2451281671683
 21
1170.156614066043
 31
0.0
  0
LINE
  5
503
330
1B
100
AcDbEntity
  8
4
100
AcDbLine
 10
577.2451281671683
 20
1098.156614066043
 30
0.0
 11
577.2451281671683
 21
1170.156614066043
 31
0.0
  0
LINE
  5
504
330
1B
100
AcDbEntity
  8
4
100
AcDbLine
 10
580.2451281671683
 20
1173.156614066043
 30
0.0
 11
612.2451281671683
 21
1173.156614066043
 31
0.0
  0
ARC
  5
505
330
1B
100
AcDbEntity
  8
4
100
AcDbCircle
 10
580.2451281671683
 20
1170.156614066043
 30
0.0
 40
3.0
100
AcDbArc
 50
90.0
 51
180.0
  0
ARC
  5
506
330
1B
100
AcDbEntity
  8
4
100
AcDbCircle
 10
612.2451281671683
 20
1170.156614066043
 30
0.0
 40
3.0
100
AcDbArc
 50
0.0
 51
90.0
  0
CIRCLE
  5
507
330
1B
100
AcDbEntity
  8
4
100
AcDbCircle
 10
406.2451281671683
 20
1134.156614066043
 30
0.0
 40
25.0
  0
LINE
  5
508
330
1B
100
AcDbEntity
  8
L-CENTER
100
AcDbLine
 10
406.2451281671683
 20
1099.156614066044
 30
0.0
 11
406.2451281671683
 21
1169.156614066042
 31
0.0
  0
CIRCLE
  5
509
330
1B
100
AcDbEntity
  8
4
100
AcDbCircle
 10
406.2451281671683
 20
1134.156614066043
 30
0.0
 40
23.0
  0
LWPOLYLINE
  5
50A
330
1B
100
AcDbEntity
  8
4
100
AcDbPolyline
 90
        6
 70
     1
 43
0.0
 10
429.2451281671683
 20
1134.156614066043
 10
417.7451281671683
 20
1154.075198353085
 10
394.7451281671683
 20
1154.075198353085
 10
383.2451281671683
 20
1134.156614066043
 10
394.7451281671683
 20
1114.238029779001
 10
417.7451281671683
 20
1114.238029779001
  0
ARC
  5
50B
330
1B
100
AcDbEntity
  8
4
100
AcDbCircle
 10
596.2451281671684
 20
1134.156614066043
 30
0.0
 40
15.0
100
AcDbArc
 50
294.6243183521607
 51
65.37568164783926
  0
ARC
  5
50C
330
1B
100
AcDbEntity
  8
4
100
AcDbCircle
 10
596.2451281671684
 20
1134.156614066043
 30
0.0
 40
13.5
100
AcDbArc
 50
297.5784679781224
 51
62.42153202187757
  0
LINE
  5
50D
330
1B
100
AcDbEntity
  8
4
100
AcDbLine
 10
602.4951281671683
 20
1110.406614066043
 30
0.0
 11
602.4951281671683
 21
1157.906614066043
 31
0.0
  0
ARC
  5
50E
330
1B
100
AcDbEntity
  8
4
100
AcDbCircle
 10
596.2451281671684
 20
1134.156614066043
 30
0.0
 40
13.5
100
AcDbArc
 50
117.578467978122
 51
242.421532021878
  0
ARC
  5
50F
330
1B
100
AcDbEntity
  8
4
100
AcDbCircle
 10
596.2451281671684
 20
1134.156614066043
 30
0.0
 40
15.0
100
AcDbArc
 50
114.6243183521603
 51
245.3756816478396
  0
LINE
  5
510
330
1B
100
AcDbEntity
  8
4
100
AcDbLine
 10
589.9951281671683
 20
1110.406614066043
 30
0.0
 11
589.9951281671683
 21
1157.906614066043
 31
0.0
  0
ARC
  5
511
330
1B
100
AcDbEntity
  8
4
100
AcDbCircle
 10
596.2451281671684
 20
1110.406614066043
 30
0.0
 40
6.25
100
AcDbArc
 50
180.0
 51
0.0
  0
ARC
  5
512
330
1B
100
AcDbEntity
  8
4
100
AcDbCircle
 10
596.2451281671684
 20
1157.906614066043
 30
0.0
 40
6.25
100
AcDbArc
 50
0.0
 51
180.0
  0
LINE
  5
513
330
1B
100
AcDbEntity
  8
4
100
AcDbLine
 10
616.2451281671683
 20
1023.185766241234
 30
0.0
 11
616.2451281671683
 21
1022.656614066043
 31
0.0
  0
LINE
  5
514
330
1B
100
AcDbEntity
  8
4
100
AcDbLine
 10
610.8969165160374
 20
1022.656614066043
 30
0.0
 11
616.2451281671683
 21
1022.656614066043
 31
0.0
  0
LINE
  5
515
330
1B
100
AcDbEntity
  8
4
100
AcDbLine
 10
609.7473830674178
 20
1021.156614066043
 30
0.0
 11
611.2451281671683
 21
1021.156614066043
 31
0.0
  0
LINE
  5
516
330
1B
100
AcDbEntity
  8
4
100
AcDbLine
 10
609.5821281671688
 20
1019.156614066043
 30
0.0
 11
611.2451281671683
 21
1019.156614066043
 31
0.0
  0
LINE
  5
517
330
1B
100
AcDbEntity
  8
4
100
AcDbLine
 10
610.2451281671683
 20
1021.156614066043
 30
0.0
 11
610.2451281671683
 21
1022.055738677857
 31
0.0
  0
LINE
  5
518
330
1B
100
AcDbEntity
  8
4
100
AcDbLine
 10
611.2451281671683
 20
1019.156614066043
 30
0.0
 11
611.2451281671683
 21
1021.156614066043
 31
0.0
  0
LINE
  5
51C
330
1B
100
AcDbEntity
  8
4
100
AcDbLine
 10
586.7451281671683
 20
526.9291138285962
 30
0.0
 11
590.7451281671683
 21
526.9291138285962
 31
0.0
  0
LINE
  5
51D
330
1B
100
AcDbEntity
  8
4
100
AcDbLine
 10
586.7451281671683
 20
504.9291138285962
 30
0.0
 11
590.7451281671683
 21
504.9291138285962
 31
0.0
  0
LINE
  5
51E
330
1B
100
AcDbEntity
  8
4
100
AcDbLine
 10
582.7451281671683
 20
530.9291138285962
 30
0.0
 11
590.7451281671683
 21
530.9291138285962
 31
0.0
  0
LINE
  5
51F
330
1B
100
AcDbEntity
  8
4
100
AcDbLine
 10
582.7451281671683
 20
500.9291138285962
 30
0.0
 11
590.7451281671683
 21
500.9291138285962
 31
0.0
  0
LINE
  5
520
330
1B
100
AcDbEntity
  8
4
100
AcDbLine
 10
561.7451281671683
 20
535.9291138285962
 30
0.0
 11
630.7451281671683
 21
535.9291138285962
 31
0.0
  0
LINE
  5
521
330
1B
100
AcDbEntity
  8
4
100
AcDbLine
 10
561.7451281671683
 20
495.9291138285962
 30
0.0
 11
630.7451281671683
 21
495.9291138285962
 31
0.0
  0
LINE
  5
522
330
1B
100
AcDbEntity
  8
4
100
AcDbLine
 10
568.7451281671683
 20
504.9291138285962
 30
0.0
 11
568.7451281671683
 21
530.9291138285962
 31
0.0
  0
LINE
  5
523
330
1B
100
AcDbEntity
  8
4
100
AcDbLine
 10
564.7451281671683
 20
500.9291138285962
 30
0.0
 11
564.7451281671683
 21
530.9291138285962
 31
0.0
  0
LINE
  5
524
330
1B
100
AcDbEntity
  8
4
100
AcDbLine
 10
582.7451281671683
 20
500.9291138285962
 30
0.0
 11
582.7451281671683
 21
530.9291138285962
 31
0.0
  0
LINE
  5
525
330
1B
100
AcDbEntity
  8
4
100
AcDbLine
 10
558.7451281671683
 20
498.9291138285962
 30
0.0
 11
558.7451281671683
 21
532.9291138285962
 31
0.0
  0
LINE
  5
526
330
1B
100
AcDbEntity
  8
4
100
AcDbLine
 10
564.7451281671683
 20
500.9291138285962
 30
0.0
 11
577.7451281671683
 21
500.9291138285962
 31
0.0
  0
ARC
  5
527
330
1B
100
AcDbEntity
  8
4
100
AcDbCircle
 10
561.7451281671683
 20
498.9291138285962
 30
0.0
 40
3.0
100
AcDbArc
 50
180.0
 51
270.0
  0
LINE
  5
528
330
1B
100
AcDbEntity
  8
4
100
AcDbLine
 10
586.7451281671683
 20
504.9291138285962
 30
0.0
 11
586.7451281671683
 21
526.9291138285962
 31
0.0
  0
LINE
  5
529
330
1B
100
AcDbEntity
  8
4
100
AcDbLine
 10
568.7451281671683
 20
504.9291138285962
 30
0.0
 11
577.7451281671683
 21
504.9291138285962
 31
0.0
  0
LINE
  5
52A
330
1B
100
AcDbEntity
  8
4
100
AcDbLine
 10
577.7451281671683
 20
500.9291138285962
 30
0.0
 11
577.7451281671683
 21
504.9291138285962
 31
0.0
  0
LINE
  5
52B
330
1B
100
AcDbEntity
  8
4
100
AcDbLine
 10
564.7451281671683
 20
530.9291138285962
 30
0.0
 11
568.7451281671683
 21
530.9291138285962
 31
0.0
  0
ARC
  5
52C
330
1B
100
AcDbEntity
  8
4
100
AcDbCircle
 10
561.7451281671683
 20
532.9291138285962
 30
0.0
 40
3.0
100
AcDbArc
 50
90.0
 51
180.0
  0
LINE
  5
52D
330
1B
100
AcDbEntity
  8
4
100
AcDbLine
 10
614.7451281671683
 20
520.9291138285962
 30
0.0
 11
614.7451281671683
 21
530.9291138285962
 31
0.0
  0
LINE
  5
52E
330
1B
100
AcDbEntity
  8
4
100
AcDbLine
 10
629.7451281671688
 20
526.9291138285962
 30
0.0
 11
629.7451281671683
 21
530.9291138285962
 31
0.0
  0
LINE
  5
52F
330
1B
100
AcDbEntity
  8
4
100
AcDbLine
 10
633.7451281671683
 20
498.9291138285962
 30
0.0
 11
633.7451281671683
 21
532.9291138285962
 31
0.0
  0
ARC
  5
530
330
1B
100
AcDbEntity
  8
4
100
AcDbCircle
 10
590.7451281671683
 20
523.9291138285962
 30
0.0
 40
7.0
100
AcDbArc
 50
0.0
 51
90.0
  0
ARC
  5
531
330
1B
100
AcDbEntity
  8
4
100
AcDbCircle
 10
630.7451281671683
 20
498.9291138285962
 30
0.0
 40
3.0
100
AcDbArc
 50
270.0
 51
0.0
  0
LINE
  5
532
330
1B
100
AcDbEntity
  8
4
100
AcDbLine
 10
602.7451281671683
 20
513.4291138285962
 30
0.0
 11
609.7451281671683
 21
513.4291138285962
 31
0.0
  0
LINE
  5
533
330
1B
100
AcDbEntity
  8
4
100
AcDbLine
 10
602.7451281671683
 20
518.4291138285962
 30
0.0
 11
609.7451281671683
 21
518.4291138285962
 31
0.0
  0
LINE
  5
534
330
1B
100
AcDbEntity
  8
4
100
AcDbLine
 10
602.7451281671683
 20
513.4291138285962
 30
0.0
 11
602.7451281671683
 21
518.4291138285962
 31
0.0
  0
ARC
  5
535
330
1B
100
AcDbEntity
  8
4
100
AcDbCircle
 10
590.7451281671683
 20
507.9291138285962
 30
0.0
 40
7.0
100
AcDbArc
 50
270.0
 51
0.0
  0
LINE
  5
536
330
1B
100
AcDbEntity
  8
4
100
AcDbLine
 10
593.7451281671683
 20
507.9291138285962
 30
0.0
 11
593.7451281671683
 21
523.9291138285962
 31
0.0
  0
ARC
  5
537
330
1B
100
AcDbEntity
  8
4
100
AcDbCircle
 10
590.7451281671683
 20
523.9291138285962
 30
0.0
 40
3.0
100
AcDbArc
 50
0.0
 51
90.0
  0
ARC
  5
538
330
1B
100
AcDbEntity
  8
4
100
AcDbCircle
 10
590.7451281671683
 20
507.9291138285962
 30
0.0
 40
3.0
100
AcDbArc
 50
270.0000000000021
 51
0.0
  0
LINE
  5
539
330
1B
100
AcDbEntity
  8
4
100
AcDbLine
 10
597.7451281671683
 20
507.9291138285962
 30
0.0
 11
597.7451281671683
 21
523.9291138285962
 31
0.0
  0
LINE
  5
53A
330
1B
100
AcDbEntity
  8
4
100
AcDbLine
 10
620.6718351533614
 20
500.9291138285962
 30
0.0
 11
624.7451281671683
 21
500.9291138285962
 31
0.0
  0
LINE
  5
53B
330
1B
100
AcDbEntity
  8
4
100
AcDbLine
 10
618.7451281671683
 20
526.9291138285962
 30
0.0
 11
625.6718351533614
 21
526.9291138285962
 31
0.0
  0
LINE
  5
53C
330
1B
100
AcDbEntity
  8
4
100
AcDbLine
 10
620.6718351533614
 20
500.9291138285962
 30
0.0
 11
625.6718351533614
 21
526.9291138285962
 31
0.0
  0
LINE
  5
53D
330
1B
100
AcDbEntity
  8
4
100
AcDbLine
 10
609.7451281671683
 20
513.4291138285962
 30
0.0
 11
609.7451281671683
 21
518.4291138285962
 31
0.0
  0
LINE
  5
53E
330
1B
100
AcDbEntity
  8
4
100
AcDbLine
 10
618.7451281671683
 20
520.9291138285962
 30
0.0
 11
618.7451281671683
 21
526.9291138285962
 31
0.0
  0
LINE
  5
53F
330
1B
100
AcDbEntity
  8
4
100
AcDbLine
 10
614.7451281671683
 20
520.9291138285962
 30
0.0
 11
618.7451281671683
 21
520.9291138285962
 31
0.0
  0
LINE
  5
540
330
1B
100
AcDbEntity
  8
4
100
AcDbLine
 10
624.7451281671683
 20
500.9291138285962
 30
0.0
 11
629.7451281671683
 21
526.9291138285962
 31
0.0
  0
ARC
  5
541
330
1B
100
AcDbEntity
  8
4
100
AcDbCircle
 10
630.7451281671683
 20
532.9291138285962
 30
0.0
 40
3.0
100
AcDbArc
 50
0.0
 51
90.0
  0
LINE
  5
542
330
1B
100
AcDbEntity
  8
4
100
AcDbLine
 10
614.7451281671683
 20
530.9291138285962
 30
0.0
 11
629.7451281671683
 21
530.9291138285962
 31
0.0
  0
LINE
  5
623
330
1B
100
AcDbEntity
  8
L-CENTER
100
AcDbLine
 10
1225.885967019225
 20
270.5926888285966
 30
0.0
 11
1267.286941556961
 21
270.5926888285966
 31
0.0
  0
LINE
  5
624
330
1B
100
AcDbEntity
  8
L-CENTER
100
AcDbLine
 10
1225.885967019225
 20
297.9669538285965
 30
0.0
 11
1267.286941556961
 21
297.9664953113287
 31
0.0
  0
LINE
  5
625
330
1B
100
AcDbEntity
  8
L-CENTER
100
AcDbLine
 10
1225.885967019225
 20
389.8907838285962
 30
0.0
 11
1267.286941556961
 21
389.8907838285962
 31
0.0
  0
LINE
  5
626
330
1B
100
AcDbEntity
  8
L-CENTER
100
AcDbLine
 10
1225.885967019225
 20
387.2652938285963
 30
0.0
 11
1267.286941556961
 21
387.2652938285968
 31
0.0
  0
LINE
  5
644
330
1B
100
AcDbEntity
  8
L-CENTER
100
AcDbLine
 10
611.8430380360691
 20
642.9288688285965
 30
0.0
 11
580.6472182982676
 21
642.9288688285965
 31
0.0
  0
LINE
  5
646
330
1B
100
AcDbEntity
  8
4
100
AcDbLine
 10
1226.129377019225
 20
290.9288688285964
 30
0.0
 11
1102.129377019225
 21
290.9288688285964
 31
0.0
  0
LINE
  5
647
330
1B
100
AcDbEntity
  8
4
100
AcDbLine
 10
1226.129377019225
 20
366.9288688285964
 30
0.0
 11
1102.129377019225
 21
366.9288688285964
 31
0.0
  0
LINE
  5
648
330
1B
100
AcDbEntity
  8
4
100
AcDbLine
 10
1101.129377019225
 20
372.9288688285964
 30
0.0
 11
1211.129377019225
 21
372.9288688285964
 31
0.0
  0
LINE
  5
649
330
1B
100
AcDbEntity
  8
4
100
AcDbLine
 10
1226.129377019225
 20
288.9288688285964
 30
0.0
 11
1226.129377019225
 21
368.9288688285964
 31
0.0
  0
LINE
  5
64A
330
1B
100
AcDbEntity
  8
4
100
AcDbLine
 10
1231.024152019225
 20
288.9288688285964
 30
0.0
 11
1226.129377019225
 21
288.9288688285964
 31
0.0
  0
LINE
  5
64B
330
1B
100
AcDbEntity
  8
4
100
AcDbLine
 10
1239.129377019225
 20
368.9288688285964
 30
0.0
 11
1226.129377019225
 21
368.9288688285964
 31
0.0
  0
LINE
  5
64C
330
1B
100
AcDbEntity
  8
4
100
AcDbLine
 10
1211.129377019225
 20
366.9288688285964
 30
0.0
 11
1211.129377019225
 21
372.9288688285964
 31
0.0
  0
LINE
  5
64D
330
1B
100
AcDbEntity
  8
4
100
AcDbLine
 10
1102.129377019225
 20
290.9288688285964
 30
0.0
 11
1102.129377019225
 21
366.9288688285964
 31
0.0
  0
LINE
  5
64E
330
1B
100
AcDbEntity
  8
4
100
AcDbLine
 10
1101.129377019225
 20
291.9288688285964
 30
0.0
 11
1101.129377019225
 21
372.9288688285964
 31
0.0
  0
LINE
  5
64F
330
1B
100
AcDbEntity
  8
4
100
AcDbLine
 10
1102.129377019225
 20
290.9288688285964
 30
0.0
 11
1101.129377019225
 21
291.9288688285964
 31
0.0
  0
LINE
  5
650
330
1B
100
AcDbEntity
  8
4
100
AcDbLine
 10
1102.129377019225
 20
366.9288688285964
 30
0.0
 11
1101.129377019225
 21
365.9288688285964
 31
0.0
  0
LINE
  5
660
330
1B
100
AcDbEntity
  8
4
100
AcDbLine
 10
1239.129377019225
 20
378.0653438285962
 30
0.0
 11
1239.129377019225
 21
307.1669038285962
 31
0.0
  0
LINE
  5
661
330
1B
100
AcDbEntity
  8
4
100
AcDbLine
 10
1239.129377019225
 20
288.7670038285964
 30
0.0
 11
1239.129377019225
 21
279.7926388285963
 31
0.0
  0
LINE
  5
66E
330
1B
100
AcDbEntity
  8
4
100
AcDbLine
 10
466.3139847389355
 20
1005.756614066042
 30
0.0
 11
562.8502715954007
 21
1005.756614066043
 31
0.0
  0
LINE
  5
66F
330
1B
100
AcDbEntity
  8
4
100
AcDbLine
 10
477.5821281671679
 20
868.1566140660439
 30
0.0
 11
551.5821281671679
 21
868.1566140660439
 31
0.0
  0
LINE
  5
670
330
1B
100
AcDbEntity
  8
4
100
AcDbLine
 10
524.5821281671679
 20
869.1566140660439
 30
0.0
 11
552.5821281671679
 21
869.1566140660439
 31
0.0
  0
LINE
  5
671
330
1B
100
AcDbEntity
  8
4
100
AcDbLine
 10
554.5821281671679
 20
993.1566140660439
 30
0.0
 11
474.5821281671679
 21
993.1566140660439
 31
0.0
  0
LINE
  5
672
330
1B
100
AcDbEntity
  8
4
100
AcDbLine
 10
552.5821281671679
 20
991.6566140660439
 30
0.0
 11
552.5821281671679
 21
869.1566140660439
 31
0.0
  0
ARC
  5
673
330
1B
100
AcDbEntity
  8
4
100
AcDbCircle
 10
554.082128167168
 20
991.656614066043
 30
0.0
 40
1.5
100
AcDbArc
 50
90.0
 51
180.0
  0
LINE
  5
674
330
1B
100
AcDbEntity
  8
4
100
AcDbLine
 10
551.5821281671679
 20
868.1566140660439
 30
0.0
 11
552.5821281671679
 21
869.1566140660439
 31
0.0
  0
LINE
  5
675
330
1B
100
AcDbEntity
  8
4
  6
Continuous
100
AcDbLine
 10
524.5821281671679
 20
968.1566140660439
 30
0.0
 11
524.5821281671679
 21
868.1566140660439
 31
0.0
  0
LINE
  5
676
330
1B
100
AcDbEntity
  8
4
  6
Continuous
100
AcDbLine
 10
504.5821281671679
 20
968.1566140660439
 30
0.0
 11
504.5821281671679
 21
868.1566140660439
 31
0.0
  0
LINE
  5
677
330
1B
100
AcDbEntity
  8
4
  6
Continuous
100
AcDbLine
 10
476.5821281671679
 20
991.6566140660439
 30
0.0
 11
476.5821281671679
 21
869.1566140660439
 31
0.0
  0
LINE
  5
678
330
1B
100
AcDbEntity
  8
4
100
AcDbLine
 10
514.5821281671679
 20
978.1566140660439
 30
0.0
 11
514.5821281671679
 21
978.1566140660439
 31
0.0
  0
ARC
  5
679
330
1B
100
AcDbEntity
  8
4
100
AcDbCircle
 10
514.582128167168
 20
968.156614066043
 30
0.0
 40
10.0
100
AcDbArc
 50
0.0
 51
90.0
  0
ARC
  5
67A
330
1B
100
AcDbEntity
  8
4
100
AcDbCircle
 10
514.582128167168
 20
968.156614066043
 30
0.0
 40
10.0
100
AcDbArc
 50
90.0
 51
180.0
  0
ARC
  5
67B
330
1B
100
AcDbEntity
  8
4
100
AcDbCircle
 10
475.082128167168
 20
991.656614066043
 30
0.0
 40
1.5
100
AcDbArc
 50
0.0
 51
90.0
  0
LINE
  5
67C
330
1B
100
AcDbEntity
  8
4
100
AcDbLine
 10
477.5821281671679
 20
868.1566140660439
 30
0.0
 11
476.5821281671679
 21
869.1566140660439
 31
0.0
  0
LINE
  5
67D
330
1B
100
AcDbEntity
  8
4
100
AcDbLine
 10
476.5821281671679
 20
869.1566140660439
 30
0.0
 11
504.5821281671679
 21
869.1566140660439
 31
0.0
  0
LINE
  5
67E
330
1B
100
AcDbEntity
  8
4
  6
Continuous
100
AcDbLine
 10
474.5821281671679
 20
1005.756614066043
 30
0.0
 11
474.5821281671679
 21
993.1566140660439
 31
0.0
  0
LINE
  5
67F
330
1B
100
AcDbEntity
  8
4
  6
Continuous
100
AcDbLine
 10
554.5821281671679
 20
1005.756614066043
 30
0.0
 11
554.5821281671679
 21
993.1566140660439
 31
0.0
  0
LINE
  5
681
330
1B
100
AcDbEntity
  8
4
100
AcDbLine
 10
524.8352181671683
 20
372.9288688285964
 30
0.0
 11
504.8352181671683
 21
372.9288688285964
 31
0.0
  0
LINE
  5
682
330
1B
100
AcDbEntity
  8
4
100
AcDbLine
 10
524.8352181671683
 20
359.9288688285964
 30
0.0
 11
504.8352181671683
 21
359.9288688285964
 31
0.0
  0
LINE
  5
683
330
1B
100
AcDbEntity
  8
4
100
AcDbLine
 10
524.8352181671683
 20
359.9288688285964
 30
0.0
 11
524.8352181671683
 21
372.9288688285964
 31
0.0
  0
LINE
  5
684
330
1B
100
AcDbEntity
  8
4
100
AcDbLine
 10
504.8352181671683
 20
372.9288688285964
 30
0.0
 11
504.8352181671683
 21
359.9288688285964
 31
0.0
  0
ARC
  5
685
330
1B
100
AcDbEntity
  8
4
100
AcDbCircle
 10
514.8352181671683
 20
328.9288688285964
 30
0.0
 40
38.000005
100
AcDbArc
 50
105.2575212340481
 51
74.74247999999483
  0
CIRCLE
  5
686
330
1B
100
AcDbEntity
  8
4
100
AcDbCircle
 10
514.8352181671683
 20
328.9288688285964
 30
0.0
 40
50.0
  0
LINE
  5
695
330
1B
100
AcDbEntity
  8
4
100
AcDbLine
 10
197.7451281671683
 20
1090.156614066043
 30
0.0
 11
197.7451281671683
 21
1077.156614066043
 31
0.0
  0
LINE
  5
696
330
1B
100
AcDbEntity
  8
4
100
AcDbLine
 10
196.7451281671683
 20
1112.156614066043
 30
0.0
 11
196.7451281671683
 21
1078.156614066043
 31
0.0
  0
LINE
  5
697
330
1B
100
AcDbEntity
  8
4
100
AcDbLine
 10
276.7451281671683
 20
1115.156614066043
 30
0.0
 11
276.7451281671683
 21
1075.156614066043
 31
0.0
  0
LINE
  5
698
330
1B
100
AcDbEntity
  8
4
100
AcDbLine
 10
275.7451281671683
 20
1077.156614066043
 30
0.0
 11
197.7451281671683
 21
1077.156614066043
 31
0.0
  0
ARC
  5
699
330
1B
100
AcDbEntity
  8
4
100
AcDbCircle
 10
275.7451281671683
 20
1076.156614066043
 30
0.0
 40
1.0
100
AcDbArc
 50
0.0
 51
90.0
  0
LINE
  5
69A
330
1B
100
AcDbEntity
  8
4
100
AcDbLine
 10
196.7451281671683
 20
1078.156614066043
 30
0.0
 11
197.7451281671683
 21
1077.156614066043
 31
0.0
  0
LINE
  5
69B
330
1B
100
AcDbEntity
  8
4
100
AcDbLine
 10
275.7451281671683
 20
1113.156614066043
 30
0.0
 11
197.7451281671683
 21
1113.156614066043
 31
0.0
  0
LINE
  5
69C
330
1B
100
AcDbEntity
  8
4
100
AcDbLine
 10
266.7451281671692
 20
1100.156614066043
 30
0.0
 11
196.7451281671683
 21
1100.156614066043
 31
0.0
  0
LINE
  5
69D
330
1B
100
AcDbEntity
  8
4
100
AcDbLine
 10
266.7451281671692
 20
1090.156614066043
 30
0.0
 11
196.7451281671683
 21
1090.156614066043
 31
0.0
  0
ARC
  5
69E
330
1B
100
AcDbEntity
  8
4
100
AcDbCircle
 10
275.7451281671683
 20
1114.156614066043
 30
0.0
 40
1.0
100
AcDbArc
 50
270.0
 51
0.0
  0
ARC
  5
69F
330
1B
100
AcDbEntity
  8
4
100
AcDbCircle
 10
266.7451281671683
 20
1095.156614066043
 30
0.0
 40
5.0
100
AcDbArc
 50
270.0
 51
90.0
  0
LINE
  5
6A0
330
1B
100
AcDbEntity
  8
4
100
AcDbLine
 10
197.7451281671683
 20
1113.156614066043
 30
0.0
 11
196.7451281671683
 21
1112.156614066043
 31
0.0
  0
LINE
  5
6A1
330
1B
100
AcDbEntity
  8
4
100
AcDbLine
 10
197.7451281671683
 20
1113.156614066043
 30
0.0
 11
197.7451281671683
 21
1100.156614066043
 31
0.0
  0
LINE
  5
6A2
330
1B
100
AcDbEntity
  8
4
100
AcDbLine
 10
290.2451281671682
 20
1115.156614066043
 30
0.0
 11
276.7451281671683
 21
1115.156614066043
 31
0.0
  0
LINE
  5
6A3
330
1B
100
AcDbEntity
  8
4
100
AcDbLine
 10
290.2451281671683
 20
1075.156614066042
 30
0.0
 11
276.7451281671683
 21
1075.156614066043
 31
0.0
  0
LINE
  5
6A4
330
1B
100
AcDbEntity
  8
4
100
AcDbLine
 10
290.2451281671683
 20
1064.156614066043
 30
0.0
 11
290.2451281671683
 21
1126.156614066043
 31
0.0
  0
LINE
  5
6A5
330
1B
100
AcDbEntity
  8
4
100
AcDbLine
 10
290.2451281671683
 20
1064.156614066043
 30
0.0
 11
291.2451281671683
 21
1064.156614066043
 31
0.0
  0
LINE
  5
6A6
330
1B
100
AcDbEntity
  8
4
100
AcDbLine
 10
291.2451281671683
 20
1126.156614066043
 30
0.0
 11
290.2451281671683
 21
1126.156614066043
 31
0.0
  0
LINE
  5
6A7
330
1B
100
AcDbEntity
  8
4
100
AcDbLine
 10
197.7451281671683
 20
150.9288688285969
 30
0.0
 11
276.7451281671683
 21
150.9288688285968
 31
0.0
  0
LINE
  5
6A8
330
1B
100
AcDbEntity
  8
4
100
AcDbLine
 10
197.7451281671684
 20
186.9288688285969
 30
0.0
 11
276.7451281671684
 21
186.9288688285968
 31
0.0
  0
LINE
  5
6A9
330
1B
100
AcDbEntity
  8
4
100
AcDbLine
 10
196.7451281671684
 20
190.4288688285969
 30
0.0
 11
271.7451281671684
 21
190.4288688285968
 31
0.0
  0
LINE
  5
6AA
330
1B
100
AcDbEntity
  8
4
100
AcDbLine
 10
276.7451281671684
 20
188.9288688285968
 30
0.0
 11
276.7451281671683
 21
148.9288688285968
 31
0.0
  0
LINE
  5
6AB
330
1B
100
AcDbEntity
  8
4
100
AcDbLine
 10
290.2451281671682
 20
137.9288688285967
 30
0.0
 11
290.2451281671683
 21
199.9288688285967
 31
0.0
  0
LINE
  5
6AC
330
1B
100
AcDbEntity
  8
4
100
AcDbLine
 10
290.2451281671682
 20
137.9288688285967
 30
0.0
 11
291.2451281671682
 21
137.9288688285967
 31
0.0
  0
LINE
  5
6AD
330
1B
100
AcDbEntity
  8
4
100
AcDbLine
 10
290.2451281671682
 20
148.9288688285967
 30
0.0
 11
276.7451281671683
 21
148.9288688285968
 31
0.0
  0
LINE
  5
6AE
330
1B
100
AcDbEntity
  8
4
100
AcDbLine
 10
291.2451281671683
 20
199.9288688285967
 30
0.0
 11
290.2451281671683
 21
199.9288688285967
 31
0.0
  0
LINE
  5
6AF
330
1B
100
AcDbEntity
  8
4
100
AcDbLine
 10
271.7451281671684
 20
186.9288688285968
 30
0.0
 11
271.7451281671684
 21
190.4288688285968
 31
0.0
  0
LINE
  5
6B0
330
1B
100
AcDbEntity
  8
4
100
AcDbLine
 10
290.2451281671683
 20
188.9288688285967
 30
0.0
 11
276.7451281671684
 21
188.9288688285968
 31
0.0
  0
LINE
  5
6B1
330
1B
100
AcDbEntity
  8
4
100
AcDbLine
 10
196.7451281671683
 20
151.9288688285969
 30
0.0
 11
196.7451281671684
 21
190.4288688285969
 31
0.0
  0
LINE
  5
6B2
330
1B
100
AcDbEntity
  8
4
100
AcDbLine
 10
197.7451281671683
 20
150.9288688285969
 30
0.0
 11
197.7451281671684
 21
186.9288688285969
 31
0.0
  0
LINE
  5
6B3
330
1B
100
AcDbEntity
  8
4
100
AcDbLine
 10
197.7451281671683
 20
150.9288688285969
 30
0.0
 11
196.7451281671683
 21
151.9288688285969
 31
0.0
  0
LINE
  5
6B4
330
1B
100
AcDbEntity
  8
4
100
AcDbLine
 10
197.7451281671684
 20
186.9288688285969
 30
0.0
 11
196.7451281671684
 21
185.9288688285969
 31
0.0
  0
CIRCLE
  5
712
330
1B
100
AcDbEntity
  8
4
100
AcDbCircle
 10
1328.129377019225
 20
168.9288688285964
 30
0.0
 40
47.0
  0
ENDSEC
  0
SECTION
  2
OBJECTS
  0
DICTIONARY
  5
9
330
0
100
AcDbDictionary
281
     1
  3
ACAD_COLOR
350
2F
  3
ACAD_GROUP
350
2D
  3
ACAD_LAYOUT
350
24
  3
ACAD_MATERIAL
350
B
  3
ACAD_MLEADERSTYLE
350
62A
  3
ACAD_MLINESTYLE
350
19
  3
ACAD_PLOTSETTINGS
350
2E
  3
ACAD_PLOTSTYLENAME
350
8
  3
ACAD_SCALELIST
350
36
  3
ACAD_VISUALSTYLE
350
30
  3
ACDBHEADERROUNDTRIPXREC
350
7E1
  3
AcDbVariableDictionary
350
627
  3
DWGPROPS
350
7E4
  0
DICTIONARY
  5
7E5
330
2C
100
AcDbDictionary
280
     1
281
     1
  3
ACAD_XREC_ROUNDTRIP
360
7E6
  0
DICTIONARY
  5
3
330
2
100
AcDbDictionary
280
     1
281
     1
  3
ACAD_LAYERSTATES
360
4
  0
DICTIONARY
  5
20
330
1F
100
AcDbDictionary
280
     1
281
     1
  3
ADSK_XREC_LAYER_RECONCILED
360
21
  0
DICTIONARY
  5
547
330
546
100
AcDbDictionary
280
     1
281
     1
  3
ADSK_XREC_LAYER_RECONCILED
360
548
  0
DICTIONARY
  5
5
330
1
100
AcDbDictionary
280
     1
281
     1
  3
ADSK_XREC_LAYER_RECONCILED
360
6
  0
DICTIONARY
  5
13A
330
139
100
AcDbDictionary
280
     1
281
     1
  3
ADSK_XREC_LAYER_RECONCILED
360
13B
  0
DICTIONARY
  5
C9
330
C8
100
AcDbDictionary
280
     1
281
     1
  3
ADSK_XREC_LAYER_RECONCILED
360
CA
  0
DICTIONARY
  5
5C
330
5B
100
AcDbDictionary
280
     1
281
     1
  3
ADSK_XREC_LAYER_RECONCILED
360
5D
  0
DICTIONARY
  5
1C
330
1B
100
AcDbDictionary
280
     1
281
     1
  3
ACAD_SORTENTS
360
1D
  0
DICTIONARY
  5
2F
102
{ACAD_REACTORS
330
9
102
}
330
9
100
AcDbDictionary
281
     1
  0
DICTIONARY
  5
2D
102
{ACAD_REACTORS
330
9
102
}
330
9
100
AcDbDictionary
281
     1
  0
DICTIONARY
  5
24
102
{ACAD_REACTORS
330
9
102
}
330
9
100
AcDbDictionary
281
     1
  3
Model
350
23
  3
ﾚｲｱｳﾄ1
350
29
  0
DICTIONARY
  5
B
102
{ACAD_REACTORS
330
9
102
}
330
9
100
AcDbDictionary
281
     1
  3
ByBlock
350
59
  3
ByLayer
350
14
  3
Global
350
A
  0
DICTIONARY
  5
62A
102
{ACAD_REACTORS
330
9
102
}
330
9
100
AcDbDictionary
281
     1
  3
Standard
350
687
  0
DICTIONARY
  5
19
102
{ACAD_REACTORS
330
9
102
}
330
9
100
AcDbDictionary
281
     1
  3
STANDARD
350
18
  0
DICTIONARY
  5
2E
102
{ACAD_REACTORS
330
9
102
}
330
9
100
AcDbDictionary
281
     1
  0
ACDBDICTIONARYWDFLT
  5
8
102
{ACAD_REACTORS
330
9
102
}
330
9
100
AcDbDictionary
281
     1
  3
Normal
350
7
100
AcDbDictionaryWithDefault
340
7
  0
DICTIONARY
  5
36
102
{ACAD_REACTORS
330
9
102
}
330
9
100
AcDbDictionary
281
     1
  3
*A1
350
58
  0
DICTIONARY
  5
30
102
{ACAD_REACTORS
330
9
102
}
330
9
100
AcDbDictionary
281
     1
  3
2dWireframe
350
632
  3
Basic
350
634
  3
Brighten
350
637
  3
ColorChange
350
63B
  3
Conceptual
350
635
  3
Dim
350
636
  3
EdgeColorOff
350
63E
  3
Facepattern
350
63A
  3
Flat
350
62E
  3
FlatWithEdges
350
62F
  3
Gouraud
350
630
  3
GouraudWithEdges
350
631
  3
Hidden
350
633
  3
JitterOff
350
63C
  3
Linepattern
350
639
  3
OverhangOff
350
63D
  3
Realistic
350
31
  3
Shaded
350
643
  3
Shaded with edges
350
642
  3
Shades of Gray
350
63F
  3
Sketchy
350
640
  3
Thicken
350
638
  3
Wireframe
350
32
  3
X-Ray
350
641
  0
DICTIONARY
  5
7E1
102
{ACAD_REACTORS
330
9
102
}
330
9
100
AcDbDictionary
281
     1
  3
COLORDICT
350
7E2
  3
MATERIALDICT
350
7E3
  0
DICTIONARY
  5
627
102
{ACAD_REACTORS
330
9
102
}
330
9
100
AcDbDictionary
281
     1
  3
CANNOSCALE
350
628
  3
CMLEADERSTYLE
350
68B
  3
DIMASSOC
350
724
  3
HIDETEXT
350
725
  3
MSLTSCALE
350
72C
  3
XCLIPFRAME
350
62B
  0
XRECORD
  5
7E4
102
{ACAD_REACTORS
330
9
102
}
330
9
100
AcDbXrecord
280
     1
  1
DWGPROPS COOKIE
  2

  3

  4

  6

  7

  8
sg-d03
  9

300
=
301
=
302
=
303
=
304
=
305
=
306
=
307
=
308
=
309
=
 40
0.0
 41
2457463.450045764
 42
2458110.195343808
  1

 90
        0
  0
XRECORD
  5
7E6
102
{ACAD_REACTORS
330
7E5
102
}
330
7E5
100
AcDbXrecord
280
     1
102
VTR_0.000_0.000_1.000_1.000_GRIDDISPLAY
 70
     3
102
VTR_0.000_0.000_1.000_1.000_GRIDMAJOR
 70
     5
102
VTR_0.000_0.000_1.000_1.000_DEFAULTLIGHTING
280
     1
102
VTR_0.000_0.000_1.000_1.000_DEFAULTLIGHTINGTYPE
 70
     1
102
VTR_0.000_0.000_1.000_1.000_BRIGHTNESS
141
0.0
102
VTR_0.000_0.000_1.000_1.000_CONTRAST
142
0.0
  0
DICTIONARY
  5
4
102
{ACAD_REACTORS
330
3
102
}
330
3
100
AcDbDictionary
281
     1
  0
XRECORD
  5
21
102
{ACAD_REACTORS
330
20
102
}
330
20
100
AcDbXrecord
280
     1
290
     1
  0
XRECORD
  5
548
102
{ACAD_REACTORS
330
547
102
}
330
547
100
AcDbXrecord
280
     1
290
     1
  0
XRECORD
  5
6
102
{ACAD_REACTORS
330
5
102
}
330
5
100
AcDbXrecord
280
     1
290
     1
  0
XRECORD
  5
13B
102
{ACAD_REACTORS
330
13A
102
}
330
13A
100
AcDbXrecord
280
     1
290
     1
  0
XRECORD
  5
CA
102
{ACAD_REACTORS
330
C9
102
}
330
C9
100
AcDbXrecord
280
     1
290
     1
  0
XRECORD
  5
5D
102
{ACAD_REACTORS
330
5C
102
}
330
5C
100
AcDbXrecord
280
     1
290
     1
  0
SORTENTSTABLE
  5
1D
102
{ACAD_REACTORS
330
1C
102
}
330
1C
100
AcDbSortentsTable
330
1B
331
0
  5
16B
331
0
  5
19E
331
0
  5
19D
331
0
  5
19C
331
0
  5
19B
331
0
  5
19A
331
0
  5
199
331
0
  5
198
331
0
  5
197
331
0
  5
196
331
0
  5
195
331
0
  5
194
331
0
  5
193
331
0
  5
192
331
0
  5
191
331
0
  5
190
331
0
  5
18F
331
0
  5
18E
331
0
  5
18D
331
0
  5
18C
331
0
  5
18B
331
0
  5
18A
331
0
  5
189
331
0
  5
188
331
0
  5
187
331
0
  5
186
331
0
  5
185
331
0
  5
184
331
0
  5
183
331
0
  5
182
331
0
  5
181
331
0
  5
180
331
0
  5
17F
331
0
  5
17E
331
0
  5
172
331
0
  5
171
331
0
  5
170
331
0
  5
16F
331
0
  5
16E
331
0
  5
16D
331
0
  5
16C
331
0
  5
167
331
0
  5
15A
331
0
  5
154
331
0
  5
153
331
0
  5
152
331
0
  5
151
331
0
  5
150
331
0
  5
14F
331
0
  5
14E
331
0
  5
14D
331
0
  5
14C
331
0
  5
14B
331
0
  5
14A
331
0
  5
149
331
0
  5
148
331
0
  5
147
331
0
  5
146
331
0
  5
145
331
0
  5
144
331
0
  5
143
331
0
  5
142
331
0
  5
141
331
0
  5
140
331
0
  5
13F
331
0
  5
13E
331
0
  5
13D
331
0
  5
13C
331
0
  5
138
331
0
  5
137
331
0
  5
136
331
0
  5
135
331
0
  5
134
331
0
  5
133
331
0
  5
132
331
0
  5
131
331
0
  5
130
331
0
  5
12F
331
0
  5
12E
331
0
  5
12D
331
0
  5
12C
331
0
  5
12B
331
0
  5
12A
331
0
  5
129
331
0
  5
128
331
0
  5
127
331
0
  5
126
331
0
  5
125
331
0
  5
124
331
0
  5
123
331
0
  5
122
331
0
  5
121
331
0
  5
120
331
0
  5
11F
331
0
  5
11E
331
0
  5
11D
331
0
  5
11C
331
0
  5
11B
331
0
  5
11A
331
0
  5
119
331
0
  5
118
331
0
  5
117
331
0
  5
116
331
0
  5
115
331
0
  5
114
331
0
  5
113
331
0
  5
112
331
0
  5
111
331
0
  5
110
331
0
  5
10F
331
0
  5
10E
331
0
  5
10D
331
0
  5
10C
331
0
  5
10B
331
0
  5
10A
331
0
  5
109
331
0
  5
108
331
0
  5
107
331
0
  5
106
331
0
  5
105
331
0
  5
104
331
0
  5
103
331
0
  5
102
331
0
  5
101
331
0
  5
100
331
0
  5
FF
331
0
  5
FD
331
0
  5
FC
331
0
  5
FB
331
0
  5
FA
331
0
  5
F9
331
0
  5
F8
331
0
  5
F7
331
0
  5
F6
331
0
  5
F5
331
0
  5
F4
331
0
  5
F3
331
0
  5
F2
331
0
  5
F1
331
0
  5
F0
331
0
  5
EF
331
0
  5
EE
331
0
  5
ED
331
0
  5
EC
331
0
  5
EB
331
0
  5
EA
331
0
  5
E9
331
0
  5
E8
331
0
  5
E7
331
0
  5
E6
331
0
  5
E5
331
0
  5
E4
331
0
  5
E3
331
0
  5
E2
331
0
  5
E1
331
0
  5
E0
331
0
  5
DF
331
0
  5
DE
331
0
  5
DD
331
0
  5
DC
331
0
  5
DB
331
0
  5
DA
331
0
  5
D9
331
0
  5
D8
331
0
  5
D7
331
0
  5
D6
331
0
  5
D5
331
0
  5
D4
331
0
  5
D3
331
0
  5
D2
331
0
  5
D1
331
0
  5
D0
331
0
  5
CF
331
0
  5
CE
331
0
  5
CD
331
0
  5
CC
331
0
  5
C7
331
0
  5
C6
331
0
  5
C5
331
0
  5
C4
331
0
  5
C3
331
0
  5
C2
331
0
  5
C1
331
138
  5
C0
331
13C
  5
BF
331
13D
  5
BE
331
13E
  5
BD
331
13F
  5
BC
331
140
  5
BB
331
141
  5
BA
331
142
  5
B9
331
143
  5
B8
331
144
  5
B7
331
145
  5
B6
331
146
  5
B5
331
147
  5
B4
331
0
  5
B3
331
0
  5
B2
331
14A
  5
B1
331
14B
  5
B0
331
14C
  5
AF
331
14D
  5
AE
331
0
  5
AD
331
0
  5
AC
331
0
  5
AB
331
151
  5
AA
331
0
  5
A9
331
0
  5
A8
331
0
  5
A7
331
0
  5
A6
331
0
  5
A5
331
0
  5
A4
331
0
  5
A3
331
0
  5
A2
331
0
  5
A1
331
0
  5
A0
331
0
  5
9F
331
0
  5
9E
331
15E
  5
9D
331
15F
  5
9C
331
160
  5
9B
331
161
  5
9A
331
0
  5
99
331
163
  5
98
331
0
  5
97
331
165
  5
96
331
0
  5
95
331
0
  5
94
331
0
  5
93
331
0
  5
92
331
16A
  5
91
331
16B
  5
90
331
16C
  5
8F
331
16D
  5
8E
331
16E
  5
8D
331
0
  5
8C
331
0
  5
8B
331
0
  5
8A
331
0
  5
89
331
0
  5
88
331
0
  5
87
331
0
  5
86
331
0
  5
85
331
177
  5
84
331
178
  5
83
331
0
  5
82
331
0
  5
81
331
0
  5
80
331
0
  5
7F
331
0
  5
7E
331
0
  5
7D
331
0
  5
7C
331
0
  5
7B
331
0
  5
7A
331
0
  5
79
331
0
  5
78
331
0
  5
77
331
0
  5
76
331
0
  5
75
331
0
  5
74
331
0
  5
73
331
0
  5
72
331
0
  5
71
331
0
  5
70
331
0
  5
6F
331
0
  5
6E
331
0
  5
6D
331
0
  5
6C
331
0
  5
6B
331
0
  5
6A
331
0
  5
69
331
0
  5
68
331
0
  5
67
331
195
  5
66
331
196
  5
65
331
197
  5
64
331
198
  5
63
331
199
  5
62
331
19A
  5
61
331
19B
  5
60
331
19C
  5
5F
331
19D
  5
5E
331
19E
  5
5A
331
1B5
  5
1B6
331
1B6
  5
1B7
331
1B7
  5
1B8
331
1B8
  5
1B9
331
1B9
  5
1BA
331
1BA
  5
1BB
331
1BB
  5
1BC
331
1BC
  5
1BD
331
1BD
  5
1BE
331
1BE
  5
1BF
331
1BF
  5
1C0
331
1C0
  5
1C1
331
1C1
  5
1C2
331
1C2
  5
1C3
331
1C3
  5
1C4
331
1C4
  5
1C5
331
1C5
  5
1C6
331
1C6
  5
1C7
331
1C7
  5
1C8
331
1C8
  5
1C9
331
1C9
  5
1CA
331
1CA
  5
1CB
331
1CB
  5
1CC
331
1CC
  5
1CD
331
1CD
  5
1CE
331
1CE
  5
1CF
331
1CF
  5
1D0
331
1D0
  5
1D1
331
0
  5
1D2
331
0
  5
1D3
331
1D3
  5
1D5
331
1D5
  5
1D6
331
1D6
  5
1D7
331
1D7
  5
1D8
331
1D8
  5
1D9
331
1D9
  5
1DA
331
1DA
  5
1DB
331
1DB
  5
1DC
331
1DC
  5
1DD
331
1DD
  5
1DE
331
1DE
  5
1DF
331
1DF
  5
1E0
331
1E0
  5
1E1
331
1E1
  5
1E2
331
1E2
  5
1E3
331
1E3
  5
1E4
331
1E4
  5
1E5
331
1E5
  5
1E6
331
1E6
  5
1E7
331
1E7
  5
1E8
331
0
  5
1E9
331
1E9
  5
1EA
331
0
  5
1EB
331
1EB
  5
1EC
331
0
  5
1ED
331
0
  5
1EE
331
1EE
  5
1EF
331
0
  5
1F0
331
1F7
  5
1F8
331
1FA
  5
1FB
331
1FB
  5
1FC
331
1FC
  5
1FD
331
1FD
  5
1FE
331
201
  5
202
331
202
  5
203
331
0
  5
204
331
0
  5
206
331
0
  5
208
331
0
  5
20F
331
0
  5
214
331
213
  5
215
331
214
  5
216
331
215
  5
217
331
216
  5
218
331
217
  5
219
331
218
  5
21A
331
219
  5
21B
331
21A
  5
21C
331
21B
  5
21D
331
21C
  5
21E
331
21D
  5
21F
331
21E
  5
220
331
21F
  5
221
331
220
  5
222
331
221
  5
223
331
222
  5
224
331
223
  5
225
331
224
  5
226
331
225
  5
227
331
226
  5
228
331
227
  5
229
331
228
  5
22D
331
22C
  5
22E
331
22D
  5
22F
331
22E
  5
230
331
22F
  5
231
331
230
  5
232
331
231
  5
233
331
232
  5
234
331
233
  5
235
331
234
  5
236
331
235
  5
237
331
0
  5
238
331
237
  5
239
331
238
  5
23A
331
239
  5
23B
331
23A
  5
243
331
242
  5
244
331
243
  5
245
331
244
  5
246
331
245
  5
247
331
246
  5
248
331
247
  5
249
331
248
  5
24A
331
249
  5
24B
331
24A
  5
24C
331
24B
  5
24D
331
24C
  5
24E
331
24D
  5
24F
331
24E
  5
250
331
24F
  5
251
331
250
  5
252
331
251
  5
253
331
252
  5
254
331
0
  5
255
331
0
  5
256
331
0
  5
257
331
256
  5
258
331
257
  5
259
331
258
  5
25A
331
259
  5
25B
331
25A
  5
25C
331
25B
  5
25D
331
0
  5
25E
331
25D
  5
25F
331
0
  5
260
331
0
  5
261
331
0
  5
262
331
0
  5
263
331
262
  5
269
331
268
  5
26A
331
269
  5
26B
331
26A
  5
26C
331
26B
  5
26D
331
26C
  5
26E
331
26D
  5
26F
331
26E
  5
270
331
26F
  5
272
331
271
  5
273
331
272
  5
276
331
273
  5
27E
331
27B
  5
27F
331
27C
  5
280
331
27D
  5
281
331
27E
  5
282
331
27F
  5
283
331
280
  5
284
331
281
  5
285
331
282
  5
286
331
283
  5
287
331
284
  5
288
331
285
  5
289
331
286
  5
28A
331
287
  5
28B
331
288
  5
28C
331
289
  5
28D
331
28A
  5
28E
331
28B
  5
28F
331
28C
  5
290
331
28D
  5
291
331
28E
  5
292
331
28F
  5
293
331
290
  5
294
331
291
  5
295
331
292
  5
296
331
293
  5
297
331
294
  5
298
331
295
  5
299
331
296
  5
29A
331
297
  5
29B
331
298
  5
29C
331
299
  5
29D
331
29A
  5
29E
331
29B
  5
29F
331
29C
  5
2A0
331
29D
  5
2A1
331
29E
  5
2A2
331
29F
  5
2A3
331
2A0
  5
2A4
331
2A1
  5
2A5
331
2A2
  5
2A6
331
2A3
  5
2A7
331
2A4
  5
2A8
331
2A5
  5
2A9
331
2A6
  5
2AA
331
2A7
  5
2AC
331
2A9
  5
2AD
331
2AA
  5
2AE
331
2AB
  5
2AF
331
2AC
  5
2B0
331
2AD
  5
2B1
331
2AE
  5
2B2
331
2AF
  5
2B3
331
2B0
  5
2B4
331
2B1
  5
2B5
331
2B2
  5
2B6
331
2B3
  5
2B7
331
2B4
  5
2B8
331
2B5
  5
2B9
331
2B6
  5
2BA
331
2B7
  5
2BB
331
2B8
  5
2BC
331
2B9
  5
2BD
331
2BA
  5
2BE
331
2BB
  5
2BF
331
2BC
  5
2C0
331
2BD
  5
2C2
331
2BF
  5
2C3
331
2C0
  5
2C5
331
2C7
  5
2CB
331
2C9
  5
2CD
331
2CA
  5
2CE
331
2CB
  5
2CF
331
2CC
  5
2D0
331
2CD
  5
2D1
331
2CE
  5
2D2
331
2CF
  5
2D3
331
2D0
  5
2D4
331
2D1
  5
2D5
331
2D2
  5
2D6
331
2D3
  5
2D7
331
2D4
  5
2D8
331
2D5
  5
2D9
331
2D6
  5
2DA
331
2D7
  5
2DB
331
2D8
  5
2DC
331
2D9
  5
2DD
331
2DA
  5
2DE
331
2DB
  5
2DF
331
2DC
  5
2E0
331
2DD
  5
2E1
331
2DE
  5
2E2
331
2DF
  5
2E3
331
2E0
  5
2E4
331
2E1
  5
2E5
331
2E2
  5
2E6
331
2E3
  5
2E7
331
2E4
  5
2E8
331
2E5
  5
2E9
331
2E6
  5
2EA
331
2E7
  5
2EB
331
2E8
  5
2EC
331
2E9
  5
2ED
331
2EA
  5
2EE
331
2EB
  5
2EF
331
2EC
  5
2F0
331
2ED
  5
2F1
331
2EE
  5
2F2
331
2EF
  5
2F4
331
2F1
  5
2F5
331
2F2
  5
2F6
331
2F3
  5
2F7
331
2F4
  5
2F8
331
2F5
  5
2F9
331
0
  5
2FA
331
0
  5
2FB
331
0
  5
2FC
331
0
  5
301
331
2FE
  5
302
331
2FF
  5
303
331
300
  5
304
331
301
  5
305
331
302
  5
306
331
303
  5
307
331
304
  5
308
331
305
  5
309
331
306
  5
30A
331
307
  5
30B
331
308
  5
30C
331
309
  5
30D
331
30A
  5
30E
331
30B
  5
30F
331
30C
  5
310
331
30D
  5
311
331
30E
  5
312
331
30F
  5
313
331
310
  5
315
331
312
  5
316
331
313
  5
317
331
314
  5
318
331
315
  5
319
331
316
  5
31A
331
317
  5
31B
331
318
  5
31C
331
319
  5
31D
331
31A
  5
31F
331
31B
  5
320
331
31D
  5
321
331
31E
  5
322
331
31F
  5
323
331
320
  5
324
331
321
  5
326
331
323
  5
327
331
324
  5
328
331
325
  5
329
331
326
  5
32A
331
327
  5
32B
331
328
  5
32C
331
329
  5
32D
331
32A
  5
32E
331
32B
  5
32F
331
32C
  5
330
331
32D
  5
331
331
32E
  5
332
331
32F
  5
334
331
331
  5
338
331
335
  5
339
331
336
  5
33A
331
337
  5
33B
331
338
  5
33C
331
339
  5
33D
331
33A
  5
33E
331
33B
  5
33F
331
33C
  5
340
331
33D
  5
341
331
33E
  5
342
331
33F
  5
343
331
340
  5
344
331
341
  5
345
331
342
  5
346
331
343
  5
347
331
344
  5
348
331
345
  5
349
331
346
  5
34A
331
347
  5
34B
331
348
  5
34C
331
349
  5
34D
331
34A
  5
34E
331
34B
  5
34F
331
34C
  5
350
331
34D
  5
351
331
34E
  5
352
331
34F
  5
35B
331
358
  5
35C
331
359
  5
35D
331
35A
  5
35E
331
35B
  5
35F
331
35C
  5
360
331
35D
  5
361
331
35E
  5
362
331
35F
  5
363
331
360
  5
364
331
361
  5
365
331
362
  5
366
331
363
  5
367
331
364
  5
368
331
365
  5
369
331
366
  5
36A
331
367
  5
36B
331
368
  5
36C
331
369
  5
36D
331
36A
  5
36E
331
36B
  5
36F
331
36C
  5
370
331
36D
  5
371
331
36E
  5
372
331
36F
  5
373
331
370
  5
374
331
371
  5
375
331
372
  5
376
331
373
  5
377
331
374
  5
378
331
375
  5
379
331
376
  5
37A
331
377
  5
37B
331
378
  5
37C
331
379
  5
37D
331
37A
  5
37E
331
37B
  5
37F
331
37C
  5
380
331
37D
  5
381
331
37E
  5
382
331
37F
  5
383
331
380
  5
384
331
381
  5
385
331
382
  5
386
331
383
  5
387
331
384
  5
388
331
385
  5
389
331
386
  5
38A
331
387
  5
38B
331
388
  5
38C
331
389
  5
38D
331
38A
  5
38E
331
38B
  5
38F
331
38C
  5
390
331
38D
  5
391
331
38E
  5
392
331
38F
  5
393
331
390
  5
394
331
391
  5
395
331
392
  5
396
331
393
  5
397
331
394
  5
398
331
395
  5
399
331
396
  5
39A
331
397
  5
39B
331
398
  5
39C
331
399
  5
39D
331
39A
  5
39E
331
39B
  5
39F
331
39C
  5
3A0
331
39D
  5
3A1
331
39E
  5
3A2
331
39F
  5
3A3
331
3A0
  5
3A4
331
3A1
  5
3A5
331
3A2
  5
3A6
331
3A3
  5
3A7
331
3A4
  5
3A8
331
3A5
  5
3A9
331
3A6
  5
3AA
331
3A7
  5
3AB
331
3A8
  5
3AC
331
3A9
  5
3AD
331
3AA
  5
3AE
331
3AB
  5
3AF
331
3AC
  5
3B0
331
3AD
  5
3B1
331
3AE
  5
3B2
331
3AF
  5
3B3
331
3B0
  5
3B4
331
3B1
  5
3B5
331
3B2
  5
3B6
331
3B3
  5
3B7
331
3B4
  5
3B8
331
3B5
  5
3B9
331
3B6
  5
3BA
331
3B7
  5
3BB
331
3B8
  5
3BC
331
3B9
  5
3BD
331
3BA
  5
3BE
331
3BB
  5
3BF
331
3BC
  5
3C0
331
3BD
  5
3C1
331
3BE
  5
3C2
331
3BF
  5
3C3
331
3C0
  5
3C4
331
3C1
  5
3C5
331
3C2
  5
3C6
331
3C3
  5
3C7
331
3C4
  5
3C8
331
3C5
  5
3C9
331
3C6
  5
3CA
331
3C7
  5
3CB
331
3C8
  5
3CC
331
3C9
  5
3CD
331
3CA
  5
3CE
331
3CB
  5
3CF
331
3CC
  5
3D0
331
3CD
  5
3D1
331
3CE
  5
3D2
331
3CF
  5
3D3
331
3D0
  5
3D4
331
3D1
  5
3D5
331
3D2
  5
3D6
331
3D3
  5
3D7
331
3D4
  5
3D8
331
3D5
  5
3D9
331
3D6
  5
3DA
331
3D7
  5
3DB
331
3D8
  5
3DC
331
3D9
  5
3DD
331
3E9
  5
3ED
331
3EA
  5
3EE
331
3EB
  5
3EF
331
3EC
  5
3F0
331
3ED
  5
3F1
331
3EE
  5
3F2
331
3EF
  5
3F3
331
3F0
  5
3F4
331
3F1
  5
3F5
331
3F2
  5
3F6
331
3F3
  5
3F7
331
3F4
  5
3F8
331
3F5
  5
3F9
331
3F6
  5
3FA
331
3F7
  5
3FB
331
3F8
  5
3FC
331
3F9
  5
3FD
331
3FA
  5
3FE
331
3FB
  5
3FF
331
3FC
  5
400
331
3FD
  5
401
331
3FE
  5
402
331
3FF
  5
403
331
400
  5
404
331
401
  5
405
331
402
  5
406
331
403
  5
407
331
404
  5
408
331
405
  5
409
331
406
  5
40A
331
407
  5
40B
331
408
  5
40C
331
409
  5
40D
331
40A
  5
40E
331
40B
  5
40F
331
40C
  5
410
331
40D
  5
411
331
40E
  5
412
331
40F
  5
413
331
410
  5
414
331
411
  5
415
331
412
  5
416
331
413
  5
417
331
414
  5
418
331
415
  5
419
331
416
  5
41A
331
417
  5
41B
331
418
  5
41C
331
419
  5
41D
331
41A
  5
41E
331
41B
  5
41F
331
41C
  5
420
331
41D
  5
421
331
41E
  5
422
331
41F
  5
423
331
420
  5
424
331
421
  5
425
331
422
  5
426
331
423
  5
427
331
424
  5
428
331
425
  5
429
331
426
  5
42A
331
427
  5
42B
331
428
  5
42C
331
429
  5
42D
331
42A
  5
42E
331
42B
  5
42F
331
42C
  5
430
331
42D
  5
431
331
42E
  5
432
331
42F
  5
433
331
430
  5
434
331
431
  5
435
331
432
  5
436
331
433
  5
437
331
434
  5
438
331
435
  5
439
331
436
  5
43A
331
437
  5
43B
331
438
  5
43C
331
439
  5
43D
331
43A
  5
43E
331
43B
  5
43F
331
43C
  5
440
331
43D
  5
441
331
43E
  5
442
331
43F
  5
443
331
440
  5
444
331
441
  5
445
331
442
  5
446
331
443
  5
447
331
444
  5
448
331
445
  5
449
331
446
  5
44A
331
447
  5
44B
331
448
  5
44C
331
449
  5
44D
331
44A
  5
44E
331
44B
  5
44F
331
44C
  5
450
331
44D
  5
451
331
44E
  5
452
331
44F
  5
453
331
450
  5
454
331
451
  5
455
331
452
  5
456
331
453
  5
457
331
454
  5
458
331
455
  5
459
331
456
  5
45A
331
457
  5
45B
331
458
  5
45C
331
459
  5
45D
331
45A
  5
45E
331
45B
  5
45F
331
45C
  5
460
331
45D
  5
461
331
45E
  5
462
331
45F
  5
463
331
460
  5
464
331
461
  5
465
331
462
  5
466
331
463
  5
467
331
464
  5
468
331
465
  5
469
331
466
  5
46A
331
467
  5
46B
331
468
  5
46C
331
469
  5
46D
331
46A
  5
46E
331
46B
  5
46F
331
46C
  5
470
331
46D
  5
471
331
46E
  5
472
331
46F
  5
473
331
470
  5
474
331
471
  5
475
331
472
  5
476
331
473
  5
477
331
474
  5
478
331
475
  5
479
331
476
  5
47A
331
477
  5
47B
331
478
  5
48E
331
48B
  5
48F
331
48C
  5
490
331
48D
  5
491
331
48E
  5
492
331
48F
  5
493
331
490
  5
494
331
491
  5
495
331
492
  5
496
331
493
  5
497
331
494
  5
498
331
495
  5
499
331
496
  5
49A
331
497
  5
49B
331
498
  5
49C
331
499
  5
49D
331
49A
  5
49E
331
49B
  5
49F
331
49C
  5
4A0
331
49D
  5
4A1
331
49E
  5
4A2
331
49F
  5
4A3
331
4A0
  5
4A4
331
4A1
  5
4A5
331
4A2
  5
4A6
331
4A3
  5
4A7
331
4A4
  5
4A8
331
4A5
  5
4A9
331
4A6
  5
4AA
331
4A7
  5
4AB
331
4A8
  5
4AC
331
4A9
  5
4AD
331
4AA
  5
4AE
331
4AB
  5
4AF
331
4AC
  5
4B0
331
4AD
  5
4B1
331
4AE
  5
4B2
331
4AF
  5
4B3
331
4B0
  5
4B4
331
4B1
  5
4B5
331
4B2
  5
4B6
331
4B3
  5
4B7
331
4B4
  5
4B8
331
4B5
  5
4B9
331
4B6
  5
4BA
331
4B7
  5
4BB
331
4B8
  5
4BC
331
4B9
  5
4BD
331
4BA
  5
4BE
331
4BB
  5
4BF
331
4BC
  5
4C0
331
4BD
  5
4C1
331
4BE
  5
4C2
331
4BF
  5
4C3
331
4C0
  5
4C4
331
4C1
  5
4C5
331
4C2
  5
4C6
331
4C3
  5
4C7
331
4C4
  5
4C8
331
4C5
  5
4C9
331
4C6
  5
4CA
331
4C7
  5
4CB
331
4C8
  5
4CC
331
4C9
  5
4CD
331
4CA
  5
4CE
331
4CB
  5
4CF
331
4CC
  5
4D0
331
4CD
  5
4D1
331
4CE
  5
4D2
331
4CF
  5
4D3
331
4D0
  5
4D4
331
4D1
  5
4D5
331
4D2
  5
4D6
331
4D3
  5
4D7
331
4D4
  5
4D8
331
4D5
  5
4D9
331
4D6
  5
4DA
331
4D7
  5
4DB
331
4D8
  5
4DC
331
4D9
  5
4DD
331
4DA
  5
4DE
331
4DB
  5
4DF
331
4DC
  5
4E0
331
4DD
  5
4E1
331
4DE
  5
4E2
331
4DF
  5
4E3
331
4E0
  5
4E4
331
4E1
  5
4E5
331
4E2
  5
4E6
331
4E3
  5
4E7
331
4E4
  5
4E8
331
4E5
  5
4E9
331
4E6
  5
4EA
331
4E7
  5
4EB
331
4E8
  5
4EC
331
4E9
  5
4ED
331
4EA
  5
4EE
331
4EB
  5
4EF
331
4EC
  5
4F0
331
4ED
  5
4F1
331
4EE
  5
4F2
331
4EF
  5
4F3
331
4F0
  5
4F4
331
4F1
  5
4F5
331
4F2
  5
4F6
331
4F3
  5
4F7
331
4F4
  5
4F8
331
4F5
  5
4F9
331
4F6
  5
4FA
331
4F7
  5
4FB
331
4F8
  5
4FC
331
4F9
  5
4FD
331
4FA
  5
4FE
331
4FB
  5
4FF
331
4FC
  5
500
331
4FD
  5
501
331
4FE
  5
502
331
4FF
  5
503
331
500
  5
504
331
501
  5
505
331
502
  5
506
331
503
  5
507
331
504
  5
508
331
505
  5
509
331
506
  5
50A
331
507
  5
50B
331
508
  5
50C
331
509
  5
50D
331
50A
  5
50E
331
50B
  5
50F
331
50C
  5
510
331
50D
  5
511
331
50E
  5
512
331
50F
  5
513
331
510
  5
514
331
511
  5
515
331
512
  5
516
331
513
  5
517
331
514
  5
518
331
515
  5
519
331
516
  5
51A
331
517
  5
51B
331
518
  5
51C
331
51C
  5
520
331
51D
  5
521
331
51E
  5
522
331
51F
  5
523
331
520
  5
524
331
521
  5
525
331
522
  5
526
331
523
  5
527
331
524
  5
528
331
525
  5
529
331
526
  5
52A
331
527
  5
52B
331
528
  5
52C
331
529
  5
52D
331
52A
  5
52E
331
52B
  5
52F
331
52C
  5
530
331
52D
  5
531
331
52E
  5
532
331
52F
  5
533
331
530
  5
534
331
531
  5
535
331
532
  5
536
331
533
  5
537
331
534
  5
538
331
535
  5
539
331
536
  5
53A
331
537
  5
53B
331
538
  5
53C
331
539
  5
53D
331
53A
  5
53E
331
53B
  5
53F
331
53C
  5
540
331
53D
  5
541
331
53E
  5
542
331
53F
  5
543
331
540
  5
544
331
541
  5
545
331
542
  5
549
331
0
  5
54A
331
0
  5
54B
331
0
  5
54C
331
0
  5
54D
331
0
  5
54E
331
0
  5
54F
331
0
  5
550
331
0
  5
551
331
0
  5
552
331
0
  5
553
331
0
  5
554
331
0
  5
555
331
0
  5
556
331
0
  5
557
331
0
  5
558
331
0
  5
559
331
0
  5
55A
331
0
  5
55B
331
0
  5
55C
331
0
  5
55D
331
0
  5
55E
331
0
  5
55F
331
0
  5
560
331
0
  5
561
331
0
  5
562
331
0
  5
563
331
0
  5
564
331
0
  5
565
331
0
  5
566
331
0
  5
567
331
0
  5
568
331
0
  5
569
331
0
  5
56A
331
0
  5
56B
331
0
  5
56C
331
0
  5
56D
331
0
  5
56E
331
0
  5
56F
331
0
  5
570
331
0
  5
571
331
0
  5
572
331
0
  5
573
331
0
  5
574
331
0
  5
575
331
0
  5
576
331
0
  5
577
331
0
  5
578
331
0
  5
579
331
0
  5
57A
331
0
  5
57B
331
0
  5
57C
331
0
  5
57D
331
0
  5
57E
331
0
  5
57F
331
0
  5
580
331
0
  5
581
331
0
  5
582
331
0
  5
583
331
0
  5
584
331
0
  5
585
331
0
  5
586
331
0
  5
587
331
0
  5
588
331
0
  5
589
331
0
  5
58A
331
0
  5
58B
331
0
  5
58C
331
0
  5
58D
331
0
  5
58E
331
0
  5
58F
331
0
  5
590
331
0
  5
591
331
0
  5
592
331
0
  5
593
331
0
  5
594
331
0
  5
595
331
0
  5
596
331
0
  5
597
331
0
  5
598
331
0
  5
599
331
0
  5
59A
331
0
  5
59B
331
0
  5
59C
331
0
  5
59D
331
0
  5
59E
331
0
  5
59F
331
0
  5
5A0
331
0
  5
5A1
331
0
  5
5A2
331
0
  5
5A3
331
0
  5
5A4
331
0
  5
5A5
331
0
  5
5A6
331
0
  5
5A7
331
0
  5
5A8
331
0
  5
5A9
331
0
  5
5AA
331
0
  5
5AB
331
0
  5
5AC
331
0
  5
5AD
331
0
  5
5AE
331
0
  5
5AF
331
0
  5
5B0
331
0
  5
5B1
331
0
  5
5B2
331
0
  5
5B3
331
0
  5
5B4
331
0
  5
5B5
331
0
  5
5B6
331
0
  5
5B7
331
0
  5
5B8
331
0
  5
5B9
331
0
  5
5BA
331
0
  5
5BB
331
0
  5
5BC
331
0
  5
5BD
331
0
  5
5BE
331
0
  5
5BF
331
0
  5
5C0
331
0
  5
5C1
331
0
  5
5C2
331
0
  5
5C3
331
0
  5
5C4
331
0
  5
5C5
331
0
  5
5C6
331
0
  5
5C7
331
0
  5
5C8
331
0
  5
5C9
331
0
  5
5CA
331
0
  5
5CB
331
0
  5
5CC
331
0
  5
5CD
331
0
  5
5CE
331
0
  5
5CF
331
0
  5
5D0
331
0
  5
5D1
331
0
  5
5D2
331
0
  5
5D3
331
0
  5
5D4
331
0
  5
5D5
331
0
  5
5D6
331
0
  5
5D7
331
0
  5
5D8
331
0
  5
5D9
331
0
  5
5DA
331
0
  5
5DB
331
0
  5
5DC
331
0
  5
5DD
331
0
  5
5DE
331
0
  5
5DF
331
0
  5
5E0
331
0
  5
5E1
331
0
  5
5E2
331
0
  5
5E3
331
0
  5
5E4
331
0
  5
5E5
331
0
  5
5E6
331
0
  5
5E7
331
0
  5
5E8
331
0
  5
5E9
331
0
  5
5EA
331
0
  5
5EB
331
0
  5
5EC
331
0
  5
5ED
331
0
  5
5EE
331
0
  5
5EF
331
0
  5
5F0
331
0
  5
5F1
331
0
  5
5F2
331
0
  5
5F3
331
0
  5
5F4
331
0
  5
5F5
331
0
  5
5F6
331
0
  5
5F7
331
0
  5
5F8
331
0
  5
5F9
331
0
  5
5FB
331
0
  5
5FC
331
0
  5
5FD
331
0
  5
5FE
331
0
  5
5FF
331
0
  5
600
331
0
  5
601
331
0
  5
602
331
0
  5
603
331
0
  5
604
331
0
  5
605
331
0
  5
606
331
0
  5
607
331
0
  5
608
331
0
  5
609
331
0
  5
60A
331
0
  5
60B
331
0
  5
60C
331
0
  5
60D
331
0
  5
60E
331
0
  5
60F
331
0
  5
610
331
0
  5
611
331
0
  5
612
331
0
  5
613
331
0
  5
614
331
0
  5
615
331
0
  5
616
331
0
  5
617
331
0
  5
618
331
0
  5
619
331
0
  5
61A
331
0
  5
61B
331
0
  5
61C
331
0
  5
61D
331
0
  5
61E
331
0
  5
61F
331
0
  5
622
331
0
  5
624
331
0
  5
625
331
0
  5
626
331
623
  5
644
331
624
  5
646
331
625
  5
647
331
626
  5
648
331
644
  5
649
331
646
  5
64A
331
647
  5
64B
331
648
  5
64C
331
649
  5
64D
331
64A
  5
64E
331
64B
  5
64F
331
64C
  5
650
331
64D
  5
651
331
64E
  5
652
331
64F
  5
654
331
650
  5
655
331
0
  5
658
331
0
  5
65A
331
0
  5
65D
331
0
  5
65E
331
0
  5
65F
331
0
  5
660
331
0
  5
661
331
0
  5
662
331
0
  5
663
331
660
  5
274
331
661
  5
275
331
0
  5
664
331
0
  5
665
331
0
  5
666
331
0
  5
667
331
0
  5
668
331
0
  5
66F
331
66E
  5
670
331
66F
  5
671
331
670
  5
672
331
671
  5
673
331
672
  5
674
331
673
  5
675
331
674
  5
676
331
675
  5
677
331
676
  5
678
331
677
  5
679
331
678
  5
67A
331
679
  5
67B
331
67A
  5
67C
331
67B
  5
67D
331
67C
  5
67E
331
67D
  5
67F
331
67E
  5
681
331
67F
  5
682
331
681
  5
683
331
682
  5
684
331
683
  5
685
331
684
  5
686
331
685
  5
68C
331
686
  5
68D
331
0
  5
690
331
0
  5
691
331
695
  5
696
331
696
  5
697
331
697
  5
698
331
698
  5
699
331
699
  5
69A
331
69A
  5
69B
331
69B
  5
69C
331
69C
  5
69D
331
69D
  5
69E
331
69E
  5
69F
331
69F
  5
6A0
331
6A0
  5
6A1
331
6A1
  5
6A2
331
6A2
  5
6A3
331
6A3
  5
6A4
331
6A4
  5
6A5
331
6A5
  5
6A6
331
6A6
  5
6A7
331
6A7
  5
6A8
331
6A8
  5
6A9
331
6A9
  5
6AA
331
6AA
  5
6AB
331
6AB
  5
6AE
331
6AC
  5
6AF
331
6AD
  5
6B0
331
6AE
  5
6B1
331
6AF
  5
6B2
331
6B0
  5
6B3
331
6B1
  5
6B4
331
6B2
  5
6B5
331
6B3
  5
6B6
331
6B4
  5
6B7
331
0
  5
6B8
331
0
  5
6B9
331
0
  5
6BA
331
0
  5
6C1
331
0
  5
6C2
331
0
  5
6C3
331
0
  5
6C4
331
0
  5
6C5
331
0
  5
6C6
331
0
  5
6C7
331
0
  5
6C8
331
0
  5
6C9
331
0
  5
6D8
331
0
  5
6D9
331
0
  5
6DA
331
0
  5
6DB
331
0
  5
6DC
331
0
  5
6DD
331
0
  5
6DE
331
0
  5
6DF
331
0
  5
6E0
331
0
  5
6E1
331
0
  5
6E2
331
0
  5
6E3
331
0
  5
6E4
331
0
  5
6E5
331
0
  5
6E6
331
0
  5
6E7
331
0
  5
6E8
331
0
  5
6E9
331
0
  5
6FC
331
0
  5
6FD
331
0
  5
6FE
331
0
  5
6FF
331
0
  5
700
331
0
  5
701
331
0
  5
702
331
0
  5
703
331
0
  5
704
331
0
  5
705
331
0
  5
706
331
0
  5
707
331
0
  5
708
331
0
  5
709
331
0
  5
70A
331
0
  5
70B
331
0
  5
70C
331
0
  5
70D
331
0
  5
70E
331
0
  5
70F
331
0
  5
710
  0
LAYOUT
  5
23
102
{ACAD_REACTORS
330
24
102
}
330
24
100
AcDbPlotSettings
  1

  2
Bullzip PDF Printer.pc3
  4
A3
  6

 40
0.2
 41
0.0
 42
0.0
 43
0.0
 44
420.2
 45
297.1
 46
25.0
 47
12.0
 48
99.99999984166652
 49
0.0
140
2009.999995466666
141
1362.499996820832
142
1.0
143
5.0
 70
 11936
 72
     1
 73
     0
 74
     4
  7
monochrome.ctb
 75
     0
147
0.2
148
-99.99999984166652
149
0.0
100
AcDbLayout
  1
Model
 70
     0
 71
     0
 10
0.0
 20
0.0
 11
12.0
 21
9.0
 12
0.0
 22
0.0
 32
0.0
 14
112.0447619060266
 24
22.84154938324536
 34
0.0
 15
1524.629377019225
 25
1291.656614066043
 35
0.0
146
0.0
 13
0.0
 23
0.0
 33
0.0
 16
1.0
 26
0.0
 36
0.0
 17
0.0
 27
1.0
 37
0.0
 76
     0
330
1B
331
33
1001
ACAD_PSEXT
1000
Bullzip PDF Printer.pc3
1000
Bullzip PDF Printer
1000
BULLZIP
1000
Bullzip PDF Printer 10.1.0.1871
1070
     0
  0
LAYOUT
  5
29
102
{ACAD_REACTORS
330
24
102
}
330
24
100
AcDbPlotSettings
  1

  2
SR-LP8000S!1
  4

  6

 40
0.0
 41
0.0
 42
0.0
 43
0.0
 44
0.0
 45
0.0
 46
0.0
 47
0.0
 48
0.0
 49
0.0
140
0.0
141
0.0
142
1.0
143
1.0
 70
   688
 72
     0
 73
     0
 74
     5
  7
monochrome.ctb
 75
    16
147
1.0
148
0.0
149
0.0
100
AcDbLayout
  1
ﾚｲｱｳﾄ1
 70
     0
 71
     1
 10
0.0
 20
0.0
 11
12.0
 21
9.0
 12
0.0
 22
0.0
 32
0.0
 14
1000000000000000E+20
 24
1000000000000000E+20
 34
1000000000000000E+20
 15
-1000000000000000E+20
 25
-1000000000000000E+20
 35
-1000000000000000E+20
146
0.0
 13
0.0
 23
0.0
 33
0.0
 16
1.0
 26
0.0
 36
0.0
 17
0.0
 27
1.0
 37
0.0
 76
     0
330
26
  0
MATERIAL
  5
59
102
{ACAD_REACTORS
330
B
102
}
102
{ACAD_XDICTIONARY
360
7EB
102
}
330
B
100
AcDbMaterial
  1
ByBlock
 72
     0
 73
     2
 43
0.0208333333333333
 43
0.0
 43
0.0
 43
0.0
 43
0.0
 43
0.0208333333333333
 43
0.0
 43
0.0
 43
0.0
 43
0.0
 43
1.0
 43
0.0
 43
0.0
 43
0.0
 43
0.0
 43
1.0
 77
     0
 78
     2
 47
0.0208333333333333
 47
0.0
 47
0.0
 47
0.0
 47
0.0
 47
0.0208333333333333
 47
0.0
 47
0.0
 47
0.0
 47
0.0
 47
1.0
 47
0.0
 47
0.0
 47
0.0
 47
0.0
 47
1.0
171
     0
172
     2
 49
0.0208333333333333
 49
0.0
 49
0.0
 49
0.0
 49
0.0
 49
0.0208333333333333
 49
0.0
 49
0.0
 49
0.0
 49
0.0
 49
1.0
 49
0.0
 49
0.0
 49
0.0
 49
0.0
 49
1.0
175
     0
176
     2
142
0.0208333333333333
142
0.0
142
0.0
142
0.0
142
0.0
142
0.0208333333333333
142
0.0
142
0.0
142
0.0
142
0.0
142
1.0
142
0.0
142
0.0
142
0.0
142
0.0
142
1.0
179
     0
270
     2
144
0.0208333333333333
144
0.0
144
0.0
144
0.0
144
0.0
144
0.0208333333333333
144
0.0
144
0.0
144
0.0
144
0.0
144
1.0
144
0.0
144
0.0
144
0.0
144
0.0
144
1.0
274
     2
147
0.0208333333333333
147
0.0
147
0.0
147
0.0
147
0.0
147
0.0208333333333333
147
0.0
147
0.0
147
0.0
147
0.0
147
1.0
147
0.0
147
0.0
147
0.0
147
0.0
147
1.0
  0
MATERIAL
  5
14
102
{ACAD_REACTORS
330
B
102
}
102
{ACAD_XDICTIONARY
360
7E7
102
}
330
B
100
AcDbMaterial
  1
ByLayer
 72
     0
 73
     2
 43
0.0208333333333333
 43
0.0
 43
0.0
 43
0.0
 43
0.0
 43
0.0208333333333333
 43
0.0
 43
0.0
 43
0.0
 43
0.0
 43
1.0
 43
0.0
 43
0.0
 43
0.0
 43
0.0
 43
1.0
 77
     0
 78
     2
 47
0.0208333333333333
 47
0.0
 47
0.0
 47
0.0
 47
0.0
 47
0.0208333333333333
 47
0.0
 47
0.0
 47
0.0
 47
0.0
 47
1.0
 47
0.0
 47
0.0
 47
0.0
 47
0.0
 47
1.0
171
     0
172
     2
 49
0.0208333333333333
 49
0.0
 49
0.0
 49
0.0
 49
0.0
 49
0.0208333333333333
 49
0.0
 49
0.0
 49
0.0
 49
0.0
 49
1.0
 49
0.0
 49
0.0
 49
0.0
 49
0.0
 49
1.0
175
     0
176
     2
142
0.0208333333333333
142
0.0
142
0.0
142
0.0
142
0.0
142
0.0208333333333333
142
0.0
142
0.0
142
0.0
142
0.0
142
1.0
142
0.0
142
0.0
142
0.0
142
0.0
142
1.0
179
     0
270
     2
144
0.0208333333333333
144
0.0
144
0.0
144
0.0
144
0.0
144
0.0208333333333333
144
0.0
144
0.0
144
0.0
144
0.0
144
1.0
144
0.0
144
0.0
144
0.0
144
0.0
144
1.0
274
     2
147
0.0208333333333333
147
0.0
147
0.0
147
0.0
147
0.0
147
0.0208333333333333
147
0.0
147
0.0
147
0.0
147
0.0
147
1.0
147
0.0
147
0.0
147
0.0
147
0.0
147
1.0
  0
MATERIAL
  5
A
102
{ACAD_REACTORS
330
B
102
}
102
{ACAD_XDICTIONARY
360
7E9
102
}
330
B
100
AcDbMaterial
  1
Global
 72
     0
 73
     2
 43
0.0208333333333333
 43
0.0
 43
0.0
 43
0.0
 43
0.0
 43
0.0208333333333333
 43
0.0
 43
0.0
 43
0.0
 43
0.0
 43
1.0
 43
0.0
 43
0.0
 43
0.0
 43
0.0
 43
1.0
 77
     0
 78
     2
 47
0.0208333333333333
 47
0.0
 47
0.0
 47
0.0
 47
0.0
 47
0.0208333333333333
 47
0.0
 47
0.0
 47
0.0
 47
0.0
 47
1.0
 47
0.0
 47
0.0
 47
0.0
 47
0.0
 47
1.0
171
     0
172
     2
 49
0.0208333333333333
 49
0.0
 49
0.0
 49
0.0
 49
0.0
 49
0.0208333333333333
 49
0.0
 49
0.0
 49
0.0
 49
0.0
 49
1.0
 49
0.0
 49
0.0
 49
0.0
 49
0.0
 49
1.0
175
     0
176
     2
142
0.0208333333333333
142
0.0
142
0.0
142
0.0
142
0.0
142
0.0208333333333333
142
0.0
142
0.0
142
0.0
142
0.0
142
1.0
142
0.0
142
0.0
142
0.0
142
0.0
142
1.0
179
     0
270
     2
144
0.0208333333333333
144
0.0
144
0.0
144
0.0
144
0.0
144
0.0208333333333333
144
0.0
144
0.0
144
0.0
144
0.0
144
1.0
144
0.0
144
0.0
144
0.0
144
0.0
144
1.0
274
     2
147
0.0208333333333333
147
0.0
147
0.0
147
0.0
147
0.0
147
0.0208333333333333
147
0.0
147
0.0
147
0.0
147
0.0
147
1.0
147
0.0
147
0.0
147
0.0
147
0.0
147
1.0
1001
ACAD
1070
    -1
1070
     3
1070
     0
1000

1071
        0
  0
MLEADERSTYLE
  5
687
102
{ACAD_REACTORS
330
62A
102
}
102
{ACAD_XDICTIONARY
360
81D
102
}
330
62A
100
AcDbMLeaderStyle
170
     2
171
     1
172
     0
 90
        2
 40
0.0
 41
0.0
173
     1
 91
-1056964608
340
11
 92
       -2
290
     1
 42
0.09
291
     1
 43
0.36
  3
Standard
341
0
 44
0.18
300

342
12
174
     1
178
     6
175
     1
176
     0
 93
-1056964608
 45
0.18
292
     0
297
     0
 46
0.18
343
0
 94
-1056964608
 47
1.0
 49
1.0
140
1.0
293
     1
141
0.0
294
     1
177
     0
142
1.0
295
     0
296
     0
143
0.125
1001
ACAD_MLEADERVER
1070
     2
  0
MLINESTYLE
  5
18
102
{ACAD_REACTORS
330
19
102
}
330
19
100
AcDbMlineStyle
  2
STANDARD
 70
     0
  3

 62
     0
 51
90.0
 52
90.0
 71
     2
 49
0.5
 62
   256
  6
BYLAYER
 49
-0.5
 62
   256
  6
BYLAYER
  0
ACDBPLACEHOLDER
  5
7
102
{ACAD_REACTORS
330
8
102
}
330
8
  0
SCALE
  5
58
102
{ACAD_REACTORS
330
36
102
}
330
36
100
AcDbScale
 70
     0
300
1:1
140
1.0
141
1.0
290
     1
  0
VISUALSTYLE
  5
632
102
{ACAD_REACTORS
330
30
102
}
102
{ACAD_XDICTIONARY
360
7F9
102
}
330
30
100
AcDbVisualStyle
  2
2dWireframe
 70
     4
 71
     0
 72
     2
 73
     0
 90
        0
 40
0.6
 41
30.0
 62
     5
 63
     7
 74
     1
 91
        4
 64
     7
 65
   257
 75
     1
175
     1
 42
1.0
 92
        0
 66
   257
 43
1.0
 76
     1
 77
     6
 78
     2
 67
     7
 79
     5
170
     0
171
     0
290
     0
174
     0
 93
        1
 44
0.0
173
     0
291
     0
 45
0.0
1001
ACAD
1000
AcDbSavedByObjectVersion
1070
     0
  0
VISUALSTYLE
  5
634
102
{ACAD_REACTORS
330
30
102
}
102
{ACAD_XDICTIONARY
360
7FD
102
}
330
30
100
AcDbVisualStyle
  2
Basic
 70
     7
 71
     1
 72
     0
 73
     1
 90
        0
 40
0.6
 41
30.0
 62
     5
 63
     7
 74
     0
 91
        4
 64
     7
 65
   257
 75
     1
175
     1
 42
1.0
 92
        8
 66
     7
 43
1.0
 76
     1
 77
     6
 78
     2
 67
     7
 79
     5
170
     0
171
     0
290
     0
174
     0
 93
        1
 44
0.0
173
     0
291
     1
 45
0.0
1001
ACAD
1000
AcDbSavedByObjectVersion
1070
     0
  0
VISUALSTYLE
  5
637
102
{ACAD_REACTORS
330
30
102
}
102
{ACAD_XDICTIONARY
360
803
102
}
330
30
100
AcDbVisualStyle
  2
Brighten
 70
    12
 71
     2
 72
     2
 73
     0
 90
        0
 40
0.6
 41
30.0
 62
     5
 63
     7
 74
     1
 91
        4
 64
     7
 65
   257
 75
     1
175
     1
 42
1.0
 92
        8
 66
     7
 43
1.0
 76
     1
 77
     6
 78
     2
 67
     7
 79
     5
170
     0
171
     0
290
     0
174
     0
 93
        1
 44
50.0
173
     0
291
     1
 45
0.0
1001
ACAD
1000
AcDbSavedByObjectVersion
1070
     0
  0
VISUALSTYLE
  5
63B
102
{ACAD_REACTORS
330
30
102
}
102
{ACAD_XDICTIONARY
360
80B
102
}
330
30
100
AcDbVisualStyle
  2
ColorChange
 70
    16
 71
     2
 72
     2
 73
     3
 90
        0
 40
0.6
 41
30.0
 62
     5
 63
     8
 74
     1
 91
        4
 64
     7
 65
   257
 75
     1
175
     1
 42
1.0
 92
        8
 66
     8
 43
1.0
 76
     1
 77
     6
 78
     2
 67
     7
 79
     5
170
     0
171
     0
290
     0
174
     0
 93
        1
 44
0.0
173
     0
291
     1
 45
0.0
1001
ACAD
1000
AcDbSavedByObjectVersion
1070
     0
  0
VISUALSTYLE
  5
635
102
{ACAD_REACTORS
330
30
102
}
102
{ACAD_XDICTIONARY
360
7FF
102
}
330
30
100
AcDbVisualStyle
  2
Conceptual
 70
     9
 71
     3
 72
     2
 73
     0
 90
        0
 40
0.6
 41
30.0
 62
     5
 63
     7
 74
     2
 91
        2
 64
     7
 65
   257
 75
     1
175
     1
 42
40.0
 92
        8
 66
     7
 43
1.0
 76
     1
 77
     6
 78
     2
 67
     7
 79
     3
170
     0
171
     0
290
     0
174
     0
 93
        1
 44
0.0
173
     0
291
     0
 45
0.0
1001
ACAD
1000
AcDbSavedByObjectVersion
1070
     0
  0
VISUALSTYLE
  5
636
102
{ACAD_REACTORS
330
30
102
}
102
{ACAD_XDICTIONARY
360
801
102
}
330
30
100
AcDbVisualStyle
  2
Dim
 70
    11
 71
     2
 72
     2
 73
     0
 90
        0
 40
0.6
 41
30.0
 62
     5
 63
     7
 74
     1
 91
        4
 64
     7
 65
   257
 75
     1
175
     1
 42
1.0
 92
        8
 66
     7
 43
1.0
 76
     1
 77
     6
 78
     2
 67
     7
 79
     5
170
     0
171
     0
290
     0
174
     0
 93
        1
 44
-50.0
173
     0
291
     1
 45
0.0
1001
ACAD
1000
AcDbSavedByObjectVersion
1070
     0
  0
VISUALSTYLE
  5
63E
102
{ACAD_REACTORS
330
30
102
}
102
{ACAD_XDICTIONARY
360
811
102
}
330
30
100
AcDbVisualStyle
  2
EdgeColorOff
 70
    22
 71
     2
 72
     2
 73
     0
 90
        0
 40
0.6
 41
30.0
 62
     5
 63
     7
 74
     1
 91
        4
 64
     7
 65
   257
 75
     1
175
     1
 42
1.0
 92
        8
 66
     7
 43
1.0
 76
     1
 77
     6
 78
     2
 67
     7
 79
     5
170
     0
171
     0
290
     0
174
     0
 93
        1
 44
0.0
173
     0
291
     1
 45
0.0
1001
ACAD
1000
AcDbSavedByObjectVersion
1070
     0
  0
VISUALSTYLE
  5
63A
102
{ACAD_REACTORS
330
30
102
}
102
{ACAD_XDICTIONARY
360
809
102
}
330
30
100
AcDbVisualStyle
  2
Facepattern
 70
    15
 71
     2
 72
     2
 73
     0
 90
        0
 40
0.6
 41
30.0
 62
     5
 63
     7
 74
     1
 91
        4
 64
     7
 65
   257
 75
     1
175
     1
 42
1.0
 92
        8
 66
     7
 43
1.0
 76
     1
 77
     6
 78
     2
 67
     7
 79
     5
170
     0
171
     0
290
     0
174
     0
 93
        1
 44
0.0
173
     0
291
     1
 45
0.0
1001
ACAD
1000
AcDbSavedByObjectVersion
1070
     0
  0
VISUALSTYLE
  5
62E
102
{ACAD_REACTORS
330
30
102
}
102
{ACAD_XDICTIONARY
360
7F1
102
}
330
30
100
AcDbVisualStyle
  2
Flat
 70
     0
 71
     2
 72
     1
 73
     1
 90
        2
 40
0.6
 41
30.0
 62
     5
 63
     7
 74
     0
 91
        4
 64
     7
 65
   257
 75
     1
175
     1
 42
1.0
 92
        8
 66
     7
 43
1.0
 76
     1
 77
     6
 78
     2
 67
     7
 79
     5
170
     0
171
     0
290
     0
174
     0
 93
       13
 44
0.0
173
     0
291
     1
 45
0.0
1001
ACAD
1000
AcDbSavedByObjectVersion
1070
     0
  0
VISUALSTYLE
  5
62F
102
{ACAD_REACTORS
330
30
102
}
102
{ACAD_XDICTIONARY
360
7F3
102
}
330
30
100
AcDbVisualStyle
  2
FlatWithEdges
 70
     1
 71
     2
 72
     1
 73
     1
 90
        2
 40
0.6
 41
30.0
 62
     5
 63
     7
 74
     1
 91
        4
 64
     7
 65
   257
 75
     1
175
     1
 42
1.0
 92
        0
 66
   257
 43
1.0
 76
     1
 77
     6
 78
     2
 67
     7
 79
     5
170
     0
171
     0
290
     0
174
     0
 93
       13
 44
0.0
173
     0
291
     1
 45
0.0
1001
ACAD
1000
AcDbSavedByObjectVersion
1070
     0
  0
VISUALSTYLE
  5
630
102
{ACAD_REACTORS
330
30
102
}
102
{ACAD_XDICTIONARY
360
7F5
102
}
330
30
100
AcDbVisualStyle
  2
Gouraud
 70
     2
 71
     2
 72
     2
 73
     1
 90
        2
 40
0.6
 41
30.0
 62
     5
 63
     7
 74
     0
 91
        4
 64
     7
 65
   257
 75
     1
175
     1
 42
1.0
 92
        0
 66
     7
 43
1.0
 76
     1
 77
     6
 78
     2
 67
     7
 79
     5
170
     0
171
     0
290
     0
174
     0
 93
       13
 44
0.0
173
     0
291
     1
 45
0.0
1001
ACAD
1000
AcDbSavedByObjectVersion
1070
     0
  0
VISUALSTYLE
  5
631
102
{ACAD_REACTORS
330
30
102
}
102
{ACAD_XDICTIONARY
360
7F7
102
}
330
30
100
AcDbVisualStyle
  2
GouraudWithEdges
 70
     3
 71
     2
 72
     2
 73
     1
 90
        2
 40
0.6
 41
30.0
 62
     5
 63
     7
 74
     1
 91
        4
 64
     7
 65
   257
 75
     1
175
     1
 42
1.0
 92
        0
 66
   257
 43
1.0
 76
     1
 77
     6
 78
     2
 67
     7
 79
     5
170
     0
171
     0
290
     0
174
     0
 93
       13
 44
0.0
173
     0
291
     1
 45
0.0
1001
ACAD
1000
AcDbSavedByObjectVersion
1070
     0
  0
VISUALSTYLE
  5
633
102
{ACAD_REACTORS
330
30
102
}
102
{ACAD_XDICTIONARY
360
7FB
102
}
330
30
100
AcDbVisualStyle
  2
Hidden
 70
     6
 71
     1
 72
     2
 73
     2
 90
        0
 40
0.6
 41
30.0
 62
     5
 63
     7
 74
     2
 91
        2
 64
     7
 65
   257
 75
     2
175
     1
 42
40.0
 92
        0
 66
   257
 43
1.0
 76
     1
 77
     6
 78
     2
 67
     7
 79
     3
170
     0
171
     0
290
     0
174
     0
 93
        1
 44
0.0
173
     0
291
     0
 45
0.0
1001
ACAD
1000
AcDbSavedByObjectVersion
1070
     0
  0
VISUALSTYLE
  5
63C
102
{ACAD_REACTORS
330
30
102
}
102
{ACAD_XDICTIONARY
360
80D
102
}
330
30
100
AcDbVisualStyle
  2
JitterOff
 70
    20
 71
     2
 72
     2
 73
     0
 90
        0
 40
0.6
 41
30.0
 62
     5
 63
     7
 74
     1
 91
        4
 64
     7
 65
   257
 75
     1
175
     1
 42
1.0
 92
       10
 66
     7
 43
1.0
 76
     1
 77
     6
 78
     2
 67
     7
 79
     5
170
     0
171
     0
290
     0
174
     0
 93
        1
 44
0.0
173
     0
291
     1
 45
0.0
1001
ACAD
1000
AcDbSavedByObjectVersion
1070
     0
  0
VISUALSTYLE
  5
639
102
{ACAD_REACTORS
330
30
102
}
102
{ACAD_XDICTIONARY
360
807
102
}
330
30
100
AcDbVisualStyle
  2
Linepattern
 70
    14
 71
     2
 72
     2
 73
     0
 90
        0
 40
0.6
 41
30.0
 62
     5
 63
     7
 74
     1
 91
        4
 64
     7
 65
   257
 75
     7
175
     7
 42
1.0
 92
        8
 66
     7
 43
1.0
 76
     1
 77
     6
 78
     2
 67
     7
 79
     5
170
     0
171
     0
290
     0
174
     0
 93
        1
 44
0.0
173
     0
291
     1
 45
0.0
1001
ACAD
1000
AcDbSavedByObjectVersion
1070
     0
  0
VISUALSTYLE
  5
63D
102
{ACAD_REACTORS
330
30
102
}
102
{ACAD_XDICTIONARY
360
80F
102
}
330
30
100
AcDbVisualStyle
  2
OverhangOff
 70
    21
 71
     2
 72
     2
 73
     0
 90
        0
 40
0.6
 41
30.0
 62
     5
 63
     7
 74
     1
 91
        4
 64
     7
 65
   257
 75
     1
175
     1
 42
1.0
 92
        9
 66
     7
 43
1.0
 76
     1
 77
     6
 78
     2
 67
     7
 79
     5
170
     0
171
     0
290
     0
174
     0
 93
        1
 44
0.0
173
     0
291
     1
 45
0.0
1001
ACAD
1000
AcDbSavedByObjectVersion
1070
     0
  0
VISUALSTYLE
  5
31
102
{ACAD_REACTORS
330
30
102
}
102
{ACAD_XDICTIONARY
360
7ED
102
}
330
30
100
AcDbVisualStyle
  2
Realistic
 70
     8
 71
     2
 72
     3
 73
     0
 90
        2
 40
0.6
 41
30.0
 62
     5
 63
     7
 74
     0
 91
        0
 64
     7
 65
   257
 75
     1
175
     1
 42
1.0
 92
        8
 66
   257
 43
1.0
 76
     1
 77
     6
 78
     2
 67
     7
 79
     3
170
     0
171
     0
290
     0
174
     0
 93
       13
 44
0.0
173
     0
291
     0
 45
0.0
1001
ACAD
1000
AcDbSavedByObjectVersion
1070
     0
  0
VISUALSTYLE
  5
643
102
{ACAD_REACTORS
330
30
102
}
102
{ACAD_XDICTIONARY
360
81B
102
}
330
30
100
AcDbVisualStyle
  2
Shaded
 70
    27
 71
     2
 72
     2
 73
     1
 90
        2
 40
0.6
 41
30.0
 62
     5
 63
     7
 74
     0
 91
        4
 64
     7
 65
   257
 75
     1
175
     1
 42
1.0
 92
        8
 66
   257
 43
1.0
 76
     1
 77
     6
 78
     2
 67
   251
 79
     3
170
     0
171
     0
290
     0
174
     0
 93
        5
 44
0.0
173
     0
291
     0
 45
0.0
1001
ACAD
1000
AcDbSavedByObjectVersion
1070
     0
  0
VISUALSTYLE
  5
642
102
{ACAD_REACTORS
330
30
102
}
102
{ACAD_XDICTIONARY
360
819
102
}
330
30
100
AcDbVisualStyle
  2
Shaded with edges
 70
    26
 71
     2
 72
     2
 73
     1
 90
        2
 40
0.6
 41
30.0
 62
     5
 63
     7
 74
     1
 91
       10
 64
     7
 65
   257
 75
     2
175
     1
 42
1.0
 92
        8
 66
   257
 43
1.0
 76
     1
 77
     6
 78
     2
 67
     7
 79
     3
170
     0
171
     0
290
     0
174
     0
 93
        5
 44
0.0
173
     0
291
     0
 45
0.0
1001
ACAD
1000
AcDbSavedByObjectVersion
1070
     0
  0
VISUALSTYLE
  5
63F
102
{ACAD_REACTORS
330
30
102
}
102
{ACAD_XDICTIONARY
360
813
102
}
330
30
100
AcDbVisualStyle
  2
Shades of Gray
 70
    23
 71
     2
 72
     2
 73
     3
 90
        0
 40
0.6
 41
30.0
 62
     5
 63
     7
 74
     2
 91
        2
 64
     7
 65
     7
 75
     1
175
     1
 42
40.0
 92
        8
 66
     7
 43
1.0
 76
     1
 77
     6
 78
     2
 67
     7
 79
     3
170
     0
171
     0
290
     0
174
     0
 93
        1
 44
0.0
173
     0
291
     0
 45
0.0
1001
ACAD
1000
AcDbSavedByObjectVersion
1070
     0
  0
VISUALSTYLE
  5
640
102
{ACAD_REACTORS
330
30
102
}
102
{ACAD_XDICTIONARY
360
815
102
}
330
30
100
AcDbVisualStyle
  2
Sketchy
 70
    24
 71
     1
 72
     2
 73
     2
 90
        0
 40
0.6
 41
30.0
 62
     5
 63
     7
 74
     2
 91
        2
 64
     7
 65
     7
 75
     1
175
     1
 42
40.0
 92
       11
 66
     7
 43
1.0
 76
     1
 77
     6
 78
     2
 67
     7
 79
     6
170
     0
171
     0
290
     0
174
     0
 93
        1
 44
0.0
173
     0
291
     0
 45
0.0
1001
ACAD
1000
AcDbSavedByObjectVersion
1070
     0
  0
VISUALSTYLE
  5
638
102
{ACAD_REACTORS
330
30
102
}
102
{ACAD_XDICTIONARY
360
805
102
}
330
30
100
AcDbVisualStyle
  2
Thicken
 70
    13
 71
     2
 72
     2
 73
     0
 90
        0
 40
0.6
 41
30.0
 62
     5
 63
     7
 74
     1
 91
        4
 64
     7
 65
   257
 75
     1
175
     1
 42
1.0
 92
       12
 66
     7
 43
1.0
 76
     1
 77
     6
 78
     2
 67
     7
 79
     5
170
     0
171
     0
290
     0
174
     0
 93
        1
 44
0.0
173
     0
291
     1
 45
0.0
1001
ACAD
1000
AcDbSavedByObjectVersion
1070
     0
  0
VISUALSTYLE
  5
32
102
{ACAD_REACTORS
330
30
102
}
102
{ACAD_XDICTIONARY
360
7EF
102
}
330
30
100
AcDbVisualStyle
  2
Wireframe
 70
     5
 71
     0
 72
     2
 73
     0
 90
        0
 40
0.6
 41
30.0
 62
     5
 63
     7
 74
     1
 91
        4
 64
     7
 65
   257
 75
     1
175
     1
 42
1.0
 92
        0
 66
   257
 43
1.0
 76
     1
 77
     6
 78
     2
 67
     7
 79
     3
170
     0
171
     0
290
     0
174
     0
 93
        1
 44
0.0
173
     0
291
     0
 45
0.0
1001
ACAD
1000
AcDbSavedByObjectVersion
1070
     0
  0
VISUALSTYLE
  5
641
102
{ACAD_REACTORS
330
30
102
}
102
{ACAD_XDICTIONARY
360
817
102
}
330
30
100
AcDbVisualStyle
  2
X-Ray
 70
    25
 71
     2
 72
     2
 73
     1
 90
        1
 40
0.5
 41
30.0
 62
     5
 63
     7
 74
     1
 91
        0
 64
     7
 65
   257
 75
     1
175
     1
 42
1.0
 92
        8
 66
     7
 43
1.0
 76
     1
 77
     6
 78
     2
 67
     7
 79
     3
170
     0
171
     0
290
     0
174
     0
 93
       13
 44
0.0
173
     0
291
     0
 45
0.0
1001
ACAD
1000
AcDbSavedByObjectVersion
1070
     0
  0
XRECORD
  5
7E2
102
{ACAD_REACTORS
330
7E1
102
}
330
7E1
100
AcDbXrecord
280
     1
340
2F
  0
XRECORD
  5
7E3
102
{ACAD_REACTORS
330
7E1
102
}
330
7E1
100
AcDbXrecord
280
     1
340
B
  0
DICTIONARYVAR
  5
628
102
{ACAD_REACTORS
330
627
102
}
330
627
100
DictionaryVariables
280
     0
  1
1:1
  0
DICTIONARYVAR
  5
68B
102
{ACAD_REACTORS
330
627
102
}
330
627
100
DictionaryVariables
280
     0
  1
Standard
  0
DICTIONARYVAR
  5
724
102
{ACAD_REACTORS
330
627
102
}
330
627
100
DictionaryVariables
280
     0
  1
0
  0
DICTIONARYVAR
  5
725
102
{ACAD_REACTORS
330
627
102
}
330
627
100
DictionaryVariables
280
     0
  1
1
  0
DICTIONARYVAR
  5
72C
102
{ACAD_REACTORS
330
627
102
}
330
627
100
DictionaryVariables
280
     0
  1
1
  0
DICTIONARYVAR
  5
62B
102
{ACAD_REACTORS
330
627
102
}
330
627
100
DictionaryVariables
280
     0
  1
0
  0
DICTIONARY
  5
7EB
330
59
100
AcDbDictionary
280
     1
281
     1
  3
ACAD_XREC_ROUNDTRIP
360
7EC
  0
DICTIONARY
  5
7E7
330
14
100
AcDbDictionary
280
     1
281
     1
  3
ACAD_XREC_ROUNDTRIP
360
7E8
  0
DICTIONARY
  5
7E9
330
A
100
AcDbDictionary
280
     1
281
     1
  3
ACAD_XREC_ROUNDTRIP
360
7EA
  0
DICTIONARY
  5
81D
330
687
100
AcDbDictionary
280
     1
281
     1
  3
ACAD_XREC_ROUNDTRIP
360
81E
  0
DICTIONARY
  5
7F9
330
632
100
AcDbDictionary
280
     1
281
     1
  3
ACAD_XREC_ROUNDTRIP
360
7FA
  0
DICTIONARY
  5
7FD
330
634
100
AcDbDictionary
280
     1
281
     1
  3
ACAD_XREC_ROUNDTRIP
360
7FE
  0
DICTIONARY
  5
803
330
637
100
AcDbDictionary
280
     1
281
     1
  3
ACAD_XREC_ROUNDTRIP
360
804
  0
DICTIONARY
  5
80B
330
63B
100
AcDbDictionary
280
     1
281
     1
  3
ACAD_XREC_ROUNDTRIP
360
80C
  0
DICTIONARY
  5
7FF
330
635
100
AcDbDictionary
280
     1
281
     1
  3
ACAD_XREC_ROUNDTRIP
360
800
  0
DICTIONARY
  5
801
330
636
100
AcDbDictionary
280
     1
281
     1
  3
ACAD_XREC_ROUNDTRIP
360
802
  0
DICTIONARY
  5
811
330
63E
100
AcDbDictionary
280
     1
281
     1
  3
ACAD_XREC_ROUNDTRIP
360
812
  0
DICTIONARY
  5
809
330
63A
100
AcDbDictionary
280
     1
281
     1
  3
ACAD_XREC_ROUNDTRIP
360
80A
  0
DICTIONARY
  5
7F1
330
62E
100
AcDbDictionary
280
     1
281
     1
  3
ACAD_XREC_ROUNDTRIP
360
7F2
  0
DICTIONARY
  5
7F3
330
62F
100
AcDbDictionary
280
     1
281
     1
  3
ACAD_XREC_ROUNDTRIP
360
7F4
  0
DICTIONARY
  5
7F5
330
630
100
AcDbDictionary
280
     1
281
     1
  3
ACAD_XREC_ROUNDTRIP
360
7F6
  0
DICTIONARY
  5
7F7
330
631
100
AcDbDictionary
280
     1
281
     1
  3
ACAD_XREC_ROUNDTRIP
360
7F8
  0
DICTIONARY
  5
7FB
330
633
100
AcDbDictionary
280
     1
281
     1
  3
ACAD_XREC_ROUNDTRIP
360
7FC
  0
DICTIONARY
  5
80D
330
63C
100
AcDbDictionary
280
     1
281
     1
  3
ACAD_XREC_ROUNDTRIP
360
80E
  0
DICTIONARY
  5
807
330
639
100
AcDbDictionary
280
     1
281
     1
  3
ACAD_XREC_ROUNDTRIP
360
808
  0
DICTIONARY
  5
80F
330
63D
100
AcDbDictionary
280
     1
281
     1
  3
ACAD_XREC_ROUNDTRIP
360
810
  0
DICTIONARY
  5
7ED
330
31
100
AcDbDictionary
280
     1
281
     1
  3
ACAD_XREC_ROUNDTRIP
360
7EE
  0
DICTIONARY
  5
81B
330
643
100
AcDbDictionary
280
     1
281
     1
  3
ACAD_XREC_ROUNDTRIP
360
81C
  0
DICTIONARY
  5
819
330
642
100
AcDbDictionary
280
     1
281
     1
  3
ACAD_XREC_ROUNDTRIP
360
81A
  0
DICTIONARY
  5
813
330
63F
100
AcDbDictionary
280
     1
281
     1
  3
ACAD_XREC_ROUNDTRIP
360
814
  0
DICTIONARY
  5
815
330
640
100
AcDbDictionary
280
     1
281
     1
  3
ACAD_XREC_ROUNDTRIP
360
816
  0
DICTIONARY
  5
805
330
638
100
AcDbDictionary
280
     1
281
     1
  3
ACAD_XREC_ROUNDTRIP
360
806
  0
DICTIONARY
  5
7EF
330
32
100
AcDbDictionary
280
     1
281
     1
  3
ACAD_XREC_ROUNDTRIP
360
7F0
  0
DICTIONARY
  5
817
330
641
100
AcDbDictionary
280
     1
281
     1
  3
ACAD_XREC_ROUNDTRIP
360
818
  0
XRECORD
  5
7EC
102
{ACAD_REACTORS
330
7EB
102
}
330
7EB
100
AcDbXrecord
280
     1
102
MATERIAL
148
0.0
149
0.0
149
0.0
 93
        0
 94
      127
282
     0
 72
     0
 77
     0
171
     0
175
     0
179
     0
273
     0
  0
XRECORD
  5
7E8
102
{ACAD_REACTORS
330
7E7
102
}
330
7E7
100
AcDbXrecord
280
     1
102
MATERIAL
148
0.0
149
0.0
149
0.0
 93
        0
 94
      127
282
     0
 72
     0
 77
     0
171
     0
175
     0
179
     0
273
     0
  0
XRECORD
  5
7EA
102
{ACAD_REACTORS
330
7E9
102
}
330
7E9
100
AcDbXrecord
280
     1
102
MATERIAL
148
0.0
149
0.0
149
0.0
 93
        0
 94
      127
282
     0
 72
     0
 77
     0
171
     0
175
     0
179
     0
273
     0
  0
XRECORD
  5
81E
102
{ACAD_REACTORS
330
81D
102
}
330
81D
100
AcDbXrecord
280
     1
102
ACAD_ROUNDTRIP_2010_MLEADER_STYLE
  0
XRECORD
  5
7FA
102
{ACAD_REACTORS
330
7F9
102
}
330
7F9
100
AcDbXrecord
280
     1
102
RTVSPropertyOp0
 70
     1
102
RTVSPropertyOp1
 70
     1
102
RTVSPropertyOp2
 70
     1
102
RTVSPropertyOp3
 70
     1
102
RTVSPropertyOp4
 70
     1
102
RTVSPropertyOp5
 70
     1
102
RTVSPropertyOp6
 70
     1
102
RTVSPropertyOp7
 70
     1
102
RTVSPropertyOp8
 70
     1
102
RTVSPropertyOp9
 70
     1
102
RTVSPropertyOp10
 70
     1
102
RTVSPropertyOp11
 70
     1
102
RTVSPropertyOp12
 70
     1
102
RTVSPropertyOp13
 70
     1
102
RTVSPropertyOp14
 70
     1
102
RTVSPropertyOp15
 70
     1
102
RTVSPropertyOp16
 70
     1
102
RTVSPropertyOp17
 70
     1
102
RTVSPropertyOp18
 70
     1
102
RTVSPropertyOp19
 70
     1
102
RTVSPropertyOp20
 70
     1
102
RTVSPropertyOp21
 70
     1
102
RTVSPropertyOp22
 70
     1
102
RTVSPropertyOp23
 70
     1
102
RTVSPropertyOp24
 70
     1
102
RTVSPropertyOp25
 70
     1
102
RTVSPropertyOp26
 70
     1
102
RTVSPropertyOp27
 70
     1
102
RTVSPropertyOp28
 70
     1
102
RTVSPropertyOp29
 70
     1
102
RTVSPropertyOp30
 70
     1
102
RTVSPropertyOp31
 70
     1
102
RTVSPropertyOp32
 70
     1
102
RTVSPropertyOp33
 70
     1
102
RTVSPropertyOp34
 70
     1
102
RTVSPropertyOp35
 70
     1
102
RTVSPropertyOp36
 70
     1
102
RTVSPropertyOp37
 70
     1
102
RTVSPropertyOp38
 70
     1
102
RTVSPropertyOp39
 70
     1
102
RTVSPropertyOp40
 70
     1
102
RTVSPropertyOp41
 70
     1
102
RTVSPropertyOp42
 70
     1
102
RTVSPropertyOp43
 70
     1
102
RTVSPropertyOp44
 70
     1
102
RTVSPropertyOp45
 70
     1
102
RTVSPropertyOp46
 70
     1
102
RTVSPropertyOp47
 70
     1
102
RTVSPropertyOp48
 70
     1
102
RTVSPropertyOp49
 70
     1
102
RTVSPropertyOp50
 70
     1
102
RTVSPropertyOp51
 70
     0
102
RTVSPropertyOp52
 70
     0
102
RTVSPropertyOp53
 70
     1
102
RTVSPropertyOp54
 70
     1
102
RTVSPropertyOp55
 70
     1
102
RTVSPropertyOp56
 70
     1
102
RTVSPropertyOp57
 70
     1
102
RTVSPost2010Prop28
280
     1
102
RTVSPost2010PropOp28
 70
     1
102
RTVSPost2010Prop29
280
     1
102
RTVSPost2010PropOp29
 70
     1
102
RTVSPost2010Prop30
280
     0
102
RTVSPost2010PropOp30
 70
     1
102
RTVSPost2010Prop31
280
     0
102
RTVSPost2010PropOp31
 70
     1
102
RTVSPost2010Prop32
280
     0
102
RTVSPost2010PropOp32
 70
     1
102
RTVSPost2010Prop33
280
     0
102
RTVSPost2010PropOp33
 70
     1
102
RTVSPost2010Prop34
280
     0
102
RTVSPost2010PropOp34
 70
     1
102
RTVSPost2010Prop35
280
     0
102
RTVSPost2010PropOp35
 70
     1
102
RTVSPost2010Prop36
280
     0
102
RTVSPost2010PropOp36
 70
     1
102
RTVSPost2010Prop37
 90
       50
102
RTVSPost2010PropOp37
 70
     1
102
RTVSPost2010Prop38
140
0.0
102
RTVSPost2010PropOp38
 70
     1
102
RTVSPost2010Prop39
140
1.0
102
RTVSPost2010PropOp39
 70
     1
102
RTVSPost2010Prop40
 90
        0
102
RTVSPost2010PropOp40
 70
     1
102
RTVSPost2010Prop41ColorIndex
 90
       18
102
RTVSPost2010Prop41ColorRGB
 90
        0
102
RTVSPost2010PropOp41
 70
     1
102
RTVSPost2010Prop42
 90
       50
102
RTVSPost2010PropOp42
 70
     1
102
RTVSPost2010Prop43
 90
        3
102
RTVSPost2010PropOp43
 70
     1
102
RTVSPost2010Prop44ColorIndex
 90
        5
102
RTVSPost2010Prop44ColorRGB
 90
      255
102
RTVSPost2010PropOp44
 70
     1
102
RTVSPost2010Prop45
280
     0
102
RTVSPost2010PropOp45
 70
     1
102
RTVSPost2010Prop46
 90
       50
102
RTVSPost2010PropOp46
 70
     1
102
RTVSPost2010Prop47
 90
       50
102
RTVSPost2010PropOp47
 70
     1
102
RTVSPost2010Prop48
 90
       50
102
RTVSPost2010PropOp48
 70
     1
102
RTVSPost2010Prop49
280
     0
102
RTVSPost2010PropOp49
 70
     1
102
RTVSPost2010Prop50
 90
       50
102
RTVSPost2010PropOp50
 70
     1
102
RTVSPost2010Prop51ColorIndex
 90
      256
102
RTVSPost2010Prop51ColorRGB
 90
-16777216
102
RTVSPost2010PropOp51
 70
     0
102
RTVSPost2010Prop52
140
1.0
102
RTVSPost2010PropOp52
 70
     0
102
RTVSPost2010Prop53
 90
        2
102
RTVSPost2010PropOp53
 70
     1
102
RTVSPost2010Prop54
  1
strokes_ogs.tif
102
RTVSPost2010PropOp54
 70
     1
102
RTVSPost2010Prop55
280
     0
102
RTVSPost2010PropOp55
 70
     1
102
RTVSPost2010Prop56
140
1.0
102
RTVSPost2010PropOp56
 70
     1
102
RTVSPost2010Prop57
140
1.0
102
RTVSPost2010PropOp57
 70
     1
  0
XRECORD
  5
7FE
102
{ACAD_REACTORS
330
7FD
102
}
330
7FD
100
AcDbXrecord
280
     1
102
RTVSPropertyOp0
 70
     1
102
RTVSPropertyOp1
 70
     1
102
RTVSPropertyOp2
 70
     1
102
RTVSPropertyOp3
 70
     1
102
RTVSPropertyOp4
 70
     1
102
RTVSPropertyOp5
 70
     1
102
RTVSPropertyOp6
 70
     1
102
RTVSPropertyOp7
 70
     1
102
RTVSPropertyOp8
 70
     1
102
RTVSPropertyOp9
 70
     1
102
RTVSPropertyOp10
 70
     1
102
RTVSPropertyOp11
 70
     1
102
RTVSPropertyOp12
 70
     1
102
RTVSPropertyOp13
 70
     1
102
RTVSPropertyOp14
 70
     1
102
RTVSPropertyOp15
 70
     1
102
RTVSPropertyOp16
 70
     1
102
RTVSPropertyOp17
 70
     1
102
RTVSPropertyOp18
 70
     1
102
RTVSPropertyOp19
 70
     1
102
RTVSPropertyOp20
 70
     1
102
RTVSPropertyOp21
 70
     1
102
RTVSPropertyOp22
 70
     1
102
RTVSPropertyOp23
 70
     1
102
RTVSPropertyOp24
 70
     1
102
RTVSPropertyOp25
 70
     1
102
RTVSPropertyOp26
 70
     1
102
RTVSPropertyOp27
 70
     1
102
RTVSPropertyOp28
 70
     1
102
RTVSPropertyOp29
 70
     1
102
RTVSPropertyOp30
 70
     1
102
RTVSPropertyOp31
 70
     1
102
RTVSPropertyOp32
 70
     1
102
RTVSPropertyOp33
 70
     1
102
RTVSPropertyOp34
 70
     1
102
RTVSPropertyOp35
 70
     1
102
RTVSPropertyOp36
 70
     1
102
RTVSPropertyOp37
 70
     1
102
RTVSPropertyOp38
 70
     1
102
RTVSPropertyOp39
 70
     1
102
RTVSPropertyOp40
 70
     1
102
RTVSPropertyOp41
 70
     1
102
RTVSPropertyOp42
 70
     1
102
RTVSPropertyOp43
 70
     1
102
RTVSPropertyOp44
 70
     1
102
RTVSPropertyOp45
 70
     1
102
RTVSPropertyOp46
 70
     1
102
RTVSPropertyOp47
 70
     1
102
RTVSPropertyOp48
 70
     1
102
RTVSPropertyOp49
 70
     1
102
RTVSPropertyOp50
 70
     1
102
RTVSPropertyOp51
 70
     0
102
RTVSPropertyOp52
 70
     0
102
RTVSPropertyOp53
 70
     1
102
RTVSPropertyOp54
 70
     1
102
RTVSPropertyOp55
 70
     1
102
RTVSPropertyOp56
 70
     1
102
RTVSPropertyOp57
 70
     1
102
RTVSPost2010Prop28
280
     0
102
RTVSPost2010PropOp28
 70
     1
102
RTVSPost2010Prop29
280
     1
102
RTVSPost2010PropOp29
 70
     1
102
RTVSPost2010Prop30
280
     1
102
RTVSPost2010PropOp30
 70
     1
102
RTVSPost2010Prop31
280
     0
102
RTVSPost2010PropOp31
 70
     1
102
RTVSPost2010Prop32
280
     0
102
RTVSPost2010PropOp32
 70
     1
102
RTVSPost2010Prop33
280
     0
102
RTVSPost2010PropOp33
 70
     1
102
RTVSPost2010Prop34
280
     0
102
RTVSPost2010PropOp34
 70
     1
102
RTVSPost2010Prop35
280
     0
102
RTVSPost2010PropOp35
 70
     1
102
RTVSPost2010Prop36
280
     0
102
RTVSPost2010PropOp36
 70
     1
102
RTVSPost2010Prop37
 90
       50
102
RTVSPost2010PropOp37
 70
     1
102
RTVSPost2010Prop38
140
0.0
102
RTVSPost2010PropOp38
 70
     1
102
RTVSPost2010Prop39
140
1.0
102
RTVSPost2010PropOp39
 70
     1
102
RTVSPost2010Prop40
 90
        0
102
RTVSPost2010PropOp40
 70
     1
102
RTVSPost2010Prop41ColorIndex
 90
       18
102
RTVSPost2010Prop41ColorRGB
 90
        0
102
RTVSPost2010PropOp41
 70
     1
102
RTVSPost2010Prop42
 90
       50
102
RTVSPost2010PropOp42
 70
     1
102
RTVSPost2010Prop43
 90
        3
102
RTVSPost2010PropOp43
 70
     1
102
RTVSPost2010Prop44ColorIndex
 90
        5
102
RTVSPost2010Prop44ColorRGB
 90
      255
102
RTVSPost2010PropOp44
 70
     1
102
RTVSPost2010Prop45
280
     0
102
RTVSPost2010PropOp45
 70
     1
102
RTVSPost2010Prop46
 90
       50
102
RTVSPost2010PropOp46
 70
     1
102
RTVSPost2010Prop47
 90
       50
102
RTVSPost2010PropOp47
 70
     1
102
RTVSPost2010Prop48
 90
       50
102
RTVSPost2010PropOp48
 70
     1
102
RTVSPost2010Prop49
280
     0
102
RTVSPost2010PropOp49
 70
     1
102
RTVSPost2010Prop50
 90
       50
102
RTVSPost2010PropOp50
 70
     1
102
RTVSPost2010Prop51ColorIndex
 90
      256
102
RTVSPost2010Prop51ColorRGB
 90
-16777216
102
RTVSPost2010PropOp51
 70
     0
102
RTVSPost2010Prop52
140
1.0
102
RTVSPost2010PropOp52
 70
     0
102
RTVSPost2010Prop53
 90
        2
102
RTVSPost2010PropOp53
 70
     1
102
RTVSPost2010Prop54
  1
strokes_ogs.tif
102
RTVSPost2010PropOp54
 70
     1
102
RTVSPost2010Prop55
280
     0
102
RTVSPost2010PropOp55
 70
     1
102
RTVSPost2010Prop56
140
1.0
102
RTVSPost2010PropOp56
 70
     1
102
RTVSPost2010Prop57
140
1.0
102
RTVSPost2010PropOp57
 70
     1
  0
XRECORD
  5
804
102
{ACAD_REACTORS
330
803
102
}
330
803
100
AcDbXrecord
280
     1
102
RTVSPropertyOp0
 70
     1
102
RTVSPropertyOp1
 70
     1
102
RTVSPropertyOp2
 70
     1
102
RTVSPropertyOp3
 70
     1
102
RTVSPropertyOp4
 70
     1
102
RTVSPropertyOp5
 70
     1
102
RTVSPropertyOp6
 70
     1
102
RTVSPropertyOp7
 70
     1
102
RTVSPropertyOp8
 70
     1
102
RTVSPropertyOp9
 70
     1
102
RTVSPropertyOp10
 70
     1
102
RTVSPropertyOp11
 70
     1
102
RTVSPropertyOp12
 70
     1
102
RTVSPropertyOp13
 70
     1
102
RTVSPropertyOp14
 70
     1
102
RTVSPropertyOp15
 70
     1
102
RTVSPropertyOp16
 70
     1
102
RTVSPropertyOp17
 70
     1
102
RTVSPropertyOp18
 70
     1
102
RTVSPropertyOp19
 70
     1
102
RTVSPropertyOp20
 70
     1
102
RTVSPropertyOp21
 70
     1
102
RTVSPropertyOp22
 70
     1
102
RTVSPropertyOp23
 70
     1
102
RTVSPropertyOp24
 70
     1
102
RTVSPropertyOp25
 70
     1
102
RTVSPropertyOp26
 70
     1
102
RTVSPropertyOp27
 70
     1
102
RTVSPropertyOp28
 70
     1
102
RTVSPropertyOp29
 70
     1
102
RTVSPropertyOp30
 70
     1
102
RTVSPropertyOp31
 70
     1
102
RTVSPropertyOp32
 70
     1
102
RTVSPropertyOp33
 70
     1
102
RTVSPropertyOp34
 70
     1
102
RTVSPropertyOp35
 70
     1
102
RTVSPropertyOp36
 70
     1
102
RTVSPropertyOp37
 70
     1
102
RTVSPropertyOp38
 70
     1
102
RTVSPropertyOp39
 70
     1
102
RTVSPropertyOp40
 70
     1
102
RTVSPropertyOp41
 70
     1
102
RTVSPropertyOp42
 70
     1
102
RTVSPropertyOp43
 70
     1
102
RTVSPropertyOp44
 70
     1
102
RTVSPropertyOp45
 70
     1
102
RTVSPropertyOp46
 70
     1
102
RTVSPropertyOp47
 70
     1
102
RTVSPropertyOp48
 70
     1
102
RTVSPropertyOp49
 70
     1
102
RTVSPropertyOp50
 70
     1
102
RTVSPropertyOp51
 70
     0
102
RTVSPropertyOp52
 70
     0
102
RTVSPropertyOp53
 70
     1
102
RTVSPropertyOp54
 70
     1
102
RTVSPropertyOp55
 70
     1
102
RTVSPropertyOp56
 70
     1
102
RTVSPropertyOp57
 70
     1
102
RTVSPost2010Prop28
280
     0
102
RTVSPost2010PropOp28
 70
     1
102
RTVSPost2010Prop29
280
     1
102
RTVSPost2010PropOp29
 70
     1
102
RTVSPost2010Prop30
280
     1
102
RTVSPost2010PropOp30
 70
     1
102
RTVSPost2010Prop31
280
     0
102
RTVSPost2010PropOp31
 70
     1
102
RTVSPost2010Prop32
280
     0
102
RTVSPost2010PropOp32
 70
     1
102
RTVSPost2010Prop33
280
     0
102
RTVSPost2010PropOp33
 70
     1
102
RTVSPost2010Prop34
280
     0
102
RTVSPost2010PropOp34
 70
     1
102
RTVSPost2010Prop35
280
     0
102
RTVSPost2010PropOp35
 70
     1
102
RTVSPost2010Prop36
280
     0
102
RTVSPost2010PropOp36
 70
     1
102
RTVSPost2010Prop37
 90
       50
102
RTVSPost2010PropOp37
 70
     1
102
RTVSPost2010Prop38
140
0.0
102
RTVSPost2010PropOp38
 70
     1
102
RTVSPost2010Prop39
140
1.0
102
RTVSPost2010PropOp39
 70
     1
102
RTVSPost2010Prop40
 90
        0
102
RTVSPost2010PropOp40
 70
     1
102
RTVSPost2010Prop41ColorIndex
 90
       18
102
RTVSPost2010Prop41ColorRGB
 90
        0
102
RTVSPost2010PropOp41
 70
     1
102
RTVSPost2010Prop42
 90
       50
102
RTVSPost2010PropOp42
 70
     1
102
RTVSPost2010Prop43
 90
        3
102
RTVSPost2010PropOp43
 70
     1
102
RTVSPost2010Prop44ColorIndex
 90
        5
102
RTVSPost2010Prop44ColorRGB
 90
      255
102
RTVSPost2010PropOp44
 70
     1
102
RTVSPost2010Prop45
280
     0
102
RTVSPost2010PropOp45
 70
     1
102
RTVSPost2010Prop46
 90
       50
102
RTVSPost2010PropOp46
 70
     1
102
RTVSPost2010Prop47
 90
       50
102
RTVSPost2010PropOp47
 70
     1
102
RTVSPost2010Prop48
 90
       50
102
RTVSPost2010PropOp48
 70
     1
102
RTVSPost2010Prop49
280
     0
102
RTVSPost2010PropOp49
 70
     1
102
RTVSPost2010Prop50
 90
       50
102
RTVSPost2010PropOp50
 70
     1
102
RTVSPost2010Prop51ColorIndex
 90
      256
102
RTVSPost2010Prop51ColorRGB
 90
-16777216
102
RTVSPost2010PropOp51
 70
     0
102
RTVSPost2010Prop52
140
1.0
102
RTVSPost2010PropOp52
 70
     0
102
RTVSPost2010Prop53
 90
        2
102
RTVSPost2010PropOp53
 70
     1
102
RTVSPost2010Prop54
  1
strokes_ogs.tif
102
RTVSPost2010PropOp54
 70
     1
102
RTVSPost2010Prop55
280
     0
102
RTVSPost2010PropOp55
 70
     1
102
RTVSPost2010Prop56
140
1.0
102
RTVSPost2010PropOp56
 70
     1
102
RTVSPost2010Prop57
140
1.0
102
RTVSPost2010PropOp57
 70
     1
  0
XRECORD
  5
80C
102
{ACAD_REACTORS
330
80B
102
}
330
80B
100
AcDbXrecord
280
     1
102
RTVSPropertyOp0
 70
     1
102
RTVSPropertyOp1
 70
     1
102
RTVSPropertyOp2
 70
     1
102
RTVSPropertyOp3
 70
     1
102
RTVSPropertyOp4
 70
     1
102
RTVSPropertyOp5
 70
     1
102
RTVSPropertyOp6
 70
     1
102
RTVSPropertyOp7
 70
     1
102
RTVSPropertyOp8
 70
     1
102
RTVSPropertyOp9
 70
     1
102
RTVSPropertyOp10
 70
     1
102
RTVSPropertyOp11
 70
     1
102
RTVSPropertyOp12
 70
     1
102
RTVSPropertyOp13
 70
     1
102
RTVSPropertyOp14
 70
     1
102
RTVSPropertyOp15
 70
     1
102
RTVSPropertyOp16
 70
     1
102
RTVSPropertyOp17
 70
     1
102
RTVSPropertyOp18
 70
     1
102
RTVSPropertyOp19
 70
     1
102
RTVSPropertyOp20
 70
     1
102
RTVSPropertyOp21
 70
     1
102
RTVSPropertyOp22
 70
     1
102
RTVSPropertyOp23
 70
     1
102
RTVSPropertyOp24
 70
     1
102
RTVSPropertyOp25
 70
     1
102
RTVSPropertyOp26
 70
     1
102
RTVSPropertyOp27
 70
     1
102
RTVSPropertyOp28
 70
     1
102
RTVSPropertyOp29
 70
     1
102
RTVSPropertyOp30
 70
     1
102
RTVSPropertyOp31
 70
     1
102
RTVSPropertyOp32
 70
     1
102
RTVSPropertyOp33
 70
     1
102
RTVSPropertyOp34
 70
     1
102
RTVSPropertyOp35
 70
     1
102
RTVSPropertyOp36
 70
     1
102
RTVSPropertyOp37
 70
     1
102
RTVSPropertyOp38
 70
     1
102
RTVSPropertyOp39
 70
     1
102
RTVSPropertyOp40
 70
     1
102
RTVSPropertyOp41
 70
     1
102
RTVSPropertyOp42
 70
     1
102
RTVSPropertyOp43
 70
     1
102
RTVSPropertyOp44
 70
     1
102
RTVSPropertyOp45
 70
     1
102
RTVSPropertyOp46
 70
     1
102
RTVSPropertyOp47
 70
     1
102
RTVSPropertyOp48
 70
     1
102
RTVSPropertyOp49
 70
     1
102
RTVSPropertyOp50
 70
     1
102
RTVSPropertyOp51
 70
     0
102
RTVSPropertyOp52
 70
     0
102
RTVSPropertyOp53
 70
     1
102
RTVSPropertyOp54
 70
     1
102
RTVSPropertyOp55
 70
     1
102
RTVSPropertyOp56
 70
     1
102
RTVSPropertyOp57
 70
     1
102
RTVSPost2010Prop28
280
     0
102
RTVSPost2010PropOp28
 70
     1
102
RTVSPost2010Prop29
280
     1
102
RTVSPost2010PropOp29
 70
     1
102
RTVSPost2010Prop30
280
     1
102
RTVSPost2010PropOp30
 70
     1
102
RTVSPost2010Prop31
280
     0
102
RTVSPost2010PropOp31
 70
     1
102
RTVSPost2010Prop32
280
     0
102
RTVSPost2010PropOp32
 70
     1
102
RTVSPost2010Prop33
280
     0
102
RTVSPost2010PropOp33
 70
     1
102
RTVSPost2010Prop34
280
     0
102
RTVSPost2010PropOp34
 70
     1
102
RTVSPost2010Prop35
280
     0
102
RTVSPost2010PropOp35
 70
     1
102
RTVSPost2010Prop36
280
     0
102
RTVSPost2010PropOp36
 70
     1
102
RTVSPost2010Prop37
 90
       50
102
RTVSPost2010PropOp37
 70
     1
102
RTVSPost2010Prop38
140
0.0
102
RTVSPost2010PropOp38
 70
     1
102
RTVSPost2010Prop39
140
1.0
102
RTVSPost2010PropOp39
 70
     1
102
RTVSPost2010Prop40
 90
        0
102
RTVSPost2010PropOp40
 70
     1
102
RTVSPost2010Prop41ColorIndex
 90
       18
102
RTVSPost2010Prop41ColorRGB
 90
        0
102
RTVSPost2010PropOp41
 70
     1
102
RTVSPost2010Prop42
 90
       50
102
RTVSPost2010PropOp42
 70
     1
102
RTVSPost2010Prop43
 90
        3
102
RTVSPost2010PropOp43
 70
     1
102
RTVSPost2010Prop44ColorIndex
 90
        5
102
RTVSPost2010Prop44ColorRGB
 90
      255
102
RTVSPost2010PropOp44
 70
     1
102
RTVSPost2010Prop45
280
     0
102
RTVSPost2010PropOp45
 70
     1
102
RTVSPost2010Prop46
 90
       50
102
RTVSPost2010PropOp46
 70
     1
102
RTVSPost2010Prop47
 90
       50
102
RTVSPost2010PropOp47
 70
     1
102
RTVSPost2010Prop48
 90
       50
102
RTVSPost2010PropOp48
 70
     1
102
RTVSPost2010Prop49
280
     0
102
RTVSPost2010PropOp49
 70
     1
102
RTVSPost2010Prop50
 90
       50
102
RTVSPost2010PropOp50
 70
     1
102
RTVSPost2010Prop51ColorIndex
 90
      256
102
RTVSPost2010Prop51ColorRGB
 90
-16777216
102
RTVSPost2010PropOp51
 70
     0
102
RTVSPost2010Prop52
140
1.0
102
RTVSPost2010PropOp52
 70
     0
102
RTVSPost2010Prop53
 90
        2
102
RTVSPost2010PropOp53
 70
     1
102
RTVSPost2010Prop54
  1
strokes_ogs.tif
102
RTVSPost2010PropOp54
 70
     1
102
RTVSPost2010Prop55
280
     0
102
RTVSPost2010PropOp55
 70
     1
102
RTVSPost2010Prop56
140
1.0
102
RTVSPost2010PropOp56
 70
     1
102
RTVSPost2010Prop57
140
1.0
102
RTVSPost2010PropOp57
 70
     1
  0
XRECORD
  5
800
102
{ACAD_REACTORS
330
7FF
102
}
330
7FF
100
AcDbXrecord
280
     1
102
RTVSPropertyOp0
 70
     1
102
RTVSPropertyOp1
 70
     1
102
RTVSPropertyOp2
 70
     1
102
RTVSPropertyOp3
 70
     1
102
RTVSPropertyOp4
 70
     1
102
RTVSPropertyOp5
 70
     1
102
RTVSPropertyOp6
 70
     1
102
RTVSPropertyOp7
 70
     1
102
RTVSPropertyOp8
 70
     1
102
RTVSPropertyOp9
 70
     1
102
RTVSPropertyOp10
 70
     1
102
RTVSPropertyOp11
 70
     1
102
RTVSPropertyOp12
 70
     1
102
RTVSPropertyOp13
 70
     1
102
RTVSPropertyOp14
 70
     1
102
RTVSPropertyOp15
 70
     1
102
RTVSPropertyOp16
 70
     1
102
RTVSPropertyOp17
 70
     1
102
RTVSPropertyOp18
 70
     1
102
RTVSPropertyOp19
 70
     1
102
RTVSPropertyOp20
 70
     1
102
RTVSPropertyOp21
 70
     1
102
RTVSPropertyOp22
 70
     1
102
RTVSPropertyOp23
 70
     1
102
RTVSPropertyOp24
 70
     1
102
RTVSPropertyOp25
 70
     1
102
RTVSPropertyOp26
 70
     1
102
RTVSPropertyOp27
 70
     1
102
RTVSPropertyOp28
 70
     1
102
RTVSPropertyOp29
 70
     1
102
RTVSPropertyOp30
 70
     1
102
RTVSPropertyOp31
 70
     1
102
RTVSPropertyOp32
 70
     1
102
RTVSPropertyOp33
 70
     1
102
RTVSPropertyOp34
 70
     1
102
RTVSPropertyOp35
 70
     1
102
RTVSPropertyOp36
 70
     1
102
RTVSPropertyOp37
 70
     1
102
RTVSPropertyOp38
 70
     1
102
RTVSPropertyOp39
 70
     1
102
RTVSPropertyOp40
 70
     1
102
RTVSPropertyOp41
 70
     1
102
RTVSPropertyOp42
 70
     1
102
RTVSPropertyOp43
 70
     1
102
RTVSPropertyOp44
 70
     1
102
RTVSPropertyOp45
 70
     1
102
RTVSPropertyOp46
 70
     1
102
RTVSPropertyOp47
 70
     1
102
RTVSPropertyOp48
 70
     1
102
RTVSPropertyOp49
 70
     1
102
RTVSPropertyOp50
 70
     1
102
RTVSPropertyOp51
 70
     0
102
RTVSPropertyOp52
 70
     0
102
RTVSPropertyOp53
 70
     1
102
RTVSPropertyOp54
 70
     1
102
RTVSPropertyOp55
 70
     1
102
RTVSPropertyOp56
 70
     1
102
RTVSPropertyOp57
 70
     1
102
RTVSPost2010Prop28
280
     0
102
RTVSPost2010PropOp28
 70
     1
102
RTVSPost2010Prop29
280
     1
102
RTVSPost2010PropOp29
 70
     1
102
RTVSPost2010Prop30
280
     1
102
RTVSPost2010PropOp30
 70
     1
102
RTVSPost2010Prop31
280
     0
102
RTVSPost2010PropOp31
 70
     1
102
RTVSPost2010Prop32
280
     0
102
RTVSPost2010PropOp32
 70
     1
102
RTVSPost2010Prop33
280
     0
102
RTVSPost2010PropOp33
 70
     1
102
RTVSPost2010Prop34
280
     0
102
RTVSPost2010PropOp34
 70
     1
102
RTVSPost2010Prop35
280
     0
102
RTVSPost2010PropOp35
 70
     1
102
RTVSPost2010Prop36
280
     0
102
RTVSPost2010PropOp36
 70
     1
102
RTVSPost2010Prop37
 90
       50
102
RTVSPost2010PropOp37
 70
     1
102
RTVSPost2010Prop38
140
0.0
102
RTVSPost2010PropOp38
 70
     1
102
RTVSPost2010Prop39
140
1.0
102
RTVSPost2010PropOp39
 70
     1
102
RTVSPost2010Prop40
 90
        0
102
RTVSPost2010PropOp40
 70
     1
102
RTVSPost2010Prop41ColorIndex
 90
       18
102
RTVSPost2010Prop41ColorRGB
 90
        0
102
RTVSPost2010PropOp41
 70
     1
102
RTVSPost2010Prop42
 90
       50
102
RTVSPost2010PropOp42
 70
     1
102
RTVSPost2010Prop43
 90
        3
102
RTVSPost2010PropOp43
 70
     1
102
RTVSPost2010Prop44ColorIndex
 90
        5
102
RTVSPost2010Prop44ColorRGB
 90
      255
102
RTVSPost2010PropOp44
 70
     1
102
RTVSPost2010Prop45
280
     0
102
RTVSPost2010PropOp45
 70
     1
102
RTVSPost2010Prop46
 90
       50
102
RTVSPost2010PropOp46
 70
     1
102
RTVSPost2010Prop47
 90
       50
102
RTVSPost2010PropOp47
 70
     1
102
RTVSPost2010Prop48
 90
       50
102
RTVSPost2010PropOp48
 70
     1
102
RTVSPost2010Prop49
280
     0
102
RTVSPost2010PropOp49
 70
     1
102
RTVSPost2010Prop50
 90
       50
102
RTVSPost2010PropOp50
 70
     1
102
RTVSPost2010Prop51ColorIndex
 90
      256
102
RTVSPost2010Prop51ColorRGB
 90
-16777216
102
RTVSPost2010PropOp51
 70
     0
102
RTVSPost2010Prop52
140
1.0
102
RTVSPost2010PropOp52
 70
     0
102
RTVSPost2010Prop53
 90
        2
102
RTVSPost2010PropOp53
 70
     1
102
RTVSPost2010Prop54
  1
strokes_ogs.tif
102
RTVSPost2010PropOp54
 70
     1
102
RTVSPost2010Prop55
280
     0
102
RTVSPost2010PropOp55
 70
     1
102
RTVSPost2010Prop56
140
1.0
102
RTVSPost2010PropOp56
 70
     1
102
RTVSPost2010Prop57
140
1.0
102
RTVSPost2010PropOp57
 70
     1
  0
XRECORD
  5
802
102
{ACAD_REACTORS
330
801
102
}
330
801
100
AcDbXrecord
280
     1
102
RTVSPropertyOp0
 70
     1
102
RTVSPropertyOp1
 70
     1
102
RTVSPropertyOp2
 70
     1
102
RTVSPropertyOp3
 70
     1
102
RTVSPropertyOp4
 70
     1
102
RTVSPropertyOp5
 70
     1
102
RTVSPropertyOp6
 70
     1
102
RTVSPropertyOp7
 70
     1
102
RTVSPropertyOp8
 70
     1
102
RTVSPropertyOp9
 70
     1
102
RTVSPropertyOp10
 70
     1
102
RTVSPropertyOp11
 70
     1
102
RTVSPropertyOp12
 70
     1
102
RTVSPropertyOp13
 70
     1
102
RTVSPropertyOp14
 70
     1
102
RTVSPropertyOp15
 70
     1
102
RTVSPropertyOp16
 70
     1
102
RTVSPropertyOp17
 70
     1
102
RTVSPropertyOp18
 70
     1
102
RTVSPropertyOp19
 70
     1
102
RTVSPropertyOp20
 70
     1
102
RTVSPropertyOp21
 70
     1
102
RTVSPropertyOp22
 70
     1
102
RTVSPropertyOp23
 70
     1
102
RTVSPropertyOp24
 70
     1
102
RTVSPropertyOp25
 70
     1
102
RTVSPropertyOp26
 70
     1
102
RTVSPropertyOp27
 70
     1
102
RTVSPropertyOp28
 70
     1
102
RTVSPropertyOp29
 70
     1
102
RTVSPropertyOp30
 70
     1
102
RTVSPropertyOp31
 70
     1
102
RTVSPropertyOp32
 70
     1
102
RTVSPropertyOp33
 70
     1
102
RTVSPropertyOp34
 70
     1
102
RTVSPropertyOp35
 70
     1
102
RTVSPropertyOp36
 70
     1
102
RTVSPropertyOp37
 70
     1
102
RTVSPropertyOp38
 70
     1
102
RTVSPropertyOp39
 70
     1
102
RTVSPropertyOp40
 70
     1
102
RTVSPropertyOp41
 70
     1
102
RTVSPropertyOp42
 70
     1
102
RTVSPropertyOp43
 70
     1
102
RTVSPropertyOp44
 70
     1
102
RTVSPropertyOp45
 70
     1
102
RTVSPropertyOp46
 70
     1
102
RTVSPropertyOp47
 70
     1
102
RTVSPropertyOp48
 70
     1
102
RTVSPropertyOp49
 70
     1
102
RTVSPropertyOp50
 70
     1
102
RTVSPropertyOp51
 70
     0
102
RTVSPropertyOp52
 70
     0
102
RTVSPropertyOp53
 70
     1
102
RTVSPropertyOp54
 70
     1
102
RTVSPropertyOp55
 70
     1
102
RTVSPropertyOp56
 70
     1
102
RTVSPropertyOp57
 70
     1
102
RTVSPost2010Prop28
280
     0
102
RTVSPost2010PropOp28
 70
     1
102
RTVSPost2010Prop29
280
     1
102
RTVSPost2010PropOp29
 70
     1
102
RTVSPost2010Prop30
280
     1
102
RTVSPost2010PropOp30
 70
     1
102
RTVSPost2010Prop31
280
     0
102
RTVSPost2010PropOp31
 70
     1
102
RTVSPost2010Prop32
280
     0
102
RTVSPost2010PropOp32
 70
     1
102
RTVSPost2010Prop33
280
     0
102
RTVSPost2010PropOp33
 70
     1
102
RTVSPost2010Prop34
280
     0
102
RTVSPost2010PropOp34
 70
     1
102
RTVSPost2010Prop35
280
     0
102
RTVSPost2010PropOp35
 70
     1
102
RTVSPost2010Prop36
280
     0
102
RTVSPost2010PropOp36
 70
     1
102
RTVSPost2010Prop37
 90
       50
102
RTVSPost2010PropOp37
 70
     1
102
RTVSPost2010Prop38
140
0.0
102
RTVSPost2010PropOp38
 70
     1
102
RTVSPost2010Prop39
140
1.0
102
RTVSPost2010PropOp39
 70
     1
102
RTVSPost2010Prop40
 90
        0
102
RTVSPost2010PropOp40
 70
     1
102
RTVSPost2010Prop41ColorIndex
 90
       18
102
RTVSPost2010Prop41ColorRGB
 90
        0
102
RTVSPost2010PropOp41
 70
     1
102
RTVSPost2010Prop42
 90
       50
102
RTVSPost2010PropOp42
 70
     1
102
RTVSPost2010Prop43
 90
        3
102
RTVSPost2010PropOp43
 70
     1
102
RTVSPost2010Prop44ColorIndex
 90
        5
102
RTVSPost2010Prop44ColorRGB
 90
      255
102
RTVSPost2010PropOp44
 70
     1
102
RTVSPost2010Prop45
280
     0
102
RTVSPost2010PropOp45
 70
     1
102
RTVSPost2010Prop46
 90
       50
102
RTVSPost2010PropOp46
 70
     1
102
RTVSPost2010Prop47
 90
       50
102
RTVSPost2010PropOp47
 70
     1
102
RTVSPost2010Prop48
 90
       50
102
RTVSPost2010PropOp48
 70
     1
102
RTVSPost2010Prop49
280
     0
102
RTVSPost2010PropOp49
 70
     1
102
RTVSPost2010Prop50
 90
       50
102
RTVSPost2010PropOp50
 70
     1
102
RTVSPost2010Prop51ColorIndex
 90
      256
102
RTVSPost2010Prop51ColorRGB
 90
-16777216
102
RTVSPost2010PropOp51
 70
     0
102
RTVSPost2010Prop52
140
1.0
102
RTVSPost2010PropOp52
 70
     0
102
RTVSPost2010Prop53
 90
        2
102
RTVSPost2010PropOp53
 70
     1
102
RTVSPost2010Prop54
  1
strokes_ogs.tif
102
RTVSPost2010PropOp54
 70
     1
102
RTVSPost2010Prop55
280
     0
102
RTVSPost2010PropOp55
 70
     1
102
RTVSPost2010Prop56
140
1.0
102
RTVSPost2010PropOp56
 70
     1
102
RTVSPost2010Prop57
140
1.0
102
RTVSPost2010PropOp57
 70
     1
  0
XRECORD
  5
812
102
{ACAD_REACTORS
330
811
102
}
330
811
100
AcDbXrecord
280
     1
102
RTVSPropertyOp0
 70
     0
102
RTVSPropertyOp1
 70
     0
102
RTVSPropertyOp2
 70
     0
102
RTVSPropertyOp3
 70
     0
102
RTVSPropertyOp4
 70
     0
102
RTVSPropertyOp5
 70
     0
102
RTVSPropertyOp6
 70
     0
102
RTVSPropertyOp7
 70
     0
102
RTVSPropertyOp8
 70
     0
102
RTVSPropertyOp9
 70
     0
102
RTVSPropertyOp10
 70
     0
102
RTVSPropertyOp11
 70
     0
102
RTVSPropertyOp12
 70
     0
102
RTVSPropertyOp13
 70
     0
102
RTVSPropertyOp14
 70
     0
102
RTVSPropertyOp15
 70
     0
102
RTVSPropertyOp16
 70
     0
102
RTVSPropertyOp17
 70
     0
102
RTVSPropertyOp18
 70
     0
102
RTVSPropertyOp19
 70
     0
102
RTVSPropertyOp20
 70
     0
102
RTVSPropertyOp21
 70
     0
102
RTVSPropertyOp22
 70
     0
102
RTVSPropertyOp23
 70
     0
102
RTVSPropertyOp24
 70
     0
102
RTVSPropertyOp25
 70
     0
102
RTVSPropertyOp26
 70
     0
102
RTVSPropertyOp27
 70
     0
102
RTVSPropertyOp28
 70
     1
102
RTVSPropertyOp29
 70
     1
102
RTVSPropertyOp30
 70
     1
102
RTVSPropertyOp31
 70
     1
102
RTVSPropertyOp32
 70
     1
102
RTVSPropertyOp33
 70
     1
102
RTVSPropertyOp34
 70
     1
102
RTVSPropertyOp35
 70
     1
102
RTVSPropertyOp36
 70
     1
102
RTVSPropertyOp37
 70
     1
102
RTVSPropertyOp38
 70
     1
102
RTVSPropertyOp39
 70
     1
102
RTVSPropertyOp40
 70
     1
102
RTVSPropertyOp41
 70
     1
102
RTVSPropertyOp42
 70
     1
102
RTVSPropertyOp43
 70
     1
102
RTVSPropertyOp44
 70
     1
102
RTVSPropertyOp45
 70
     1
102
RTVSPropertyOp46
 70
     1
102
RTVSPropertyOp47
 70
     1
102
RTVSPropertyOp48
 70
     1
102
RTVSPropertyOp49
 70
     1
102
RTVSPropertyOp50
 70
     1
102
RTVSPropertyOp51
 70
     0
102
RTVSPropertyOp52
 70
     0
102
RTVSPropertyOp53
 70
     1
102
RTVSPropertyOp54
 70
     1
102
RTVSPropertyOp55
 70
     1
102
RTVSPropertyOp56
 70
     1
102
RTVSPropertyOp57
 70
     1
102
RTVSPost2010Prop28
280
     0
102
RTVSPost2010PropOp28
 70
     1
102
RTVSPost2010Prop29
280
     1
102
RTVSPost2010PropOp29
 70
     1
102
RTVSPost2010Prop30
280
     1
102
RTVSPost2010PropOp30
 70
     1
102
RTVSPost2010Prop31
280
     0
102
RTVSPost2010PropOp31
 70
     1
102
RTVSPost2010Prop32
280
     0
102
RTVSPost2010PropOp32
 70
     1
102
RTVSPost2010Prop33
280
     0
102
RTVSPost2010PropOp33
 70
     1
102
RTVSPost2010Prop34
280
     0
102
RTVSPost2010PropOp34
 70
     1
102
RTVSPost2010Prop35
280
     0
102
RTVSPost2010PropOp35
 70
     1
102
RTVSPost2010Prop36
280
     0
102
RTVSPost2010PropOp36
 70
     1
102
RTVSPost2010Prop37
 90
       50
102
RTVSPost2010PropOp37
 70
     1
102
RTVSPost2010Prop38
140
0.0
102
RTVSPost2010PropOp38
 70
     1
102
RTVSPost2010Prop39
140
1.0
102
RTVSPost2010PropOp39
 70
     1
102
RTVSPost2010Prop40
 90
        0
102
RTVSPost2010PropOp40
 70
     1
102
RTVSPost2010Prop41ColorIndex
 90
       18
102
RTVSPost2010Prop41ColorRGB
 90
        0
102
RTVSPost2010PropOp41
 70
     1
102
RTVSPost2010Prop42
 90
       50
102
RTVSPost2010PropOp42
 70
     1
102
RTVSPost2010Prop43
 90
        3
102
RTVSPost2010PropOp43
 70
     1
102
RTVSPost2010Prop44ColorIndex
 90
        5
102
RTVSPost2010Prop44ColorRGB
 90
      255
102
RTVSPost2010PropOp44
 70
     1
102
RTVSPost2010Prop45
280
     0
102
RTVSPost2010PropOp45
 70
     1
102
RTVSPost2010Prop46
 90
       50
102
RTVSPost2010PropOp46
 70
     1
102
RTVSPost2010Prop47
 90
       50
102
RTVSPost2010PropOp47
 70
     1
102
RTVSPost2010Prop48
 90
       50
102
RTVSPost2010PropOp48
 70
     1
102
RTVSPost2010Prop49
280
     0
102
RTVSPost2010PropOp49
 70
     1
102
RTVSPost2010Prop50
 90
       50
102
RTVSPost2010PropOp50
 70
     1
102
RTVSPost2010Prop51ColorIndex
 90
      256
102
RTVSPost2010Prop51ColorRGB
 90
-16777216
102
RTVSPost2010PropOp51
 70
     0
102
RTVSPost2010Prop52
140
1.0
102
RTVSPost2010PropOp52
 70
     0
102
RTVSPost2010Prop53
 90
        2
102
RTVSPost2010PropOp53
 70
     1
102
RTVSPost2010Prop54
  1
strokes_ogs.tif
102
RTVSPost2010PropOp54
 70
     1
102
RTVSPost2010Prop55
280
     0
102
RTVSPost2010PropOp55
 70
     1
102
RTVSPost2010Prop56
140
1.0
102
RTVSPost2010PropOp56
 70
     1
102
RTVSPost2010Prop57
140
1.0
102
RTVSPost2010PropOp57
 70
     1
  0
XRECORD
  5
80A
102
{ACAD_REACTORS
330
809
102
}
330
809
100
AcDbXrecord
280
     1
102
RTVSPropertyOp0
 70
     1
102
RTVSPropertyOp1
 70
     1
102
RTVSPropertyOp2
 70
     1
102
RTVSPropertyOp3
 70
     1
102
RTVSPropertyOp4
 70
     1
102
RTVSPropertyOp5
 70
     1
102
RTVSPropertyOp6
 70
     1
102
RTVSPropertyOp7
 70
     1
102
RTVSPropertyOp8
 70
     1
102
RTVSPropertyOp9
 70
     1
102
RTVSPropertyOp10
 70
     1
102
RTVSPropertyOp11
 70
     1
102
RTVSPropertyOp12
 70
     1
102
RTVSPropertyOp13
 70
     1
102
RTVSPropertyOp14
 70
     1
102
RTVSPropertyOp15
 70
     1
102
RTVSPropertyOp16
 70
     1
102
RTVSPropertyOp17
 70
     1
102
RTVSPropertyOp18
 70
     1
102
RTVSPropertyOp19
 70
     1
102
RTVSPropertyOp20
 70
     1
102
RTVSPropertyOp21
 70
     1
102
RTVSPropertyOp22
 70
     1
102
RTVSPropertyOp23
 70
     1
102
RTVSPropertyOp24
 70
     1
102
RTVSPropertyOp25
 70
     1
102
RTVSPropertyOp26
 70
     1
102
RTVSPropertyOp27
 70
     1
102
RTVSPropertyOp28
 70
     1
102
RTVSPropertyOp29
 70
     1
102
RTVSPropertyOp30
 70
     1
102
RTVSPropertyOp31
 70
     1
102
RTVSPropertyOp32
 70
     1
102
RTVSPropertyOp33
 70
     1
102
RTVSPropertyOp34
 70
     1
102
RTVSPropertyOp35
 70
     1
102
RTVSPropertyOp36
 70
     1
102
RTVSPropertyOp37
 70
     1
102
RTVSPropertyOp38
 70
     1
102
RTVSPropertyOp39
 70
     1
102
RTVSPropertyOp40
 70
     1
102
RTVSPropertyOp41
 70
     1
102
RTVSPropertyOp42
 70
     1
102
RTVSPropertyOp43
 70
     1
102
RTVSPropertyOp44
 70
     1
102
RTVSPropertyOp45
 70
     1
102
RTVSPropertyOp46
 70
     1
102
RTVSPropertyOp47
 70
     1
102
RTVSPropertyOp48
 70
     1
102
RTVSPropertyOp49
 70
     1
102
RTVSPropertyOp50
 70
     1
102
RTVSPropertyOp51
 70
     0
102
RTVSPropertyOp52
 70
     0
102
RTVSPropertyOp53
 70
     1
102
RTVSPropertyOp54
 70
     1
102
RTVSPropertyOp55
 70
     1
102
RTVSPropertyOp56
 70
     1
102
RTVSPropertyOp57
 70
     1
102
RTVSPost2010Prop28
280
     0
102
RTVSPost2010PropOp28
 70
     1
102
RTVSPost2010Prop29
280
     1
102
RTVSPost2010PropOp29
 70
     1
102
RTVSPost2010Prop30
280
     1
102
RTVSPost2010PropOp30
 70
     1
102
RTVSPost2010Prop31
280
     0
102
RTVSPost2010PropOp31
 70
     1
102
RTVSPost2010Prop32
280
     0
102
RTVSPost2010PropOp32
 70
     1
102
RTVSPost2010Prop33
280
     0
102
RTVSPost2010PropOp33
 70
     1
102
RTVSPost2010Prop34
280
     0
102
RTVSPost2010PropOp34
 70
     1
102
RTVSPost2010Prop35
280
     0
102
RTVSPost2010PropOp35
 70
     1
102
RTVSPost2010Prop36
280
     0
102
RTVSPost2010PropOp36
 70
     1
102
RTVSPost2010Prop37
 90
       50
102
RTVSPost2010PropOp37
 70
     1
102
RTVSPost2010Prop38
140
0.0
102
RTVSPost2010PropOp38
 70
     1
102
RTVSPost2010Prop39
140
1.0
102
RTVSPost2010PropOp39
 70
     1
102
RTVSPost2010Prop40
 90
        0
102
RTVSPost2010PropOp40
 70
     1
102
RTVSPost2010Prop41ColorIndex
 90
       18
102
RTVSPost2010Prop41ColorRGB
 90
        0
102
RTVSPost2010PropOp41
 70
     1
102
RTVSPost2010Prop42
 90
       50
102
RTVSPost2010PropOp42
 70
     1
102
RTVSPost2010Prop43
 90
        3
102
RTVSPost2010PropOp43
 70
     1
102
RTVSPost2010Prop44ColorIndex
 90
        5
102
RTVSPost2010Prop44ColorRGB
 90
      255
102
RTVSPost2010PropOp44
 70
     1
102
RTVSPost2010Prop45
280
     0
102
RTVSPost2010PropOp45
 70
     1
102
RTVSPost2010Prop46
 90
       50
102
RTVSPost2010PropOp46
 70
     1
102
RTVSPost2010Prop47
 90
       50
102
RTVSPost2010PropOp47
 70
     1
102
RTVSPost2010Prop48
 90
       50
102
RTVSPost2010PropOp48
 70
     1
102
RTVSPost2010Prop49
280
     0
102
RTVSPost2010PropOp49
 70
     1
102
RTVSPost2010Prop50
 90
       50
102
RTVSPost2010PropOp50
 70
     1
102
RTVSPost2010Prop51ColorIndex
 90
      256
102
RTVSPost2010Prop51ColorRGB
 90
-16777216
102
RTVSPost2010PropOp51
 70
     0
102
RTVSPost2010Prop52
140
1.0
102
RTVSPost2010PropOp52
 70
     0
102
RTVSPost2010Prop53
 90
        2
102
RTVSPost2010PropOp53
 70
     1
102
RTVSPost2010Prop54
  1
strokes_ogs.tif
102
RTVSPost2010PropOp54
 70
     1
102
RTVSPost2010Prop55
280
     0
102
RTVSPost2010PropOp55
 70
     1
102
RTVSPost2010Prop56
140
1.0
102
RTVSPost2010PropOp56
 70
     1
102
RTVSPost2010Prop57
140
1.0
102
RTVSPost2010PropOp57
 70
     1
  0
XRECORD
  5
7F2
102
{ACAD_REACTORS
330
7F1
102
}
330
7F1
100
AcDbXrecord
280
     1
102
RTVSPropertyOp0
 70
     1
102
RTVSPropertyOp1
 70
     1
102
RTVSPropertyOp2
 70
     1
102
RTVSPropertyOp3
 70
     1
102
RTVSPropertyOp4
 70
     1
102
RTVSPropertyOp5
 70
     1
102
RTVSPropertyOp6
 70
     1
102
RTVSPropertyOp7
 70
     1
102
RTVSPropertyOp8
 70
     1
102
RTVSPropertyOp9
 70
     1
102
RTVSPropertyOp10
 70
     1
102
RTVSPropertyOp11
 70
     1
102
RTVSPropertyOp12
 70
     1
102
RTVSPropertyOp13
 70
     1
102
RTVSPropertyOp14
 70
     1
102
RTVSPropertyOp15
 70
     1
102
RTVSPropertyOp16
 70
     1
102
RTVSPropertyOp17
 70
     1
102
RTVSPropertyOp18
 70
     1
102
RTVSPropertyOp19
 70
     1
102
RTVSPropertyOp20
 70
     1
102
RTVSPropertyOp21
 70
     1
102
RTVSPropertyOp22
 70
     1
102
RTVSPropertyOp23
 70
     1
102
RTVSPropertyOp24
 70
     1
102
RTVSPropertyOp25
 70
     1
102
RTVSPropertyOp26
 70
     1
102
RTVSPropertyOp27
 70
     1
102
RTVSPropertyOp28
 70
     1
102
RTVSPropertyOp29
 70
     1
102
RTVSPropertyOp30
 70
     1
102
RTVSPropertyOp31
 70
     1
102
RTVSPropertyOp32
 70
     1
102
RTVSPropertyOp33
 70
     1
102
RTVSPropertyOp34
 70
     1
102
RTVSPropertyOp35
 70
     1
102
RTVSPropertyOp36
 70
     1
102
RTVSPropertyOp37
 70
     1
102
RTVSPropertyOp38
 70
     1
102
RTVSPropertyOp39
 70
     1
102
RTVSPropertyOp40
 70
     1
102
RTVSPropertyOp41
 70
     1
102
RTVSPropertyOp42
 70
     1
102
RTVSPropertyOp43
 70
     1
102
RTVSPropertyOp44
 70
     1
102
RTVSPropertyOp45
 70
     1
102
RTVSPropertyOp46
 70
     1
102
RTVSPropertyOp47
 70
     1
102
RTVSPropertyOp48
 70
     1
102
RTVSPropertyOp49
 70
     1
102
RTVSPropertyOp50
 70
     1
102
RTVSPropertyOp51
 70
     0
102
RTVSPropertyOp52
 70
     0
102
RTVSPropertyOp53
 70
     1
102
RTVSPropertyOp54
 70
     1
102
RTVSPropertyOp55
 70
     1
102
RTVSPropertyOp56
 70
     1
102
RTVSPropertyOp57
 70
     1
102
RTVSPost2010Prop28
280
     0
102
RTVSPost2010PropOp28
 70
     1
102
RTVSPost2010Prop29
280
     1
102
RTVSPost2010PropOp29
 70
     1
102
RTVSPost2010Prop30
280
     1
102
RTVSPost2010PropOp30
 70
     1
102
RTVSPost2010Prop31
280
     0
102
RTVSPost2010PropOp31
 70
     1
102
RTVSPost2010Prop32
280
     0
102
RTVSPost2010PropOp32
 70
     1
102
RTVSPost2010Prop33
280
     0
102
RTVSPost2010PropOp33
 70
     1
102
RTVSPost2010Prop34
280
     0
102
RTVSPost2010PropOp34
 70
     1
102
RTVSPost2010Prop35
280
     0
102
RTVSPost2010PropOp35
 70
     1
102
RTVSPost2010Prop36
280
     0
102
RTVSPost2010PropOp36
 70
     1
102
RTVSPost2010Prop37
 90
       50
102
RTVSPost2010PropOp37
 70
     1
102
RTVSPost2010Prop38
140
0.0
102
RTVSPost2010PropOp38
 70
     1
102
RTVSPost2010Prop39
140
1.0
102
RTVSPost2010PropOp39
 70
     1
102
RTVSPost2010Prop40
 90
        0
102
RTVSPost2010PropOp40
 70
     1
102
RTVSPost2010Prop41ColorIndex
 90
       18
102
RTVSPost2010Prop41ColorRGB
 90
        0
102
RTVSPost2010PropOp41
 70
     1
102
RTVSPost2010Prop42
 90
       50
102
RTVSPost2010PropOp42
 70
     1
102
RTVSPost2010Prop43
 90
        3
102
RTVSPost2010PropOp43
 70
     1
102
RTVSPost2010Prop44ColorIndex
 90
        5
102
RTVSPost2010Prop44ColorRGB
 90
      255
102
RTVSPost2010PropOp44
 70
     1
102
RTVSPost2010Prop45
280
     0
102
RTVSPost2010PropOp45
 70
     1
102
RTVSPost2010Prop46
 90
       50
102
RTVSPost2010PropOp46
 70
     1
102
RTVSPost2010Prop47
 90
       50
102
RTVSPost2010PropOp47
 70
     1
102
RTVSPost2010Prop48
 90
       50
102
RTVSPost2010PropOp48
 70
     1
102
RTVSPost2010Prop49
280
     0
102
RTVSPost2010PropOp49
 70
     1
102
RTVSPost2010Prop50
 90
       50
102
RTVSPost2010PropOp50
 70
     1
102
RTVSPost2010Prop51ColorIndex
 90
      256
102
RTVSPost2010Prop51ColorRGB
 90
-16777216
102
RTVSPost2010PropOp51
 70
     0
102
RTVSPost2010Prop52
140
1.0
102
RTVSPost2010PropOp52
 70
     0
102
RTVSPost2010Prop53
 90
        2
102
RTVSPost2010PropOp53
 70
     1
102
RTVSPost2010Prop54
  1
strokes_ogs.tif
102
RTVSPost2010PropOp54
 70
     1
102
RTVSPost2010Prop55
280
     0
102
RTVSPost2010PropOp55
 70
     1
102
RTVSPost2010Prop56
140
1.0
102
RTVSPost2010PropOp56
 70
     1
102
RTVSPost2010Prop57
140
1.0
102
RTVSPost2010PropOp57
 70
     1
  0
XRECORD
  5
7F4
102
{ACAD_REACTORS
330
7F3
102
}
330
7F3
100
AcDbXrecord
280
     1
102
RTVSPropertyOp0
 70
     1
102
RTVSPropertyOp1
 70
     1
102
RTVSPropertyOp2
 70
     1
102
RTVSPropertyOp3
 70
     1
102
RTVSPropertyOp4
 70
     1
102
RTVSPropertyOp5
 70
     1
102
RTVSPropertyOp6
 70
     1
102
RTVSPropertyOp7
 70
     1
102
RTVSPropertyOp8
 70
     1
102
RTVSPropertyOp9
 70
     1
102
RTVSPropertyOp10
 70
     1
102
RTVSPropertyOp11
 70
     1
102
RTVSPropertyOp12
 70
     1
102
RTVSPropertyOp13
 70
     1
102
RTVSPropertyOp14
 70
     1
102
RTVSPropertyOp15
 70
     1
102
RTVSPropertyOp16
 70
     1
102
RTVSPropertyOp17
 70
     1
102
RTVSPropertyOp18
 70
     1
102
RTVSPropertyOp19
 70
     1
102
RTVSPropertyOp20
 70
     1
102
RTVSPropertyOp21
 70
     1
102
RTVSPropertyOp22
 70
     1
102
RTVSPropertyOp23
 70
     1
102
RTVSPropertyOp24
 70
     1
102
RTVSPropertyOp25
 70
     1
102
RTVSPropertyOp26
 70
     1
102
RTVSPropertyOp27
 70
     1
102
RTVSPropertyOp28
 70
     1
102
RTVSPropertyOp29
 70
     1
102
RTVSPropertyOp30
 70
     1
102
RTVSPropertyOp31
 70
     1
102
RTVSPropertyOp32
 70
     1
102
RTVSPropertyOp33
 70
     1
102
RTVSPropertyOp34
 70
     1
102
RTVSPropertyOp35
 70
     1
102
RTVSPropertyOp36
 70
     1
102
RTVSPropertyOp37
 70
     1
102
RTVSPropertyOp38
 70
     1
102
RTVSPropertyOp39
 70
     1
102
RTVSPropertyOp40
 70
     1
102
RTVSPropertyOp41
 70
     1
102
RTVSPropertyOp42
 70
     1
102
RTVSPropertyOp43
 70
     1
102
RTVSPropertyOp44
 70
     1
102
RTVSPropertyOp45
 70
     1
102
RTVSPropertyOp46
 70
     1
102
RTVSPropertyOp47
 70
     1
102
RTVSPropertyOp48
 70
     1
102
RTVSPropertyOp49
 70
     1
102
RTVSPropertyOp50
 70
     1
102
RTVSPropertyOp51
 70
     0
102
RTVSPropertyOp52
 70
     0
102
RTVSPropertyOp53
 70
     1
102
RTVSPropertyOp54
 70
     1
102
RTVSPropertyOp55
 70
     1
102
RTVSPropertyOp56
 70
     1
102
RTVSPropertyOp57
 70
     1
102
RTVSPost2010Prop28
280
     0
102
RTVSPost2010PropOp28
 70
     1
102
RTVSPost2010Prop29
280
     1
102
RTVSPost2010PropOp29
 70
     1
102
RTVSPost2010Prop30
280
     1
102
RTVSPost2010PropOp30
 70
     1
102
RTVSPost2010Prop31
280
     0
102
RTVSPost2010PropOp31
 70
     1
102
RTVSPost2010Prop32
280
     0
102
RTVSPost2010PropOp32
 70
     1
102
RTVSPost2010Prop33
280
     0
102
RTVSPost2010PropOp33
 70
     1
102
RTVSPost2010Prop34
280
     0
102
RTVSPost2010PropOp34
 70
     1
102
RTVSPost2010Prop35
280
     0
102
RTVSPost2010PropOp35
 70
     1
102
RTVSPost2010Prop36
280
     0
102
RTVSPost2010PropOp36
 70
     1
102
RTVSPost2010Prop37
 90
       50
102
RTVSPost2010PropOp37
 70
     1
102
RTVSPost2010Prop38
140
0.0
102
RTVSPost2010PropOp38
 70
     1
102
RTVSPost2010Prop39
140
1.0
102
RTVSPost2010PropOp39
 70
     1
102
RTVSPost2010Prop40
 90
        0
102
RTVSPost2010PropOp40
 70
     1
102
RTVSPost2010Prop41ColorIndex
 90
       18
102
RTVSPost2010Prop41ColorRGB
 90
        0
102
RTVSPost2010PropOp41
 70
     1
102
RTVSPost2010Prop42
 90
       50
102
RTVSPost2010PropOp42
 70
     1
102
RTVSPost2010Prop43
 90
        3
102
RTVSPost2010PropOp43
 70
     1
102
RTVSPost2010Prop44ColorIndex
 90
        5
102
RTVSPost2010Prop44ColorRGB
 90
      255
102
RTVSPost2010PropOp44
 70
     1
102
RTVSPost2010Prop45
280
     0
102
RTVSPost2010PropOp45
 70
     1
102
RTVSPost2010Prop46
 90
       50
102
RTVSPost2010PropOp46
 70
     1
102
RTVSPost2010Prop47
 90
       50
102
RTVSPost2010PropOp47
 70
     1
102
RTVSPost2010Prop48
 90
       50
102
RTVSPost2010PropOp48
 70
     1
102
RTVSPost2010Prop49
280
     0
102
RTVSPost2010PropOp49
 70
     1
102
RTVSPost2010Prop50
 90
       50
102
RTVSPost2010PropOp50
 70
     1
102
RTVSPost2010Prop51ColorIndex
 90
      256
102
RTVSPost2010Prop51ColorRGB
 90
-16777216
102
RTVSPost2010PropOp51
 70
     0
102
RTVSPost2010Prop52
140
1.0
102
RTVSPost2010PropOp52
 70
     0
102
RTVSPost2010Prop53
 90
        2
102
RTVSPost2010PropOp53
 70
     1
102
RTVSPost2010Prop54
  1
strokes_ogs.tif
102
RTVSPost2010PropOp54
 70
     1
102
RTVSPost2010Prop55
280
     0
102
RTVSPost2010PropOp55
 70
     1
102
RTVSPost2010Prop56
140
1.0
102
RTVSPost2010PropOp56
 70
     1
102
RTVSPost2010Prop57
140
1.0
102
RTVSPost2010PropOp57
 70
     1
  0
XRECORD
  5
7F6
102
{ACAD_REACTORS
330
7F5
102
}
330
7F5
100
AcDbXrecord
280
     1
102
RTVSPropertyOp0
 70
     1
102
RTVSPropertyOp1
 70
     1
102
RTVSPropertyOp2
 70
     1
102
RTVSPropertyOp3
 70
     1
102
RTVSPropertyOp4
 70
     1
102
RTVSPropertyOp5
 70
     1
102
RTVSPropertyOp6
 70
     1
102
RTVSPropertyOp7
 70
     1
102
RTVSPropertyOp8
 70
     1
102
RTVSPropertyOp9
 70
     1
102
RTVSPropertyOp10
 70
     1
102
RTVSPropertyOp11
 70
     1
102
RTVSPropertyOp12
 70
     1
102
RTVSPropertyOp13
 70
     1
102
RTVSPropertyOp14
 70
     1
102
RTVSPropertyOp15
 70
     1
102
RTVSPropertyOp16
 70
     1
102
RTVSPropertyOp17
 70
     1
102
RTVSPropertyOp18
 70
     1
102
RTVSPropertyOp19
 70
     1
102
RTVSPropertyOp20
 70
     1
102
RTVSPropertyOp21
 70
     1
102
RTVSPropertyOp22
 70
     1
102
RTVSPropertyOp23
 70
     1
102
RTVSPropertyOp24
 70
     1
102
RTVSPropertyOp25
 70
     1
102
RTVSPropertyOp26
 70
     1
102
RTVSPropertyOp27
 70
     1
102
RTVSPropertyOp28
 70
     1
102
RTVSPropertyOp29
 70
     1
102
RTVSPropertyOp30
 70
     1
102
RTVSPropertyOp31
 70
     1
102
RTVSPropertyOp32
 70
     1
102
RTVSPropertyOp33
 70
     1
102
RTVSPropertyOp34
 70
     1
102
RTVSPropertyOp35
 70
     1
102
RTVSPropertyOp36
 70
     1
102
RTVSPropertyOp37
 70
     1
102
RTVSPropertyOp38
 70
     1
102
RTVSPropertyOp39
 70
     1
102
RTVSPropertyOp40
 70
     1
102
RTVSPropertyOp41
 70
     1
102
RTVSPropertyOp42
 70
     1
102
RTVSPropertyOp43
 70
     1
102
RTVSPropertyOp44
 70
     1
102
RTVSPropertyOp45
 70
     1
102
RTVSPropertyOp46
 70
     1
102
RTVSPropertyOp47
 70
     1
102
RTVSPropertyOp48
 70
     1
102
RTVSPropertyOp49
 70
     1
102
RTVSPropertyOp50
 70
     1
102
RTVSPropertyOp51
 70
     0
102
RTVSPropertyOp52
 70
     0
102
RTVSPropertyOp53
 70
     1
102
RTVSPropertyOp54
 70
     1
102
RTVSPropertyOp55
 70
     1
102
RTVSPropertyOp56
 70
     1
102
RTVSPropertyOp57
 70
     1
102
RTVSPost2010Prop28
280
     0
102
RTVSPost2010PropOp28
 70
     1
102
RTVSPost2010Prop29
280
     1
102
RTVSPost2010PropOp29
 70
     1
102
RTVSPost2010Prop30
280
     1
102
RTVSPost2010PropOp30
 70
     1
102
RTVSPost2010Prop31
280
     0
102
RTVSPost2010PropOp31
 70
     1
102
RTVSPost2010Prop32
280
     0
102
RTVSPost2010PropOp32
 70
     1
102
RTVSPost2010Prop33
280
     0
102
RTVSPost2010PropOp33
 70
     1
102
RTVSPost2010Prop34
280
     0
102
RTVSPost2010PropOp34
 70
     1
102
RTVSPost2010Prop35
280
     0
102
RTVSPost2010PropOp35
 70
     1
102
RTVSPost2010Prop36
280
     0
102
RTVSPost2010PropOp36
 70
     1
102
RTVSPost2010Prop37
 90
       50
102
RTVSPost2010PropOp37
 70
     1
102
RTVSPost2010Prop38
140
0.0
102
RTVSPost2010PropOp38
 70
     1
102
RTVSPost2010Prop39
140
1.0
102
RTVSPost2010PropOp39
 70
     1
102
RTVSPost2010Prop40
 90
        0
102
RTVSPost2010PropOp40
 70
     1
102
RTVSPost2010Prop41ColorIndex
 90
       18
102
RTVSPost2010Prop41ColorRGB
 90
        0
102
RTVSPost2010PropOp41
 70
     1
102
RTVSPost2010Prop42
 90
       50
102
RTVSPost2010PropOp42
 70
     1
102
RTVSPost2010Prop43
 90
        3
102
RTVSPost2010PropOp43
 70
     1
102
RTVSPost2010Prop44ColorIndex
 90
        5
102
RTVSPost2010Prop44ColorRGB
 90
      255
102
RTVSPost2010PropOp44
 70
     1
102
RTVSPost2010Prop45
280
     0
102
RTVSPost2010PropOp45
 70
     1
102
RTVSPost2010Prop46
 90
       50
102
RTVSPost2010PropOp46
 70
     1
102
RTVSPost2010Prop47
 90
       50
102
RTVSPost2010PropOp47
 70
     1
102
RTVSPost2010Prop48
 90
       50
102
RTVSPost2010PropOp48
 70
     1
102
RTVSPost2010Prop49
280
     0
102
RTVSPost2010PropOp49
 70
     1
102
RTVSPost2010Prop50
 90
       50
102
RTVSPost2010PropOp50
 70
     1
102
RTVSPost2010Prop51ColorIndex
 90
      256
102
RTVSPost2010Prop51ColorRGB
 90
-16777216
102
RTVSPost2010PropOp51
 70
     0
102
RTVSPost2010Prop52
140
1.0
102
RTVSPost2010PropOp52
 70
     0
102
RTVSPost2010Prop53
 90
        2
102
RTVSPost2010PropOp53
 70
     1
102
RTVSPost2010Prop54
  1
strokes_ogs.tif
102
RTVSPost2010PropOp54
 70
     1
102
RTVSPost2010Prop55
280
     0
102
RTVSPost2010PropOp55
 70
     1
102
RTVSPost2010Prop56
140
1.0
102
RTVSPost2010PropOp56
 70
     1
102
RTVSPost2010Prop57
140
1.0
102
RTVSPost2010PropOp57
 70
     1
  0
XRECORD
  5
7F8
102
{ACAD_REACTORS
330
7F7
102
}
330
7F7
100
AcDbXrecord
280
     1
102
RTVSPropertyOp0
 70
     1
102
RTVSPropertyOp1
 70
     1
102
RTVSPropertyOp2
 70
     1
102
RTVSPropertyOp3
 70
     1
102
RTVSPropertyOp4
 70
     1
102
RTVSPropertyOp5
 70
     1
102
RTVSPropertyOp6
 70
     1
102
RTVSPropertyOp7
 70
     1
102
RTVSPropertyOp8
 70
     1
102
RTVSPropertyOp9
 70
     1
102
RTVSPropertyOp10
 70
     1
102
RTVSPropertyOp11
 70
     1
102
RTVSPropertyOp12
 70
     1
102
RTVSPropertyOp13
 70
     1
102
RTVSPropertyOp14
 70
     1
102
RTVSPropertyOp15
 70
     1
102
RTVSPropertyOp16
 70
     1
102
RTVSPropertyOp17
 70
     1
102
RTVSPropertyOp18
 70
     1
102
RTVSPropertyOp19
 70
     1
102
RTVSPropertyOp20
 70
     1
102
RTVSPropertyOp21
 70
     1
102
RTVSPropertyOp22
 70
     1
102
RTVSPropertyOp23
 70
     1
102
RTVSPropertyOp24
 70
     1
102
RTVSPropertyOp25
 70
     1
102
RTVSPropertyOp26
 70
     1
102
RTVSPropertyOp27
 70
     1
102
RTVSPropertyOp28
 70
     1
102
RTVSPropertyOp29
 70
     1
102
RTVSPropertyOp30
 70
     1
102
RTVSPropertyOp31
 70
     1
102
RTVSPropertyOp32
 70
     1
102
RTVSPropertyOp33
 70
     1
102
RTVSPropertyOp34
 70
     1
102
RTVSPropertyOp35
 70
     1
102
RTVSPropertyOp36
 70
     1
102
RTVSPropertyOp37
 70
     1
102
RTVSPropertyOp38
 70
     1
102
RTVSPropertyOp39
 70
     1
102
RTVSPropertyOp40
 70
     1
102
RTVSPropertyOp41
 70
     1
102
RTVSPropertyOp42
 70
     1
102
RTVSPropertyOp43
 70
     1
102
RTVSPropertyOp44
 70
     1
102
RTVSPropertyOp45
 70
     1
102
RTVSPropertyOp46
 70
     1
102
RTVSPropertyOp47
 70
     1
102
RTVSPropertyOp48
 70
     1
102
RTVSPropertyOp49
 70
     1
102
RTVSPropertyOp50
 70
     1
102
RTVSPropertyOp51
 70
     0
102
RTVSPropertyOp52
 70
     0
102
RTVSPropertyOp53
 70
     1
102
RTVSPropertyOp54
 70
     1
102
RTVSPropertyOp55
 70
     1
102
RTVSPropertyOp56
 70
     1
102
RTVSPropertyOp57
 70
     1
102
RTVSPost2010Prop28
280
     0
102
RTVSPost2010PropOp28
 70
     1
102
RTVSPost2010Prop29
280
     1
102
RTVSPost2010PropOp29
 70
     1
102
RTVSPost2010Prop30
280
     1
102
RTVSPost2010PropOp30
 70
     1
102
RTVSPost2010Prop31
280
     0
102
RTVSPost2010PropOp31
 70
     1
102
RTVSPost2010Prop32
280
     0
102
RTVSPost2010PropOp32
 70
     1
102
RTVSPost2010Prop33
280
     0
102
RTVSPost2010PropOp33
 70
     1
102
RTVSPost2010Prop34
280
     0
102
RTVSPost2010PropOp34
 70
     1
102
RTVSPost2010Prop35
280
     0
102
RTVSPost2010PropOp35
 70
     1
102
RTVSPost2010Prop36
280
     0
102
RTVSPost2010PropOp36
 70
     1
102
RTVSPost2010Prop37
 90
       50
102
RTVSPost2010PropOp37
 70
     1
102
RTVSPost2010Prop38
140
0.0
102
RTVSPost2010PropOp38
 70
     1
102
RTVSPost2010Prop39
140
1.0
102
RTVSPost2010PropOp39
 70
     1
102
RTVSPost2010Prop40
 90
        0
102
RTVSPost2010PropOp40
 70
     1
102
RTVSPost2010Prop41ColorIndex
 90
       18
102
RTVSPost2010Prop41ColorRGB
 90
        0
102
RTVSPost2010PropOp41
 70
     1
102
RTVSPost2010Prop42
 90
       50
102
RTVSPost2010PropOp42
 70
     1
102
RTVSPost2010Prop43
 90
        3
102
RTVSPost2010PropOp43
 70
     1
102
RTVSPost2010Prop44ColorIndex
 90
        5
102
RTVSPost2010Prop44ColorRGB
 90
      255
102
RTVSPost2010PropOp44
 70
     1
102
RTVSPost2010Prop45
280
     0
102
RTVSPost2010PropOp45
 70
     1
102
RTVSPost2010Prop46
 90
       50
102
RTVSPost2010PropOp46
 70
     1
102
RTVSPost2010Prop47
 90
       50
102
RTVSPost2010PropOp47
 70
     1
102
RTVSPost2010Prop48
 90
       50
102
RTVSPost2010PropOp48
 70
     1
102
RTVSPost2010Prop49
280
     0
102
RTVSPost2010PropOp49
 70
     1
102
RTVSPost2010Prop50
 90
       50
102
RTVSPost2010PropOp50
 70
     1
102
RTVSPost2010Prop51ColorIndex
 90
      256
102
RTVSPost2010Prop51ColorRGB
 90
-16777216
102
RTVSPost2010PropOp51
 70
     0
102
RTVSPost2010Prop52
140
1.0
102
RTVSPost2010PropOp52
 70
     0
102
RTVSPost2010Prop53
 90
        2
102
RTVSPost2010PropOp53
 70
     1
102
RTVSPost2010Prop54
  1
strokes_ogs.tif
102
RTVSPost2010PropOp54
 70
     1
102
RTVSPost2010Prop55
280
     0
102
RTVSPost2010PropOp55
 70
     1
102
RTVSPost2010Prop56
140
1.0
102
RTVSPost2010PropOp56
 70
     1
102
RTVSPost2010Prop57
140
1.0
102
RTVSPost2010PropOp57
 70
     1
  0
XRECORD
  5
7FC
102
{ACAD_REACTORS
330
7FB
102
}
330
7FB
100
AcDbXrecord
280
     1
102
RTVSPropertyOp0
 70
     1
102
RTVSPropertyOp1
 70
     1
102
RTVSPropertyOp2
 70
     1
102
RTVSPropertyOp3
 70
     1
102
RTVSPropertyOp4
 70
     1
102
RTVSPropertyOp5
 70
     1
102
RTVSPropertyOp6
 70
     1
102
RTVSPropertyOp7
 70
     1
102
RTVSPropertyOp8
 70
     1
102
RTVSPropertyOp9
 70
     1
102
RTVSPropertyOp10
 70
     1
102
RTVSPropertyOp11
 70
     1
102
RTVSPropertyOp12
 70
     1
102
RTVSPropertyOp13
 70
     1
102
RTVSPropertyOp14
 70
     1
102
RTVSPropertyOp15
 70
     1
102
RTVSPropertyOp16
 70
     1
102
RTVSPropertyOp17
 70
     1
102
RTVSPropertyOp18
 70
     1
102
RTVSPropertyOp19
 70
     1
102
RTVSPropertyOp20
 70
     1
102
RTVSPropertyOp21
 70
     1
102
RTVSPropertyOp22
 70
     1
102
RTVSPropertyOp23
 70
     1
102
RTVSPropertyOp24
 70
     1
102
RTVSPropertyOp25
 70
     1
102
RTVSPropertyOp26
 70
     1
102
RTVSPropertyOp27
 70
     1
102
RTVSPropertyOp28
 70
     1
102
RTVSPropertyOp29
 70
     1
102
RTVSPropertyOp30
 70
     1
102
RTVSPropertyOp31
 70
     1
102
RTVSPropertyOp32
 70
     1
102
RTVSPropertyOp33
 70
     1
102
RTVSPropertyOp34
 70
     1
102
RTVSPropertyOp35
 70
     1
102
RTVSPropertyOp36
 70
     1
102
RTVSPropertyOp37
 70
     1
102
RTVSPropertyOp38
 70
     1
102
RTVSPropertyOp39
 70
     1
102
RTVSPropertyOp40
 70
     1
102
RTVSPropertyOp41
 70
     1
102
RTVSPropertyOp42
 70
     1
102
RTVSPropertyOp43
 70
     1
102
RTVSPropertyOp44
 70
     1
102
RTVSPropertyOp45
 70
     1
102
RTVSPropertyOp46
 70
     1
102
RTVSPropertyOp47
 70
     1
102
RTVSPropertyOp48
 70
     1
102
RTVSPropertyOp49
 70
     1
102
RTVSPropertyOp50
 70
     1
102
RTVSPropertyOp51
 70
     0
102
RTVSPropertyOp52
 70
     0
102
RTVSPropertyOp53
 70
     1
102
RTVSPropertyOp54
 70
     1
102
RTVSPropertyOp55
 70
     1
102
RTVSPropertyOp56
 70
     1
102
RTVSPropertyOp57
 70
     1
102
RTVSPost2010Prop28
280
     0
102
RTVSPost2010PropOp28
 70
     1
102
RTVSPost2010Prop29
280
     1
102
RTVSPost2010PropOp29
 70
     1
102
RTVSPost2010Prop30
280
     1
102
RTVSPost2010PropOp30
 70
     1
102
RTVSPost2010Prop31
280
     0
102
RTVSPost2010PropOp31
 70
     1
102
RTVSPost2010Prop32
280
     0
102
RTVSPost2010PropOp32
 70
     1
102
RTVSPost2010Prop33
280
     0
102
RTVSPost2010PropOp33
 70
     1
102
RTVSPost2010Prop34
280
     0
102
RTVSPost2010PropOp34
 70
     1
102
RTVSPost2010Prop35
280
     0
102
RTVSPost2010PropOp35
 70
     1
102
RTVSPost2010Prop36
280
     0
102
RTVSPost2010PropOp36
 70
     1
102
RTVSPost2010Prop37
 90
       50
102
RTVSPost2010PropOp37
 70
     1
102
RTVSPost2010Prop38
140
0.0
102
RTVSPost2010PropOp38
 70
     1
102
RTVSPost2010Prop39
140
1.0
102
RTVSPost2010PropOp39
 70
     1
102
RTVSPost2010Prop40
 90
        0
102
RTVSPost2010PropOp40
 70
     1
102
RTVSPost2010Prop41ColorIndex
 90
       18
102
RTVSPost2010Prop41ColorRGB
 90
        0
102
RTVSPost2010PropOp41
 70
     1
102
RTVSPost2010Prop42
 90
       50
102
RTVSPost2010PropOp42
 70
     1
102
RTVSPost2010Prop43
 90
        3
102
RTVSPost2010PropOp43
 70
     1
102
RTVSPost2010Prop44ColorIndex
 90
        5
102
RTVSPost2010Prop44ColorRGB
 90
      255
102
RTVSPost2010PropOp44
 70
     1
102
RTVSPost2010Prop45
280
     0
102
RTVSPost2010PropOp45
 70
     1
102
RTVSPost2010Prop46
 90
       50
102
RTVSPost2010PropOp46
 70
     1
102
RTVSPost2010Prop47
 90
       50
102
RTVSPost2010PropOp47
 70
     1
102
RTVSPost2010Prop48
 90
       50
102
RTVSPost2010PropOp48
 70
     1
102
RTVSPost2010Prop49
280
     0
102
RTVSPost2010PropOp49
 70
     1
102
RTVSPost2010Prop50
 90
       50
102
RTVSPost2010PropOp50
 70
     1
102
RTVSPost2010Prop51ColorIndex
 90
      256
102
RTVSPost2010Prop51ColorRGB
 90
-16777216
102
RTVSPost2010PropOp51
 70
     0
102
RTVSPost2010Prop52
140
1.0
102
RTVSPost2010PropOp52
 70
     0
102
RTVSPost2010Prop53
 90
        2
102
RTVSPost2010PropOp53
 70
     1
102
RTVSPost2010Prop54
  1
strokes_ogs.tif
102
RTVSPost2010PropOp54
 70
     1
102
RTVSPost2010Prop55
280
     0
102
RTVSPost2010PropOp55
 70
     1
102
RTVSPost2010Prop56
140
1.0
102
RTVSPost2010PropOp56
 70
     1
102
RTVSPost2010Prop57
140
1.0
102
RTVSPost2010PropOp57
 70
     1
  0
XRECORD
  5
80E
102
{ACAD_REACTORS
330
80D
102
}
330
80D
100
AcDbXrecord
280
     1
102
RTVSPropertyOp0
 70
     0
102
RTVSPropertyOp1
 70
     0
102
RTVSPropertyOp2
 70
     0
102
RTVSPropertyOp3
 70
     0
102
RTVSPropertyOp4
 70
     0
102
RTVSPropertyOp5
 70
     0
102
RTVSPropertyOp6
 70
     0
102
RTVSPropertyOp7
 70
     0
102
RTVSPropertyOp8
 70
     0
102
RTVSPropertyOp9
 70
     0
102
RTVSPropertyOp10
 70
     0
102
RTVSPropertyOp11
 70
     0
102
RTVSPropertyOp12
 70
     0
102
RTVSPropertyOp13
 70
     0
102
RTVSPropertyOp14
 70
     0
102
RTVSPropertyOp15
 70
     0
102
RTVSPropertyOp16
 70
     0
102
RTVSPropertyOp17
 70
     0
102
RTVSPropertyOp18
 70
     0
102
RTVSPropertyOp19
 70
     0
102
RTVSPropertyOp20
 70
     0
102
RTVSPropertyOp21
 70
     0
102
RTVSPropertyOp22
 70
     0
102
RTVSPropertyOp23
 70
     0
102
RTVSPropertyOp24
 70
     0
102
RTVSPropertyOp25
 70
     0
102
RTVSPropertyOp26
 70
     0
102
RTVSPropertyOp27
 70
     0
102
RTVSPropertyOp28
 70
     1
102
RTVSPropertyOp29
 70
     1
102
RTVSPropertyOp30
 70
     1
102
RTVSPropertyOp31
 70
     1
102
RTVSPropertyOp32
 70
     1
102
RTVSPropertyOp33
 70
     1
102
RTVSPropertyOp34
 70
     1
102
RTVSPropertyOp35
 70
     1
102
RTVSPropertyOp36
 70
     1
102
RTVSPropertyOp37
 70
     1
102
RTVSPropertyOp38
 70
     1
102
RTVSPropertyOp39
 70
     1
102
RTVSPropertyOp40
 70
     1
102
RTVSPropertyOp41
 70
     1
102
RTVSPropertyOp42
 70
     1
102
RTVSPropertyOp43
 70
     1
102
RTVSPropertyOp44
 70
     1
102
RTVSPropertyOp45
 70
     1
102
RTVSPropertyOp46
 70
     1
102
RTVSPropertyOp47
 70
     1
102
RTVSPropertyOp48
 70
     1
102
RTVSPropertyOp49
 70
     1
102
RTVSPropertyOp50
 70
     1
102
RTVSPropertyOp51
 70
     0
102
RTVSPropertyOp52
 70
     0
102
RTVSPropertyOp53
 70
     1
102
RTVSPropertyOp54
 70
     1
102
RTVSPropertyOp55
 70
     1
102
RTVSPropertyOp56
 70
     1
102
RTVSPropertyOp57
 70
     1
102
RTVSPost2010Prop28
280
     0
102
RTVSPost2010PropOp28
 70
     1
102
RTVSPost2010Prop29
280
     1
102
RTVSPost2010PropOp29
 70
     1
102
RTVSPost2010Prop30
280
     1
102
RTVSPost2010PropOp30
 70
     1
102
RTVSPost2010Prop31
280
     0
102
RTVSPost2010PropOp31
 70
     1
102
RTVSPost2010Prop32
280
     0
102
RTVSPost2010PropOp32
 70
     1
102
RTVSPost2010Prop33
280
     0
102
RTVSPost2010PropOp33
 70
     1
102
RTVSPost2010Prop34
280
     0
102
RTVSPost2010PropOp34
 70
     1
102
RTVSPost2010Prop35
280
     0
102
RTVSPost2010PropOp35
 70
     1
102
RTVSPost2010Prop36
280
     0
102
RTVSPost2010PropOp36
 70
     1
102
RTVSPost2010Prop37
 90
       50
102
RTVSPost2010PropOp37
 70
     1
102
RTVSPost2010Prop38
140
0.0
102
RTVSPost2010PropOp38
 70
     1
102
RTVSPost2010Prop39
140
1.0
102
RTVSPost2010PropOp39
 70
     1
102
RTVSPost2010Prop40
 90
        0
102
RTVSPost2010PropOp40
 70
     1
102
RTVSPost2010Prop41ColorIndex
 90
       18
102
RTVSPost2010Prop41ColorRGB
 90
        0
102
RTVSPost2010PropOp41
 70
     1
102
RTVSPost2010Prop42
 90
       50
102
RTVSPost2010PropOp42
 70
     1
102
RTVSPost2010Prop43
 90
        3
102
RTVSPost2010PropOp43
 70
     1
102
RTVSPost2010Prop44ColorIndex
 90
        5
102
RTVSPost2010Prop44ColorRGB
 90
      255
102
RTVSPost2010PropOp44
 70
     1
102
RTVSPost2010Prop45
280
     0
102
RTVSPost2010PropOp45
 70
     1
102
RTVSPost2010Prop46
 90
       50
102
RTVSPost2010PropOp46
 70
     1
102
RTVSPost2010Prop47
 90
       50
102
RTVSPost2010PropOp47
 70
     1
102
RTVSPost2010Prop48
 90
       50
102
RTVSPost2010PropOp48
 70
     1
102
RTVSPost2010Prop49
280
     0
102
RTVSPost2010PropOp49
 70
     1
102
RTVSPost2010Prop50
 90
       50
102
RTVSPost2010PropOp50
 70
     1
102
RTVSPost2010Prop51ColorIndex
 90
      256
102
RTVSPost2010Prop51ColorRGB
 90
-16777216
102
RTVSPost2010PropOp51
 70
     0
102
RTVSPost2010Prop52
140
1.0
102
RTVSPost2010PropOp52
 70
     0
102
RTVSPost2010Prop53
 90
        2
102
RTVSPost2010PropOp53
 70
     1
102
RTVSPost2010Prop54
  1
strokes_ogs.tif
102
RTVSPost2010PropOp54
 70
     1
102
RTVSPost2010Prop55
280
     0
102
RTVSPost2010PropOp55
 70
     1
102
RTVSPost2010Prop56
140
1.0
102
RTVSPost2010PropOp56
 70
     1
102
RTVSPost2010Prop57
140
1.0
102
RTVSPost2010PropOp57
 70
     1
  0
XRECORD
  5
808
102
{ACAD_REACTORS
330
807
102
}
330
807
100
AcDbXrecord
280
     1
102
RTVSPropertyOp0
 70
     1
102
RTVSPropertyOp1
 70
     1
102
RTVSPropertyOp2
 70
     1
102
RTVSPropertyOp3
 70
     1
102
RTVSPropertyOp4
 70
     1
102
RTVSPropertyOp5
 70
     1
102
RTVSPropertyOp6
 70
     1
102
RTVSPropertyOp7
 70
     1
102
RTVSPropertyOp8
 70
     1
102
RTVSPropertyOp9
 70
     1
102
RTVSPropertyOp10
 70
     1
102
RTVSPropertyOp11
 70
     1
102
RTVSPropertyOp12
 70
     1
102
RTVSPropertyOp13
 70
     1
102
RTVSPropertyOp14
 70
     1
102
RTVSPropertyOp15
 70
     1
102
RTVSPropertyOp16
 70
     1
102
RTVSPropertyOp17
 70
     1
102
RTVSPropertyOp18
 70
     1
102
RTVSPropertyOp19
 70
     1
102
RTVSPropertyOp20
 70
     1
102
RTVSPropertyOp21
 70
     1
102
RTVSPropertyOp22
 70
     1
102
RTVSPropertyOp23
 70
     1
102
RTVSPropertyOp24
 70
     1
102
RTVSPropertyOp25
 70
     1
102
RTVSPropertyOp26
 70
     1
102
RTVSPropertyOp27
 70
     1
102
RTVSPropertyOp28
 70
     1
102
RTVSPropertyOp29
 70
     1
102
RTVSPropertyOp30
 70
     1
102
RTVSPropertyOp31
 70
     1
102
RTVSPropertyOp32
 70
     1
102
RTVSPropertyOp33
 70
     1
102
RTVSPropertyOp34
 70
     1
102
RTVSPropertyOp35
 70
     1
102
RTVSPropertyOp36
 70
     1
102
RTVSPropertyOp37
 70
     1
102
RTVSPropertyOp38
 70
     1
102
RTVSPropertyOp39
 70
     1
102
RTVSPropertyOp40
 70
     1
102
RTVSPropertyOp41
 70
     1
102
RTVSPropertyOp42
 70
     1
102
RTVSPropertyOp43
 70
     1
102
RTVSPropertyOp44
 70
     1
102
RTVSPropertyOp45
 70
     1
102
RTVSPropertyOp46
 70
     1
102
RTVSPropertyOp47
 70
     1
102
RTVSPropertyOp48
 70
     1
102
RTVSPropertyOp49
 70
     1
102
RTVSPropertyOp50
 70
     1
102
RTVSPropertyOp51
 70
     0
102
RTVSPropertyOp52
 70
     0
102
RTVSPropertyOp53
 70
     1
102
RTVSPropertyOp54
 70
     1
102
RTVSPropertyOp55
 70
     1
102
RTVSPropertyOp56
 70
     1
102
RTVSPropertyOp57
 70
     1
102
RTVSPost2010Prop28
280
     0
102
RTVSPost2010PropOp28
 70
     1
102
RTVSPost2010Prop29
280
     1
102
RTVSPost2010PropOp29
 70
     1
102
RTVSPost2010Prop30
280
     1
102
RTVSPost2010PropOp30
 70
     1
102
RTVSPost2010Prop31
280
     0
102
RTVSPost2010PropOp31
 70
     1
102
RTVSPost2010Prop32
280
     0
102
RTVSPost2010PropOp32
 70
     1
102
RTVSPost2010Prop33
280
     0
102
RTVSPost2010PropOp33
 70
     1
102
RTVSPost2010Prop34
280
     0
102
RTVSPost2010PropOp34
 70
     1
102
RTVSPost2010Prop35
280
     0
102
RTVSPost2010PropOp35
 70
     1
102
RTVSPost2010Prop36
280
     0
102
RTVSPost2010PropOp36
 70
     1
102
RTVSPost2010Prop37
 90
       50
102
RTVSPost2010PropOp37
 70
     1
102
RTVSPost2010Prop38
140
0.0
102
RTVSPost2010PropOp38
 70
     1
102
RTVSPost2010Prop39
140
1.0
102
RTVSPost2010PropOp39
 70
     1
102
RTVSPost2010Prop40
 90
        0
102
RTVSPost2010PropOp40
 70
     1
102
RTVSPost2010Prop41ColorIndex
 90
       18
102
RTVSPost2010Prop41ColorRGB
 90
        0
102
RTVSPost2010PropOp41
 70
     1
102
RTVSPost2010Prop42
 90
       50
102
RTVSPost2010PropOp42
 70
     1
102
RTVSPost2010Prop43
 90
        3
102
RTVSPost2010PropOp43
 70
     1
102
RTVSPost2010Prop44ColorIndex
 90
        5
102
RTVSPost2010Prop44ColorRGB
 90
      255
102
RTVSPost2010PropOp44
 70
     1
102
RTVSPost2010Prop45
280
     0
102
RTVSPost2010PropOp45
 70
     1
102
RTVSPost2010Prop46
 90
       50
102
RTVSPost2010PropOp46
 70
     1
102
RTVSPost2010Prop47
 90
       50
102
RTVSPost2010PropOp47
 70
     1
102
RTVSPost2010Prop48
 90
       50
102
RTVSPost2010PropOp48
 70
     1
102
RTVSPost2010Prop49
280
     0
102
RTVSPost2010PropOp49
 70
     1
102
RTVSPost2010Prop50
 90
       50
102
RTVSPost2010PropOp50
 70
     1
102
RTVSPost2010Prop51ColorIndex
 90
      256
102
RTVSPost2010Prop51ColorRGB
 90
-16777216
102
RTVSPost2010PropOp51
 70
     0
102
RTVSPost2010Prop52
140
1.0
102
RTVSPost2010PropOp52
 70
     0
102
RTVSPost2010Prop53
 90
        2
102
RTVSPost2010PropOp53
 70
     1
102
RTVSPost2010Prop54
  1
strokes_ogs.tif
102
RTVSPost2010PropOp54
 70
     1
102
RTVSPost2010Prop55
280
     0
102
RTVSPost2010PropOp55
 70
     1
102
RTVSPost2010Prop56
140
1.0
102
RTVSPost2010PropOp56
 70
     1
102
RTVSPost2010Prop57
140
1.0
102
RTVSPost2010PropOp57
 70
     1
  0
XRECORD
  5
810
102
{ACAD_REACTORS
330
80F
102
}
330
80F
100
AcDbXrecord
280
     1
102
RTVSPropertyOp0
 70
     0
102
RTVSPropertyOp1
 70
     0
102
RTVSPropertyOp2
 70
     0
102
RTVSPropertyOp3
 70
     0
102
RTVSPropertyOp4
 70
     0
102
RTVSPropertyOp5
 70
     0
102
RTVSPropertyOp6
 70
     0
102
RTVSPropertyOp7
 70
     0
102
RTVSPropertyOp8
 70
     0
102
RTVSPropertyOp9
 70
     0
102
RTVSPropertyOp10
 70
     0
102
RTVSPropertyOp11
 70
     0
102
RTVSPropertyOp12
 70
     0
102
RTVSPropertyOp13
 70
     0
102
RTVSPropertyOp14
 70
     0
102
RTVSPropertyOp15
 70
     0
102
RTVSPropertyOp16
 70
     0
102
RTVSPropertyOp17
 70
     0
102
RTVSPropertyOp18
 70
     0
102
RTVSPropertyOp19
 70
     0
102
RTVSPropertyOp20
 70
     0
102
RTVSPropertyOp21
 70
     0
102
RTVSPropertyOp22
 70
     0
102
RTVSPropertyOp23
 70
     0
102
RTVSPropertyOp24
 70
     0
102
RTVSPropertyOp25
 70
     0
102
RTVSPropertyOp26
 70
     0
102
RTVSPropertyOp27
 70
     0
102
RTVSPropertyOp28
 70
     1
102
RTVSPropertyOp29
 70
     1
102
RTVSPropertyOp30
 70
     1
102
RTVSPropertyOp31
 70
     1
102
RTVSPropertyOp32
 70
     1
102
RTVSPropertyOp33
 70
     1
102
RTVSPropertyOp34
 70
     1
102
RTVSPropertyOp35
 70
     1
102
RTVSPropertyOp36
 70
     1
102
RTVSPropertyOp37
 70
     1
102
RTVSPropertyOp38
 70
     1
102
RTVSPropertyOp39
 70
     1
102
RTVSPropertyOp40
 70
     1
102
RTVSPropertyOp41
 70
     1
102
RTVSPropertyOp42
 70
     1
102
RTVSPropertyOp43
 70
     1
102
RTVSPropertyOp44
 70
     1
102
RTVSPropertyOp45
 70
     1
102
RTVSPropertyOp46
 70
     1
102
RTVSPropertyOp47
 70
     1
102
RTVSPropertyOp48
 70
     1
102
RTVSPropertyOp49
 70
     1
102
RTVSPropertyOp50
 70
     1
102
RTVSPropertyOp51
 70
     0
102
RTVSPropertyOp52
 70
     0
102
RTVSPropertyOp53
 70
     1
102
RTVSPropertyOp54
 70
     1
102
RTVSPropertyOp55
 70
     1
102
RTVSPropertyOp56
 70
     1
102
RTVSPropertyOp57
 70
     1
102
RTVSPost2010Prop28
280
     0
102
RTVSPost2010PropOp28
 70
     1
102
RTVSPost2010Prop29
280
     1
102
RTVSPost2010PropOp29
 70
     1
102
RTVSPost2010Prop30
280
     1
102
RTVSPost2010PropOp30
 70
     1
102
RTVSPost2010Prop31
280
     0
102
RTVSPost2010PropOp31
 70
     1
102
RTVSPost2010Prop32
280
     0
102
RTVSPost2010PropOp32
 70
     1
102
RTVSPost2010Prop33
280
     0
102
RTVSPost2010PropOp33
 70
     1
102
RTVSPost2010Prop34
280
     0
102
RTVSPost2010PropOp34
 70
     1
102
RTVSPost2010Prop35
280
     0
102
RTVSPost2010PropOp35
 70
     1
102
RTVSPost2010Prop36
280
     0
102
RTVSPost2010PropOp36
 70
     1
102
RTVSPost2010Prop37
 90
       50
102
RTVSPost2010PropOp37
 70
     1
102
RTVSPost2010Prop38
140
0.0
102
RTVSPost2010PropOp38
 70
     1
102
RTVSPost2010Prop39
140
1.0
102
RTVSPost2010PropOp39
 70
     1
102
RTVSPost2010Prop40
 90
        0
102
RTVSPost2010PropOp40
 70
     1
102
RTVSPost2010Prop41ColorIndex
 90
       18
102
RTVSPost2010Prop41ColorRGB
 90
        0
102
RTVSPost2010PropOp41
 70
     1
102
RTVSPost2010Prop42
 90
       50
102
RTVSPost2010PropOp42
 70
     1
102
RTVSPost2010Prop43
 90
        3
102
RTVSPost2010PropOp43
 70
     1
102
RTVSPost2010Prop44ColorIndex
 90
        5
102
RTVSPost2010Prop44ColorRGB
 90
      255
102
RTVSPost2010PropOp44
 70
     1
102
RTVSPost2010Prop45
280
     0
102
RTVSPost2010PropOp45
 70
     1
102
RTVSPost2010Prop46
 90
       50
102
RTVSPost2010PropOp46
 70
     1
102
RTVSPost2010Prop47
 90
       50
102
RTVSPost2010PropOp47
 70
     1
102
RTVSPost2010Prop48
 90
       50
102
RTVSPost2010PropOp48
 70
     1
102
RTVSPost2010Prop49
280
     0
102
RTVSPost2010PropOp49
 70
     1
102
RTVSPost2010Prop50
 90
       50
102
RTVSPost2010PropOp50
 70
     1
102
RTVSPost2010Prop51ColorIndex
 90
      256
102
RTVSPost2010Prop51ColorRGB
 90
-16777216
102
RTVSPost2010PropOp51
 70
     0
102
RTVSPost2010Prop52
140
1.0
102
RTVSPost2010PropOp52
 70
     0
102
RTVSPost2010Prop53
 90
        2
102
RTVSPost2010PropOp53
 70
     1
102
RTVSPost2010Prop54
  1
strokes_ogs.tif
102
RTVSPost2010PropOp54
 70
     1
102
RTVSPost2010Prop55
280
     0
102
RTVSPost2010PropOp55
 70
     1
102
RTVSPost2010Prop56
140
1.0
102
RTVSPost2010PropOp56
 70
     1
102
RTVSPost2010Prop57
140
1.0
102
RTVSPost2010PropOp57
 70
     1
  0
XRECORD
  5
7EE
102
{ACAD_REACTORS
330
7ED
102
}
330
7ED
100
AcDbXrecord
280
     1
102
RTVSPropertyOp0
 70
     1
102
RTVSPropertyOp1
 70
     1
102
RTVSPropertyOp2
 70
     1
102
RTVSPropertyOp3
 70
     1
102
RTVSPropertyOp4
 70
     1
102
RTVSPropertyOp5
 70
     1
102
RTVSPropertyOp6
 70
     1
102
RTVSPropertyOp7
 70
     1
102
RTVSPropertyOp8
 70
     1
102
RTVSPropertyOp9
 70
     1
102
RTVSPropertyOp10
 70
     1
102
RTVSPropertyOp11
 70
     1
102
RTVSPropertyOp12
 70
     1
102
RTVSPropertyOp13
 70
     1
102
RTVSPropertyOp14
 70
     1
102
RTVSPropertyOp15
 70
     1
102
RTVSPropertyOp16
 70
     1
102
RTVSPropertyOp17
 70
     1
102
RTVSPropertyOp18
 70
     1
102
RTVSPropertyOp19
 70
     1
102
RTVSPropertyOp20
 70
     1
102
RTVSPropertyOp21
 70
     1
102
RTVSPropertyOp22
 70
     1
102
RTVSPropertyOp23
 70
     1
102
RTVSPropertyOp24
 70
     1
102
RTVSPropertyOp25
 70
     1
102
RTVSPropertyOp26
 70
     1
102
RTVSPropertyOp27
 70
     1
102
RTVSPropertyOp28
 70
     1
102
RTVSPropertyOp29
 70
     1
102
RTVSPropertyOp30
 70
     1
102
RTVSPropertyOp31
 70
     1
102
RTVSPropertyOp32
 70
     1
102
RTVSPropertyOp33
 70
     1
102
RTVSPropertyOp34
 70
     1
102
RTVSPropertyOp35
 70
     1
102
RTVSPropertyOp36
 70
     1
102
RTVSPropertyOp37
 70
     1
102
RTVSPropertyOp38
 70
     1
102
RTVSPropertyOp39
 70
     1
102
RTVSPropertyOp40
 70
     1
102
RTVSPropertyOp41
 70
     1
102
RTVSPropertyOp42
 70
     1
102
RTVSPropertyOp43
 70
     1
102
RTVSPropertyOp44
 70
     1
102
RTVSPropertyOp45
 70
     1
102
RTVSPropertyOp46
 70
     1
102
RTVSPropertyOp47
 70
     1
102
RTVSPropertyOp48
 70
     1
102
RTVSPropertyOp49
 70
     1
102
RTVSPropertyOp50
 70
     1
102
RTVSPropertyOp51
 70
     0
102
RTVSPropertyOp52
 70
     0
102
RTVSPropertyOp53
 70
     1
102
RTVSPropertyOp54
 70
     1
102
RTVSPropertyOp55
 70
     1
102
RTVSPropertyOp56
 70
     1
102
RTVSPropertyOp57
 70
     1
102
RTVSPost2010Prop28
280
     0
102
RTVSPost2010PropOp28
 70
     1
102
RTVSPost2010Prop29
280
     1
102
RTVSPost2010PropOp29
 70
     1
102
RTVSPost2010Prop30
280
     1
102
RTVSPost2010PropOp30
 70
     1
102
RTVSPost2010Prop31
280
     0
102
RTVSPost2010PropOp31
 70
     1
102
RTVSPost2010Prop32
280
     0
102
RTVSPost2010PropOp32
 70
     1
102
RTVSPost2010Prop33
280
     0
102
RTVSPost2010PropOp33
 70
     1
102
RTVSPost2010Prop34
280
     0
102
RTVSPost2010PropOp34
 70
     1
102
RTVSPost2010Prop35
280
     0
102
RTVSPost2010PropOp35
 70
     1
102
RTVSPost2010Prop36
280
     0
102
RTVSPost2010PropOp36
 70
     1
102
RTVSPost2010Prop37
 90
       50
102
RTVSPost2010PropOp37
 70
     1
102
RTVSPost2010Prop38
140
0.0
102
RTVSPost2010PropOp38
 70
     1
102
RTVSPost2010Prop39
140
1.0
102
RTVSPost2010PropOp39
 70
     1
102
RTVSPost2010Prop40
 90
        0
102
RTVSPost2010PropOp40
 70
     1
102
RTVSPost2010Prop41ColorIndex
 90
       18
102
RTVSPost2010Prop41ColorRGB
 90
        0
102
RTVSPost2010PropOp41
 70
     1
102
RTVSPost2010Prop42
 90
       50
102
RTVSPost2010PropOp42
 70
     1
102
RTVSPost2010Prop43
 90
        3
102
RTVSPost2010PropOp43
 70
     1
102
RTVSPost2010Prop44ColorIndex
 90
        5
102
RTVSPost2010Prop44ColorRGB
 90
      255
102
RTVSPost2010PropOp44
 70
     1
102
RTVSPost2010Prop45
280
     0
102
RTVSPost2010PropOp45
 70
     1
102
RTVSPost2010Prop46
 90
       50
102
RTVSPost2010PropOp46
 70
     1
102
RTVSPost2010Prop47
 90
       50
102
RTVSPost2010PropOp47
 70
     1
102
RTVSPost2010Prop48
 90
       50
102
RTVSPost2010PropOp48
 70
     1
102
RTVSPost2010Prop49
280
     0
102
RTVSPost2010PropOp49
 70
     1
102
RTVSPost2010Prop50
 90
       50
102
RTVSPost2010PropOp50
 70
     1
102
RTVSPost2010Prop51ColorIndex
 90
      256
102
RTVSPost2010Prop51ColorRGB
 90
-16777216
102
RTVSPost2010PropOp51
 70
     0
102
RTVSPost2010Prop52
140
1.0
102
RTVSPost2010PropOp52
 70
     0
102
RTVSPost2010Prop53
 90
        2
102
RTVSPost2010PropOp53
 70
     1
102
RTVSPost2010Prop54
  1
strokes_ogs.tif
102
RTVSPost2010PropOp54
 70
     1
102
RTVSPost2010Prop55
280
     0
102
RTVSPost2010PropOp55
 70
     1
102
RTVSPost2010Prop56
140
1.0
102
RTVSPost2010PropOp56
 70
     1
102
RTVSPost2010Prop57
140
1.0
102
RTVSPost2010PropOp57
 70
     1
  0
XRECORD
  5
81C
102
{ACAD_REACTORS
330
81B
102
}
330
81B
100
AcDbXrecord
280
     1
102
RTVSPropertyOp0
 70
     1
102
RTVSPropertyOp1
 70
     1
102
RTVSPropertyOp2
 70
     1
102
RTVSPropertyOp3
 70
     1
102
RTVSPropertyOp4
 70
     1
102
RTVSPropertyOp5
 70
     1
102
RTVSPropertyOp6
 70
     1
102
RTVSPropertyOp7
 70
     1
102
RTVSPropertyOp8
 70
     1
102
RTVSPropertyOp9
 70
     1
102
RTVSPropertyOp10
 70
     1
102
RTVSPropertyOp11
 70
     1
102
RTVSPropertyOp12
 70
     1
102
RTVSPropertyOp13
 70
     1
102
RTVSPropertyOp14
 70
     1
102
RTVSPropertyOp15
 70
     1
102
RTVSPropertyOp16
 70
     1
102
RTVSPropertyOp17
 70
     1
102
RTVSPropertyOp18
 70
     1
102
RTVSPropertyOp19
 70
     1
102
RTVSPropertyOp20
 70
     1
102
RTVSPropertyOp21
 70
     1
102
RTVSPropertyOp22
 70
     1
102
RTVSPropertyOp23
 70
     1
102
RTVSPropertyOp24
 70
     1
102
RTVSPropertyOp25
 70
     1
102
RTVSPropertyOp26
 70
     1
102
RTVSPropertyOp27
 70
     1
102
RTVSPropertyOp28
 70
     1
102
RTVSPropertyOp29
 70
     1
102
RTVSPropertyOp30
 70
     1
102
RTVSPropertyOp31
 70
     1
102
RTVSPropertyOp32
 70
     1
102
RTVSPropertyOp33
 70
     1
102
RTVSPropertyOp34
 70
     1
102
RTVSPropertyOp35
 70
     1
102
RTVSPropertyOp36
 70
     1
102
RTVSPropertyOp37
 70
     1
102
RTVSPropertyOp38
 70
     1
102
RTVSPropertyOp39
 70
     1
102
RTVSPropertyOp40
 70
     1
102
RTVSPropertyOp41
 70
     1
102
RTVSPropertyOp42
 70
     1
102
RTVSPropertyOp43
 70
     1
102
RTVSPropertyOp44
 70
     1
102
RTVSPropertyOp45
 70
     1
102
RTVSPropertyOp46
 70
     1
102
RTVSPropertyOp47
 70
     1
102
RTVSPropertyOp48
 70
     1
102
RTVSPropertyOp49
 70
     1
102
RTVSPropertyOp50
 70
     1
102
RTVSPropertyOp51
 70
     0
102
RTVSPropertyOp52
 70
     0
102
RTVSPropertyOp53
 70
     1
102
RTVSPropertyOp54
 70
     1
102
RTVSPropertyOp55
 70
     1
102
RTVSPropertyOp56
 70
     1
102
RTVSPropertyOp57
 70
     1
102
RTVSPost2010Prop28
280
     0
102
RTVSPost2010PropOp28
 70
     1
102
RTVSPost2010Prop29
280
     1
102
RTVSPost2010PropOp29
 70
     1
102
RTVSPost2010Prop30
280
     1
102
RTVSPost2010PropOp30
 70
     1
102
RTVSPost2010Prop31
280
     0
102
RTVSPost2010PropOp31
 70
     1
102
RTVSPost2010Prop32
280
     0
102
RTVSPost2010PropOp32
 70
     1
102
RTVSPost2010Prop33
280
     0
102
RTVSPost2010PropOp33
 70
     1
102
RTVSPost2010Prop34
280
     0
102
RTVSPost2010PropOp34
 70
     1
102
RTVSPost2010Prop35
280
     0
102
RTVSPost2010PropOp35
 70
     1
102
RTVSPost2010Prop36
280
     0
102
RTVSPost2010PropOp36
 70
     1
102
RTVSPost2010Prop37
 90
       50
102
RTVSPost2010PropOp37
 70
     1
102
RTVSPost2010Prop38
140
0.0
102
RTVSPost2010PropOp38
 70
     1
102
RTVSPost2010Prop39
140
1.0
102
RTVSPost2010PropOp39
 70
     1
102
RTVSPost2010Prop40
 90
        0
102
RTVSPost2010PropOp40
 70
     1
102
RTVSPost2010Prop41ColorIndex
 90
       18
102
RTVSPost2010Prop41ColorRGB
 90
        0
102
RTVSPost2010PropOp41
 70
     1
102
RTVSPost2010Prop42
 90
       50
102
RTVSPost2010PropOp42
 70
     1
102
RTVSPost2010Prop43
 90
        3
102
RTVSPost2010PropOp43
 70
     1
102
RTVSPost2010Prop44ColorIndex
 90
        5
102
RTVSPost2010Prop44ColorRGB
 90
      255
102
RTVSPost2010PropOp44
 70
     1
102
RTVSPost2010Prop45
280
     0
102
RTVSPost2010PropOp45
 70
     1
102
RTVSPost2010Prop46
 90
       50
102
RTVSPost2010PropOp46
 70
     1
102
RTVSPost2010Prop47
 90
       50
102
RTVSPost2010PropOp47
 70
     1
102
RTVSPost2010Prop48
 90
       50
102
RTVSPost2010PropOp48
 70
     1
102
RTVSPost2010Prop49
280
     0
102
RTVSPost2010PropOp49
 70
     1
102
RTVSPost2010Prop50
 90
       50
102
RTVSPost2010PropOp50
 70
     1
102
RTVSPost2010Prop51ColorIndex
 90
      256
102
RTVSPost2010Prop51ColorRGB
 90
-16777216
102
RTVSPost2010PropOp51
 70
     0
102
RTVSPost2010Prop52
140
1.0
102
RTVSPost2010PropOp52
 70
     0
102
RTVSPost2010Prop53
 90
        2
102
RTVSPost2010PropOp53
 70
     1
102
RTVSPost2010Prop54
  1
strokes_ogs.tif
102
RTVSPost2010PropOp54
 70
     1
102
RTVSPost2010Prop55
280
     0
102
RTVSPost2010PropOp55
 70
     1
102
RTVSPost2010Prop56
140
1.0
102
RTVSPost2010PropOp56
 70
     1
102
RTVSPost2010Prop57
140
1.0
102
RTVSPost2010PropOp57
 70
     1
  0
XRECORD
  5
81A
102
{ACAD_REACTORS
330
819
102
}
330
819
100
AcDbXrecord
280
     1
102
RTVSPropertyOp0
 70
     1
102
RTVSPropertyOp1
 70
     1
102
RTVSPropertyOp2
 70
     1
102
RTVSPropertyOp3
 70
     1
102
RTVSPropertyOp4
 70
     1
102
RTVSPropertyOp5
 70
     1
102
RTVSPropertyOp6
 70
     1
102
RTVSPropertyOp7
 70
     1
102
RTVSPropertyOp8
 70
     1
102
RTVSPropertyOp9
 70
     1
102
RTVSPropertyOp10
 70
     1
102
RTVSPropertyOp11
 70
     1
102
RTVSPropertyOp12
 70
     1
102
RTVSPropertyOp13
 70
     1
102
RTVSPropertyOp14
 70
     1
102
RTVSPropertyOp15
 70
     1
102
RTVSPropertyOp16
 70
     1
102
RTVSPropertyOp17
 70
     1
102
RTVSPropertyOp18
 70
     1
102
RTVSPropertyOp19
 70
     1
102
RTVSPropertyOp20
 70
     1
102
RTVSPropertyOp21
 70
     1
102
RTVSPropertyOp22
 70
     1
102
RTVSPropertyOp23
 70
     1
102
RTVSPropertyOp24
 70
     1
102
RTVSPropertyOp25
 70
     1
102
RTVSPropertyOp26
 70
     1
102
RTVSPropertyOp27
 70
     1
102
RTVSPropertyOp28
 70
     1
102
RTVSPropertyOp29
 70
     1
102
RTVSPropertyOp30
 70
     1
102
RTVSPropertyOp31
 70
     1
102
RTVSPropertyOp32
 70
     1
102
RTVSPropertyOp33
 70
     1
102
RTVSPropertyOp34
 70
     1
102
RTVSPropertyOp35
 70
     1
102
RTVSPropertyOp36
 70
     1
102
RTVSPropertyOp37
 70
     1
102
RTVSPropertyOp38
 70
     1
102
RTVSPropertyOp39
 70
     1
102
RTVSPropertyOp40
 70
     1
102
RTVSPropertyOp41
 70
     1
102
RTVSPropertyOp42
 70
     1
102
RTVSPropertyOp43
 70
     1
102
RTVSPropertyOp44
 70
     1
102
RTVSPropertyOp45
 70
     1
102
RTVSPropertyOp46
 70
     1
102
RTVSPropertyOp47
 70
     1
102
RTVSPropertyOp48
 70
     1
102
RTVSPropertyOp49
 70
     1
102
RTVSPropertyOp50
 70
     1
102
RTVSPropertyOp51
 70
     0
102
RTVSPropertyOp52
 70
     0
102
RTVSPropertyOp53
 70
     1
102
RTVSPropertyOp54
 70
     1
102
RTVSPropertyOp55
 70
     1
102
RTVSPropertyOp56
 70
     1
102
RTVSPropertyOp57
 70
     1
102
RTVSPost2010Prop28
280
     0
102
RTVSPost2010PropOp28
 70
     1
102
RTVSPost2010Prop29
280
     1
102
RTVSPost2010PropOp29
 70
     1
102
RTVSPost2010Prop30
280
     1
102
RTVSPost2010PropOp30
 70
     1
102
RTVSPost2010Prop31
280
     0
102
RTVSPost2010PropOp31
 70
     1
102
RTVSPost2010Prop32
280
     0
102
RTVSPost2010PropOp32
 70
     1
102
RTVSPost2010Prop33
280
     0
102
RTVSPost2010PropOp33
 70
     1
102
RTVSPost2010Prop34
280
     0
102
RTVSPost2010PropOp34
 70
     1
102
RTVSPost2010Prop35
280
     0
102
RTVSPost2010PropOp35
 70
     1
102
RTVSPost2010Prop36
280
     0
102
RTVSPost2010PropOp36
 70
     1
102
RTVSPost2010Prop37
 90
       50
102
RTVSPost2010PropOp37
 70
     1
102
RTVSPost2010Prop38
140
0.0
102
RTVSPost2010PropOp38
 70
     1
102
RTVSPost2010Prop39
140
1.0
102
RTVSPost2010PropOp39
 70
     1
102
RTVSPost2010Prop40
 90
        0
102
RTVSPost2010PropOp40
 70
     1
102
RTVSPost2010Prop41ColorIndex
 90
       18
102
RTVSPost2010Prop41ColorRGB
 90
        0
102
RTVSPost2010PropOp41
 70
     1
102
RTVSPost2010Prop42
 90
       50
102
RTVSPost2010PropOp42
 70
     1
102
RTVSPost2010Prop43
 90
        3
102
RTVSPost2010PropOp43
 70
     1
102
RTVSPost2010Prop44ColorIndex
 90
        5
102
RTVSPost2010Prop44ColorRGB
 90
      255
102
RTVSPost2010PropOp44
 70
     1
102
RTVSPost2010Prop45
280
     0
102
RTVSPost2010PropOp45
 70
     1
102
RTVSPost2010Prop46
 90
       50
102
RTVSPost2010PropOp46
 70
     1
102
RTVSPost2010Prop47
 90
       50
102
RTVSPost2010PropOp47
 70
     1
102
RTVSPost2010Prop48
 90
       50
102
RTVSPost2010PropOp48
 70
     1
102
RTVSPost2010Prop49
280
     0
102
RTVSPost2010PropOp49
 70
     1
102
RTVSPost2010Prop50
 90
       50
102
RTVSPost2010PropOp50
 70
     1
102
RTVSPost2010Prop51ColorIndex
 90
      256
102
RTVSPost2010Prop51ColorRGB
 90
-16777216
102
RTVSPost2010PropOp51
 70
     0
102
RTVSPost2010Prop52
140
1.0
102
RTVSPost2010PropOp52
 70
     0
102
RTVSPost2010Prop53
 90
        2
102
RTVSPost2010PropOp53
 70
     1
102
RTVSPost2010Prop54
  1
strokes_ogs.tif
102
RTVSPost2010PropOp54
 70
     1
102
RTVSPost2010Prop55
280
     0
102
RTVSPost2010PropOp55
 70
     1
102
RTVSPost2010Prop56
140
1.0
102
RTVSPost2010PropOp56
 70
     1
102
RTVSPost2010Prop57
140
1.0
102
RTVSPost2010PropOp57
 70
     1
  0
XRECORD
  5
814
102
{ACAD_REACTORS
330
813
102
}
330
813
100
AcDbXrecord
280
     1
102
RTVSPropertyOp0
 70
     1
102
RTVSPropertyOp1
 70
     1
102
RTVSPropertyOp2
 70
     1
102
RTVSPropertyOp3
 70
     1
102
RTVSPropertyOp4
 70
     1
102
RTVSPropertyOp5
 70
     1
102
RTVSPropertyOp6
 70
     1
102
RTVSPropertyOp7
 70
     1
102
RTVSPropertyOp8
 70
     1
102
RTVSPropertyOp9
 70
     1
102
RTVSPropertyOp10
 70
     1
102
RTVSPropertyOp11
 70
     1
102
RTVSPropertyOp12
 70
     1
102
RTVSPropertyOp13
 70
     1
102
RTVSPropertyOp14
 70
     1
102
RTVSPropertyOp15
 70
     1
102
RTVSPropertyOp16
 70
     1
102
RTVSPropertyOp17
 70
     1
102
RTVSPropertyOp18
 70
     1
102
RTVSPropertyOp19
 70
     1
102
RTVSPropertyOp20
 70
     1
102
RTVSPropertyOp21
 70
     1
102
RTVSPropertyOp22
 70
     1
102
RTVSPropertyOp23
 70
     1
102
RTVSPropertyOp24
 70
     1
102
RTVSPropertyOp25
 70
     1
102
RTVSPropertyOp26
 70
     1
102
RTVSPropertyOp27
 70
     1
102
RTVSPropertyOp28
 70
     1
102
RTVSPropertyOp29
 70
     1
102
RTVSPropertyOp30
 70
     1
102
RTVSPropertyOp31
 70
     1
102
RTVSPropertyOp32
 70
     1
102
RTVSPropertyOp33
 70
     1
102
RTVSPropertyOp34
 70
     1
102
RTVSPropertyOp35
 70
     1
102
RTVSPropertyOp36
 70
     1
102
RTVSPropertyOp37
 70
     1
102
RTVSPropertyOp38
 70
     1
102
RTVSPropertyOp39
 70
     1
102
RTVSPropertyOp40
 70
     1
102
RTVSPropertyOp41
 70
     1
102
RTVSPropertyOp42
 70
     1
102
RTVSPropertyOp43
 70
     1
102
RTVSPropertyOp44
 70
     1
102
RTVSPropertyOp45
 70
     1
102
RTVSPropertyOp46
 70
     1
102
RTVSPropertyOp47
 70
     1
102
RTVSPropertyOp48
 70
     1
102
RTVSPropertyOp49
 70
     1
102
RTVSPropertyOp50
 70
     1
102
RTVSPropertyOp51
 70
     0
102
RTVSPropertyOp52
 70
     0
102
RTVSPropertyOp53
 70
     1
102
RTVSPropertyOp54
 70
     1
102
RTVSPropertyOp55
 70
     1
102
RTVSPropertyOp56
 70
     1
102
RTVSPropertyOp57
 70
     1
102
RTVSPost2010Prop28
280
     0
102
RTVSPost2010PropOp28
 70
     1
102
RTVSPost2010Prop29
280
     1
102
RTVSPost2010PropOp29
 70
     1
102
RTVSPost2010Prop30
280
     1
102
RTVSPost2010PropOp30
 70
     1
102
RTVSPost2010Prop31
280
     0
102
RTVSPost2010PropOp31
 70
     1
102
RTVSPost2010Prop32
280
     0
102
RTVSPost2010PropOp32
 70
     1
102
RTVSPost2010Prop33
280
     0
102
RTVSPost2010PropOp33
 70
     1
102
RTVSPost2010Prop34
280
     0
102
RTVSPost2010PropOp34
 70
     1
102
RTVSPost2010Prop35
280
     0
102
RTVSPost2010PropOp35
 70
     1
102
RTVSPost2010Prop36
280
     0
102
RTVSPost2010PropOp36
 70
     1
102
RTVSPost2010Prop37
 90
       50
102
RTVSPost2010PropOp37
 70
     1
102
RTVSPost2010Prop38
140
0.0
102
RTVSPost2010PropOp38
 70
     1
102
RTVSPost2010Prop39
140
1.0
102
RTVSPost2010PropOp39
 70
     1
102
RTVSPost2010Prop40
 90
        0
102
RTVSPost2010PropOp40
 70
     1
102
RTVSPost2010Prop41ColorIndex
 90
       18
102
RTVSPost2010Prop41ColorRGB
 90
        0
102
RTVSPost2010PropOp41
 70
     1
102
RTVSPost2010Prop42
 90
       50
102
RTVSPost2010PropOp42
 70
     1
102
RTVSPost2010Prop43
 90
        3
102
RTVSPost2010PropOp43
 70
     1
102
RTVSPost2010Prop44ColorIndex
 90
        5
102
RTVSPost2010Prop44ColorRGB
 90
      255
102
RTVSPost2010PropOp44
 70
     1
102
RTVSPost2010Prop45
280
     0
102
RTVSPost2010PropOp45
 70
     1
102
RTVSPost2010Prop46
 90
       50
102
RTVSPost2010PropOp46
 70
     1
102
RTVSPost2010Prop47
 90
       50
102
RTVSPost2010PropOp47
 70
     1
102
RTVSPost2010Prop48
 90
       50
102
RTVSPost2010PropOp48
 70
     1
102
RTVSPost2010Prop49
280
     0
102
RTVSPost2010PropOp49
 70
     1
102
RTVSPost2010Prop50
 90
       50
102
RTVSPost2010PropOp50
 70
     1
102
RTVSPost2010Prop51ColorIndex
 90
      256
102
RTVSPost2010Prop51ColorRGB
 90
-16777216
102
RTVSPost2010PropOp51
 70
     0
102
RTVSPost2010Prop52
140
1.0
102
RTVSPost2010PropOp52
 70
     0
102
RTVSPost2010Prop53
 90
        2
102
RTVSPost2010PropOp53
 70
     1
102
RTVSPost2010Prop54
  1
strokes_ogs.tif
102
RTVSPost2010PropOp54
 70
     1
102
RTVSPost2010Prop55
280
     0
102
RTVSPost2010PropOp55
 70
     1
102
RTVSPost2010Prop56
140
1.0
102
RTVSPost2010PropOp56
 70
     1
102
RTVSPost2010Prop57
140
1.0
102
RTVSPost2010PropOp57
 70
     1
  0
XRECORD
  5
816
102
{ACAD_REACTORS
330
815
102
}
330
815
100
AcDbXrecord
280
     1
102
RTVSPropertyOp0
 70
     1
102
RTVSPropertyOp1
 70
     1
102
RTVSPropertyOp2
 70
     1
102
RTVSPropertyOp3
 70
     1
102
RTVSPropertyOp4
 70
     1
102
RTVSPropertyOp5
 70
     1
102
RTVSPropertyOp6
 70
     1
102
RTVSPropertyOp7
 70
     1
102
RTVSPropertyOp8
 70
     1
102
RTVSPropertyOp9
 70
     1
102
RTVSPropertyOp10
 70
     1
102
RTVSPropertyOp11
 70
     1
102
RTVSPropertyOp12
 70
     1
102
RTVSPropertyOp13
 70
     1
102
RTVSPropertyOp14
 70
     1
102
RTVSPropertyOp15
 70
     1
102
RTVSPropertyOp16
 70
     1
102
RTVSPropertyOp17
 70
     1
102
RTVSPropertyOp18
 70
     1
102
RTVSPropertyOp19
 70
     1
102
RTVSPropertyOp20
 70
     1
102
RTVSPropertyOp21
 70
     1
102
RTVSPropertyOp22
 70
     1
102
RTVSPropertyOp23
 70
     1
102
RTVSPropertyOp24
 70
     1
102
RTVSPropertyOp25
 70
     1
102
RTVSPropertyOp26
 70
     1
102
RTVSPropertyOp27
 70
     1
102
RTVSPropertyOp28
 70
     1
102
RTVSPropertyOp29
 70
     1
102
RTVSPropertyOp30
 70
     1
102
RTVSPropertyOp31
 70
     1
102
RTVSPropertyOp32
 70
     1
102
RTVSPropertyOp33
 70
     1
102
RTVSPropertyOp34
 70
     1
102
RTVSPropertyOp35
 70
     1
102
RTVSPropertyOp36
 70
     1
102
RTVSPropertyOp37
 70
     1
102
RTVSPropertyOp38
 70
     1
102
RTVSPropertyOp39
 70
     1
102
RTVSPropertyOp40
 70
     1
102
RTVSPropertyOp41
 70
     1
102
RTVSPropertyOp42
 70
     1
102
RTVSPropertyOp43
 70
     1
102
RTVSPropertyOp44
 70
     1
102
RTVSPropertyOp45
 70
     1
102
RTVSPropertyOp46
 70
     1
102
RTVSPropertyOp47
 70
     1
102
RTVSPropertyOp48
 70
     1
102
RTVSPropertyOp49
 70
     1
102
RTVSPropertyOp50
 70
     1
102
RTVSPropertyOp51
 70
     0
102
RTVSPropertyOp52
 70
     0
102
RTVSPropertyOp53
 70
     1
102
RTVSPropertyOp54
 70
     1
102
RTVSPropertyOp55
 70
     1
102
RTVSPropertyOp56
 70
     1
102
RTVSPropertyOp57
 70
     1
102
RTVSPost2010Prop28
280
     0
102
RTVSPost2010PropOp28
 70
     1
102
RTVSPost2010Prop29
280
     1
102
RTVSPost2010PropOp29
 70
     1
102
RTVSPost2010Prop30
280
     1
102
RTVSPost2010PropOp30
 70
     1
102
RTVSPost2010Prop31
280
     0
102
RTVSPost2010PropOp31
 70
     1
102
RTVSPost2010Prop32
280
     0
102
RTVSPost2010PropOp32
 70
     1
102
RTVSPost2010Prop33
280
     0
102
RTVSPost2010PropOp33
 70
     1
102
RTVSPost2010Prop34
280
     0
102
RTVSPost2010PropOp34
 70
     1
102
RTVSPost2010Prop35
280
     0
102
RTVSPost2010PropOp35
 70
     1
102
RTVSPost2010Prop36
280
     0
102
RTVSPost2010PropOp36
 70
     1
102
RTVSPost2010Prop37
 90
       50
102
RTVSPost2010PropOp37
 70
     1
102
RTVSPost2010Prop38
140
0.0
102
RTVSPost2010PropOp38
 70
     1
102
RTVSPost2010Prop39
140
1.0
102
RTVSPost2010PropOp39
 70
     1
102
RTVSPost2010Prop40
 90
        0
102
RTVSPost2010PropOp40
 70
     1
102
RTVSPost2010Prop41ColorIndex
 90
       18
102
RTVSPost2010Prop41ColorRGB
 90
        0
102
RTVSPost2010PropOp41
 70
     1
102
RTVSPost2010Prop42
 90
       50
102
RTVSPost2010PropOp42
 70
     1
102
RTVSPost2010Prop43
 90
        3
102
RTVSPost2010PropOp43
 70
     1
102
RTVSPost2010Prop44ColorIndex
 90
        5
102
RTVSPost2010Prop44ColorRGB
 90
      255
102
RTVSPost2010PropOp44
 70
     1
102
RTVSPost2010Prop45
280
     0
102
RTVSPost2010PropOp45
 70
     1
102
RTVSPost2010Prop46
 90
       50
102
RTVSPost2010PropOp46
 70
     1
102
RTVSPost2010Prop47
 90
       50
102
RTVSPost2010PropOp47
 70
     1
102
RTVSPost2010Prop48
 90
       50
102
RTVSPost2010PropOp48
 70
     1
102
RTVSPost2010Prop49
280
     0
102
RTVSPost2010PropOp49
 70
     1
102
RTVSPost2010Prop50
 90
       50
102
RTVSPost2010PropOp50
 70
     1
102
RTVSPost2010Prop51ColorIndex
 90
      256
102
RTVSPost2010Prop51ColorRGB
 90
-16777216
102
RTVSPost2010PropOp51
 70
     0
102
RTVSPost2010Prop52
140
1.0
102
RTVSPost2010PropOp52
 70
     0
102
RTVSPost2010Prop53
 90
        2
102
RTVSPost2010PropOp53
 70
     1
102
RTVSPost2010Prop54
  1
strokes_ogs.tif
102
RTVSPost2010PropOp54
 70
     1
102
RTVSPost2010Prop55
280
     0
102
RTVSPost2010PropOp55
 70
     1
102
RTVSPost2010Prop56
140
1.0
102
RTVSPost2010PropOp56
 70
     1
102
RTVSPost2010Prop57
140
1.0
102
RTVSPost2010PropOp57
 70
     1
  0
XRECORD
  5
806
102
{ACAD_REACTORS
330
805
102
}
330
805
100
AcDbXrecord
280
     1
102
RTVSPropertyOp0
 70
     1
102
RTVSPropertyOp1
 70
     1
102
RTVSPropertyOp2
 70
     1
102
RTVSPropertyOp3
 70
     1
102
RTVSPropertyOp4
 70
     1
102
RTVSPropertyOp5
 70
     1
102
RTVSPropertyOp6
 70
     1
102
RTVSPropertyOp7
 70
     1
102
RTVSPropertyOp8
 70
     1
102
RTVSPropertyOp9
 70
     1
102
RTVSPropertyOp10
 70
     1
102
RTVSPropertyOp11
 70
     1
102
RTVSPropertyOp12
 70
     1
102
RTVSPropertyOp13
 70
     1
102
RTVSPropertyOp14
 70
     1
102
RTVSPropertyOp15
 70
     1
102
RTVSPropertyOp16
 70
     1
102
RTVSPropertyOp17
 70
     1
102
RTVSPropertyOp18
 70
     1
102
RTVSPropertyOp19
 70
     1
102
RTVSPropertyOp20
 70
     1
102
RTVSPropertyOp21
 70
     1
102
RTVSPropertyOp22
 70
     1
102
RTVSPropertyOp23
 70
     1
102
RTVSPropertyOp24
 70
     1
102
RTVSPropertyOp25
 70
     1
102
RTVSPropertyOp26
 70
     1
102
RTVSPropertyOp27
 70
     1
102
RTVSPropertyOp28
 70
     1
102
RTVSPropertyOp29
 70
     1
102
RTVSPropertyOp30
 70
     1
102
RTVSPropertyOp31
 70
     1
102
RTVSPropertyOp32
 70
     1
102
RTVSPropertyOp33
 70
     1
102
RTVSPropertyOp34
 70
     1
102
RTVSPropertyOp35
 70
     1
102
RTVSPropertyOp36
 70
     1
102
RTVSPropertyOp37
 70
     1
102
RTVSPropertyOp38
 70
     1
102
RTVSPropertyOp39
 70
     1
102
RTVSPropertyOp40
 70
     1
102
RTVSPropertyOp41
 70
     1
102
RTVSPropertyOp42
 70
     1
102
RTVSPropertyOp43
 70
     1
102
RTVSPropertyOp44
 70
     1
102
RTVSPropertyOp45
 70
     1
102
RTVSPropertyOp46
 70
     1
102
RTVSPropertyOp47
 70
     1
102
RTVSPropertyOp48
 70
     1
102
RTVSPropertyOp49
 70
     1
102
RTVSPropertyOp50
 70
     1
102
RTVSPropertyOp51
 70
     0
102
RTVSPropertyOp52
 70
     0
102
RTVSPropertyOp53
 70
     1
102
RTVSPropertyOp54
 70
     1
102
RTVSPropertyOp55
 70
     1
102
RTVSPropertyOp56
 70
     1
102
RTVSPropertyOp57
 70
     1
102
RTVSPost2010Prop28
280
     0
102
RTVSPost2010PropOp28
 70
     1
102
RTVSPost2010Prop29
280
     1
102
RTVSPost2010PropOp29
 70
     1
102
RTVSPost2010Prop30
280
     1
102
RTVSPost2010PropOp30
 70
     1
102
RTVSPost2010Prop31
280
     0
102
RTVSPost2010PropOp31
 70
     1
102
RTVSPost2010Prop32
280
     0
102
RTVSPost2010PropOp32
 70
     1
102
RTVSPost2010Prop33
280
     0
102
RTVSPost2010PropOp33
 70
     1
102
RTVSPost2010Prop34
280
     0
102
RTVSPost2010PropOp34
 70
     1
102
RTVSPost2010Prop35
280
     0
102
RTVSPost2010PropOp35
 70
     1
102
RTVSPost2010Prop36
280
     0
102
RTVSPost2010PropOp36
 70
     1
102
RTVSPost2010Prop37
 90
       50
102
RTVSPost2010PropOp37
 70
     1
102
RTVSPost2010Prop38
140
0.0
102
RTVSPost2010PropOp38
 70
     1
102
RTVSPost2010Prop39
140
1.0
102
RTVSPost2010PropOp39
 70
     1
102
RTVSPost2010Prop40
 90
        0
102
RTVSPost2010PropOp40
 70
     1
102
RTVSPost2010Prop41ColorIndex
 90
       18
102
RTVSPost2010Prop41ColorRGB
 90
        0
102
RTVSPost2010PropOp41
 70
     1
102
RTVSPost2010Prop42
 90
       50
102
RTVSPost2010PropOp42
 70
     1
102
RTVSPost2010Prop43
 90
        3
102
RTVSPost2010PropOp43
 70
     1
102
RTVSPost2010Prop44ColorIndex
 90
        5
102
RTVSPost2010Prop44ColorRGB
 90
      255
102
RTVSPost2010PropOp44
 70
     1
102
RTVSPost2010Prop45
280
     0
102
RTVSPost2010PropOp45
 70
     1
102
RTVSPost2010Prop46
 90
       50
102
RTVSPost2010PropOp46
 70
     1
102
RTVSPost2010Prop47
 90
       50
102
RTVSPost2010PropOp47
 70
     1
102
RTVSPost2010Prop48
 90
       50
102
RTVSPost2010PropOp48
 70
     1
102
RTVSPost2010Prop49
280
     0
102
RTVSPost2010PropOp49
 70
     1
102
RTVSPost2010Prop50
 90
       50
102
RTVSPost2010PropOp50
 70
     1
102
RTVSPost2010Prop51ColorIndex
 90
      256
102
RTVSPost2010Prop51ColorRGB
 90
-16777216
102
RTVSPost2010PropOp51
 70
     0
102
RTVSPost2010Prop52
140
1.0
102
RTVSPost2010PropOp52
 70
     0
102
RTVSPost2010Prop53
 90
        2
102
RTVSPost2010PropOp53
 70
     1
102
RTVSPost2010Prop54
  1
strokes_ogs.tif
102
RTVSPost2010PropOp54
 70
     1
102
RTVSPost2010Prop55
280
     0
102
RTVSPost2010PropOp55
 70
     1
102
RTVSPost2010Prop56
140
1.0
102
RTVSPost2010PropOp56
 70
     1
102
RTVSPost2010Prop57
140
1.0
102
RTVSPost2010PropOp57
 70
     1
  0
XRECORD
  5
7F0
102
{ACAD_REACTORS
330
7EF
102
}
330
7EF
100
AcDbXrecord
280
     1
102
RTVSPropertyOp0
 70
     1
102
RTVSPropertyOp1
 70
     1
102
RTVSPropertyOp2
 70
     1
102
RTVSPropertyOp3
 70
     1
102
RTVSPropertyOp4
 70
     1
102
RTVSPropertyOp5
 70
     1
102
RTVSPropertyOp6
 70
     1
102
RTVSPropertyOp7
 70
     1
102
RTVSPropertyOp8
 70
     1
102
RTVSPropertyOp9
 70
     1
102
RTVSPropertyOp10
 70
     1
102
RTVSPropertyOp11
 70
     1
102
RTVSPropertyOp12
 70
     1
102
RTVSPropertyOp13
 70
     1
102
RTVSPropertyOp14
 70
     1
102
RTVSPropertyOp15
 70
     1
102
RTVSPropertyOp16
 70
     1
102
RTVSPropertyOp17
 70
     1
102
RTVSPropertyOp18
 70
     1
102
RTVSPropertyOp19
 70
     1
102
RTVSPropertyOp20
 70
     1
102
RTVSPropertyOp21
 70
     1
102
RTVSPropertyOp22
 70
     1
102
RTVSPropertyOp23
 70
     1
102
RTVSPropertyOp24
 70
     1
102
RTVSPropertyOp25
 70
     1
102
RTVSPropertyOp26
 70
     1
102
RTVSPropertyOp27
 70
     1
102
RTVSPropertyOp28
 70
     1
102
RTVSPropertyOp29
 70
     1
102
RTVSPropertyOp30
 70
     1
102
RTVSPropertyOp31
 70
     1
102
RTVSPropertyOp32
 70
     1
102
RTVSPropertyOp33
 70
     1
102
RTVSPropertyOp34
 70
     1
102
RTVSPropertyOp35
 70
     1
102
RTVSPropertyOp36
 70
     1
102
RTVSPropertyOp37
 70
     1
102
RTVSPropertyOp38
 70
     1
102
RTVSPropertyOp39
 70
     1
102
RTVSPropertyOp40
 70
     1
102
RTVSPropertyOp41
 70
     1
102
RTVSPropertyOp42
 70
     1
102
RTVSPropertyOp43
 70
     1
102
RTVSPropertyOp44
 70
     1
102
RTVSPropertyOp45
 70
     1
102
RTVSPropertyOp46
 70
     1
102
RTVSPropertyOp47
 70
     1
102
RTVSPropertyOp48
 70
     1
102
RTVSPropertyOp49
 70
     1
102
RTVSPropertyOp50
 70
     1
102
RTVSPropertyOp51
 70
     0
102
RTVSPropertyOp52
 70
     0
102
RTVSPropertyOp53
 70
     1
102
RTVSPropertyOp54
 70
     1
102
RTVSPropertyOp55
 70
     1
102
RTVSPropertyOp56
 70
     1
102
RTVSPropertyOp57
 70
     1
102
RTVSPost2010Prop28
280
     0
102
RTVSPost2010PropOp28
 70
     1
102
RTVSPost2010Prop29
280
     1
102
RTVSPost2010PropOp29
 70
     1
102
RTVSPost2010Prop30
280
     1
102
RTVSPost2010PropOp30
 70
     1
102
RTVSPost2010Prop31
280
     0
102
RTVSPost2010PropOp31
 70
     1
102
RTVSPost2010Prop32
280
     0
102
RTVSPost2010PropOp32
 70
     1
102
RTVSPost2010Prop33
280
     0
102
RTVSPost2010PropOp33
 70
     1
102
RTVSPost2010Prop34
280
     0
102
RTVSPost2010PropOp34
 70
     1
102
RTVSPost2010Prop35
280
     0
102
RTVSPost2010PropOp35
 70
     1
102
RTVSPost2010Prop36
280
     0
102
RTVSPost2010PropOp36
 70
     1
102
RTVSPost2010Prop37
 90
       50
102
RTVSPost2010PropOp37
 70
     1
102
RTVSPost2010Prop38
140
0.0
102
RTVSPost2010PropOp38
 70
     1
102
RTVSPost2010Prop39
140
1.0
102
RTVSPost2010PropOp39
 70
     1
102
RTVSPost2010Prop40
 90
        0
102
RTVSPost2010PropOp40
 70
     1
102
RTVSPost2010Prop41ColorIndex
 90
       18
102
RTVSPost2010Prop41ColorRGB
 90
        0
102
RTVSPost2010PropOp41
 70
     1
102
RTVSPost2010Prop42
 90
       50
102
RTVSPost2010PropOp42
 70
     1
102
RTVSPost2010Prop43
 90
        3
102
RTVSPost2010PropOp43
 70
     1
102
RTVSPost2010Prop44ColorIndex
 90
        5
102
RTVSPost2010Prop44ColorRGB
 90
      255
102
RTVSPost2010PropOp44
 70
     1
102
RTVSPost2010Prop45
280
     0
102
RTVSPost2010PropOp45
 70
     1
102
RTVSPost2010Prop46
 90
       50
102
RTVSPost2010PropOp46
 70
     1
102
RTVSPost2010Prop47
 90
       50
102
RTVSPost2010PropOp47
 70
     1
102
RTVSPost2010Prop48
 90
       50
102
RTVSPost2010PropOp48
 70
     1
102
RTVSPost2010Prop49
280
     0
102
RTVSPost2010PropOp49
 70
     1
102
RTVSPost2010Prop50
 90
       50
102
RTVSPost2010PropOp50
 70
     1
102
RTVSPost2010Prop51ColorIndex
 90
      256
102
RTVSPost2010Prop51ColorRGB
 90
-16777216
102
RTVSPost2010PropOp51
 70
     0
102
RTVSPost2010Prop52
140
1.0
102
RTVSPost2010PropOp52
 70
     0
102
RTVSPost2010Prop53
 90
        2
102
RTVSPost2010PropOp53
 70
     1
102
RTVSPost2010Prop54
  1
strokes_ogs.tif
102
RTVSPost2010PropOp54
 70
     1
102
RTVSPost2010Prop55
280
     0
102
RTVSPost2010PropOp55
 70
     1
102
RTVSPost2010Prop56
140
1.0
102
RTVSPost2010PropOp56
 70
     1
102
RTVSPost2010Prop57
140
1.0
102
RTVSPost2010PropOp57
 70
     1
  0
XRECORD
  5
818
102
{ACAD_REACTORS
330
817
102
}
330
817
100
AcDbXrecord
280
     1
102
RTVSPropertyOp0
 70
     1
102
RTVSPropertyOp1
 70
     1
102
RTVSPropertyOp2
 70
     1
102
RTVSPropertyOp3
 70
     1
102
RTVSPropertyOp4
 70
     1
102
RTVSPropertyOp5
 70
     1
102
RTVSPropertyOp6
 70
     1
102
RTVSPropertyOp7
 70
     1
102
RTVSPropertyOp8
 70
     1
102
RTVSPropertyOp9
 70
     1
102
RTVSPropertyOp10
 70
     1
102
RTVSPropertyOp11
 70
     1
102
RTVSPropertyOp12
 70
     1
102
RTVSPropertyOp13
 70
     1
102
RTVSPropertyOp14
 70
     1
102
RTVSPropertyOp15
 70
     1
102
RTVSPropertyOp16
 70
     1
102
RTVSPropertyOp17
 70
     1
102
RTVSPropertyOp18
 70
     1
102
RTVSPropertyOp19
 70
     1
102
RTVSPropertyOp20
 70
     1
102
RTVSPropertyOp21
 70
     1
102
RTVSPropertyOp22
 70
     1
102
RTVSPropertyOp23
 70
     1
102
RTVSPropertyOp24
 70
     1
102
RTVSPropertyOp25
 70
     1
102
RTVSPropertyOp26
 70
     1
102
RTVSPropertyOp27
 70
     1
102
RTVSPropertyOp28
 70
     1
102
RTVSPropertyOp29
 70
     1
102
RTVSPropertyOp30
 70
     1
102
RTVSPropertyOp31
 70
     1
102
RTVSPropertyOp32
 70
     1
102
RTVSPropertyOp33
 70
     1
102
RTVSPropertyOp34
 70
     1
102
RTVSPropertyOp35
 70
     1
102
RTVSPropertyOp36
 70
     1
102
RTVSPropertyOp37
 70
     1
102
RTVSPropertyOp38
 70
     1
102
RTVSPropertyOp39
 70
     1
102
RTVSPropertyOp40
 70
     1
102
RTVSPropertyOp41
 70
     1
102
RTVSPropertyOp42
 70
     1
102
RTVSPropertyOp43
 70
     1
102
RTVSPropertyOp44
 70
     1
102
RTVSPropertyOp45
 70
     1
102
RTVSPropertyOp46
 70
     1
102
RTVSPropertyOp47
 70
     1
102
RTVSPropertyOp48
 70
     1
102
RTVSPropertyOp49
 70
     1
102
RTVSPropertyOp50
 70
     1
102
RTVSPropertyOp51
 70
     0
102
RTVSPropertyOp52
 70
     0
102
RTVSPropertyOp53
 70
     1
102
RTVSPropertyOp54
 70
     1
102
RTVSPropertyOp55
 70
     1
102
RTVSPropertyOp56
 70
     1
102
RTVSPropertyOp57
 70
     1
102
RTVSPost2010Prop28
280
     0
102
RTVSPost2010PropOp28
 70
     1
102
RTVSPost2010Prop29
280
     1
102
RTVSPost2010PropOp29
 70
     1
102
RTVSPost2010Prop30
280
     1
102
RTVSPost2010PropOp30
 70
     1
102
RTVSPost2010Prop31
280
     0
102
RTVSPost2010PropOp31
 70
     1
102
RTVSPost2010Prop32
280
     0
102
RTVSPost2010PropOp32
 70
     1
102
RTVSPost2010Prop33
280
     0
102
RTVSPost2010PropOp33
 70
     1
102
RTVSPost2010Prop34
280
     0
102
RTVSPost2010PropOp34
 70
     1
102
RTVSPost2010Prop35
280
     0
102
RTVSPost2010PropOp35
 70
     1
102
RTVSPost2010Prop36
280
     0
102
RTVSPost2010PropOp36
 70
     1
102
RTVSPost2010Prop37
 90
       50
102
RTVSPost2010PropOp37
 70
     1
102
RTVSPost2010Prop38
140
0.0
102
RTVSPost2010PropOp38
 70
     1
102
RTVSPost2010Prop39
140
1.0
102
RTVSPost2010PropOp39
 70
     1
102
RTVSPost2010Prop40
 90
        0
102
RTVSPost2010PropOp40
 70
     1
102
RTVSPost2010Prop41ColorIndex
 90
       18
102
RTVSPost2010Prop41ColorRGB
 90
        0
102
RTVSPost2010PropOp41
 70
     1
102
RTVSPost2010Prop42
 90
       50
102
RTVSPost2010PropOp42
 70
     1
102
RTVSPost2010Prop43
 90
        3
102
RTVSPost2010PropOp43
 70
     1
102
RTVSPost2010Prop44ColorIndex
 90
        5
102
RTVSPost2010Prop44ColorRGB
 90
      255
102
RTVSPost2010PropOp44
 70
     1
102
RTVSPost2010Prop45
280
     0
102
RTVSPost2010PropOp45
 70
     1
102
RTVSPost2010Prop46
 90
       50
102
RTVSPost2010PropOp46
 70
     1
102
RTVSPost2010Prop47
 90
       50
102
RTVSPost2010PropOp47
 70
     1
102
RTVSPost2010Prop48
 90
       50
102
RTVSPost2010PropOp48
 70
     1
102
RTVSPost2010Prop49
280
     0
102
RTVSPost2010PropOp49
 70
     1
102
RTVSPost2010Prop50
 90
       50
102
RTVSPost2010PropOp50
 70
     1
102
RTVSPost2010Prop51ColorIndex
 90
      256
102
RTVSPost2010Prop51ColorRGB
 90
-16777216
102
RTVSPost2010PropOp51
 70
     0
102
RTVSPost2010Prop52
140
1.0
102
RTVSPost2010PropOp52
 70
     0
102
RTVSPost2010Prop53
 90
        2
102
RTVSPost2010PropOp53
 70
     1
102
RTVSPost2010Prop54
  1
strokes_ogs.tif
102
RTVSPost2010PropOp54
 70
     1
102
RTVSPost2010Prop55
280
     0
102
RTVSPost2010PropOp55
 70
     1
102
RTVSPost2010Prop56
140
1.0
102
RTVSPost2010PropOp56
 70
     1
102
RTVSPost2010Prop57
140
1.0
102
RTVSPost2010PropOp57
 70
     1
  0
ENDSEC
  0
SECTION
  2
THUMBNAILIMAGE
 90
    16364
310
28000000B4000000550000000100080000000000C43B000000000000000000000001000000010000FFFFFF000000FF0000FFFF0000FF0000FFFF0000FF000000FF00FF000000000080808000C0C0C0000000FF007F7FFF000000A5005252A50000007F003F3F7F0000004C0026264C000000260013132600003FFF007F9FFF
310
000029A5005267A500001F7F003F4F7F0000134C00262F4C000009260013172600007FFF007FBFFF000052A500527CA500003F7F003F5F7F0000264C0026394C0000132600131C260000BFFF007FDFFF00007CA5005291A500005F7F003F6F7F0000394C0026424C00001C26001321260000FFFF007FFFFF0000A5A50052A5
310
A500007F7F003F7F7F00004C4C00264C4C00002626001326260000FFBF007FFFDF0000A57C0052A59100007F5F003F7F6F00004C3900264C420000261C001326210000FF7F007FFFBF0000A5520052A57C00007F3F003F7F5F00004C2600264C39000026130013261C0000FF3F007FFF9F0000A5290052A56700007F1F003F
310
7F4F00004C1300264C2F00002609001326170000FF00007FFF7F0000A5000052A55200007F00003F7F3F00004C0000264C260000260000132613003FFF00009FFF7F0029A5000067A552001F7F00004F7F3F00134C00002F4C260009260000172613007FFF0000BFFF7F0052A500007CA552003F7F00005F7F3F00264C0000
310
394C2600132600001C261300BFFF0000DFFF7F007CA5000091A552005F7F00006F7F3F00394C0000424C26001C26000021261300FFFF0000FFFF7F00A5A50000A5A552007F7F00007F7F3F004C4C00004C4C26002626000026261300FFBF0000FFDF7F00A57C0000A59152007F5F00007F6F3F004C3900004C422600261C00
310
0026211300FF7F0000FFBF7F00A5520000A57C52007F3F00007F5F3F004C2600004C39260026130000261C1300FF3F0000FF9F7F00A5290000A56752007F1F00007F4F3F004C1300004C2F26002609000026171300FF000000FF7F7F00A5000000A55252007F0000007F3F3F004C0000004C2626002600000026131300FF00
310
3F00FF7F9F00A5002900A55267007F001F007F3F4F004C0013004C262F002600090026131700FF007F00FF7FBF00A5005200A5527C007F003F007F3F5F004C0026004C2639002600130026131C00FF00BF00FF7FDF00A5007C00A55291007F005F007F3F6F004C0039004C26420026001C0026132100FF00FF00FF7FFF00A5
310
00A500A552A5007F007F007F3F7F004C004C004C264C002600260026132600BF00FF00DF7FFF007C00A5009152A5005F007F006F3F7F0039004C0042264C001C002600211326007F00FF00BF7FFF005200A5007C52A5003F007F005F3F7F0026004C0039264C00130026001C1326003F00FF009F7FFF002900A5006752A500
310
1F007F004F3F7F0013004C002F264C000900260017132600000000002D2D2D005B5B5B0089898900B7B7B700B3B3B30000000000000000000000000000000000000000000000000000000000000000000000000000000000000000000000000000000000000000000000000000000000000000000000000000000000000000
310
00000000000000000000000000000000000000000000000000000000000000000000000000000000000000000000000000000000000000000000000000000000000000000000000000000000000000000000000000000000000000000000000000000000000000000000000000000000000000000000000000000000000000
310
00000000000000000000000000000000000000000000000000000000000000000000000000000000000000000000000000000000000000000000000000000000000000000000000000000000000000000000000000000000000000000000000000000000000000000000000000000000000000000000000000000000000000
310
00000000000000000000000000000000000000000000000000000000000000000000000000000000000000000000000000000000000000000000000000000000000000000000000000000000000000000000000000000000000000000000000000000000000000000000000000000000000000000000000000000000000000
310
00000000000000000000000000000000000000000000000000000000000000000000000000000000000000000000000000000000000000000000000000000000000000000000000000000000000000000000000000000000000000000000000000000000000000000000000000000000000000000000000000000000000000
310
00000000000000000000000000000000000000000000000000000000000000000000000000000000000000000000000000000000000000000000000000000000000000000000000000000000000000000000000000000000000000000000000000000000000000000000000000000000000000000000000000000000000000
310
00000000000000000000000000000000000000000000000000000000000000000000000000000000000000000000000000000000000000000000000000000000000000000000000000000000000000000000000000000000000000000000000000000000000000000000000000000000000000000000000000000000000000
310
00000000000000000000000000000000000000000000000000000000000000000000000000000000000000000000000000000000000000000000000000000000000000000000000000000000000000000000000000000000000000000000000000000100000000000000000000000000000000000000000000010000000000
310
00000000000000000000000000000000010000000000010000000000010000000000000000000000000000000000000000000000000000000000000000000000000000000000000000000000000000000000000000000000000000000000000000000000000000000000000000000000000000000000000000000000000000
310
00000000000000000000000000000000000000000003030303030303030300000000000001000000000000030303030303030303000000000202020202020000000000030301030303030303030303030301030300000000000000000000000000000000000000000000000000000000000000000000000000000000000000
310
00000000000000000000000000000000000000000000000000000000000000000000000000000000000000000000000000000000000000000000000000000000000000000000000000000300000100000003030303030303030103030303030303030303030300000300000000020202000202000000000003000100000000
310
00010000000000010003000000000000000000000000000000000000000000000000000000000000000000000000000000000000000000000000000000000000000000000000000000000000000000000000000000000000000000000000000000000000000000000000000000000000000000000000000000000000000000
310
03030303030303030303030300000103010000030300030303030303030303000000000000000000000000000000030301030303030303030303030301030300000000000000000000000000000000000000000000000000000000000000000000000000000000000000000000000000000000000000000000000000000000
310
00000000000000000000000000000000000000000000000000000000000000000000000000000000000000000000000000000000000303030303030303030003030303030103030303030303030303010303030300000000000000000000000000000000000100030001000100000000030100000000000000000000000000
310
00000000000000000000000000000000000000000000000000000000000000000000000000000000000000000000000000000000000000000000000000000000000000000000000000000000000000000000000000000000000000000000000000000000000000000003030303030303030300030000000000010000000000
310
03000303030303030303030000000000000000000000000000000003010303030303030000000303000000000000000000000000000000000000000000000000000000000000000000000000000000000000000000000000000000000000000000000000000000000000000000000000000000000000000000000000000000
310
00000000000000000000000000000000000000000000000001000000000000030101000000030000030000000000000100000000000003030300000000010303000000000000000000000000000000000003030301030303000000030300000000000000000000000000000000000000000000000000000000000000000000
310
00000000000000000000000000000000000000000000000000000000000000000000000000000000000000000000000000000000000000000000000000000000000000000000000000000000030100000303030303030300000000000300000000000000010000000000000000030000000003030000000000000000000000
310
00000000000000030300010003030000000303000000000000000000000000000000000000000000000000000000000000000000000000000000000000000000000000000000000000000000000000000000000000000000000000000000000000000000000000000000000000000000000000000000000000000000000000
310
00010101010103010101030103010101010101010101010101030303010101010101010101010101030101000000000000000000000000000000000303030101010103010000030300000000000000000000000000000000000000000000000000000000000000000000000000000000000000000000000000000000000000
310
00000000000000000000000000000000000000000000000000000000000000000000000000000000000000000000000000000000000000030100000303030303030000000003000000000003030103010303030300000000000003000000030300000000000000000000000000000000030103010100030100000003030000
310
00000000000000000000000000000000000000000000000000000000000000000000000000000000000000000000000000000000000000000000000000000000000000000000000000000000000000000000000000000000000000000000000000000000000000000000000000000000000000000301010300030003030303
310
03010000030303000000030303030300030003010303000000000000000000000000000000000303030303030303000000030300000000000000000000000000000000000000000000000000000000000000000000000000000000000000000000000000000000000000000000000000000000000000000000000000000000
310
00000000000000000000000000000000000000000000000000000000000000000000000000000000000003030303030303000000030301030000010000000000000000000303000303030000000000000000000000000000000000030103030303030100010101030300000000000000000000000000000000000000000000
310
00000000000000000000000000000000000000000000000000000000000000000000000000000000000000000000000000000000000000000000000000000000000000000000000000000000000000000000000000000000000000000000000003000303000000010301010101010301000000000001000000000003030003
310
00000000000000000000000000000000030303030001000100000000030303000000000000000000000000000000000000000000000000000000000000000000000000000000000000000000000000000000000000000000000000000000000000000000000000000000000000000000000000000000000000000000000000
310
00000000000000000000000000000000000000000000030300030000000303000303000303010000030301010303000000030003030000000000000000000000000000000001010103000000010000000001030300000000000000000000000000000000000000000000000000000000000000000000000000000000000000
310
00000000000000000000000000000000000000000000000000000000000000000000000000000000000000000000000000000000000000000000000000000000000000000000000000000003030003000003010103030303030101000303030101010303000003000303000000000000000000000303030303030301010300
310
00000100000000010103000000000000000000000000000000000000000000000000000000000000000000000000000000000000000000000000000000000000000000000000000000000000000000000000000000000000000000000000000000000000000000000000000000000000000000000000000000000000000000
310
00030303000000030103030001030300010301030303010303030000030003030000000000000000000003000000000003030303000000010000000003030300000000000000000000000000000000000000000000000000000000000000000000000000000000000000000000000000000000000000000000000000000000
310
00000000000000000000000000000000000000000000000000000000000000000000000000000000000000000000000000000000000103010101010101010303010101030101010103030101010301030101010103010000000000000000010301010101010303030101010101010101010103030000000000000000000000
310
00000000000000000000000000000000000000000000000000000000000000000000000000000000000000000000000000000000000000000000000000000000000000000000000000000000000000000000000000000000000000000000000000000000000000000000000303030000000301030300010303000103010101
310
01010101010100030003030000000000000000000003000000000003030303000000010000000003030300000000000000000000000000000000000000000000000000000000000000000000000000000000000000000000000000000000000000000000000000000000000000000000000000000000000000000000000000
310
00000000000000000000000000000000000000000000000000000000000000000003030003000003010303030303030301000101010001010101030003000303000000000000000000000303030303030303030300000001000000000303030000000000000000000000000000000000000000000000000000000000000000
310
00000000000000000000000000000000000000000000000000000000000000000000000000000000000000000000000000000000000000000000000000000000000000000000000000000000000000000000000000000303000300000003030000030003030100030303030103030300000300030300000000000000000000
310
00000000000001010103000000010000000001010300000000000000000000000000000000000000000000000000000000000000000000000000000000000000000000000000000000000000000000000000000000000000000000000000000000000000000000000000000000000000000000000000000000000000000000
310
00000000000000000000000003030003000000010301010101010101000003010101010300000003030003000000000000000000000000000000000303030300000001000000000303030000000000000000000000000000000000000000000000000000000000000000000000000000000000000000000000000000000000
310
00000000000000000000000000000000000000000000000000000000000000000000000000000000000000000000000000000000000000000000000000000000000300030303030300000303010300000100000000030100000303030303030000000000000000000000000000000000000303030000000100000101010303
310
00000000000000000000000000000000000000000000000000000000000000000000000000000000000000000000000000000000000000000000000000000000000000000000000000000000000000000000000000000000000000000000000000000000000000000000000000000000000000000000030003000300000303
310
03030100000001000000000303030300000303000300000000000000000000000000000000000000030300000001000000000303000000000000000000000000000000000000000000000000000000000000000000000000000000000000000000000000000000000000000000000000000000000000000000000000000000
310
00000000000000000000000000000000000000000000000000000000000000000000000000000000000000000300000303000000000000030303030303030303000000000003000300030000000000000000000000000000000000000003030000000100000000030300000000000000000000000000000000000000000000
310
00000000000000000000000000000000000000000000000000000000000000000000000000000000000000000000000000000000000000000000000000000000000000000000000000000000000000000000000000000000000000000000000000000300030003000000000000000303030303000000000000000300030003
310
00000000000000000000000000000000000000030300000001000000000303000000000000000000000000000000000000000000000000000000000000000000000000000000000000000000000000000000000000000000000000000000000000000000000000000000000000000000000000000000000000000000000000
310
00000000000000000000000000000000000000000000000003000003000300000000000003030303030000000000000300030000030000000000000000000000000000000000000003030000000100000000030300000000000000000000000000000000000000000000000000000000000000000000000000000000000000
310
00000000000000000000000000000000000000000000000000000000000000000000000000000000000000000000000000000000000000000000000000000000000000000000000000000000000300000003000300000000000303030303000000000303000300000003000000000000000000000000000000000000000303
310
00000001000000000303000000000000000000000000000000000000000000000000000000000000000000000000000000000000000000000000000000000000000000000000000000000000000000000000000000000000000000000000000000000000000000000000000000000000000000000000000000000000000000
310
00000003000000000300030303000003030303030000030300000300000000030000000000000000000000000000000000000003030000000100000000030300000000000000000000000000000000000000000000000000000000000000000000000000000000000000000000000000000000000000000000000000000000
310
00000000000000000000000000000000000000000000000000000000000000000000000000000000000000000000000000000000000000000003000001000303000003030303010303030300030303000000000300000000000000000000000000000000000000000303000000010000010101030100000000000000000000
310
00000000000000000000000000000000000000000000000000000000000000000000000000000000000000000000000000000000000000000000000000000000000000000000000000000000000000000000000000000000000000000000000000000000000000000000000000000303030103000003030300000003000000
310
03030000000303030303000000000000000000000000000000000000000003030000000100000000030300000000000000000000000000000000000000000000000000000000000000000000000000000000000000000000000000000000000000000000000000000000000000000000000000000000000000000000000000
310
00000000000000000000000000000000000000000000000000000000000000000000000000000303030303030303030303030303030303030303000000000000000000000000000000000000000000000000000303030303030303030303030000000000000000000000000000000000000000000000000000000000000000
310
00000000000000000000000000000000000000000000000000000000000000000000000000000000000000000000000000000000000000000000000000000000000000000000000000000000000000000000000000000000000000000100000000000000000303030000000000000000000000000000000000000000000000
310
00000000000000000000000000030303030000000000000000000000000000000000000000000000000000000000000000000000000000000000000000000000000000000000000000000000000000000000000000000000000000000000000000000000000000000000000000000000000000000000000000000000000000
310
00000000000000000000000000000000000000000000000000000001010100000000000000000000000000000000000000000000000000000000000000000000000103010303000000000000000000000000000000000000000000000000000000000000000000000000000000000000000000000000000000000000000000
310
00000000000000000000000000000000000000000000000000000000000000000000000000000000000000000000000000000000000000000000000000000000000000000000000000000000000000000003000000000000000000000000000000000000000000000000000000000000000000000000000303030300000000
310
00000000000000000000000000000000000000000000000000000000000000000000000000000000000000000000000000000000000000000000000000000000000000000000000000000000000000000000000000000000000000000000000000000000000000000000000000000000000000000000000000000000000000
310
00000000000000030000000000000000000000000000000000000000000000000000000000000000000000000000030000000000000000000000000000000000000000000000000000000000000000000000000000000000000000000000000000000000000000000000000000000000000000000000000000000000000000
310
00000000000000000000000000000000000000000000000000000000000000000000000000000000000000000000000000000000000000000000000000000000000000000000000000000000000000000000000000000000000000000000000000000000000000000000000000000000000000000000000000000000000000
310
00000000000000000000000000000000000000000000000000000000000000000000000000000000000000000000000000000000000000000000000000000000000000000000000000000000000000000000000000000000000000000000000000000000000000000000000000000000000000000000000000000000000000
310
00000000000000000000000000000000000000000000000000000000000000000000000000000000000000000000000000000000000000000000000000000000000000000000000000000000000000000000000000000000000000000000000000000000000000000000000000000000000000000000000000000000000000
310
00000000000000000000000000000000000000000000000000000000000000000000000000000000000000000000000000000000000000000000000000000000000000000000000000000000000000000000000000000000000000000000000000000000000000000000000000000000000000000000000000000000000000
310
00000000000000000000000000000000000000000000000000000000000000000000000000000000000000000000000000000000000000000000000000000000000000000000000000000000000000000000000000000000000000000000000000000000000000000000000000000000000000000000000000000000000000
310
00000000000000000000000000000000000000000000000000000000000000000000000000000000000000000000000000000000000000000000000000000000000000000000000000000000000000000000000000000000000000000000000000000000000000000000000000000000000000000000000000000000000000
310
00000000000000000000000000000000000000000000000000000000000000000000000000000000000000000000000000000000000000000000000000000000000000000000000000000000000000000000000000000000000000000000000000000000000000000000000000000000000000000000000000000000000000
310
00000000000000000000000000000000000000000000000000000000000000000000000000000000000000000000000000000000000000000000000000000000000000000000000000000000000000000000000000000000000000000000000000000000000000000000000000000000000000000000000000000000000000
310
00000000000000000000000000000000000000000000000000000000000000000000000000000000000000000000000000000000000000000000000000000000000000000000000000000000000000000000000000000000000000000000000000000000000000000000000000000000000000000000000000000000000000
310
00000000000000000000000000000000000000000000000000000000000000000000000000000000000000000000000000000000000000000000000000000000000000000000000000000000000000000000000000000000000000000000000000000000000000000000000000000000000000000000000000000000000000
310
00000000000000000000000000000000000000000000000000000000000000000000000000000000000000000000000000000000000000000000000000000000000000000000000000000000000000000000000000000000000000000000000000000000000000000000000000000000000000000000000000000000000000
310
00000000000000000000000000000000000000000000000000000000000000000000000000000000000000000000000000000000000000000000000000000000000000000000000000000000000000000000000000000000000000000000000000030303030300000000000000000000000000000000000000000000000000
310
00000000000000000000000000000000000000000000000000000000000000000000000000000000000000000000000000000000000000000000000000000000000000000000000000000000000000000000000000000000000000000000000000000000000000000000000000000000000000000000000000000000000000
310
00000000000000000000000000000000000000000000000303030303000000000000000000000000000000000000000000000000000000000000000000000000000000000000000000000000000000000000000000000000000000000000000000000000000000000000000000000000000000000000000000000000000000
310
00000000000000000000000000000000000000000000000000000000000000000000000000000000000000000000000000000000000000000000000000000000000000000000000000000000030303000300000000000000000000000000000000000000000000000000000000000000000000000000000000000000000000
310
00000000000000000000000000000000000000000000000000000000000000000000000000000000000000000000000000000000000000000000000000000000000000000000000000000000000000000000000000000000000000000000000000000000000000000000000000000000000000000000000000000000000000
310
00000303030003000000000000000000000000000000000000000000000000000000000000000000000000000000000000000000000000000000000000000000000000000000000000000000000000000000000000000000000000000000000000000000000000000000000000000000000000000000000000000000000000
310
00000000000000000000000000000000000000000000000000000000000000000000000000000000000000000000000000000000000000030303000300000000000000000000000000000000000000000000000000000000000000000000000000000000000000000000000000000000000000000000000000000000000000
310
00000000000000000000000000000000000000000000000000000000000000000000000000000000000000000000000000000000000000000000000000000000000000000000000000000000000000000000000000000000000000000000000000000000000000000000000003030300030000000000000000000000000000
310
00000000000000000000000000000000000000000000000000000000000000000000000000000000000000000000000000000000000000000000000000000000000000000000000000000000000000000000000000000000000000000000000000000000000000000000000000000000000000000000000000000000000000
310
00000000000000000000000000000000000000000000000000030303030303030300030303000300000000000000010003030303030303030000000000000000000000000000000000000000000000000000000000000000000000000000000000000000000000000000000000000000000000000000000000000000000000
310
00000000000000000000000000000000000000000000000000000000000000000000000000000000000000000000000000000000000000000000000000000000000000000000000000000000000003000001030000030103030303030101000001030001030100000103000003000000000000000000000000000000000000
310
00000000000000000000000000000000000000000000000000000000000000000000000000000000000000000000000000000000000000000000000000000000000000000000000000000000000000000000000000000000000000000000000000000000000000000000000000000000000000000000000000000000000000
310
00000000030301010101030303030303030301030303010303030301030301010103030000000000000000000000000000000000000000000000000000000000000000000000000000000000000000000000000000000000000000000000000000000000000000000000000000000000000000000000000000000000000000
310
00000000000000000000000000000000000000000000000000000000000000000000000000000000000000000000000000000000000000000303030303030303030103030103030101030301030301030103030103030303030000000000000000000000000000000000000000000000000000000000000000000000000000
310
00000000000000000000000000000000000000000000000000000000000000000000000000000000000000000000000000000000000000000000000000000000000000000000000000000000000000000000000000000000000000000000000000000000000000000000000000030101030303030303030303010303030103
310
03030303010303030303030301010100000000000000000000000000000000000000000000000000000000000000000000000000000000000000000000000000000000000000000000000000000000000000000000000000000000000000000000000000000000000000000000000000000000000000000000000000000000
310
00000000000000000000000000000000000000000000000000000000000000030303030303000000000000000000000100000001000000000001000000000000000003000000000000000000000000000000000000000000000000000000000000000000000000000000000000000000000000000000000000000000000000
310
00000000000000000000000000000000000000000000000000000000000000000000000000000000000000000000000000000000000000000000000000000000000000000000000000000000000000000000000103030303030301010101010101010101010101030303010101010101010101010101010301000000000000
310
00000000000000000000000000000000000000000000000000000000000000000000000000000000000000000000000000000000000000000000000000000000000000000000000000000000000000000000000000000000000000000000000000000000000000000000000000000000000000000000000000000000000000
310
00000000000000000000030303030303000000030303000000000100000303030000000001000000000000000003000000000000000000000000000000000000000000000000000000000000000000000000000000000000000000000000000000000000000000000000000000000000000000000000000000000000000000
310
00000000000000000000000000000000000000000000000000000000000000000000000000000000000000000000000000000000000000000000000000000000000000030101010103010301010101010101030303010101010101010101010101010303000000000000000000000000000000000000000000000000000000
310
00000000000000000000000000000000000000000000000000000000000000000000000000000000000000000000000000000000000000000000000000000000000000000000000000000000000000000000000000000000000000000000000000000000000000000000000000000000000000000000000003030000000303
310
03000000000100000303030000000001000000000000000003030000000000000000000000000000000000000000000000000000000000000000000000000000000000000000000000000000000000000000000000000000000000000000000000000000000000000000000000000000000000000000000000000000000000
310
00000000000000000000000000000000000000000000000000000000000000000000000000000000000000000000000300000000010000000000010000030303000000000100000000000000000300000000000000000000000000000000000000000000000000000000000000000000000000000000000000000000000000
310
00000000000000000000000000000000000000000000000000000000000000000000000000000000000000000000000000000000000000000000000000000000000000000000000000000000000000000000000000000000000000000000000000000000030000000000000000000001000000010000000000010000000000
310
00000003000000000000000000000000000000000000000000000000000000000000000000000000000000000000000000000000000000000000000000000000000000000000000000000000000000000000000000000000000000000000000000000000000000000000000000000000000000000000000000000000000000
310
00000000000000000000000000000000000000000000000000000303030303030303030303010303030103030303030103030303030303030300000000000000000000000000000000000000000000000000000000000000000000000000000000000000000000000000000000000000000000000000000000000000000000
310
00000000000000000000000000000000000000000000000000000000000000000000000000000000000000000000000000000000000000000000000000000000000000000000000000000000000000030303030303030301030301030301030303010303010301030303030303030000000000000000000000000000000000
310
00000000000000000000000000000000000000000000000000000000000000000000000000000000000000000000000000000000000000000000000000000000000000000000000000000000000000000000000000000000000000000000000000000000000000000000000000000000000000000000000000000000000000
310
00000000000303030303030303010303030303010303030103030303010303030303030300000000000000000000000000000000000000000000000000000000000000000000000000000000000000000000000000000000000000000000000000000000000000000000000000000000000000000000000000000000000000
310
00000000000000000000000000000000000000000000000000000000000000000000000000000000000000000000000000000000000000000000030000030300030303030303030303030303010303030303030303030000030000000000000000000000000000000000000000000000000000000000000000000000000000
310
00000000000000000000000000000000000000000000000000000000000000000000000000000000000000000000000000000000000000000000000000000000000000000000000000000000000000000000000000000000000000000000000000000000000000000000000000000003030303030303030000000000000000
310
00000000000000030303030303030300000000000000000000000000000000000000000000000000000000000000000000000000000000000000000000000000000000000000000000000000000000000000000000000000000000000000000000000000000000000000000000000000000000000000000000000000000000
310
00000000000000000000000000000000000000000000000000000000000000000000000000000000000000000000000000000000000000000000000000000000000000000000000000000000000000000000000000000000000000000000000000000000000000000000000000000000000000000000000000000000000000
310
00000000000000000000000000000000000000000000000000000000000000000000000000000000000000000000000000000000000000000000000000000000000000000000000000000000000000000000000000000000000000000000000000000000000000000000000000000000000000000000000000000000000000
310
00000000000000000000000000000000000000000000000000000000000000000000000000000000000000000000000000000000000000000000000000000000000000000000000000000000000000000000000000000000000000000000000000000000000000000000000000000000000000000000000000000000000000
310
00000000000000000000000000000000000000000000000000000000000000000000000000000000000000000000000000000000000000000000000000000000000000000000000000000000000000000000000000000000000000000000000000000000000000000000000000000000000000000000000000000000000000
310
00000000000000000000000000000000000000000000000000000000000000000000000000000000000000000000000000000000000000000000000000000000000000000000000000000000000000000000000000000000000000000000000000000000000000000000000000000000000000000000000000000000000000
310
00000000000000000000000000000000000000000000000000000000000000000000000000000000000000000000000000000000000000000000000000000000000000000000000000000000000000000000000000000000000000000000000000000000000000000000000000000000000000000000000000000000000000
310
00000000000000000000000000000000000000000000000000000000000000000000000000000000000000000000000000000000000000000000000000000000000000000000000000000000000000000000000000000000000000000000000000000000000000000000000000000000000000000000000000000000000000
310
00000000000000000000000000000000000000000000000000000000000000000000000000000000000000000000000000000000000000000000000000000000000000000000000000000000000000000000000000000000000000000000000000000000000000000000000000000000000000000000000000000000000000
310
00000000000000000000000000000000000000000000000000000000000000000000000000000000000000000000000000000000000000000000000000000000000000000000000000000000000000000000000000000000000000000000000000000000000000000000000000000000000000000000000000000000000000
310
00000000000000000000000000000000000000000000000000000000000000000000000000000000000000000000000000000000000000000000000000000000000000000000000000000000000000000000000000000000000000000000000000000000000000000000000000000000000000000000000000000000000000
310
00000000000000000000000000000000000000000000000000000000000000000000000000000000000000000000000000000000000000000000000000000000000000000000000000000000000000000000000000000000000000000000000000000000000000000000000000000000000000000000000000000000000000
310
00000000000000000000000000000000000000000000000000000000000000000000000000000000000000000000000000000000000000000000000000000000000000000000000000000000000000000000000000000000000000000000000000000000000000000000000000000000000000000000000000000000000000
310
00000000000000000000000000000000000000000000000000000000000000000000000000000000000000000000000000000000000000000000000000000000000000000000000000000000000000000000000000000000000000000000000000000000000000000000000000000000000000000000000000000000000000
310
00000000000000000000000000000000000000000000000000000000000000000000000000000000000000000000000000000000000000000000000000000000000000000000000000000000000000000000000000000000000000000000000000000000000000000000000000000000000000000000000000000000000000
310
00000000000000000000000000000000000000000000000000000000000000000000000000000000000000000000000000000000000000000000000000000000000000000000000000000000000000000000000000000000000000000000000000000000000000000000000000000000000000000000000000000000000000
310
00000000000000000000000000000000000000000000000000000000000000000000000000000000000000000000000000000000000000000000000000000000000000000000000000000000000000000000000000000000000000000000000000000000000000000000000000000000000000000000000000000000000000
310
00000000000000000000000000000000000000000000000000000000000000000000000000000000000000000000000000000000000000000000000000000000000000000000000000000000000000000000000000000000000000000000000000000000000000000000000000000000000000000000000000000000000000
310
00000000000000000000000000000000000000000000000000000000000000000000000000000000000000000000000000000000000000000000000000000000000000000000000000000000000000000000000000000000000000000000000000000000000000000000000000000000000000000000000000000000000000
310
00000000000000000000000000000000000000000000000000000000000000000000000000000000000000000000000000000000000000000000000000000000000000000000000000000000000000000000000000000000000000000000000000000000000000000000000000000000000000000000000000000000000000
310
000000000000000000000000000000000000000000000000000000000000000000000000000000000000000000000000000000000000000000000000000000000000000000000000000000000000000000000000000000000000000000000000000000000000000000000000
  0
ENDSEC
  0
EOF
