  0
SECTION
  2
HEADER
  9
$ACADVER
  1
AC1009
  9
$DWGCODEPAGE
  3
ansi_932
  9
$INSBASE
 10
2212.75580968289
 20
1931.328638524879
 30
0.0
  9
$EXTMIN
 10
121.9899266679402
 20
38.65481959733313
 30
0.0
  9
$EXTMAX
 10
1591.884290841777
 20
1326.103863159605
 30
0.0
  9
$LIMMIN
 10
0.0
 20
0.0
  9
$LIMMAX
 10
816.5000000000001
 20
565.0
  9
$ORTHOMODE
 70
     1
  9
$REGENMODE
 70
     1
  9
$FILLMODE
 70
     1
  9
$QTEXTMODE
 70
     0
  9
$MIRRTEXT
 70
     1
  9
$DRAGMODE
 70
     2
  9
$LTSCALE
 40
20.0
  9
$OSMODE
 70
    37
  9
$ATTMODE
 70
     1
  9
$TEXTSIZE
 40
12.0
  9
$TRACEWID
 40
0.05
  9
$TEXTSTYLE
  7
KANJI
  9
$CLAYER
  8
2
  9
$CELTYPE
  6
BYLAYER
  9
$CECOLOR
 62
   256
  9
$DIMSCALE
 40
5.0
  9
$DIMASZ
 40
2.0
  9
$DIMEXO
 40
0.5
  9
$DIMDLI
 40
0.0
  9
$DIMRND
 40
0.0
  9
$DIMDLE
 40
0.0
  9
$DIMEXE
 40
1.0
  9
$DIMTP
 40
0.0
  9
$DIMTM
 40
0.0
  9
$DIMTXT
 40
3.0
  9
$DIMCEN
 40
0.09
  9
$DIMTSZ
 40
0.0
  9
$DIMTOL
 70
     0
  9
$DIMLIM
 70
     0
  9
$DIMTIH
 70
     0
  9
$DIMTOH
 70
     0
  9
$DIMSE1
 70
     0
  9
$DIMSE2
 70
     0
  9
$DIMTAD
 70
     0
  9
$DIMZIN
 70
     8
  9
$DIMBLK
  1

  9
$DIMASO
 70
     0
  9
$DIMSHO
 70
     0
  9
$DIMPOST
  1

  9
$DIMAPOST
  1

  9
$DIMALT
 70
     0
  9
$DIMALTD
 70
     2
  9
$DIMALTF
 40
25.4
  9
$DIMLFAC
 40
1.0
  9
$DIMTOFL
 70
     1
  9
$DIMTVP
 40
1.0
  9
$DIMTIX
 70
     1
  9
$DIMSOXD
 70
     1
  9
$DIMSAH
 70
     0
  9
$DIMBLK1
  1

  9
$DIMBLK2
  1

  9
$DIMSTYLE
  2
STANDARD
  9
$DIMCLRD
 70
   256
  9
$DIMCLRE
 70
   256
  9
$DIMCLRT
 70
   256
  9
$DIMTFAC
 40
1.0
  9
$DIMGAP
 40
0.09
  9
$LUNITS
 70
     2
  9
$LUPREC
 70
     3
  9
$SKETCHINC
 40
0.1
  9
$FILLETRAD
 40
1.0
  9
$AUNITS
 70
     0
  9
$AUPREC
 70
     3
  9
$MENU
  1
C:\R13\WIN\SUPPORT\ACADFULL
  9
$ELEVATION
 40
0.0
  9
$PELEVATION
 40
0.0
  9
$THICKNESS
 40
0.0
  9
$LIMCHECK
 70
     0
  9
$CHAMFERA
 40
0.0
  9
$CHAMFERB
 40
0.0
  9
$SKPOLY
 70
     0
  9
$TDCREATE
 40
2457357.657630151
  9
$TDUPDATE
 40
2458110.545782037
  9
$TDINDWG
 40
0.0352213194
  9
$TDUSRTIMER
 40
0.0352206134
  9
$USRTIMER
 70
     1
  9
$ANGBASE
 50
0.0
  9
$ANGDIR
 70
     0
  9
$PDMODE
 70
     0
  9
$PDSIZE
 40
0.0
  9
$PLINEWID
 40
0.0
  9
$COORDS
 70
     1
  9
$SPLFRAME
 70
     0
  9
$SPLINETYPE
 70
     6
  9
$SPLINESEGS
 70
     8
  9
$ATTDIA
 70
     0
  9
$ATTREQ
 70
     1
  9
$HANDLING
 70
     1
  9
$HANDSEED
  5
5F9
  9
$SURFTAB1
 70
     6
  9
$SURFTAB2
 70
     6
  9
$SURFTYPE
 70
     6
  9
$SURFU
 70
     6
  9
$SURFV
 70
     6
  9
$UCSNAME
  2

  9
$UCSORG
 10
0.0
 20
0.0
 30
0.0
  9
$UCSXDIR
 10
1.0
 20
0.0
 30
0.0
  9
$UCSYDIR
 10
0.0
 20
1.0
 30
0.0
  9
$PUCSNAME
  2

  9
$PUCSORG
 10
0.0
 20
0.0
 30
0.0
  9
$PUCSXDIR
 10
1.0
 20
0.0
 30
0.0
  9
$PUCSYDIR
 10
0.0
 20
1.0
 30
0.0
  9
$USERI1
 70
     0
  9
$USERI2
 70
     0
  9
$USERI3
 70
     0
  9
$USERI4
 70
     0
  9
$USERI5
 70
     0
  9
$USERR1
 40
0.0
  9
$USERR2
 40
0.0
  9
$USERR3
 40
0.0
  9
$USERR4
 40
2448925.372986111
  9
$USERR5
 40
0.04166667
  9
$WORLDVIEW
 70
     1
  9
$SHADEDGE
 70
     3
  9
$SHADEDIF
 70
    70
  9
$TILEMODE
 70
     1
  9
$MAXACTVP
 70
    16
  9
$PLIMCHECK
 70
     0
  9
$PEXTMIN
 10
1000000000000000E+20
 20
1000000000000000E+20
 30
1000000000000000E+20
  9
$PEXTMAX
 10
-1000000000000000E+20
 20
-1000000000000000E+20
 30
-1000000000000000E+20
  9
$PLIMMIN
 10
0.0
 20
0.0
  9
$PLIMMAX
 10
12.0
 20
9.0
  9
$UNITMODE
 70
     0
  9
$VISRETAIN
 70
     0
  9
$PLINEGEN
 70
     0
  9
$PSLTSCALE
 70
     0
  0
ENDSEC
  0
SECTION
  2
TABLES
  0
TABLE
  2
VPORT
 70
     1
  0
VPORT
  2
*ACTIVE
 70
     0
 10
0.0
 20
0.0
 11
1.0
 21
1.0
 12
1332.364096213017
 22
719.2697576414489
 13
0.0
 23
0.0
 14
1.0
 24
1.0
 15
50.0
 25
50.0
 16
0.0
 26
0.0
 36
1.0
 17
0.0
 27
0.0
 37
0.0
 40
1833.059204237823
 41
1.82716049382716
 42
50.0
 43
0.0
 44
0.0
 50
0.0
 51
0.0
 71
     0
 72
  5000
 73
     1
 74
     0
 75
     0
 76
     0
 77
     0
 78
     0
  0
ENDTAB
  0
TABLE
  2
LTYPE
 70
     2
  0
LTYPE
  2
CONTINUOUS
 70
     0
  3
Solid line
 72
    65
 73
     0
 40
0.0
  0
LTYPE
  2
CENTER
 70
     0
  3
____ _ ____ _ ____ _ ____ _ ____ _ ____ _ ____
 72
    65
 73
     4
 40
2.0
 49
1.25
 49
-0.25
 49
0.25
 49
-0.25
  0
ENDTAB
  0
TABLE
  2
LAYER
 70
     8
  0
LAYER
  2
0
 70
     0
 62
     7
  6
CONTINUOUS
  0
LAYER
  2
1
 70
     0
 62
     9
  6
CONTINUOUS
  0
LAYER
  2
2
 70
     0
 62
     4
  6
CONTINUOUS
  0
LAYER
  2
4
 70
     0
 62
     3
  6
CONTINUOUS
  0
LAYER
  2
L-CENTER
 70
     0
 62
     1
  6
CENTER
  0
LAYER
  2
5
 70
     0
 62
     6
  6
CONTINUOUS
  0
LAYER
  2
3
 70
     0
 62
     2
  6
CONTINUOUS
  0
LAYER
  2
DEFPOINTS
 70
     0
 62
     7
  6
CONTINUOUS
  0
ENDTAB
  0
TABLE
  2
STYLE
 70
     2
  0
STYLE
  2
STANDARD
 70
     0
 40
0.0
 41
1.0
 50
0.0
 71
     0
 42
7.2
  3
TXT
  4

  0
STYLE
  2
KANJI
 70
     0
 40
0.0
 41
1.0
 50
0.0
 71
     0
 42
12.0
  3
TXT
  4
BIGFONT
  0
ENDTAB
  0
TABLE
  2
VIEW
 70
     0
  0
ENDTAB
  0
TABLE
  2
UCS
 70
     0
  0
ENDTAB
  0
TABLE
  2
APPID
 70
     3
  0
APPID
  2
ACAD
 70
     0
  0
APPID
  2
ACAD_PSEXT
 70
     0
  0
APPID
  2
ACAD_MLEADERVER
 70
     0
  0
ENDTAB
  0
TABLE
  2
DIMSTYLE
 70
     1
  0
DIMSTYLE
  2
STANDARD
 70
     0
  3

  4

  5

  6

  7

 40
1.0
 41
0.18
 42
0.0625
 43
0.38
 44
0.18
 45
0.0
 46
0.0
 47
0.0
 48
0.0
140
0.18
141
0.09
142
0.0
143
25.4
144
1.0
145
0.0
146
1.0
147
0.09
 71
     0
 72
     0
 73
     1
 74
     1
 75
     0
 76
     0
 77
     0
 78
     0
170
     0
171
     2
172
     0
173
     0
174
     0
175
     0
176
     0
177
     0
178
     0
  0
ENDTAB
  0
ENDSEC
  0
SECTION
  2
BLOCKS
  0
BLOCK
  8
0
  2
$MODEL_SPACE
 70
     0
 10
0.0
 20
0.0
 30
0.0
  3
$MODEL_SPACE
  1

  0
ENDBLK
  5
1C
  8
0
  0
BLOCK
 67
     1
  8
0
  2
$PAPER_SPACE
 70
     0
 10
0.0
 20
0.0
 30
0.0
  3
$PAPER_SPACE
  1

  0
ENDBLK
  5
21
 67
     1
  8
0
  0
ENDSEC
  0
SECTION
  2
ENTITIES
  0
LINE
  5
10D
  8
4
 10
1247.606946841777
 20
100.3704068942588
 30
0.0
 11
1245.606946841777
 21
100.3704068942588
 31
0.0
  0
LINE
  5
10F
  8
L-CENTER
 10
1268.441767621772
 20
92.12040689425885
 30
0.0
 11
1237.508306453946
 21
92.12040689425885
 31
0.0
  0
LINE
  5
112
  8
2
 10
587.9873984766891
 20
94.42980797101745
 30
0.0
 11
591.9873984766891
 21
96.73920904777583
 31
0.0
  0
LINE
  5
113
  8
2
 10
591.9873984766891
 20
87.50160474074187
 30
0.0
 11
595.9873984766891
 21
89.81100581750036
 31
0.0
  0
CIRCLE
  5
114
  8
4
 10
591.9873984766891
 20
92.12040689425885
 30
0.0
 40
8.25
  0
CIRCLE
  5
115
  8
2
 10
591.9873984766891
 20
92.12040689425885
 30
0.0
 40
7.25
  0
LINE
  5
116
  8
L-CENTER
 10
1211.315930841776
 20
356.3857695301388
 30
0.0
 11
1256.068429853726
 21
356.3857695301389
 31
0.0
  0
LINE
  5
118
  8
L-CENTER
 10
1461.897718841777
 20
356.3857695301388
 30
0.0
 11
1417.145219829827
 21
356.3857695301389
 31
0.0
  0
LINE
  5
11B
  8
L-CENTER
 10
1392.509245504277
 20
235.1898002884627
 30
0.0
 11
1441.688555047819
 21
235.1898002884627
 31
0.0
  0
LINE
  5
270
  8
L-CENTER
 10
467.2173948408094
 20
1201.434154266402
 30
0.0
 11
467.2173948408094
 21
1168.292702628497
 31
0.0
  0
LINE
  5
271
  8
L-CENTER
 10
569.3214021125682
 20
1201.434154266402
 30
0.0
 11
569.3214021125682
 21
1168.292702628497
 31
0.0
  0
LINE
  5
272
  8
4
 10
576.5714021125682
 20
1188.463568944303
 30
0.0
 11
576.5714021125682
 21
1186.463568944303
 31
0.0
  0
LINE
  5
273
  8
4
 10
562.0714021125682
 20
1188.463568944303
 30
0.0
 11
562.0714021125682
 21
1186.463568944303
 31
0.0
  0
LINE
  5
274
  8
4
 10
562.0714021125682
 20
1188.463568944303
 30
0.0
 11
576.5714021125682
 21
1188.463568944303
 31
0.0
  0
LINE
  5
275
  8
4
 10
562.8214021125682
 20
1196.463568944303
 30
0.0
 11
575.8214021125682
 21
1196.463568944303
 31
0.0
  0
LINE
  5
276
  8
4
 10
575.8214021125682
 20
1196.463568944303
 30
0.0
 11
575.8214021125682
 21
1188.463568944303
 31
0.0
  0
LINE
  5
277
  8
4
 10
562.8214021125682
 20
1196.463568944303
 30
0.0
 11
562.8214021125682
 21
1188.463568944303
 31
0.0
  0
LINE
  5
278
  8
4
 10
474.4673948408094
 20
1188.463568944303
 30
0.0
 11
474.4673948408094
 21
1186.463568944303
 31
0.0
  0
LINE
  5
279
  8
4
 10
459.9673948408094
 20
1188.463568944303
 30
0.0
 11
459.9673948408094
 21
1186.463568944303
 31
0.0
  0
LINE
  5
27A
  8
4
 10
474.4673948408094
 20
1188.463568944303
 30
0.0
 11
459.9673948408094
 21
1188.463568944303
 31
0.0
  0
LINE
  5
27B
  8
4
 10
473.7173948408094
 20
1196.463568944303
 30
0.0
 11
460.7173948408094
 21
1196.463568944303
 31
0.0
  0
LINE
  5
27C
  8
4
 10
473.7173948408094
 20
1196.463568944303
 30
0.0
 11
473.7173948408094
 21
1188.463568944303
 31
0.0
  0
LINE
  5
27D
  8
4
 10
460.7173948408094
 20
1196.463568944303
 30
0.0
 11
460.7173948408094
 21
1188.463568944303
 31
0.0
  0
LINE
  5
27E
  8
L-CENTER
 10
467.2173948408094
 20
944.6929836222055
 30
0.0
 11
467.2173948408094
 21
977.8344352601105
 31
0.0
  0
LINE
  5
27F
  8
4
 10
459.9673948408094
 20
957.6635689443037
 30
0.0
 11
459.9673948408094
 21
959.663568944304
 31
0.0
  0
LINE
  5
280
  8
4
 10
474.4673948408094
 20
957.6635689443037
 30
0.0
 11
474.4673948408094
 21
959.663568944304
 31
0.0
  0
LINE
  5
281
  8
4
 10
474.4673948408094
 20
957.6635689443037
 30
0.0
 11
459.9673948408094
 21
957.6635689443037
 31
0.0
  0
LINE
  5
282
  8
4
 10
473.7173948408094
 20
949.6635689443037
 30
0.0
 11
460.7173948408094
 21
949.6635689443037
 31
0.0
  0
LINE
  5
283
  8
4
 10
460.7173948408094
 20
949.6635689443037
 30
0.0
 11
460.7173948408094
 21
957.6635689443037
 31
0.0
  0
LINE
  5
284
  8
4
 10
473.7173948408094
 20
949.6635689443037
 30
0.0
 11
473.7173948408094
 21
957.6635689443037
 31
0.0
  0
LINE
  5
285
  8
4
 10
562.0714021125682
 20
957.6635689443037
 30
0.0
 11
562.0714021125682
 21
959.663568944304
 31
0.0
  0
LINE
  5
286
  8
4
 10
562.8214021125682
 20
949.6635689443037
 30
0.0
 11
562.8214021125682
 21
957.6635689443037
 31
0.0
  0
LINE
  5
287
  8
4
 10
576.5714021125682
 20
957.6635689443037
 30
0.0
 11
576.5714021125682
 21
959.663568944304
 31
0.0
  0
LINE
  5
288
  8
4
 10
575.8214021125682
 20
949.6635689443037
 30
0.0
 11
575.8214021125682
 21
957.6635689443037
 31
0.0
  0
LINE
  5
289
  8
4
 10
562.0714021125682
 20
957.6635689443037
 30
0.0
 11
576.5714021125682
 21
957.6635689443037
 31
0.0
  0
LINE
  5
28A
  8
4
 10
562.8214021125682
 20
949.6635689443037
 30
0.0
 11
575.8214021125682
 21
949.6635689443037
 31
0.0
  0
LINE
  5
292
  8
4
 10
1451.606702841776
 20
349.1357695301389
 30
0.0
 11
1449.606702841776
 21
349.1357695301388
 31
0.0
  0
LINE
  5
293
  8
4
 10
1459.606702841776
 20
349.8857695301389
 30
0.0
 11
1451.606702841776
 21
349.8857695301389
 31
0.0
  0
LINE
  5
294
  8
4
 10
1451.606702841776
 20
363.6357695301389
 30
0.0
 11
1449.606702841776
 21
363.6357695301388
 31
0.0
  0
LINE
  5
295
  8
4
 10
1459.606702841776
 20
362.8857695301389
 30
0.0
 11
1451.606702841776
 21
362.8857695301388
 31
0.0
  0
LINE
  5
296
  8
4
 10
1451.606702841776
 20
349.1357695301389
 30
0.0
 11
1451.606702841776
 21
363.6357695301389
 31
0.0
  0
LINE
  5
297
  8
4
 10
1459.606702841776
 20
349.8857695301389
 30
0.0
 11
1459.606702841776
 21
362.8857695301389
 31
0.0
  0
LINE
  5
29E
  8
4
 10
1221.606946841777
 20
363.6357695301383
 30
0.0
 11
1223.606946841777
 21
363.6357695301384
 31
0.0
  0
LINE
  5
29F
  8
4
 10
1221.606946841777
 20
349.1357695301383
 30
0.0
 11
1223.606946841777
 21
349.1357695301384
 31
0.0
  0
LINE
  5
2A0
  8
4
 10
1213.606946841777
 20
349.8857695301383
 30
0.0
 11
1221.606946841777
 21
349.8857695301384
 31
0.0
  0
LINE
  5
2A1
  8
4
 10
1213.606946841777
 20
362.8857695301383
 30
0.0
 11
1221.606946841777
 21
362.8857695301383
 31
0.0
  0
LINE
  5
2A2
  8
4
 10
1213.606946841777
 20
362.8857695301383
 30
0.0
 11
1213.606946841777
 21
349.8857695301383
 31
0.0
  0
LINE
  5
2A3
  8
4
 10
1221.606946841777
 20
363.6357695301383
 30
0.0
 11
1221.606946841777
 21
349.1357695301383
 31
0.0
  0
LINE
  5
2A4
  8
2
 10
572.1971245782292
 20
251.4055542384685
 30
0.0
 11
573.0937004289599
 21
254.7516193519843
 31
0.0
  0
LINE
  5
2A5
  8
2
 10
573.0937004289599
 20
254.7516193519843
 30
0.0
 11
570.6442109633035
 21
257.2011093718944
 31
0.0
  0
LINE
  5
2A6
  8
2
 10
570.6442109633035
 20
257.2011093718944
 30
0.0
 11
567.298145646917
 21
256.3045342782891
 31
0.0
  0
LINE
  5
2A7
  8
2
 10
572.1971245782292
 20
251.4055542384685
 30
0.0
 11
568.8510592618422
 21
250.5089791448632
 31
0.0
  0
LINE
  5
2A8
  8
2
 10
566.4015697961863
 20
252.9584691647735
 30
0.0
 11
567.298145646917
 21
256.3045342782891
 31
0.0
  0
LINE
  5
2A9
  8
2
 10
568.8510592618422
 20
250.5089791448632
 30
0.0
 11
566.4015697961863
 21
252.9584691647735
 31
0.0
  0
CIRCLE
  5
2AA
  8
4
 10
569.7476351125729
 20
253.8550442583789
 30
0.0
 40
7.25
  0
CIRCLE
  5
2AB
  8
4
 10
569.7476351125729
 20
253.8550442583789
 30
0.0
 40
6.5
  0
LINE
  5
2AC
  8
L-CENTER
 10
578.586518476689
 20
245.016158894259
 30
0.0
 11
560.9087864766889
 21
262.6938948942588
 31
0.0
  0
LINE
  5
2AD
  8
2
 10
464.7679043751491
 20
251.4055542384685
 30
0.0
 11
468.1139696915357
 21
250.5089791448632
 31
0.0
  0
LINE
  5
2AE
  8
2
 10
468.1139696915357
 20
250.5089791448632
 30
0.0
 11
470.5634591571916
 21
252.9584691647735
 31
0.0
  0
LINE
  5
2AF
  8
2
 10
470.5634591571916
 20
252.9584691647735
 30
0.0
 11
469.6668833064614
 21
256.3045342782891
 31
0.0
  0
LINE
  5
2B0
  8
2
 10
466.3208179900744
 20
257.2011093718944
 30
0.0
 11
469.6668833064614
 21
256.3045342782891
 31
0.0
  0
LINE
  5
2B1
  8
2
 10
463.8713285244185
 20
254.7516193519843
 30
0.0
 11
466.3208179900744
 21
257.2011093718944
 31
0.0
  0
LINE
  5
2B2
  8
2
 10
464.7679043751491
 20
251.4055542384685
 30
0.0
 11
463.8713285244185
 21
254.7516193519843
 31
0.0
  0
LINE
  5
2B3
  8
L-CENTER
 10
458.3785104766894
 20
245.016158894259
 30
0.0
 11
476.056242476689
 21
262.6938948942588
 31
0.0
  0
CIRCLE
  5
2B4
  8
4
 10
467.217393840805
 20
253.8550442583789
 30
0.0
 40
6.5
  0
CIRCLE
  5
2B5
  8
4
 10
467.217393840805
 20
253.8550442583789
 30
0.0
 40
7.25
  0
LINE
  5
2B6
  8
2
 10
572.1971245782292
 20
358.8352595500492
 30
0.0
 11
568.8510592618422
 21
359.7318346436545
 31
0.0
  0
LINE
  5
2B7
  8
2
 10
568.8510592618422
 20
359.7318346436545
 30
0.0
 11
566.4015697961863
 21
357.2823446237442
 31
0.0
  0
LINE
  5
2B8
  8
2
 10
566.4015697961863
 20
357.2823446237442
 30
0.0
 11
567.298145646917
 21
353.9362795102286
 31
0.0
  0
LINE
  5
2B9
  8
2
 10
570.6442109633035
 20
353.0397044166233
 30
0.0
 11
567.298145646917
 21
353.9362795102286
 31
0.0
  0
LINE
  5
2BA
  8
2
 10
573.0937004289599
 20
355.4891944365334
 30
0.0
 11
570.6442109633035
 21
353.0397044166233
 31
0.0
  0
LINE
  5
2BB
  8
2
 10
572.1971245782292
 20
358.8352595500492
 30
0.0
 11
573.0937004289599
 21
355.4891944365334
 31
0.0
  0
LINE
  5
2BC
  8
L-CENTER
 10
578.586518476689
 20
365.2246548942587
 30
0.0
 11
560.9087864766889
 21
347.5469188942589
 31
0.0
  0
CIRCLE
  5
2BD
  8
4
 10
569.7476351125729
 20
356.3857695301388
 30
0.0
 40
6.5
  0
CIRCLE
  5
2BE
  8
4
 10
569.7476351125729
 20
356.3857695301388
 30
0.0
 40
7.25
  0
LINE
  5
2BF
  8
2
 10
470.5634591571916
 20
357.2823446237442
 30
0.0
 11
469.6668833064614
 21
353.9362795102286
 31
0.0
  0
LINE
  5
2C0
  8
2
 10
464.7679043751491
 20
358.8352595500492
 30
0.0
 11
463.8713285244185
 21
355.4891944365334
 31
0.0
  0
LINE
  5
2C1
  8
2
 10
463.8713285244185
 20
355.4891944365334
 30
0.0
 11
466.3208179900744
 21
353.0397044166233
 31
0.0
  0
LINE
  5
2C2
  8
2
 10
468.1139696915357
 20
359.7318346436545
 30
0.0
 11
470.5634591571916
 21
357.2823446237442
 31
0.0
  0
LINE
  5
2C3
  8
2
 10
466.3208179900744
 20
353.0397044166233
 30
0.0
 11
469.6668833064614
 21
353.9362795102286
 31
0.0
  0
LINE
  5
2C4
  8
2
 10
464.7679043751491
 20
358.8352595500492
 30
0.0
 11
468.1139696915357
 21
359.7318346436545
 31
0.0
  0
CIRCLE
  5
2C5
  8
4
 10
467.217393840805
 20
356.3857695301388
 30
0.0
 40
7.25
  0
CIRCLE
  5
2C6
  8
4
 10
467.217393840805
 20
356.3857695301388
 30
0.0
 40
6.5
  0
LINE
  5
2C7
  8
L-CENTER
 10
458.3785104766894
 20
365.2246548942587
 30
0.0
 11
476.056242476689
 21
347.5469188942589
 31
0.0
  0
ARC
  5
2C8
  8
4
 10
-2166.397937158224
 20
325.1204068942588
 30
0.0
 40
3599.99998
 50
358.7595989770068
 51
1.240401022992276
  0
LINE
  5
2C9
  8
4
 10
1436.577406841776
 20
223.1898002884627
 30
0.0
 11
1425.606946841776
 21
223.1898002884627
 31
0.0
  0
ARC
  5
2CA
  8
4
 10
1433.023206841776
 20
244.1898002884627
 30
0.0
 40
4.5836
 50
319.1166739999999
 51
40.88132099999588
  0
LINE
  5
2CB
  8
4
 10
1428.606946841776
 20
229.1898002884627
 30
0.0
 11
1436.577406841776
 21
229.1898002884627
 31
0.0
  0
LINE
  5
2CC
  8
4
 10
1428.606946841776
 20
241.1898002884627
 30
0.0
 11
1436.577406841776
 21
241.1898002884627
 31
0.0
  0
ARC
  5
2CD
  8
4
 10
1419.606946841776
 20
235.1898002884627
 30
0.0
 40
17.999976
 50
340.5286690000001
 51
19.47033999999984
  0
LINE
  5
2CE
  8
4
 10
1436.577406841776
 20
247.1898002884627
 30
0.0
 11
1425.606946841776
 21
247.1898002884627
 31
0.0
  0
LINE
  5
2CF
  8
4
 10
1428.606946841776
 20
223.1898002884627
 30
0.0
 11
1428.606946841776
 21
247.1898002884627
 31
0.0
  0
ARC
  5
2D0
  8
4
 10
1433.023206841776
 20
226.1898002884627
 30
0.0
 40
4.5836
 50
319.1166739999999
 51
40.88132099999588
  0
LINE
  5
2D1
  8
4
 10
1437.606946841776
 20
226.1898002884627
 30
0.0
 11
1437.606946841776
 21
244.1898002884627
 31
0.0
  0
LINE
  5
2DB
  8
4
 10
620.48739847669
 20
489.1204068942588
 30
0.0
 11
625.48739847669
 21
489.1204068942586
 31
0.0
  0
LINE
  5
2DC
  8
4
 10
620.48739847669
 20
489.6204068942591
 30
0.0
 11
620.48739847669
 21
489.1204068942588
 31
0.0
  0
LINE
  5
2DD
  8
4
 10
625.48739847669
 20
489.1204068942588
 30
0.0
 11
625.48739847669
 21
489.6204068942591
 31
0.0
  0
ARC
  5
2DE
  8
4
 10
626.48739847669
 20
498.1204068942588
 30
0.0
 40
3.0
 50
0.0
 51
90.0
  0
LINE
  5
2DF
  8
4
 10
598.48739847669
 20
483.6204068942586
 30
0.0
 11
605.48739847669
 21
483.6204068942586
 31
0.0
  0
ARC
  5
2E0
  8
4
 10
585.48739847669
 20
489.1204068942586
 30
0.0
 40
8.0
 50
0.0
 51
90.0
  0
ARC
  5
2E1
  8
4
 10
585.48739847669
 20
489.1204068942586
 30
0.0
 40
3.0
 50
0.0
 51
90.0
  0
LINE
  5
2E2
  8
4
 10
583.48739847669
 20
492.1204068942586
 30
0.0
 11
585.48739847669
 21
492.1204068942586
 31
0.0
  0
LINE
  5
2E3
  8
4
 10
615.48739847669
 20
483.6914747061244
 30
0.0
 11
615.48739847669
 21
489.6204068942591
 31
0.0
  0
LINE
  5
2E4
  8
4
 10
558.48739847669
 20
497.1204068942588
 30
0.0
 11
563.48739847669
 21
497.1204068942588
 31
0.0
  0
ARC
  5
2E5
  8
4
 10
557.48739847669
 20
498.1204068942591
 30
0.0
 40
3.0
 50
90.0
 51
180.0
  0
LINE
  5
2E6
  8
4
 10
578.48739847669
 20
497.1204068942586
 30
0.0
 11
585.48739847669
 21
497.1204068942586
 31
0.0
  0
LINE
  5
2E7
  8
4
 10
557.48739847669
 20
501.1204068942591
 30
0.0
 11
626.48739847669
 21
501.1204068942588
 31
0.0
  0
ARC
  5
2E8
  8
4
 10
617.98739847669
 20
489.6204068942591
 30
0.0
 40
7.5
 50
0.0
 51
180.0
  0
ARC
  5
2E9
  8
4
 10
617.98739847669
 20
489.6204068942591
 30
0.0
 40
2.5
 50
0.0
 51
180.0
  0
ARC
  5
2EA
  8
4
 10
626.48739847669
 20
464.1204068942588
 30
0.0
 40
3.0
 50
270.0
 51
0.0
  0
LINE
  5
2EB
  8
4
 10
620.48739847669
 20
472.6204068942588
 30
0.0
 11
620.48739847669
 21
476.6204068942588
 31
0.0
  0
LINE
  5
2EC
  8
4
 10
625.48739847669
 20
472.6204068942588
 30
0.0
 11
625.48739847669
 21
476.6204068942588
 31
0.0
  0
LINE
  5
2ED
  8
4
 10
598.48739847669
 20
478.6204068942586
 30
0.0
 11
605.48739847669
 21
478.6204068942586
 31
0.0
  0
ARC
  5
2EE
  8
4
 10
585.4873984766891
 20
473.1204068942588
 30
0.0
 40
8.0
 50
270.0
 51
0.0
  0
ARC
  5
2EF
  8
4
 10
585.4873984766891
 20
473.1204068942591
 30
0.0
 40
3.0
 50
270.0
 51
0.0
  0
LINE
  5
2F0
  8
4
 10
583.48739847669
 20
470.1204068942588
 30
0.0
 11
585.48739847669
 21
470.1204068942591
 31
0.0
  0
LINE
  5
2F1
  8
4
 10
615.48739847669
 20
472.6204068942588
 30
0.0
 11
615.48739847669
 21
476.6204068942588
 31
0.0
  0
LINE
  5
2F2
  8
4
 10
558.48739847669
 20
465.1204068942588
 30
0.0
 11
573.48739847669
 21
465.1204068942588
 31
0.0
  0
ARC
  5
2F3
  8
4
 10
557.48739847669
 20
464.1204068942591
 30
0.0
 40
3.0
 50
180.0
 51
270.0
  0
LINE
  5
2F4
  8
4
 10
573.48739847669
 20
465.1204068942588
 30
0.0
 11
573.48739847669
 21
470.1204068942588
 31
0.0
  0
LINE
  5
2F5
  8
4
 10
563.48739847669
 20
470.1204068942588
 30
0.0
 11
573.48739847669
 21
470.1204068942588
 31
0.0
  0
LINE
  5
2F6
  8
4
 10
578.48739847669
 20
465.1204068942588
 30
0.0
 11
585.4873984766891
 21
465.1204068942588
 31
0.0
  0
LINE
  5
2F7
  8
4
 10
557.48739847669
 20
461.1204068942591
 30
0.0
 11
626.48739847669
 21
461.1204068942588
 31
0.0
  0
ARC
  5
2F8
  8
4
 10
617.98739847669
 20
472.6204068942588
 30
0.0
 40
7.5
 50
180.0
 51
0.0
  0
ARC
  5
2F9
  8
4
 10
617.98739847669
 20
476.6204068942588
 30
0.0
 40
2.5
 50
0.0
 51
180.0
  0
ARC
  5
2FA
  8
4
 10
617.98739847669
 20
472.6204068942588
 30
0.0
 40
2.5
 50
180.0
 51
0.0
  0
LINE
  5
2FB
  8
4
 10
563.48739847669
 20
470.1204068942588
 30
0.0
 11
563.48739847669
 21
497.1204068942588
 31
0.0
  0
LINE
  5
2FC
  8
4
 10
558.48739847669
 20
465.1204068942588
 30
0.0
 11
558.48739847669
 21
497.1204068942588
 31
0.0
  0
LINE
  5
2FD
  8
4
 10
554.48739847669
 20
464.1204068942591
 30
0.0
 11
554.48739847669
 21
498.1204068942591
 31
0.0
  0
LINE
  5
2FE
  8
4
 10
578.48739847669
 20
465.1204068942588
 30
0.0
 11
578.48739847669
 21
497.1204068942588
 31
0.0
  0
LINE
  5
2FF
  8
4
 10
598.48739847669
 20
478.6204068942586
 30
0.0
 11
598.48739847669
 21
483.6204068942586
 31
0.0
  0
LINE
  5
300
  8
4
 10
588.4873984766891
 20
473.1204068942591
 30
0.0
 11
588.48739847669
 21
489.1204068942586
 31
0.0
  0
LINE
  5
301
  8
4
 10
593.4873984766891
 20
473.1204068942588
 30
0.0
 11
593.48739847669
 21
489.1204068942586
 31
0.0
  0
LINE
  5
302
  8
4
 10
583.48739847669
 20
470.1204068942588
 30
0.0
 11
583.48739847669
 21
492.1204068942586
 31
0.0
  0
LINE
  5
303
  8
4
 10
629.48739847669
 20
464.1204068942588
 30
0.0
 11
629.48739847669
 21
498.1204068942588
 31
0.0
  0
ARC
  5
304
  8
4
 10
617.98739847669
 20
476.6204068942588
 30
0.0
 40
7.5
 50
0.0
 51
109.4712206344724
  0
LINE
  5
305
  8
4
 10
610.48739847669
 20
472.6204068942588
 30
0.0
 11
610.48739847669
 21
489.6204068942591
 31
0.0
  0
LINE
  5
306
  8
4
 10
605.48739847669
 20
478.6204068942586
 30
0.0
 11
605.48739847669
 21
483.6204068942586
 31
0.0
  0
POLYLINE
  5
307
  8
4
 66
     1
 10
0.0
 20
0.0
 30
0.0
 70
     1
  0
VERTEX
  5
5CA
  8
4
 10
474.4873984766891
 20
1073.063568944304
 30
0.0
  0
VERTEX
  5
5CB
  8
4
 10
468.2373984766891
 20
1083.888886491609
 30
0.0
  0
VERTEX
  5
5CC
  8
4
 10
455.7373984766891
 20
1083.888886491609
 30
0.0
  0
VERTEX
  5
5CD
  8
4
 10
449.4873984766891
 20
1073.063568944304
 30
0.0
  0
VERTEX
  5
5CE
  8
4
 10
455.7373984766891
 20
1062.238251396999
 30
0.0
  0
VERTEX
  5
5CF
  8
4
 10
468.2373984766891
 20
1062.238251396998
 30
0.0
  0
SEQEND
  5
5F7
  8
4
  0
CIRCLE
  5
308
  8
4
 10
461.9873984766891
 20
1073.063568944304
 30
0.0
 40
12.5
  0
ARC
  5
309
  8
4
 10
591.9873984766891
 20
1073.063568944304
 30
0.0
 40
11.0
 50
117.0356917894125
 51
242.9643082105875
  0
ARC
  5
30A
  8
4
 10
591.9873984766891
 20
1073.063568944304
 30
0.0
 40
12.5
 50
113.578178478202
 51
246.421821521798
  0
ARC
  5
30B
  8
4
 10
591.9873984766891
 20
1073.063568944304
 30
0.0
 40
11.0
 50
297.0356917894125
 51
62.96430821058751
  0
ARC
  5
30C
  8
4
 10
591.9873984766891
 20
1073.063568944304
 30
0.0
 40
12.5
 50
293.5781784782019
 51
66.42182152179805
  0
ARC
  5
30D
  8
4
 10
591.9873984766891
 20
1093.063568944304
 30
0.0
 40
5.0
 50
0.0
 51
180.0
  0
ARC
  5
30E
  8
4
 10
591.9873984766891
 20
1053.063568944304
 30
0.0
 40
5.0
 50
180.0
 51
0.0
  0
LINE
  5
30F
  8
4
 10
596.9873984766891
 20
1053.063568944304
 30
0.0
 11
596.9873984766891
 21
1093.063568944304
 31
0.0
  0
LINE
  5
310
  8
4
 10
586.9873984766891
 20
1053.063568944304
 30
0.0
 11
586.9873984766891
 21
1093.063568944304
 31
0.0
  0
LINE
  5
311
  8
L-CENTER
 10
461.9873984766891
 20
1041.563568944304
 30
0.0
 11
461.9873984766891
 21
1104.063568944304
 31
0.0
  0
CIRCLE
  5
312
  8
4
 10
461.9873984766891
 20
1073.063568944304
 30
0.0
 40
19.0
  0
ARC
  5
313
  8
4
 10
607.9873984766891
 20
1042.063568944304
 30
0.0
 40
3.0
 50
270.0
 51
0.0
  0
LINE
  5
314
  8
4
 10
575.9873984766891
 20
1039.063568944304
 30
0.0
 11
607.9873984766891
 21
1039.063568944304
 31
0.0
  0
ARC
  5
315
  8
4
 10
607.98739847669
 20
1104.063568944304
 30
0.0
 40
3.0
 50
0.0
 51
90.0
  0
ARC
  5
316
  8
4
 10
575.9873984766891
 20
1104.063568944304
 30
0.0
 40
3.0
 50
90.0
 51
180.0
  0
LINE
  5
317
  8
4
 10
575.9873984766891
 20
1107.063568944304
 30
0.0
 11
607.98739847669
 21
1107.063568944304
 31
0.0
  0
LINE
  5
318
  8
4
 10
610.9873984766891
 20
1042.063568944304
 30
0.0
 11
610.98739847669
 21
1104.063568944304
 31
0.0
  0
ARC
  5
319
  8
4
 10
575.9873984766891
 20
1042.063568944304
 30
0.0
 40
3.0
 50
180.0
 51
270.0
  0
LINE
  5
31A
  8
4
 10
572.9873984766891
 20
1042.063568944304
 30
0.0
 11
572.9873984766891
 21
1104.063568944304
 31
0.0
  0
LINE
  5
31B
  8
4
 10
474.4673948408094
 20
1187.463568944307
 30
0.0
 11
562.0714021125682
 21
1187.463568944307
 31
0.0
  0
LINE
  5
31C
  8
4
  6
CONTINUOUS
 10
550.7693984766888
 20
1187.463568944307
 30
0.0
 11
550.7693984766888
 21
1199.063568944304
 31
0.0
  0
LINE
  5
31D
  8
4
  6
CONTINUOUS
 10
485.7693984766888
 20
1187.463568944307
 30
0.0
 11
485.7693984766888
 21
1199.063568944304
 31
0.0
  0
LINE
  5
31E
  8
4
 10
487.2693984766888
 20
1318.063568944304
 30
0.0
 11
509.2693984766888
 21
1318.063568944304
 31
0.0
  0
LINE
  5
31F
  8
4
 10
488.2693984766888
 20
1319.063568944304
 30
0.0
 11
487.2693984766888
 21
1318.063568944304
 31
0.0
  0
ARC
  5
320
  8
4
 10
518.2693984766888
 20
1218.063568944304
 30
0.0
 40
9.0
 50
270.0
 51
0.0
  0
ARC
  5
321
  8
4
 10
486.2693984766888
 20
1200.063568944304
 30
0.0
 40
1.0
 50
270.0
 51
0.0
  0
ARC
  5
322
  8
4
  6
CONTINUOUS
 10
518.2693984766888
 20
1218.063568944304
 30
0.0
 40
9.0
 50
180.0
 51
270.0
  0
LINE
  5
323
  8
4
  6
CONTINUOUS
 10
527.2693984766888
 20
1218.063568944304
 30
0.0
 11
527.2693984766888
 21
1319.063568944304
 31
0.0
  0
LINE
  5
324
  8
4
  6
CONTINUOUS
 10
509.2693984766888
 20
1218.063568944304
 30
0.0
 11
509.2693984766888
 21
1319.063568944304
 31
0.0
  0
LINE
  5
325
  8
4
  6
CONTINUOUS
 10
487.2693984766888
 20
1200.063568944304
 30
0.0
 11
487.2693984766888
 21
1318.063568944304
 31
0.0
  0
LINE
  5
326
  8
4
 10
548.2693984766888
 20
1319.063568944304
 30
0.0
 11
549.2693984766888
 21
1318.063568944304
 31
0.0
  0
ARC
  5
327
  8
4
 10
550.2693984766888
 20
1200.063568944304
 30
0.0
 40
1.0
 50
180.0
 51
270.0
  0
LINE
  5
328
  8
4
 10
549.2693984766888
 20
1200.063568944304
 30
0.0
 11
549.2693984766888
 21
1318.063568944304
 31
0.0
  0
LINE
  5
329
  8
4
 10
485.7693984766888
 20
1199.063568944304
 30
0.0
 11
550.7693984766888
 21
1199.063568944304
 31
0.0
  0
LINE
  5
32A
  8
4
 10
488.2693984766888
 20
1319.063568944304
 30
0.0
 11
548.2693984766888
 21
1319.063568944304
 31
0.0
  0
LINE
  5
32B
  8
4
 10
527.2693984766888
 20
1318.063568944304
 30
0.0
 11
549.2693984766888
 21
1318.063568944304
 31
0.0
  0
LINE
  5
32C
  8
L-CENTER
 10
569.3214021125682
 20
944.6929836222055
 30
0.0
 11
569.3214021125682
 21
977.8344352601105
 31
0.0
  0
LINE
  5
33E
  8
4
 10
341.9878144767235
 20
1150.4635689443
 30
0.0
 11
841.9873984766891
 21
1150.463568944307
 31
0.0
  0
ARC
  5
33F
  8
4
 10
839.9873984766891
 20
1168.063568944308
 30
0.0
 40
2.0
 50
0.0
 51
90.0
  0
LINE
  5
340
  8
4
 10
841.9873984766891
 20
1168.063568944308
 30
0.0
 11
841.9873984766891
 21
1150.463568944307
 31
0.0
  0
ARC
  5
341
  8
4
 10
752.2693984766893
 20
1172.235634136559
 30
0.0
 40
3.0
 50
180.0
 51
226.3875280915794
  0
LINE
  5
342
  8
4
 10
749.2693984766888
 20
1177.063568944307
 30
0.0
 11
749.2693984766888
 21
1172.235634136559
 31
0.0
  0
LINE
  5
343
  8
4
 10
729.2693984766893
 20
1177.063568944307
 30
0.0
 11
729.2693984766893
 21
1178.063568944307
 31
0.0
  0
LINE
  5
344
  8
4
 10
649.2693984766893
 20
1177.063568944307
 30
0.0
 11
649.2693984766893
 21
1178.063568944307
 31
0.0
  0
LINE
  5
345
  8
L-CENTER
 10
689.2693984766893
 20
1189.063568944307
 30
0.0
 11
689.2693984766893
 21
960.1466862747106
 31
0.0
  0
ARC
  5
346
  8
4
 10
591.98739847669
 20
-2427.197471294906
 30
0.0
 40
3600.0
 50
89.45483109854293
 51
89.7887272992679
  0
ARC
  5
347
  8
4
 10
626.2693984766893
 20
1175.639430991402
 30
0.0
 40
3.0
 50
269.4548310985343
 51
0.0
  0
LINE
  5
348
  8
4
 10
629.2693984766893
 20
1177.063568944307
 30
0.0
 11
629.2693984766893
 21
1175.639430991402
 31
0.0
  0
LINE
  5
349
  8
4
 10
603.2693984766893
 20
1175.463568944307
 30
0.0
 11
603.2693984766893
 21
1186.463568944307
 31
0.0
  0
ARC
  5
34A
  8
4
 10
605.2693984766893
 20
1174.77804062574
 30
0.0
 40
2.0
 50
180.0
 51
269.7887272992679
  0
LINE
  5
34B
  8
4
 10
603.2693984766888
 20
1175.063568944307
 30
0.0
 11
603.2693984766888
 21
1174.77804062574
 31
0.0
  0
LINE
  5
34C
  8
4
 10
649.2693984766893
 20
1178.063568944307
 30
0.0
 11
729.2693984766893
 21
1178.063568944307
 31
0.0
  0
LINE
  5
34D
  8
4
 10
629.2693984766893
 20
1177.063568944307
 30
0.0
 11
749.2693984766888
 21
1177.063568944307
 31
0.0
  0
LINE
  5
34E
  8
L-CENTER
 10
518.2693984766888
 20
1326.103863159605
 30
0.0
 11
518.2693984766888
 21
820.0232747290029
 31
0.0
  0
LINE
  5
34F
  8
4
 10
433.2693984766888
 20
1175.463568944307
 30
0.0
 11
433.2693984766888
 21
1186.463568944307
 31
0.0
  0
ARC
  5
350
  8
4
 10
430.2693984766893
 20
1172.171402337803
 30
0.0
 40
3.0
 50
315.3631273622356
 51
0.0
  0
LINE
  5
351
  8
4
 10
433.2693984766888
 20
1175.063568944307
 30
0.0
 11
433.2693984766888
 21
1172.171402337803
 31
0.0
  0
ARC
  5
352
  8
4
 10
343.9878144767235
 20
1168.063568944307
 30
0.0
 40
2.0
 50
90.0
 51
180.0
  0
LINE
  5
353
  8
4
 10
341.9878144767235
 20
1168.063568944307
 30
0.0
 11
341.9878144767235
 21
1150.463568944306
 31
0.0
  0
ARC
  5
354
  8
4
 10
591.98739847669
 20
-2429.197471294906
 30
0.0
 40
3600.0
 50
88.83907489210426
 51
91.16092510789575
  0
LINE
  5
355
  8
4
 10
343.9878144767235
 20
1170.063568944307
 30
0.0
 11
839.9873984766891
 21
1170.063568944307
 31
0.0
  0
LINE
  5
356
  8
4
 10
433.2693984766888
 20
1175.463568944307
 30
0.0
 11
603.2693984766893
 21
1175.463568944307
 31
0.0
  0
LINE
  5
357
  8
4
 10
433.2693984766888
 20
1186.463568944307
 30
0.0
 11
603.2693984766893
 21
1186.463568944307
 31
0.0
  0
LINE
  5
358
  8
4
 10
433.2693984766888
 20
1175.063568944307
 30
0.0
 11
603.2693984766893
 21
1175.063568944307
 31
0.0
  0
LINE
  5
359
  8
4
 10
433.2693984766893
 20
970.6635689443035
 30
0.0
 11
433.2693984766893
 21
959.6635689443035
 31
0.0
  0
LINE
  5
35A
  8
4
 10
603.2693984766893
 20
970.6635689443037
 30
0.0
 11
603.2693984766893
 21
959.6635689443037
 31
0.0
  0
LINE
  5
35B
  8
4
 10
433.2693984766893
 20
970.6635689443035
 30
0.0
 11
603.2693984766893
 21
970.6635689443037
 31
0.0
  0
LINE
  5
35C
  8
4
 10
433.2693984766893
 20
959.6635689443035
 30
0.0
 11
603.2693984766893
 21
959.6635689443037
 31
0.0
  0
LINE
  5
35D
  8
4
 10
324.9873984766891
 20
999.0635689443038
 30
0.0
 11
323.9873984766891
 21
999.0635689443038
 31
0.0
  0
LINE
  5
35E
  8
4
 10
323.9873984766891
 20
999.0635689443038
 30
0.0
 11
323.9873984766891
 21
1079.063568944304
 31
0.0
  0
LINE
  5
35F
  8
4
 10
324.9873984766891
 20
1079.063568944304
 30
0.0
 11
323.9873984766891
 21
1079.063568944304
 31
0.0
  0
LINE
  5
360
  8
4
 10
859.9873984766891
 20
999.0635689443038
 30
0.0
 11
858.9873984766891
 21
999.0635689443038
 31
0.0
  0
LINE
  5
361
  8
4
 10
859.9873984766891
 20
999.0635689443038
 30
0.0
 11
859.9873984766891
 21
1079.063568944304
 31
0.0
  0
LINE
  5
362
  8
4
 10
859.9873984766891
 20
1079.063568944304
 30
0.0
 11
858.9873984766891
 21
1079.063568944304
 31
0.0
  0
LINE
  5
364
  8
L-CENTER
 10
212.9541017719575
 20
1039.063568944304
 30
0.0
 11
870.2870467601736
 21
1039.063568944304
 31
0.0
  0
LINE
  5
365
  8
4
 10
649.2693984766893
 20
968.0635689443038
 30
0.0
 11
729.2693984766893
 21
968.0635689443038
 31
0.0
  0
LINE
  5
366
  8
L-CENTER
 10
314.98739847669
 20
1073.063568944304
 30
0.0
 11
871.4873984766891
 21
1073.063568944304
 31
0.0
  0
ARC
  5
367
  8
4
 10
848.9873984766891
 20
1203.063568944304
 30
0.0
 40
5.0
 50
0.0
 51
90.0
  0
ARC
  5
368
  8
4
 10
851.9873984766891
 20
1145.063568944304
 30
0.0
 40
2.0
 50
0.0
 51
90.0
  0
ARC
  5
369
  8
4
 10
843.9873984766891
 20
1149.063568944304
 30
0.0
 40
2.0
 50
180.0
 51
270.0
  0
LINE
  5
36A
  8
4
 10
841.9873984766891
 20
1150.063568944304
 30
0.0
 11
841.9873984766891
 21
1149.063568944304
 31
0.0
  0
CIRCLE
  5
36B
  8
4
 10
791.9873984766891
 20
1183.063568944304
 30
0.0
 40
11.0
  0
LINE
  5
36C
  8
L-CENTER
 10
791.9873984766891
 20
1208.063568944306
 30
0.0
 11
791.98739847669
 21
1158.063568944302
 31
0.0
  0
ARC
  5
36D
  8
4
 10
737.1003441813964
 20
1203.063568944304
 30
0.0
 40
5.0
 50
90.0
 51
153.8118893025227
  0
LINE
  5
36E
  8
4
 10
719.233300116035
 20
1178.063568944307
 30
0.0
 11
732.6135943507934
 21
1205.270167221649
 31
0.0
  0
LINE
  5
36F
  8
L-CENTER
 10
766.9873984766882
 20
1183.063568944304
 30
0.0
 11
816.9873984766909
 21
1183.063568944304
 31
0.0
  0
LINE
  5
370
  8
4
 10
848.9873984766891
 20
1208.063568944304
 30
0.0
 11
737.1003441813964
 21
1208.063568944304
 31
0.0
  0
ARC
  5
371
  8
4
 10
446.8744527719819
 20
1203.063568944304
 30
0.0
 40
5.0
 50
26.18811069747731
 51
90.0
  0
LINE
  5
372
  8
4
 10
451.3612026025849
 20
1205.27016722165
 30
0.0
 11
459.711841341345
 21
1188.290535119504
 31
0.0
  0
ARC
  5
373
  8
4
 10
856.9873984766891
 20
1094.063568944304
 30
0.0
 40
3.0
 50
180.0
 51
270.0
  0
LINE
  5
374
  8
4
 10
856.9873984766891
 20
1091.063568944304
 30
0.0
 11
858.9873984766891
 21
1091.063568944304
 31
0.0
  0
ARC
  5
375
  8
4
 10
856.9873984766891
 20
984.0635689443036
 30
0.0
 40
3.0
 50
90.0
 51
180.0
  0
LINE
  5
376
  8
4
 10
856.9873984766891
 20
987.0635689443036
 30
0.0
 11
858.9873984766891
 21
987.0635689443036
 31
0.0
  0
ARC
  5
377
  8
4
 10
851.9873984766891
 20
1001.063568944303
 30
0.0
 40
2.0
 50
270.0
 51
0.0
  0
ARC
  5
378
  8
4
 10
848.98739847669
 20
943.0635689443038
 30
0.0
 40
5.0
 50
270.0
 51
0.0
  0
LINE
  5
379
  8
4
 10
858.9873984766891
 20
987.0635689443038
 30
0.0
 11
858.9873984766891
 21
1091.063568944304
 31
0.0
  0
LINE
  5
37A
  8
4
 10
811.9873984766891
 20
981.0635689443038
 30
0.0
 11
811.9873984766891
 21
980.0635689443034
 31
0.0
  0
ARC
  5
37B
  8
4
 10
814.9873984766891
 20
981.0635689443036
 30
0.0
 40
3.0
 50
90.0
 51
180.0
  0
LINE
  5
37C
  8
4
 10
841.9873984766891
 20
997.063568944304
 30
0.0
 11
841.9873984766891
 21
986.0635689443036
 31
0.0
  0
ARC
  5
37D
  8
4
 10
839.9873984766891
 20
986.0635689443036
 30
0.0
 40
2.0
 50
270.0
 51
0.0
  0
ARC
  5
37E
  8
4
 10
843.9873984766891
 20
997.063568944304
 30
0.0
 40
2.0
 50
90.0
 51
180.0
  0
LINE
  5
37F
  8
L-CENTER
 10
791.9873984766891
 20
938.0635689443036
 30
0.0
 11
791.9873984766891
 21
988.063568944304
 31
0.0
  0
CIRCLE
  5
380
  8
4
 10
791.9873984766891
 20
963.0635689443038
 30
0.0
 40
11.0
  0
ARC
  5
381
  8
4
 10
752.2693984766893
 20
973.9019533950043
 30
0.0
 40
3.0
 50
92.54968465658246
 51
180.0
  0
LINE
  5
382
  8
4
 10
749.2693984766893
 20
969.0635689443038
 30
0.0
 11
749.2693984766893
 21
973.9019533950043
 31
0.0
  0
LINE
  5
383
  8
4
 10
729.2693984766893
 20
969.0635689443038
 30
0.0
 11
729.2693984766893
 21
968.0635689443038
 31
0.0
  0
ARC
  5
384
  8
4
 10
737.1003441813964
 20
943.063568944304
 30
0.0
 40
5.0
 50
206.1881106974773
 51
270.0
  0
LINE
  5
385
  8
4
 10
719.2333001160337
 20
968.0635689443038
 30
0.0
 11
732.6135943507943
 21
940.8569706669584
 31
0.0
  0
LINE
  5
386
  8
L-CENTER
 10
766.9873984766882
 20
963.0635689443038
 30
0.0
 11
816.9873984766891
 21
963.0635689443038
 31
0.0
  0
ARC
  5
387
  8
4
 10
591.9873984766891
 20
4573.335058826468
 30
0.0
 40
3600.0
 50
272.5496846565303
 51
273.5035917935323
  0
LINE
  5
388
  8
4
 10
848.98739847669
 20
938.0635689443038
 30
0.0
 11
737.1003441813964
 21
938.063568944304
 31
0.0
  0
LINE
  5
389
  8
4
 10
841.9873984766891
 20
985.0635689443036
 30
0.0
 11
853.9873984766891
 21
985.0635689443036
 31
0.0
  0
ARC
  5
38A
  8
4
 10
626.2693984766893
 20
970.4981565401615
 30
0.0
 40
3.0
 50
0.0
 51
90.54516890145703
  0
LINE
  5
38B
  8
4
 10
629.2693984766893
 20
969.0635689443038
 30
0.0
 11
629.2693984766893
 21
970.4981565401615
 31
0.0
  0
LINE
  5
38C
  8
4
 10
649.2693984766893
 20
969.0635689443038
 30
0.0
 11
649.2693984766893
 21
968.0635689443038
 31
0.0
  0
ARC
  5
38D
  8
4
 10
605.2693984766893
 20
971.3595469058234
 30
0.0
 40
2.0
 50
90.21127270070608
 51
180.0
  0
LINE
  5
38E
  8
4
 10
603.2693984766893
 20
971.0635689443038
 30
0.0
 11
603.2693984766893
 21
971.3595469058234
 31
0.0
  0
ARC
  5
38F
  8
4
 10
591.9873984766891
 20
4573.335058826468
 30
0.0
 40
3600.0
 50
270.2112727007582
 51
270.5451689014571
  0
ARC
  5
390
  8
4
 10
430.2693984766893
 20
973.9661851937601
 30
0.0
 40
3.0
 50
0.0
 51
87.42745689043524
  0
LINE
  5
391
  8
4
 10
433.2693984766893
 20
971.0635689443036
 30
0.0
 11
433.2693984766893
 21
973.9661851937601
 31
0.0
  0
ARC
  5
392
  8
4
 10
446.8744527719828
 20
943.063568944304
 30
0.0
 40
5.0
 50
270.0
 51
333.8118893025227
  0
LINE
  5
393
  8
4
 10
459.9673948408094
 20
958.3562282180144
 30
0.0
 11
451.3612026025858
 21
940.8569706669584
 31
0.0
  0
LINE
  5
394
  8
4
 10
433.2693984766893
 20
971.0635689443036
 30
0.0
 11
603.2693984766893
 21
971.0635689443038
 31
0.0
  0
LINE
  5
395
  8
4
 10
629.2693984766893
 20
969.0635689443038
 30
0.0
 11
749.2693984766893
 21
969.0635689443038
 31
0.0
  0
LINE
  5
396
  8
L-CENTER
 10
591.9873984766891
 20
954.8135689443036
 30
0.0
 11
591.9873984766891
 21
1162.938568944304
 31
0.0
  0
LINE
  5
397
  8
4
 10
853.98739847669
 20
943.0635689443038
 30
0.0
 11
853.9873984766891
 21
1203.063568944304
 31
0.0
  0
ARC
  5
398
  8
4
 10
334.9873984766891
 20
1203.063568944304
 30
0.0
 40
5.0
 50
90.0
 51
180.0
  0
LINE
  5
399
  8
4
 10
331.9873984766891
 20
1147.063568944304
 30
0.0
 11
851.9873984766891
 21
1147.063568944304
 31
0.0
  0
ARC
  5
39A
  8
4
 10
331.9873984766891
 20
1145.063568944304
 30
0.0
 40
2.0
 50
90.0
 51
180.0
  0
LINE
  5
39B
  8
4
 10
341.9873984766891
 20
1150.063568944304
 30
0.0
 11
341.9873984766891
 21
1149.063568944304
 31
0.0
  0
ARC
  5
39C
  8
4
 10
339.9873984766891
 20
1149.063568944304
 30
0.0
 40
2.0
 50
270.0
 51
0.0
  0
LINE
  5
39D
  8
L-CENTER
 10
391.98739847669
 20
1208.063568944306
 30
0.0
 11
391.9873984766891
 21
1158.063568944302
 31
0.0
  0
LINE
  5
39E
  8
4
 10
326.9873984766891
 20
1091.063568944304
 30
0.0
 11
324.9873984766891
 21
1091.063568944304
 31
0.0
  0
ARC
  5
39F
  8
4
 10
326.9873984766891
 20
1094.063568944304
 30
0.0
 40
3.0
 50
270.0
 51
0.0
  0
LINE
  5
3A0
  8
4
 10
371.9873984766891
 20
981.0635689443038
 30
0.0
 11
371.9873984766891
 21
980.0635689443034
 31
0.0
  0
ARC
  5
3A1
  8
4
 10
368.9873984766891
 20
981.0635689443038
 30
0.0
 40
3.0
 50
0.0
 51
90.0
  0
LINE
  5
3A2
  8
4
 10
342.2553476691346
 20
985.0635689443036
 30
0.0
 11
329.8158256014358
 21
985.0635689443036
 31
0.0
  0
LINE
  5
3A3
  8
4
 10
331.9873984766891
 20
999.0635689443038
 30
0.0
 11
851.9873984766891
 21
999.0635689443038
 31
0.0
  0
LINE
  5
3A4
  8
4
 10
326.9873984766891
 20
987.0635689443038
 30
0.0
 11
324.9873984766891
 21
987.0635689443036
 31
0.0
  0
ARC
  5
3A5
  8
4
 10
326.9873984766891
 20
984.0635689443036
 30
0.0
 40
3.0
 50
0.0
 51
90.0
  0
ARC
  5
3A6
  8
4
 10
331.9873984766891
 20
1001.063568944304
 30
0.0
 40
2.0
 50
180.0
 51
270.0
  0
LINE
  5
3A7
  8
4
 10
341.9873984766891
 20
997.0635689443038
 30
0.0
 11
341.9873984766891
 21
986.0635689443038
 31
0.0
  0
ARC
  5
3A8
  8
4
 10
343.9873984766891
 20
986.0635689443038
 30
0.0
 40
2.0
 50
180.0
 51
270.0
  0
ARC
  5
3A9
  8
4
 10
339.9873984766891
 20
997.0635689443038
 30
0.0
 40
2.0
 50
0.0
 51
90.0
  0
LINE
  5
3AA
  8
4
 10
343.9873984766891
 20
984.0635689443038
 30
0.0
 11
839.9873984766891
 21
984.0635689443038
 31
0.0
  0
ARC
  5
3AB
  8
4
 10
334.98739847669
 20
943.063568944304
 30
0.0
 40
5.0
 50
180.0
 51
270.0
  0
LINE
  5
3AC
  8
L-CENTER
 10
391.98739847669
 20
938.0635689443036
 30
0.0
 11
391.98739847669
 21
988.063568944304
 31
0.0
  0
LINE
  5
3AD
  8
4
 10
324.9873984766891
 20
987.0635689443036
 30
0.0
 11
324.9873984766891
 21
1091.063568944304
 31
0.0
  0
LINE
  5
3AE
  8
4
 10
329.98739847669
 20
943.063568944304
 30
0.0
 11
329.9873984766891
 21
1203.063568944304
 31
0.0
  0
LINE
  5
3AF
  8
4
 10
341.9873984766891
 20
1150.063568944304
 30
0.0
 11
841.9873984766891
 21
1150.063568944304
 31
0.0
  0
ARC
  5
3B0
  8
4
 10
591.9873984766891
 20
4575.335058826468
 30
0.0
 40
3600.0
 50
266.4964082064677
 51
273.5035917935323
  0
CIRCLE
  5
3B1
  8
4
 10
391.98739847669
 20
963.0635689443038
 30
0.0
 40
11.0
  0
LINE
  5
3B2
  8
4
 10
446.8744527719828
 20
938.063568944304
 30
0.0
 11
334.98739847669
 21
938.063568944304
 31
0.0
  0
LINE
  5
3B3
  8
L-CENTER
 10
416.98739847669
 20
963.0635689443038
 30
0.0
 11
366.98739847669
 21
963.0635689443038
 31
0.0
  0
ARC
  5
3B4
  8
4
 10
591.9873984766891
 20
4573.335058826468
 30
0.0
 40
3600.0
 50
266.4964082064677
 51
267.4274568904875
  0
LINE
  5
3B5
  8
L-CENTER
 10
416.9873984766909
 20
1183.063568944304
 30
0.0
 11
366.9873984766873
 21
1183.063568944304
 31
0.0
  0
CIRCLE
  5
3B6
  8
4
 10
391.9873984766891
 20
1183.063568944304
 30
0.0
 40
11.0
  0
LINE
  5
3B7
  8
4
 10
446.8744527719819
 20
1208.063568944304
 30
0.0
 11
334.9873984766891
 21
1208.063568944304
 31
0.0
  0
LINE
  5
3BB
  8
4
 10
1582.606946841777
 20
335.1204068942588
 30
0.0
 11
1581.606946841777
 21
336.1204068942588
 31
0.0
  0
LINE
  5
3BC
  8
4
 10
1581.606946841777
 20
274.1204068942588
 30
0.0
 11
1582.606946841777
 21
275.1204068942588
 31
0.0
  0
LINE
  5
3BD
  8
4
 10
1581.606946841777
 20
336.1204068942588
 30
0.0
 11
1581.606946841777
 21
274.1204068942588
 31
0.0
  0
LINE
  5
3BE
  8
4
 10
1582.606946841777
 20
342.1204068942588
 30
0.0
 11
1582.606946841777
 21
275.1204068942588
 31
0.0
  0
LINE
  5
3BF
  8
4
 10
1425.606946841777
 20
575.1204068942588
 30
0.0
 11
1410.606946841777
 21
575.1204068942588
 31
0.0
  0
LINE
  5
3C0
  8
4
 10
1413.606946841777
 20
575.1204068942588
 30
0.0
 11
1410.606946841777
 21
575.1204068942588
 31
0.0
  0
LINE
  5
3CC
  8
L-CENTER
 10
1304.207951785949
 20
614.1204068942588
 30
0.0
 11
1369.005941897605
 21
614.1204068942588
 31
0.0
  0
LINE
  5
3CD
  8
4
 10
1370.606946841777
 20
580.1204068942588
 30
0.0
 11
1370.606946841777
 21
588.1204068942588
 31
0.0
  0
LINE
  5
3CE
  8
4
 10
1348.792738841777
 20
597.1204068942588
 30
0.0
 11
1349.106946841777
 21
588.1204068942588
 31
0.0
  0
LINE
  5
3CF
  8
4
 10
1324.421154841777
 20
597.1204068942588
 30
0.0
 11
1336.606946841777
 21
599.1204068942588
 31
0.0
  0
LINE
  5
3D0
  8
4
 10
1324.421154841777
 20
597.1204068942588
 30
0.0
 11
1324.106946841777
 21
588.1204068942588
 31
0.0
  0
LINE
  5
3D1
  8
4
 62
     3
 10
1290.106946841777
 20
580.9873508942587
 30
0.0
 11
1302.606946841777
 21
580.9873508942587
 31
0.0
  0
LINE
  5
3D2
  8
4
 62
     3
 10
1290.106946841777
 20
580.9873508942587
 30
0.0
 11
1290.106946841777
 21
580.1204068942588
 31
0.0
  0
LINE
  5
3D3
  8
4
 10
1302.606946841777
 20
580.1204068942588
 30
0.0
 11
1302.606946841777
 21
588.1204068942588
 31
0.0
  0
LINE
  5
3D4
  8
4
 10
1370.606946841777
 20
588.1204068942588
 30
0.0
 11
1302.606946841777
 21
588.1204068942588
 31
0.0
  0
LINE
  5
3D5
  8
4
 10
1348.792738841777
 20
597.1204068942588
 30
0.0
 11
1324.421154841777
 21
597.1204068942588
 31
0.0
  0
LINE
  5
3D6
  8
4
 10
1336.606946841777
 20
599.1204068942588
 30
0.0
 11
1348.792738841777
 21
597.1204068942588
 31
0.0
  0
ARC
  5
3D7
  8
4
 10
1336.606946841777
 20
614.1204068942588
 30
0.0
 40
24.999976
 50
299.607257999999
 51
240.3932259999998
  0
CIRCLE
  5
3D8
  8
4
 10
1336.606946841777
 20
614.1204068942588
 30
0.0
 40
15.0
  0
LINE
  5
3D9
  8
4
 10
1247.606946841777
 20
575.1204068942588
 30
0.0
 11
1262.606946841777
 21
575.1204068942588
 31
0.0
  0
LINE
  5
3DA
  8
4
 10
1247.606946841777
 20
545.1204068942588
 30
0.0
 11
1246.338390841777
 21
545.1204068942588
 31
0.0
  0
LINE
  5
3DB
  8
4
 10
1410.606946841777
 20
580.1204068942588
 30
0.0
 11
1262.606946841777
 21
580.1204068942588
 31
0.0
  0
LINE
  5
3DC
  8
4
 10
1433.017102841777
 20
390.1204068942588
 30
0.0
 11
1438.606946841777
 21
390.1204068942588
 31
0.0
  0
LINE
  5
3DD
  8
4
 10
1433.213878841776
 20
378.1204068942588
 30
0.0
 11
1438.606946841777
 21
378.1204068942588
 31
0.0
  0
LINE
  5
3DE
  8
4
 10
1438.606946841777
 20
390.1204068942588
 30
0.0
 11
1449.606946841777
 21
390.1204068942588
 31
0.0
  0
LINE
  5
3DF
  8
4
 10
1472.606946841777
 20
342.1204068942588
 30
0.0
 11
1472.606946841777
 21
336.1204068942588
 31
0.0
  0
LINE
  5
3E0
  8
4
 10
1462.606946841777
 20
337.6204068942588
 30
0.0
 11
1450.606946841777
 21
337.6204068942588
 31
0.0
  0
LINE
  5
3E1
  8
4
 10
1438.606946841777
 20
358.1204068942588
 30
0.0
 11
1439.606946841777
 21
358.1204068942588
 31
0.0
  0
LINE
  5
3E2
  8
4
 10
1438.606946841776
 20
278.1204068942587
 30
0.0
 11
1439.606946841777
 21
278.1204068942588
 31
0.0
  0
LINE
  5
3E3
  8
4
 10
1450.606946841777
 20
272.6204068942588
 30
0.0
 11
1462.606946841777
 21
272.6204068942588
 31
0.0
  0
LINE
  5
3E4
  8
4
 10
1438.606946841777
 20
258.1204068942588
 30
0.0
 11
1432.980482841776
 21
258.1204068942588
 31
0.0
  0
LINE
  5
3E5
  8
4
 10
1432.072522841776
 20
220.1204068942588
 30
0.0
 11
1438.606946841777
 21
220.1204068942588
 31
0.0
  0
LINE
  5
3E6
  8
4
 10
1449.606946841777
 20
220.1204068942588
 30
0.0
 11
1438.606946841777
 21
220.1204068942588
 31
0.0
  0
LINE
  5
3E7
  8
4
 10
1436.577406841776
 20
120.0084727541064
 30
0.0
 11
1425.606946841777
 21
120.0084727541064
 31
0.0
  0
ARC
  5
3E8
  8
4
 10
-2166.397937158224
 20
325.1204068942588
 30
0.0
 40
3599.99998
 50
356.7337733893047
 51
358.3775071640987
  0
ARC
  5
3E9
  8
4
 10
1348.101818841777
 20
215.6152788942588
 30
0.0
 40
2.999996
 50
8.809980999998883
 51
81.19004099999852
  0
LINE
  5
3EF
  8
4
 10
1438.606946841777
 20
390.1204068942588
 30
0.0
 11
1438.606946841777
 21
220.1204068942588
 31
0.0
  0
LINE
  5
3F0
  8
4
 10
1449.606946841777
 20
390.1204068942588
 30
0.0
 11
1449.606946841777
 21
220.1204068942588
 31
0.0
  0
LINE
  5
3F1
  8
4
 10
1438.606946841777
 20
390.1204068942588
 30
0.0
 11
1438.606946841777
 21
220.1204068942588
 31
0.0
  0
LINE
  5
3F2
  8
4
 10
1450.606946841777
 20
349.1357695301388
 30
0.0
 11
1450.606946841777
 21
261.1050442583792
 31
0.0
  0
LINE
  5
3F3
  8
4
 10
1462.606946841777
 20
337.6204068942588
 30
0.0
 11
1462.606946841777
 21
272.6204068942588
 31
0.0
  0
LINE
  5
3F4
  8
4
 10
1439.606946841777
 20
358.1204068942588
 30
0.0
 11
1439.606946841777
 21
278.1204068942588
 31
0.0
  0
LINE
  5
3F5
  8
4
 10
1240.196790841777
 20
390.1204068942588
 30
0.0
 11
1234.606946841777
 21
390.1204068942588
 31
0.0
  0
LINE
  5
3F6
  8
4
 10
1240.000010841777
 20
378.1204068942588
 30
0.0
 11
1234.606946841777
 21
378.1204068942588
 31
0.0
  0
LINE
  5
3F7
  8
4
 10
1234.606946841777
 20
390.1204068942588
 30
0.0
 11
1223.606946841777
 21
390.1204068942588
 31
0.0
  0
LINE
  5
3F8
  8
4
 10
1233.606946841777
 20
358.1204068942588
 30
0.0
 11
1234.606946841776
 21
358.1204068942588
 31
0.0
  0
LINE
  5
3F9
  8
4
 10
1233.606946841777
 20
278.120406894259
 30
0.0
 11
1234.606946841776
 21
278.1204068942588
 31
0.0
  0
LINE
  5
3FA
  8
4
 10
1234.606946841777
 20
258.1204068942588
 30
0.0
 11
1240.233410841777
 21
258.1204068942588
 31
0.0
  0
ARC
  5
3FB
  8
4
 10
1302.606946841777
 20
-75.87959310574115
 30
0.0
 40
300.000008
 50
98.15862200000005
 51
99.14894000000005
  0
ARC
  5
3FC
  8
4
 10
1257.112074841777
 20
215.6152788942588
 30
0.0
 40
2.999996
 50
98.80997800000503
 51
171.1900219999996
  0
ARC
  5
3FD
  8
4
 10
1255.385022841776
 20
217.3423308942588
 30
0.0
 40
3.000084
 50
99.14958099999166
 51
170.8504189999994
  0
ARC
  5
3FE
  8
4
 10
1259.606946841777
 20
224.0537548942589
 30
0.0
 40
3.000048
 50
278.1591099999987
 51
0.0
  0
LINE
  5
3FF
  8
4
 10
1241.643810841776
 20
204.1204068942588
 30
0.0
 11
1238.372082841777
 21
204.1204068942588
 31
0.0
  0
LINE
  5
400
  8
4
 10
1241.141370841776
 20
220.1204068942588
 30
0.0
 11
1234.606946841777
 21
220.1204068942588
 31
0.0
  0
LINE
  5
401
  8
4
 10
1236.372082841777
 20
198.1204068942588
 30
0.0
 11
1238.372082841777
 21
198.1204068942588
 31
0.0
  0
LINE
  5
402
  8
L-CENTER
 10
1222.936170841777
 20
184.1204068942588
 30
0.0
 11
1259.026844872478
 21
184.1204068942588
 31
0.0
  0
LINE
  5
403
  8
4
 10
1234.372082841777
 20
191.6204068942588
 30
0.0
 11
1229.372082841777
 21
191.6204068942588
 31
0.0
  0
LINE
  5
404
  8
4
 10
1229.372082841777
 20
199.1204068942588
 30
0.0
 11
1236.372082841777
 21
199.1204068942588
 31
0.0
  0
LINE
  5
405
  8
4
 10
1223.606946841777
 20
220.1204068942588
 30
0.0
 11
1234.606946841777
 21
220.1204068942588
 31
0.0
  0
LINE
  5
406
  8
4
 10
1243.211926841777
 20
164.1204068942588
 30
0.0
 11
1238.372082841777
 21
164.1204068942588
 31
0.0
  0
LINE
  5
407
  8
4
 10
1236.372082841777
 20
170.1204068942588
 30
0.0
 11
1238.372082841777
 21
170.1204068942588
 31
0.0
  0
LINE
  5
408
  8
4
 10
1236.372082841777
 20
169.1204068942588
 30
0.0
 11
1229.372082841777
 21
169.1204068942588
 31
0.0
  0
LINE
  5
409
  8
4
 10
1234.372082841777
 20
176.6204068942588
 30
0.0
 11
1229.372082841777
 21
176.6204068942588
 31
0.0
  0
LINE
  5
40A
  8
4
 10
1229.372082841777
 20
169.1204068942588
 30
0.0
 11
1229.372082841777
 21
199.1204068942588
 31
0.0
  0
LINE
  5
40B
  8
4
 10
1234.372082841777
 20
169.1204068942588
 30
0.0
 11
1234.372082841777
 21
199.1204068942588
 31
0.0
  0
LINE
  5
40C
  8
4
 10
1236.372082841777
 20
169.1204068942588
 30
0.0
 11
1236.372082841777
 21
199.1204068942588
 31
0.0
  0
LINE
  5
40D
  8
4
 10
1238.372082841777
 20
170.1204068942588
 30
0.0
 11
1238.372082841777
 21
198.1204068942588
 31
0.0
  0
LINE
  5
40E
  8
4
 10
1238.372082841777
 20
164.1204068942588
 30
0.0
 11
1238.372082841777
 21
204.1204068942588
 31
0.0
  0
LINE
  5
40F
  8
4
 10
1223.606946841777
 20
390.1204068942588
 30
0.0
 11
1223.606946841777
 21
220.1204068942588
 31
0.0
  0
LINE
  5
410
  8
4
 10
1234.606946841777
 20
390.1204068942588
 30
0.0
 11
1234.606946841777
 21
220.1204068942588
 31
0.0
  0
LINE
  5
411
  8
4
 10
1233.606946841777
 20
358.1204068942588
 30
0.0
 11
1233.606946841777
 21
278.120406894259
 31
0.0
  0
LINE
  5
412
  8
L-CENTER
 10
1444.577954841776
 20
325.1204068942588
 30
0.0
 11
1216.561626841777
 21
325.1204068942588
 31
0.0
  0
ARC
  5
413
  8
4
 10
1302.606946841777
 20
-77.87959310574115
 30
0.0
 40
300.000008
 50
81.18867700000007
 51
98.811561
  0
LINE
  5
414
  8
L-CENTER
 10
1239.435578841777
 20
170.1204068942588
 30
0.0
 11
1365.778314841777
 21
170.1204068942588
 31
0.0
  0
LINE
  5
415
  8
4
 10
1262.606946841777
 20
224.0537548942589
 30
0.0
 11
1262.606946841777
 21
580.1204068942588
 31
0.0
  0
ARC
  5
416
  8
4
 10
-2166.397937158224
 20
325.1204068942588
 30
0.0
 40
3599.999956
 50
1.622492846720801
 51
3.266226632493781
  0
LINE
  5
417
  8
L-CENTER
 10
1591.884290841777
 20
305.1204068942588
 30
0.0
 11
1081.329602841777
 21
305.1204068942591
 31
0.0
  0
LINE
  5
418
  8
4
 10
1462.606946841777
 20
274.1204068942588
 30
0.0
 11
1581.606946841777
 21
274.1204068942588
 31
0.0
  0
LINE
  5
419
  8
4
 10
1462.606946841777
 20
336.1204068942588
 30
0.0
 11
1581.606946841777
 21
336.1204068942588
 31
0.0
  0
LINE
  5
41A
  8
4
 10
1582.606946841777
 20
342.1204068942588
 30
0.0
 11
1472.606946841777
 21
342.1204068942588
 31
0.0
  0
ARC
  5
41B
  8
4
 10
1468.606946841777
 20
87.12040689425885
 30
0.0
 40
3.0
 50
0.0
 51
90.0
  0
LINE
  5
41C
  8
4
 10
1428.606946841777
 20
102.0084727541064
 30
0.0
 11
1436.577406841776
 21
102.0084727541064
 31
0.0
  0
LINE
  5
41D
  8
4
 10
1428.606946841777
 20
114.0084727541064
 30
0.0
 11
1436.577406841776
 21
114.0084727541064
 31
0.0
  0
LINE
  5
41E
  8
4
 10
1437.606946841777
 20
99.00847275410638
 30
0.0
 11
1437.606946841777
 21
117.0084727541064
 31
0.0
  0
ARC
  5
41F
  8
4
 10
1419.606946841777
 20
108.0084727541064
 30
0.0
 40
18.000092
 50
340.5289279999991
 51
19.47034000000005
  0
LINE
  5
422
  8
4
 10
1436.577406841776
 20
96.00847275410638
 30
0.0
 11
1425.606946841777
 21
96.00847275410638
 31
0.0
  0
ARC
  5
423
  8
4
 10
1433.023206841777
 20
99.00847275410638
 30
0.0
 40
4.583692
 50
319.118678999995
 51
40.88132100000501
  0
POLYLINE
  5
425
  8
4
 62
     3
 66
     1
 10
0.0
 20
0.0
 30
0.0
  0
VERTEX
  5
5D0
  8
4
 62
     3
 10
1420.128502841776
 20
90.12040689425885
 30
0.0
  0
VERTEX
  5
5D1
  8
4
 62
     3
 10
1420.358906841776
 20
89.32966689425893
 30
0.0
  0
VERTEX
  5
5D2
  8
4
 62
     3
 10
1420.520838841776
 20
88.55982689425878
 30
0.0
  0
VERTEX
  5
5D3
  8
4
 62
     3
 10
1420.596802841776
 20
87.81623089425875
 30
0.0
  0
VERTEX
  5
5D4
  8
4
 62
     3
 10
1420.569294841777
 20
87.1042148942588
 30
0.0
  0
VERTEX
  5
5D5
  8
4
 62
     3
 10
1420.420826841776
 20
86.42912289425885
 30
0.0
  0
VERTEX
  5
5D6
  8
4
 62
     3
 10
1420.133890841777
 20
85.79629489425884
 30
0.0
  0
VERTEX
  5
5D7
  8
4
 62
     3
 10
1419.782710841776
 20
85.30325089425878
 30
0.0
  0
VERTEX
  5
5D8
  8
4
 62
     3
 10
1419.350638841777
 20
84.83488689425894
 30
0.0
  0
VERTEX
  5
5D9
  8
4
 62
     3
 10
1418.865034841776
 20
84.38283089425886
 30
0.0
  0
VERTEX
  5
5DA
  8
4
 62
     3
 10
1417.360778841777
 20
83.04080689425882
 30
0.0
  0
VERTEX
  5
5DB
  8
4
 62
     3
 10
1416.934778841777
 20
82.57028689425874
 30
0.0
  0
VERTEX
  5
5DC
  8
4
 62
     3
 10
1416.592102841777
 20
82.07422289425881
 30
0.0
  0
VERTEX
  5
5DD
  8
4
 62
     3
 10
1416.360118841777
 20
81.54425089425877
 30
0.0
  0
VERTEX
  5
5DE
  8
4
 62
     3
 10
1416.258894841777
 20
80.99239089425873
 30
0.0
  0
VERTEX
  5
5DF
  8
4
 62
     3
 10
1416.265334841777
 20
80.40764289425874
 30
0.0
  0
VERTEX
  5
5E0
  8
4
 62
     3
 10
1416.357254841776
 20
79.79686689425876
 30
0.0
  0
VERTEX
  5
5E1
  8
4
 62
     3
 10
1416.924002841777
 20
77.87711889425873
 30
0.0
  0
VERTEX
  5
5E2
  8
4
 62
     3
 10
1417.461286841777
 20
75.97051889425893
 30
0.0
  0
VERTEX
  5
5E3
  8
4
 62
     3
 10
1417.530290841777
 20
75.36997089425881
 30
0.0
  0
VERTEX
  5
5E4
  8
4
 62
     3
 10
1417.507270841777
 20
74.79837089425882
 30
0.0
  0
VERTEX
  5
5E5
  8
4
 62
     3
 10
1417.370038841776
 20
74.2625868942589
 30
0.0
  0
VERTEX
  5
5E6
  8
4
 62
     3
 10
1416.932898841776
 20
73.5346508942589
 30
0.0
  0
VERTEX
  5
5E7
  8
4
 62
     3
 10
1416.290394841777
 20
72.87054289425873
 30
0.0
  0
VERTEX
  5
5E8
  8
4
 62
     3
 10
1415.541662841777
 20
72.23879889425871
 30
0.0
  0
VERTEX
  5
5E9
  8
4
 62
     3
 10
1414.785830841777
 20
71.6079588942589
 30
0.0
  0
VERTEX
  5
5EA
  8
4
 62
     3
 10
1414.122030841776
 20
70.94655489425872
 30
0.0
  0
VERTEX
  5
5EB
  8
4
 62
     3
 10
1413.649394841776
 20
70.22312689425871
 30
0.0
  0
VERTEX
  5
5EC
  8
4
 62
     3
 10
1413.423510841777
 20
69.14921489425888
 30
0.0
  0
VERTEX
  5
5ED
  8
4
 62
     3
 10
1413.549810841776
 20
67.96425089425884
 30
0.0
  0
VERTEX
  5
5EE
  8
4
 62
     3
 10
1413.882410841777
 20
66.71758689425883
 30
0.0
  0
VERTEX
  5
5EF
  8
4
 62
     3
 10
1414.275442841777
 20
65.45857489425885
 30
0.0
  0
VERTEX
  5
5F0
  8
4
 62
     3
 10
1414.583026841777
 20
64.2365588942589
 30
0.0
  0
VERTEX
  5
5F1
  8
4
 62
     3
 10
1414.659282841777
 20
63.10089089425878
 30
0.0
  0
VERTEX
  5
5F2
  8
4
 62
     3
 10
1414.457986841776
 20
62.24291489425877
 30
0.0
  0
VERTEX
  5
5F3
  8
4
 62
     3
 10
1414.024766841776
 20
61.4683708942589
 30
0.0
  0
VERTEX
  5
5F4
  8
4
 62
     3
 10
1413.393798841777
 20
60.76497089425879
 30
0.0
  0
VERTEX
  5
5F5
  8
4
 62
     3
 10
1412.599254841777
 20
60.12041089425884
 30
0.0
  0
SEQEND
  5
5F8
  8
4
 62
     3
  0
LINE
  5
426
  8
4
 10
1435.606946841777
 20
60.12040689425885
 30
0.0
 11
1435.606946841777
 21
90.12040689425885
 31
0.0
  0
LINE
  5
427
  8
L-CENTER
 10
1446.606946841777
 20
47.12040689425885
 30
0.0
 11
1446.606946841777
 21
103.1204068942588
 31
0.0
  0
LINE
  5
428
  8
4
 10
1457.606946841777
 20
60.12040689425885
 30
0.0
 11
1457.606946841777
 21
90.12040689425885
 31
0.0
  0
LINE
  5
429
  8
4
 10
1471.606946841777
 20
87.12040689425885
 30
0.0
 11
1471.606946841777
 21
60.12040689425885
 31
0.0
  0
ARC
  5
42B
  8
4
 10
1348.101818841777
 20
124.6255308942589
 30
0.0
 40
2.999996
 50
278.8099590000015
 51
351.190018999999
  0
LINE
  5
42C
  8
4
 10
1468.606946841777
 20
90.12040689425885
 30
0.0
 11
1336.606946841777
 21
90.12040689425885
 31
0.0
  0
LINE
  5
42D
  8
4
 10
1336.606946841777
 20
60.12040689425885
 30
0.0
 11
1471.606946841777
 21
60.12040689425885
 31
0.0
  0
ARC
  5
42E
  8
4
 10
1425.606946841777
 20
105.1204068942588
 30
0.0
 40
15.0
 50
180.0
 51
270.000932
  0
LINE
  5
42F
  8
L-CENTER
 10
1392.509245504277
 20
108.0087167541064
 30
0.0
 11
1441.688555047819
 21
108.0087167541064
 31
0.0
  0
ARC
  5
430
  8
4
 10
1302.606946841777
 20
416.1204068942588
 30
0.0
 40
300.000036
 50
260.8519109999999
 51
261.841662
  0
ARC
  5
431
  8
4
 10
1257.112074841777
 20
124.6255308942589
 30
0.0
 40
2.999996
 50
188.8099780000004
 51
261.1900219999949
  0
ARC
  5
432
  8
4
 10
1255.385022841776
 20
122.8984828942589
 30
0.0
 40
3.000084
 50
189.1495810000005
 51
260.8504190000084
  0
ARC
  5
433
  8
4
 10
1259.606946841777
 20
116.1870548942588
 30
0.0
 40
3.000048
 50
0.0
 51
81.84089000000124
  0
LINE
  5
434
  8
4
 10
1247.606946841777
 20
105.1204068942588
 30
0.0
 11
1246.338390841777
 21
105.1204068942588
 31
0.0
  0
ARC
  5
435
  8
4
 10
1247.606946841777
 20
105.1204068942588
 30
0.0
 40
15.0
 50
270.000932
 51
0.0
  0
LINE
  5
436
  8
4
 10
1262.606946841777
 20
116.1870548942588
 30
0.0
 11
1262.606946841777
 21
105.1204068942588
 31
0.0
  0
ARC
  5
437
  8
4
 10
1204.606946841777
 20
87.12040689425885
 30
0.0
 40
3.0
 50
90.0
 51
180.0
  0
LINE
  5
438
  8
4
 10
1201.606946841777
 20
87.12040689425885
 30
0.0
 11
1201.606946841777
 21
60.12040689425885
 31
0.0
  0
LINE
  5
439
  8
L-CENTER
 10
1226.606946841777
 20
47.12040689425885
 30
0.0
 11
1226.606946841777
 21
103.1204068942588
 31
0.0
  0
LINE
  5
43A
  8
4
 10
1336.606946841777
 20
60.12040689425885
 30
0.0
 11
1201.606946841777
 21
60.12040689425885
 31
0.0
  0
LINE
  5
43B
  8
4
 10
1204.606946841777
 20
90.12040689425885
 30
0.0
 11
1336.606946841777
 21
90.12040689425885
 31
0.0
  0
ARC
  5
43C
  8
4
 10
1302.606946841777
 20
418.1204068942588
 30
0.0
 40
300.000028
 50
261.1889599999998
 51
278.8118899999998
  0
TEXT
  5
43E
  8
3
 10
897.0232106755818
 20
38.65481959733313
 30
0.0
 40
15.0
  1
LD6-07
  7
KANJI
  0
LINE
  5
43F
  8
4
 10
1245.606946841777
 20
90.12040689425885
 30
0.0
 11
1245.606946841777
 21
100.3704068942588
 31
0.0
  0
LINE
  5
440
  8
4
 10
1247.606946841777
 20
90.12040689425885
 30
0.0
 11
1247.606946841777
 21
575.1204068942588
 31
0.0
  0
LINE
  5
441
  8
4
 10
1425.606946841777
 20
90.12040689425885
 30
0.0
 11
1425.606946841777
 21
575.1204068942588
 31
0.0
  0
LINE
  5
442
  8
4
 10
1413.606946841777
 20
96.12040689425885
 30
0.0
 11
1413.606946841777
 21
575.1204068942588
 31
0.0
  0
LINE
  5
443
  8
4
 10
1410.606946841777
 20
105.1204068942588
 30
0.0
 11
1410.606946841777
 21
580.1204068942588
 31
0.0
  0
LINE
  5
444
  8
4
 10
1246.338390841777
 20
545.1204068942588
 30
0.0
 11
1246.338390841777
 21
105.1204068942588
 31
0.0
  0
ARC
  5
445
  8
4
 10
4839.608410841776
 20
325.1204068942588
 30
0.0
 40
3599.999972
 50
176.497062
 51
183.503853
  0
LINE
  5
446
  8
L-CENTER
 10
1336.606946841777
 20
48.45812689425884
 30
0.0
 11
1336.606946841777
 21
646.5194019500868
 31
0.0
  0
ARC
  5
447
  8
4
 10
1548.606946841777
 20
170.1204068942588
 30
0.0
 40
300.00008
 50
170.8519570000001
 51
189.1489400000001
  0
ARC
  5
448
  8
4
 10
1550.606946841777
 20
170.1204068942588
 30
0.0
 40
300.00008
 50
171.1889600000001
 51
188.811415
  0
LINE
  5
449
  8
L-CENTER
 10
1302.606946841777
 20
233.2917748942589
 30
0.0
 11
1302.606946841777
 21
106.9490388942588
 31
0.0
  0
ARC
  5
44A
  8
4
 10
1054.606946841777
 20
170.1204068942588
 30
0.0
 40
300.000068
 50
351.1891979999999
 51
8.811323000000048
  0
LINE
  5
44B
  8
4
 10
1428.606946841777
 20
96.00847275410638
 30
0.0
 11
1428.606946841777
 21
120.0084727541064
 31
0.0
  0
ARC
  5
44C
  8
4
 10
1433.023206841777
 20
117.0084727541064
 30
0.0
 40
4.583692
 50
319.118678999995
 51
40.88132100000501
  0
CIRCLE
  5
44D
  8
4
 10
1302.606946841777
 20
170.1204068942588
 30
0.0
 40
40.0
  0
ARC
  5
44E
  8
4
 10
813.7674264766893
 20
543.559126894259
 30
0.0
 40
4.999984
 50
18.31905100000195
 51
73.80211800000554
  0
ARC
  5
44F
  8
4
 10
591.9873984766891
 20
634.1204068942588
 30
0.0
 40
5.0
 50
0.0
 51
180.0
  0
LINE
  5
450
  8
4
 10
604.1731904766893
 20
597.1204068942588
 30
0.0
 11
604.4873984766891
 21
588.1204068942588
 31
0.0
  0
LINE
  5
451
  8
4
 10
610.9873984766891
 20
579.8948188942591
 30
0.0
 11
610.9873984766891
 21
588.1204068942588
 31
0.0
  0
ARC
  5
452
  8
4
 10
585.9873984766891
 20
591.1204068942588
 30
0.0
 40
1.0
 50
270.0
 51
0.0
  0
ARC
  5
453
  8
4
 10
597.9873984766891
 20
591.1204068942588
 30
0.0
 40
1.0
 50
180.0
 51
270.0
  0
LINE
  5
454
  8
4
 10
596.9873984766891
 20
597.1204068942588
 30
0.0
 11
604.1731904766893
 21
597.1204068942588
 31
0.0
  0
LINE
  5
455
  8
4
 10
596.9873984766891
 20
598.2998508942587
 30
0.0
 11
604.1731904766893
 21
597.1204068942588
 31
0.0
  0
LINE
  5
456
  8
4
 10
579.8016064766889
 20
597.1204068942588
 30
0.0
 11
579.4873984766891
 21
588.1204068942588
 31
0.0
  0
LINE
  5
457
  8
4
 10
572.9873984766891
 20
579.8948188942591
 30
0.0
 11
572.9873984766891
 21
588.1204068942588
 31
0.0
  0
LINE
  5
458
  8
4
 10
572.9873984766891
 20
588.1204068942588
 30
0.0
 11
610.9873984766891
 21
588.1204068942588
 31
0.0
  0
LINE
  5
459
  8
4
 10
579.8016064766889
 20
597.1204068942588
 30
0.0
 11
586.9873984766891
 21
597.1204068942588
 31
0.0
  0
LINE
  5
45A
  8
4
 10
586.9873984766891
 20
598.2998508942587
 30
0.0
 11
579.8016064766889
 21
597.1204068942588
 31
0.0
  0
LINE
  5
45B
  8
4
 10
586.9873984766891
 20
591.1204068942588
 30
0.0
 11
586.9873984766891
 21
634.1204068942588
 31
0.0
  0
LINE
  5
45C
  8
4
 10
596.9873984766891
 20
591.1204068942588
 30
0.0
 11
596.9873984766891
 21
634.1204068942588
 31
0.0
  0
ARC
  5
45D
  8
4
 10
591.9873984766891
 20
-219.8795931057412
 30
0.0
 40
800.000016
 50
73.80134900000003
 51
89.99998299999999
  0
LINE
  5
467
  8
4
 10
859.9873984766891
 20
210.1204068942587
 30
0.0
 11
858.9873984766891
 21
210.1204068942587
 31
0.0
  0
LINE
  5
468
  8
4
 10
828.898814476689
 20
222.1204068942588
 30
0.0
 11
858.9873984766891
 21
222.1204068942588
 31
0.0
  0
LINE
  5
469
  8
4
 10
829.7078624766891
 20
224.1204068942588
 30
0.0
 11
858.9873984766891
 21
224.1204068942588
 31
0.0
  0
ARC
  5
46C
  8
4
 10
829.7078624766891
 20
230.1204068942588
 30
0.0
 40
6.0
 50
158.2169160000003
 51
270.0
  0
ARC
  5
46D
  8
4
 10
828.898814476689
 20
228.1204068942588
 30
0.0
 40
6.0
 50
157.7340540000004
 51
270.0
  0
LINE
  5
471
  8
4
 10
853.9873984766891
 20
224.1204068942588
 30
0.0
 11
853.9873984766891
 21
325.1204068942588
 31
0.0
  0
LINE
  5
472
  8
4
 10
604.9776304766892
 20
191.6204068942588
 30
0.0
 11
591.9873984766891
 21
199.1204068942588
 31
0.0
  0
LINE
  5
473
  8
4
 10
591.9873984766891
 20
169.1204068942588
 30
0.0
 11
604.9776304766892
 21
176.6204068942588
 31
0.0
  0
LINE
  5
474
  8
4
 10
604.9776304766892
 20
176.6204068942588
 30
0.0
 11
604.9776304766892
 21
191.6204068942588
 31
0.0
  0
LINE
  5
475
  8
4
 10
578.9969184766887
 20
176.6204068942588
 30
0.0
 11
578.9969184766887
 21
191.6204068942588
 31
0.0
  0
CIRCLE
  5
476
  8
4
 10
591.9873984766891
 20
184.1204068942588
 30
0.0
 40
15.0
  0
CIRCLE
  5
477
  8
4
 10
591.9873984766891
 20
184.1204068942588
 30
0.0
 40
20.0
  0
LINE
  5
478
  8
4
 10
578.9969184766887
 20
176.6204068942588
 30
0.0
 11
591.9873984766891
 21
169.1204068942588
 31
0.0
  0
LINE
  5
479
  8
4
 10
591.9873984766891
 20
199.1204068942588
 30
0.0
 11
578.9969184766887
 21
191.6204068942588
 31
0.0
  0
LINE
  5
47A
  8
L-CENTER
 10
618.714938476689
 20
184.1204068942588
 30
0.0
 11
565.2603464766889
 21
184.1204068942588
 31
0.0
  0
ARC
  5
47B
  8
4
 10
591.9873984766891
 20
690.1204068942588
 30
0.0
 40
499.999936
 50
272.173761
 51
293.462208
  0
LINE
  5
47C
  8
L-CENTER
 10
761.4458944766891
 20
318.1204068942588
 30
0.0
 11
616.5289024766892
 21
318.1204068942588
 31
0.0
  0
LINE
  5
47D
  8
L-CENTER
 10
688.9873984766891
 20
390.5789028942588
 30
0.0
 11
688.9873984766891
 21
245.6619108942589
 31
0.0
  0
LINE
  5
47E
  8
L-CENTER
 10
518.4825144766892
 20
401.7646948942588
 30
0.0
 11
518.4825144766892
 21
208.4761188942589
 31
0.0
  0
CIRCLE
  5
47F
  8
4
 10
688.9873984766891
 20
318.1204068942588
 30
0.0
 40
40.0
  0
CIRCLE
  5
480
  8
4
 10
688.9873984766891
 20
318.1204068942588
 30
0.0
 40
60.0
  0
ARC
  5
481
  8
4
 10
153.9873984766891
 20
325.1204068942588
 30
0.0
 40
700.000008
 50
0.0
 51
18.31843500000001
  0
LINE
  5
482
  8
4
 10
480.9873984766891
 20
572.3823708942587
 30
0.0
 11
480.9873984766891
 21
573.4873508942587
 31
0.0
  0
LINE
  5
483
  8
4
 10
468.2373984766891
 20
576.9873508942587
 30
0.0
 11
468.2373984766891
 21
580.9873508942587
 31
0.0
  0
LINE
  5
484
  8
4
 10
455.7373984766891
 20
576.9873508942587
 30
0.0
 11
455.7373984766891
 21
580.9873508942587
 31
0.0
  0
LINE
  5
485
  8
4
 10
449.4873984766891
 20
580.9873508942587
 30
0.0
 11
474.4873984766891
 21
580.9873508942587
 31
0.0
  0
LINE
  5
486
  8
4
 10
449.4873984766891
 20
576.9873508942587
 30
0.0
 11
474.4873984766891
 21
576.9873508942587
 31
0.0
  0
LINE
  5
487
  8
4
 10
473.4873984766891
 20
573.4873508942587
 30
0.0
 11
473.4873984766891
 21
574.9873508942587
 31
0.0
  0
LINE
  5
488
  8
4
 10
450.4873984766891
 20
573.4873508942587
 30
0.0
 11
450.4873984766891
 21
574.9873508942587
 31
0.0
  0
LINE
  5
489
  8
4
 10
449.4873984766891
 20
574.9873508942587
 30
0.0
 11
474.4873984766891
 21
574.9873508942587
 31
0.0
  0
LINE
  5
48A
  8
4
 10
474.4873984766891
 20
580.9873508942587
 30
0.0
 11
474.4873984766891
 21
574.9873508942587
 31
0.0
  0
LINE
  5
48B
  8
L-CENTER
 10
461.9873984766891
 20
583.2556588942589
 30
0.0
 11
461.9873984766891
 21
551.9070734108425
 31
0.0
  0
LINE
  5
48C
  8
4
 10
449.4873984766891
 20
574.9873508942587
 30
0.0
 11
449.4873984766891
 21
580.9873508942587
 31
0.0
  0
LINE
  5
48D
  8
4
 10
442.9873984766891
 20
573.4873508942587
 30
0.0
 11
442.9873984766891
 21
566.1223588942589
 31
0.0
  0
LINE
  5
48E
  8
4
 10
480.9873984766891
 20
573.4873508942587
 30
0.0
 11
442.9873984766891
 21
573.4873508942587
 31
0.0
  0
ARC
  5
48F
  8
4
 10
370.207370476689
 20
543.559126894259
 30
0.0
 40
5.000012
 50
106.1982119999972
 51
161.6811139999996
  0
LINE
  5
490
  8
4
 10
324.9873984766891
 20
210.1204068942588
 30
0.0
 11
323.9873984766891
 21
210.1204068942588
 31
0.0
  0
LINE
  5
491
  8
4
 10
354.2669384766891
 20
224.1204068942588
 30
0.0
 11
324.9873984766891
 21
224.1204068942587
 31
0.0
  0
LINE
  5
492
  8
4
 10
355.0760224766891
 20
222.1204068942588
 30
0.0
 11
324.9873984766891
 21
222.1204068942588
 31
0.0
  0
ARC
  5
493
  8
4
 10
354.2669384766891
 20
230.1204068942588
 30
0.0
 40
6.000004
 50
270.0007260000008
 51
21.7830600000003
  0
ARC
  5
494
  8
4
 10
355.0760224766891
 20
228.1204068942588
 30
0.0
 40
5.999992
 50
270.0007259999981
 51
22.26599399999879
  0
LINE
  5
495
  8
4
 10
329.9873984766891
 20
224.1204068942588
 30
0.0
 11
329.9873984766891
 21
325.1204068942588
 31
0.0
  0
ARC
  5
496
  8
4
 10
1029.987398476689
 20
325.1204068942588
 30
0.0
 40
699.999984
 50
161.682006
 51
180.0003399992087
  0
CIRCLE
  5
497
  8
L-CENTER
 10
518.4825144766892
 20
305.1204068942588
 30
0.0
 40
72.5
  0
LINE
  5
498
  8
L-CENTER
 10
421.8382264766892
 20
305.1204068942588
 30
0.0
 11
615.1268024766891
 21
305.1204068942588
 31
0.0
  0
LINE
  5
499
  8
L-CENTER
 10
865.8064304766895
 20
325.1204068942588
 30
0.0
 11
318.1683664766888
 21
325.1204068942588
 31
0.0
  0
ARC
  5
49A
  8
4
 10
591.9873984766891
 20
-219.8795931057412
 30
0.0
 40
799.999988
 50
89.99998299999999
 51
106.198951
  0
ARC
  5
49B
  8
4
 10
591.9873984766891
 20
-79.87959310574115
 30
0.0
 40
500.00008
 50
64.52562500000003
 51
115.474778
  0
ARC
  5
49C
  8
4
 10
591.9873984766891
 20
690.1204068942588
 30
0.0
 40
499.999916
 50
246.5390619999999
 51
267.827023
  0
CIRCLE
  5
49D
  8
4
 10
518.4825144766892
 20
305.1204068942588
 30
0.0
 40
85.0
  0
LINE
  5
49E
  8
L-CENTER
 10
870.2870467601736
 20
170.1204068942588
 30
0.0
 11
219.2168524007556
 21
170.120406894259
 31
0.0
  0
LINE
  5
49F
  8
4
 10
859.9873984766891
 20
130.1204068942588
 30
0.0
 11
858.9873984766891
 21
130.1204068942588
 31
0.0
  0
ARC
  5
4A0
  8
4
 10
850.9873984766891
 20
87.12040689425885
 30
0.0
 40
3.0
 50
0.0
 51
90.0
  0
LINE
  5
4A1
  8
4
 10
853.9873984766891
 20
60.12040689425885
 30
0.0
 11
853.9873984766891
 21
116.1204068942588
 31
0.0
  0
ARC
  5
4A2
  8
4
 10
736.9873984766891
 20
87.12040689425885
 30
0.0
 40
3.0
 50
90.0
 51
180.0
  0
LINE
  5
4A3
  8
4
 10
733.9873984766891
 20
87.12040689425885
 30
0.0
 11
733.9873984766891
 21
60.12040689425885
 31
0.0
  0
LINE
  5
4A4
  8
L-CENTER
 10
791.9873984766891
 20
47.12040689425885
 30
0.0
 11
791.9873984766891
 21
103.1204068942588
 31
0.0
  0
ARC
  5
4A5
  8
4
 10
706.9873984766891
 20
87.12040689425885
 30
0.0
 40
3.0
 50
90.0
 51
180.0
  0
ARC
  5
4A6
  8
4
 10
695.9873984766891
 20
62.12040689425885
 30
0.0
 40
8.0
 50
0.0
 51
90.0
  0
LINE
  5
4A7
  8
4
 10
703.9873984766891
 20
87.12040689425885
 30
0.0
 11
703.9873984766891
 21
60.12040689425885
 31
0.0
  0
ARC
  5
4A8
  8
4
 10
591.9873984766891
 20
92.12040689425885
 30
0.0
 40
19.999972
 50
236.9398050000003
 51
303.061165
  0
ARC
  5
4A9
  8
4
 10
591.9873984766891
 20
92.12040689425885
 30
0.0
 40
20.0
 50
42.43731999999967
 51
137.5631520000001
  0
LINE
  5
4AA
  8
L-CENTER
 10
616.7779264766891
 20
92.12040689425885
 30
0.0
 11
567.1968704766891
 21
92.12040689425885
 31
0.0
  0
LINE
  5
4AB
  8
4
 10
695.9873984766891
 20
70.12040689425885
 30
0.0
 11
591.9873984766891
 21
70.12040689425885
 31
0.0
  0
LINE
  5
4B6
  8
4
 10
732.169526476689
 20
118.1204068942588
 30
0.0
 11
858.9873984766891
 21
118.1204068942588
 31
0.0
  0
LINE
  5
4B7
  8
4
 10
729.1697704766889
 20
116.1204068942588
 30
0.0
 11
858.9873984766891
 21
116.1204068942588
 31
0.0
  0
LINE
  5
4B8
  8
4
 10
850.9873984766891
 20
90.12040689425885
 30
0.0
 11
706.9873984766891
 21
90.12040689425885
 31
0.0
  0
LINE
  5
4B9
  8
4
 10
703.9873984766891
 20
60.12040689425885
 30
0.0
 11
853.9873984766891
 21
60.12040689425885
 31
0.0
  0
ARC
  5
4BF
  8
4
 10
446.9873984766891
 20
87.12040689425885
 30
0.0
 40
3.0
 50
0.0
 51
90.0
  0
ARC
  5
4C0
  8
4
 10
476.9873984766891
 20
87.12040689425885
 30
0.0
 40
3.0
 50
0.0
 51
90.0
  0
ARC
  5
4C1
  8
4
 10
487.9873984766891
 20
62.12040689425885
 30
0.0
 40
8.0
 50
90.0
 51
180.0
  0
LINE
  5
4C2
  8
4
 10
479.9873984766891
 20
87.12040689425885
 30
0.0
 11
479.9873984766891
 21
60.12040689425885
 31
0.0
  0
LINE
  5
4C3
  8
4
 10
449.9873984766891
 20
87.12040689425885
 30
0.0
 11
449.9873984766891
 21
60.12040689425885
 31
0.0
  0
LINE
  5
4C4
  8
L-CENTER
 10
391.9873984766891
 20
47.12040689425885
 30
0.0
 11
391.9873984766891
 21
103.1204068942588
 31
0.0
  0
LINE
  5
4C5
  8
4
 10
324.9873984766891
 20
130.1204068942588
 30
0.0
 11
323.9873984766891
 21
130.1204068942588
 31
0.0
  0
ARC
  5
4C6
  8
4
 10
332.9873984766891
 20
87.12040689425885
 30
0.0
 40
3.0
 50
90.0
 51
180.0
  0
LINE
  5
4C7
  8
4
 10
329.9873984766891
 20
60.12040689425885
 30
0.0
 11
329.9873984766891
 21
116.1204068942588
 31
0.0
  0
LINE
  5
4C8
  8
4
 10
476.9873984766891
 20
90.12040689425885
 30
0.0
 11
332.9873984766891
 21
90.12040689425885
 31
0.0
  0
LINE
  5
4C9
  8
4
 10
479.9873984766891
 20
60.12040689425885
 30
0.0
 11
329.9873984766891
 21
60.12040689425885
 31
0.0
  0
LINE
  5
4CA
  8
4
 10
454.8050264766889
 20
116.1204068942588
 30
0.0
 11
324.9873984766891
 21
116.1204068942588
 31
0.0
  0
LINE
  5
4CB
  8
4
 10
451.8052704766887
 20
118.1204068942588
 30
0.0
 11
324.9873984766891
 21
118.1204068942588
 31
0.0
  0
LINE
  5
4CD
  8
4
 10
153.1261906679401
 20
181.620406894259
 30
0.0
 11
153.1261906679401
 21
189.620406894259
 31
0.0
  0
LINE
  5
4CE
  8
L-CENTER
 10
148.1261906679401
 20
143.9841428942591
 30
0.0
 11
148.1261906679401
 21
196.2566708942589
 31
0.0
  0
LINE
  5
4CF
  8
4
 10
143.1261906679401
 20
189.620406894259
 30
0.0
 11
143.1261906679401
 21
181.620406894259
 31
0.0
  0
LINE
  5
4D3
  8
4
 10
153.1261906679401
 20
189.620406894259
 30
0.0
 11
143.1261906679401
 21
189.620406894259
 31
0.0
  0
LINE
  5
4D4
  8
4
 10
153.1261906679401
 20
181.620406894259
 30
0.0
 11
143.1261906679401
 21
181.620406894259
 31
0.0
  0
ARC
  5
4D5
  8
4
 10
148.1261906679401
 20
170.120406894259
 30
0.0
 40
16.0
 50
108.209956864283
 51
71.79004400000014
  0
LINE
  5
4D6
  8
L-CENTER
 10
121.9899266679401
 20
170.120406894259
 30
0.0
 11
174.2624546679399
 21
170.120406894259
 31
0.0
  0
LINE
  5
4DC
  8
4
 10
487.9873984766891
 20
70.12040689425885
 30
0.0
 11
591.9873984766891
 21
70.12040689425885
 31
0.0
  0
LINE
  5
4DD
  8
4
 10
323.9873984766891
 20
130.1204068942588
 30
0.0
 11
323.9873984766891
 21
210.1204068942588
 31
0.0
  0
LINE
  5
4DE
  8
4
 10
859.9873984766891
 20
130.1204068942588
 30
0.0
 11
859.9873984766891
 21
210.1204068942587
 31
0.0
  0
LINE
  5
4DF
  8
4
 10
858.9873984766891
 20
116.1204068942588
 30
0.0
 11
858.9873984766891
 21
224.1204068942588
 31
0.0
  0
LINE
  5
4E0
  8
4
 10
324.9873984766891
 20
116.1204068942588
 30
0.0
 11
324.9873984766891
 21
224.1204068942587
 31
0.0
  0
ARC
  5
4E1
  8
4
 10
591.9873984766891
 20
325.1204068942588
 30
0.0
 40
250.00004
 50
272.501722
 51
267.4990629999999
  0
ARC
  5
4E2
  8
4
 10
591.9873984766891
 20
325.1204068942588
 30
0.0
 40
220.00002
 50
273.8476190000001
 51
266.153337
  0
LINE
  5
4E3
  8
2
 10
595.9873984766891
 20
94.42980797101745
 30
0.0
 11
591.9873984766891
 21
96.73920904777583
 31
0.0
  0
LINE
  5
4E4
  8
2
 10
591.9873984766891
 20
87.50160474074187
 30
0.0
 11
587.9873984766891
 21
89.81100581750036
 31
0.0
  0
LINE
  5
4E5
  8
2
 10
595.9873984766891
 20
89.81100581750036
 30
0.0
 11
595.9873984766891
 21
94.42980797101745
 31
0.0
  0
LINE
  5
4E6
  8
2
 10
587.9873984766891
 20
89.81100581750036
 30
0.0
 11
587.9873984766891
 21
94.42980797101745
 31
0.0
  0
LINE
  5
4E7
  8
L-CENTER
 10
591.9873984766891
 20
58.21444150696539
 30
0.0
 11
591.9873984766891
 21
645.5247765695376
 31
0.0
  0
ARC
  5
50E
  8
4
 10
1433.023206841777
 20
533.2323410344113
 30
0.0
 40
4.583692
 50
319.118678999995
 51
40.88132100000501
  0
LINE
  5
50F
  8
4
 10
1428.606946841777
 20
554.2323410344113
 30
0.0
 11
1428.606946841777
 21
530.2323410344113
 31
0.0
  0
LINE
  5
510
  8
L-CENTER
 10
1392.509245504277
 20
542.2320970344113
 30
0.0
 11
1441.688555047819
 21
542.2320970344113
 31
0.0
  0
ARC
  5
511
  8
4
 10
1433.023206841777
 20
551.2323410344113
 30
0.0
 40
4.583692
 50
319.118678999995
 51
40.88132100000501
  0
LINE
  5
512
  8
4
 10
1436.577406841776
 20
554.2323410344113
 30
0.0
 11
1425.606946841777
 21
554.2323410344113
 31
0.0
  0
ARC
  5
513
  8
4
 10
1419.606946841777
 20
542.2323410344113
 30
0.0
 40
18.000092
 50
340.52966
 51
19.47107200000088
  0
LINE
  5
514
  8
4
 10
1437.606946841777
 20
551.2323410344113
 30
0.0
 11
1437.606946841777
 21
533.2323410344113
 31
0.0
  0
LINE
  5
515
  8
4
 10
1428.606946841777
 20
536.2323410344113
 30
0.0
 11
1436.577406841776
 21
536.2323410344113
 31
0.0
  0
LINE
  5
516
  8
4
 10
1428.606946841777
 20
548.2323410344113
 30
0.0
 11
1436.577406841776
 21
548.2323410344113
 31
0.0
  0
LINE
  5
517
  8
4
 10
1436.577406841776
 20
530.2323410344113
 30
0.0
 11
1425.606946841777
 21
530.2323410344113
 31
0.0
  0
LINE
  5
518
  8
4
 10
1437.606946841776
 20
424.051013500055
 30
0.0
 11
1437.606946841776
 21
406.051013500055
 31
0.0
  0
ARC
  5
519
  8
4
 10
1433.023206841776
 20
424.051013500055
 30
0.0
 40
4.5836
 50
319.1186790000041
 51
40.88332600000014
  0
LINE
  5
51A
  8
4
 10
1428.606946841776
 20
427.051013500055
 30
0.0
 11
1428.606946841776
 21
403.051013500055
 31
0.0
  0
LINE
  5
51B
  8
4
 10
1436.577406841776
 20
403.051013500055
 30
0.0
 11
1425.606946841776
 21
403.051013500055
 31
0.0
  0
ARC
  5
51C
  8
4
 10
1419.606946841776
 20
415.051013500055
 30
0.0
 40
17.999976
 50
340.5296600000002
 51
19.47133099999985
  0
LINE
  5
51D
  8
4
 10
1428.606946841776
 20
409.051013500055
 30
0.0
 11
1436.577406841776
 21
409.051013500055
 31
0.0
  0
LINE
  5
51E
  8
4
 10
1428.606946841776
 20
421.051013500055
 30
0.0
 11
1436.577406841776
 21
421.051013500055
 31
0.0
  0
ARC
  5
51F
  8
4
 10
1433.023206841776
 20
406.051013500055
 30
0.0
 40
4.5836
 50
319.1186790000041
 51
40.88332600000014
  0
LINE
  5
520
  8
4
 10
1436.577406841776
 20
427.051013500055
 30
0.0
 11
1425.606946841776
 21
427.051013500055
 31
0.0
  0
LINE
  5
521
  8
L-CENTER
 10
1392.509245504277
 20
415.051013500055
 30
0.0
 11
1441.688555047819
 21
415.051013500055
 31
0.0
  0
LINE
  5
52C
  8
4
 10
527.2693984766881
 20
828.0635689443038
 30
0.0
 11
549.2693984766881
 21
828.0635689443038
 31
0.0
  0
LINE
  5
52D
  8
4
 10
488.2693984766882
 20
827.0635689443038
 30
0.0
 11
548.2693984766881
 21
827.0635689443038
 31
0.0
  0
LINE
  5
52E
  8
4
 10
485.7693984766885
 20
947.0635689443038
 30
0.0
 11
550.7693984766885
 21
947.0635689443036
 31
0.0
  0
LINE
  5
52F
  8
4
 10
549.2693984766885
 20
946.0635689443036
 30
0.0
 11
549.2693984766881
 21
828.0635689443038
 31
0.0
  0
ARC
  5
530
  8
4
 10
550.2693984766885
 20
946.0635689443034
 30
0.0
 40
1.0
 50
90.0
 51
180.0
  0
LINE
  5
531
  8
4
 10
548.2693984766881
 20
827.0635689443038
 30
0.0
 11
549.2693984766881
 21
828.0635689443038
 31
0.0
  0
LINE
  5
532
  8
4
  6
CONTINUOUS
 10
487.2693984766885
 20
946.0635689443038
 30
0.0
 11
487.2693984766882
 21
828.0635689443038
 31
0.0
  0
LINE
  5
533
  8
4
  6
CONTINUOUS
 10
509.2693984766884
 20
928.0635689443038
 30
0.0
 11
509.2693984766882
 21
827.0635689443038
 31
0.0
  0
LINE
  5
534
  8
4
  6
CONTINUOUS
 10
527.2693984766885
 20
928.0635689443038
 30
0.0
 11
527.2693984766881
 21
827.0635689443038
 31
0.0
  0
ARC
  5
535
  8
4
  6
CONTINUOUS
 10
518.2693984766885
 20
928.0635689443036
 30
0.0
 40
9.0
 50
90.0
 51
180.0
  0
ARC
  5
536
  8
4
 10
486.2693984766885
 20
946.0635689443036
 30
0.0
 40
1.0
 50
0.0
 51
90.0
  0
ARC
  5
537
  8
4
 10
518.2693984766885
 20
928.0635689443036
 30
0.0
 40
9.0
 50
0.0
 51
90.0
  0
LINE
  5
538
  8
4
 10
488.2693984766882
 20
827.0635689443038
 30
0.0
 11
487.2693984766882
 21
828.0635689443038
 31
0.0
  0
LINE
  5
539
  8
4
 10
487.2693984766882
 20
828.0635689443038
 30
0.0
 11
509.2693984766882
 21
828.0635689443038
 31
0.0
  0
LINE
  5
53A
  8
4
  6
CONTINUOUS
 10
485.7693984766885
 20
958.663568944301
 30
0.0
 11
485.7693984766885
 21
947.0635689443038
 31
0.0
  0
LINE
  5
53B
  8
4
  6
CONTINUOUS
 10
550.7693984766885
 20
958.6635689443008
 30
0.0
 11
550.7693984766885
 21
947.0635689443036
 31
0.0
  0
LINE
  5
53C
  8
4
 10
474.4673948408094
 20
958.663568944301
 30
0.0
 11
562.0714021125682
 21
958.6635689443006
 31
0.0
  0
ARC
  5
53D
  8
4
 10
518.4825144766892
 20
305.1204068942588
 30
0.0
 40
31.0
 50
106.8772694386292
 51
73.12273100000029
  0
LINE
  5
53E
  8
4
 10
509.4825144766892
 20
342.1204068942588
 30
0.0
 11
509.4825144766892
 21
330.1204068942588
 31
0.0
  0
LINE
  5
53F
  8
4
 10
527.4825144766892
 20
330.1204068942588
 30
0.0
 11
527.4825144766892
 21
342.1204068942588
 31
0.0
  0
LINE
  5
540
  8
4
 10
527.4825144766892
 20
330.1204068942588
 30
0.0
 11
509.4825144766892
 21
330.1204068942588
 31
0.0
  0
LINE
  5
541
  8
4
 10
527.4825144766892
 20
342.1204068942588
 30
0.0
 11
509.4825144766892
 21
342.1204068942588
 31
0.0
  0
CIRCLE
  5
542
  8
4
 10
518.4825144766892
 20
305.1204068942588
 30
0.0
 40
45.0
  0
LINE
  5
546
  8
4
 10
1221.606946841777
 20
246.6050442583801
 30
0.0
 11
1221.606946841777
 21
261.1050442583801
 31
0.0
  0
LINE
  5
547
  8
4
 10
1213.606946841777
 20
247.3550442583801
 30
0.0
 11
1213.606946841777
 21
260.3550442583801
 31
0.0
  0
LINE
  5
548
  8
4
 10
1213.606946841777
 20
247.3550442583801
 30
0.0
 11
1221.606946841777
 21
247.3550442583801
 31
0.0
  0
LINE
  5
549
  8
4
 10
1213.606946841777
 20
260.3550442583801
 30
0.0
 11
1221.606946841777
 21
260.35504425838
 31
0.0
  0
LINE
  5
54A
  8
4
 10
1221.606946841777
 20
261.1050442583801
 30
0.0
 11
1223.606946841777
 21
261.10504425838
 31
0.0
  0
LINE
  5
54B
  8
4
 10
1221.606946841777
 20
246.6050442583801
 30
0.0
 11
1223.606946841777
 21
246.60504425838
 31
0.0
  0
LINE
  5
54C
  8
4
 10
1459.606702841776
 20
260.3550442583791
 30
0.0
 11
1459.606702841776
 21
247.3550442583791
 31
0.0
  0
LINE
  5
54D
  8
4
 10
1451.606702841776
 20
261.1050442583791
 30
0.0
 11
1451.606702841776
 21
246.6050442583791
 31
0.0
  0
LINE
  5
54E
  8
4
 10
1459.606702841776
 20
247.3550442583791
 30
0.0
 11
1451.606702841776
 21
247.3550442583792
 31
0.0
  0
LINE
  5
54F
  8
4
 10
1451.606702841776
 20
246.6050442583791
 30
0.0
 11
1449.606702841776
 21
246.6050442583792
 31
0.0
  0
LINE
  5
550
  8
4
 10
1459.606702841776
 20
260.3550442583791
 30
0.0
 11
1451.606702841776
 21
260.3550442583791
 31
0.0
  0
LINE
  5
551
  8
4
 10
1451.606702841776
 20
261.1050442583791
 30
0.0
 11
1449.606702841776
 21
261.1050442583792
 31
0.0
  0
LINE
  5
552
  8
L-CENTER
 10
1461.897718841777
 20
253.8550442583792
 30
0.0
 11
1417.145219829827
 21
253.8550442583792
 31
0.0
  0
LINE
  5
553
  8
L-CENTER
 10
1211.315930841776
 20
253.8550442583796
 30
0.0
 11
1256.068429853726
 21
253.8550442583794
 31
0.0
  0
LINE
  5
555
  8
4
 10
1090.606946841777
 20
342.1204068942588
 30
0.0
 11
1200.606946841777
 21
342.1204068942588
 31
0.0
  0
LINE
  5
556
  8
4
 10
1210.606946841777
 20
336.1204068942588
 30
0.0
 11
1091.606946841777
 21
336.1204068942588
 31
0.0
  0
LINE
  5
557
  8
4
 10
1210.606946841777
 20
274.1204068942588
 30
0.0
 11
1091.606946841777
 21
274.1204068942588
 31
0.0
  0
LINE
  5
558
  8
4
 10
1210.606946841777
 20
337.6204068942588
 30
0.0
 11
1210.606946841777
 21
272.6204068942588
 31
0.0
  0
LINE
  5
559
  8
4
 10
1222.606946841777
 20
349.1357695301388
 30
0.0
 11
1222.606946841777
 21
261.1050442583792
 31
0.0
  0
LINE
  5
55A
  8
4
 10
1222.606946841777
 20
272.6204068942588
 30
0.0
 11
1210.606946841777
 21
272.6204068942588
 31
0.0
  0
LINE
  5
55B
  8
4
 10
1210.606946841777
 20
337.6204068942588
 30
0.0
 11
1222.606946841777
 21
337.6204068942588
 31
0.0
  0
LINE
  5
55C
  8
4
 10
1200.606946841777
 20
342.1204068942588
 30
0.0
 11
1200.606946841777
 21
336.1204068942588
 31
0.0
  0
LINE
  5
55D
  8
4
 10
1090.606946841777
 20
342.1204068942588
 30
0.0
 11
1090.606946841777
 21
275.1204068942588
 31
0.0
  0
LINE
  5
55E
  8
4
 10
1091.606946841777
 20
336.1204068942588
 30
0.0
 11
1091.606946841777
 21
274.1204068942588
 31
0.0
  0
LINE
  5
55F
  8
4
 10
1091.606946841777
 20
274.1204068942588
 30
0.0
 11
1090.606946841777
 21
275.1204068942588
 31
0.0
  0
LINE
  5
560
  8
4
 10
1090.606946841777
 20
335.1204068942588
 30
0.0
 11
1091.606946841777
 21
336.1204068942588
 31
0.0
  0
LINE
  5
580
  8
4
 10
301.705398476689
 20
1023.063568944304
 30
0.0
 11
224.705398476689
 21
1023.063568944304
 31
0.0
  0
LINE
  5
581
  8
4
 10
301.705398476689
 20
1055.063568944304
 30
0.0
 11
224.705398476689
 21
1055.063568944304
 31
0.0
  0
LINE
  5
582
  8
4
 10
303.705398476689
 20
1059.063568944304
 30
0.0
 11
303.705398476689
 21
1019.063568944304
 31
0.0
  0
ARC
  5
583
  8
4
 10
301.705398476689
 20
1057.063568944304
 30
0.0
 40
2.0
 50
270.0
 51
0.0
  0
ARC
  5
584
  8
4
 10
301.705398476689
 20
1021.063568944304
 30
0.0
 40
2.0
 50
0.0
 51
90.0
  0
ARC
  5
585
  8
4
 10
293.705398476689
 20
1039.063568944304
 30
0.0
 40
5.0
 50
0.0
 51
90.0
  0
ARC
  5
586
  8
4
 10
293.705398476689
 20
1039.063568944304
 30
0.0
 40
5.0
 50
270.0
 51
0.0
  0
LINE
  5
587
  8
4
 10
298.705398476689
 20
1039.063568944304
 30
0.0
 11
298.705398476689
 21
1039.063568944304
 31
0.0
  0
LINE
  5
588
  8
4
 10
224.705398476689
 20
1034.063568944304
 30
0.0
 11
224.705398476689
 21
1023.063568944304
 31
0.0
  0
LINE
  5
589
  8
4
 10
224.705398476689
 20
1055.063568944304
 30
0.0
 11
224.705398476689
 21
1044.063568944304
 31
0.0
  0
LINE
  5
58A
  8
4
 10
293.705398476689
 20
1034.063568944304
 30
0.0
 11
223.705398476689
 21
1034.063568944304
 31
0.0
  0
LINE
  5
58B
  8
4
 10
293.705398476689
 20
1044.063568944304
 30
0.0
 11
223.705398476689
 21
1044.063568944304
 31
0.0
  0
LINE
  5
58C
  8
4
 10
223.705398476689
 20
1054.063568944304
 30
0.0
 11
223.705398476689
 21
1024.063568944304
 31
0.0
  0
LINE
  5
58D
  8
4
 10
223.705398476689
 20
1024.063568944304
 30
0.0
 11
224.705398476689
 21
1023.063568944304
 31
0.0
  0
LINE
  5
58E
  8
4
 10
224.705398476689
 20
1055.063568944304
 30
0.0
 11
223.705398476689
 21
1054.063568944304
 31
0.0
  0
LINE
  5
58F
  8
4
 10
323.9873984766891
 20
1059.063568944304
 30
0.0
 11
303.705398476689
 21
1059.063568944304
 31
0.0
  0
LINE
  5
590
  8
4
 10
323.9873984766891
 20
1019.063568944304
 30
0.0
 11
303.705398476689
 21
1019.063568944304
 31
0.0
  0
LINE
  5
592
  8
4
 10
223.9873984766891
 20
189.6204068942588
 30
0.0
 11
298.9873984766891
 21
189.6204068942588
 31
0.0
  0
LINE
  5
593
  8
4
 10
303.9873984766891
 20
186.1204068942588
 30
0.0
 11
224.9873984766891
 21
186.1204068942588
 31
0.0
  0
LINE
  5
594
  8
4
 10
303.9873984766891
 20
154.1204068942588
 30
0.0
 11
224.9873984766891
 21
154.1204068942588
 31
0.0
  0
LINE
  5
595
  8
4
 10
303.9873984766891
 20
187.6204068942588
 30
0.0
 11
323.9873984766891
 21
187.6204068942588
 31
0.0
  0
LINE
  5
596
  8
4
 10
323.9873984766891
 20
152.6204068942588
 30
0.0
 11
303.9873984766891
 21
152.6204068942588
 31
0.0
  0
LINE
  5
597
  8
4
 10
303.9873984766891
 20
187.6204068942588
 30
0.0
 11
303.9873984766891
 21
152.6204068942588
 31
0.0
  0
LINE
  5
598
  8
4
 10
298.9873984766891
 20
189.6204068942588
 30
0.0
 11
298.9873984766891
 21
186.1204068942588
 31
0.0
  0
LINE
  5
599
  8
4
 10
223.9873984766891
 20
189.6204068942588
 30
0.0
 11
223.9873984766891
 21
155.1204068942588
 31
0.0
  0
LINE
  5
59A
  8
4
 10
224.9873984766891
 20
186.1204068942588
 30
0.0
 11
224.9873984766891
 21
154.1204068942588
 31
0.0
  0
LINE
  5
59B
  8
4
 10
224.9873984766891
 20
154.1204068942588
 30
0.0
 11
223.9873984766891
 21
155.1204068942588
 31
0.0
  0
LINE
  5
59C
  8
4
 10
223.9873984766891
 20
185.1204068942588
 30
0.0
 11
224.9873984766891
 21
186.1204068942588
 31
0.0
  0
ENDSEC
  0
EOF
