  0
SECTION
  2
HEADER
  9
$ACADVER
  1
AC1015
  9
$ACADMAINTVER
 70
     6
  9
$DWGCODEPAGE
  3
ANSI_932
  9
$INSBASE
 10
2212.75580968289
 20
1931.328638524879
 30
0.0
  9
$EXTMIN
 10
122.4319258973571
 20
24.43305239161441
 30
0.0
  9
$EXTMAX
 10
1495.36882541523
 20
1305.826726503656
 30
0.0
  9
$LIMMIN
 10
0.0
 20
0.0
  9
$LIMMAX
 10
816.5000000000001
 20
565.0
  9
$ORTHOMODE
 70
     1
  9
$REGENMODE
 70
     1
  9
$FILLMODE
 70
     1
  9
$QTEXTMODE
 70
     0
  9
$MIRRTEXT
 70
     1
  9
$LTSCALE
 40
20.0
  9
$ATTMODE
 70
     1
  9
$TEXTSIZE
 40
12.0
  9
$TRACEWID
 40
0.05
  9
$TEXTSTYLE
  7
KANJI
  9
$CLAYER
  8
2
  9
$CELTYPE
  6
BYLAYER
  9
$CECOLOR
 62
   256
  9
$CELTSCALE
 40
1.0
  9
$DISPSILH
 70
     0
  9
$DIMSCALE
 40
5.0
  9
$DIMASZ
 40
2.0
  9
$DIMEXO
 40
0.5
  9
$DIMDLI
 40
0.0
  9
$DIMRND
 40
0.0
  9
$DIMDLE
 40
0.0
  9
$DIMEXE
 40
1.0
  9
$DIMTP
 40
0.0
  9
$DIMTM
 40
0.0
  9
$DIMTXT
 40
3.0
  9
$DIMCEN
 40
0.09
  9
$DIMTSZ
 40
0.0
  9
$DIMTOL
 70
     0
  9
$DIMLIM
 70
     0
  9
$DIMTIH
 70
     0
  9
$DIMTOH
 70
     0
  9
$DIMSE1
 70
     0
  9
$DIMSE2
 70
     0
  9
$DIMTAD
 70
     0
  9
$DIMZIN
 70
     8
  9
$DIMBLK
  1

  9
$DIMASO
 70
     0
  9
$DIMSHO
 70
     0
  9
$DIMPOST
  1

  9
$DIMAPOST
  1

  9
$DIMALT
 70
     0
  9
$DIMALTD
 70
     2
  9
$DIMALTF
 40
25.4
  9
$DIMLFAC
 40
1.0
  9
$DIMTOFL
 70
     1
  9
$DIMTVP
 40
1.0
  9
$DIMTIX
 70
     1
  9
$DIMSOXD
 70
     1
  9
$DIMSAH
 70
     0
  9
$DIMBLK1
  1

  9
$DIMBLK2
  1

  9
$DIMSTYLE
  2
STANDARD
  9
$DIMCLRD
 70
   256
  9
$DIMCLRE
 70
   256
  9
$DIMCLRT
 70
   256
  9
$DIMTFAC
 40
1.0
  9
$DIMGAP
 40
0.09
  9
$DIMJUST
 70
     0
  9
$DIMSD1
 70
     0
  9
$DIMSD2
 70
     0
  9
$DIMTOLJ
 70
     1
  9
$DIMTZIN
 70
     0
  9
$DIMALTZ
 70
     0
  9
$DIMALTTZ
 70
     0
  9
$DIMUPT
 70
     0
  9
$DIMDEC
 70
     1
  9
$DIMTDEC
 70
     4
  9
$DIMALTU
 70
     2
  9
$DIMALTTD
 70
     2
  9
$DIMTXSTY
  7
STANDARD
  9
$DIMAUNIT
 70
     0
  9
$DIMADEC
 70
     0
  9
$DIMALTRND
 40
0.0
  9
$DIMAZIN
 70
     0
  9
$DIMDSEP
 70
    46
  9
$DIMATFIT
 70
     3
  9
$DIMFRAC
 70
     0
  9
$DIMLDRBLK
  1

  9
$DIMLUNIT
 70
     2
  9
$DIMLWD
 70
    -2
  9
$DIMLWE
 70
    -2
  9
$DIMTMOVE
 70
     0
  9
$LUNITS
 70
     2
  9
$LUPREC
 70
     3
  9
$SKETCHINC
 40
0.1
  9
$FILLETRAD
 40
1.0
  9
$AUNITS
 70
     0
  9
$AUPREC
 70
     3
  9
$MENU
  1
C:\R13\WIN\SUPPORT\ACADFULL
  9
$ELEVATION
 40
0.0
  9
$PELEVATION
 40
0.0
  9
$THICKNESS
 40
0.0
  9
$LIMCHECK
 70
     0
  9
$CHAMFERA
 40
0.0
  9
$CHAMFERB
 40
0.0
  9
$CHAMFERC
 40
0.0
  9
$CHAMFERD
 40
0.0
  9
$SKPOLY
 70
     0
  9
$TDCREATE
 40
2457357.657630151
  9
$TDUCREATE
 40
2457357.282630151
  9
$TDUPDATE
 40
2458110.536333345
  9
$TDUUPDATE
 40
2458110.161333345
  9
$TDINDWG
 40
0.0396165972
  9
$TDUSRTIMER
 40
0.0396158796
  9
$USRTIMER
 70
     1
  9
$ANGBASE
 50
0.0
  9
$ANGDIR
 70
     0
  9
$PDMODE
 70
     0
  9
$PDSIZE
 40
0.0
  9
$PLINEWID
 40
0.0
  9
$SPLFRAME
 70
     0
  9
$SPLINETYPE
 70
     6
  9
$SPLINESEGS
 70
     8
  9
$HANDSEED
  5
631
  9
$SURFTAB1
 70
     6
  9
$SURFTAB2
 70
     6
  9
$SURFTYPE
 70
     6
  9
$SURFU
 70
     6
  9
$SURFV
 70
     6
  9
$UCSBASE
  2

  9
$UCSNAME
  2

  9
$UCSORG
 10
0.0
 20
0.0
 30
0.0
  9
$UCSXDIR
 10
1.0
 20
0.0
 30
0.0
  9
$UCSYDIR
 10
0.0
 20
1.0
 30
0.0
  9
$UCSORTHOREF
  2

  9
$UCSORTHOVIEW
 70
     0
  9
$UCSORGTOP
 10
0.0
 20
0.0
 30
0.0
  9
$UCSORGBOTTOM
 10
0.0
 20
0.0
 30
0.0
  9
$UCSORGLEFT
 10
0.0
 20
0.0
 30
0.0
  9
$UCSORGRIGHT
 10
0.0
 20
0.0
 30
0.0
  9
$UCSORGFRONT
 10
0.0
 20
0.0
 30
0.0
  9
$UCSORGBACK
 10
0.0
 20
0.0
 30
0.0
  9
$PUCSBASE
  2

  9
$PUCSNAME
  2

  9
$PUCSORG
 10
0.0
 20
0.0
 30
0.0
  9
$PUCSXDIR
 10
1.0
 20
0.0
 30
0.0
  9
$PUCSYDIR
 10
0.0
 20
1.0
 30
0.0
  9
$PUCSORTHOREF
  2

  9
$PUCSORTHOVIEW
 70
     0
  9
$PUCSORGTOP
 10
0.0
 20
0.0
 30
0.0
  9
$PUCSORGBOTTOM
 10
0.0
 20
0.0
 30
0.0
  9
$PUCSORGLEFT
 10
0.0
 20
0.0
 30
0.0
  9
$PUCSORGRIGHT
 10
0.0
 20
0.0
 30
0.0
  9
$PUCSORGFRONT
 10
0.0
 20
0.0
 30
0.0
  9
$PUCSORGBACK
 10
0.0
 20
0.0
 30
0.0
  9
$USERI1
 70
     0
  9
$USERI2
 70
     0
  9
$USERI3
 70
     0
  9
$USERI4
 70
     0
  9
$USERI5
 70
     0
  9
$USERR1
 40
0.0
  9
$USERR2
 40
0.0
  9
$USERR3
 40
0.0
  9
$USERR4
 40
2448925.372986111
  9
$USERR5
 40
0.04166667
  9
$WORLDVIEW
 70
     1
  9
$SHADEDGE
 70
     3
  9
$SHADEDIF
 70
    70
  9
$TILEMODE
 70
     1
  9
$MAXACTVP
 70
    16
  9
$PINSBASE
 10
0.0
 20
0.0
 30
0.0
  9
$PLIMCHECK
 70
     0
  9
$PEXTMIN
 10
1000000000000000E+20
 20
1000000000000000E+20
 30
1000000000000000E+20
  9
$PEXTMAX
 10
-1000000000000000E+20
 20
-1000000000000000E+20
 30
-1000000000000000E+20
  9
$PLIMMIN
 10
0.0
 20
0.0
  9
$PLIMMAX
 10
12.0
 20
9.0
  9
$UNITMODE
 70
     0
  9
$VISRETAIN
 70
     0
  9
$PLINEGEN
 70
     0
  9
$PSLTSCALE
 70
     0
  9
$TREEDEPTH
 70
  3020
  9
$CMLSTYLE
  2
STANDARD
  9
$CMLJUST
 70
     0
  9
$CMLSCALE
 40
1.0
  9
$PROXYGRAPHICS
 70
     1
  9
$MEASUREMENT
 70
     0
  9
$CELWEIGHT
370
    -1
  9
$ENDCAPS
280
     0
  9
$JOINSTYLE
280
     0
  9
$LWDISPLAY
290
     0
  9
$INSUNITS
 70
     0
  9
$HYPERLINKBASE
  1

  9
$STYLESHEET
  1
R14.ctb
  9
$XEDIT
290
     1
  9
$CEPSNTYPE
380
     0
  9
$PSTYLEMODE
290
     1
  9
$FINGERPRINTGUID
  2
{C9F7CF7C-467A-4A21-B87A-7CE85136F86E}
  9
$VERSIONGUID
  2
{0D95826F-B57E-4E2D-9015-183A7249FAC5}
  9
$EXTNAMES
290
     1
  9
$PSVPSCALE
 40
0.0
  9
$OLESTARTUP
290
     0
  0
ENDSEC
  0
SECTION
  2
CLASSES
  0
CLASS
  1
ACDBDICTIONARYWDFLT
  2
AcDbDictionaryWithDefault
  3
ObjectDBX Classes
 90
        0
280
     0
281
     0
  0
CLASS
  1
MATERIAL
  2
AcDbMaterial
  3
ObjectDBX Classes
 90
     1153
280
     0
281
     0
  0
CLASS
  1
SORTENTSTABLE
  2
AcDbSortentsTable
  3
ObjectDBX Classes
 90
        0
280
     0
281
     0
  0
CLASS
  1
SCALE
  2
AcDbScale
  3
ObjectDBX Classes
 90
     1153
280
     0
281
     0
  0
CLASS
  1
DICTIONARYVAR
  2
AcDbDictionaryVar
  3
ObjectDBX Classes
 90
        0
280
     0
281
     0
  0
CLASS
  1
VISUALSTYLE
  2
AcDbVisualStyle
  3
ObjectDBX Classes
 90
     4095
280
     0
281
     0
  0
CLASS
  1
MLEADERSTYLE
  2
AcDbMLeaderStyle
  3
ACDB_MLEADERSTYLE_CLASS
 90
     4095
280
     0
281
     0
  0
CLASS
  1
ACDBPLACEHOLDER
  2
AcDbPlaceHolder
  3
ObjectDBX Classes
 90
        0
280
     0
281
     0
  0
CLASS
  1
LAYOUT
  2
AcDbLayout
  3
ObjectDBX Classes
 90
        0
280
     0
281
     0
  0
ENDSEC
  0
SECTION
  2
TABLES
  0
TABLE
  2
VPORT
  5
25
102
{ACAD_XDICTIONARY
360
5F6
102
}
330
0
100
AcDbSymbolTable
 70
     2
  0
VPORT
  5
2A
330
25
100
AcDbSymbolTableRecord
100
AcDbViewportTableRecord
  2
*ACTIVE
 70
     0
 10
0.0
 20
0.0
 11
1.0
 21
1.0
 12
1093.744257875483
 22
631.3210223915522
 13
0.0
 23
0.0
 14
1.0
 24
1.0
 15
50.0
 25
50.0
 16
0.0
 26
0.0
 36
1.0
 17
0.0
 27
0.0
 37
0.0
 40
1833.059204237823
 41
1.82716049382716
 42
50.0
 43
0.0
 44
0.0
 50
0.0
 51
0.0
 71
     0
 72
  5000
 73
     1
 74
     0
 75
     0
 76
     0
 77
     0
 78
     0
281
     0
 65
     1
110
0.0
120
0.0
130
0.0
111
1.0
121
0.0
131
0.0
112
0.0
122
1.0
132
0.0
 79
     0
146
0.0
  0
ENDTAB
  0
TABLE
  2
LTYPE
  5
B
330
0
100
AcDbSymbolTable
 70
     2
  0
LTYPE
  5
C
330
B
100
AcDbSymbolTableRecord
100
AcDbLinetypeTableRecord
  2
BYBLOCK
 70
     0
  3

 72
    65
 73
     0
 40
0.0
  0
LTYPE
  5
D
330
B
100
AcDbSymbolTableRecord
100
AcDbLinetypeTableRecord
  2
BYLAYER
 70
     0
  3

 72
    65
 73
     0
 40
0.0
  0
LTYPE
  5
A
330
B
100
AcDbSymbolTableRecord
100
AcDbLinetypeTableRecord
  2
CONTINUOUS
 70
     0
  3
Solid line
 72
    65
 73
     0
 40
0.0
  0
LTYPE
  5
111
330
B
100
AcDbSymbolTableRecord
100
AcDbLinetypeTableRecord
  2
CENTER
 70
     0
  3
____ _ ____ _ ____ _ ____ _ ____ _ ____ _ ____
 72
    65
 73
     4
 40
2.0
 49
1.25
 74
     0
 49
-0.25
 74
     0
 49
0.25
 74
     0
 49
-0.25
 74
     0
  0
ENDTAB
  0
TABLE
  2
LAYER
  5
2
330
0
100
AcDbSymbolTable
 70
     9
  0
LAYER
  5
1B
330
2
100
AcDbSymbolTableRecord
100
AcDbLayerTableRecord
  2
0
 70
     0
 62
     7
  6
CONTINUOUS
370
    -3
390
3
  0
LAYER
  5
1A4
330
2
100
AcDbSymbolTableRecord
100
AcDbLayerTableRecord
  2
1
 70
     0
 62
     9
  6
CONTINUOUS
370
    -3
390
3
  0
LAYER
  5
1
330
2
100
AcDbSymbolTableRecord
100
AcDbLayerTableRecord
  2
2
 70
     0
 62
     4
  6
CONTINUOUS
370
    -3
390
3
  0
LAYER
  5
10E
330
2
100
AcDbSymbolTableRecord
100
AcDbLayerTableRecord
  2
4
 70
     0
 62
     3
  6
CONTINUOUS
370
    -3
390
3
  0
LAYER
  5
110
330
2
100
AcDbSymbolTableRecord
100
AcDbLayerTableRecord
  2
L-CENTER
 70
     0
 62
     1
  6
CENTER
370
    -3
390
3
  0
LAYER
  5
19E
330
2
100
AcDbSymbolTableRecord
100
AcDbLayerTableRecord
  2
5
 70
     0
 62
     6
  6
CONTINUOUS
370
    -3
390
3
  0
LAYER
  5
51
330
2
100
AcDbSymbolTableRecord
100
AcDbLayerTableRecord
  2
3
 70
     0
 62
     2
  6
CONTINUOUS
370
    -3
390
3
  0
LAYER
  5
567
330
2
100
AcDbSymbolTableRecord
100
AcDbLayerTableRecord
  2
Defpoints
 70
     0
 62
     7
  6
CONTINUOUS
290
     0
370
    -3
390
3
  0
ENDTAB
  0
TABLE
  2
STYLE
  5
F
330
0
100
AcDbSymbolTable
 70
     2
  0
STYLE
  5
13
330
F
100
AcDbSymbolTableRecord
100
AcDbTextStyleTableRecord
  2
STANDARD
 70
     0
 40
0.0
 41
1.0
 50
0.0
 71
     0
 42
7.2
  3
TXT
  4

  0
STYLE
  5
E
330
F
100
AcDbSymbolTableRecord
100
AcDbTextStyleTableRecord
  2
KANJI
 70
     0
 40
0.0
 41
1.0
 50
0.0
 71
     0
 42
12.0
  3
TXT
  4
BIGFONT
  0
ENDTAB
  0
TABLE
  2
VIEW
  5
23
330
0
100
AcDbSymbolTable
 70
     0
  0
ENDTAB
  0
TABLE
  2
UCS
  5
24
330
0
100
AcDbSymbolTable
 70
     0
  0
ENDTAB
  0
TABLE
  2
APPID
  5
9
330
0
100
AcDbSymbolTable
 70
     3
  0
APPID
  5
8
330
9
100
AcDbSymbolTableRecord
100
AcDbRegAppTableRecord
  2
ACAD
 70
     0
  0
APPID
  5
507
330
9
100
AcDbSymbolTableRecord
100
AcDbRegAppTableRecord
  2
ACAD_PSEXT
 70
     0
  0
APPID
  5
527
330
9
100
AcDbSymbolTableRecord
100
AcDbRegAppTableRecord
  2
ACAD_MLEADERVER
 70
     0
  0
ENDTAB
  0
TABLE
  2
DIMSTYLE
  5
12
330
0
100
AcDbSymbolTable
 70
     1
100
AcDbDimStyleTable
  0
DIMSTYLE
105
11
330
12
100
AcDbSymbolTableRecord
100
AcDbDimStyleTableRecord
  2
STANDARD
 70
     0
178
     0
340
13
  0
ENDTAB
  0
TABLE
  2
BLOCK_RECORD
  5
16
330
0
100
AcDbSymbolTable
 70
     0
  0
BLOCK_RECORD
  5
17
102
{ACAD_XDICTIONARY
360
18
102
}
330
16
100
AcDbSymbolTableRecord
100
AcDbBlockTableRecord
  2
*MODEL_SPACE
340
1D
  0
BLOCK_RECORD
  5
1F
330
16
100
AcDbSymbolTableRecord
100
AcDbBlockTableRecord
  2
*PAPER_SPACE
340
22
  0
ENDTAB
  0
ENDSEC
  0
SECTION
  2
BLOCKS
  0
BLOCK
  5
1A
330
17
100
AcDbEntity
  8
0
100
AcDbBlockBegin
  2
*MODEL_SPACE
 70
     0
 10
0.0
 20
0.0
 30
0.0
  3
*MODEL_SPACE
  1

  0
ENDBLK
  5
1C
330
17
100
AcDbEntity
  8
0
100
AcDbBlockEnd
  0
BLOCK
  5
20
330
1F
100
AcDbEntity
 67
     1
  8
0
100
AcDbBlockBegin
  2
*PAPER_SPACE
 70
     0
 10
0.0
 20
0.0
 30
0.0
  3
*PAPER_SPACE
  1

  0
ENDBLK
  5
21
330
1F
100
AcDbEntity
 67
     1
  8
0
100
AcDbBlockEnd
  0
ENDSEC
  0
SECTION
  2
ENTITIES
  0
LINE
  5
10D
330
17
100
AcDbEntity
  8
4
100
AcDbLine
 10
1271.36882541523
 20
134.7685549244006
 30
0.0
 11
1269.36882541523
 21
134.7685549244006
 31
0.0
  0
LINE
  5
10F
330
17
100
AcDbEntity
  8
L-CENTER
100
AcDbLine
 10
1292.203646195225
 20
126.5185549244006
 30
0.0
 11
1261.270185027399
 21
126.5185549244006
 31
0.0
  0
LINE
  5
112
330
17
100
AcDbEntity
  8
2
100
AcDbLine
 10
587.9873984766891
 20
128.8279560011592
 30
0.0
 11
591.9873984766891
 21
131.1373570779176
 31
0.0
  0
LINE
  5
113
330
17
100
AcDbEntity
  8
2
100
AcDbLine
 10
591.9873984766891
 20
121.8997527708837
 30
0.0
 11
595.9873984766891
 21
124.2091538476421
 31
0.0
  0
CIRCLE
  5
114
330
17
100
AcDbEntity
  8
4
100
AcDbCircle
 10
591.9873984766891
 20
126.5185549244006
 30
0.0
 40
8.25
  0
CIRCLE
  5
115
330
17
100
AcDbEntity
  8
2
100
AcDbCircle
 10
591.9873984766891
 20
126.5185549244006
 30
0.0
 40
7.25
  0
LINE
  5
116
330
17
100
AcDbEntity
  8
L-CENTER
100
AcDbLine
 10
1235.077809415229
 20
390.7839175602805
 30
0.0
 11
1279.830308427179
 21
390.7839175602807
 31
0.0
  0
LINE
  5
118
330
17
100
AcDbEntity
  8
L-CENTER
100
AcDbLine
 10
1485.65959741523
 20
390.7839175602805
 30
0.0
 11
1440.90709840328
 21
390.7839175602807
 31
0.0
  0
LINE
  5
11B
330
17
100
AcDbEntity
  8
L-CENTER
100
AcDbLine
 10
1416.27112407773
 20
269.5879483186045
 30
0.0
 11
1465.450433621272
 21
269.5879483186045
 31
0.0
  0
LINE
  5
270
330
17
100
AcDbEntity
  8
L-CENTER
100
AcDbLine
 10
467.2173948408094
 20
1299.197311825752
 30
0.0
 11
467.2173948408094
 21
1266.055860187847
 31
0.0
  0
LINE
  5
271
330
17
100
AcDbEntity
  8
L-CENTER
100
AcDbLine
 10
569.3214021125682
 20
1299.197311825752
 30
0.0
 11
569.3214021125682
 21
1266.055860187847
 31
0.0
  0
LINE
  5
272
330
17
100
AcDbEntity
  8
4
100
AcDbLine
 10
576.5714021125682
 20
1286.226726503654
 30
0.0
 11
576.5714021125682
 21
1284.226726503654
 31
0.0
  0
LINE
  5
273
330
17
100
AcDbEntity
  8
4
100
AcDbLine
 10
562.0714021125682
 20
1286.226726503654
 30
0.0
 11
562.0714021125682
 21
1284.226726503654
 31
0.0
  0
LINE
  5
274
330
17
100
AcDbEntity
  8
4
100
AcDbLine
 10
562.0714021125682
 20
1286.226726503654
 30
0.0
 11
576.5714021125682
 21
1286.226726503654
 31
0.0
  0
LINE
  5
275
330
17
100
AcDbEntity
  8
4
100
AcDbLine
 10
562.8214021125682
 20
1294.226726503654
 30
0.0
 11
575.8214021125682
 21
1294.226726503654
 31
0.0
  0
LINE
  5
276
330
17
100
AcDbEntity
  8
4
100
AcDbLine
 10
575.8214021125682
 20
1294.226726503654
 30
0.0
 11
575.8214021125682
 21
1286.226726503654
 31
0.0
  0
LINE
  5
277
330
17
100
AcDbEntity
  8
4
100
AcDbLine
 10
562.8214021125682
 20
1294.226726503654
 30
0.0
 11
562.8214021125682
 21
1286.226726503654
 31
0.0
  0
LINE
  5
278
330
17
100
AcDbEntity
  8
4
100
AcDbLine
 10
474.4673948408094
 20
1286.226726503654
 30
0.0
 11
474.4673948408094
 21
1284.226726503654
 31
0.0
  0
LINE
  5
279
330
17
100
AcDbEntity
  8
4
100
AcDbLine
 10
459.9673948408094
 20
1286.226726503654
 30
0.0
 11
459.9673948408094
 21
1284.226726503654
 31
0.0
  0
LINE
  5
27A
330
17
100
AcDbEntity
  8
4
100
AcDbLine
 10
474.4673948408094
 20
1286.226726503654
 30
0.0
 11
459.9673948408094
 21
1286.226726503654
 31
0.0
  0
LINE
  5
27B
330
17
100
AcDbEntity
  8
4
100
AcDbLine
 10
473.7173948408094
 20
1294.226726503654
 30
0.0
 11
460.7173948408094
 21
1294.226726503654
 31
0.0
  0
LINE
  5
27C
330
17
100
AcDbEntity
  8
4
100
AcDbLine
 10
473.7173948408094
 20
1294.226726503654
 30
0.0
 11
473.7173948408094
 21
1286.226726503654
 31
0.0
  0
LINE
  5
27D
330
17
100
AcDbEntity
  8
4
100
AcDbLine
 10
460.7173948408094
 20
1294.226726503654
 30
0.0
 11
460.7173948408094
 21
1286.226726503654
 31
0.0
  0
LINE
  5
27E
330
17
100
AcDbEntity
  8
L-CENTER
100
AcDbLine
 10
467.2173948408094
 20
1042.456141181556
 30
0.0
 11
467.2173948408094
 21
1075.597592819461
 31
0.0
  0
LINE
  5
27F
330
17
100
AcDbEntity
  8
4
100
AcDbLine
 10
459.9673948408094
 20
1055.426726503654
 30
0.0
 11
459.9673948408094
 21
1057.426726503654
 31
0.0
  0
LINE
  5
280
330
17
100
AcDbEntity
  8
4
100
AcDbLine
 10
474.4673948408094
 20
1055.426726503654
 30
0.0
 11
474.4673948408094
 21
1057.426726503654
 31
0.0
  0
LINE
  5
281
330
17
100
AcDbEntity
  8
4
100
AcDbLine
 10
474.4673948408094
 20
1055.426726503654
 30
0.0
 11
459.9673948408094
 21
1055.426726503654
 31
0.0
  0
LINE
  5
282
330
17
100
AcDbEntity
  8
4
100
AcDbLine
 10
473.7173948408094
 20
1047.426726503654
 30
0.0
 11
460.7173948408094
 21
1047.426726503654
 31
0.0
  0
LINE
  5
283
330
17
100
AcDbEntity
  8
4
100
AcDbLine
 10
460.7173948408094
 20
1047.426726503654
 30
0.0
 11
460.7173948408094
 21
1055.426726503654
 31
0.0
  0
LINE
  5
284
330
17
100
AcDbEntity
  8
4
100
AcDbLine
 10
473.7173948408094
 20
1047.426726503654
 30
0.0
 11
473.7173948408094
 21
1055.426726503654
 31
0.0
  0
LINE
  5
285
330
17
100
AcDbEntity
  8
4
100
AcDbLine
 10
562.0714021125682
 20
1055.426726503654
 30
0.0
 11
562.0714021125682
 21
1057.426726503654
 31
0.0
  0
LINE
  5
286
330
17
100
AcDbEntity
  8
4
100
AcDbLine
 10
562.8214021125682
 20
1047.426726503654
 30
0.0
 11
562.8214021125682
 21
1055.426726503654
 31
0.0
  0
LINE
  5
287
330
17
100
AcDbEntity
  8
4
100
AcDbLine
 10
576.5714021125682
 20
1055.426726503654
 30
0.0
 11
576.5714021125682
 21
1057.426726503654
 31
0.0
  0
LINE
  5
288
330
17
100
AcDbEntity
  8
4
100
AcDbLine
 10
575.8214021125682
 20
1047.426726503654
 30
0.0
 11
575.8214021125682
 21
1055.426726503654
 31
0.0
  0
LINE
  5
289
330
17
100
AcDbEntity
  8
4
100
AcDbLine
 10
562.0714021125682
 20
1055.426726503654
 30
0.0
 11
576.5714021125682
 21
1055.426726503654
 31
0.0
  0
LINE
  5
28A
330
17
100
AcDbEntity
  8
4
100
AcDbLine
 10
562.8214021125682
 20
1047.426726503654
 30
0.0
 11
575.8214021125682
 21
1047.426726503654
 31
0.0
  0
LINE
  5
292
330
17
100
AcDbEntity
  8
4
100
AcDbLine
 10
1475.36858141523
 20
383.5339175602807
 30
0.0
 11
1473.368581415229
 21
383.5339175602805
 31
0.0
  0
LINE
  5
293
330
17
100
AcDbEntity
  8
4
100
AcDbLine
 10
1483.36858141523
 20
384.2839175602807
 30
0.0
 11
1475.36858141523
 21
384.2839175602807
 31
0.0
  0
LINE
  5
294
330
17
100
AcDbEntity
  8
4
100
AcDbLine
 10
1475.36858141523
 20
398.0339175602807
 30
0.0
 11
1473.368581415229
 21
398.0339175602805
 31
0.0
  0
LINE
  5
295
330
17
100
AcDbEntity
  8
4
100
AcDbLine
 10
1483.36858141523
 20
397.2839175602807
 30
0.0
 11
1475.36858141523
 21
397.2839175602805
 31
0.0
  0
LINE
  5
296
330
17
100
AcDbEntity
  8
4
100
AcDbLine
 10
1475.36858141523
 20
383.5339175602807
 30
0.0
 11
1475.36858141523
 21
398.0339175602807
 31
0.0
  0
LINE
  5
297
330
17
100
AcDbEntity
  8
4
100
AcDbLine
 10
1483.36858141523
 20
384.2839175602807
 30
0.0
 11
1483.36858141523
 21
397.2839175602807
 31
0.0
  0
LINE
  5
29E
330
17
100
AcDbEntity
  8
4
100
AcDbLine
 10
1245.36882541523
 20
398.0339175602801
 30
0.0
 11
1247.36882541523
 21
398.0339175602802
 31
0.0
  0
LINE
  5
29F
330
17
100
AcDbEntity
  8
4
100
AcDbLine
 10
1245.36882541523
 20
383.5339175602801
 30
0.0
 11
1247.36882541523
 21
383.5339175602802
 31
0.0
  0
LINE
  5
2A0
330
17
100
AcDbEntity
  8
4
100
AcDbLine
 10
1237.36882541523
 20
384.2839175602801
 30
0.0
 11
1245.36882541523
 21
384.2839175602802
 31
0.0
  0
LINE
  5
2A1
330
17
100
AcDbEntity
  8
4
100
AcDbLine
 10
1237.36882541523
 20
397.2839175602801
 30
0.0
 11
1245.36882541523
 21
397.2839175602801
 31
0.0
  0
LINE
  5
2A2
330
17
100
AcDbEntity
  8
4
100
AcDbLine
 10
1237.36882541523
 20
397.2839175602801
 30
0.0
 11
1237.36882541523
 21
384.2839175602801
 31
0.0
  0
LINE
  5
2A3
330
17
100
AcDbEntity
  8
4
100
AcDbLine
 10
1245.36882541523
 20
398.0339175602801
 30
0.0
 11
1245.36882541523
 21
383.5339175602801
 31
0.0
  0
LINE
  5
2A4
330
17
100
AcDbEntity
  8
2
100
AcDbLine
 10
572.1971245782292
 20
285.8037022686103
 30
0.0
 11
573.0937004289599
 21
289.1497673821261
 31
0.0
  0
LINE
  5
2A5
330
17
100
AcDbEntity
  8
2
100
AcDbLine
 10
573.0937004289599
 20
289.1497673821261
 30
0.0
 11
570.6442109633035
 21
291.5992574020362
 31
0.0
  0
LINE
  5
2A6
330
17
100
AcDbEntity
  8
2
100
AcDbLine
 10
570.6442109633035
 20
291.5992574020362
 30
0.0
 11
567.298145646917
 21
290.7026823084309
 31
0.0
  0
LINE
  5
2A7
330
17
100
AcDbEntity
  8
2
100
AcDbLine
 10
572.1971245782292
 20
285.8037022686103
 30
0.0
 11
568.8510592618422
 21
284.907127175005
 31
0.0
  0
LINE
  5
2A8
330
17
100
AcDbEntity
  8
2
100
AcDbLine
 10
566.4015697961863
 20
287.3566171949153
 30
0.0
 11
567.298145646917
 21
290.7026823084309
 31
0.0
  0
LINE
  5
2A9
330
17
100
AcDbEntity
  8
2
100
AcDbLine
 10
568.8510592618422
 20
284.907127175005
 30
0.0
 11
566.4015697961863
 21
287.3566171949153
 31
0.0
  0
CIRCLE
  5
2AA
330
17
100
AcDbEntity
  8
4
100
AcDbCircle
 10
569.7476351125729
 20
288.2531922885207
 30
0.0
 40
7.25
  0
CIRCLE
  5
2AB
330
17
100
AcDbEntity
  8
4
100
AcDbCircle
 10
569.7476351125729
 20
288.2531922885207
 30
0.0
 40
6.5
  0
LINE
  5
2AC
330
17
100
AcDbEntity
  8
L-CENTER
100
AcDbLine
 10
578.586518476689
 20
279.4143069244008
 30
0.0
 11
560.9087864766889
 21
297.0920429244006
 31
0.0
  0
LINE
  5
2AD
330
17
100
AcDbEntity
  8
2
100
AcDbLine
 10
464.7679043751491
 20
285.8037022686103
 30
0.0
 11
468.1139696915357
 21
284.907127175005
 31
0.0
  0
LINE
  5
2AE
330
17
100
AcDbEntity
  8
2
100
AcDbLine
 10
468.1139696915357
 20
284.907127175005
 30
0.0
 11
470.5634591571916
 21
287.3566171949153
 31
0.0
  0
LINE
  5
2AF
330
17
100
AcDbEntity
  8
2
100
AcDbLine
 10
470.5634591571916
 20
287.3566171949153
 30
0.0
 11
469.6668833064614
 21
290.7026823084309
 31
0.0
  0
LINE
  5
2B0
330
17
100
AcDbEntity
  8
2
100
AcDbLine
 10
466.3208179900744
 20
291.5992574020362
 30
0.0
 11
469.6668833064614
 21
290.7026823084309
 31
0.0
  0
LINE
  5
2B1
330
17
100
AcDbEntity
  8
2
100
AcDbLine
 10
463.8713285244185
 20
289.1497673821261
 30
0.0
 11
466.3208179900744
 21
291.5992574020362
 31
0.0
  0
LINE
  5
2B2
330
17
100
AcDbEntity
  8
2
100
AcDbLine
 10
464.7679043751491
 20
285.8037022686103
 30
0.0
 11
463.8713285244185
 21
289.1497673821261
 31
0.0
  0
LINE
  5
2B3
330
17
100
AcDbEntity
  8
L-CENTER
100
AcDbLine
 10
458.3785104766894
 20
279.4143069244008
 30
0.0
 11
476.056242476689
 21
297.0920429244006
 31
0.0
  0
CIRCLE
  5
2B4
330
17
100
AcDbEntity
  8
4
100
AcDbCircle
 10
467.217393840805
 20
288.2531922885207
 30
0.0
 40
6.5
  0
CIRCLE
  5
2B5
330
17
100
AcDbEntity
  8
4
100
AcDbCircle
 10
467.217393840805
 20
288.2531922885207
 30
0.0
 40
7.25
  0
LINE
  5
2B6
330
17
100
AcDbEntity
  8
2
100
AcDbLine
 10
572.1971245782292
 20
393.2334075801909
 30
0.0
 11
568.8510592618422
 21
394.1299826737962
 31
0.0
  0
LINE
  5
2B7
330
17
100
AcDbEntity
  8
2
100
AcDbLine
 10
568.8510592618422
 20
394.1299826737962
 30
0.0
 11
566.4015697961863
 21
391.6804926538859
 31
0.0
  0
LINE
  5
2B8
330
17
100
AcDbEntity
  8
2
100
AcDbLine
 10
566.4015697961863
 20
391.6804926538859
 30
0.0
 11
567.298145646917
 21
388.3344275403704
 31
0.0
  0
LINE
  5
2B9
330
17
100
AcDbEntity
  8
2
100
AcDbLine
 10
570.6442109633035
 20
387.4378524467651
 30
0.0
 11
567.298145646917
 21
388.3344275403704
 31
0.0
  0
LINE
  5
2BA
330
17
100
AcDbEntity
  8
2
100
AcDbLine
 10
573.0937004289599
 20
389.8873424666751
 30
0.0
 11
570.6442109633035
 21
387.4378524467651
 31
0.0
  0
LINE
  5
2BB
330
17
100
AcDbEntity
  8
2
100
AcDbLine
 10
572.1971245782292
 20
393.2334075801909
 30
0.0
 11
573.0937004289599
 21
389.8873424666751
 31
0.0
  0
LINE
  5
2BC
330
17
100
AcDbEntity
  8
L-CENTER
100
AcDbLine
 10
578.586518476689
 20
399.6228029244005
 30
0.0
 11
560.9087864766889
 21
381.9450669244006
 31
0.0
  0
CIRCLE
  5
2BD
330
17
100
AcDbEntity
  8
4
100
AcDbCircle
 10
569.7476351125729
 20
390.7839175602805
 30
0.0
 40
6.5
  0
CIRCLE
  5
2BE
330
17
100
AcDbEntity
  8
4
100
AcDbCircle
 10
569.7476351125729
 20
390.7839175602805
 30
0.0
 40
7.25
  0
LINE
  5
2BF
330
17
100
AcDbEntity
  8
2
100
AcDbLine
 10
470.5634591571916
 20
391.6804926538859
 30
0.0
 11
469.6668833064614
 21
388.3344275403704
 31
0.0
  0
LINE
  5
2C0
330
17
100
AcDbEntity
  8
2
100
AcDbLine
 10
464.7679043751491
 20
393.2334075801909
 30
0.0
 11
463.8713285244185
 21
389.8873424666751
 31
0.0
  0
LINE
  5
2C1
330
17
100
AcDbEntity
  8
2
100
AcDbLine
 10
463.8713285244185
 20
389.8873424666751
 30
0.0
 11
466.3208179900744
 21
387.4378524467651
 31
0.0
  0
LINE
  5
2C2
330
17
100
AcDbEntity
  8
2
100
AcDbLine
 10
468.1139696915357
 20
394.1299826737962
 30
0.0
 11
470.5634591571916
 21
391.6804926538859
 31
0.0
  0
LINE
  5
2C3
330
17
100
AcDbEntity
  8
2
100
AcDbLine
 10
466.3208179900744
 20
387.4378524467651
 30
0.0
 11
469.6668833064614
 21
388.3344275403704
 31
0.0
  0
LINE
  5
2C4
330
17
100
AcDbEntity
  8
2
100
AcDbLine
 10
464.7679043751491
 20
393.2334075801909
 30
0.0
 11
468.1139696915357
 21
394.1299826737962
 31
0.0
  0
CIRCLE
  5
2C5
330
17
100
AcDbEntity
  8
4
100
AcDbCircle
 10
467.217393840805
 20
390.7839175602805
 30
0.0
 40
7.25
  0
CIRCLE
  5
2C6
330
17
100
AcDbEntity
  8
4
100
AcDbCircle
 10
467.217393840805
 20
390.7839175602805
 30
0.0
 40
6.5
  0
LINE
  5
2C7
330
17
100
AcDbEntity
  8
L-CENTER
100
AcDbLine
 10
458.3785104766894
 20
399.6228029244005
 30
0.0
 11
476.056242476689
 21
381.9450669244006
 31
0.0
  0
ARC
  5
2C8
330
17
100
AcDbEntity
  8
4
100
AcDbCircle
 10
-2142.636058584771
 20
359.5185549244006
 30
0.0
 40
3599.99998
100
AcDbArc
 50
358.7595989770068
 51
1.240401022992276
  0
LINE
  5
2C9
330
17
100
AcDbEntity
  8
4
100
AcDbLine
 10
1460.339285415229
 20
257.5879483186045
 30
0.0
 11
1449.368825415229
 21
257.5879483186045
 31
0.0
  0
ARC
  5
2CA
330
17
100
AcDbEntity
  8
4
100
AcDbCircle
 10
1456.785085415229
 20
278.5879483186045
 30
0.0
 40
4.5836
100
AcDbArc
 50
319.1166739999999
 51
40.88132099999588
  0
LINE
  5
2CB
330
17
100
AcDbEntity
  8
4
100
AcDbLine
 10
1452.368825415229
 20
263.5879483186045
 30
0.0
 11
1460.339285415229
 21
263.5879483186045
 31
0.0
  0
LINE
  5
2CC
330
17
100
AcDbEntity
  8
4
100
AcDbLine
 10
1452.368825415229
 20
275.5879483186045
 30
0.0
 11
1460.339285415229
 21
275.5879483186045
 31
0.0
  0
ARC
  5
2CD
330
17
100
AcDbEntity
  8
4
100
AcDbCircle
 10
1443.368825415229
 20
269.5879483186045
 30
0.0
 40
17.999976
100
AcDbArc
 50
340.5286690000001
 51
19.47033999999984
  0
LINE
  5
2CE
330
17
100
AcDbEntity
  8
4
100
AcDbLine
 10
1460.339285415229
 20
281.5879483186045
 30
0.0
 11
1449.368825415229
 21
281.5879483186045
 31
0.0
  0
LINE
  5
2CF
330
17
100
AcDbEntity
  8
4
100
AcDbLine
 10
1452.368825415229
 20
257.5879483186045
 30
0.0
 11
1452.368825415229
 21
281.5879483186045
 31
0.0
  0
ARC
  5
2D0
330
17
100
AcDbEntity
  8
4
100
AcDbCircle
 10
1456.785085415229
 20
260.5879483186045
 30
0.0
 40
4.5836
100
AcDbArc
 50
319.1166739999999
 51
40.88132099999588
  0
LINE
  5
2D1
330
17
100
AcDbEntity
  8
4
100
AcDbLine
 10
1461.368825415229
 20
260.5879483186045
 30
0.0
 11
1461.368825415229
 21
278.5879483186045
 31
0.0
  0
LINE
  5
2DB
330
17
100
AcDbEntity
  8
4
100
AcDbLine
 10
620.48739847669
 20
523.5185549244006
 30
0.0
 11
625.48739847669
 21
523.5185549244004
 31
0.0
  0
LINE
  5
2DC
330
17
100
AcDbEntity
  8
4
100
AcDbLine
 10
620.48739847669
 20
524.0185549244009
 30
0.0
 11
620.48739847669
 21
523.5185549244006
 31
0.0
  0
LINE
  5
2DD
330
17
100
AcDbEntity
  8
4
100
AcDbLine
 10
625.48739847669
 20
523.5185549244006
 30
0.0
 11
625.48739847669
 21
524.0185549244009
 31
0.0
  0
ARC
  5
2DE
330
17
100
AcDbEntity
  8
4
100
AcDbCircle
 10
626.48739847669
 20
532.5185549244006
 30
0.0
 40
3.0
100
AcDbArc
 50
0.0
 51
90.0
  0
LINE
  5
2DF
330
17
100
AcDbEntity
  8
4
100
AcDbLine
 10
598.48739847669
 20
518.0185549244004
 30
0.0
 11
605.48739847669
 21
518.0185549244004
 31
0.0
  0
ARC
  5
2E0
330
17
100
AcDbEntity
  8
4
100
AcDbCircle
 10
585.48739847669
 20
523.5185549244004
 30
0.0
 40
8.0
100
AcDbArc
 50
0.0
 51
90.0
  0
ARC
  5
2E1
330
17
100
AcDbEntity
  8
4
100
AcDbCircle
 10
585.48739847669
 20
523.5185549244004
 30
0.0
 40
3.0
100
AcDbArc
 50
0.0
 51
90.0
  0
LINE
  5
2E2
330
17
100
AcDbEntity
  8
4
100
AcDbLine
 10
583.48739847669
 20
526.5185549244004
 30
0.0
 11
585.48739847669
 21
526.5185549244004
 31
0.0
  0
LINE
  5
2E3
330
17
100
AcDbEntity
  8
4
100
AcDbLine
 10
615.48739847669
 20
518.0896227362662
 30
0.0
 11
615.48739847669
 21
524.0185549244009
 31
0.0
  0
LINE
  5
2E4
330
17
100
AcDbEntity
  8
4
100
AcDbLine
 10
558.48739847669
 20
531.5185549244006
 30
0.0
 11
563.48739847669
 21
531.5185549244006
 31
0.0
  0
ARC
  5
2E5
330
17
100
AcDbEntity
  8
4
100
AcDbCircle
 10
557.48739847669
 20
532.5185549244009
 30
0.0
 40
3.0
100
AcDbArc
 50
90.0
 51
180.0
  0
LINE
  5
2E6
330
17
100
AcDbEntity
  8
4
100
AcDbLine
 10
578.48739847669
 20
531.5185549244004
 30
0.0
 11
585.48739847669
 21
531.5185549244004
 31
0.0
  0
LINE
  5
2E7
330
17
100
AcDbEntity
  8
4
100
AcDbLine
 10
557.48739847669
 20
535.5185549244009
 30
0.0
 11
626.48739847669
 21
535.5185549244006
 31
0.0
  0
ARC
  5
2E8
330
17
100
AcDbEntity
  8
4
100
AcDbCircle
 10
617.98739847669
 20
524.0185549244009
 30
0.0
 40
7.5
100
AcDbArc
 50
0.0
 51
180.0
  0
ARC
  5
2E9
330
17
100
AcDbEntity
  8
4
100
AcDbCircle
 10
617.98739847669
 20
524.0185549244009
 30
0.0
 40
2.5
100
AcDbArc
 50
0.0
 51
180.0
  0
ARC
  5
2EA
330
17
100
AcDbEntity
  8
4
100
AcDbCircle
 10
626.48739847669
 20
498.5185549244006
 30
0.0
 40
3.0
100
AcDbArc
 50
270.0
 51
0.0
  0
LINE
  5
2EB
330
17
100
AcDbEntity
  8
4
100
AcDbLine
 10
620.48739847669
 20
507.0185549244006
 30
0.0
 11
620.48739847669
 21
511.0185549244006
 31
0.0
  0
LINE
  5
2EC
330
17
100
AcDbEntity
  8
4
100
AcDbLine
 10
625.48739847669
 20
507.0185549244006
 30
0.0
 11
625.48739847669
 21
511.0185549244006
 31
0.0
  0
LINE
  5
2ED
330
17
100
AcDbEntity
  8
4
100
AcDbLine
 10
598.48739847669
 20
513.0185549244004
 30
0.0
 11
605.48739847669
 21
513.0185549244004
 31
0.0
  0
ARC
  5
2EE
330
17
100
AcDbEntity
  8
4
100
AcDbCircle
 10
585.4873984766891
 20
507.5185549244006
 30
0.0
 40
8.0
100
AcDbArc
 50
270.0
 51
0.0
  0
ARC
  5
2EF
330
17
100
AcDbEntity
  8
4
100
AcDbCircle
 10
585.4873984766891
 20
507.5185549244009
 30
0.0
 40
3.0
100
AcDbArc
 50
270.0
 51
0.0
  0
LINE
  5
2F0
330
17
100
AcDbEntity
  8
4
100
AcDbLine
 10
583.48739847669
 20
504.5185549244006
 30
0.0
 11
585.48739847669
 21
504.5185549244009
 31
0.0
  0
LINE
  5
2F1
330
17
100
AcDbEntity
  8
4
100
AcDbLine
 10
615.48739847669
 20
507.0185549244006
 30
0.0
 11
615.48739847669
 21
511.0185549244006
 31
0.0
  0
LINE
  5
2F2
330
17
100
AcDbEntity
  8
4
100
AcDbLine
 10
558.48739847669
 20
499.5185549244006
 30
0.0
 11
573.48739847669
 21
499.5185549244006
 31
0.0
  0
ARC
  5
2F3
330
17
100
AcDbEntity
  8
4
100
AcDbCircle
 10
557.48739847669
 20
498.5185549244009
 30
0.0
 40
3.0
100
AcDbArc
 50
180.0
 51
270.0
  0
LINE
  5
2F4
330
17
100
AcDbEntity
  8
4
100
AcDbLine
 10
573.48739847669
 20
499.5185549244006
 30
0.0
 11
573.48739847669
 21
504.5185549244006
 31
0.0
  0
LINE
  5
2F5
330
17
100
AcDbEntity
  8
4
100
AcDbLine
 10
563.48739847669
 20
504.5185549244006
 30
0.0
 11
573.48739847669
 21
504.5185549244006
 31
0.0
  0
LINE
  5
2F6
330
17
100
AcDbEntity
  8
4
100
AcDbLine
 10
578.48739847669
 20
499.5185549244006
 30
0.0
 11
585.4873984766891
 21
499.5185549244006
 31
0.0
  0
LINE
  5
2F7
330
17
100
AcDbEntity
  8
4
100
AcDbLine
 10
557.48739847669
 20
495.5185549244009
 30
0.0
 11
626.48739847669
 21
495.5185549244006
 31
0.0
  0
ARC
  5
2F8
330
17
100
AcDbEntity
  8
4
100
AcDbCircle
 10
617.98739847669
 20
507.0185549244006
 30
0.0
 40
7.5
100
AcDbArc
 50
180.0
 51
0.0
  0
ARC
  5
2F9
330
17
100
AcDbEntity
  8
4
100
AcDbCircle
 10
617.98739847669
 20
511.0185549244006
 30
0.0
 40
2.5
100
AcDbArc
 50
0.0
 51
180.0
  0
ARC
  5
2FA
330
17
100
AcDbEntity
  8
4
100
AcDbCircle
 10
617.98739847669
 20
507.0185549244006
 30
0.0
 40
2.5
100
AcDbArc
 50
180.0
 51
0.0
  0
LINE
  5
2FB
330
17
100
AcDbEntity
  8
4
100
AcDbLine
 10
563.48739847669
 20
504.5185549244006
 30
0.0
 11
563.48739847669
 21
531.5185549244006
 31
0.0
  0
LINE
  5
2FC
330
17
100
AcDbEntity
  8
4
100
AcDbLine
 10
558.48739847669
 20
499.5185549244006
 30
0.0
 11
558.48739847669
 21
531.5185549244006
 31
0.0
  0
LINE
  5
2FD
330
17
100
AcDbEntity
  8
4
100
AcDbLine
 10
554.48739847669
 20
498.5185549244009
 30
0.0
 11
554.48739847669
 21
532.5185549244009
 31
0.0
  0
LINE
  5
2FE
330
17
100
AcDbEntity
  8
4
100
AcDbLine
 10
578.48739847669
 20
499.5185549244006
 30
0.0
 11
578.48739847669
 21
531.5185549244006
 31
0.0
  0
LINE
  5
2FF
330
17
100
AcDbEntity
  8
4
100
AcDbLine
 10
598.48739847669
 20
513.0185549244004
 30
0.0
 11
598.48739847669
 21
518.0185549244004
 31
0.0
  0
LINE
  5
300
330
17
100
AcDbEntity
  8
4
100
AcDbLine
 10
588.4873984766891
 20
507.5185549244009
 30
0.0
 11
588.48739847669
 21
523.5185549244004
 31
0.0
  0
LINE
  5
301
330
17
100
AcDbEntity
  8
4
100
AcDbLine
 10
593.4873984766891
 20
507.5185549244006
 30
0.0
 11
593.48739847669
 21
523.5185549244004
 31
0.0
  0
LINE
  5
302
330
17
100
AcDbEntity
  8
4
100
AcDbLine
 10
583.48739847669
 20
504.5185549244006
 30
0.0
 11
583.48739847669
 21
526.5185549244004
 31
0.0
  0
LINE
  5
303
330
17
100
AcDbEntity
  8
4
100
AcDbLine
 10
629.48739847669
 20
498.5185549244006
 30
0.0
 11
629.48739847669
 21
532.5185549244006
 31
0.0
  0
ARC
  5
304
330
17
100
AcDbEntity
  8
4
100
AcDbCircle
 10
617.98739847669
 20
511.0185549244006
 30
0.0
 40
7.5
100
AcDbArc
 50
0.0
 51
109.4712206344724
  0
LINE
  5
305
330
17
100
AcDbEntity
  8
4
100
AcDbLine
 10
610.48739847669
 20
507.0185549244006
 30
0.0
 11
610.48739847669
 21
524.0185549244009
 31
0.0
  0
LINE
  5
306
330
17
100
AcDbEntity
  8
4
100
AcDbLine
 10
605.48739847669
 20
513.0185549244004
 30
0.0
 11
605.48739847669
 21
518.0185549244004
 31
0.0
  0
LWPOLYLINE
  5
307
330
17
100
AcDbEntity
  8
4
100
AcDbPolyline
 90
        6
 70
     1
 43
0.0
 10
474.4873984766891
 20
1170.826726503654
 10
468.2373984766891
 20
1181.65204405096
 10
455.7373984766891
 20
1181.65204405096
 10
449.4873984766891
 20
1170.826726503655
 10
455.7373984766891
 20
1160.001408956349
 10
468.2373984766891
 20
1160.001408956349
  0
CIRCLE
  5
308
330
17
100
AcDbEntity
  8
4
100
AcDbCircle
 10
461.9873984766891
 20
1170.826726503654
 30
0.0
 40
12.5
  0
ARC
  5
309
330
17
100
AcDbEntity
  8
4
100
AcDbCircle
 10
591.9873984766891
 20
1170.826726503655
 30
0.0
 40
11.0
100
AcDbArc
 50
117.0356917894125
 51
242.9643082105875
  0
ARC
  5
30A
330
17
100
AcDbEntity
  8
4
100
AcDbCircle
 10
591.9873984766891
 20
1170.826726503655
 30
0.0
 40
12.5
100
AcDbArc
 50
113.578178478202
 51
246.421821521798
  0
ARC
  5
30B
330
17
100
AcDbEntity
  8
4
100
AcDbCircle
 10
591.9873984766891
 20
1170.826726503655
 30
0.0
 40
11.0
100
AcDbArc
 50
297.0356917894125
 51
62.96430821058751
  0
ARC
  5
30C
330
17
100
AcDbEntity
  8
4
100
AcDbCircle
 10
591.9873984766891
 20
1170.826726503655
 30
0.0
 40
12.5
100
AcDbArc
 50
293.5781784782019
 51
66.42182152179805
  0
ARC
  5
30D
330
17
100
AcDbEntity
  8
4
100
AcDbCircle
 10
591.9873984766891
 20
1190.826726503655
 30
0.0
 40
5.0
100
AcDbArc
 50
0.0
 51
180.0
  0
ARC
  5
30E
330
17
100
AcDbEntity
  8
4
100
AcDbCircle
 10
591.9873984766891
 20
1150.826726503655
 30
0.0
 40
5.0
100
AcDbArc
 50
180.0
 51
0.0
  0
LINE
  5
30F
330
17
100
AcDbEntity
  8
4
100
AcDbLine
 10
596.9873984766891
 20
1150.826726503654
 30
0.0
 11
596.9873984766891
 21
1190.826726503654
 31
0.0
  0
LINE
  5
310
330
17
100
AcDbEntity
  8
4
100
AcDbLine
 10
586.9873984766891
 20
1150.826726503654
 30
0.0
 11
586.9873984766891
 21
1190.826726503654
 31
0.0
  0
LINE
  5
311
330
17
100
AcDbEntity
  8
L-CENTER
100
AcDbLine
 10
461.9873984766891
 20
1139.326726503654
 30
0.0
 11
461.9873984766891
 21
1201.826726503654
 31
0.0
  0
CIRCLE
  5
312
330
17
100
AcDbEntity
  8
4
100
AcDbCircle
 10
461.9873984766891
 20
1170.826726503654
 30
0.0
 40
19.0
  0
ARC
  5
313
330
17
100
AcDbEntity
  8
4
100
AcDbCircle
 10
607.9873984766891
 20
1139.826726503654
 30
0.0
 40
3.0
100
AcDbArc
 50
270.0
 51
0.0
  0
LINE
  5
314
330
17
100
AcDbEntity
  8
4
100
AcDbLine
 10
575.9873984766891
 20
1136.826726503654
 30
0.0
 11
607.9873984766891
 21
1136.826726503654
 31
0.0
  0
ARC
  5
315
330
17
100
AcDbEntity
  8
4
100
AcDbCircle
 10
607.98739847669
 20
1201.826726503654
 30
0.0
 40
3.0
100
AcDbArc
 50
0.0
 51
90.0
  0
ARC
  5
316
330
17
100
AcDbEntity
  8
4
100
AcDbCircle
 10
575.9873984766891
 20
1201.826726503654
 30
0.0
 40
3.0
100
AcDbArc
 50
90.0
 51
180.0
  0
LINE
  5
317
330
17
100
AcDbEntity
  8
4
100
AcDbLine
 10
575.9873984766891
 20
1204.826726503654
 30
0.0
 11
607.98739847669
 21
1204.826726503654
 31
0.0
  0
LINE
  5
318
330
17
100
AcDbEntity
  8
4
100
AcDbLine
 10
610.9873984766891
 20
1139.826726503654
 30
0.0
 11
610.98739847669
 21
1201.826726503654
 31
0.0
  0
ARC
  5
319
330
17
100
AcDbEntity
  8
4
100
AcDbCircle
 10
575.9873984766891
 20
1139.826726503654
 30
0.0
 40
3.0
100
AcDbArc
 50
180.0
 51
270.0
  0
LINE
  5
31A
330
17
100
AcDbEntity
  8
4
100
AcDbLine
 10
572.9873984766891
 20
1139.826726503654
 30
0.0
 11
572.9873984766891
 21
1201.826726503654
 31
0.0
  0
LINE
  5
32C
330
17
100
AcDbEntity
  8
L-CENTER
100
AcDbLine
 10
569.3214021125682
 20
1042.456141181556
 30
0.0
 11
569.3214021125682
 21
1075.597592819461
 31
0.0
  0
LINE
  5
33E
330
17
100
AcDbEntity
  8
4
100
AcDbLine
 10
341.9878144767235
 20
1248.226726503651
 30
0.0
 11
841.9873984766891
 21
1248.226726503658
 31
0.0
  0
ARC
  5
33F
330
17
100
AcDbEntity
  8
4
100
AcDbCircle
 10
839.9873984766891
 20
1265.826726503658
 30
0.0
 40
2.0
100
AcDbArc
 50
0.0
 51
90.0
  0
LINE
  5
340
330
17
100
AcDbEntity
  8
4
100
AcDbLine
 10
841.9873984766891
 20
1265.826726503658
 30
0.0
 11
841.9873984766891
 21
1248.226726503658
 31
0.0
  0
ARC
  5
341
330
17
100
AcDbEntity
  8
4
100
AcDbCircle
 10
752.2693984766893
 20
1269.99879169591
 30
0.0
 40
3.0
100
AcDbArc
 50
180.0
 51
226.3875280915794
  0
LINE
  5
342
330
17
100
AcDbEntity
  8
4
100
AcDbLine
 10
749.2693984766888
 20
1274.826726503657
 30
0.0
 11
749.2693984766888
 21
1269.99879169591
 31
0.0
  0
LINE
  5
343
330
17
100
AcDbEntity
  8
4
100
AcDbLine
 10
729.2693984766893
 20
1274.826726503657
 30
0.0
 11
729.2693984766893
 21
1275.826726503657
 31
0.0
  0
LINE
  5
344
330
17
100
AcDbEntity
  8
4
100
AcDbLine
 10
649.2693984766893
 20
1274.826726503657
 30
0.0
 11
649.2693984766893
 21
1275.826726503657
 31
0.0
  0
LINE
  5
345
330
17
100
AcDbEntity
  8
L-CENTER
100
AcDbLine
 10
689.2693984766893
 20
1286.826726503657
 30
0.0
 11
689.2693984766893
 21
1057.909843834061
 31
0.0
  0
ARC
  5
346
330
17
100
AcDbEntity
  8
4
100
AcDbCircle
 10
591.98739847669
 20
-2329.434313735556
 30
0.0
 40
3600.0
100
AcDbArc
 50
89.45483109854293
 51
89.7887272992679
  0
ARC
  5
347
330
17
100
AcDbEntity
  8
4
100
AcDbCircle
 10
626.2693984766893
 20
1273.402588550752
 30
0.0
 40
3.0
100
AcDbArc
 50
269.4548310985343
 51
0.0
  0
LINE
  5
348
330
17
100
AcDbEntity
  8
4
100
AcDbLine
 10
629.2693984766893
 20
1274.826726503657
 30
0.0
 11
629.2693984766893
 21
1273.402588550752
 31
0.0
  0
LINE
  5
349
330
17
100
AcDbEntity
  8
4
100
AcDbLine
 10
603.2693984766893
 20
1273.226726503657
 30
0.0
 11
603.2693984766893
 21
1284.226726503657
 31
0.0
  0
ARC
  5
34A
330
17
100
AcDbEntity
  8
4
100
AcDbCircle
 10
605.2693984766893
 20
1272.54119818509
 30
0.0
 40
2.0
100
AcDbArc
 50
180.0
 51
269.7887272992679
  0
LINE
  5
34B
330
17
100
AcDbEntity
  8
4
100
AcDbLine
 10
603.2693984766888
 20
1272.826726503657
 30
0.0
 11
603.2693984766888
 21
1272.54119818509
 31
0.0
  0
LINE
  5
34C
330
17
100
AcDbEntity
  8
4
100
AcDbLine
 10
649.2693984766893
 20
1275.826726503657
 30
0.0
 11
729.2693984766893
 21
1275.826726503657
 31
0.0
  0
LINE
  5
34D
330
17
100
AcDbEntity
  8
4
100
AcDbLine
 10
629.2693984766893
 20
1274.826726503657
 30
0.0
 11
749.2693984766888
 21
1274.826726503657
 31
0.0
  0
LINE
  5
34E
330
17
100
AcDbEntity
  8
L-CENTER
100
AcDbLine
 10
518.2693984766888
 20
1293.634076008755
 30
0.0
 11
518.2693984766888
 21
917.7864322883534
 31
0.0
  0
LINE
  5
34F
330
17
100
AcDbEntity
  8
4
100
AcDbLine
 10
433.2693984766888
 20
1273.226726503657
 30
0.0
 11
433.2693984766888
 21
1284.226726503657
 31
0.0
  0
ARC
  5
350
330
17
100
AcDbEntity
  8
4
100
AcDbCircle
 10
430.2693984766893
 20
1269.934559897154
 30
0.0
 40
3.0
100
AcDbArc
 50
315.3631273622356
 51
0.0
  0
LINE
  5
351
330
17
100
AcDbEntity
  8
4
100
AcDbLine
 10
433.2693984766888
 20
1272.826726503657
 30
0.0
 11
433.2693984766888
 21
1269.934559897154
 31
0.0
  0
ARC
  5
352
330
17
100
AcDbEntity
  8
4
100
AcDbCircle
 10
343.9878144767235
 20
1265.826726503657
 30
0.0
 40
2.0
100
AcDbArc
 50
90.0
 51
180.0
  0
LINE
  5
353
330
17
100
AcDbEntity
  8
4
100
AcDbLine
 10
341.9878144767235
 20
1265.826726503657
 30
0.0
 11
341.9878144767235
 21
1248.226726503657
 31
0.0
  0
ARC
  5
354
330
17
100
AcDbEntity
  8
4
100
AcDbCircle
 10
591.98739847669
 20
-2331.434313735556
 30
0.0
 40
3600.0
100
AcDbArc
 50
88.83907489210426
 51
91.16092510789575
  0
LINE
  5
355
330
17
100
AcDbEntity
  8
4
100
AcDbLine
 10
343.9878144767235
 20
1267.826726503658
 30
0.0
 11
839.9873984766891
 21
1267.826726503658
 31
0.0
  0
LINE
  5
356
330
17
100
AcDbEntity
  8
4
100
AcDbLine
 10
433.2693984766888
 20
1273.226726503657
 30
0.0
 11
603.2693984766893
 21
1273.226726503657
 31
0.0
  0
LINE
  5
357
330
17
100
AcDbEntity
  8
4
100
AcDbLine
 10
433.2693984766888
 20
1284.226726503657
 30
0.0
 11
603.2693984766893
 21
1284.226726503657
 31
0.0
  0
LINE
  5
358
330
17
100
AcDbEntity
  8
4
100
AcDbLine
 10
433.2693984766888
 20
1272.826726503657
 30
0.0
 11
603.2693984766893
 21
1272.826726503657
 31
0.0
  0
LINE
  5
359
330
17
100
AcDbEntity
  8
4
100
AcDbLine
 10
433.2693984766893
 20
1068.426726503654
 30
0.0
 11
433.2693984766893
 21
1057.426726503654
 31
0.0
  0
LINE
  5
35A
330
17
100
AcDbEntity
  8
4
100
AcDbLine
 10
603.2693984766893
 20
1068.426726503654
 30
0.0
 11
603.2693984766893
 21
1057.426726503654
 31
0.0
  0
LINE
  5
35B
330
17
100
AcDbEntity
  8
4
100
AcDbLine
 10
433.2693984766893
 20
1068.426726503654
 30
0.0
 11
603.2693984766893
 21
1068.426726503654
 31
0.0
  0
LINE
  5
35C
330
17
100
AcDbEntity
  8
4
100
AcDbLine
 10
433.2693984766893
 20
1057.426726503654
 30
0.0
 11
603.2693984766893
 21
1057.426726503654
 31
0.0
  0
LINE
  5
35D
330
17
100
AcDbEntity
  8
4
100
AcDbLine
 10
324.9873984766891
 20
1096.826726503654
 30
0.0
 11
323.9873984766891
 21
1096.826726503654
 31
0.0
  0
LINE
  5
35E
330
17
100
AcDbEntity
  8
4
100
AcDbLine
 10
323.9873984766891
 20
1096.826726503654
 30
0.0
 11
323.9873984766891
 21
1176.826726503654
 31
0.0
  0
LINE
  5
35F
330
17
100
AcDbEntity
  8
4
100
AcDbLine
 10
324.9873984766891
 20
1176.826726503654
 30
0.0
 11
323.9873984766891
 21
1176.826726503654
 31
0.0
  0
LINE
  5
360
330
17
100
AcDbEntity
  8
4
100
AcDbLine
 10
859.9873984766891
 20
1096.826726503654
 30
0.0
 11
858.9873984766891
 21
1096.826726503654
 31
0.0
  0
LINE
  5
361
330
17
100
AcDbEntity
  8
4
100
AcDbLine
 10
859.9873984766891
 20
1096.826726503654
 30
0.0
 11
859.9873984766891
 21
1176.826726503654
 31
0.0
  0
LINE
  5
362
330
17
100
AcDbEntity
  8
4
100
AcDbLine
 10
859.9873984766891
 20
1176.826726503654
 30
0.0
 11
858.9873984766891
 21
1176.826726503654
 31
0.0
  0
LINE
  5
364
330
17
100
AcDbEntity
  8
L-CENTER
100
AcDbLine
 10
212.9541017719575
 20
1136.826726503654
 30
0.0
 11
867.752921456549
 21
1136.826726503654
 31
0.0
  0
LINE
  5
365
330
17
100
AcDbEntity
  8
4
100
AcDbLine
 10
649.2693984766893
 20
1065.826726503654
 30
0.0
 11
729.2693984766893
 21
1065.826726503654
 31
0.0
  0
LINE
  5
366
330
17
100
AcDbEntity
  8
L-CENTER
100
AcDbLine
 10
314.98739847669
 20
1170.826726503654
 30
0.0
 11
871.4873984766891
 21
1170.826726503654
 31
0.0
  0
ARC
  5
367
330
17
100
AcDbEntity
  8
4
100
AcDbCircle
 10
848.9873984766891
 20
1300.826726503655
 30
0.0
 40
5.0
100
AcDbArc
 50
0.0
 51
90.0
  0
ARC
  5
368
330
17
100
AcDbEntity
  8
4
100
AcDbCircle
 10
851.9873984766891
 20
1242.826726503654
 30
0.0
 40
2.0
100
AcDbArc
 50
0.0
 51
90.0
  0
ARC
  5
369
330
17
100
AcDbEntity
  8
4
100
AcDbCircle
 10
843.9873984766891
 20
1246.826726503654
 30
0.0
 40
2.0
100
AcDbArc
 50
180.0
 51
270.0
  0
LINE
  5
36A
330
17
100
AcDbEntity
  8
4
100
AcDbLine
 10
841.9873984766891
 20
1247.826726503654
 30
0.0
 11
841.9873984766891
 21
1246.826726503654
 31
0.0
  0
CIRCLE
  5
36B
330
17
100
AcDbEntity
  8
4
100
AcDbCircle
 10
791.9873984766891
 20
1280.826726503654
 30
0.0
 40
11.0
  0
LINE
  5
36C
330
17
100
AcDbEntity
  8
L-CENTER
100
AcDbLine
 10
791.9873984766891
 20
1305.826726503656
 30
0.0
 11
791.98739847669
 21
1255.826726503653
 31
0.0
  0
ARC
  5
36D
330
17
100
AcDbEntity
  8
4
100
AcDbCircle
 10
737.1003441813964
 20
1300.826726503654
 30
0.0
 40
5.0
100
AcDbArc
 50
90.0
 51
153.8118893025227
  0
LINE
  5
36E
330
17
100
AcDbEntity
  8
4
100
AcDbLine
 10
719.233300116035
 20
1275.826726503657
 30
0.0
 11
732.6135943507934
 21
1303.033324781
 31
0.0
  0
LINE
  5
36F
330
17
100
AcDbEntity
  8
L-CENTER
100
AcDbLine
 10
766.9873984766882
 20
1280.826726503654
 30
0.0
 11
816.9873984766909
 21
1280.826726503654
 31
0.0
  0
LINE
  5
370
330
17
100
AcDbEntity
  8
4
100
AcDbLine
 10
848.9873984766891
 20
1305.826726503655
 30
0.0
 11
737.1003441813964
 21
1305.826726503654
 31
0.0
  0
ARC
  5
371
330
17
100
AcDbEntity
  8
4
100
AcDbCircle
 10
446.8744527719819
 20
1300.826726503655
 30
0.0
 40
5.0
100
AcDbArc
 50
26.18811069747731
 51
90.0
  0
LINE
  5
372
330
17
100
AcDbEntity
  8
4
100
AcDbLine
 10
451.3612026025849
 20
1303.033324781
 30
0.0
 11
459.711841341345
 21
1286.053692678855
 31
0.0
  0
ARC
  5
373
330
17
100
AcDbEntity
  8
4
100
AcDbCircle
 10
856.9873984766891
 20
1191.826726503654
 30
0.0
 40
3.0
100
AcDbArc
 50
180.0
 51
270.0
  0
LINE
  5
374
330
17
100
AcDbEntity
  8
4
100
AcDbLine
 10
856.9873984766891
 20
1188.826726503654
 30
0.0
 11
858.9873984766891
 21
1188.826726503654
 31
0.0
  0
ARC
  5
375
330
17
100
AcDbEntity
  8
4
100
AcDbCircle
 10
856.9873984766891
 20
1081.826726503654
 30
0.0
 40
3.0
100
AcDbArc
 50
90.0
 51
180.0
  0
LINE
  5
376
330
17
100
AcDbEntity
  8
4
100
AcDbLine
 10
856.9873984766891
 20
1084.826726503654
 30
0.0
 11
858.9873984766891
 21
1084.826726503654
 31
0.0
  0
ARC
  5
377
330
17
100
AcDbEntity
  8
4
100
AcDbCircle
 10
851.9873984766891
 20
1098.826726503654
 30
0.0
 40
2.0
100
AcDbArc
 50
270.0
 51
0.0
  0
ARC
  5
378
330
17
100
AcDbEntity
  8
4
100
AcDbCircle
 10
848.98739847669
 20
1040.826726503654
 30
0.0
 40
5.0
100
AcDbArc
 50
270.0
 51
0.0
  0
LINE
  5
379
330
17
100
AcDbEntity
  8
4
100
AcDbLine
 10
858.9873984766891
 20
1084.826726503654
 30
0.0
 11
858.9873984766891
 21
1188.826726503654
 31
0.0
  0
LINE
  5
37A
330
17
100
AcDbEntity
  8
4
100
AcDbLine
 10
811.9873984766891
 20
1078.826726503654
 30
0.0
 11
811.9873984766891
 21
1077.826726503654
 31
0.0
  0
ARC
  5
37B
330
17
100
AcDbEntity
  8
4
100
AcDbCircle
 10
814.9873984766891
 20
1078.826726503654
 30
0.0
 40
3.0
100
AcDbArc
 50
90.0
 51
180.0
  0
LINE
  5
37C
330
17
100
AcDbEntity
  8
4
100
AcDbLine
 10
841.9873984766891
 20
1094.826726503655
 30
0.0
 11
841.9873984766891
 21
1083.826726503654
 31
0.0
  0
ARC
  5
37D
330
17
100
AcDbEntity
  8
4
100
AcDbCircle
 10
839.9873984766891
 20
1083.826726503654
 30
0.0
 40
2.0
100
AcDbArc
 50
270.0
 51
0.0
  0
ARC
  5
37E
330
17
100
AcDbEntity
  8
4
100
AcDbCircle
 10
843.9873984766891
 20
1094.826726503655
 30
0.0
 40
2.0
100
AcDbArc
 50
90.0
 51
180.0
  0
LINE
  5
37F
330
17
100
AcDbEntity
  8
L-CENTER
100
AcDbLine
 10
791.9873984766891
 20
1035.826726503654
 30
0.0
 11
791.9873984766891
 21
1085.826726503655
 31
0.0
  0
CIRCLE
  5
380
330
17
100
AcDbEntity
  8
4
100
AcDbCircle
 10
791.9873984766891
 20
1060.826726503654
 30
0.0
 40
11.0
  0
ARC
  5
381
330
17
100
AcDbEntity
  8
4
100
AcDbCircle
 10
752.2693984766893
 20
1071.665110954355
 30
0.0
 40
3.0
100
AcDbArc
 50
92.54968465658246
 51
180.0
  0
LINE
  5
382
330
17
100
AcDbEntity
  8
4
100
AcDbLine
 10
749.2693984766893
 20
1066.826726503654
 30
0.0
 11
749.2693984766893
 21
1071.665110954355
 31
0.0
  0
LINE
  5
383
330
17
100
AcDbEntity
  8
4
100
AcDbLine
 10
729.2693984766893
 20
1066.826726503654
 30
0.0
 11
729.2693984766893
 21
1065.826726503654
 31
0.0
  0
ARC
  5
384
330
17
100
AcDbEntity
  8
4
100
AcDbCircle
 10
737.1003441813964
 20
1040.826726503655
 30
0.0
 40
5.0
100
AcDbArc
 50
206.1881106974773
 51
270.0
  0
LINE
  5
385
330
17
100
AcDbEntity
  8
4
100
AcDbLine
 10
719.2333001160337
 20
1065.826726503654
 30
0.0
 11
732.6135943507943
 21
1038.620128226309
 31
0.0
  0
LINE
  5
386
330
17
100
AcDbEntity
  8
L-CENTER
100
AcDbLine
 10
766.9873984766882
 20
1060.826726503654
 30
0.0
 11
816.9873984766891
 21
1060.826726503654
 31
0.0
  0
ARC
  5
387
330
17
100
AcDbEntity
  8
4
100
AcDbCircle
 10
591.9873984766891
 20
4671.098216385819
 30
0.0
 40
3600.0
100
AcDbArc
 50
272.5496846565303
 51
273.5035917935323
  0
LINE
  5
388
330
17
100
AcDbEntity
  8
4
100
AcDbLine
 10
848.98739847669
 20
1035.826726503654
 30
0.0
 11
737.1003441813964
 21
1035.826726503655
 31
0.0
  0
LINE
  5
389
330
17
100
AcDbEntity
  8
4
100
AcDbLine
 10
841.9873984766891
 20
1082.826726503654
 30
0.0
 11
853.9873984766891
 21
1082.826726503654
 31
0.0
  0
ARC
  5
38A
330
17
100
AcDbEntity
  8
4
100
AcDbCircle
 10
626.2693984766893
 20
1068.261314099512
 30
0.0
 40
3.0
100
AcDbArc
 50
0.0
 51
90.54516890145703
  0
LINE
  5
38B
330
17
100
AcDbEntity
  8
4
100
AcDbLine
 10
629.2693984766893
 20
1066.826726503654
 30
0.0
 11
629.2693984766893
 21
1068.261314099512
 31
0.0
  0
LINE
  5
38C
330
17
100
AcDbEntity
  8
4
100
AcDbLine
 10
649.2693984766893
 20
1066.826726503654
 30
0.0
 11
649.2693984766893
 21
1065.826726503654
 31
0.0
  0
ARC
  5
38D
330
17
100
AcDbEntity
  8
4
100
AcDbCircle
 10
605.2693984766893
 20
1069.122704465174
 30
0.0
 40
2.0
100
AcDbArc
 50
90.21127270070608
 51
180.0
  0
LINE
  5
38E
330
17
100
AcDbEntity
  8
4
100
AcDbLine
 10
603.2693984766893
 20
1068.826726503654
 30
0.0
 11
603.2693984766893
 21
1069.122704465174
 31
0.0
  0
ARC
  5
38F
330
17
100
AcDbEntity
  8
4
100
AcDbCircle
 10
591.9873984766891
 20
4671.098216385819
 30
0.0
 40
3600.0
100
AcDbArc
 50
270.2112727007582
 51
270.5451689014571
  0
ARC
  5
390
330
17
100
AcDbEntity
  8
4
100
AcDbCircle
 10
430.2693984766893
 20
1071.729342753111
 30
0.0
 40
3.0
100
AcDbArc
 50
0.0
 51
87.42745689043524
  0
LINE
  5
391
330
17
100
AcDbEntity
  8
4
100
AcDbLine
 10
433.2693984766893
 20
1068.826726503654
 30
0.0
 11
433.2693984766893
 21
1071.729342753111
 31
0.0
  0
ARC
  5
392
330
17
100
AcDbEntity
  8
4
100
AcDbCircle
 10
446.8744527719828
 20
1040.826726503655
 30
0.0
 40
5.0
100
AcDbArc
 50
270.0
 51
333.8118893025227
  0
LINE
  5
393
330
17
100
AcDbEntity
  8
4
100
AcDbLine
 10
459.9673948408094
 20
1056.119385777365
 30
0.0
 11
451.3612026025858
 21
1038.620128226309
 31
0.0
  0
LINE
  5
394
330
17
100
AcDbEntity
  8
4
100
AcDbLine
 10
433.2693984766893
 20
1068.826726503654
 30
0.0
 11
603.2693984766893
 21
1068.826726503654
 31
0.0
  0
LINE
  5
395
330
17
100
AcDbEntity
  8
4
100
AcDbLine
 10
629.2693984766893
 20
1066.826726503654
 30
0.0
 11
749.2693984766893
 21
1066.826726503654
 31
0.0
  0
LINE
  5
396
330
17
100
AcDbEntity
  8
L-CENTER
100
AcDbLine
 10
591.9873984766891
 20
1052.576726503654
 30
0.0
 11
591.9873984766891
 21
1260.701726503654
 31
0.0
  0
LINE
  5
397
330
17
100
AcDbEntity
  8
4
100
AcDbLine
 10
853.98739847669
 20
1040.826726503654
 30
0.0
 11
853.9873984766891
 21
1300.826726503655
 31
0.0
  0
ARC
  5
398
330
17
100
AcDbEntity
  8
4
100
AcDbCircle
 10
334.9873984766891
 20
1300.826726503655
 30
0.0
 40
5.0
100
AcDbArc
 50
90.0
 51
180.0
  0
LINE
  5
399
330
17
100
AcDbEntity
  8
4
100
AcDbLine
 10
331.9873984766891
 20
1244.826726503654
 30
0.0
 11
851.9873984766891
 21
1244.826726503654
 31
0.0
  0
ARC
  5
39A
330
17
100
AcDbEntity
  8
4
100
AcDbCircle
 10
331.9873984766891
 20
1242.826726503654
 30
0.0
 40
2.0
100
AcDbArc
 50
90.0
 51
180.0
  0
LINE
  5
39B
330
17
100
AcDbEntity
  8
4
100
AcDbLine
 10
341.9873984766891
 20
1247.826726503654
 30
0.0
 11
341.9873984766891
 21
1246.826726503654
 31
0.0
  0
ARC
  5
39C
330
17
100
AcDbEntity
  8
4
100
AcDbCircle
 10
339.9873984766891
 20
1246.826726503654
 30
0.0
 40
2.0
100
AcDbArc
 50
270.0
 51
0.0
  0
LINE
  5
39D
330
17
100
AcDbEntity
  8
L-CENTER
100
AcDbLine
 10
391.98739847669
 20
1305.826726503656
 30
0.0
 11
391.9873984766891
 21
1255.826726503653
 31
0.0
  0
LINE
  5
39E
330
17
100
AcDbEntity
  8
4
100
AcDbLine
 10
326.9873984766891
 20
1188.826726503654
 30
0.0
 11
324.9873984766891
 21
1188.826726503654
 31
0.0
  0
ARC
  5
39F
330
17
100
AcDbEntity
  8
4
100
AcDbCircle
 10
326.9873984766891
 20
1191.826726503654
 30
0.0
 40
3.0
100
AcDbArc
 50
270.0
 51
0.0
  0
LINE
  5
3A0
330
17
100
AcDbEntity
  8
4
100
AcDbLine
 10
371.9873984766891
 20
1078.826726503654
 30
0.0
 11
371.9873984766891
 21
1077.826726503654
 31
0.0
  0
ARC
  5
3A1
330
17
100
AcDbEntity
  8
4
100
AcDbCircle
 10
368.9873984766891
 20
1078.826726503654
 30
0.0
 40
3.0
100
AcDbArc
 50
0.0
 51
90.0
  0
LINE
  5
3A2
330
17
100
AcDbEntity
  8
4
100
AcDbLine
 10
342.2553476691346
 20
1082.826726503654
 30
0.0
 11
329.8158256014358
 21
1082.826726503654
 31
0.0
  0
LINE
  5
3A3
330
17
100
AcDbEntity
  8
4
100
AcDbLine
 10
331.9873984766891
 20
1096.826726503654
 30
0.0
 11
851.9873984766891
 21
1096.826726503654
 31
0.0
  0
LINE
  5
3A4
330
17
100
AcDbEntity
  8
4
100
AcDbLine
 10
326.9873984766891
 20
1084.826726503654
 30
0.0
 11
324.9873984766891
 21
1084.826726503654
 31
0.0
  0
ARC
  5
3A5
330
17
100
AcDbEntity
  8
4
100
AcDbCircle
 10
326.9873984766891
 20
1081.826726503654
 30
0.0
 40
3.0
100
AcDbArc
 50
0.0
 51
90.0
  0
ARC
  5
3A6
330
17
100
AcDbEntity
  8
4
100
AcDbCircle
 10
331.9873984766891
 20
1098.826726503654
 30
0.0
 40
2.0
100
AcDbArc
 50
180.0
 51
270.0
  0
LINE
  5
3A7
330
17
100
AcDbEntity
  8
4
100
AcDbLine
 10
341.9873984766891
 20
1094.826726503654
 30
0.0
 11
341.9873984766891
 21
1083.826726503654
 31
0.0
  0
ARC
  5
3A8
330
17
100
AcDbEntity
  8
4
100
AcDbCircle
 10
343.9873984766891
 20
1083.826726503654
 30
0.0
 40
2.0
100
AcDbArc
 50
180.0
 51
270.0
  0
ARC
  5
3A9
330
17
100
AcDbEntity
  8
4
100
AcDbCircle
 10
339.9873984766891
 20
1094.826726503654
 30
0.0
 40
2.0
100
AcDbArc
 50
0.0
 51
90.0
  0
LINE
  5
3AA
330
17
100
AcDbEntity
  8
4
100
AcDbLine
 10
343.9873984766891
 20
1081.826726503654
 30
0.0
 11
839.9873984766891
 21
1081.826726503654
 31
0.0
  0
ARC
  5
3AB
330
17
100
AcDbEntity
  8
4
100
AcDbCircle
 10
334.98739847669
 20
1040.826726503655
 30
0.0
 40
5.0
100
AcDbArc
 50
180.0
 51
270.0
  0
LINE
  5
3AC
330
17
100
AcDbEntity
  8
L-CENTER
100
AcDbLine
 10
391.98739847669
 20
1035.826726503654
 30
0.0
 11
391.98739847669
 21
1085.826726503655
 31
0.0
  0
LINE
  5
3AD
330
17
100
AcDbEntity
  8
4
100
AcDbLine
 10
324.9873984766891
 20
1084.826726503654
 30
0.0
 11
324.9873984766891
 21
1188.826726503654
 31
0.0
  0
LINE
  5
3AE
330
17
100
AcDbEntity
  8
4
100
AcDbLine
 10
329.98739847669
 20
1040.826726503655
 30
0.0
 11
329.9873984766891
 21
1300.826726503655
 31
0.0
  0
LINE
  5
3AF
330
17
100
AcDbEntity
  8
4
100
AcDbLine
 10
341.9873984766891
 20
1247.826726503654
 30
0.0
 11
841.9873984766891
 21
1247.826726503654
 31
0.0
  0
ARC
  5
3B0
330
17
100
AcDbEntity
  8
4
100
AcDbCircle
 10
591.9873984766891
 20
4673.098216385819
 30
0.0
 40
3600.0
100
AcDbArc
 50
266.4964082064677
 51
273.5035917935323
  0
CIRCLE
  5
3B1
330
17
100
AcDbEntity
  8
4
100
AcDbCircle
 10
391.98739847669
 20
1060.826726503654
 30
0.0
 40
11.0
  0
LINE
  5
3B2
330
17
100
AcDbEntity
  8
4
100
AcDbLine
 10
446.8744527719828
 20
1035.826726503655
 30
0.0
 11
334.98739847669
 21
1035.826726503655
 31
0.0
  0
LINE
  5
3B3
330
17
100
AcDbEntity
  8
L-CENTER
100
AcDbLine
 10
416.98739847669
 20
1060.826726503654
 30
0.0
 11
366.98739847669
 21
1060.826726503654
 31
0.0
  0
ARC
  5
3B4
330
17
100
AcDbEntity
  8
4
100
AcDbCircle
 10
591.9873984766891
 20
4671.098216385819
 30
0.0
 40
3600.0
100
AcDbArc
 50
266.4964082064677
 51
267.4274568904875
  0
LINE
  5
3B5
330
17
100
AcDbEntity
  8
L-CENTER
100
AcDbLine
 10
416.9873984766909
 20
1280.826726503654
 30
0.0
 11
366.9873984766873
 21
1280.826726503654
 31
0.0
  0
CIRCLE
  5
3B6
330
17
100
AcDbEntity
  8
4
100
AcDbCircle
 10
391.9873984766891
 20
1280.826726503654
 30
0.0
 40
11.0
  0
LINE
  5
3B7
330
17
100
AcDbEntity
  8
4
100
AcDbLine
 10
446.8744527719819
 20
1305.826726503655
 30
0.0
 11
334.9873984766891
 21
1305.826726503655
 31
0.0
  0
LINE
  5
3BF
330
17
100
AcDbEntity
  8
4
100
AcDbLine
 10
1449.36882541523
 20
609.5185549244006
 30
0.0
 11
1434.36882541523
 21
609.5185549244006
 31
0.0
  0
LINE
  5
3C0
330
17
100
AcDbEntity
  8
4
100
AcDbLine
 10
1437.36882541523
 20
609.5185549244006
 30
0.0
 11
1434.36882541523
 21
609.5185549244006
 31
0.0
  0
LINE
  5
3CC
330
17
100
AcDbEntity
  8
L-CENTER
100
AcDbLine
 10
1327.969830359402
 20
648.5185549244006
 30
0.0
 11
1392.767820471058
 21
648.5185549244006
 31
0.0
  0
LINE
  5
3CD
330
17
100
AcDbEntity
  8
4
100
AcDbLine
 10
1394.36882541523
 20
614.5185549244006
 30
0.0
 11
1394.36882541523
 21
622.5185549244006
 31
0.0
  0
LINE
  5
3CE
330
17
100
AcDbEntity
  8
4
100
AcDbLine
 10
1372.55461741523
 20
631.5185549244006
 30
0.0
 11
1372.86882541523
 21
622.5185549244006
 31
0.0
  0
LINE
  5
3CF
330
17
100
AcDbEntity
  8
4
100
AcDbLine
 10
1348.18303341523
 20
631.5185549244006
 30
0.0
 11
1360.36882541523
 21
633.5185549244006
 31
0.0
  0
LINE
  5
3D0
330
17
100
AcDbEntity
  8
4
100
AcDbLine
 10
1348.18303341523
 20
631.5185549244006
 30
0.0
 11
1347.86882541523
 21
622.5185549244006
 31
0.0
  0
LINE
  5
3D1
330
17
100
AcDbEntity
  8
4
 62
     3
100
AcDbLine
 10
1313.86882541523
 20
615.3854989244005
 30
0.0
 11
1326.36882541523
 21
615.3854989244005
 31
0.0
  0
LINE
  5
3D2
330
17
100
AcDbEntity
  8
4
 62
     3
100
AcDbLine
 10
1313.86882541523
 20
615.3854989244005
 30
0.0
 11
1313.86882541523
 21
614.5185549244006
 31
0.0
  0
LINE
  5
3D3
330
17
100
AcDbEntity
  8
4
100
AcDbLine
 10
1326.36882541523
 20
614.5185549244006
 30
0.0
 11
1326.36882541523
 21
622.5185549244006
 31
0.0
  0
LINE
  5
3D4
330
17
100
AcDbEntity
  8
4
100
AcDbLine
 10
1394.36882541523
 20
622.5185549244006
 30
0.0
 11
1326.36882541523
 21
622.5185549244006
 31
0.0
  0
LINE
  5
3D5
330
17
100
AcDbEntity
  8
4
100
AcDbLine
 10
1372.55461741523
 20
631.5185549244006
 30
0.0
 11
1348.18303341523
 21
631.5185549244006
 31
0.0
  0
LINE
  5
3D6
330
17
100
AcDbEntity
  8
4
100
AcDbLine
 10
1360.36882541523
 20
633.5185549244006
 30
0.0
 11
1372.55461741523
 21
631.5185549244006
 31
0.0
  0
ARC
  5
3D7
330
17
100
AcDbEntity
  8
4
100
AcDbCircle
 10
1360.36882541523
 20
648.5185549244006
 30
0.0
 40
24.999976
100
AcDbArc
 50
299.607257999999
 51
240.3932259999998
  0
CIRCLE
  5
3D8
330
17
100
AcDbEntity
  8
4
100
AcDbCircle
 10
1360.36882541523
 20
648.5185549244006
 30
0.0
 40
15.0
  0
LINE
  5
3D9
330
17
100
AcDbEntity
  8
4
100
AcDbLine
 10
1271.36882541523
 20
609.5185549244006
 30
0.0
 11
1286.36882541523
 21
609.5185549244006
 31
0.0
  0
LINE
  5
3DA
330
17
100
AcDbEntity
  8
4
100
AcDbLine
 10
1271.36882541523
 20
579.5185549244006
 30
0.0
 11
1270.10026941523
 21
579.5185549244006
 31
0.0
  0
LINE
  5
3DB
330
17
100
AcDbEntity
  8
4
100
AcDbLine
 10
1434.36882541523
 20
614.5185549244006
 30
0.0
 11
1286.36882541523
 21
614.5185549244006
 31
0.0
  0
LINE
  5
3DC
330
17
100
AcDbEntity
  8
4
100
AcDbLine
 10
1456.77898141523
 20
424.5185549244006
 30
0.0
 11
1462.36882541523
 21
424.5185549244006
 31
0.0
  0
LINE
  5
3DD
330
17
100
AcDbEntity
  8
4
100
AcDbLine
 10
1456.97575741523
 20
412.5185549244006
 30
0.0
 11
1462.36882541523
 21
412.5185549244006
 31
0.0
  0
LINE
  5
3DE
330
17
100
AcDbEntity
  8
4
100
AcDbLine
 10
1462.36882541523
 20
424.5185549244006
 30
0.0
 11
1473.36882541523
 21
424.5185549244006
 31
0.0
  0
LINE
  5
3E1
330
17
100
AcDbEntity
  8
4
100
AcDbLine
 10
1462.36882541523
 20
392.5185549244006
 30
0.0
 11
1463.36882541523
 21
392.5185549244006
 31
0.0
  0
LINE
  5
3E2
330
17
100
AcDbEntity
  8
4
100
AcDbLine
 10
1462.368825415229
 20
312.5185549244005
 30
0.0
 11
1463.36882541523
 21
312.5185549244006
 31
0.0
  0
LINE
  5
3E4
330
17
100
AcDbEntity
  8
4
100
AcDbLine
 10
1462.36882541523
 20
292.5185549244006
 30
0.0
 11
1456.742361415229
 21
292.5185549244006
 31
0.0
  0
LINE
  5
3E5
330
17
100
AcDbEntity
  8
4
100
AcDbLine
 10
1455.834401415229
 20
254.5185549244006
 30
0.0
 11
1462.36882541523
 21
254.5185549244006
 31
0.0
  0
LINE
  5
3E6
330
17
100
AcDbEntity
  8
4
100
AcDbLine
 10
1473.36882541523
 20
254.5185549244006
 30
0.0
 11
1462.36882541523
 21
254.5185549244006
 31
0.0
  0
LINE
  5
3E7
330
17
100
AcDbEntity
  8
4
100
AcDbLine
 10
1460.339285415229
 20
154.4066207842482
 30
0.0
 11
1449.36882541523
 21
154.4066207842482
 31
0.0
  0
ARC
  5
3E8
330
17
100
AcDbEntity
  8
4
100
AcDbCircle
 10
-2142.636058584771
 20
359.5185549244006
 30
0.0
 40
3599.99998
100
AcDbArc
 50
356.7337733893047
 51
358.3775071640987
  0
ARC
  5
3E9
330
17
100
AcDbEntity
  8
4
100
AcDbCircle
 10
1371.86369741523
 20
250.0134269244006
 30
0.0
 40
2.999996
100
AcDbArc
 50
8.809980999998883
 51
81.19004099999852
  0
LINE
  5
3EF
330
17
100
AcDbEntity
  8
4
100
AcDbLine
 10
1462.36882541523
 20
424.5185549244006
 30
0.0
 11
1462.36882541523
 21
254.5185549244006
 31
0.0
  0
LINE
  5
3F0
330
17
100
AcDbEntity
  8
4
100
AcDbLine
 10
1473.36882541523
 20
424.5185549244006
 30
0.0
 11
1473.36882541523
 21
254.5185549244006
 31
0.0
  0
LINE
  5
3F1
330
17
100
AcDbEntity
  8
4
100
AcDbLine
 10
1462.36882541523
 20
424.5185549244006
 30
0.0
 11
1462.36882541523
 21
254.5185549244006
 31
0.0
  0
LINE
  5
3F4
330
17
100
AcDbEntity
  8
4
100
AcDbLine
 10
1463.36882541523
 20
392.5185549244006
 30
0.0
 11
1463.36882541523
 21
312.5185549244006
 31
0.0
  0
LINE
  5
3F5
330
17
100
AcDbEntity
  8
4
100
AcDbLine
 10
1263.95866941523
 20
424.5185549244006
 30
0.0
 11
1258.36882541523
 21
424.5185549244006
 31
0.0
  0
LINE
  5
3F6
330
17
100
AcDbEntity
  8
4
100
AcDbLine
 10
1263.76188941523
 20
412.5185549244006
 30
0.0
 11
1258.36882541523
 21
412.5185549244006
 31
0.0
  0
LINE
  5
3F7
330
17
100
AcDbEntity
  8
4
100
AcDbLine
 10
1258.36882541523
 20
424.5185549244006
 30
0.0
 11
1247.36882541523
 21
424.5185549244006
 31
0.0
  0
LINE
  5
3F8
330
17
100
AcDbEntity
  8
4
100
AcDbLine
 10
1257.36882541523
 20
392.5185549244006
 30
0.0
 11
1258.368825415229
 21
392.5185549244006
 31
0.0
  0
LINE
  5
3F9
330
17
100
AcDbEntity
  8
4
100
AcDbLine
 10
1257.36882541523
 20
312.5185549244007
 30
0.0
 11
1258.368825415229
 21
312.5185549244006
 31
0.0
  0
LINE
  5
3FA
330
17
100
AcDbEntity
  8
4
100
AcDbLine
 10
1258.36882541523
 20
292.5185549244006
 30
0.0
 11
1263.99528941523
 21
292.5185549244006
 31
0.0
  0
ARC
  5
3FB
330
17
100
AcDbEntity
  8
4
100
AcDbCircle
 10
1326.36882541523
 20
-41.48144507559937
 30
0.0
 40
300.000008
100
AcDbArc
 50
98.15862200000005
 51
99.14894000000005
  0
ARC
  5
3FC
330
17
100
AcDbEntity
  8
4
100
AcDbCircle
 10
1280.87395341523
 20
250.0134269244006
 30
0.0
 40
2.999996
100
AcDbArc
 50
98.80997800000503
 51
171.1900219999996
  0
ARC
  5
3FD
330
17
100
AcDbEntity
  8
4
100
AcDbCircle
 10
1279.146901415229
 20
251.7404789244006
 30
0.0
 40
3.000084
100
AcDbArc
 50
99.14958099999166
 51
170.8504189999994
  0
ARC
  5
3FE
330
17
100
AcDbEntity
  8
4
100
AcDbCircle
 10
1283.36882541523
 20
258.4519029244007
 30
0.0
 40
3.000048
100
AcDbArc
 50
278.1591099999987
 51
0.0
  0
LINE
  5
3FF
330
17
100
AcDbEntity
  8
4
100
AcDbLine
 10
1265.40568941523
 20
238.5185549244006
 30
0.0
 11
1262.13396141523
 21
238.5185549244006
 31
0.0
  0
LINE
  5
400
330
17
100
AcDbEntity
  8
4
100
AcDbLine
 10
1264.903249415229
 20
254.5185549244006
 30
0.0
 11
1258.36882541523
 21
254.5185549244006
 31
0.0
  0
LINE
  5
401
330
17
100
AcDbEntity
  8
4
100
AcDbLine
 10
1260.13396141523
 20
232.5185549244006
 30
0.0
 11
1262.13396141523
 21
232.5185549244006
 31
0.0
  0
LINE
  5
402
330
17
100
AcDbEntity
  8
L-CENTER
100
AcDbLine
 10
1246.69804941523
 20
218.5185549244006
 30
0.0
 11
1282.788723445931
 21
218.5185549244006
 31
0.0
  0
LINE
  5
403
330
17
100
AcDbEntity
  8
4
100
AcDbLine
 10
1258.13396141523
 20
226.0185549244006
 30
0.0
 11
1253.13396141523
 21
226.0185549244006
 31
0.0
  0
LINE
  5
404
330
17
100
AcDbEntity
  8
4
100
AcDbLine
 10
1253.13396141523
 20
233.5185549244006
 30
0.0
 11
1260.13396141523
 21
233.5185549244006
 31
0.0
  0
LINE
  5
405
330
17
100
AcDbEntity
  8
4
100
AcDbLine
 10
1247.36882541523
 20
254.5185549244006
 30
0.0
 11
1258.36882541523
 21
254.5185549244006
 31
0.0
  0
LINE
  5
406
330
17
100
AcDbEntity
  8
4
100
AcDbLine
 10
1266.97380541523
 20
198.5185549244006
 30
0.0
 11
1262.13396141523
 21
198.5185549244006
 31
0.0
  0
LINE
  5
407
330
17
100
AcDbEntity
  8
4
100
AcDbLine
 10
1260.13396141523
 20
204.5185549244006
 30
0.0
 11
1262.13396141523
 21
204.5185549244006
 31
0.0
  0
LINE
  5
408
330
17
100
AcDbEntity
  8
4
100
AcDbLine
 10
1260.13396141523
 20
203.5185549244006
 30
0.0
 11
1253.13396141523
 21
203.5185549244006
 31
0.0
  0
LINE
  5
409
330
17
100
AcDbEntity
  8
4
100
AcDbLine
 10
1258.13396141523
 20
211.0185549244006
 30
0.0
 11
1253.13396141523
 21
211.0185549244006
 31
0.0
  0
LINE
  5
40A
330
17
100
AcDbEntity
  8
4
100
AcDbLine
 10
1253.13396141523
 20
203.5185549244006
 30
0.0
 11
1253.13396141523
 21
233.5185549244006
 31
0.0
  0
LINE
  5
40B
330
17
100
AcDbEntity
  8
4
100
AcDbLine
 10
1258.13396141523
 20
203.5185549244006
 30
0.0
 11
1258.13396141523
 21
233.5185549244006
 31
0.0
  0
LINE
  5
40C
330
17
100
AcDbEntity
  8
4
100
AcDbLine
 10
1260.13396141523
 20
203.5185549244006
 30
0.0
 11
1260.13396141523
 21
233.5185549244006
 31
0.0
  0
LINE
  5
40D
330
17
100
AcDbEntity
  8
4
100
AcDbLine
 10
1262.13396141523
 20
204.5185549244006
 30
0.0
 11
1262.13396141523
 21
232.5185549244006
 31
0.0
  0
LINE
  5
40E
330
17
100
AcDbEntity
  8
4
100
AcDbLine
 10
1262.13396141523
 20
198.5185549244006
 30
0.0
 11
1262.13396141523
 21
238.5185549244006
 31
0.0
  0
LINE
  5
40F
330
17
100
AcDbEntity
  8
4
100
AcDbLine
 10
1247.36882541523
 20
424.5185549244006
 30
0.0
 11
1247.36882541523
 21
254.5185549244006
 31
0.0
  0
LINE
  5
410
330
17
100
AcDbEntity
  8
4
100
AcDbLine
 10
1258.36882541523
 20
424.5185549244006
 30
0.0
 11
1258.36882541523
 21
254.5185549244006
 31
0.0
  0
LINE
  5
411
330
17
100
AcDbEntity
  8
4
100
AcDbLine
 10
1257.36882541523
 20
392.5185549244006
 30
0.0
 11
1257.36882541523
 21
312.5185549244007
 31
0.0
  0
LINE
  5
412
330
17
100
AcDbEntity
  8
L-CENTER
100
AcDbLine
 10
1468.339833415229
 20
359.5185549244006
 30
0.0
 11
1240.32350541523
 21
359.5185549244006
 31
0.0
  0
ARC
  5
413
330
17
100
AcDbEntity
  8
4
100
AcDbCircle
 10
1326.36882541523
 20
-43.48144507559937
 30
0.0
 40
300.000008
100
AcDbArc
 50
81.18867700000007
 51
98.811561
  0
LINE
  5
414
330
17
100
AcDbEntity
  8
L-CENTER
100
AcDbLine
 10
1263.19745741523
 20
204.5185549244006
 30
0.0
 11
1389.54019341523
 21
204.5185549244006
 31
0.0
  0
LINE
  5
415
330
17
100
AcDbEntity
  8
4
100
AcDbLine
 10
1286.36882541523
 20
258.4519029244007
 30
0.0
 11
1286.36882541523
 21
614.5185549244006
 31
0.0
  0
ARC
  5
416
330
17
100
AcDbEntity
  8
4
100
AcDbCircle
 10
-2142.636058584771
 20
359.5185549244006
 30
0.0
 40
3599.999956
100
AcDbArc
 50
1.622492846720801
 51
3.266226632493781
  0
LINE
  5
417
330
17
100
AcDbEntity
  8
L-CENTER
100
AcDbLine
 10
1480.704714781504
 20
339.5185549244006
 30
0.0
 11
1105.09148141523
 21
339.5185549244009
 31
0.0
  0
ARC
  5
41B
330
17
100
AcDbEntity
  8
4
100
AcDbCircle
 10
1492.36882541523
 20
121.5185549244006
 30
0.0
 40
3.0
100
AcDbArc
 50
0.0
 51
90.0
  0
LINE
  5
41C
330
17
100
AcDbEntity
  8
4
100
AcDbLine
 10
1452.36882541523
 20
136.4066207842482
 30
0.0
 11
1460.339285415229
 21
136.4066207842482
 31
0.0
  0
LINE
  5
41D
330
17
100
AcDbEntity
  8
4
100
AcDbLine
 10
1452.36882541523
 20
148.4066207842482
 30
0.0
 11
1460.339285415229
 21
148.4066207842482
 31
0.0
  0
LINE
  5
41E
330
17
100
AcDbEntity
  8
4
100
AcDbLine
 10
1461.36882541523
 20
133.4066207842482
 30
0.0
 11
1461.36882541523
 21
151.4066207842482
 31
0.0
  0
ARC
  5
41F
330
17
100
AcDbEntity
  8
4
100
AcDbCircle
 10
1443.36882541523
 20
142.4066207842482
 30
0.0
 40
18.000092
100
AcDbArc
 50
340.5289279999991
 51
19.47034000000005
  0
LINE
  5
422
330
17
100
AcDbEntity
  8
4
100
AcDbLine
 10
1460.339285415229
 20
130.4066207842482
 30
0.0
 11
1449.36882541523
 21
130.4066207842482
 31
0.0
  0
ARC
  5
423
330
17
100
AcDbEntity
  8
4
100
AcDbCircle
 10
1456.78508541523
 20
133.4066207842482
 30
0.0
 40
4.583692
100
AcDbArc
 50
319.118678999995
 51
40.88132100000501
  0
LWPOLYLINE
  5
425
330
17
100
AcDbEntity
  8
4
 62
     3
100
AcDbPolyline
 90
       38
 70
     0
 43
0.0
 10
1443.89038141523
 20
124.5185549244006
 10
1444.120785415229
 20
123.7278149244007
 10
1444.282717415229
 20
122.9579749244006
 10
1444.35868141523
 20
122.2143789244005
 10
1444.33117341523
 20
121.5023629244006
 10
1444.18270541523
 20
120.8272709244006
 10
1443.89576941523
 20
120.1944429244006
 10
1443.544589415229
 20
119.7013989244006
 10
1443.11251741523
 20
119.2330349244007
 10
1442.626913415229
 20
118.7809789244006
 10
1441.12265741523
 20
117.4389549244006
 10
1440.69665741523
 20
116.9684349244005
 10
1440.35398141523
 20
116.4723709244006
 10
1440.12199741523
 20
115.9423989244005
 10
1440.02077341523
 20
115.3905389244005
 10
1440.02721341523
 20
114.8057909244005
 10
1440.119133415229
 20
114.1950149244005
 10
1440.68588141523
 20
112.2752669244005
 10
1441.22316541523
 20
110.3686669244007
 10
1441.29216941523
 20
109.7681189244006
 10
1441.26914941523
 20
109.1965189244006
 10
1441.13191741523
 20
108.6607349244007
 10
1440.69477741523
 20
107.9327989244007
 10
1440.05227341523
 20
107.2686909244005
 10
1439.30354141523
 20
106.6369469244005
 10
1438.54770941523
 20
106.0061069244007
 10
1437.883909415229
 20
105.3447029244005
 10
1437.41127341523
 20
104.6212749244005
 10
1437.18538941523
 20
103.5473629244007
 10
1437.311689415229
 20
102.3623989244006
 10
1437.64428941523
 20
101.1157349244006
 10
1438.03732141523
 20
99.85672292440063
 10
1438.34490541523
 20
98.63470692440069
 10
1438.42116141523
 20
97.49903892440057
 10
1438.219865415229
 20
96.64106292440056
 10
1437.786645415229
 20
95.86651892440068
 10
1437.15567741523
 20
95.16311892440058
 10
1436.36113341523
 20
94.51855892440062
  0
LINE
  5
426
330
17
100
AcDbEntity
  8
4
100
AcDbLine
 10
1459.36882541523
 20
94.51855492440063
 30
0.0
 11
1459.36882541523
 21
124.5185549244006
 31
0.0
  0
LINE
  5
427
330
17
100
AcDbEntity
  8
L-CENTER
100
AcDbLine
 10
1470.36882541523
 20
81.51855492440063
 30
0.0
 11
1470.36882541523
 21
137.5185549244006
 31
0.0
  0
LINE
  5
428
330
17
100
AcDbEntity
  8
4
100
AcDbLine
 10
1481.36882541523
 20
94.51855492440063
 30
0.0
 11
1481.36882541523
 21
124.5185549244006
 31
0.0
  0
LINE
  5
429
330
17
100
AcDbEntity
  8
4
100
AcDbLine
 10
1495.36882541523
 20
121.5185549244006
 30
0.0
 11
1495.36882541523
 21
94.51855492440063
 31
0.0
  0
ARC
  5
42B
330
17
100
AcDbEntity
  8
4
100
AcDbCircle
 10
1371.86369741523
 20
159.0236789244007
 30
0.0
 40
2.999996
100
AcDbArc
 50
278.8099590000015
 51
351.190018999999
  0
LINE
  5
42C
330
17
100
AcDbEntity
  8
4
100
AcDbLine
 10
1492.36882541523
 20
124.5185549244006
 30
0.0
 11
1360.36882541523
 21
124.5185549244006
 31
0.0
  0
LINE
  5
42D
330
17
100
AcDbEntity
  8
4
100
AcDbLine
 10
1360.36882541523
 20
94.51855492440063
 30
0.0
 11
1495.36882541523
 21
94.51855492440063
 31
0.0
  0
ARC
  5
42E
330
17
100
AcDbEntity
  8
4
100
AcDbCircle
 10
1449.36882541523
 20
139.5185549244006
 30
0.0
 40
15.0
100
AcDbArc
 50
180.0
 51
270.000932
  0
LINE
  5
42F
330
17
100
AcDbEntity
  8
L-CENTER
100
AcDbLine
 10
1416.27112407773
 20
142.4068647842482
 30
0.0
 11
1465.450433621272
 21
142.4068647842482
 31
0.0
  0
ARC
  5
430
330
17
100
AcDbEntity
  8
4
100
AcDbCircle
 10
1326.36882541523
 20
450.5185549244006
 30
0.0
 40
300.000036
100
AcDbArc
 50
260.8519109999999
 51
261.841662
  0
ARC
  5
431
330
17
100
AcDbEntity
  8
4
100
AcDbCircle
 10
1280.87395341523
 20
159.0236789244007
 30
0.0
 40
2.999996
100
AcDbArc
 50
188.8099780000004
 51
261.1900219999949
  0
ARC
  5
432
330
17
100
AcDbEntity
  8
4
100
AcDbCircle
 10
1279.146901415229
 20
157.2966309244007
 30
0.0
 40
3.000084
100
AcDbArc
 50
189.1495810000005
 51
260.8504190000084
  0
ARC
  5
433
330
17
100
AcDbEntity
  8
4
100
AcDbCircle
 10
1283.36882541523
 20
150.5852029244006
 30
0.0
 40
3.000048
100
AcDbArc
 50
0.0
 51
81.84089000000124
  0
LINE
  5
434
330
17
100
AcDbEntity
  8
4
100
AcDbLine
 10
1271.36882541523
 20
139.5185549244006
 30
0.0
 11
1270.10026941523
 21
139.5185549244006
 31
0.0
  0
ARC
  5
435
330
17
100
AcDbEntity
  8
4
100
AcDbCircle
 10
1271.36882541523
 20
139.5185549244006
 30
0.0
 40
15.0
100
AcDbArc
 50
270.000932
 51
0.0
  0
LINE
  5
436
330
17
100
AcDbEntity
  8
4
100
AcDbLine
 10
1286.36882541523
 20
150.5852029244006
 30
0.0
 11
1286.36882541523
 21
139.5185549244006
 31
0.0
  0
ARC
  5
437
330
17
100
AcDbEntity
  8
4
100
AcDbCircle
 10
1228.36882541523
 20
121.5185549244006
 30
0.0
 40
3.0
100
AcDbArc
 50
90.0
 51
180.0
  0
LINE
  5
438
330
17
100
AcDbEntity
  8
4
100
AcDbLine
 10
1225.36882541523
 20
121.5185549244006
 30
0.0
 11
1225.36882541523
 21
94.51855492440063
 31
0.0
  0
LINE
  5
439
330
17
100
AcDbEntity
  8
L-CENTER
100
AcDbLine
 10
1250.36882541523
 20
81.51855492440063
 30
0.0
 11
1250.36882541523
 21
137.5185549244006
 31
0.0
  0
LINE
  5
43A
330
17
100
AcDbEntity
  8
4
100
AcDbLine
 10
1360.36882541523
 20
94.51855492440063
 30
0.0
 11
1225.36882541523
 21
94.51855492440063
 31
0.0
  0
LINE
  5
43B
330
17
100
AcDbEntity
  8
4
100
AcDbLine
 10
1228.36882541523
 20
124.5185549244006
 30
0.0
 11
1360.36882541523
 21
124.5185549244006
 31
0.0
  0
ARC
  5
43C
330
17
100
AcDbEntity
  8
4
100
AcDbCircle
 10
1326.36882541523
 20
452.5185549244006
 30
0.0
 40
300.000028
100
AcDbArc
 50
261.1889599999998
 51
278.8118899999998
  0
TEXT
  5
43E
330
17
100
AcDbEntity
  8
3
100
AcDbText
 10
920.7850892490346
 20
24.43305239161441
 30
0.0
 40
15.0
  1
LD6-03
  7
KANJI
100
AcDbText
  0
LINE
  5
43F
330
17
100
AcDbEntity
  8
4
100
AcDbLine
 10
1269.36882541523
 20
124.5185549244006
 30
0.0
 11
1269.36882541523
 21
134.7685549244006
 31
0.0
  0
LINE
  5
440
330
17
100
AcDbEntity
  8
4
100
AcDbLine
 10
1271.36882541523
 20
124.5185549244006
 30
0.0
 11
1271.36882541523
 21
609.5185549244006
 31
0.0
  0
LINE
  5
441
330
17
100
AcDbEntity
  8
4
100
AcDbLine
 10
1449.36882541523
 20
124.5185549244006
 30
0.0
 11
1449.36882541523
 21
609.5185549244006
 31
0.0
  0
LINE
  5
442
330
17
100
AcDbEntity
  8
4
100
AcDbLine
 10
1437.36882541523
 20
130.5185549244006
 30
0.0
 11
1437.36882541523
 21
609.5185549244006
 31
0.0
  0
LINE
  5
443
330
17
100
AcDbEntity
  8
4
100
AcDbLine
 10
1434.36882541523
 20
139.5185549244006
 30
0.0
 11
1434.36882541523
 21
614.5185549244006
 31
0.0
  0
LINE
  5
444
330
17
100
AcDbEntity
  8
4
100
AcDbLine
 10
1270.10026941523
 20
579.5185549244006
 30
0.0
 11
1270.10026941523
 21
139.5185549244006
 31
0.0
  0
ARC
  5
445
330
17
100
AcDbEntity
  8
4
100
AcDbCircle
 10
4863.37028941523
 20
359.5185549244006
 30
0.0
 40
3599.999972
100
AcDbArc
 50
176.497062
 51
183.503853
  0
LINE
  5
446
330
17
100
AcDbEntity
  8
L-CENTER
100
AcDbLine
 10
1360.36882541523
 20
82.85627492440062
 30
0.0
 11
1360.36882541523
 21
680.9175499802286
 31
0.0
  0
ARC
  5
447
330
17
100
AcDbEntity
  8
4
100
AcDbCircle
 10
1572.36882541523
 20
204.5185549244006
 30
0.0
 40
300.00008
100
AcDbArc
 50
170.8519570000001
 51
189.1489400000001
  0
ARC
  5
448
330
17
100
AcDbEntity
  8
4
100
AcDbCircle
 10
1574.36882541523
 20
204.5185549244006
 30
0.0
 40
300.00008
100
AcDbArc
 50
171.1889600000001
 51
188.811415
  0
LINE
  5
449
330
17
100
AcDbEntity
  8
L-CENTER
100
AcDbLine
 10
1326.36882541523
 20
267.6899229244007
 30
0.0
 11
1326.36882541523
 21
141.3471869244006
 31
0.0
  0
ARC
  5
44A
330
17
100
AcDbEntity
  8
4
100
AcDbCircle
 10
1078.36882541523
 20
204.5185549244006
 30
0.0
 40
300.000068
100
AcDbArc
 50
351.1891979999999
 51
8.811323000000048
  0
LINE
  5
44B
330
17
100
AcDbEntity
  8
4
100
AcDbLine
 10
1452.36882541523
 20
130.4066207842482
 30
0.0
 11
1452.36882541523
 21
154.4066207842482
 31
0.0
  0
ARC
  5
44C
330
17
100
AcDbEntity
  8
4
100
AcDbCircle
 10
1456.78508541523
 20
151.4066207842482
 30
0.0
 40
4.583692
100
AcDbArc
 50
319.118678999995
 51
40.88132100000501
  0
CIRCLE
  5
44D
330
17
100
AcDbEntity
  8
4
100
AcDbCircle
 10
1326.36882541523
 20
204.5185549244006
 30
0.0
 40
40.0
  0
ARC
  5
44E
330
17
100
AcDbEntity
  8
4
100
AcDbCircle
 10
813.7674264766893
 20
577.9572749244007
 30
0.0
 40
4.999984
100
AcDbArc
 50
18.31905100000195
 51
73.80211800000554
  0
ARC
  5
44F
330
17
100
AcDbEntity
  8
4
100
AcDbCircle
 10
591.9873984766891
 20
668.5185549244006
 30
0.0
 40
5.0
100
AcDbArc
 50
0.0
 51
180.0
  0
LINE
  5
450
330
17
100
AcDbEntity
  8
4
100
AcDbLine
 10
604.1731904766893
 20
631.5185549244006
 30
0.0
 11
604.4873984766891
 21
622.5185549244006
 31
0.0
  0
LINE
  5
451
330
17
100
AcDbEntity
  8
4
100
AcDbLine
 10
610.9873984766891
 20
614.2929669244008
 30
0.0
 11
610.9873984766891
 21
622.5185549244006
 31
0.0
  0
ARC
  5
452
330
17
100
AcDbEntity
  8
4
100
AcDbCircle
 10
585.9873984766891
 20
625.5185549244006
 30
0.0
 40
1.0
100
AcDbArc
 50
270.0
 51
0.0
  0
ARC
  5
453
330
17
100
AcDbEntity
  8
4
100
AcDbCircle
 10
597.9873984766891
 20
625.5185549244006
 30
0.0
 40
1.0
100
AcDbArc
 50
180.0
 51
270.0
  0
LINE
  5
454
330
17
100
AcDbEntity
  8
4
100
AcDbLine
 10
596.9873984766891
 20
631.5185549244006
 30
0.0
 11
604.1731904766893
 21
631.5185549244006
 31
0.0
  0
LINE
  5
455
330
17
100
AcDbEntity
  8
4
100
AcDbLine
 10
596.9873984766891
 20
632.6979989244005
 30
0.0
 11
604.1731904766893
 21
631.5185549244006
 31
0.0
  0
LINE
  5
456
330
17
100
AcDbEntity
  8
4
100
AcDbLine
 10
579.8016064766889
 20
631.5185549244006
 30
0.0
 11
579.4873984766891
 21
622.5185549244006
 31
0.0
  0
LINE
  5
457
330
17
100
AcDbEntity
  8
4
100
AcDbLine
 10
572.9873984766891
 20
614.2929669244008
 30
0.0
 11
572.9873984766891
 21
622.5185549244006
 31
0.0
  0
LINE
  5
458
330
17
100
AcDbEntity
  8
4
100
AcDbLine
 10
572.9873984766891
 20
622.5185549244006
 30
0.0
 11
610.9873984766891
 21
622.5185549244006
 31
0.0
  0
LINE
  5
459
330
17
100
AcDbEntity
  8
4
100
AcDbLine
 10
579.8016064766889
 20
631.5185549244006
 30
0.0
 11
586.9873984766891
 21
631.5185549244006
 31
0.0
  0
LINE
  5
45A
330
17
100
AcDbEntity
  8
4
100
AcDbLine
 10
586.9873984766891
 20
632.6979989244005
 30
0.0
 11
579.8016064766889
 21
631.5185549244006
 31
0.0
  0
LINE
  5
45B
330
17
100
AcDbEntity
  8
4
100
AcDbLine
 10
586.9873984766891
 20
625.5185549244006
 30
0.0
 11
586.9873984766891
 21
668.5185549244006
 31
0.0
  0
LINE
  5
45C
330
17
100
AcDbEntity
  8
4
100
AcDbLine
 10
596.9873984766891
 20
625.5185549244006
 30
0.0
 11
596.9873984766891
 21
668.5185549244006
 31
0.0
  0
ARC
  5
45D
330
17
100
AcDbEntity
  8
4
100
AcDbCircle
 10
591.9873984766891
 20
-185.4814450755994
 30
0.0
 40
800.000016
100
AcDbArc
 50
73.80134900000003
 51
89.99998299999999
  0
LINE
  5
467
330
17
100
AcDbEntity
  8
4
100
AcDbLine
 10
859.9873984766891
 20
244.5185549244005
 30
0.0
 11
858.9873984766891
 21
244.5185549244005
 31
0.0
  0
LINE
  5
468
330
17
100
AcDbEntity
  8
4
100
AcDbLine
 10
828.898814476689
 20
256.5185549244006
 30
0.0
 11
858.9873984766891
 21
256.5185549244006
 31
0.0
  0
LINE
  5
469
330
17
100
AcDbEntity
  8
4
100
AcDbLine
 10
829.7078624766891
 20
258.5185549244006
 30
0.0
 11
858.9873984766891
 21
258.5185549244006
 31
0.0
  0
ARC
  5
46C
330
17
100
AcDbEntity
  8
4
100
AcDbCircle
 10
829.7078624766891
 20
264.5185549244006
 30
0.0
 40
6.0
100
AcDbArc
 50
158.2169160000003
 51
270.0
  0
ARC
  5
46D
330
17
100
AcDbEntity
  8
4
100
AcDbCircle
 10
828.898814476689
 20
262.5185549244006
 30
0.0
 40
6.0
100
AcDbArc
 50
157.7340540000004
 51
270.0
  0
LINE
  5
471
330
17
100
AcDbEntity
  8
4
100
AcDbLine
 10
853.9873984766891
 20
258.5185549244006
 30
0.0
 11
853.9873984766891
 21
359.5185549244006
 31
0.0
  0
LINE
  5
472
330
17
100
AcDbEntity
  8
4
100
AcDbLine
 10
604.9776304766892
 20
226.0185549244006
 30
0.0
 11
591.9873984766891
 21
233.5185549244006
 31
0.0
  0
LINE
  5
473
330
17
100
AcDbEntity
  8
4
100
AcDbLine
 10
591.9873984766891
 20
203.5185549244006
 30
0.0
 11
604.9776304766892
 21
211.0185549244006
 31
0.0
  0
LINE
  5
474
330
17
100
AcDbEntity
  8
4
100
AcDbLine
 10
604.9776304766892
 20
211.0185549244006
 30
0.0
 11
604.9776304766892
 21
226.0185549244006
 31
0.0
  0
LINE
  5
475
330
17
100
AcDbEntity
  8
4
100
AcDbLine
 10
578.9969184766887
 20
211.0185549244006
 30
0.0
 11
578.9969184766887
 21
226.0185549244006
 31
0.0
  0
CIRCLE
  5
476
330
17
100
AcDbEntity
  8
4
100
AcDbCircle
 10
591.9873984766891
 20
218.5185549244006
 30
0.0
 40
15.0
  0
CIRCLE
  5
477
330
17
100
AcDbEntity
  8
4
100
AcDbCircle
 10
591.9873984766891
 20
218.5185549244006
 30
0.0
 40
20.0
  0
LINE
  5
478
330
17
100
AcDbEntity
  8
4
100
AcDbLine
 10
578.9969184766887
 20
211.0185549244006
 30
0.0
 11
591.9873984766891
 21
203.5185549244006
 31
0.0
  0
LINE
  5
479
330
17
100
AcDbEntity
  8
4
100
AcDbLine
 10
591.9873984766891
 20
233.5185549244006
 30
0.0
 11
578.9969184766887
 21
226.0185549244006
 31
0.0
  0
LINE
  5
47A
330
17
100
AcDbEntity
  8
L-CENTER
100
AcDbLine
 10
618.714938476689
 20
218.5185549244006
 30
0.0
 11
565.2603464766889
 21
218.5185549244006
 31
0.0
  0
ARC
  5
47B
330
17
100
AcDbEntity
  8
4
100
AcDbCircle
 10
591.9873984766891
 20
724.5185549244006
 30
0.0
 40
499.999936
100
AcDbArc
 50
272.173761
 51
293.462208
  0
LINE
  5
47C
330
17
100
AcDbEntity
  8
L-CENTER
100
AcDbLine
 10
761.4458944766891
 20
352.5185549244006
 30
0.0
 11
616.5289024766892
 21
352.5185549244006
 31
0.0
  0
LINE
  5
47D
330
17
100
AcDbEntity
  8
L-CENTER
100
AcDbLine
 10
688.9873984766891
 20
424.9770509244006
 30
0.0
 11
688.9873984766891
 21
280.0600589244007
 31
0.0
  0
LINE
  5
47E
330
17
100
AcDbEntity
  8
L-CENTER
100
AcDbLine
 10
518.4825144766892
 20
436.1628429244006
 30
0.0
 11
518.4825144766892
 21
242.8742669244007
 31
0.0
  0
CIRCLE
  5
47F
330
17
100
AcDbEntity
  8
4
100
AcDbCircle
 10
688.9873984766891
 20
352.5185549244006
 30
0.0
 40
40.0
  0
CIRCLE
  5
480
330
17
100
AcDbEntity
  8
4
100
AcDbCircle
 10
688.9873984766891
 20
352.5185549244006
 30
0.0
 40
60.0
  0
ARC
  5
481
330
17
100
AcDbEntity
  8
4
100
AcDbCircle
 10
153.9873984766891
 20
359.5185549244006
 30
0.0
 40
700.000008
100
AcDbArc
 50
0.0
 51
18.31843500000001
  0
LINE
  5
482
330
17
100
AcDbEntity
  8
4
100
AcDbLine
 10
480.9873984766891
 20
606.7805189244004
 30
0.0
 11
480.9873984766891
 21
607.8854989244005
 31
0.0
  0
LINE
  5
483
330
17
100
AcDbEntity
  8
4
100
AcDbLine
 10
468.2373984766891
 20
611.3854989244005
 30
0.0
 11
468.2373984766891
 21
615.3854989244005
 31
0.0
  0
LINE
  5
484
330
17
100
AcDbEntity
  8
4
100
AcDbLine
 10
455.7373984766891
 20
611.3854989244005
 30
0.0
 11
455.7373984766891
 21
615.3854989244005
 31
0.0
  0
LINE
  5
485
330
17
100
AcDbEntity
  8
4
100
AcDbLine
 10
449.4873984766891
 20
615.3854989244005
 30
0.0
 11
474.4873984766891
 21
615.3854989244005
 31
0.0
  0
LINE
  5
486
330
17
100
AcDbEntity
  8
4
100
AcDbLine
 10
449.4873984766891
 20
611.3854989244005
 30
0.0
 11
474.4873984766891
 21
611.3854989244005
 31
0.0
  0
LINE
  5
487
330
17
100
AcDbEntity
  8
4
100
AcDbLine
 10
473.4873984766891
 20
607.8854989244005
 30
0.0
 11
473.4873984766891
 21
609.3854989244005
 31
0.0
  0
LINE
  5
488
330
17
100
AcDbEntity
  8
4
100
AcDbLine
 10
450.4873984766891
 20
607.8854989244005
 30
0.0
 11
450.4873984766891
 21
609.3854989244005
 31
0.0
  0
LINE
  5
489
330
17
100
AcDbEntity
  8
4
100
AcDbLine
 10
449.4873984766891
 20
609.3854989244005
 30
0.0
 11
474.4873984766891
 21
609.3854989244005
 31
0.0
  0
LINE
  5
48A
330
17
100
AcDbEntity
  8
4
100
AcDbLine
 10
474.4873984766891
 20
615.3854989244005
 30
0.0
 11
474.4873984766891
 21
609.3854989244005
 31
0.0
  0
LINE
  5
48B
330
17
100
AcDbEntity
  8
L-CENTER
100
AcDbLine
 10
461.9873984766891
 20
617.6538069244007
 30
0.0
 11
461.9873984766891
 21
586.3052214409843
 31
0.0
  0
LINE
  5
48C
330
17
100
AcDbEntity
  8
4
100
AcDbLine
 10
449.4873984766891
 20
609.3854989244005
 30
0.0
 11
449.4873984766891
 21
615.3854989244005
 31
0.0
  0
LINE
  5
48D
330
17
100
AcDbEntity
  8
4
100
AcDbLine
 10
442.9873984766891
 20
607.8854989244005
 30
0.0
 11
442.9873984766891
 21
600.5205069244007
 31
0.0
  0
LINE
  5
48E
330
17
100
AcDbEntity
  8
4
100
AcDbLine
 10
480.9873984766891
 20
607.8854989244005
 30
0.0
 11
442.9873984766891
 21
607.8854989244005
 31
0.0
  0
ARC
  5
48F
330
17
100
AcDbEntity
  8
4
100
AcDbCircle
 10
370.207370476689
 20
577.9572749244007
 30
0.0
 40
5.000012
100
AcDbArc
 50
106.1982119999972
 51
161.6811139999996
  0
LINE
  5
490
330
17
100
AcDbEntity
  8
4
100
AcDbLine
 10
324.9873984766891
 20
244.5185549244006
 30
0.0
 11
323.9873984766891
 21
244.5185549244006
 31
0.0
  0
LINE
  5
491
330
17
100
AcDbEntity
  8
4
100
AcDbLine
 10
354.2669384766891
 20
258.5185549244006
 30
0.0
 11
324.9873984766891
 21
258.5185549244005
 31
0.0
  0
LINE
  5
492
330
17
100
AcDbEntity
  8
4
100
AcDbLine
 10
355.0760224766891
 20
256.5185549244006
 30
0.0
 11
324.9873984766891
 21
256.5185549244006
 31
0.0
  0
ARC
  5
493
330
17
100
AcDbEntity
  8
4
100
AcDbCircle
 10
354.2669384766891
 20
264.5185549244006
 30
0.0
 40
6.000004
100
AcDbArc
 50
270.0007260000008
 51
21.7830600000003
  0
ARC
  5
494
330
17
100
AcDbEntity
  8
4
100
AcDbCircle
 10
355.0760224766891
 20
262.5185549244006
 30
0.0
 40
5.999992
100
AcDbArc
 50
270.0007259999981
 51
22.26599399999879
  0
LINE
  5
495
330
17
100
AcDbEntity
  8
4
100
AcDbLine
 10
329.9873984766891
 20
258.5185549244006
 30
0.0
 11
329.9873984766891
 21
359.5185549244006
 31
0.0
  0
ARC
  5
496
330
17
100
AcDbEntity
  8
4
100
AcDbCircle
 10
1029.987398476689
 20
359.5185549244006
 30
0.0
 40
699.999984
100
AcDbArc
 50
161.682006
 51
180.0003399992087
  0
CIRCLE
  5
497
330
17
100
AcDbEntity
  8
L-CENTER
100
AcDbCircle
 10
518.4825144766892
 20
339.5185549244006
 30
0.0
 40
72.5
  0
LINE
  5
498
330
17
100
AcDbEntity
  8
L-CENTER
100
AcDbLine
 10
421.8382264766892
 20
339.5185549244006
 30
0.0
 11
615.1268024766891
 21
339.5185549244006
 31
0.0
  0
LINE
  5
499
330
17
100
AcDbEntity
  8
L-CENTER
100
AcDbLine
 10
865.8064304766895
 20
359.5185549244006
 30
0.0
 11
318.1683664766888
 21
359.5185549244006
 31
0.0
  0
ARC
  5
49A
330
17
100
AcDbEntity
  8
4
100
AcDbCircle
 10
591.9873984766891
 20
-185.4814450755994
 30
0.0
 40
799.999988
100
AcDbArc
 50
89.99998299999999
 51
106.198951
  0
ARC
  5
49B
330
17
100
AcDbEntity
  8
4
100
AcDbCircle
 10
591.9873984766891
 20
-45.48144507559937
 30
0.0
 40
500.00008
100
AcDbArc
 50
64.52562500000003
 51
115.474778
  0
ARC
  5
49C
330
17
100
AcDbEntity
  8
4
100
AcDbCircle
 10
591.9873984766891
 20
724.5185549244006
 30
0.0
 40
499.999916
100
AcDbArc
 50
246.5390619999999
 51
267.827023
  0
CIRCLE
  5
49D
330
17
100
AcDbEntity
  8
4
100
AcDbCircle
 10
518.4825144766892
 20
339.5185549244006
 30
0.0
 40
85.0
  0
LINE
  5
49E
330
17
100
AcDbEntity
  8
L-CENTER
100
AcDbLine
 10
867.752921456549
 20
204.5185549244006
 30
0.0
 11
219.2168524007556
 21
204.5185549244007
 31
0.0
  0
LINE
  5
49F
330
17
100
AcDbEntity
  8
4
100
AcDbLine
 10
859.9873984766891
 20
164.5185549244006
 30
0.0
 11
858.9873984766891
 21
164.5185549244006
 31
0.0
  0
ARC
  5
4A0
330
17
100
AcDbEntity
  8
4
100
AcDbCircle
 10
850.9873984766891
 20
121.5185549244006
 30
0.0
 40
3.0
100
AcDbArc
 50
0.0
 51
90.0
  0
LINE
  5
4A1
330
17
100
AcDbEntity
  8
4
100
AcDbLine
 10
853.9873984766891
 20
94.51855492440063
 30
0.0
 11
853.9873984766891
 21
150.5185549244006
 31
0.0
  0
ARC
  5
4A2
330
17
100
AcDbEntity
  8
4
100
AcDbCircle
 10
736.9873984766891
 20
121.5185549244006
 30
0.0
 40
3.0
100
AcDbArc
 50
90.0
 51
180.0
  0
LINE
  5
4A3
330
17
100
AcDbEntity
  8
4
100
AcDbLine
 10
733.9873984766891
 20
121.5185549244006
 30
0.0
 11
733.9873984766891
 21
94.51855492440063
 31
0.0
  0
LINE
  5
4A4
330
17
100
AcDbEntity
  8
L-CENTER
100
AcDbLine
 10
791.9873984766891
 20
81.51855492440063
 30
0.0
 11
791.9873984766891
 21
137.5185549244006
 31
0.0
  0
ARC
  5
4A5
330
17
100
AcDbEntity
  8
4
100
AcDbCircle
 10
706.9873984766891
 20
121.5185549244006
 30
0.0
 40
3.0
100
AcDbArc
 50
90.0
 51
180.0
  0
ARC
  5
4A6
330
17
100
AcDbEntity
  8
4
100
AcDbCircle
 10
695.9873984766891
 20
96.51855492440063
 30
0.0
 40
8.0
100
AcDbArc
 50
0.0
 51
90.0
  0
LINE
  5
4A7
330
17
100
AcDbEntity
  8
4
100
AcDbLine
 10
703.9873984766891
 20
121.5185549244006
 30
0.0
 11
703.9873984766891
 21
94.51855492440063
 31
0.0
  0
ARC
  5
4A8
330
17
100
AcDbEntity
  8
4
100
AcDbCircle
 10
591.9873984766891
 20
126.5185549244006
 30
0.0
 40
19.999972
100
AcDbArc
 50
236.9398050000003
 51
303.061165
  0
ARC
  5
4A9
330
17
100
AcDbEntity
  8
4
100
AcDbCircle
 10
591.9873984766891
 20
126.5185549244006
 30
0.0
 40
20.0
100
AcDbArc
 50
42.43731999999967
 51
137.5631520000001
  0
LINE
  5
4AA
330
17
100
AcDbEntity
  8
L-CENTER
100
AcDbLine
 10
616.7779264766891
 20
126.5185549244006
 30
0.0
 11
567.1968704766891
 21
126.5185549244006
 31
0.0
  0
LINE
  5
4AB
330
17
100
AcDbEntity
  8
4
100
AcDbLine
 10
695.9873984766891
 20
104.5185549244006
 30
0.0
 11
591.9873984766891
 21
104.5185549244006
 31
0.0
  0
LINE
  5
4B6
330
17
100
AcDbEntity
  8
4
100
AcDbLine
 10
732.169526476689
 20
152.5185549244006
 30
0.0
 11
858.9873984766891
 21
152.5185549244006
 31
0.0
  0
LINE
  5
4B7
330
17
100
AcDbEntity
  8
4
100
AcDbLine
 10
729.1697704766889
 20
150.5185549244006
 30
0.0
 11
858.9873984766891
 21
150.5185549244006
 31
0.0
  0
LINE
  5
4B8
330
17
100
AcDbEntity
  8
4
100
AcDbLine
 10
850.9873984766891
 20
124.5185549244006
 30
0.0
 11
706.9873984766891
 21
124.5185549244006
 31
0.0
  0
LINE
  5
4B9
330
17
100
AcDbEntity
  8
4
100
AcDbLine
 10
703.9873984766891
 20
94.51855492440063
 30
0.0
 11
853.9873984766891
 21
94.51855492440063
 31
0.0
  0
ARC
  5
4BF
330
17
100
AcDbEntity
  8
4
100
AcDbCircle
 10
446.9873984766891
 20
121.5185549244006
 30
0.0
 40
3.0
100
AcDbArc
 50
0.0
 51
90.0
  0
ARC
  5
4C0
330
17
100
AcDbEntity
  8
4
100
AcDbCircle
 10
476.9873984766891
 20
121.5185549244006
 30
0.0
 40
3.0
100
AcDbArc
 50
0.0
 51
90.0
  0
ARC
  5
4C1
330
17
100
AcDbEntity
  8
4
100
AcDbCircle
 10
487.9873984766891
 20
96.51855492440063
 30
0.0
 40
8.0
100
AcDbArc
 50
90.0
 51
180.0
  0
LINE
  5
4C2
330
17
100
AcDbEntity
  8
4
100
AcDbLine
 10
479.9873984766891
 20
121.5185549244006
 30
0.0
 11
479.9873984766891
 21
94.51855492440063
 31
0.0
  0
LINE
  5
4C3
330
17
100
AcDbEntity
  8
4
100
AcDbLine
 10
449.9873984766891
 20
121.5185549244006
 30
0.0
 11
449.9873984766891
 21
94.51855492440063
 31
0.0
  0
LINE
  5
4C4
330
17
100
AcDbEntity
  8
L-CENTER
100
AcDbLine
 10
391.9873984766891
 20
81.51855492440063
 30
0.0
 11
391.9873984766891
 21
137.5185549244006
 31
0.0
  0
LINE
  5
4C5
330
17
100
AcDbEntity
  8
4
100
AcDbLine
 10
324.9873984766891
 20
164.5185549244006
 30
0.0
 11
323.9873984766891
 21
164.5185549244006
 31
0.0
  0
ARC
  5
4C6
330
17
100
AcDbEntity
  8
4
100
AcDbCircle
 10
332.9873984766891
 20
121.5185549244006
 30
0.0
 40
3.0
100
AcDbArc
 50
90.0
 51
180.0
  0
LINE
  5
4C7
330
17
100
AcDbEntity
  8
4
100
AcDbLine
 10
329.9873984766891
 20
94.51855492440063
 30
0.0
 11
329.9873984766891
 21
150.5185549244006
 31
0.0
  0
LINE
  5
4C8
330
17
100
AcDbEntity
  8
4
100
AcDbLine
 10
476.9873984766891
 20
124.5185549244006
 30
0.0
 11
332.9873984766891
 21
124.5185549244006
 31
0.0
  0
LINE
  5
4C9
330
17
100
AcDbEntity
  8
4
100
AcDbLine
 10
479.9873984766891
 20
94.51855492440063
 30
0.0
 11
329.9873984766891
 21
94.51855492440063
 31
0.0
  0
LINE
  5
4CA
330
17
100
AcDbEntity
  8
4
100
AcDbLine
 10
454.8050264766889
 20
150.5185549244006
 30
0.0
 11
324.9873984766891
 21
150.5185549244006
 31
0.0
  0
LINE
  5
4CB
330
17
100
AcDbEntity
  8
4
100
AcDbLine
 10
451.8052704766887
 20
152.5185549244006
 30
0.0
 11
324.9873984766891
 21
152.5185549244006
 31
0.0
  0
LINE
  5
4DC
330
17
100
AcDbEntity
  8
4
100
AcDbLine
 10
487.9873984766891
 20
104.5185549244006
 30
0.0
 11
591.9873984766891
 21
104.5185549244006
 31
0.0
  0
LINE
  5
4DD
330
17
100
AcDbEntity
  8
4
100
AcDbLine
 10
323.9873984766891
 20
164.5185549244006
 30
0.0
 11
323.9873984766891
 21
244.5185549244006
 31
0.0
  0
LINE
  5
4DE
330
17
100
AcDbEntity
  8
4
100
AcDbLine
 10
859.9873984766891
 20
164.5185549244006
 30
0.0
 11
859.9873984766891
 21
244.5185549244005
 31
0.0
  0
LINE
  5
4DF
330
17
100
AcDbEntity
  8
4
100
AcDbLine
 10
858.9873984766891
 20
150.5185549244006
 30
0.0
 11
858.9873984766891
 21
258.5185549244006
 31
0.0
  0
LINE
  5
4E0
330
17
100
AcDbEntity
  8
4
100
AcDbLine
 10
324.9873984766891
 20
150.5185549244006
 30
0.0
 11
324.9873984766891
 21
258.5185549244005
 31
0.0
  0
ARC
  5
4E1
330
17
100
AcDbEntity
  8
4
100
AcDbCircle
 10
591.9873984766891
 20
359.5185549244006
 30
0.0
 40
250.00004
100
AcDbArc
 50
272.501722
 51
267.4990629999999
  0
ARC
  5
4E2
330
17
100
AcDbEntity
  8
4
100
AcDbCircle
 10
591.9873984766891
 20
359.5185549244006
 30
0.0
 40
220.00002
100
AcDbArc
 50
273.8476190000001
 51
266.153337
  0
LINE
  5
4E3
330
17
100
AcDbEntity
  8
2
100
AcDbLine
 10
595.9873984766891
 20
128.8279560011592
 30
0.0
 11
591.9873984766891
 21
131.1373570779176
 31
0.0
  0
LINE
  5
4E4
330
17
100
AcDbEntity
  8
2
100
AcDbLine
 10
591.9873984766891
 20
121.8997527708837
 30
0.0
 11
587.9873984766891
 21
124.2091538476421
 31
0.0
  0
LINE
  5
4E5
330
17
100
AcDbEntity
  8
2
100
AcDbLine
 10
595.9873984766891
 20
124.2091538476421
 30
0.0
 11
595.9873984766891
 21
128.8279560011592
 31
0.0
  0
LINE
  5
4E6
330
17
100
AcDbEntity
  8
2
100
AcDbLine
 10
587.9873984766891
 20
124.2091538476421
 30
0.0
 11
587.9873984766891
 21
128.8279560011592
 31
0.0
  0
LINE
  5
4E7
330
17
100
AcDbEntity
  8
L-CENTER
100
AcDbLine
 10
591.9873984766891
 20
92.61258953710717
 30
0.0
 11
591.9873984766891
 21
679.9229245996794
 31
0.0
  0
ARC
  5
50E
330
17
100
AcDbEntity
  8
4
100
AcDbCircle
 10
1456.78508541523
 20
567.6304890645531
 30
0.0
 40
4.583692
100
AcDbArc
 50
319.118678999995
 51
40.88132100000501
  0
LINE
  5
50F
330
17
100
AcDbEntity
  8
4
100
AcDbLine
 10
1452.36882541523
 20
588.6304890645531
 30
0.0
 11
1452.36882541523
 21
564.6304890645531
 31
0.0
  0
LINE
  5
510
330
17
100
AcDbEntity
  8
L-CENTER
100
AcDbLine
 10
1416.27112407773
 20
576.630245064553
 30
0.0
 11
1465.450433621272
 21
576.630245064553
 31
0.0
  0
ARC
  5
511
330
17
100
AcDbEntity
  8
4
100
AcDbCircle
 10
1456.78508541523
 20
585.6304890645531
 30
0.0
 40
4.583692
100
AcDbArc
 50
319.118678999995
 51
40.88132100000501
  0
LINE
  5
512
330
17
100
AcDbEntity
  8
4
100
AcDbLine
 10
1460.339285415229
 20
588.6304890645531
 30
0.0
 11
1449.36882541523
 21
588.6304890645531
 31
0.0
  0
ARC
  5
513
330
17
100
AcDbEntity
  8
4
100
AcDbCircle
 10
1443.36882541523
 20
576.6304890645531
 30
0.0
 40
18.000092
100
AcDbArc
 50
340.52966
 51
19.47107200000088
  0
LINE
  5
514
330
17
100
AcDbEntity
  8
4
100
AcDbLine
 10
1461.36882541523
 20
585.6304890645531
 30
0.0
 11
1461.36882541523
 21
567.6304890645531
 31
0.0
  0
LINE
  5
515
330
17
100
AcDbEntity
  8
4
100
AcDbLine
 10
1452.36882541523
 20
570.6304890645531
 30
0.0
 11
1460.339285415229
 21
570.6304890645531
 31
0.0
  0
LINE
  5
516
330
17
100
AcDbEntity
  8
4
100
AcDbLine
 10
1452.36882541523
 20
582.6304890645531
 30
0.0
 11
1460.339285415229
 21
582.6304890645531
 31
0.0
  0
LINE
  5
517
330
17
100
AcDbEntity
  8
4
100
AcDbLine
 10
1460.339285415229
 20
564.6304890645531
 30
0.0
 11
1449.36882541523
 21
564.6304890645531
 31
0.0
  0
LINE
  5
518
330
17
100
AcDbEntity
  8
4
100
AcDbLine
 10
1461.368825415229
 20
458.4491615301968
 30
0.0
 11
1461.368825415229
 21
440.4491615301968
 31
0.0
  0
ARC
  5
519
330
17
100
AcDbEntity
  8
4
100
AcDbCircle
 10
1456.785085415229
 20
458.4491615301968
 30
0.0
 40
4.5836
100
AcDbArc
 50
319.1186790000041
 51
40.88332600000014
  0
LINE
  5
51A
330
17
100
AcDbEntity
  8
4
100
AcDbLine
 10
1452.368825415229
 20
461.4491615301968
 30
0.0
 11
1452.368825415229
 21
437.4491615301968
 31
0.0
  0
LINE
  5
51B
330
17
100
AcDbEntity
  8
4
100
AcDbLine
 10
1460.339285415229
 20
437.4491615301968
 30
0.0
 11
1449.368825415229
 21
437.4491615301968
 31
0.0
  0
ARC
  5
51C
330
17
100
AcDbEntity
  8
4
100
AcDbCircle
 10
1443.368825415229
 20
449.4491615301968
 30
0.0
 40
17.999976
100
AcDbArc
 50
340.5296600000002
 51
19.47133099999985
  0
LINE
  5
51D
330
17
100
AcDbEntity
  8
4
100
AcDbLine
 10
1452.368825415229
 20
443.4491615301968
 30
0.0
 11
1460.339285415229
 21
443.4491615301968
 31
0.0
  0
LINE
  5
51E
330
17
100
AcDbEntity
  8
4
100
AcDbLine
 10
1452.368825415229
 20
455.4491615301968
 30
0.0
 11
1460.339285415229
 21
455.4491615301968
 31
0.0
  0
ARC
  5
51F
330
17
100
AcDbEntity
  8
4
100
AcDbCircle
 10
1456.785085415229
 20
440.4491615301968
 30
0.0
 40
4.5836
100
AcDbArc
 50
319.1186790000041
 51
40.88332600000014
  0
LINE
  5
520
330
17
100
AcDbEntity
  8
4
100
AcDbLine
 10
1460.339285415229
 20
461.4491615301968
 30
0.0
 11
1449.368825415229
 21
461.4491615301968
 31
0.0
  0
LINE
  5
521
330
17
100
AcDbEntity
  8
L-CENTER
100
AcDbLine
 10
1416.27112407773
 20
449.4491615301968
 30
0.0
 11
1465.450433621272
 21
449.4491615301968
 31
0.0
  0
LINE
  5
52C
330
17
100
AcDbEntity
  8
4
100
AcDbLine
 10
527.2693984766881
 20
925.8267265036543
 30
0.0
 11
549.2693984766881
 21
925.8267265036543
 31
0.0
  0
LINE
  5
52D
330
17
100
AcDbEntity
  8
4
100
AcDbLine
 10
488.2693984766882
 20
924.8267265036543
 30
0.0
 11
548.2693984766881
 21
924.8267265036543
 31
0.0
  0
LINE
  5
52E
330
17
100
AcDbEntity
  8
4
100
AcDbLine
 10
485.7693984766885
 20
1044.826726503654
 30
0.0
 11
550.7693984766885
 21
1044.826726503654
 31
0.0
  0
LINE
  5
52F
330
17
100
AcDbEntity
  8
4
100
AcDbLine
 10
549.2693984766885
 20
1043.826726503654
 30
0.0
 11
549.2693984766881
 21
925.8267265036543
 31
0.0
  0
ARC
  5
530
330
17
100
AcDbEntity
  8
4
100
AcDbCircle
 10
550.2693984766885
 20
1043.826726503654
 30
0.0
 40
1.0
100
AcDbArc
 50
90.0
 51
180.0
  0
LINE
  5
531
330
17
100
AcDbEntity
  8
4
100
AcDbLine
 10
548.2693984766881
 20
924.8267265036543
 30
0.0
 11
549.2693984766881
 21
925.8267265036543
 31
0.0
  0
LINE
  5
532
330
17
100
AcDbEntity
  8
4
  6
Continuous
100
AcDbLine
 10
487.2693984766885
 20
1043.826726503654
 30
0.0
 11
487.2693984766882
 21
925.8267265036543
 31
0.0
  0
LINE
  5
533
330
17
100
AcDbEntity
  8
4
  6
Continuous
100
AcDbLine
 10
509.2693984766884
 20
1025.826726503654
 30
0.0
 11
509.2693984766882
 21
924.8267265036543
 31
0.0
  0
LINE
  5
534
330
17
100
AcDbEntity
  8
4
  6
Continuous
100
AcDbLine
 10
527.2693984766885
 20
1025.826726503654
 30
0.0
 11
527.2693984766881
 21
924.8267265036543
 31
0.0
  0
ARC
  5
535
330
17
100
AcDbEntity
  8
4
  6
Continuous
100
AcDbCircle
 10
518.2693984766885
 20
1025.826726503654
 30
0.0
 40
9.0
100
AcDbArc
 50
90.0
 51
180.0
  0
ARC
  5
536
330
17
100
AcDbEntity
  8
4
100
AcDbCircle
 10
486.2693984766885
 20
1043.826726503654
 30
0.0
 40
1.0
100
AcDbArc
 50
0.0
 51
90.0
  0
ARC
  5
537
330
17
100
AcDbEntity
  8
4
100
AcDbCircle
 10
518.2693984766885
 20
1025.826726503654
 30
0.0
 40
9.0
100
AcDbArc
 50
0.0
 51
90.0
  0
LINE
  5
538
330
17
100
AcDbEntity
  8
4
100
AcDbLine
 10
488.2693984766882
 20
924.8267265036543
 30
0.0
 11
487.2693984766882
 21
925.8267265036543
 31
0.0
  0
LINE
  5
539
330
17
100
AcDbEntity
  8
4
100
AcDbLine
 10
487.2693984766882
 20
925.8267265036543
 30
0.0
 11
509.2693984766882
 21
925.8267265036543
 31
0.0
  0
LINE
  5
53A
330
17
100
AcDbEntity
  8
4
  6
Continuous
100
AcDbLine
 10
485.7693984766885
 20
1056.426726503651
 30
0.0
 11
485.7693984766885
 21
1044.826726503654
 31
0.0
  0
LINE
  5
53B
330
17
100
AcDbEntity
  8
4
  6
Continuous
100
AcDbLine
 10
550.7693984766885
 20
1056.426726503651
 30
0.0
 11
550.7693984766885
 21
1044.826726503654
 31
0.0
  0
LINE
  5
53C
330
17
100
AcDbEntity
  8
4
100
AcDbLine
 10
474.4673948408094
 20
1056.426726503651
 30
0.0
 11
562.0714021125682
 21
1056.426726503651
 31
0.0
  0
ARC
  5
53D
330
17
100
AcDbEntity
  8
4
100
AcDbCircle
 10
518.4825144766892
 20
339.5185549244006
 30
0.0
 40
31.0
100
AcDbArc
 50
106.8772694386292
 51
73.12273100000029
  0
LINE
  5
53E
330
17
100
AcDbEntity
  8
4
100
AcDbLine
 10
509.4825144766892
 20
376.5185549244006
 30
0.0
 11
509.4825144766892
 21
364.5185549244006
 31
0.0
  0
LINE
  5
53F
330
17
100
AcDbEntity
  8
4
100
AcDbLine
 10
527.4825144766892
 20
364.5185549244006
 30
0.0
 11
527.4825144766892
 21
376.5185549244006
 31
0.0
  0
LINE
  5
540
330
17
100
AcDbEntity
  8
4
100
AcDbLine
 10
527.4825144766892
 20
364.5185549244006
 30
0.0
 11
509.4825144766892
 21
364.5185549244006
 31
0.0
  0
LINE
  5
541
330
17
100
AcDbEntity
  8
4
100
AcDbLine
 10
527.4825144766892
 20
376.5185549244006
 30
0.0
 11
509.4825144766892
 21
376.5185549244006
 31
0.0
  0
CIRCLE
  5
542
330
17
100
AcDbEntity
  8
4
100
AcDbCircle
 10
518.4825144766892
 20
339.5185549244006
 30
0.0
 40
45.0
  0
LINE
  5
546
330
17
100
AcDbEntity
  8
4
100
AcDbLine
 10
1245.36882541523
 20
281.0031922885219
 30
0.0
 11
1245.36882541523
 21
295.5031922885219
 31
0.0
  0
LINE
  5
547
330
17
100
AcDbEntity
  8
4
100
AcDbLine
 10
1237.36882541523
 20
281.7531922885219
 30
0.0
 11
1237.36882541523
 21
294.7531922885219
 31
0.0
  0
LINE
  5
548
330
17
100
AcDbEntity
  8
4
100
AcDbLine
 10
1237.36882541523
 20
281.7531922885219
 30
0.0
 11
1245.36882541523
 21
281.7531922885219
 31
0.0
  0
LINE
  5
549
330
17
100
AcDbEntity
  8
4
100
AcDbLine
 10
1237.36882541523
 20
294.7531922885219
 30
0.0
 11
1245.36882541523
 21
294.7531922885217
 31
0.0
  0
LINE
  5
54A
330
17
100
AcDbEntity
  8
4
100
AcDbLine
 10
1245.36882541523
 20
295.5031922885219
 30
0.0
 11
1247.36882541523
 21
295.5031922885217
 31
0.0
  0
LINE
  5
54B
330
17
100
AcDbEntity
  8
4
100
AcDbLine
 10
1245.36882541523
 20
281.0031922885219
 30
0.0
 11
1247.36882541523
 21
281.0031922885217
 31
0.0
  0
LINE
  5
54C
330
17
100
AcDbEntity
  8
4
100
AcDbLine
 10
1483.368581415229
 20
294.7531922885208
 30
0.0
 11
1483.368581415229
 21
281.7531922885208
 31
0.0
  0
LINE
  5
54D
330
17
100
AcDbEntity
  8
4
100
AcDbLine
 10
1475.368581415229
 20
295.5031922885208
 30
0.0
 11
1475.368581415229
 21
281.0031922885208
 31
0.0
  0
LINE
  5
54E
330
17
100
AcDbEntity
  8
4
100
AcDbLine
 10
1483.368581415229
 20
281.7531922885208
 30
0.0
 11
1475.368581415229
 21
281.7531922885209
 31
0.0
  0
LINE
  5
54F
330
17
100
AcDbEntity
  8
4
100
AcDbLine
 10
1475.368581415229
 20
281.0031922885208
 30
0.0
 11
1473.368581415229
 21
281.0031922885209
 31
0.0
  0
LINE
  5
550
330
17
100
AcDbEntity
  8
4
100
AcDbLine
 10
1483.368581415229
 20
294.7531922885208
 30
0.0
 11
1475.368581415229
 21
294.7531922885208
 31
0.0
  0
LINE
  5
551
330
17
100
AcDbEntity
  8
4
100
AcDbLine
 10
1475.368581415229
 20
295.5031922885208
 30
0.0
 11
1473.368581415229
 21
295.5031922885209
 31
0.0
  0
LINE
  5
552
330
17
100
AcDbEntity
  8
L-CENTER
100
AcDbLine
 10
1485.65959741523
 20
288.2531922885209
 30
0.0
 11
1440.90709840328
 21
288.2531922885209
 31
0.0
  0
LINE
  5
553
330
17
100
AcDbEntity
  8
L-CENTER
100
AcDbLine
 10
1235.077809415229
 20
288.2531922885214
 30
0.0
 11
1279.830308427179
 21
288.2531922885212
 31
0.0
  0
LINE
  5
555
330
17
100
AcDbEntity
  8
4
100
AcDbLine
 10
1114.36882541523
 20
376.5185549244006
 30
0.0
 11
1224.36882541523
 21
376.5185549244006
 31
0.0
  0
LINE
  5
556
330
17
100
AcDbEntity
  8
4
100
AcDbLine
 10
1234.36882541523
 20
370.5185549244006
 30
0.0
 11
1115.36882541523
 21
370.5185549244006
 31
0.0
  0
LINE
  5
557
330
17
100
AcDbEntity
  8
4
100
AcDbLine
 10
1234.36882541523
 20
308.5185549244006
 30
0.0
 11
1115.36882541523
 21
308.5185549244006
 31
0.0
  0
LINE
  5
558
330
17
100
AcDbEntity
  8
4
100
AcDbLine
 10
1234.36882541523
 20
372.0185549244006
 30
0.0
 11
1234.36882541523
 21
307.0185549244006
 31
0.0
  0
LINE
  5
559
330
17
100
AcDbEntity
  8
4
100
AcDbLine
 10
1246.36882541523
 20
383.5339175602805
 30
0.0
 11
1246.36882541523
 21
295.5031922885209
 31
0.0
  0
LINE
  5
55A
330
17
100
AcDbEntity
  8
4
100
AcDbLine
 10
1246.36882541523
 20
307.0185549244006
 30
0.0
 11
1234.36882541523
 21
307.0185549244006
 31
0.0
  0
LINE
  5
55B
330
17
100
AcDbEntity
  8
4
100
AcDbLine
 10
1234.36882541523
 20
372.0185549244006
 30
0.0
 11
1246.36882541523
 21
372.0185549244006
 31
0.0
  0
LINE
  5
55C
330
17
100
AcDbEntity
  8
4
100
AcDbLine
 10
1224.36882541523
 20
376.5185549244006
 30
0.0
 11
1224.36882541523
 21
370.5185549244006
 31
0.0
  0
LINE
  5
55D
330
17
100
AcDbEntity
  8
4
100
AcDbLine
 10
1114.36882541523
 20
376.5185549244006
 30
0.0
 11
1114.36882541523
 21
309.5185549244006
 31
0.0
  0
LINE
  5
55E
330
17
100
AcDbEntity
  8
4
100
AcDbLine
 10
1115.36882541523
 20
370.5185549244006
 30
0.0
 11
1115.36882541523
 21
308.5185549244006
 31
0.0
  0
LINE
  5
55F
330
17
100
AcDbEntity
  8
4
100
AcDbLine
 10
1115.36882541523
 20
308.5185549244006
 30
0.0
 11
1114.36882541523
 21
309.5185549244006
 31
0.0
  0
LINE
  5
560
330
17
100
AcDbEntity
  8
4
100
AcDbLine
 10
1114.36882541523
 20
369.5185549244006
 30
0.0
 11
1115.36882541523
 21
370.5185549244006
 31
0.0
  0
LINE
  5
580
330
17
100
AcDbEntity
  8
4
100
AcDbLine
 10
301.705398476689
 20
1120.826726503654
 30
0.0
 11
224.705398476689
 21
1120.826726503654
 31
0.0
  0
LINE
  5
581
330
17
100
AcDbEntity
  8
4
100
AcDbLine
 10
301.705398476689
 20
1152.826726503654
 30
0.0
 11
224.705398476689
 21
1152.826726503654
 31
0.0
  0
LINE
  5
582
330
17
100
AcDbEntity
  8
4
100
AcDbLine
 10
303.705398476689
 20
1156.826726503654
 30
0.0
 11
303.705398476689
 21
1116.826726503654
 31
0.0
  0
ARC
  5
583
330
17
100
AcDbEntity
  8
4
100
AcDbCircle
 10
301.705398476689
 20
1154.826726503654
 30
0.0
 40
2.0
100
AcDbArc
 50
270.0
 51
0.0
  0
ARC
  5
584
330
17
100
AcDbEntity
  8
4
100
AcDbCircle
 10
301.705398476689
 20
1118.826726503655
 30
0.0
 40
2.0
100
AcDbArc
 50
0.0
 51
90.0
  0
ARC
  5
585
330
17
100
AcDbEntity
  8
4
100
AcDbCircle
 10
293.705398476689
 20
1136.826726503654
 30
0.0
 40
5.0
100
AcDbArc
 50
0.0
 51
90.0
  0
ARC
  5
586
330
17
100
AcDbEntity
  8
4
100
AcDbCircle
 10
293.705398476689
 20
1136.826726503654
 30
0.0
 40
5.0
100
AcDbArc
 50
270.0
 51
0.0
  0
LINE
  5
587
330
17
100
AcDbEntity
  8
4
100
AcDbLine
 10
298.705398476689
 20
1136.826726503654
 30
0.0
 11
298.705398476689
 21
1136.826726503654
 31
0.0
  0
LINE
  5
588
330
17
100
AcDbEntity
  8
4
100
AcDbLine
 10
224.705398476689
 20
1131.826726503654
 30
0.0
 11
224.705398476689
 21
1120.826726503654
 31
0.0
  0
LINE
  5
589
330
17
100
AcDbEntity
  8
4
100
AcDbLine
 10
224.705398476689
 20
1152.826726503654
 30
0.0
 11
224.705398476689
 21
1141.826726503654
 31
0.0
  0
LINE
  5
58A
330
17
100
AcDbEntity
  8
4
100
AcDbLine
 10
293.705398476689
 20
1131.826726503654
 30
0.0
 11
223.705398476689
 21
1131.826726503654
 31
0.0
  0
LINE
  5
58B
330
17
100
AcDbEntity
  8
4
100
AcDbLine
 10
293.705398476689
 20
1141.826726503654
 30
0.0
 11
223.705398476689
 21
1141.826726503654
 31
0.0
  0
LINE
  5
58C
330
17
100
AcDbEntity
  8
4
100
AcDbLine
 10
223.705398476689
 20
1151.826726503654
 30
0.0
 11
223.705398476689
 21
1121.826726503654
 31
0.0
  0
LINE
  5
58D
330
17
100
AcDbEntity
  8
4
100
AcDbLine
 10
223.705398476689
 20
1121.826726503654
 30
0.0
 11
224.705398476689
 21
1120.826726503654
 31
0.0
  0
LINE
  5
58E
330
17
100
AcDbEntity
  8
4
100
AcDbLine
 10
224.705398476689
 20
1152.826726503654
 30
0.0
 11
223.705398476689
 21
1151.826726503654
 31
0.0
  0
LINE
  5
58F
330
17
100
AcDbEntity
  8
4
100
AcDbLine
 10
323.9873984766891
 20
1156.826726503654
 30
0.0
 11
303.705398476689
 21
1156.826726503654
 31
0.0
  0
LINE
  5
590
330
17
100
AcDbEntity
  8
4
100
AcDbLine
 10
323.9873984766891
 20
1116.826726503654
 30
0.0
 11
303.705398476689
 21
1116.826726503654
 31
0.0
  0
LINE
  5
592
330
17
100
AcDbEntity
  8
4
100
AcDbLine
 10
223.9873984766891
 20
224.0185549244006
 30
0.0
 11
298.9873984766891
 21
224.0185549244006
 31
0.0
  0
LINE
  5
593
330
17
100
AcDbEntity
  8
4
100
AcDbLine
 10
303.9873984766891
 20
220.5185549244006
 30
0.0
 11
224.9873984766891
 21
220.5185549244006
 31
0.0
  0
LINE
  5
594
330
17
100
AcDbEntity
  8
4
100
AcDbLine
 10
303.9873984766891
 20
188.5185549244006
 30
0.0
 11
224.9873984766891
 21
188.5185549244006
 31
0.0
  0
LINE
  5
595
330
17
100
AcDbEntity
  8
4
100
AcDbLine
 10
303.9873984766891
 20
222.0185549244006
 30
0.0
 11
323.9873984766891
 21
222.0185549244006
 31
0.0
  0
LINE
  5
596
330
17
100
AcDbEntity
  8
4
100
AcDbLine
 10
323.9873984766891
 20
187.0185549244006
 30
0.0
 11
303.9873984766891
 21
187.0185549244006
 31
0.0
  0
LINE
  5
597
330
17
100
AcDbEntity
  8
4
100
AcDbLine
 10
303.9873984766891
 20
222.0185549244006
 30
0.0
 11
303.9873984766891
 21
187.0185549244006
 31
0.0
  0
LINE
  5
598
330
17
100
AcDbEntity
  8
4
100
AcDbLine
 10
298.9873984766891
 20
224.0185549244006
 30
0.0
 11
298.9873984766891
 21
220.5185549244006
 31
0.0
  0
LINE
  5
599
330
17
100
AcDbEntity
  8
4
100
AcDbLine
 10
223.9873984766891
 20
224.0185549244006
 30
0.0
 11
223.9873984766891
 21
189.5185549244006
 31
0.0
  0
LINE
  5
59A
330
17
100
AcDbEntity
  8
4
100
AcDbLine
 10
224.9873984766891
 20
220.5185549244006
 30
0.0
 11
224.9873984766891
 21
188.5185549244006
 31
0.0
  0
LINE
  5
59B
330
17
100
AcDbEntity
  8
4
100
AcDbLine
 10
224.9873984766891
 20
188.5185549244006
 30
0.0
 11
223.9873984766891
 21
189.5185549244006
 31
0.0
  0
LINE
  5
59C
330
17
100
AcDbEntity
  8
4
100
AcDbLine
 10
223.9873984766891
 20
219.5185549244006
 30
0.0
 11
224.9873984766891
 21
220.5185549244006
 31
0.0
  0
LINE
  5
5E9
330
17
100
AcDbEntity
  8
L-CENTER
100
AcDbLine
 10
122.4319258973571
 20
204.5185549244007
 30
0.0
 11
174.704453897357
 21
204.5185549244007
 31
0.0
  0
ARC
  5
5EA
330
17
100
AcDbEntity
  8
4
100
AcDbCircle
 10
148.5681898973571
 20
204.5185549244007
 30
0.0
 40
16.0
100
AcDbArc
 50
108.209956864283
 51
71.79004400000014
  0
LINE
  5
5EB
330
17
100
AcDbEntity
  8
4
100
AcDbLine
 10
153.5681898973571
 20
216.0185549244007
 30
0.0
 11
143.5681898973571
 21
216.0185549244007
 31
0.0
  0
LINE
  5
5EC
330
17
100
AcDbEntity
  8
4
100
AcDbLine
 10
153.5681898973571
 20
224.0185549244007
 30
0.0
 11
143.5681898973571
 21
224.0185549244007
 31
0.0
  0
LINE
  5
5ED
330
17
100
AcDbEntity
  8
4
100
AcDbLine
 10
143.5681898973571
 20
224.0185549244007
 30
0.0
 11
143.5681898973571
 21
216.0185549244007
 31
0.0
  0
LINE
  5
5EE
330
17
100
AcDbEntity
  8
L-CENTER
100
AcDbLine
 10
148.5681898973571
 20
178.3822909244009
 30
0.0
 11
148.5681898973571
 21
230.6548189244007
 31
0.0
  0
LINE
  5
5EF
330
17
100
AcDbEntity
  8
4
100
AcDbLine
 10
153.5681898973571
 20
216.0185549244007
 30
0.0
 11
153.5681898973571
 21
224.0185549244007
 31
0.0
  0
ENDSEC
  0
SECTION
  2
OBJECTS
  0
DICTIONARY
  5
5
330
0
100
AcDbDictionary
281
     1
  3
ACAD_COLOR
350
28
  3
ACAD_GROUP
350
26
  3
ACAD_LAYOUT
350
1E
  3
ACAD_MATERIAL
350
7
  3
ACAD_MLEADERSTYLE
350
4EB
  3
ACAD_MLINESTYLE
350
15
  3
ACAD_PLOTSETTINGS
350
27
  3
ACAD_PLOTSTYLENAME
350
4
  3
ACAD_SCALELIST
350
2C
  3
ACAD_VISUALSTYLE
350
29
  3
ACDBHEADERROUNDTRIPXREC
350
5F2
  3
AcDbVariableDictionary
350
4E8
  3
DWGPROPS
350
5F5
  0
DICTIONARY
  5
5F6
330
25
100
AcDbDictionary
280
     1
281
     1
  3
ACAD_XREC_ROUNDTRIP
360
5F7
  0
DICTIONARY
  5
18
330
17
100
AcDbDictionary
280
     1
281
     1
  3
ACAD_SORTENTS
360
19
  0
DICTIONARY
  5
28
102
{ACAD_REACTORS
330
5
102
}
330
5
100
AcDbDictionary
281
     1
  0
DICTIONARY
  5
26
102
{ACAD_REACTORS
330
5
102
}
330
5
100
AcDbDictionary
281
     1
  0
DICTIONARY
  5
1E
102
{ACAD_REACTORS
330
5
102
}
330
5
100
AcDbDictionary
281
     1
  3
Model
350
1D
  3
ﾚｲｱｳﾄ1
350
22
  0
DICTIONARY
  5
7
102
{ACAD_REACTORS
330
5
102
}
330
5
100
AcDbDictionary
281
     1
  3
ByBlock
350
4F
  3
ByLayer
350
10
  3
Global
350
6
  0
DICTIONARY
  5
4EB
102
{ACAD_REACTORS
330
5
102
}
330
5
100
AcDbDictionary
281
     1
  3
Standard
350
526
  0
DICTIONARY
  5
15
102
{ACAD_REACTORS
330
5
102
}
330
5
100
AcDbDictionary
281
     1
  3
STANDARD
350
14
  0
DICTIONARY
  5
27
102
{ACAD_REACTORS
330
5
102
}
330
5
100
AcDbDictionary
281
     1
  0
ACDBDICTIONARYWDFLT
  5
4
102
{ACAD_REACTORS
330
5
102
}
330
5
100
AcDbDictionary
281
     1
  3
Normal
350
3
100
AcDbDictionaryWithDefault
340
3
  0
DICTIONARY
  5
2C
102
{ACAD_REACTORS
330
5
102
}
330
5
100
AcDbDictionary
281
     1
  3
*A1
350
4E
  0
DICTIONARY
  5
29
102
{ACAD_REACTORS
330
5
102
}
330
5
100
AcDbDictionary
281
     1
  3
2dWireframe
350
4F3
  3
Basic
350
4F6
  3
Brighten
350
4FA
  3
ColorChange
350
4FE
  3
Conceptual
350
4F8
  3
Dim
350
4F9
  3
EdgeColorOff
350
501
  3
Facepattern
350
4FD
  3
Flat
350
4EF
  3
FlatWithEdges
350
4F0
  3
Gouraud
350
4F1
  3
GouraudWithEdges
350
4F2
  3
Hidden
350
4F5
  3
JitterOff
350
4FF
  3
Linepattern
350
4FC
  3
OverhangOff
350
500
  3
Realistic
350
4F7
  3
Shaded
350
506
  3
Shaded with edges
350
505
  3
Shades of Gray
350
502
  3
Sketchy
350
503
  3
Thicken
350
4FB
  3
Wireframe
350
4F4
  3
X-Ray
350
504
  0
DICTIONARY
  5
5F2
102
{ACAD_REACTORS
330
5
102
}
330
5
100
AcDbDictionary
281
     1
  3
COLORDICT
350
5F3
  3
MATERIALDICT
350
5F4
  0
DICTIONARY
  5
4E8
102
{ACAD_REACTORS
330
5
102
}
330
5
100
AcDbDictionary
281
     1
  3
CANNOSCALE
350
4E9
  3
CMLEADERSTYLE
350
528
  3
DIMASSOC
350
5F0
  3
HIDETEXT
350
5F1
  3
MSLTSCALE
350
5F8
  3
XCLIPFRAME
350
4EC
  0
XRECORD
  5
5F5
102
{ACAD_REACTORS
330
5
102
}
330
5
100
AcDbXrecord
280
     1
  1
DWGPROPS COOKIE
  2

  3

  4

  6

  7

  8
sg-d03
  9

300
=
301
=
302
=
303
=
304
=
305
=
306
=
307
=
308
=
309
=
 40
0.0
 41
2457357.282630151
 42
2458110.161333345
  1

 90
        0
  0
XRECORD
  5
5F7
102
{ACAD_REACTORS
330
5F6
102
}
330
5F6
100
AcDbXrecord
280
     1
102
VTR_0.000_0.000_1.000_1.000_GRIDDISPLAY
 70
     3
102
VTR_0.000_0.000_1.000_1.000_GRIDMAJOR
 70
     5
102
VTR_0.000_0.000_1.000_1.000_DEFAULTLIGHTING
280
     1
102
VTR_0.000_0.000_1.000_1.000_DEFAULTLIGHTINGTYPE
 70
     1
102
VTR_0.000_0.000_1.000_1.000_BRIGHTNESS
141
0.0
102
VTR_0.000_0.000_1.000_1.000_CONTRAST
142
0.0
  0
SORTENTSTABLE
  5
19
102
{ACAD_REACTORS
330
18
102
}
330
18
100
AcDbSortentsTable
330
17
331
0
  5
50F
331
10D
  5
50E
331
10F
  5
4E7
331
112
  5
4E6
331
113
  5
4E5
331
114
  5
4E4
331
115
  5
4E3
331
116
  5
4E2
331
118
  5
4E1
331
11B
  5
4E0
331
0
  5
4DF
331
0
  5
4DD
331
0
  5
4DA
331
0
  5
4D9
331
0
  5
4D8
331
0
  5
4D7
331
0
  5
4D6
331
0
  5
4D5
331
0
  5
4D4
331
0
  5
4D3
331
0
  5
4D2
331
0
  5
4D1
331
0
  5
4D0
331
0
  5
4CF
331
0
  5
4CE
331
0
  5
4CD
331
0
  5
4CC
331
0
  5
4CB
331
0
  5
4CA
331
0
  5
4C9
331
0
  5
4C8
331
0
  5
4C7
331
0
  5
4C6
331
0
  5
4C5
331
0
  5
4C4
331
0
  5
4C3
331
0
  5
4C2
331
0
  5
4C1
331
0
  5
4C0
331
0
  5
4BF
331
0
  5
4BE
331
0
  5
4BD
331
0
  5
4BC
331
0
  5
4BB
331
0
  5
4BA
331
0
  5
4B9
331
0
  5
4B8
331
0
  5
4B7
331
0
  5
4B6
331
0
  5
4B5
331
0
  5
4B4
331
0
  5
4B3
331
0
  5
4B2
331
0
  5
4B1
331
0
  5
4B0
331
0
  5
4AF
331
0
  5
4AE
331
0
  5
4AD
331
0
  5
4AC
331
0
  5
4AB
331
0
  5
4AA
331
0
  5
4A9
331
0
  5
4A8
331
0
  5
4A7
331
0
  5
4A6
331
0
  5
4A5
331
0
  5
4A4
331
0
  5
4A3
331
0
  5
4A2
331
0
  5
4A1
331
0
  5
4A0
331
0
  5
49F
331
0
  5
49E
331
0
  5
49D
331
0
  5
49C
331
0
  5
49B
331
0
  5
49A
331
0
  5
499
331
0
  5
498
331
0
  5
497
331
0
  5
496
331
0
  5
495
331
0
  5
494
331
0
  5
493
331
0
  5
492
331
0
  5
491
331
0
  5
490
331
0
  5
48F
331
0
  5
48E
331
0
  5
48D
331
0
  5
48C
331
0
  5
48B
331
0
  5
48A
331
0
  5
489
331
0
  5
488
331
0
  5
487
331
0
  5
486
331
0
  5
485
331
0
  5
484
331
0
  5
483
331
0
  5
482
331
0
  5
481
331
0
  5
480
331
0
  5
47F
331
0
  5
47E
331
0
  5
47D
331
0
  5
47C
331
0
  5
47B
331
0
  5
47A
331
0
  5
479
331
0
  5
478
331
0
  5
477
331
0
  5
476
331
0
  5
475
331
0
  5
474
331
0
  5
473
331
0
  5
472
331
0
  5
471
331
0
  5
470
331
0
  5
46F
331
0
  5
46E
331
0
  5
46D
331
0
  5
46C
331
0
  5
46B
331
0
  5
46A
331
0
  5
469
331
0
  5
468
331
0
  5
467
331
0
  5
466
331
0
  5
465
331
0
  5
464
331
0
  5
463
331
0
  5
462
331
0
  5
461
331
0
  5
460
331
0
  5
45F
331
0
  5
45E
331
0
  5
45D
331
0
  5
45C
331
0
  5
45B
331
0
  5
45A
331
0
  5
459
331
0
  5
458
331
0
  5
457
331
0
  5
456
331
0
  5
455
331
0
  5
454
331
0
  5
453
331
0
  5
452
331
0
  5
451
331
0
  5
450
331
0
  5
44F
331
0
  5
44E
331
0
  5
44D
331
0
  5
44C
331
0
  5
44B
331
0
  5
44A
331
0
  5
449
331
0
  5
448
331
0
  5
447
331
0
  5
446
331
0
  5
445
331
0
  5
444
331
0
  5
443
331
0
  5
442
331
0
  5
441
331
0
  5
440
331
0
  5
43F
331
0
  5
43E
331
0
  5
43D
331
0
  5
43C
331
0
  5
43B
331
0
  5
43A
331
0
  5
439
331
0
  5
438
331
0
  5
437
331
0
  5
436
331
0
  5
435
331
0
  5
434
331
0
  5
433
331
0
  5
432
331
0
  5
431
331
0
  5
430
331
0
  5
42F
331
0
  5
42E
331
0
  5
42D
331
0
  5
42C
331
0
  5
42B
331
0
  5
42A
331
0
  5
429
331
0
  5
428
331
0
  5
427
331
0
  5
426
331
0
  5
425
331
0
  5
424
331
0
  5
423
331
0
  5
422
331
0
  5
421
331
0
  5
420
331
0
  5
41F
331
0
  5
41E
331
0
  5
41D
331
0
  5
41C
331
0
  5
41B
331
0
  5
41A
331
0
  5
419
331
0
  5
418
331
0
  5
417
331
0
  5
416
331
0
  5
415
331
0
  5
414
331
0
  5
413
331
0
  5
412
331
0
  5
411
331
0
  5
410
331
0
  5
40F
331
0
  5
40E
331
0
  5
40D
331
0
  5
40C
331
0
  5
40B
331
0
  5
40A
331
0
  5
409
331
0
  5
408
331
0
  5
407
331
0
  5
406
331
0
  5
405
331
0
  5
404
331
0
  5
403
331
0
  5
402
331
0
  5
401
331
0
  5
400
331
0
  5
3FF
331
0
  5
3FE
331
0
  5
3FD
331
0
  5
3FC
331
0
  5
3FB
331
0
  5
3FA
331
0
  5
3F9
331
0
  5
3F8
331
0
  5
3F7
331
0
  5
3F6
331
0
  5
3F5
331
0
  5
3F4
331
0
  5
3F3
331
0
  5
3F2
331
0
  5
3F1
331
0
  5
3F0
331
0
  5
3EF
331
0
  5
3EE
331
0
  5
3ED
331
0
  5
3EC
331
0
  5
3EB
331
0
  5
3EA
331
0
  5
3E9
331
0
  5
3E8
331
0
  5
3E7
331
0
  5
3E6
331
0
  5
3E5
331
0
  5
3E4
331
0
  5
3E3
331
0
  5
3E2
331
0
  5
3E1
331
0
  5
3E0
331
0
  5
3DF
331
0
  5
3DE
331
0
  5
3DD
331
0
  5
3DC
331
0
  5
3DB
331
0
  5
3DA
331
0
  5
3D9
331
0
  5
3D8
331
0
  5
3D7
331
0
  5
3D6
331
0
  5
3D5
331
0
  5
3D4
331
0
  5
3D3
331
0
  5
3D2
331
0
  5
3D1
331
0
  5
3D0
331
0
  5
3CF
331
0
  5
3CE
331
0
  5
3CD
331
0
  5
3CC
331
0
  5
3CB
331
0
  5
3CA
331
0
  5
3C9
331
0
  5
3C8
331
0
  5
3C7
331
0
  5
3C6
331
0
  5
3C5
331
0
  5
3C4
331
0
  5
3C3
331
0
  5
3C2
331
0
  5
3C1
331
0
  5
3C0
331
0
  5
3BF
331
0
  5
3BE
331
0
  5
3BD
331
0
  5
3BC
331
0
  5
3BB
331
0
  5
3BA
331
0
  5
3B9
331
0
  5
3B8
331
0
  5
3B7
331
0
  5
3B6
331
0
  5
3B5
331
0
  5
3B4
331
0
  5
3B3
331
0
  5
3B2
331
0
  5
3B1
331
0
  5
3B0
331
0
  5
3AF
331
0
  5
3AE
331
0
  5
3AD
331
0
  5
3AC
331
0
  5
3AB
331
0
  5
3AA
331
0
  5
3A9
331
0
  5
3A8
331
0
  5
3A7
331
0
  5
3A6
331
0
  5
3A5
331
0
  5
3A4
331
0
  5
3A3
331
0
  5
3A2
331
0
  5
3A1
331
0
  5
3A0
331
0
  5
39F
331
0
  5
39E
331
0
  5
39D
331
0
  5
39C
331
0
  5
39B
331
0
  5
39A
331
0
  5
399
331
0
  5
398
331
0
  5
397
331
0
  5
396
331
0
  5
395
331
0
  5
394
331
0
  5
393
331
0
  5
392
331
0
  5
391
331
0
  5
390
331
0
  5
38F
331
0
  5
38E
331
0
  5
38D
331
0
  5
38C
331
0
  5
38B
331
270
  5
38A
331
271
  5
389
331
272
  5
388
331
273
  5
387
331
274
  5
386
331
275
  5
385
331
276
  5
384
331
277
  5
383
331
278
  5
382
331
279
  5
381
331
27A
  5
380
331
27B
  5
37F
331
27C
  5
37E
331
27D
  5
37D
331
27E
  5
37C
331
27F
  5
37B
331
280
  5
37A
331
281
  5
379
331
282
  5
378
331
283
  5
377
331
284
  5
376
331
285
  5
375
331
286
  5
374
331
287
  5
373
331
288
  5
372
331
289
  5
371
331
28A
  5
370
331
292
  5
36F
331
293
  5
36E
331
294
  5
36D
331
295
  5
365
331
296
  5
364
331
297
  5
363
331
29E
  5
362
331
29F
  5
361
331
2A0
  5
360
331
2A1
  5
359
331
2A2
  5
358
331
2A3
  5
357
331
2A4
  5
356
331
2A5
  5
355
331
2A6
  5
354
331
2A7
  5
353
331
2A8
  5
352
331
2A9
  5
351
331
2AA
  5
350
331
2AB
  5
34F
331
2AC
  5
34E
331
2AD
  5
34D
331
2AE
  5
34C
331
2AF
  5
34B
331
2B0
  5
34A
331
2B1
  5
349
331
2B2
  5
348
331
2B3
  5
347
331
2B4
  5
346
331
2B5
  5
345
331
2B6
  5
344
331
2B7
  5
343
331
2B8
  5
342
331
2B9
  5
341
331
2BA
  5
340
331
2BB
  5
33F
331
2BC
  5
33E
331
2BD
  5
33D
331
2BE
  5
33C
331
2BF
  5
33B
331
2C0
  5
33A
331
2C1
  5
339
331
2C2
  5
338
331
2C3
  5
337
331
2C4
  5
336
331
2C5
  5
335
331
2C6
  5
334
331
2C7
  5
333
331
2C8
  5
332
331
2C9
  5
331
331
2CA
  5
330
331
2CB
  5
32F
331
2CC
  5
32E
331
2CD
  5
32D
331
2CE
  5
32C
331
2CF
  5
32B
331
2D0
  5
32A
331
2D1
  5
329
331
2DB
  5
328
331
2DC
  5
327
331
2DD
  5
326
331
2DE
  5
31C
331
2DF
  5
31B
331
2E0
  5
31A
331
2E1
  5
319
331
2E2
  5
318
331
2E3
  5
317
331
2E4
  5
316
331
2E5
  5
315
331
2E6
  5
314
331
2E7
  5
313
331
2E8
  5
312
331
2E9
  5
311
331
2EA
  5
310
331
2EB
  5
30F
331
2EC
  5
30E
331
2ED
  5
30D
331
2EE
  5
30C
331
2EF
  5
30B
331
2F0
  5
30A
331
2F1
  5
309
331
2F2
  5
308
331
2F3
  5
307
331
2F4
  5
306
331
2F5
  5
305
331
2F6
  5
304
331
2F7
  5
303
331
2F8
  5
302
331
2F9
  5
301
331
2FA
  5
300
331
2FB
  5
2FF
331
2FC
  5
2FE
331
2FE
  5
2FC
331
2FF
  5
2FB
331
300
  5
2FA
331
301
  5
2F9
331
302
  5
2F8
331
303
  5
2F7
331
304
  5
2F6
331
305
  5
2F5
331
306
  5
2F4
331
307
  5
2F3
331
308
  5
2F2
331
309
  5
2F1
331
30A
  5
2F0
331
30B
  5
2EF
331
30C
  5
2EE
331
30D
  5
2ED
331
30E
  5
2EC
331
30F
  5
2EB
331
310
  5
2EA
331
311
  5
2E9
331
312
  5
2E8
331
313
  5
2E7
331
314
  5
2E6
331
315
  5
2E5
331
316
  5
2E4
331
317
  5
2E3
331
318
  5
2E2
331
319
  5
2E1
331
31A
  5
2E0
331
32C
  5
2DF
331
33E
  5
2BC
331
33F
  5
2BB
331
340
  5
2BA
331
341
  5
2B9
331
342
  5
2B8
331
343
  5
2B7
331
344
  5
2B6
331
345
  5
2B5
331
346
  5
2B4
331
347
  5
2B3
331
348
  5
2B2
331
349
  5
2B1
331
34A
  5
2B0
331
34B
  5
2AF
331
34C
  5
2AE
331
34D
  5
2AD
331
34E
  5
2AC
331
34F
  5
2AB
331
350
  5
2AA
331
351
  5
2A9
331
352
  5
2A8
331
353
  5
2A7
331
354
  5
2A6
331
355
  5
2A5
331
356
  5
2A4
331
357
  5
2A3
331
358
  5
2A2
331
359
  5
2A1
331
35A
  5
2A0
331
35B
  5
29F
331
35C
  5
29E
331
35D
  5
29D
331
35E
  5
29C
331
35F
  5
29B
331
360
  5
29A
331
361
  5
299
331
362
  5
298
331
364
  5
297
331
365
  5
296
331
366
  5
295
331
367
  5
293
331
368
  5
292
331
369
  5
291
331
36A
  5
290
331
36B
  5
28F
331
36C
  5
28E
331
36D
  5
28D
331
36E
  5
28C
331
36F
  5
28B
331
370
  5
28A
331
371
  5
289
331
372
  5
288
331
373
  5
287
331
374
  5
286
331
375
  5
285
331
376
  5
284
331
377
  5
283
331
378
  5
282
331
379
  5
281
331
37A
  5
280
331
37B
  5
27F
331
37C
  5
27E
331
37D
  5
27D
331
37E
  5
27C
331
37F
  5
27B
331
380
  5
27A
331
381
  5
279
331
382
  5
278
331
383
  5
277
331
384
  5
276
331
385
  5
275
331
386
  5
274
331
387
  5
273
331
388
  5
272
331
389
  5
271
331
38A
  5
270
331
38B
  5
26F
331
38C
  5
26E
331
38D
  5
26D
331
38E
  5
26C
331
38F
  5
26B
331
390
  5
26A
331
391
  5
269
331
392
  5
268
331
393
  5
267
331
394
  5
266
331
395
  5
265
331
396
  5
264
331
397
  5
263
331
398
  5
262
331
399
  5
261
331
39A
  5
260
331
39B
  5
25F
331
39C
  5
25E
331
39D
  5
25D
331
39E
  5
25C
331
39F
  5
25B
331
3A0
  5
25A
331
3A1
  5
259
331
3A2
  5
258
331
3A3
  5
257
331
3A4
  5
256
331
3A5
  5
255
331
3A6
  5
254
331
3A7
  5
253
331
3A8
  5
252
331
3A9
  5
251
331
3AA
  5
250
331
3AB
  5
24F
331
3AC
  5
24E
331
3AD
  5
24D
331
3AE
  5
24C
331
3AF
  5
24B
331
3B0
  5
24A
331
3B1
  5
249
331
3B2
  5
248
331
3B3
  5
247
331
3B4
  5
246
331
3B5
  5
245
331
3B6
  5
244
331
3B7
  5
243
331
3BF
  5
242
331
3C0
  5
23A
331
3CC
  5
239
331
3CD
  5
238
331
3CE
  5
237
331
3CF
  5
22B
331
3D0
  5
22A
331
3D1
  5
229
331
3D2
  5
228
331
3D3
  5
227
331
3D4
  5
226
331
3D5
  5
225
331
3D6
  5
224
331
3D7
  5
223
331
3D8
  5
222
331
3D9
  5
221
331
3DA
  5
220
331
3DB
  5
21F
331
3DC
  5
21E
331
3DD
  5
21D
331
3DE
  5
21C
331
3E1
  5
21B
331
3E2
  5
218
331
3E4
  5
217
331
3E5
  5
215
331
3E6
  5
214
331
3E7
  5
213
331
3E8
  5
212
331
3E9
  5
211
331
3EF
  5
20B
331
3F0
  5
20A
331
3F1
  5
209
331
3F4
  5
208
331
3F5
  5
205
331
3F6
  5
204
331
3F7
  5
203
331
3F8
  5
202
331
3F9
  5
201
331
3FA
  5
200
331
3FB
  5
1FF
331
3FC
  5
1FE
331
3FD
  5
1FD
331
3FE
  5
1FC
331
3FF
  5
1FB
331
400
  5
1FA
331
401
  5
1F9
331
402
  5
1F8
331
403
  5
1F7
331
404
  5
1F6
331
405
  5
1F5
331
406
  5
1F4
331
407
  5
1F3
331
408
  5
1F2
331
409
  5
1F1
331
40A
  5
1F0
331
40B
  5
1EF
331
40C
  5
1EE
331
40D
  5
1ED
331
40E
  5
1EC
331
40F
  5
1EB
331
410
  5
1EA
331
411
  5
1E9
331
412
  5
1E8
331
413
  5
1E7
331
414
  5
1E6
331
415
  5
1E5
331
416
  5
1E4
331
417
  5
1E3
331
41B
  5
1E2
331
41C
  5
1DE
331
41D
  5
1DD
331
41E
  5
1DC
331
41F
  5
1DB
331
422
  5
1DA
331
423
  5
1D9
331
0
  5
1D8
331
425
  5
1D5
331
426
  5
1D4
331
427
  5
1D3
331
428
  5
1D2
331
429
  5
1D1
331
0
  5
1D0
331
42B
  5
1CF
331
42C
  5
1CE
331
42D
  5
1CD
331
42E
  5
1CC
331
42F
  5
1CB
331
430
  5
1CA
331
431
  5
1C9
331
432
  5
1C8
331
433
  5
1C7
331
434
  5
1C6
331
435
  5
1C5
331
436
  5
1C4
331
437
  5
1C3
331
438
  5
1C2
331
439
  5
1C1
331
43A
  5
1C0
331
43B
  5
1BF
331
43C
  5
1BE
331
0
  5
1BD
331
43E
  5
1BC
331
43F
  5
1BB
331
440
  5
1BA
331
441
  5
1B9
331
442
  5
1B8
331
443
  5
1B7
331
444
  5
1B6
331
445
  5
1B5
331
446
  5
1B4
331
447
  5
1B3
331
448
  5
1B2
331
449
  5
1B1
331
44A
  5
1B0
331
44B
  5
1AF
331
44C
  5
1AE
331
44D
  5
1AD
331
44E
  5
1AC
331
44F
  5
1AB
331
450
  5
1AA
331
451
  5
1A9
331
452
  5
1A8
331
453
  5
1A7
331
454
  5
1A6
331
455
  5
1A5
331
456
  5
1A3
331
457
  5
1A2
331
458
  5
1A1
331
459
  5
1A0
331
45A
  5
19F
331
45B
  5
19D
331
45C
  5
19C
331
45D
  5
19B
331
467
  5
191
331
468
  5
190
331
469
  5
18F
331
46C
  5
18C
331
46D
  5
18B
331
471
  5
187
331
472
  5
186
331
473
  5
185
331
474
  5
184
331
475
  5
183
331
476
  5
182
331
477
  5
181
331
478
  5
180
331
479
  5
17F
331
47A
  5
17E
331
47B
  5
17D
331
47C
  5
17C
331
47D
  5
17B
331
47E
  5
17A
331
47F
  5
179
331
480
  5
178
331
481
  5
177
331
482
  5
176
331
483
  5
175
331
484
  5
174
331
485
  5
173
331
486
  5
172
331
487
  5
171
331
488
  5
170
331
489
  5
16F
331
48A
  5
16E
331
48B
  5
16D
331
48C
  5
16C
331
48D
  5
16B
331
48E
  5
16A
331
48F
  5
169
331
490
  5
168
331
491
  5
167
331
492
  5
166
331
493
  5
165
331
494
  5
164
331
495
  5
163
331
496
  5
162
331
497
  5
161
331
498
  5
160
331
499
  5
15F
331
49A
  5
15E
331
49B
  5
15D
331
49C
  5
15C
331
49D
  5
15B
331
49E
  5
159
331
49F
  5
158
331
4A0
  5
157
331
4A1
  5
156
331
4A2
  5
155
331
4A3
  5
154
331
4A4
  5
153
331
4A5
  5
152
331
4A6
  5
151
331
4A7
  5
150
331
4A8
  5
14F
331
4A9
  5
14E
331
4AA
  5
14D
331
4AB
  5
14C
331
0
  5
14B
331
0
  5
14A
331
0
  5
149
331
0
  5
148
331
0
  5
147
331
0
  5
146
331
0
  5
145
331
0
  5
144
331
0
  5
143
331
0
  5
142
331
4B6
  5
141
331
4B7
  5
140
331
4B8
  5
13F
331
4B9
  5
13E
331
0
  5
13D
331
0
  5
13C
331
0
  5
13B
331
0
  5
13A
331
0
  5
139
331
4BF
  5
138
331
4C0
  5
137
331
4C1
  5
136
331
4C2
  5
135
331
4C3
  5
134
331
4C4
  5
133
331
4C5
  5
132
331
4C6
  5
131
331
4C7
  5
130
331
4C8
  5
12E
331
4C9
  5
12C
331
4CA
  5
12B
331
4CB
  5
12A
331
0
  5
129
331
0
  5
128
331
0
  5
127
331
0
  5
126
331
0
  5
125
331
0
  5
124
331
0
  5
123
331
0
  5
122
331
0
  5
121
331
0
  5
120
331
0
  5
11F
331
0
  5
11E
331
0
  5
11D
331
0
  5
11C
331
0
  5
11B
331
0
  5
11A
331
4DC
  5
119
331
4DD
  5
118
331
4DE
  5
117
331
4DF
  5
116
331
4E0
  5
115
331
4E1
  5
114
331
4E2
  5
113
331
4E3
  5
112
331
4E4
  5
10F
331
4E5
  5
10D
331
4E6
  5
10C
331
4E7
  5
510
331
50E
  5
511
331
50F
  5
512
331
510
  5
513
331
511
  5
514
331
512
  5
515
331
513
  5
516
331
514
  5
517
331
515
  5
518
331
516
  5
519
331
517
  5
51A
331
518
  5
51B
331
519
  5
51C
331
51A
  5
51D
331
51B
  5
51E
331
51C
  5
51F
331
51D
  5
520
331
51E
  5
521
331
51F
  5
522
331
520
  5
523
331
521
  5
524
331
0
  5
525
331
0
  5
529
331
0
  5
52A
331
0
  5
52E
331
52C
  5
52F
331
52D
  5
530
331
52E
  5
531
331
52F
  5
532
331
530
  5
533
331
531
  5
534
331
532
  5
535
331
533
  5
536
331
534
  5
537
331
535
  5
538
331
536
  5
539
331
537
  5
53A
331
538
  5
53B
331
539
  5
53C
331
53A
  5
53D
331
53B
  5
53E
331
53C
  5
53F
331
53D
  5
540
331
53E
  5
541
331
53F
  5
542
331
540
  5
546
331
541
  5
547
331
542
  5
548
331
546
  5
549
331
547
  5
54A
331
548
  5
54B
331
549
  5
54C
331
54A
  5
54D
331
54B
  5
54E
331
54C
  5
54F
331
54D
  5
550
331
54E
  5
551
331
54F
  5
552
331
550
  5
553
331
551
  5
555
331
552
  5
556
331
553
  5
557
331
555
  5
558
331
556
  5
559
331
557
  5
55A
331
558
  5
55B
331
559
  5
55C
331
55A
  5
55D
331
55B
  5
55E
331
55C
  5
55F
331
55D
  5
560
331
55E
  5
562
331
55F
  5
563
331
560
  5
564
331
0
  5
565
331
0
  5
566
331
0
  5
568
331
0
  5
569
331
0
  5
56A
331
0
  5
56B
331
0
  5
56C
331
0
  5
56D
331
0
  5
56E
331
0
  5
56F
331
0
  5
570
331
0
  5
571
331
0
  5
572
331
0
  5
573
331
0
  5
574
331
0
  5
575
331
0
  5
57E
331
580
  5
581
331
581
  5
582
331
582
  5
583
331
583
  5
584
331
584
  5
585
331
585
  5
586
331
586
  5
587
331
587
  5
588
331
588
  5
589
331
589
  5
58A
331
58A
  5
58B
331
58B
  5
58C
331
58C
  5
58D
331
58D
  5
58E
331
58E
  5
58F
331
58F
  5
590
331
590
  5
592
331
592
  5
593
331
593
  5
594
331
594
  5
595
331
595
  5
596
331
596
  5
597
331
597
  5
598
331
598
  5
59B
331
599
  5
59C
331
59A
  5
59E
331
59B
  5
59F
331
59C
  5
5A0
331
0
  5
5A1
331
0
  5
5A2
331
0
  5
5A3
331
0
  5
5A4
331
0
  5
5A5
331
0
  5
5A6
331
0
  5
5A7
331
0
  5
5A8
331
0
  5
5A9
331
0
  5
5AA
331
0
  5
5AB
331
0
  5
5AC
331
0
  5
5B3
331
0
  5
5B4
331
0
  5
5B5
331
0
  5
5B6
331
0
  5
5B7
331
0
  5
5B8
331
0
  5
5B9
331
0
  5
5BA
331
0
  5
5BB
331
0
  5
5BC
331
0
  5
5BD
331
0
  5
5BE
331
0
  5
5BF
331
0
  5
5C0
331
0
  5
5C1
331
0
  5
5C2
331
0
  5
5C3
331
0
  5
5C4
331
0
  5
5C5
331
0
  5
5C6
331
0
  5
5C7
331
0
  5
5C8
331
0
  5
5C9
331
0
  5
5CA
331
0
  5
5CB
331
0
  5
5CC
331
0
  5
5CD
331
0
  5
5CE
331
0
  5
5CF
331
0
  5
5D0
331
0
  5
5D1
331
0
  5
5D2
331
0
  5
5D3
331
0
  5
5D4
331
0
  5
5D5
331
0
  5
5D6
331
0
  5
5D7
331
0
  5
5D8
331
0
  5
5D9
  0
LAYOUT
  5
1D
102
{ACAD_REACTORS
330
1E
102
}
330
1E
100
AcDbPlotSettings
  1

  2
Bullzip PDF Printer.pc3
  4
A3
  6

 40
0.2
 41
0.0
 42
0.0
 43
0.0
 44
420.2
 45
297.1
 46
25.0
 47
12.0
 48
79.99999987333331
 49
0.0
140
1989.999995498333
141
1362.499996820833
142
1.0
143
5.0
 70
 11936
 72
     1
 73
     0
 74
     4
  7
monochrome.ctb
 75
     0
147
0.2
148
-79.99999987333331
149
0.0
100
AcDbLayout
  1
Model
 70
     0
 71
     0
 10
0.0
 20
0.0
 11
12.0
 21
9.0
 12
0.0
 22
0.0
 32
0.0
 14
122.4319258973571
 24
24.43305239161441
 34
0.0
 15
1495.36882541523
 25
1305.826726503656
 35
0.0
146
0.0
 13
0.0
 23
0.0
 33
0.0
 16
1.0
 26
0.0
 36
0.0
 17
0.0
 27
1.0
 37
0.0
 76
     0
330
17
331
2A
1001
ACAD_PSEXT
1000
Bullzip PDF Printer.pc3
1000
Bullzip PDF Printer
1000
BULLZIP
1000
Bullzip PDF Printer 10.1.0.1871
1070
     0
  0
LAYOUT
  5
22
102
{ACAD_REACTORS
330
1E
102
}
330
1E
100
AcDbPlotSettings
  1

  2
C:\Program Files\ACAD LT 2000\plotters\Draftpro-DXL (7575A).pc3
  4

  6

 40
0.0
 41
0.0
 42
0.0
 43
0.0
 44
0.0
 45
0.0
 46
0.0
 47
0.0
 48
0.0
 49
0.0
140
0.0
141
0.0
142
1.0
143
1.0
 70
   688
 72
     0
 73
     0
 74
     5
  7
monochrome.ctb
 75
    16
147
1.0
148
0.0
149
0.0
100
AcDbLayout
  1
ﾚｲｱｳﾄ1
 70
     0
 71
     1
 10
0.0
 20
0.0
 11
12.0
 21
9.0
 12
0.0
 22
0.0
 32
0.0
 14
1000000000000000E+20
 24
1000000000000000E+20
 34
1000000000000000E+20
 15
-1000000000000000E+20
 25
-1000000000000000E+20
 35
-1000000000000000E+20
146
0.0
 13
0.0
 23
0.0
 33
0.0
 16
1.0
 26
0.0
 36
0.0
 17
0.0
 27
1.0
 37
0.0
 76
     0
330
1F
  0
MATERIAL
  5
4F
102
{ACAD_REACTORS
330
7
102
}
102
{ACAD_XDICTIONARY
360
5FD
102
}
330
7
100
AcDbMaterial
  1
ByBlock
  0
MATERIAL
  5
10
102
{ACAD_REACTORS
330
7
102
}
102
{ACAD_XDICTIONARY
360
5F9
102
}
330
7
100
AcDbMaterial
  1
ByLayer
  0
MATERIAL
  5
6
102
{ACAD_REACTORS
330
7
102
}
102
{ACAD_XDICTIONARY
360
5FB
102
}
330
7
100
AcDbMaterial
  1
Global
1001
ACAD
1070
    -1
1070
     3
1070
     0
1000

1071
        0
  0
MLEADERSTYLE
  5
526
102
{ACAD_REACTORS
330
4EB
102
}
102
{ACAD_XDICTIONARY
360
62F
102
}
330
4EB
100
AcDbMLeaderStyle
170
     2
171
     1
172
     0
 90
        2
 40
0.0
 41
0.0
173
     1
 91
-1056964608
340
D
 92
       -2
290
     1
 42
0.09
291
     1
 43
0.36
  3
Standard
341
0
 44
0.18
300

342
E
174
     1
178
     6
175
     1
176
     0
 93
-1056964608
 45
0.18
292
     0
297
     0
 46
0.18
343
0
 94
-1056964608
 47
1.0
 49
1.0
140
1.0
293
     1
141
0.0
294
     1
177
     0
142
1.0
295
     0
296
     0
143
0.125
1001
ACAD_MLEADERVER
1070
     2
  0
MLINESTYLE
  5
14
102
{ACAD_REACTORS
330
15
102
}
330
15
100
AcDbMlineStyle
  2
STANDARD
 70
     0
  3

 62
     0
 51
90.0
 52
90.0
 71
     2
 49
0.5
 62
   256
  6
BYLAYER
 49
-0.5
 62
   256
  6
BYLAYER
  0
ACDBPLACEHOLDER
  5
3
102
{ACAD_REACTORS
330
4
102
}
330
4
  0
SCALE
  5
4E
102
{ACAD_REACTORS
330
2C
102
}
330
2C
100
AcDbScale
 70
     0
300
1:1
140
1.0
141
1.0
290
     1
  0
VISUALSTYLE
  5
4F3
102
{ACAD_REACTORS
330
29
102
}
102
{ACAD_XDICTIONARY
360
607
102
}
330
29
100
AcDbVisualStyle
  2
2dWireframe
 70
     4
 71
     0
 72
     2
 73
     0
 90
        0
 40
0.6
 41
30.0
 62
     5
 63
     7
 74
     1
 91
        4
 64
     7
 65
   257
 75
     1
175
     1
 42
1.0
 92
        0
 66
   257
 43
1.0
 76
     1
 77
     6
 78
     2
 67
     7
 79
     5
170
     0
171
     0
290
     0
174
     0
 93
        1
 44
0.0
173
     0
291
     0
 45
0.0
1001
ACAD
1000
AcDbSavedByObjectVersion
1070
     0
  0
VISUALSTYLE
  5
4F6
102
{ACAD_REACTORS
330
29
102
}
102
{ACAD_XDICTIONARY
360
60D
102
}
330
29
100
AcDbVisualStyle
  2
Basic
 70
     7
 71
     1
 72
     0
 73
     1
 90
        0
 40
0.6
 41
30.0
 62
     5
 63
     7
 74
     0
 91
        4
 64
     7
 65
   257
 75
     1
175
     1
 42
1.0
 92
        8
 66
     7
 43
1.0
 76
     1
 77
     6
 78
     2
 67
     7
 79
     5
170
     0
171
     0
290
     0
174
     0
 93
        1
 44
0.0
173
     0
291
     1
 45
0.0
1001
ACAD
1000
AcDbSavedByObjectVersion
1070
     0
  0
VISUALSTYLE
  5
4FA
102
{ACAD_REACTORS
330
29
102
}
102
{ACAD_XDICTIONARY
360
615
102
}
330
29
100
AcDbVisualStyle
  2
Brighten
 70
    12
 71
     2
 72
     2
 73
     0
 90
        0
 40
0.6
 41
30.0
 62
     5
 63
     7
 74
     1
 91
        4
 64
     7
 65
   257
 75
     1
175
     1
 42
1.0
 92
        8
 66
     7
 43
1.0
 76
     1
 77
     6
 78
     2
 67
     7
 79
     5
170
     0
171
     0
290
     0
174
     0
 93
        1
 44
50.0
173
     0
291
     1
 45
0.0
1001
ACAD
1000
AcDbSavedByObjectVersion
1070
     0
  0
VISUALSTYLE
  5
4FE
102
{ACAD_REACTORS
330
29
102
}
102
{ACAD_XDICTIONARY
360
61D
102
}
330
29
100
AcDbVisualStyle
  2
ColorChange
 70
    16
 71
     2
 72
     2
 73
     3
 90
        0
 40
0.6
 41
30.0
 62
     5
 63
     8
 74
     1
 91
        4
 64
     7
 65
   257
 75
     1
175
     1
 42
1.0
 92
        8
 66
     8
 43
1.0
 76
     1
 77
     6
 78
     2
 67
     7
 79
     5
170
     0
171
     0
290
     0
174
     0
 93
        1
 44
0.0
173
     0
291
     1
 45
0.0
1001
ACAD
1000
AcDbSavedByObjectVersion
1070
     0
  0
VISUALSTYLE
  5
4F8
102
{ACAD_REACTORS
330
29
102
}
102
{ACAD_XDICTIONARY
360
611
102
}
330
29
100
AcDbVisualStyle
  2
Conceptual
 70
     9
 71
     3
 72
     2
 73
     0
 90
        0
 40
0.6
 41
30.0
 62
     5
 63
     7
 74
     2
 91
        2
 64
     7
 65
   257
 75
     1
175
     1
 42
40.0
 92
        8
 66
     7
 43
1.0
 76
     1
 77
     6
 78
     2
 67
     7
 79
     3
170
     0
171
     0
290
     0
174
     0
 93
        1
 44
0.0
173
     0
291
     0
 45
0.0
1001
ACAD
1000
AcDbSavedByObjectVersion
1070
     0
  0
VISUALSTYLE
  5
4F9
102
{ACAD_REACTORS
330
29
102
}
102
{ACAD_XDICTIONARY
360
613
102
}
330
29
100
AcDbVisualStyle
  2
Dim
 70
    11
 71
     2
 72
     2
 73
     0
 90
        0
 40
0.6
 41
30.0
 62
     5
 63
     7
 74
     1
 91
        4
 64
     7
 65
   257
 75
     1
175
     1
 42
1.0
 92
        8
 66
     7
 43
1.0
 76
     1
 77
     6
 78
     2
 67
     7
 79
     5
170
     0
171
     0
290
     0
174
     0
 93
        1
 44
-50.0
173
     0
291
     1
 45
0.0
1001
ACAD
1000
AcDbSavedByObjectVersion
1070
     0
  0
VISUALSTYLE
  5
501
102
{ACAD_REACTORS
330
29
102
}
102
{ACAD_XDICTIONARY
360
623
102
}
330
29
100
AcDbVisualStyle
  2
EdgeColorOff
 70
    22
 71
     2
 72
     2
 73
     0
 90
        0
 40
0.6
 41
30.0
 62
     5
 63
     7
 74
     1
 91
        4
 64
     7
 65
   257
 75
     1
175
     1
 42
1.0
 92
        8
 66
     7
 43
1.0
 76
     1
 77
     6
 78
     2
 67
     7
 79
     5
170
     0
171
     0
290
     0
174
     0
 93
        1
 44
0.0
173
     0
291
     1
 45
0.0
1001
ACAD
1000
AcDbSavedByObjectVersion
1070
     0
  0
VISUALSTYLE
  5
4FD
102
{ACAD_REACTORS
330
29
102
}
102
{ACAD_XDICTIONARY
360
61B
102
}
330
29
100
AcDbVisualStyle
  2
Facepattern
 70
    15
 71
     2
 72
     2
 73
     0
 90
        0
 40
0.6
 41
30.0
 62
     5
 63
     7
 74
     1
 91
        4
 64
     7
 65
   257
 75
     1
175
     1
 42
1.0
 92
        8
 66
     7
 43
1.0
 76
     1
 77
     6
 78
     2
 67
     7
 79
     5
170
     0
171
     0
290
     0
174
     0
 93
        1
 44
0.0
173
     0
291
     1
 45
0.0
1001
ACAD
1000
AcDbSavedByObjectVersion
1070
     0
  0
VISUALSTYLE
  5
4EF
102
{ACAD_REACTORS
330
29
102
}
102
{ACAD_XDICTIONARY
360
5FF
102
}
330
29
100
AcDbVisualStyle
  2
Flat
 70
     0
 71
     2
 72
     1
 73
     1
 90
        2
 40
0.6
 41
30.0
 62
     5
 63
     7
 74
     0
 91
        4
 64
     7
 65
   257
 75
     1
175
     1
 42
1.0
 92
        8
 66
     7
 43
1.0
 76
     1
 77
     6
 78
     2
 67
     7
 79
     5
170
     0
171
     0
290
     0
174
     0
 93
       13
 44
0.0
173
     0
291
     1
 45
0.0
1001
ACAD
1000
AcDbSavedByObjectVersion
1070
     0
  0
VISUALSTYLE
  5
4F0
102
{ACAD_REACTORS
330
29
102
}
102
{ACAD_XDICTIONARY
360
601
102
}
330
29
100
AcDbVisualStyle
  2
FlatWithEdges
 70
     1
 71
     2
 72
     1
 73
     1
 90
        2
 40
0.6
 41
30.0
 62
     5
 63
     7
 74
     1
 91
        4
 64
     7
 65
   257
 75
     1
175
     1
 42
1.0
 92
        0
 66
   257
 43
1.0
 76
     1
 77
     6
 78
     2
 67
     7
 79
     5
170
     0
171
     0
290
     0
174
     0
 93
       13
 44
0.0
173
     0
291
     1
 45
0.0
1001
ACAD
1000
AcDbSavedByObjectVersion
1070
     0
  0
VISUALSTYLE
  5
4F1
102
{ACAD_REACTORS
330
29
102
}
102
{ACAD_XDICTIONARY
360
603
102
}
330
29
100
AcDbVisualStyle
  2
Gouraud
 70
     2
 71
     2
 72
     2
 73
     1
 90
        2
 40
0.6
 41
30.0
 62
     5
 63
     7
 74
     0
 91
        4
 64
     7
 65
   257
 75
     1
175
     1
 42
1.0
 92
        0
 66
     7
 43
1.0
 76
     1
 77
     6
 78
     2
 67
     7
 79
     5
170
     0
171
     0
290
     0
174
     0
 93
       13
 44
0.0
173
     0
291
     1
 45
0.0
1001
ACAD
1000
AcDbSavedByObjectVersion
1070
     0
  0
VISUALSTYLE
  5
4F2
102
{ACAD_REACTORS
330
29
102
}
102
{ACAD_XDICTIONARY
360
605
102
}
330
29
100
AcDbVisualStyle
  2
GouraudWithEdges
 70
     3
 71
     2
 72
     2
 73
     1
 90
        2
 40
0.6
 41
30.0
 62
     5
 63
     7
 74
     1
 91
        4
 64
     7
 65
   257
 75
     1
175
     1
 42
1.0
 92
        0
 66
   257
 43
1.0
 76
     1
 77
     6
 78
     2
 67
     7
 79
     5
170
     0
171
     0
290
     0
174
     0
 93
       13
 44
0.0
173
     0
291
     1
 45
0.0
1001
ACAD
1000
AcDbSavedByObjectVersion
1070
     0
  0
VISUALSTYLE
  5
4F5
102
{ACAD_REACTORS
330
29
102
}
102
{ACAD_XDICTIONARY
360
60B
102
}
330
29
100
AcDbVisualStyle
  2
Hidden
 70
     6
 71
     1
 72
     2
 73
     2
 90
        0
 40
0.6
 41
30.0
 62
     5
 63
     7
 74
     2
 91
        2
 64
     7
 65
   257
 75
     2
175
     1
 42
40.0
 92
        0
 66
   257
 43
1.0
 76
     1
 77
     6
 78
     2
 67
     7
 79
     3
170
     0
171
     0
290
     0
174
     0
 93
        1
 44
0.0
173
     0
291
     0
 45
0.0
1001
ACAD
1000
AcDbSavedByObjectVersion
1070
     0
  0
VISUALSTYLE
  5
4FF
102
{ACAD_REACTORS
330
29
102
}
102
{ACAD_XDICTIONARY
360
61F
102
}
330
29
100
AcDbVisualStyle
  2
JitterOff
 70
    20
 71
     2
 72
     2
 73
     0
 90
        0
 40
0.6
 41
30.0
 62
     5
 63
     7
 74
     1
 91
        4
 64
     7
 65
   257
 75
     1
175
     1
 42
1.0
 92
       10
 66
     7
 43
1.0
 76
     1
 77
     6
 78
     2
 67
     7
 79
     5
170
     0
171
     0
290
     0
174
     0
 93
        1
 44
0.0
173
     0
291
     1
 45
0.0
1001
ACAD
1000
AcDbSavedByObjectVersion
1070
     0
  0
VISUALSTYLE
  5
4FC
102
{ACAD_REACTORS
330
29
102
}
102
{ACAD_XDICTIONARY
360
619
102
}
330
29
100
AcDbVisualStyle
  2
Linepattern
 70
    14
 71
     2
 72
     2
 73
     0
 90
        0
 40
0.6
 41
30.0
 62
     5
 63
     7
 74
     1
 91
        4
 64
     7
 65
   257
 75
     7
175
     7
 42
1.0
 92
        8
 66
     7
 43
1.0
 76
     1
 77
     6
 78
     2
 67
     7
 79
     5
170
     0
171
     0
290
     0
174
     0
 93
        1
 44
0.0
173
     0
291
     1
 45
0.0
1001
ACAD
1000
AcDbSavedByObjectVersion
1070
     0
  0
VISUALSTYLE
  5
500
102
{ACAD_REACTORS
330
29
102
}
102
{ACAD_XDICTIONARY
360
621
102
}
330
29
100
AcDbVisualStyle
  2
OverhangOff
 70
    21
 71
     2
 72
     2
 73
     0
 90
        0
 40
0.6
 41
30.0
 62
     5
 63
     7
 74
     1
 91
        4
 64
     7
 65
   257
 75
     1
175
     1
 42
1.0
 92
        9
 66
     7
 43
1.0
 76
     1
 77
     6
 78
     2
 67
     7
 79
     5
170
     0
171
     0
290
     0
174
     0
 93
        1
 44
0.0
173
     0
291
     1
 45
0.0
1001
ACAD
1000
AcDbSavedByObjectVersion
1070
     0
  0
VISUALSTYLE
  5
4F7
102
{ACAD_REACTORS
330
29
102
}
102
{ACAD_XDICTIONARY
360
60F
102
}
330
29
100
AcDbVisualStyle
  2
Realistic
 70
     8
 71
     2
 72
     3
 73
     0
 90
        2
 40
0.6
 41
30.0
 62
     5
 63
     7
 74
     0
 91
        0
 64
     7
 65
   257
 75
     1
175
     1
 42
1.0
 92
        8
 66
   257
 43
1.0
 76
     1
 77
     6
 78
     2
 67
     7
 79
     3
170
     0
171
     0
290
     0
174
     0
 93
       13
 44
0.0
173
     0
291
     0
 45
0.0
1001
ACAD
1000
AcDbSavedByObjectVersion
1070
     0
  0
VISUALSTYLE
  5
506
102
{ACAD_REACTORS
330
29
102
}
102
{ACAD_XDICTIONARY
360
62D
102
}
330
29
100
AcDbVisualStyle
  2
Shaded
 70
    27
 71
     2
 72
     2
 73
     1
 90
        2
 40
0.6
 41
30.0
 62
     5
 63
     7
 74
     0
 91
        4
 64
     7
 65
   257
 75
     1
175
     1
 42
1.0
 92
        8
 66
   257
 43
1.0
 76
     1
 77
     6
 78
     2
 67
   251
 79
     3
170
     0
171
     0
290
     0
174
     0
 93
        5
 44
0.0
173
     0
291
     0
 45
0.0
1001
ACAD
1000
AcDbSavedByObjectVersion
1070
     0
  0
VISUALSTYLE
  5
505
102
{ACAD_REACTORS
330
29
102
}
102
{ACAD_XDICTIONARY
360
62B
102
}
330
29
100
AcDbVisualStyle
  2
Shaded with edges
 70
    26
 71
     2
 72
     2
 73
     1
 90
        2
 40
0.6
 41
30.0
 62
     5
 63
     7
 74
     1
 91
       10
 64
     7
 65
   257
 75
     2
175
     1
 42
1.0
 92
        8
 66
   257
 43
1.0
 76
     1
 77
     6
 78
     2
 67
     7
 79
     3
170
     0
171
     0
290
     0
174
     0
 93
        5
 44
0.0
173
     0
291
     0
 45
0.0
1001
ACAD
1000
AcDbSavedByObjectVersion
1070
     0
  0
VISUALSTYLE
  5
502
102
{ACAD_REACTORS
330
29
102
}
102
{ACAD_XDICTIONARY
360
625
102
}
330
29
100
AcDbVisualStyle
  2
Shades of Gray
 70
    23
 71
     2
 72
     2
 73
     3
 90
        0
 40
0.6
 41
30.0
 62
     5
 63
     7
 74
     2
 91
        2
 64
     7
 65
     7
 75
     1
175
     1
 42
40.0
 92
        8
 66
     7
 43
1.0
 76
     1
 77
     6
 78
     2
 67
     7
 79
     3
170
     0
171
     0
290
     0
174
     0
 93
        1
 44
0.0
173
     0
291
     0
 45
0.0
1001
ACAD
1000
AcDbSavedByObjectVersion
1070
     0
  0
VISUALSTYLE
  5
503
102
{ACAD_REACTORS
330
29
102
}
102
{ACAD_XDICTIONARY
360
627
102
}
330
29
100
AcDbVisualStyle
  2
Sketchy
 70
    24
 71
     1
 72
     2
 73
     2
 90
        0
 40
0.6
 41
30.0
 62
     5
 63
     7
 74
     2
 91
        2
 64
     7
 65
     7
 75
     1
175
     1
 42
40.0
 92
       11
 66
     7
 43
1.0
 76
     1
 77
     6
 78
     2
 67
     7
 79
     6
170
     0
171
     0
290
     0
174
     0
 93
        1
 44
0.0
173
     0
291
     0
 45
0.0
1001
ACAD
1000
AcDbSavedByObjectVersion
1070
     0
  0
VISUALSTYLE
  5
4FB
102
{ACAD_REACTORS
330
29
102
}
102
{ACAD_XDICTIONARY
360
617
102
}
330
29
100
AcDbVisualStyle
  2
Thicken
 70
    13
 71
     2
 72
     2
 73
     0
 90
        0
 40
0.6
 41
30.0
 62
     5
 63
     7
 74
     1
 91
        4
 64
     7
 65
   257
 75
     1
175
     1
 42
1.0
 92
       12
 66
     7
 43
1.0
 76
     1
 77
     6
 78
     2
 67
     7
 79
     5
170
     0
171
     0
290
     0
174
     0
 93
        1
 44
0.0
173
     0
291
     1
 45
0.0
1001
ACAD
1000
AcDbSavedByObjectVersion
1070
     0
  0
VISUALSTYLE
  5
4F4
102
{ACAD_REACTORS
330
29
102
}
102
{ACAD_XDICTIONARY
360
609
102
}
330
29
100
AcDbVisualStyle
  2
Wireframe
 70
     5
 71
     0
 72
     2
 73
     0
 90
        0
 40
0.6
 41
30.0
 62
     5
 63
     7
 74
     1
 91
        4
 64
     7
 65
   257
 75
     1
175
     1
 42
1.0
 92
        0
 66
   257
 43
1.0
 76
     1
 77
     6
 78
     2
 67
     7
 79
     5
170
     0
171
     0
290
     0
174
     0
 93
        1
 44
0.0
173
     0
291
     0
 45
0.0
1001
ACAD
1000
AcDbSavedByObjectVersion
1070
     0
  0
VISUALSTYLE
  5
504
102
{ACAD_REACTORS
330
29
102
}
102
{ACAD_XDICTIONARY
360
629
102
}
330
29
100
AcDbVisualStyle
  2
X-Ray
 70
    25
 71
     2
 72
     2
 73
     1
 90
        1
 40
0.5
 41
30.0
 62
     5
 63
     7
 74
     1
 91
        0
 64
     7
 65
   257
 75
     1
175
     1
 42
1.0
 92
        8
 66
     7
 43
1.0
 76
     1
 77
     6
 78
     2
 67
     7
 79
     3
170
     0
171
     0
290
     0
174
     0
 93
       13
 44
0.0
173
     0
291
     0
 45
0.0
1001
ACAD
1000
AcDbSavedByObjectVersion
1070
     0
  0
XRECORD
  5
5F3
102
{ACAD_REACTORS
330
5F2
102
}
330
5F2
100
AcDbXrecord
280
     1
340
28
  0
XRECORD
  5
5F4
102
{ACAD_REACTORS
330
5F2
102
}
330
5F2
100
AcDbXrecord
280
     1
340
7
  0
DICTIONARYVAR
  5
4E9
102
{ACAD_REACTORS
330
4E8
102
}
330
4E8
100
DictionaryVariables
280
     0
  1
1:1
  0
DICTIONARYVAR
  5
528
102
{ACAD_REACTORS
330
4E8
102
}
330
4E8
100
DictionaryVariables
280
     0
  1
Standard
  0
DICTIONARYVAR
  5
5F0
102
{ACAD_REACTORS
330
4E8
102
}
330
4E8
100
DictionaryVariables
280
     0
  1
0
  0
DICTIONARYVAR
  5
5F1
102
{ACAD_REACTORS
330
4E8
102
}
330
4E8
100
DictionaryVariables
280
     0
  1
1
  0
DICTIONARYVAR
  5
5F8
102
{ACAD_REACTORS
330
4E8
102
}
330
4E8
100
DictionaryVariables
280
     0
  1
1
  0
DICTIONARYVAR
  5
4EC
102
{ACAD_REACTORS
330
4E8
102
}
330
4E8
100
DictionaryVariables
280
     0
  1
0
  0
DICTIONARY
  5
5FD
330
4F
100
AcDbDictionary
280
     1
281
     1
  3
ACAD_XREC_ROUNDTRIP
360
5FE
  0
DICTIONARY
  5
5F9
330
10
100
AcDbDictionary
280
     1
281
     1
  3
ACAD_XREC_ROUNDTRIP
360
5FA
  0
DICTIONARY
  5
5FB
330
6
100
AcDbDictionary
280
     1
281
     1
  3
ACAD_XREC_ROUNDTRIP
360
5FC
  0
DICTIONARY
  5
62F
330
526
100
AcDbDictionary
280
     1
281
     1
  3
ACAD_XREC_ROUNDTRIP
360
630
  0
DICTIONARY
  5
607
330
4F3
100
AcDbDictionary
280
     1
281
     1
  3
ACAD_XREC_ROUNDTRIP
360
608
  0
DICTIONARY
  5
60D
330
4F6
100
AcDbDictionary
280
     1
281
     1
  3
ACAD_XREC_ROUNDTRIP
360
60E
  0
DICTIONARY
  5
615
330
4FA
100
AcDbDictionary
280
     1
281
     1
  3
ACAD_XREC_ROUNDTRIP
360
616
  0
DICTIONARY
  5
61D
330
4FE
100
AcDbDictionary
280
     1
281
     1
  3
ACAD_XREC_ROUNDTRIP
360
61E
  0
DICTIONARY
  5
611
330
4F8
100
AcDbDictionary
280
     1
281
     1
  3
ACAD_XREC_ROUNDTRIP
360
612
  0
DICTIONARY
  5
613
330
4F9
100
AcDbDictionary
280
     1
281
     1
  3
ACAD_XREC_ROUNDTRIP
360
614
  0
DICTIONARY
  5
623
330
501
100
AcDbDictionary
280
     1
281
     1
  3
ACAD_XREC_ROUNDTRIP
360
624
  0
DICTIONARY
  5
61B
330
4FD
100
AcDbDictionary
280
     1
281
     1
  3
ACAD_XREC_ROUNDTRIP
360
61C
  0
DICTIONARY
  5
5FF
330
4EF
100
AcDbDictionary
280
     1
281
     1
  3
ACAD_XREC_ROUNDTRIP
360
600
  0
DICTIONARY
  5
601
330
4F0
100
AcDbDictionary
280
     1
281
     1
  3
ACAD_XREC_ROUNDTRIP
360
602
  0
DICTIONARY
  5
603
330
4F1
100
AcDbDictionary
280
     1
281
     1
  3
ACAD_XREC_ROUNDTRIP
360
604
  0
DICTIONARY
  5
605
330
4F2
100
AcDbDictionary
280
     1
281
     1
  3
ACAD_XREC_ROUNDTRIP
360
606
  0
DICTIONARY
  5
60B
330
4F5
100
AcDbDictionary
280
     1
281
     1
  3
ACAD_XREC_ROUNDTRIP
360
60C
  0
DICTIONARY
  5
61F
330
4FF
100
AcDbDictionary
280
     1
281
     1
  3
ACAD_XREC_ROUNDTRIP
360
620
  0
DICTIONARY
  5
619
330
4FC
100
AcDbDictionary
280
     1
281
     1
  3
ACAD_XREC_ROUNDTRIP
360
61A
  0
DICTIONARY
  5
621
330
500
100
AcDbDictionary
280
     1
281
     1
  3
ACAD_XREC_ROUNDTRIP
360
622
  0
DICTIONARY
  5
60F
330
4F7
100
AcDbDictionary
280
     1
281
     1
  3
ACAD_XREC_ROUNDTRIP
360
610
  0
DICTIONARY
  5
62D
330
506
100
AcDbDictionary
280
     1
281
     1
  3
ACAD_XREC_ROUNDTRIP
360
62E
  0
DICTIONARY
  5
62B
330
505
100
AcDbDictionary
280
     1
281
     1
  3
ACAD_XREC_ROUNDTRIP
360
62C
  0
DICTIONARY
  5
625
330
502
100
AcDbDictionary
280
     1
281
     1
  3
ACAD_XREC_ROUNDTRIP
360
626
  0
DICTIONARY
  5
627
330
503
100
AcDbDictionary
280
     1
281
     1
  3
ACAD_XREC_ROUNDTRIP
360
628
  0
DICTIONARY
  5
617
330
4FB
100
AcDbDictionary
280
     1
281
     1
  3
ACAD_XREC_ROUNDTRIP
360
618
  0
DICTIONARY
  5
609
330
4F4
100
AcDbDictionary
280
     1
281
     1
  3
ACAD_XREC_ROUNDTRIP
360
60A
  0
DICTIONARY
  5
629
330
504
100
AcDbDictionary
280
     1
281
     1
  3
ACAD_XREC_ROUNDTRIP
360
62A
  0
XRECORD
  5
5FE
102
{ACAD_REACTORS
330
5FD
102
}
330
5FD
100
AcDbXrecord
280
     1
102
MATERIAL
148
0.0
149
0.0
149
0.0
 93
        0
 94
      127
282
     0
 72
     1
 77
     1
171
     1
175
     1
179
     1
273
     0
  0
XRECORD
  5
5FA
102
{ACAD_REACTORS
330
5F9
102
}
330
5F9
100
AcDbXrecord
280
     1
102
MATERIAL
148
0.0
149
0.0
149
0.0
 93
        0
 94
      127
282
     0
 72
     1
 77
     1
171
     1
175
     1
179
     1
273
     0
  0
XRECORD
  5
5FC
102
{ACAD_REACTORS
330
5FB
102
}
330
5FB
100
AcDbXrecord
280
     1
102
MATERIAL
148
0.0
149
0.0
149
0.0
 93
        0
 94
      127
282
     0
 72
     1
 77
     1
171
     1
175
     1
179
     1
273
     0
  0
XRECORD
  5
630
102
{ACAD_REACTORS
330
62F
102
}
330
62F
100
AcDbXrecord
280
     1
102
ACAD_ROUNDTRIP_2010_MLEADER_STYLE
  0
XRECORD
  5
608
102
{ACAD_REACTORS
330
607
102
}
330
607
100
AcDbXrecord
280
     1
102
RTVSPropertyOp0
 70
     1
102
RTVSPropertyOp1
 70
     1
102
RTVSPropertyOp2
 70
     1
102
RTVSPropertyOp3
 70
     1
102
RTVSPropertyOp4
 70
     1
102
RTVSPropertyOp5
 70
     1
102
RTVSPropertyOp6
 70
     1
102
RTVSPropertyOp7
 70
     1
102
RTVSPropertyOp8
 70
     1
102
RTVSPropertyOp9
 70
     1
102
RTVSPropertyOp10
 70
     1
102
RTVSPropertyOp11
 70
     1
102
RTVSPropertyOp12
 70
     1
102
RTVSPropertyOp13
 70
     1
102
RTVSPropertyOp14
 70
     1
102
RTVSPropertyOp15
 70
     1
102
RTVSPropertyOp16
 70
     1
102
RTVSPropertyOp17
 70
     1
102
RTVSPropertyOp18
 70
     1
102
RTVSPropertyOp19
 70
     1
102
RTVSPropertyOp20
 70
     1
102
RTVSPropertyOp21
 70
     1
102
RTVSPropertyOp22
 70
     1
102
RTVSPropertyOp23
 70
     1
102
RTVSPropertyOp24
 70
     1
102
RTVSPropertyOp25
 70
     1
102
RTVSPropertyOp26
 70
     1
102
RTVSPropertyOp27
 70
     1
102
RTVSPropertyOp28
 70
     1
102
RTVSPropertyOp29
 70
     1
102
RTVSPropertyOp30
 70
     1
102
RTVSPropertyOp31
 70
     1
102
RTVSPropertyOp32
 70
     1
102
RTVSPropertyOp33
 70
     1
102
RTVSPropertyOp34
 70
     1
102
RTVSPropertyOp35
 70
     1
102
RTVSPropertyOp36
 70
     1
102
RTVSPropertyOp37
 70
     1
102
RTVSPropertyOp38
 70
     1
102
RTVSPropertyOp39
 70
     1
102
RTVSPropertyOp40
 70
     1
102
RTVSPropertyOp41
 70
     1
102
RTVSPropertyOp42
 70
     1
102
RTVSPropertyOp43
 70
     1
102
RTVSPropertyOp44
 70
     1
102
RTVSPropertyOp45
 70
     1
102
RTVSPropertyOp46
 70
     1
102
RTVSPropertyOp47
 70
     1
102
RTVSPropertyOp48
 70
     1
102
RTVSPropertyOp49
 70
     1
102
RTVSPropertyOp50
 70
     1
102
RTVSPropertyOp51
 70
     0
102
RTVSPropertyOp52
 70
     0
102
RTVSPropertyOp53
 70
     1
102
RTVSPropertyOp54
 70
     1
102
RTVSPropertyOp55
 70
     1
102
RTVSPropertyOp56
 70
     1
102
RTVSPropertyOp57
 70
     1
102
RTVSPost2010Prop28
280
     1
102
RTVSPost2010PropOp28
 70
     1
102
RTVSPost2010Prop29
280
     1
102
RTVSPost2010PropOp29
 70
     1
102
RTVSPost2010Prop30
280
     0
102
RTVSPost2010PropOp30
 70
     1
102
RTVSPost2010Prop31
280
     0
102
RTVSPost2010PropOp31
 70
     1
102
RTVSPost2010Prop32
280
     0
102
RTVSPost2010PropOp32
 70
     1
102
RTVSPost2010Prop33
280
     0
102
RTVSPost2010PropOp33
 70
     1
102
RTVSPost2010Prop34
280
     0
102
RTVSPost2010PropOp34
 70
     1
102
RTVSPost2010Prop35
280
     0
102
RTVSPost2010PropOp35
 70
     1
102
RTVSPost2010Prop36
280
     0
102
RTVSPost2010PropOp36
 70
     1
102
RTVSPost2010Prop37
 90
       50
102
RTVSPost2010PropOp37
 70
     1
102
RTVSPost2010Prop38
140
0.0
102
RTVSPost2010PropOp38
 70
     1
102
RTVSPost2010Prop39
140
1.0
102
RTVSPost2010PropOp39
 70
     1
102
RTVSPost2010Prop40
 90
        0
102
RTVSPost2010PropOp40
 70
     1
102
RTVSPost2010Prop41ColorIndex
 90
       18
102
RTVSPost2010Prop41ColorRGB
 90
        0
102
RTVSPost2010PropOp41
 70
     1
102
RTVSPost2010Prop42
 90
       50
102
RTVSPost2010PropOp42
 70
     1
102
RTVSPost2010Prop43
 90
        3
102
RTVSPost2010PropOp43
 70
     1
102
RTVSPost2010Prop44ColorIndex
 90
        5
102
RTVSPost2010Prop44ColorRGB
 90
      255
102
RTVSPost2010PropOp44
 70
     1
102
RTVSPost2010Prop45
280
     0
102
RTVSPost2010PropOp45
 70
     1
102
RTVSPost2010Prop46
 90
       50
102
RTVSPost2010PropOp46
 70
     1
102
RTVSPost2010Prop47
 90
       50
102
RTVSPost2010PropOp47
 70
     1
102
RTVSPost2010Prop48
 90
       50
102
RTVSPost2010PropOp48
 70
     1
102
RTVSPost2010Prop49
280
     0
102
RTVSPost2010PropOp49
 70
     1
102
RTVSPost2010Prop50
 90
       50
102
RTVSPost2010PropOp50
 70
     1
102
RTVSPost2010Prop51ColorIndex
 90
      256
102
RTVSPost2010Prop51ColorRGB
 90
-16777216
102
RTVSPost2010PropOp51
 70
     0
102
RTVSPost2010Prop52
140
1.0
102
RTVSPost2010PropOp52
 70
     0
102
RTVSPost2010Prop53
 90
        2
102
RTVSPost2010PropOp53
 70
     1
102
RTVSPost2010Prop54
  1
strokes_ogs.tif
102
RTVSPost2010PropOp54
 70
     1
102
RTVSPost2010Prop55
280
     0
102
RTVSPost2010PropOp55
 70
     1
102
RTVSPost2010Prop56
140
1.0
102
RTVSPost2010PropOp56
 70
     1
102
RTVSPost2010Prop57
140
1.0
102
RTVSPost2010PropOp57
 70
     1
  0
XRECORD
  5
60E
102
{ACAD_REACTORS
330
60D
102
}
330
60D
100
AcDbXrecord
280
     1
102
RTVSPropertyOp0
 70
     1
102
RTVSPropertyOp1
 70
     1
102
RTVSPropertyOp2
 70
     1
102
RTVSPropertyOp3
 70
     1
102
RTVSPropertyOp4
 70
     1
102
RTVSPropertyOp5
 70
     1
102
RTVSPropertyOp6
 70
     1
102
RTVSPropertyOp7
 70
     1
102
RTVSPropertyOp8
 70
     1
102
RTVSPropertyOp9
 70
     1
102
RTVSPropertyOp10
 70
     1
102
RTVSPropertyOp11
 70
     1
102
RTVSPropertyOp12
 70
     1
102
RTVSPropertyOp13
 70
     1
102
RTVSPropertyOp14
 70
     1
102
RTVSPropertyOp15
 70
     1
102
RTVSPropertyOp16
 70
     1
102
RTVSPropertyOp17
 70
     1
102
RTVSPropertyOp18
 70
     1
102
RTVSPropertyOp19
 70
     1
102
RTVSPropertyOp20
 70
     1
102
RTVSPropertyOp21
 70
     1
102
RTVSPropertyOp22
 70
     1
102
RTVSPropertyOp23
 70
     1
102
RTVSPropertyOp24
 70
     1
102
RTVSPropertyOp25
 70
     1
102
RTVSPropertyOp26
 70
     1
102
RTVSPropertyOp27
 70
     1
102
RTVSPropertyOp28
 70
     1
102
RTVSPropertyOp29
 70
     1
102
RTVSPropertyOp30
 70
     1
102
RTVSPropertyOp31
 70
     1
102
RTVSPropertyOp32
 70
     1
102
RTVSPropertyOp33
 70
     1
102
RTVSPropertyOp34
 70
     1
102
RTVSPropertyOp35
 70
     1
102
RTVSPropertyOp36
 70
     1
102
RTVSPropertyOp37
 70
     1
102
RTVSPropertyOp38
 70
     1
102
RTVSPropertyOp39
 70
     1
102
RTVSPropertyOp40
 70
     1
102
RTVSPropertyOp41
 70
     1
102
RTVSPropertyOp42
 70
     1
102
RTVSPropertyOp43
 70
     1
102
RTVSPropertyOp44
 70
     1
102
RTVSPropertyOp45
 70
     1
102
RTVSPropertyOp46
 70
     1
102
RTVSPropertyOp47
 70
     1
102
RTVSPropertyOp48
 70
     1
102
RTVSPropertyOp49
 70
     1
102
RTVSPropertyOp50
 70
     1
102
RTVSPropertyOp51
 70
     0
102
RTVSPropertyOp52
 70
     0
102
RTVSPropertyOp53
 70
     1
102
RTVSPropertyOp54
 70
     1
102
RTVSPropertyOp55
 70
     1
102
RTVSPropertyOp56
 70
     1
102
RTVSPropertyOp57
 70
     1
102
RTVSPost2010Prop28
280
     0
102
RTVSPost2010PropOp28
 70
     1
102
RTVSPost2010Prop29
280
     1
102
RTVSPost2010PropOp29
 70
     1
102
RTVSPost2010Prop30
280
     1
102
RTVSPost2010PropOp30
 70
     1
102
RTVSPost2010Prop31
280
     0
102
RTVSPost2010PropOp31
 70
     1
102
RTVSPost2010Prop32
280
     0
102
RTVSPost2010PropOp32
 70
     1
102
RTVSPost2010Prop33
280
     0
102
RTVSPost2010PropOp33
 70
     1
102
RTVSPost2010Prop34
280
     0
102
RTVSPost2010PropOp34
 70
     1
102
RTVSPost2010Prop35
280
     0
102
RTVSPost2010PropOp35
 70
     1
102
RTVSPost2010Prop36
280
     0
102
RTVSPost2010PropOp36
 70
     1
102
RTVSPost2010Prop37
 90
       50
102
RTVSPost2010PropOp37
 70
     1
102
RTVSPost2010Prop38
140
0.0
102
RTVSPost2010PropOp38
 70
     1
102
RTVSPost2010Prop39
140
1.0
102
RTVSPost2010PropOp39
 70
     1
102
RTVSPost2010Prop40
 90
        0
102
RTVSPost2010PropOp40
 70
     1
102
RTVSPost2010Prop41ColorIndex
 90
       18
102
RTVSPost2010Prop41ColorRGB
 90
        0
102
RTVSPost2010PropOp41
 70
     1
102
RTVSPost2010Prop42
 90
       50
102
RTVSPost2010PropOp42
 70
     1
102
RTVSPost2010Prop43
 90
        3
102
RTVSPost2010PropOp43
 70
     1
102
RTVSPost2010Prop44ColorIndex
 90
        5
102
RTVSPost2010Prop44ColorRGB
 90
      255
102
RTVSPost2010PropOp44
 70
     1
102
RTVSPost2010Prop45
280
     0
102
RTVSPost2010PropOp45
 70
     1
102
RTVSPost2010Prop46
 90
       50
102
RTVSPost2010PropOp46
 70
     1
102
RTVSPost2010Prop47
 90
       50
102
RTVSPost2010PropOp47
 70
     1
102
RTVSPost2010Prop48
 90
       50
102
RTVSPost2010PropOp48
 70
     1
102
RTVSPost2010Prop49
280
     0
102
RTVSPost2010PropOp49
 70
     1
102
RTVSPost2010Prop50
 90
       50
102
RTVSPost2010PropOp50
 70
     1
102
RTVSPost2010Prop51ColorIndex
 90
      256
102
RTVSPost2010Prop51ColorRGB
 90
-16777216
102
RTVSPost2010PropOp51
 70
     0
102
RTVSPost2010Prop52
140
1.0
102
RTVSPost2010PropOp52
 70
     0
102
RTVSPost2010Prop53
 90
        2
102
RTVSPost2010PropOp53
 70
     1
102
RTVSPost2010Prop54
  1
strokes_ogs.tif
102
RTVSPost2010PropOp54
 70
     1
102
RTVSPost2010Prop55
280
     0
102
RTVSPost2010PropOp55
 70
     1
102
RTVSPost2010Prop56
140
1.0
102
RTVSPost2010PropOp56
 70
     1
102
RTVSPost2010Prop57
140
1.0
102
RTVSPost2010PropOp57
 70
     1
  0
XRECORD
  5
616
102
{ACAD_REACTORS
330
615
102
}
330
615
100
AcDbXrecord
280
     1
102
RTVSPropertyOp0
 70
     1
102
RTVSPropertyOp1
 70
     1
102
RTVSPropertyOp2
 70
     1
102
RTVSPropertyOp3
 70
     1
102
RTVSPropertyOp4
 70
     1
102
RTVSPropertyOp5
 70
     1
102
RTVSPropertyOp6
 70
     1
102
RTVSPropertyOp7
 70
     1
102
RTVSPropertyOp8
 70
     1
102
RTVSPropertyOp9
 70
     1
102
RTVSPropertyOp10
 70
     1
102
RTVSPropertyOp11
 70
     1
102
RTVSPropertyOp12
 70
     1
102
RTVSPropertyOp13
 70
     1
102
RTVSPropertyOp14
 70
     1
102
RTVSPropertyOp15
 70
     1
102
RTVSPropertyOp16
 70
     1
102
RTVSPropertyOp17
 70
     1
102
RTVSPropertyOp18
 70
     1
102
RTVSPropertyOp19
 70
     1
102
RTVSPropertyOp20
 70
     1
102
RTVSPropertyOp21
 70
     1
102
RTVSPropertyOp22
 70
     1
102
RTVSPropertyOp23
 70
     1
102
RTVSPropertyOp24
 70
     1
102
RTVSPropertyOp25
 70
     1
102
RTVSPropertyOp26
 70
     1
102
RTVSPropertyOp27
 70
     1
102
RTVSPropertyOp28
 70
     1
102
RTVSPropertyOp29
 70
     1
102
RTVSPropertyOp30
 70
     1
102
RTVSPropertyOp31
 70
     1
102
RTVSPropertyOp32
 70
     1
102
RTVSPropertyOp33
 70
     1
102
RTVSPropertyOp34
 70
     1
102
RTVSPropertyOp35
 70
     1
102
RTVSPropertyOp36
 70
     1
102
RTVSPropertyOp37
 70
     1
102
RTVSPropertyOp38
 70
     1
102
RTVSPropertyOp39
 70
     1
102
RTVSPropertyOp40
 70
     1
102
RTVSPropertyOp41
 70
     1
102
RTVSPropertyOp42
 70
     1
102
RTVSPropertyOp43
 70
     1
102
RTVSPropertyOp44
 70
     1
102
RTVSPropertyOp45
 70
     1
102
RTVSPropertyOp46
 70
     1
102
RTVSPropertyOp47
 70
     1
102
RTVSPropertyOp48
 70
     1
102
RTVSPropertyOp49
 70
     1
102
RTVSPropertyOp50
 70
     1
102
RTVSPropertyOp51
 70
     0
102
RTVSPropertyOp52
 70
     0
102
RTVSPropertyOp53
 70
     1
102
RTVSPropertyOp54
 70
     1
102
RTVSPropertyOp55
 70
     1
102
RTVSPropertyOp56
 70
     1
102
RTVSPropertyOp57
 70
     1
102
RTVSPost2010Prop28
280
     0
102
RTVSPost2010PropOp28
 70
     1
102
RTVSPost2010Prop29
280
     1
102
RTVSPost2010PropOp29
 70
     1
102
RTVSPost2010Prop30
280
     1
102
RTVSPost2010PropOp30
 70
     1
102
RTVSPost2010Prop31
280
     0
102
RTVSPost2010PropOp31
 70
     1
102
RTVSPost2010Prop32
280
     0
102
RTVSPost2010PropOp32
 70
     1
102
RTVSPost2010Prop33
280
     0
102
RTVSPost2010PropOp33
 70
     1
102
RTVSPost2010Prop34
280
     0
102
RTVSPost2010PropOp34
 70
     1
102
RTVSPost2010Prop35
280
     0
102
RTVSPost2010PropOp35
 70
     1
102
RTVSPost2010Prop36
280
     0
102
RTVSPost2010PropOp36
 70
     1
102
RTVSPost2010Prop37
 90
       50
102
RTVSPost2010PropOp37
 70
     1
102
RTVSPost2010Prop38
140
0.0
102
RTVSPost2010PropOp38
 70
     1
102
RTVSPost2010Prop39
140
1.0
102
RTVSPost2010PropOp39
 70
     1
102
RTVSPost2010Prop40
 90
        0
102
RTVSPost2010PropOp40
 70
     1
102
RTVSPost2010Prop41ColorIndex
 90
       18
102
RTVSPost2010Prop41ColorRGB
 90
        0
102
RTVSPost2010PropOp41
 70
     1
102
RTVSPost2010Prop42
 90
       50
102
RTVSPost2010PropOp42
 70
     1
102
RTVSPost2010Prop43
 90
        3
102
RTVSPost2010PropOp43
 70
     1
102
RTVSPost2010Prop44ColorIndex
 90
        5
102
RTVSPost2010Prop44ColorRGB
 90
      255
102
RTVSPost2010PropOp44
 70
     1
102
RTVSPost2010Prop45
280
     0
102
RTVSPost2010PropOp45
 70
     1
102
RTVSPost2010Prop46
 90
       50
102
RTVSPost2010PropOp46
 70
     1
102
RTVSPost2010Prop47
 90
       50
102
RTVSPost2010PropOp47
 70
     1
102
RTVSPost2010Prop48
 90
       50
102
RTVSPost2010PropOp48
 70
     1
102
RTVSPost2010Prop49
280
     0
102
RTVSPost2010PropOp49
 70
     1
102
RTVSPost2010Prop50
 90
       50
102
RTVSPost2010PropOp50
 70
     1
102
RTVSPost2010Prop51ColorIndex
 90
      256
102
RTVSPost2010Prop51ColorRGB
 90
-16777216
102
RTVSPost2010PropOp51
 70
     0
102
RTVSPost2010Prop52
140
1.0
102
RTVSPost2010PropOp52
 70
     0
102
RTVSPost2010Prop53
 90
        2
102
RTVSPost2010PropOp53
 70
     1
102
RTVSPost2010Prop54
  1
strokes_ogs.tif
102
RTVSPost2010PropOp54
 70
     1
102
RTVSPost2010Prop55
280
     0
102
RTVSPost2010PropOp55
 70
     1
102
RTVSPost2010Prop56
140
1.0
102
RTVSPost2010PropOp56
 70
     1
102
RTVSPost2010Prop57
140
1.0
102
RTVSPost2010PropOp57
 70
     1
  0
XRECORD
  5
61E
102
{ACAD_REACTORS
330
61D
102
}
330
61D
100
AcDbXrecord
280
     1
102
RTVSPropertyOp0
 70
     1
102
RTVSPropertyOp1
 70
     1
102
RTVSPropertyOp2
 70
     1
102
RTVSPropertyOp3
 70
     1
102
RTVSPropertyOp4
 70
     1
102
RTVSPropertyOp5
 70
     1
102
RTVSPropertyOp6
 70
     1
102
RTVSPropertyOp7
 70
     1
102
RTVSPropertyOp8
 70
     1
102
RTVSPropertyOp9
 70
     1
102
RTVSPropertyOp10
 70
     1
102
RTVSPropertyOp11
 70
     1
102
RTVSPropertyOp12
 70
     1
102
RTVSPropertyOp13
 70
     1
102
RTVSPropertyOp14
 70
     1
102
RTVSPropertyOp15
 70
     1
102
RTVSPropertyOp16
 70
     1
102
RTVSPropertyOp17
 70
     1
102
RTVSPropertyOp18
 70
     1
102
RTVSPropertyOp19
 70
     1
102
RTVSPropertyOp20
 70
     1
102
RTVSPropertyOp21
 70
     1
102
RTVSPropertyOp22
 70
     1
102
RTVSPropertyOp23
 70
     1
102
RTVSPropertyOp24
 70
     1
102
RTVSPropertyOp25
 70
     1
102
RTVSPropertyOp26
 70
     1
102
RTVSPropertyOp27
 70
     1
102
RTVSPropertyOp28
 70
     1
102
RTVSPropertyOp29
 70
     1
102
RTVSPropertyOp30
 70
     1
102
RTVSPropertyOp31
 70
     1
102
RTVSPropertyOp32
 70
     1
102
RTVSPropertyOp33
 70
     1
102
RTVSPropertyOp34
 70
     1
102
RTVSPropertyOp35
 70
     1
102
RTVSPropertyOp36
 70
     1
102
RTVSPropertyOp37
 70
     1
102
RTVSPropertyOp38
 70
     1
102
RTVSPropertyOp39
 70
     1
102
RTVSPropertyOp40
 70
     1
102
RTVSPropertyOp41
 70
     1
102
RTVSPropertyOp42
 70
     1
102
RTVSPropertyOp43
 70
     1
102
RTVSPropertyOp44
 70
     1
102
RTVSPropertyOp45
 70
     1
102
RTVSPropertyOp46
 70
     1
102
RTVSPropertyOp47
 70
     1
102
RTVSPropertyOp48
 70
     1
102
RTVSPropertyOp49
 70
     1
102
RTVSPropertyOp50
 70
     1
102
RTVSPropertyOp51
 70
     0
102
RTVSPropertyOp52
 70
     0
102
RTVSPropertyOp53
 70
     1
102
RTVSPropertyOp54
 70
     1
102
RTVSPropertyOp55
 70
     1
102
RTVSPropertyOp56
 70
     1
102
RTVSPropertyOp57
 70
     1
102
RTVSPost2010Prop28
280
     0
102
RTVSPost2010PropOp28
 70
     1
102
RTVSPost2010Prop29
280
     1
102
RTVSPost2010PropOp29
 70
     1
102
RTVSPost2010Prop30
280
     1
102
RTVSPost2010PropOp30
 70
     1
102
RTVSPost2010Prop31
280
     0
102
RTVSPost2010PropOp31
 70
     1
102
RTVSPost2010Prop32
280
     0
102
RTVSPost2010PropOp32
 70
     1
102
RTVSPost2010Prop33
280
     0
102
RTVSPost2010PropOp33
 70
     1
102
RTVSPost2010Prop34
280
     0
102
RTVSPost2010PropOp34
 70
     1
102
RTVSPost2010Prop35
280
     0
102
RTVSPost2010PropOp35
 70
     1
102
RTVSPost2010Prop36
280
     0
102
RTVSPost2010PropOp36
 70
     1
102
RTVSPost2010Prop37
 90
       50
102
RTVSPost2010PropOp37
 70
     1
102
RTVSPost2010Prop38
140
0.0
102
RTVSPost2010PropOp38
 70
     1
102
RTVSPost2010Prop39
140
1.0
102
RTVSPost2010PropOp39
 70
     1
102
RTVSPost2010Prop40
 90
        0
102
RTVSPost2010PropOp40
 70
     1
102
RTVSPost2010Prop41ColorIndex
 90
       18
102
RTVSPost2010Prop41ColorRGB
 90
        0
102
RTVSPost2010PropOp41
 70
     1
102
RTVSPost2010Prop42
 90
       50
102
RTVSPost2010PropOp42
 70
     1
102
RTVSPost2010Prop43
 90
        3
102
RTVSPost2010PropOp43
 70
     1
102
RTVSPost2010Prop44ColorIndex
 90
        5
102
RTVSPost2010Prop44ColorRGB
 90
      255
102
RTVSPost2010PropOp44
 70
     1
102
RTVSPost2010Prop45
280
     0
102
RTVSPost2010PropOp45
 70
     1
102
RTVSPost2010Prop46
 90
       50
102
RTVSPost2010PropOp46
 70
     1
102
RTVSPost2010Prop47
 90
       50
102
RTVSPost2010PropOp47
 70
     1
102
RTVSPost2010Prop48
 90
       50
102
RTVSPost2010PropOp48
 70
     1
102
RTVSPost2010Prop49
280
     0
102
RTVSPost2010PropOp49
 70
     1
102
RTVSPost2010Prop50
 90
       50
102
RTVSPost2010PropOp50
 70
     1
102
RTVSPost2010Prop51ColorIndex
 90
      256
102
RTVSPost2010Prop51ColorRGB
 90
-16777216
102
RTVSPost2010PropOp51
 70
     0
102
RTVSPost2010Prop52
140
1.0
102
RTVSPost2010PropOp52
 70
     0
102
RTVSPost2010Prop53
 90
        2
102
RTVSPost2010PropOp53
 70
     1
102
RTVSPost2010Prop54
  1
strokes_ogs.tif
102
RTVSPost2010PropOp54
 70
     1
102
RTVSPost2010Prop55
280
     0
102
RTVSPost2010PropOp55
 70
     1
102
RTVSPost2010Prop56
140
1.0
102
RTVSPost2010PropOp56
 70
     1
102
RTVSPost2010Prop57
140
1.0
102
RTVSPost2010PropOp57
 70
     1
  0
XRECORD
  5
612
102
{ACAD_REACTORS
330
611
102
}
330
611
100
AcDbXrecord
280
     1
102
RTVSPropertyOp0
 70
     1
102
RTVSPropertyOp1
 70
     1
102
RTVSPropertyOp2
 70
     1
102
RTVSPropertyOp3
 70
     1
102
RTVSPropertyOp4
 70
     1
102
RTVSPropertyOp5
 70
     1
102
RTVSPropertyOp6
 70
     1
102
RTVSPropertyOp7
 70
     1
102
RTVSPropertyOp8
 70
     1
102
RTVSPropertyOp9
 70
     1
102
RTVSPropertyOp10
 70
     1
102
RTVSPropertyOp11
 70
     1
102
RTVSPropertyOp12
 70
     1
102
RTVSPropertyOp13
 70
     1
102
RTVSPropertyOp14
 70
     1
102
RTVSPropertyOp15
 70
     1
102
RTVSPropertyOp16
 70
     1
102
RTVSPropertyOp17
 70
     1
102
RTVSPropertyOp18
 70
     1
102
RTVSPropertyOp19
 70
     1
102
RTVSPropertyOp20
 70
     1
102
RTVSPropertyOp21
 70
     1
102
RTVSPropertyOp22
 70
     1
102
RTVSPropertyOp23
 70
     1
102
RTVSPropertyOp24
 70
     1
102
RTVSPropertyOp25
 70
     1
102
RTVSPropertyOp26
 70
     1
102
RTVSPropertyOp27
 70
     1
102
RTVSPropertyOp28
 70
     1
102
RTVSPropertyOp29
 70
     1
102
RTVSPropertyOp30
 70
     1
102
RTVSPropertyOp31
 70
     1
102
RTVSPropertyOp32
 70
     1
102
RTVSPropertyOp33
 70
     1
102
RTVSPropertyOp34
 70
     1
102
RTVSPropertyOp35
 70
     1
102
RTVSPropertyOp36
 70
     1
102
RTVSPropertyOp37
 70
     1
102
RTVSPropertyOp38
 70
     1
102
RTVSPropertyOp39
 70
     1
102
RTVSPropertyOp40
 70
     1
102
RTVSPropertyOp41
 70
     1
102
RTVSPropertyOp42
 70
     1
102
RTVSPropertyOp43
 70
     1
102
RTVSPropertyOp44
 70
     1
102
RTVSPropertyOp45
 70
     1
102
RTVSPropertyOp46
 70
     1
102
RTVSPropertyOp47
 70
     1
102
RTVSPropertyOp48
 70
     1
102
RTVSPropertyOp49
 70
     1
102
RTVSPropertyOp50
 70
     1
102
RTVSPropertyOp51
 70
     0
102
RTVSPropertyOp52
 70
     0
102
RTVSPropertyOp53
 70
     1
102
RTVSPropertyOp54
 70
     1
102
RTVSPropertyOp55
 70
     1
102
RTVSPropertyOp56
 70
     1
102
RTVSPropertyOp57
 70
     1
102
RTVSPost2010Prop28
280
     0
102
RTVSPost2010PropOp28
 70
     1
102
RTVSPost2010Prop29
280
     1
102
RTVSPost2010PropOp29
 70
     1
102
RTVSPost2010Prop30
280
     1
102
RTVSPost2010PropOp30
 70
     1
102
RTVSPost2010Prop31
280
     0
102
RTVSPost2010PropOp31
 70
     1
102
RTVSPost2010Prop32
280
     0
102
RTVSPost2010PropOp32
 70
     1
102
RTVSPost2010Prop33
280
     0
102
RTVSPost2010PropOp33
 70
     1
102
RTVSPost2010Prop34
280
     0
102
RTVSPost2010PropOp34
 70
     1
102
RTVSPost2010Prop35
280
     0
102
RTVSPost2010PropOp35
 70
     1
102
RTVSPost2010Prop36
280
     0
102
RTVSPost2010PropOp36
 70
     1
102
RTVSPost2010Prop37
 90
       50
102
RTVSPost2010PropOp37
 70
     1
102
RTVSPost2010Prop38
140
0.0
102
RTVSPost2010PropOp38
 70
     1
102
RTVSPost2010Prop39
140
1.0
102
RTVSPost2010PropOp39
 70
     1
102
RTVSPost2010Prop40
 90
        0
102
RTVSPost2010PropOp40
 70
     1
102
RTVSPost2010Prop41ColorIndex
 90
       18
102
RTVSPost2010Prop41ColorRGB
 90
        0
102
RTVSPost2010PropOp41
 70
     1
102
RTVSPost2010Prop42
 90
       50
102
RTVSPost2010PropOp42
 70
     1
102
RTVSPost2010Prop43
 90
        3
102
RTVSPost2010PropOp43
 70
     1
102
RTVSPost2010Prop44ColorIndex
 90
        5
102
RTVSPost2010Prop44ColorRGB
 90
      255
102
RTVSPost2010PropOp44
 70
     1
102
RTVSPost2010Prop45
280
     0
102
RTVSPost2010PropOp45
 70
     1
102
RTVSPost2010Prop46
 90
       50
102
RTVSPost2010PropOp46
 70
     1
102
RTVSPost2010Prop47
 90
       50
102
RTVSPost2010PropOp47
 70
     1
102
RTVSPost2010Prop48
 90
       50
102
RTVSPost2010PropOp48
 70
     1
102
RTVSPost2010Prop49
280
     0
102
RTVSPost2010PropOp49
 70
     1
102
RTVSPost2010Prop50
 90
       50
102
RTVSPost2010PropOp50
 70
     1
102
RTVSPost2010Prop51ColorIndex
 90
      256
102
RTVSPost2010Prop51ColorRGB
 90
-16777216
102
RTVSPost2010PropOp51
 70
     0
102
RTVSPost2010Prop52
140
1.0
102
RTVSPost2010PropOp52
 70
     0
102
RTVSPost2010Prop53
 90
        2
102
RTVSPost2010PropOp53
 70
     1
102
RTVSPost2010Prop54
  1
strokes_ogs.tif
102
RTVSPost2010PropOp54
 70
     1
102
RTVSPost2010Prop55
280
     0
102
RTVSPost2010PropOp55
 70
     1
102
RTVSPost2010Prop56
140
1.0
102
RTVSPost2010PropOp56
 70
     1
102
RTVSPost2010Prop57
140
1.0
102
RTVSPost2010PropOp57
 70
     1
  0
XRECORD
  5
614
102
{ACAD_REACTORS
330
613
102
}
330
613
100
AcDbXrecord
280
     1
102
RTVSPropertyOp0
 70
     1
102
RTVSPropertyOp1
 70
     1
102
RTVSPropertyOp2
 70
     1
102
RTVSPropertyOp3
 70
     1
102
RTVSPropertyOp4
 70
     1
102
RTVSPropertyOp5
 70
     1
102
RTVSPropertyOp6
 70
     1
102
RTVSPropertyOp7
 70
     1
102
RTVSPropertyOp8
 70
     1
102
RTVSPropertyOp9
 70
     1
102
RTVSPropertyOp10
 70
     1
102
RTVSPropertyOp11
 70
     1
102
RTVSPropertyOp12
 70
     1
102
RTVSPropertyOp13
 70
     1
102
RTVSPropertyOp14
 70
     1
102
RTVSPropertyOp15
 70
     1
102
RTVSPropertyOp16
 70
     1
102
RTVSPropertyOp17
 70
     1
102
RTVSPropertyOp18
 70
     1
102
RTVSPropertyOp19
 70
     1
102
RTVSPropertyOp20
 70
     1
102
RTVSPropertyOp21
 70
     1
102
RTVSPropertyOp22
 70
     1
102
RTVSPropertyOp23
 70
     1
102
RTVSPropertyOp24
 70
     1
102
RTVSPropertyOp25
 70
     1
102
RTVSPropertyOp26
 70
     1
102
RTVSPropertyOp27
 70
     1
102
RTVSPropertyOp28
 70
     1
102
RTVSPropertyOp29
 70
     1
102
RTVSPropertyOp30
 70
     1
102
RTVSPropertyOp31
 70
     1
102
RTVSPropertyOp32
 70
     1
102
RTVSPropertyOp33
 70
     1
102
RTVSPropertyOp34
 70
     1
102
RTVSPropertyOp35
 70
     1
102
RTVSPropertyOp36
 70
     1
102
RTVSPropertyOp37
 70
     1
102
RTVSPropertyOp38
 70
     1
102
RTVSPropertyOp39
 70
     1
102
RTVSPropertyOp40
 70
     1
102
RTVSPropertyOp41
 70
     1
102
RTVSPropertyOp42
 70
     1
102
RTVSPropertyOp43
 70
     1
102
RTVSPropertyOp44
 70
     1
102
RTVSPropertyOp45
 70
     1
102
RTVSPropertyOp46
 70
     1
102
RTVSPropertyOp47
 70
     1
102
RTVSPropertyOp48
 70
     1
102
RTVSPropertyOp49
 70
     1
102
RTVSPropertyOp50
 70
     1
102
RTVSPropertyOp51
 70
     0
102
RTVSPropertyOp52
 70
     0
102
RTVSPropertyOp53
 70
     1
102
RTVSPropertyOp54
 70
     1
102
RTVSPropertyOp55
 70
     1
102
RTVSPropertyOp56
 70
     1
102
RTVSPropertyOp57
 70
     1
102
RTVSPost2010Prop28
280
     0
102
RTVSPost2010PropOp28
 70
     1
102
RTVSPost2010Prop29
280
     1
102
RTVSPost2010PropOp29
 70
     1
102
RTVSPost2010Prop30
280
     1
102
RTVSPost2010PropOp30
 70
     1
102
RTVSPost2010Prop31
280
     0
102
RTVSPost2010PropOp31
 70
     1
102
RTVSPost2010Prop32
280
     0
102
RTVSPost2010PropOp32
 70
     1
102
RTVSPost2010Prop33
280
     0
102
RTVSPost2010PropOp33
 70
     1
102
RTVSPost2010Prop34
280
     0
102
RTVSPost2010PropOp34
 70
     1
102
RTVSPost2010Prop35
280
     0
102
RTVSPost2010PropOp35
 70
     1
102
RTVSPost2010Prop36
280
     0
102
RTVSPost2010PropOp36
 70
     1
102
RTVSPost2010Prop37
 90
       50
102
RTVSPost2010PropOp37
 70
     1
102
RTVSPost2010Prop38
140
0.0
102
RTVSPost2010PropOp38
 70
     1
102
RTVSPost2010Prop39
140
1.0
102
RTVSPost2010PropOp39
 70
     1
102
RTVSPost2010Prop40
 90
        0
102
RTVSPost2010PropOp40
 70
     1
102
RTVSPost2010Prop41ColorIndex
 90
       18
102
RTVSPost2010Prop41ColorRGB
 90
        0
102
RTVSPost2010PropOp41
 70
     1
102
RTVSPost2010Prop42
 90
       50
102
RTVSPost2010PropOp42
 70
     1
102
RTVSPost2010Prop43
 90
        3
102
RTVSPost2010PropOp43
 70
     1
102
RTVSPost2010Prop44ColorIndex
 90
        5
102
RTVSPost2010Prop44ColorRGB
 90
      255
102
RTVSPost2010PropOp44
 70
     1
102
RTVSPost2010Prop45
280
     0
102
RTVSPost2010PropOp45
 70
     1
102
RTVSPost2010Prop46
 90
       50
102
RTVSPost2010PropOp46
 70
     1
102
RTVSPost2010Prop47
 90
       50
102
RTVSPost2010PropOp47
 70
     1
102
RTVSPost2010Prop48
 90
       50
102
RTVSPost2010PropOp48
 70
     1
102
RTVSPost2010Prop49
280
     0
102
RTVSPost2010PropOp49
 70
     1
102
RTVSPost2010Prop50
 90
       50
102
RTVSPost2010PropOp50
 70
     1
102
RTVSPost2010Prop51ColorIndex
 90
      256
102
RTVSPost2010Prop51ColorRGB
 90
-16777216
102
RTVSPost2010PropOp51
 70
     0
102
RTVSPost2010Prop52
140
1.0
102
RTVSPost2010PropOp52
 70
     0
102
RTVSPost2010Prop53
 90
        2
102
RTVSPost2010PropOp53
 70
     1
102
RTVSPost2010Prop54
  1
strokes_ogs.tif
102
RTVSPost2010PropOp54
 70
     1
102
RTVSPost2010Prop55
280
     0
102
RTVSPost2010PropOp55
 70
     1
102
RTVSPost2010Prop56
140
1.0
102
RTVSPost2010PropOp56
 70
     1
102
RTVSPost2010Prop57
140
1.0
102
RTVSPost2010PropOp57
 70
     1
  0
XRECORD
  5
624
102
{ACAD_REACTORS
330
623
102
}
330
623
100
AcDbXrecord
280
     1
102
RTVSPropertyOp0
 70
     0
102
RTVSPropertyOp1
 70
     0
102
RTVSPropertyOp2
 70
     0
102
RTVSPropertyOp3
 70
     0
102
RTVSPropertyOp4
 70
     0
102
RTVSPropertyOp5
 70
     0
102
RTVSPropertyOp6
 70
     0
102
RTVSPropertyOp7
 70
     0
102
RTVSPropertyOp8
 70
     0
102
RTVSPropertyOp9
 70
     0
102
RTVSPropertyOp10
 70
     0
102
RTVSPropertyOp11
 70
     0
102
RTVSPropertyOp12
 70
     0
102
RTVSPropertyOp13
 70
     0
102
RTVSPropertyOp14
 70
     0
102
RTVSPropertyOp15
 70
     0
102
RTVSPropertyOp16
 70
     0
102
RTVSPropertyOp17
 70
     0
102
RTVSPropertyOp18
 70
     0
102
RTVSPropertyOp19
 70
     0
102
RTVSPropertyOp20
 70
     0
102
RTVSPropertyOp21
 70
     0
102
RTVSPropertyOp22
 70
     0
102
RTVSPropertyOp23
 70
     0
102
RTVSPropertyOp24
 70
     0
102
RTVSPropertyOp25
 70
     0
102
RTVSPropertyOp26
 70
     0
102
RTVSPropertyOp27
 70
     0
102
RTVSPropertyOp28
 70
     1
102
RTVSPropertyOp29
 70
     1
102
RTVSPropertyOp30
 70
     1
102
RTVSPropertyOp31
 70
     1
102
RTVSPropertyOp32
 70
     1
102
RTVSPropertyOp33
 70
     1
102
RTVSPropertyOp34
 70
     1
102
RTVSPropertyOp35
 70
     1
102
RTVSPropertyOp36
 70
     1
102
RTVSPropertyOp37
 70
     1
102
RTVSPropertyOp38
 70
     1
102
RTVSPropertyOp39
 70
     1
102
RTVSPropertyOp40
 70
     1
102
RTVSPropertyOp41
 70
     1
102
RTVSPropertyOp42
 70
     1
102
RTVSPropertyOp43
 70
     1
102
RTVSPropertyOp44
 70
     1
102
RTVSPropertyOp45
 70
     1
102
RTVSPropertyOp46
 70
     1
102
RTVSPropertyOp47
 70
     1
102
RTVSPropertyOp48
 70
     1
102
RTVSPropertyOp49
 70
     1
102
RTVSPropertyOp50
 70
     1
102
RTVSPropertyOp51
 70
     0
102
RTVSPropertyOp52
 70
     0
102
RTVSPropertyOp53
 70
     1
102
RTVSPropertyOp54
 70
     1
102
RTVSPropertyOp55
 70
     1
102
RTVSPropertyOp56
 70
     1
102
RTVSPropertyOp57
 70
     1
102
RTVSPost2010Prop28
280
     0
102
RTVSPost2010PropOp28
 70
     1
102
RTVSPost2010Prop29
280
     1
102
RTVSPost2010PropOp29
 70
     1
102
RTVSPost2010Prop30
280
     1
102
RTVSPost2010PropOp30
 70
     1
102
RTVSPost2010Prop31
280
     0
102
RTVSPost2010PropOp31
 70
     1
102
RTVSPost2010Prop32
280
     0
102
RTVSPost2010PropOp32
 70
     1
102
RTVSPost2010Prop33
280
     0
102
RTVSPost2010PropOp33
 70
     1
102
RTVSPost2010Prop34
280
     0
102
RTVSPost2010PropOp34
 70
     1
102
RTVSPost2010Prop35
280
     0
102
RTVSPost2010PropOp35
 70
     1
102
RTVSPost2010Prop36
280
     0
102
RTVSPost2010PropOp36
 70
     1
102
RTVSPost2010Prop37
 90
       50
102
RTVSPost2010PropOp37
 70
     1
102
RTVSPost2010Prop38
140
0.0
102
RTVSPost2010PropOp38
 70
     1
102
RTVSPost2010Prop39
140
1.0
102
RTVSPost2010PropOp39
 70
     1
102
RTVSPost2010Prop40
 90
        0
102
RTVSPost2010PropOp40
 70
     1
102
RTVSPost2010Prop41ColorIndex
 90
       18
102
RTVSPost2010Prop41ColorRGB
 90
        0
102
RTVSPost2010PropOp41
 70
     1
102
RTVSPost2010Prop42
 90
       50
102
RTVSPost2010PropOp42
 70
     1
102
RTVSPost2010Prop43
 90
        3
102
RTVSPost2010PropOp43
 70
     1
102
RTVSPost2010Prop44ColorIndex
 90
        5
102
RTVSPost2010Prop44ColorRGB
 90
      255
102
RTVSPost2010PropOp44
 70
     1
102
RTVSPost2010Prop45
280
     0
102
RTVSPost2010PropOp45
 70
     1
102
RTVSPost2010Prop46
 90
       50
102
RTVSPost2010PropOp46
 70
     1
102
RTVSPost2010Prop47
 90
       50
102
RTVSPost2010PropOp47
 70
     1
102
RTVSPost2010Prop48
 90
       50
102
RTVSPost2010PropOp48
 70
     1
102
RTVSPost2010Prop49
280
     0
102
RTVSPost2010PropOp49
 70
     1
102
RTVSPost2010Prop50
 90
       50
102
RTVSPost2010PropOp50
 70
     1
102
RTVSPost2010Prop51ColorIndex
 90
      256
102
RTVSPost2010Prop51ColorRGB
 90
-16777216
102
RTVSPost2010PropOp51
 70
     0
102
RTVSPost2010Prop52
140
1.0
102
RTVSPost2010PropOp52
 70
     0
102
RTVSPost2010Prop53
 90
        2
102
RTVSPost2010PropOp53
 70
     1
102
RTVSPost2010Prop54
  1
strokes_ogs.tif
102
RTVSPost2010PropOp54
 70
     1
102
RTVSPost2010Prop55
280
     0
102
RTVSPost2010PropOp55
 70
     1
102
RTVSPost2010Prop56
140
1.0
102
RTVSPost2010PropOp56
 70
     1
102
RTVSPost2010Prop57
140
1.0
102
RTVSPost2010PropOp57
 70
     1
  0
XRECORD
  5
61C
102
{ACAD_REACTORS
330
61B
102
}
330
61B
100
AcDbXrecord
280
     1
102
RTVSPropertyOp0
 70
     1
102
RTVSPropertyOp1
 70
     1
102
RTVSPropertyOp2
 70
     1
102
RTVSPropertyOp3
 70
     1
102
RTVSPropertyOp4
 70
     1
102
RTVSPropertyOp5
 70
     1
102
RTVSPropertyOp6
 70
     1
102
RTVSPropertyOp7
 70
     1
102
RTVSPropertyOp8
 70
     1
102
RTVSPropertyOp9
 70
     1
102
RTVSPropertyOp10
 70
     1
102
RTVSPropertyOp11
 70
     1
102
RTVSPropertyOp12
 70
     1
102
RTVSPropertyOp13
 70
     1
102
RTVSPropertyOp14
 70
     1
102
RTVSPropertyOp15
 70
     1
102
RTVSPropertyOp16
 70
     1
102
RTVSPropertyOp17
 70
     1
102
RTVSPropertyOp18
 70
     1
102
RTVSPropertyOp19
 70
     1
102
RTVSPropertyOp20
 70
     1
102
RTVSPropertyOp21
 70
     1
102
RTVSPropertyOp22
 70
     1
102
RTVSPropertyOp23
 70
     1
102
RTVSPropertyOp24
 70
     1
102
RTVSPropertyOp25
 70
     1
102
RTVSPropertyOp26
 70
     1
102
RTVSPropertyOp27
 70
     1
102
RTVSPropertyOp28
 70
     1
102
RTVSPropertyOp29
 70
     1
102
RTVSPropertyOp30
 70
     1
102
RTVSPropertyOp31
 70
     1
102
RTVSPropertyOp32
 70
     1
102
RTVSPropertyOp33
 70
     1
102
RTVSPropertyOp34
 70
     1
102
RTVSPropertyOp35
 70
     1
102
RTVSPropertyOp36
 70
     1
102
RTVSPropertyOp37
 70
     1
102
RTVSPropertyOp38
 70
     1
102
RTVSPropertyOp39
 70
     1
102
RTVSPropertyOp40
 70
     1
102
RTVSPropertyOp41
 70
     1
102
RTVSPropertyOp42
 70
     1
102
RTVSPropertyOp43
 70
     1
102
RTVSPropertyOp44
 70
     1
102
RTVSPropertyOp45
 70
     1
102
RTVSPropertyOp46
 70
     1
102
RTVSPropertyOp47
 70
     1
102
RTVSPropertyOp48
 70
     1
102
RTVSPropertyOp49
 70
     1
102
RTVSPropertyOp50
 70
     1
102
RTVSPropertyOp51
 70
     0
102
RTVSPropertyOp52
 70
     0
102
RTVSPropertyOp53
 70
     1
102
RTVSPropertyOp54
 70
     1
102
RTVSPropertyOp55
 70
     1
102
RTVSPropertyOp56
 70
     1
102
RTVSPropertyOp57
 70
     1
102
RTVSPost2010Prop28
280
     0
102
RTVSPost2010PropOp28
 70
     1
102
RTVSPost2010Prop29
280
     1
102
RTVSPost2010PropOp29
 70
     1
102
RTVSPost2010Prop30
280
     1
102
RTVSPost2010PropOp30
 70
     1
102
RTVSPost2010Prop31
280
     0
102
RTVSPost2010PropOp31
 70
     1
102
RTVSPost2010Prop32
280
     0
102
RTVSPost2010PropOp32
 70
     1
102
RTVSPost2010Prop33
280
     0
102
RTVSPost2010PropOp33
 70
     1
102
RTVSPost2010Prop34
280
     0
102
RTVSPost2010PropOp34
 70
     1
102
RTVSPost2010Prop35
280
     0
102
RTVSPost2010PropOp35
 70
     1
102
RTVSPost2010Prop36
280
     0
102
RTVSPost2010PropOp36
 70
     1
102
RTVSPost2010Prop37
 90
       50
102
RTVSPost2010PropOp37
 70
     1
102
RTVSPost2010Prop38
140
0.0
102
RTVSPost2010PropOp38
 70
     1
102
RTVSPost2010Prop39
140
1.0
102
RTVSPost2010PropOp39
 70
     1
102
RTVSPost2010Prop40
 90
        0
102
RTVSPost2010PropOp40
 70
     1
102
RTVSPost2010Prop41ColorIndex
 90
       18
102
RTVSPost2010Prop41ColorRGB
 90
        0
102
RTVSPost2010PropOp41
 70
     1
102
RTVSPost2010Prop42
 90
       50
102
RTVSPost2010PropOp42
 70
     1
102
RTVSPost2010Prop43
 90
        3
102
RTVSPost2010PropOp43
 70
     1
102
RTVSPost2010Prop44ColorIndex
 90
        5
102
RTVSPost2010Prop44ColorRGB
 90
      255
102
RTVSPost2010PropOp44
 70
     1
102
RTVSPost2010Prop45
280
     0
102
RTVSPost2010PropOp45
 70
     1
102
RTVSPost2010Prop46
 90
       50
102
RTVSPost2010PropOp46
 70
     1
102
RTVSPost2010Prop47
 90
       50
102
RTVSPost2010PropOp47
 70
     1
102
RTVSPost2010Prop48
 90
       50
102
RTVSPost2010PropOp48
 70
     1
102
RTVSPost2010Prop49
280
     0
102
RTVSPost2010PropOp49
 70
     1
102
RTVSPost2010Prop50
 90
       50
102
RTVSPost2010PropOp50
 70
     1
102
RTVSPost2010Prop51ColorIndex
 90
      256
102
RTVSPost2010Prop51ColorRGB
 90
-16777216
102
RTVSPost2010PropOp51
 70
     0
102
RTVSPost2010Prop52
140
1.0
102
RTVSPost2010PropOp52
 70
     0
102
RTVSPost2010Prop53
 90
        2
102
RTVSPost2010PropOp53
 70
     1
102
RTVSPost2010Prop54
  1
strokes_ogs.tif
102
RTVSPost2010PropOp54
 70
     1
102
RTVSPost2010Prop55
280
     0
102
RTVSPost2010PropOp55
 70
     1
102
RTVSPost2010Prop56
140
1.0
102
RTVSPost2010PropOp56
 70
     1
102
RTVSPost2010Prop57
140
1.0
102
RTVSPost2010PropOp57
 70
     1
  0
XRECORD
  5
600
102
{ACAD_REACTORS
330
5FF
102
}
330
5FF
100
AcDbXrecord
280
     1
102
RTVSPropertyOp0
 70
     1
102
RTVSPropertyOp1
 70
     1
102
RTVSPropertyOp2
 70
     1
102
RTVSPropertyOp3
 70
     1
102
RTVSPropertyOp4
 70
     1
102
RTVSPropertyOp5
 70
     1
102
RTVSPropertyOp6
 70
     1
102
RTVSPropertyOp7
 70
     1
102
RTVSPropertyOp8
 70
     1
102
RTVSPropertyOp9
 70
     1
102
RTVSPropertyOp10
 70
     1
102
RTVSPropertyOp11
 70
     1
102
RTVSPropertyOp12
 70
     1
102
RTVSPropertyOp13
 70
     1
102
RTVSPropertyOp14
 70
     1
102
RTVSPropertyOp15
 70
     1
102
RTVSPropertyOp16
 70
     1
102
RTVSPropertyOp17
 70
     1
102
RTVSPropertyOp18
 70
     1
102
RTVSPropertyOp19
 70
     1
102
RTVSPropertyOp20
 70
     1
102
RTVSPropertyOp21
 70
     1
102
RTVSPropertyOp22
 70
     1
102
RTVSPropertyOp23
 70
     1
102
RTVSPropertyOp24
 70
     1
102
RTVSPropertyOp25
 70
     1
102
RTVSPropertyOp26
 70
     1
102
RTVSPropertyOp27
 70
     1
102
RTVSPropertyOp28
 70
     1
102
RTVSPropertyOp29
 70
     1
102
RTVSPropertyOp30
 70
     1
102
RTVSPropertyOp31
 70
     1
102
RTVSPropertyOp32
 70
     1
102
RTVSPropertyOp33
 70
     1
102
RTVSPropertyOp34
 70
     1
102
RTVSPropertyOp35
 70
     1
102
RTVSPropertyOp36
 70
     1
102
RTVSPropertyOp37
 70
     1
102
RTVSPropertyOp38
 70
     1
102
RTVSPropertyOp39
 70
     1
102
RTVSPropertyOp40
 70
     1
102
RTVSPropertyOp41
 70
     1
102
RTVSPropertyOp42
 70
     1
102
RTVSPropertyOp43
 70
     1
102
RTVSPropertyOp44
 70
     1
102
RTVSPropertyOp45
 70
     1
102
RTVSPropertyOp46
 70
     1
102
RTVSPropertyOp47
 70
     1
102
RTVSPropertyOp48
 70
     1
102
RTVSPropertyOp49
 70
     1
102
RTVSPropertyOp50
 70
     1
102
RTVSPropertyOp51
 70
     0
102
RTVSPropertyOp52
 70
     0
102
RTVSPropertyOp53
 70
     1
102
RTVSPropertyOp54
 70
     1
102
RTVSPropertyOp55
 70
     1
102
RTVSPropertyOp56
 70
     1
102
RTVSPropertyOp57
 70
     1
102
RTVSPost2010Prop28
280
     0
102
RTVSPost2010PropOp28
 70
     1
102
RTVSPost2010Prop29
280
     1
102
RTVSPost2010PropOp29
 70
     1
102
RTVSPost2010Prop30
280
     1
102
RTVSPost2010PropOp30
 70
     1
102
RTVSPost2010Prop31
280
     0
102
RTVSPost2010PropOp31
 70
     1
102
RTVSPost2010Prop32
280
     0
102
RTVSPost2010PropOp32
 70
     1
102
RTVSPost2010Prop33
280
     0
102
RTVSPost2010PropOp33
 70
     1
102
RTVSPost2010Prop34
280
     0
102
RTVSPost2010PropOp34
 70
     1
102
RTVSPost2010Prop35
280
     0
102
RTVSPost2010PropOp35
 70
     1
102
RTVSPost2010Prop36
280
     0
102
RTVSPost2010PropOp36
 70
     1
102
RTVSPost2010Prop37
 90
       50
102
RTVSPost2010PropOp37
 70
     1
102
RTVSPost2010Prop38
140
0.0
102
RTVSPost2010PropOp38
 70
     1
102
RTVSPost2010Prop39
140
1.0
102
RTVSPost2010PropOp39
 70
     1
102
RTVSPost2010Prop40
 90
        0
102
RTVSPost2010PropOp40
 70
     1
102
RTVSPost2010Prop41ColorIndex
 90
       18
102
RTVSPost2010Prop41ColorRGB
 90
        0
102
RTVSPost2010PropOp41
 70
     1
102
RTVSPost2010Prop42
 90
       50
102
RTVSPost2010PropOp42
 70
     1
102
RTVSPost2010Prop43
 90
        3
102
RTVSPost2010PropOp43
 70
     1
102
RTVSPost2010Prop44ColorIndex
 90
        5
102
RTVSPost2010Prop44ColorRGB
 90
      255
102
RTVSPost2010PropOp44
 70
     1
102
RTVSPost2010Prop45
280
     0
102
RTVSPost2010PropOp45
 70
     1
102
RTVSPost2010Prop46
 90
       50
102
RTVSPost2010PropOp46
 70
     1
102
RTVSPost2010Prop47
 90
       50
102
RTVSPost2010PropOp47
 70
     1
102
RTVSPost2010Prop48
 90
       50
102
RTVSPost2010PropOp48
 70
     1
102
RTVSPost2010Prop49
280
     0
102
RTVSPost2010PropOp49
 70
     1
102
RTVSPost2010Prop50
 90
       50
102
RTVSPost2010PropOp50
 70
     1
102
RTVSPost2010Prop51ColorIndex
 90
      256
102
RTVSPost2010Prop51ColorRGB
 90
-16777216
102
RTVSPost2010PropOp51
 70
     0
102
RTVSPost2010Prop52
140
1.0
102
RTVSPost2010PropOp52
 70
     0
102
RTVSPost2010Prop53
 90
        2
102
RTVSPost2010PropOp53
 70
     1
102
RTVSPost2010Prop54
  1
strokes_ogs.tif
102
RTVSPost2010PropOp54
 70
     1
102
RTVSPost2010Prop55
280
     0
102
RTVSPost2010PropOp55
 70
     1
102
RTVSPost2010Prop56
140
1.0
102
RTVSPost2010PropOp56
 70
     1
102
RTVSPost2010Prop57
140
1.0
102
RTVSPost2010PropOp57
 70
     1
  0
XRECORD
  5
602
102
{ACAD_REACTORS
330
601
102
}
330
601
100
AcDbXrecord
280
     1
102
RTVSPropertyOp0
 70
     1
102
RTVSPropertyOp1
 70
     1
102
RTVSPropertyOp2
 70
     1
102
RTVSPropertyOp3
 70
     1
102
RTVSPropertyOp4
 70
     1
102
RTVSPropertyOp5
 70
     1
102
RTVSPropertyOp6
 70
     1
102
RTVSPropertyOp7
 70
     1
102
RTVSPropertyOp8
 70
     1
102
RTVSPropertyOp9
 70
     1
102
RTVSPropertyOp10
 70
     1
102
RTVSPropertyOp11
 70
     1
102
RTVSPropertyOp12
 70
     1
102
RTVSPropertyOp13
 70
     1
102
RTVSPropertyOp14
 70
     1
102
RTVSPropertyOp15
 70
     1
102
RTVSPropertyOp16
 70
     1
102
RTVSPropertyOp17
 70
     1
102
RTVSPropertyOp18
 70
     1
102
RTVSPropertyOp19
 70
     1
102
RTVSPropertyOp20
 70
     1
102
RTVSPropertyOp21
 70
     1
102
RTVSPropertyOp22
 70
     1
102
RTVSPropertyOp23
 70
     1
102
RTVSPropertyOp24
 70
     1
102
RTVSPropertyOp25
 70
     1
102
RTVSPropertyOp26
 70
     1
102
RTVSPropertyOp27
 70
     1
102
RTVSPropertyOp28
 70
     1
102
RTVSPropertyOp29
 70
     1
102
RTVSPropertyOp30
 70
     1
102
RTVSPropertyOp31
 70
     1
102
RTVSPropertyOp32
 70
     1
102
RTVSPropertyOp33
 70
     1
102
RTVSPropertyOp34
 70
     1
102
RTVSPropertyOp35
 70
     1
102
RTVSPropertyOp36
 70
     1
102
RTVSPropertyOp37
 70
     1
102
RTVSPropertyOp38
 70
     1
102
RTVSPropertyOp39
 70
     1
102
RTVSPropertyOp40
 70
     1
102
RTVSPropertyOp41
 70
     1
102
RTVSPropertyOp42
 70
     1
102
RTVSPropertyOp43
 70
     1
102
RTVSPropertyOp44
 70
     1
102
RTVSPropertyOp45
 70
     1
102
RTVSPropertyOp46
 70
     1
102
RTVSPropertyOp47
 70
     1
102
RTVSPropertyOp48
 70
     1
102
RTVSPropertyOp49
 70
     1
102
RTVSPropertyOp50
 70
     1
102
RTVSPropertyOp51
 70
     0
102
RTVSPropertyOp52
 70
     0
102
RTVSPropertyOp53
 70
     1
102
RTVSPropertyOp54
 70
     1
102
RTVSPropertyOp55
 70
     1
102
RTVSPropertyOp56
 70
     1
102
RTVSPropertyOp57
 70
     1
102
RTVSPost2010Prop28
280
     0
102
RTVSPost2010PropOp28
 70
     1
102
RTVSPost2010Prop29
280
     1
102
RTVSPost2010PropOp29
 70
     1
102
RTVSPost2010Prop30
280
     1
102
RTVSPost2010PropOp30
 70
     1
102
RTVSPost2010Prop31
280
     0
102
RTVSPost2010PropOp31
 70
     1
102
RTVSPost2010Prop32
280
     0
102
RTVSPost2010PropOp32
 70
     1
102
RTVSPost2010Prop33
280
     0
102
RTVSPost2010PropOp33
 70
     1
102
RTVSPost2010Prop34
280
     0
102
RTVSPost2010PropOp34
 70
     1
102
RTVSPost2010Prop35
280
     0
102
RTVSPost2010PropOp35
 70
     1
102
RTVSPost2010Prop36
280
     0
102
RTVSPost2010PropOp36
 70
     1
102
RTVSPost2010Prop37
 90
       50
102
RTVSPost2010PropOp37
 70
     1
102
RTVSPost2010Prop38
140
0.0
102
RTVSPost2010PropOp38
 70
     1
102
RTVSPost2010Prop39
140
1.0
102
RTVSPost2010PropOp39
 70
     1
102
RTVSPost2010Prop40
 90
        0
102
RTVSPost2010PropOp40
 70
     1
102
RTVSPost2010Prop41ColorIndex
 90
       18
102
RTVSPost2010Prop41ColorRGB
 90
        0
102
RTVSPost2010PropOp41
 70
     1
102
RTVSPost2010Prop42
 90
       50
102
RTVSPost2010PropOp42
 70
     1
102
RTVSPost2010Prop43
 90
        3
102
RTVSPost2010PropOp43
 70
     1
102
RTVSPost2010Prop44ColorIndex
 90
        5
102
RTVSPost2010Prop44ColorRGB
 90
      255
102
RTVSPost2010PropOp44
 70
     1
102
RTVSPost2010Prop45
280
     0
102
RTVSPost2010PropOp45
 70
     1
102
RTVSPost2010Prop46
 90
       50
102
RTVSPost2010PropOp46
 70
     1
102
RTVSPost2010Prop47
 90
       50
102
RTVSPost2010PropOp47
 70
     1
102
RTVSPost2010Prop48
 90
       50
102
RTVSPost2010PropOp48
 70
     1
102
RTVSPost2010Prop49
280
     0
102
RTVSPost2010PropOp49
 70
     1
102
RTVSPost2010Prop50
 90
       50
102
RTVSPost2010PropOp50
 70
     1
102
RTVSPost2010Prop51ColorIndex
 90
      256
102
RTVSPost2010Prop51ColorRGB
 90
-16777216
102
RTVSPost2010PropOp51
 70
     0
102
RTVSPost2010Prop52
140
1.0
102
RTVSPost2010PropOp52
 70
     0
102
RTVSPost2010Prop53
 90
        2
102
RTVSPost2010PropOp53
 70
     1
102
RTVSPost2010Prop54
  1
strokes_ogs.tif
102
RTVSPost2010PropOp54
 70
     1
102
RTVSPost2010Prop55
280
     0
102
RTVSPost2010PropOp55
 70
     1
102
RTVSPost2010Prop56
140
1.0
102
RTVSPost2010PropOp56
 70
     1
102
RTVSPost2010Prop57
140
1.0
102
RTVSPost2010PropOp57
 70
     1
  0
XRECORD
  5
604
102
{ACAD_REACTORS
330
603
102
}
330
603
100
AcDbXrecord
280
     1
102
RTVSPropertyOp0
 70
     1
102
RTVSPropertyOp1
 70
     1
102
RTVSPropertyOp2
 70
     1
102
RTVSPropertyOp3
 70
     1
102
RTVSPropertyOp4
 70
     1
102
RTVSPropertyOp5
 70
     1
102
RTVSPropertyOp6
 70
     1
102
RTVSPropertyOp7
 70
     1
102
RTVSPropertyOp8
 70
     1
102
RTVSPropertyOp9
 70
     1
102
RTVSPropertyOp10
 70
     1
102
RTVSPropertyOp11
 70
     1
102
RTVSPropertyOp12
 70
     1
102
RTVSPropertyOp13
 70
     1
102
RTVSPropertyOp14
 70
     1
102
RTVSPropertyOp15
 70
     1
102
RTVSPropertyOp16
 70
     1
102
RTVSPropertyOp17
 70
     1
102
RTVSPropertyOp18
 70
     1
102
RTVSPropertyOp19
 70
     1
102
RTVSPropertyOp20
 70
     1
102
RTVSPropertyOp21
 70
     1
102
RTVSPropertyOp22
 70
     1
102
RTVSPropertyOp23
 70
     1
102
RTVSPropertyOp24
 70
     1
102
RTVSPropertyOp25
 70
     1
102
RTVSPropertyOp26
 70
     1
102
RTVSPropertyOp27
 70
     1
102
RTVSPropertyOp28
 70
     1
102
RTVSPropertyOp29
 70
     1
102
RTVSPropertyOp30
 70
     1
102
RTVSPropertyOp31
 70
     1
102
RTVSPropertyOp32
 70
     1
102
RTVSPropertyOp33
 70
     1
102
RTVSPropertyOp34
 70
     1
102
RTVSPropertyOp35
 70
     1
102
RTVSPropertyOp36
 70
     1
102
RTVSPropertyOp37
 70
     1
102
RTVSPropertyOp38
 70
     1
102
RTVSPropertyOp39
 70
     1
102
RTVSPropertyOp40
 70
     1
102
RTVSPropertyOp41
 70
     1
102
RTVSPropertyOp42
 70
     1
102
RTVSPropertyOp43
 70
     1
102
RTVSPropertyOp44
 70
     1
102
RTVSPropertyOp45
 70
     1
102
RTVSPropertyOp46
 70
     1
102
RTVSPropertyOp47
 70
     1
102
RTVSPropertyOp48
 70
     1
102
RTVSPropertyOp49
 70
     1
102
RTVSPropertyOp50
 70
     1
102
RTVSPropertyOp51
 70
     0
102
RTVSPropertyOp52
 70
     0
102
RTVSPropertyOp53
 70
     1
102
RTVSPropertyOp54
 70
     1
102
RTVSPropertyOp55
 70
     1
102
RTVSPropertyOp56
 70
     1
102
RTVSPropertyOp57
 70
     1
102
RTVSPost2010Prop28
280
     0
102
RTVSPost2010PropOp28
 70
     1
102
RTVSPost2010Prop29
280
     1
102
RTVSPost2010PropOp29
 70
     1
102
RTVSPost2010Prop30
280
     1
102
RTVSPost2010PropOp30
 70
     1
102
RTVSPost2010Prop31
280
     0
102
RTVSPost2010PropOp31
 70
     1
102
RTVSPost2010Prop32
280
     0
102
RTVSPost2010PropOp32
 70
     1
102
RTVSPost2010Prop33
280
     0
102
RTVSPost2010PropOp33
 70
     1
102
RTVSPost2010Prop34
280
     0
102
RTVSPost2010PropOp34
 70
     1
102
RTVSPost2010Prop35
280
     0
102
RTVSPost2010PropOp35
 70
     1
102
RTVSPost2010Prop36
280
     0
102
RTVSPost2010PropOp36
 70
     1
102
RTVSPost2010Prop37
 90
       50
102
RTVSPost2010PropOp37
 70
     1
102
RTVSPost2010Prop38
140
0.0
102
RTVSPost2010PropOp38
 70
     1
102
RTVSPost2010Prop39
140
1.0
102
RTVSPost2010PropOp39
 70
     1
102
RTVSPost2010Prop40
 90
        0
102
RTVSPost2010PropOp40
 70
     1
102
RTVSPost2010Prop41ColorIndex
 90
       18
102
RTVSPost2010Prop41ColorRGB
 90
        0
102
RTVSPost2010PropOp41
 70
     1
102
RTVSPost2010Prop42
 90
       50
102
RTVSPost2010PropOp42
 70
     1
102
RTVSPost2010Prop43
 90
        3
102
RTVSPost2010PropOp43
 70
     1
102
RTVSPost2010Prop44ColorIndex
 90
        5
102
RTVSPost2010Prop44ColorRGB
 90
      255
102
RTVSPost2010PropOp44
 70
     1
102
RTVSPost2010Prop45
280
     0
102
RTVSPost2010PropOp45
 70
     1
102
RTVSPost2010Prop46
 90
       50
102
RTVSPost2010PropOp46
 70
     1
102
RTVSPost2010Prop47
 90
       50
102
RTVSPost2010PropOp47
 70
     1
102
RTVSPost2010Prop48
 90
       50
102
RTVSPost2010PropOp48
 70
     1
102
RTVSPost2010Prop49
280
     0
102
RTVSPost2010PropOp49
 70
     1
102
RTVSPost2010Prop50
 90
       50
102
RTVSPost2010PropOp50
 70
     1
102
RTVSPost2010Prop51ColorIndex
 90
      256
102
RTVSPost2010Prop51ColorRGB
 90
-16777216
102
RTVSPost2010PropOp51
 70
     0
102
RTVSPost2010Prop52
140
1.0
102
RTVSPost2010PropOp52
 70
     0
102
RTVSPost2010Prop53
 90
        2
102
RTVSPost2010PropOp53
 70
     1
102
RTVSPost2010Prop54
  1
strokes_ogs.tif
102
RTVSPost2010PropOp54
 70
     1
102
RTVSPost2010Prop55
280
     0
102
RTVSPost2010PropOp55
 70
     1
102
RTVSPost2010Prop56
140
1.0
102
RTVSPost2010PropOp56
 70
     1
102
RTVSPost2010Prop57
140
1.0
102
RTVSPost2010PropOp57
 70
     1
  0
XRECORD
  5
606
102
{ACAD_REACTORS
330
605
102
}
330
605
100
AcDbXrecord
280
     1
102
RTVSPropertyOp0
 70
     1
102
RTVSPropertyOp1
 70
     1
102
RTVSPropertyOp2
 70
     1
102
RTVSPropertyOp3
 70
     1
102
RTVSPropertyOp4
 70
     1
102
RTVSPropertyOp5
 70
     1
102
RTVSPropertyOp6
 70
     1
102
RTVSPropertyOp7
 70
     1
102
RTVSPropertyOp8
 70
     1
102
RTVSPropertyOp9
 70
     1
102
RTVSPropertyOp10
 70
     1
102
RTVSPropertyOp11
 70
     1
102
RTVSPropertyOp12
 70
     1
102
RTVSPropertyOp13
 70
     1
102
RTVSPropertyOp14
 70
     1
102
RTVSPropertyOp15
 70
     1
102
RTVSPropertyOp16
 70
     1
102
RTVSPropertyOp17
 70
     1
102
RTVSPropertyOp18
 70
     1
102
RTVSPropertyOp19
 70
     1
102
RTVSPropertyOp20
 70
     1
102
RTVSPropertyOp21
 70
     1
102
RTVSPropertyOp22
 70
     1
102
RTVSPropertyOp23
 70
     1
102
RTVSPropertyOp24
 70
     1
102
RTVSPropertyOp25
 70
     1
102
RTVSPropertyOp26
 70
     1
102
RTVSPropertyOp27
 70
     1
102
RTVSPropertyOp28
 70
     1
102
RTVSPropertyOp29
 70
     1
102
RTVSPropertyOp30
 70
     1
102
RTVSPropertyOp31
 70
     1
102
RTVSPropertyOp32
 70
     1
102
RTVSPropertyOp33
 70
     1
102
RTVSPropertyOp34
 70
     1
102
RTVSPropertyOp35
 70
     1
102
RTVSPropertyOp36
 70
     1
102
RTVSPropertyOp37
 70
     1
102
RTVSPropertyOp38
 70
     1
102
RTVSPropertyOp39
 70
     1
102
RTVSPropertyOp40
 70
     1
102
RTVSPropertyOp41
 70
     1
102
RTVSPropertyOp42
 70
     1
102
RTVSPropertyOp43
 70
     1
102
RTVSPropertyOp44
 70
     1
102
RTVSPropertyOp45
 70
     1
102
RTVSPropertyOp46
 70
     1
102
RTVSPropertyOp47
 70
     1
102
RTVSPropertyOp48
 70
     1
102
RTVSPropertyOp49
 70
     1
102
RTVSPropertyOp50
 70
     1
102
RTVSPropertyOp51
 70
     0
102
RTVSPropertyOp52
 70
     0
102
RTVSPropertyOp53
 70
     1
102
RTVSPropertyOp54
 70
     1
102
RTVSPropertyOp55
 70
     1
102
RTVSPropertyOp56
 70
     1
102
RTVSPropertyOp57
 70
     1
102
RTVSPost2010Prop28
280
     0
102
RTVSPost2010PropOp28
 70
     1
102
RTVSPost2010Prop29
280
     1
102
RTVSPost2010PropOp29
 70
     1
102
RTVSPost2010Prop30
280
     1
102
RTVSPost2010PropOp30
 70
     1
102
RTVSPost2010Prop31
280
     0
102
RTVSPost2010PropOp31
 70
     1
102
RTVSPost2010Prop32
280
     0
102
RTVSPost2010PropOp32
 70
     1
102
RTVSPost2010Prop33
280
     0
102
RTVSPost2010PropOp33
 70
     1
102
RTVSPost2010Prop34
280
     0
102
RTVSPost2010PropOp34
 70
     1
102
RTVSPost2010Prop35
280
     0
102
RTVSPost2010PropOp35
 70
     1
102
RTVSPost2010Prop36
280
     0
102
RTVSPost2010PropOp36
 70
     1
102
RTVSPost2010Prop37
 90
       50
102
RTVSPost2010PropOp37
 70
     1
102
RTVSPost2010Prop38
140
0.0
102
RTVSPost2010PropOp38
 70
     1
102
RTVSPost2010Prop39
140
1.0
102
RTVSPost2010PropOp39
 70
     1
102
RTVSPost2010Prop40
 90
        0
102
RTVSPost2010PropOp40
 70
     1
102
RTVSPost2010Prop41ColorIndex
 90
       18
102
RTVSPost2010Prop41ColorRGB
 90
        0
102
RTVSPost2010PropOp41
 70
     1
102
RTVSPost2010Prop42
 90
       50
102
RTVSPost2010PropOp42
 70
     1
102
RTVSPost2010Prop43
 90
        3
102
RTVSPost2010PropOp43
 70
     1
102
RTVSPost2010Prop44ColorIndex
 90
        5
102
RTVSPost2010Prop44ColorRGB
 90
      255
102
RTVSPost2010PropOp44
 70
     1
102
RTVSPost2010Prop45
280
     0
102
RTVSPost2010PropOp45
 70
     1
102
RTVSPost2010Prop46
 90
       50
102
RTVSPost2010PropOp46
 70
     1
102
RTVSPost2010Prop47
 90
       50
102
RTVSPost2010PropOp47
 70
     1
102
RTVSPost2010Prop48
 90
       50
102
RTVSPost2010PropOp48
 70
     1
102
RTVSPost2010Prop49
280
     0
102
RTVSPost2010PropOp49
 70
     1
102
RTVSPost2010Prop50
 90
       50
102
RTVSPost2010PropOp50
 70
     1
102
RTVSPost2010Prop51ColorIndex
 90
      256
102
RTVSPost2010Prop51ColorRGB
 90
-16777216
102
RTVSPost2010PropOp51
 70
     0
102
RTVSPost2010Prop52
140
1.0
102
RTVSPost2010PropOp52
 70
     0
102
RTVSPost2010Prop53
 90
        2
102
RTVSPost2010PropOp53
 70
     1
102
RTVSPost2010Prop54
  1
strokes_ogs.tif
102
RTVSPost2010PropOp54
 70
     1
102
RTVSPost2010Prop55
280
     0
102
RTVSPost2010PropOp55
 70
     1
102
RTVSPost2010Prop56
140
1.0
102
RTVSPost2010PropOp56
 70
     1
102
RTVSPost2010Prop57
140
1.0
102
RTVSPost2010PropOp57
 70
     1
  0
XRECORD
  5
60C
102
{ACAD_REACTORS
330
60B
102
}
330
60B
100
AcDbXrecord
280
     1
102
RTVSPropertyOp0
 70
     1
102
RTVSPropertyOp1
 70
     1
102
RTVSPropertyOp2
 70
     1
102
RTVSPropertyOp3
 70
     1
102
RTVSPropertyOp4
 70
     1
102
RTVSPropertyOp5
 70
     1
102
RTVSPropertyOp6
 70
     1
102
RTVSPropertyOp7
 70
     1
102
RTVSPropertyOp8
 70
     1
102
RTVSPropertyOp9
 70
     1
102
RTVSPropertyOp10
 70
     1
102
RTVSPropertyOp11
 70
     1
102
RTVSPropertyOp12
 70
     1
102
RTVSPropertyOp13
 70
     1
102
RTVSPropertyOp14
 70
     1
102
RTVSPropertyOp15
 70
     1
102
RTVSPropertyOp16
 70
     1
102
RTVSPropertyOp17
 70
     1
102
RTVSPropertyOp18
 70
     1
102
RTVSPropertyOp19
 70
     1
102
RTVSPropertyOp20
 70
     1
102
RTVSPropertyOp21
 70
     1
102
RTVSPropertyOp22
 70
     1
102
RTVSPropertyOp23
 70
     1
102
RTVSPropertyOp24
 70
     1
102
RTVSPropertyOp25
 70
     1
102
RTVSPropertyOp26
 70
     1
102
RTVSPropertyOp27
 70
     1
102
RTVSPropertyOp28
 70
     1
102
RTVSPropertyOp29
 70
     1
102
RTVSPropertyOp30
 70
     1
102
RTVSPropertyOp31
 70
     1
102
RTVSPropertyOp32
 70
     1
102
RTVSPropertyOp33
 70
     1
102
RTVSPropertyOp34
 70
     1
102
RTVSPropertyOp35
 70
     1
102
RTVSPropertyOp36
 70
     1
102
RTVSPropertyOp37
 70
     1
102
RTVSPropertyOp38
 70
     1
102
RTVSPropertyOp39
 70
     1
102
RTVSPropertyOp40
 70
     1
102
RTVSPropertyOp41
 70
     1
102
RTVSPropertyOp42
 70
     1
102
RTVSPropertyOp43
 70
     1
102
RTVSPropertyOp44
 70
     1
102
RTVSPropertyOp45
 70
     1
102
RTVSPropertyOp46
 70
     1
102
RTVSPropertyOp47
 70
     1
102
RTVSPropertyOp48
 70
     1
102
RTVSPropertyOp49
 70
     1
102
RTVSPropertyOp50
 70
     1
102
RTVSPropertyOp51
 70
     0
102
RTVSPropertyOp52
 70
     0
102
RTVSPropertyOp53
 70
     1
102
RTVSPropertyOp54
 70
     1
102
RTVSPropertyOp55
 70
     1
102
RTVSPropertyOp56
 70
     1
102
RTVSPropertyOp57
 70
     1
102
RTVSPost2010Prop28
280
     0
102
RTVSPost2010PropOp28
 70
     1
102
RTVSPost2010Prop29
280
     1
102
RTVSPost2010PropOp29
 70
     1
102
RTVSPost2010Prop30
280
     1
102
RTVSPost2010PropOp30
 70
     1
102
RTVSPost2010Prop31
280
     0
102
RTVSPost2010PropOp31
 70
     1
102
RTVSPost2010Prop32
280
     0
102
RTVSPost2010PropOp32
 70
     1
102
RTVSPost2010Prop33
280
     0
102
RTVSPost2010PropOp33
 70
     1
102
RTVSPost2010Prop34
280
     0
102
RTVSPost2010PropOp34
 70
     1
102
RTVSPost2010Prop35
280
     0
102
RTVSPost2010PropOp35
 70
     1
102
RTVSPost2010Prop36
280
     0
102
RTVSPost2010PropOp36
 70
     1
102
RTVSPost2010Prop37
 90
       50
102
RTVSPost2010PropOp37
 70
     1
102
RTVSPost2010Prop38
140
0.0
102
RTVSPost2010PropOp38
 70
     1
102
RTVSPost2010Prop39
140
1.0
102
RTVSPost2010PropOp39
 70
     1
102
RTVSPost2010Prop40
 90
        0
102
RTVSPost2010PropOp40
 70
     1
102
RTVSPost2010Prop41ColorIndex
 90
       18
102
RTVSPost2010Prop41ColorRGB
 90
        0
102
RTVSPost2010PropOp41
 70
     1
102
RTVSPost2010Prop42
 90
       50
102
RTVSPost2010PropOp42
 70
     1
102
RTVSPost2010Prop43
 90
        3
102
RTVSPost2010PropOp43
 70
     1
102
RTVSPost2010Prop44ColorIndex
 90
        5
102
RTVSPost2010Prop44ColorRGB
 90
      255
102
RTVSPost2010PropOp44
 70
     1
102
RTVSPost2010Prop45
280
     0
102
RTVSPost2010PropOp45
 70
     1
102
RTVSPost2010Prop46
 90
       50
102
RTVSPost2010PropOp46
 70
     1
102
RTVSPost2010Prop47
 90
       50
102
RTVSPost2010PropOp47
 70
     1
102
RTVSPost2010Prop48
 90
       50
102
RTVSPost2010PropOp48
 70
     1
102
RTVSPost2010Prop49
280
     0
102
RTVSPost2010PropOp49
 70
     1
102
RTVSPost2010Prop50
 90
       50
102
RTVSPost2010PropOp50
 70
     1
102
RTVSPost2010Prop51ColorIndex
 90
      256
102
RTVSPost2010Prop51ColorRGB
 90
-16777216
102
RTVSPost2010PropOp51
 70
     0
102
RTVSPost2010Prop52
140
1.0
102
RTVSPost2010PropOp52
 70
     0
102
RTVSPost2010Prop53
 90
        2
102
RTVSPost2010PropOp53
 70
     1
102
RTVSPost2010Prop54
  1
strokes_ogs.tif
102
RTVSPost2010PropOp54
 70
     1
102
RTVSPost2010Prop55
280
     0
102
RTVSPost2010PropOp55
 70
     1
102
RTVSPost2010Prop56
140
1.0
102
RTVSPost2010PropOp56
 70
     1
102
RTVSPost2010Prop57
140
1.0
102
RTVSPost2010PropOp57
 70
     1
  0
XRECORD
  5
620
102
{ACAD_REACTORS
330
61F
102
}
330
61F
100
AcDbXrecord
280
     1
102
RTVSPropertyOp0
 70
     0
102
RTVSPropertyOp1
 70
     0
102
RTVSPropertyOp2
 70
     0
102
RTVSPropertyOp3
 70
     0
102
RTVSPropertyOp4
 70
     0
102
RTVSPropertyOp5
 70
     0
102
RTVSPropertyOp6
 70
     0
102
RTVSPropertyOp7
 70
     0
102
RTVSPropertyOp8
 70
     0
102
RTVSPropertyOp9
 70
     0
102
RTVSPropertyOp10
 70
     0
102
RTVSPropertyOp11
 70
     0
102
RTVSPropertyOp12
 70
     0
102
RTVSPropertyOp13
 70
     0
102
RTVSPropertyOp14
 70
     0
102
RTVSPropertyOp15
 70
     0
102
RTVSPropertyOp16
 70
     0
102
RTVSPropertyOp17
 70
     0
102
RTVSPropertyOp18
 70
     0
102
RTVSPropertyOp19
 70
     0
102
RTVSPropertyOp20
 70
     0
102
RTVSPropertyOp21
 70
     0
102
RTVSPropertyOp22
 70
     0
102
RTVSPropertyOp23
 70
     0
102
RTVSPropertyOp24
 70
     0
102
RTVSPropertyOp25
 70
     0
102
RTVSPropertyOp26
 70
     0
102
RTVSPropertyOp27
 70
     0
102
RTVSPropertyOp28
 70
     1
102
RTVSPropertyOp29
 70
     1
102
RTVSPropertyOp30
 70
     1
102
RTVSPropertyOp31
 70
     1
102
RTVSPropertyOp32
 70
     1
102
RTVSPropertyOp33
 70
     1
102
RTVSPropertyOp34
 70
     1
102
RTVSPropertyOp35
 70
     1
102
RTVSPropertyOp36
 70
     1
102
RTVSPropertyOp37
 70
     1
102
RTVSPropertyOp38
 70
     1
102
RTVSPropertyOp39
 70
     1
102
RTVSPropertyOp40
 70
     1
102
RTVSPropertyOp41
 70
     1
102
RTVSPropertyOp42
 70
     1
102
RTVSPropertyOp43
 70
     1
102
RTVSPropertyOp44
 70
     1
102
RTVSPropertyOp45
 70
     1
102
RTVSPropertyOp46
 70
     1
102
RTVSPropertyOp47
 70
     1
102
RTVSPropertyOp48
 70
     1
102
RTVSPropertyOp49
 70
     1
102
RTVSPropertyOp50
 70
     1
102
RTVSPropertyOp51
 70
     0
102
RTVSPropertyOp52
 70
     0
102
RTVSPropertyOp53
 70
     1
102
RTVSPropertyOp54
 70
     1
102
RTVSPropertyOp55
 70
     1
102
RTVSPropertyOp56
 70
     1
102
RTVSPropertyOp57
 70
     1
102
RTVSPost2010Prop28
280
     0
102
RTVSPost2010PropOp28
 70
     1
102
RTVSPost2010Prop29
280
     1
102
RTVSPost2010PropOp29
 70
     1
102
RTVSPost2010Prop30
280
     1
102
RTVSPost2010PropOp30
 70
     1
102
RTVSPost2010Prop31
280
     0
102
RTVSPost2010PropOp31
 70
     1
102
RTVSPost2010Prop32
280
     0
102
RTVSPost2010PropOp32
 70
     1
102
RTVSPost2010Prop33
280
     0
102
RTVSPost2010PropOp33
 70
     1
102
RTVSPost2010Prop34
280
     0
102
RTVSPost2010PropOp34
 70
     1
102
RTVSPost2010Prop35
280
     0
102
RTVSPost2010PropOp35
 70
     1
102
RTVSPost2010Prop36
280
     0
102
RTVSPost2010PropOp36
 70
     1
102
RTVSPost2010Prop37
 90
       50
102
RTVSPost2010PropOp37
 70
     1
102
RTVSPost2010Prop38
140
0.0
102
RTVSPost2010PropOp38
 70
     1
102
RTVSPost2010Prop39
140
1.0
102
RTVSPost2010PropOp39
 70
     1
102
RTVSPost2010Prop40
 90
        0
102
RTVSPost2010PropOp40
 70
     1
102
RTVSPost2010Prop41ColorIndex
 90
       18
102
RTVSPost2010Prop41ColorRGB
 90
        0
102
RTVSPost2010PropOp41
 70
     1
102
RTVSPost2010Prop42
 90
       50
102
RTVSPost2010PropOp42
 70
     1
102
RTVSPost2010Prop43
 90
        3
102
RTVSPost2010PropOp43
 70
     1
102
RTVSPost2010Prop44ColorIndex
 90
        5
102
RTVSPost2010Prop44ColorRGB
 90
      255
102
RTVSPost2010PropOp44
 70
     1
102
RTVSPost2010Prop45
280
     0
102
RTVSPost2010PropOp45
 70
     1
102
RTVSPost2010Prop46
 90
       50
102
RTVSPost2010PropOp46
 70
     1
102
RTVSPost2010Prop47
 90
       50
102
RTVSPost2010PropOp47
 70
     1
102
RTVSPost2010Prop48
 90
       50
102
RTVSPost2010PropOp48
 70
     1
102
RTVSPost2010Prop49
280
     0
102
RTVSPost2010PropOp49
 70
     1
102
RTVSPost2010Prop50
 90
       50
102
RTVSPost2010PropOp50
 70
     1
102
RTVSPost2010Prop51ColorIndex
 90
      256
102
RTVSPost2010Prop51ColorRGB
 90
-16777216
102
RTVSPost2010PropOp51
 70
     0
102
RTVSPost2010Prop52
140
1.0
102
RTVSPost2010PropOp52
 70
     0
102
RTVSPost2010Prop53
 90
        2
102
RTVSPost2010PropOp53
 70
     1
102
RTVSPost2010Prop54
  1
strokes_ogs.tif
102
RTVSPost2010PropOp54
 70
     1
102
RTVSPost2010Prop55
280
     0
102
RTVSPost2010PropOp55
 70
     1
102
RTVSPost2010Prop56
140
1.0
102
RTVSPost2010PropOp56
 70
     1
102
RTVSPost2010Prop57
140
1.0
102
RTVSPost2010PropOp57
 70
     1
  0
XRECORD
  5
61A
102
{ACAD_REACTORS
330
619
102
}
330
619
100
AcDbXrecord
280
     1
102
RTVSPropertyOp0
 70
     1
102
RTVSPropertyOp1
 70
     1
102
RTVSPropertyOp2
 70
     1
102
RTVSPropertyOp3
 70
     1
102
RTVSPropertyOp4
 70
     1
102
RTVSPropertyOp5
 70
     1
102
RTVSPropertyOp6
 70
     1
102
RTVSPropertyOp7
 70
     1
102
RTVSPropertyOp8
 70
     1
102
RTVSPropertyOp9
 70
     1
102
RTVSPropertyOp10
 70
     1
102
RTVSPropertyOp11
 70
     1
102
RTVSPropertyOp12
 70
     1
102
RTVSPropertyOp13
 70
     1
102
RTVSPropertyOp14
 70
     1
102
RTVSPropertyOp15
 70
     1
102
RTVSPropertyOp16
 70
     1
102
RTVSPropertyOp17
 70
     1
102
RTVSPropertyOp18
 70
     1
102
RTVSPropertyOp19
 70
     1
102
RTVSPropertyOp20
 70
     1
102
RTVSPropertyOp21
 70
     1
102
RTVSPropertyOp22
 70
     1
102
RTVSPropertyOp23
 70
     1
102
RTVSPropertyOp24
 70
     1
102
RTVSPropertyOp25
 70
     1
102
RTVSPropertyOp26
 70
     1
102
RTVSPropertyOp27
 70
     1
102
RTVSPropertyOp28
 70
     1
102
RTVSPropertyOp29
 70
     1
102
RTVSPropertyOp30
 70
     1
102
RTVSPropertyOp31
 70
     1
102
RTVSPropertyOp32
 70
     1
102
RTVSPropertyOp33
 70
     1
102
RTVSPropertyOp34
 70
     1
102
RTVSPropertyOp35
 70
     1
102
RTVSPropertyOp36
 70
     1
102
RTVSPropertyOp37
 70
     1
102
RTVSPropertyOp38
 70
     1
102
RTVSPropertyOp39
 70
     1
102
RTVSPropertyOp40
 70
     1
102
RTVSPropertyOp41
 70
     1
102
RTVSPropertyOp42
 70
     1
102
RTVSPropertyOp43
 70
     1
102
RTVSPropertyOp44
 70
     1
102
RTVSPropertyOp45
 70
     1
102
RTVSPropertyOp46
 70
     1
102
RTVSPropertyOp47
 70
     1
102
RTVSPropertyOp48
 70
     1
102
RTVSPropertyOp49
 70
     1
102
RTVSPropertyOp50
 70
     1
102
RTVSPropertyOp51
 70
     0
102
RTVSPropertyOp52
 70
     0
102
RTVSPropertyOp53
 70
     1
102
RTVSPropertyOp54
 70
     1
102
RTVSPropertyOp55
 70
     1
102
RTVSPropertyOp56
 70
     1
102
RTVSPropertyOp57
 70
     1
102
RTVSPost2010Prop28
280
     0
102
RTVSPost2010PropOp28
 70
     1
102
RTVSPost2010Prop29
280
     1
102
RTVSPost2010PropOp29
 70
     1
102
RTVSPost2010Prop30
280
     1
102
RTVSPost2010PropOp30
 70
     1
102
RTVSPost2010Prop31
280
     0
102
RTVSPost2010PropOp31
 70
     1
102
RTVSPost2010Prop32
280
     0
102
RTVSPost2010PropOp32
 70
     1
102
RTVSPost2010Prop33
280
     0
102
RTVSPost2010PropOp33
 70
     1
102
RTVSPost2010Prop34
280
     0
102
RTVSPost2010PropOp34
 70
     1
102
RTVSPost2010Prop35
280
     0
102
RTVSPost2010PropOp35
 70
     1
102
RTVSPost2010Prop36
280
     0
102
RTVSPost2010PropOp36
 70
     1
102
RTVSPost2010Prop37
 90
       50
102
RTVSPost2010PropOp37
 70
     1
102
RTVSPost2010Prop38
140
0.0
102
RTVSPost2010PropOp38
 70
     1
102
RTVSPost2010Prop39
140
1.0
102
RTVSPost2010PropOp39
 70
     1
102
RTVSPost2010Prop40
 90
        0
102
RTVSPost2010PropOp40
 70
     1
102
RTVSPost2010Prop41ColorIndex
 90
       18
102
RTVSPost2010Prop41ColorRGB
 90
        0
102
RTVSPost2010PropOp41
 70
     1
102
RTVSPost2010Prop42
 90
       50
102
RTVSPost2010PropOp42
 70
     1
102
RTVSPost2010Prop43
 90
        3
102
RTVSPost2010PropOp43
 70
     1
102
RTVSPost2010Prop44ColorIndex
 90
        5
102
RTVSPost2010Prop44ColorRGB
 90
      255
102
RTVSPost2010PropOp44
 70
     1
102
RTVSPost2010Prop45
280
     0
102
RTVSPost2010PropOp45
 70
     1
102
RTVSPost2010Prop46
 90
       50
102
RTVSPost2010PropOp46
 70
     1
102
RTVSPost2010Prop47
 90
       50
102
RTVSPost2010PropOp47
 70
     1
102
RTVSPost2010Prop48
 90
       50
102
RTVSPost2010PropOp48
 70
     1
102
RTVSPost2010Prop49
280
     0
102
RTVSPost2010PropOp49
 70
     1
102
RTVSPost2010Prop50
 90
       50
102
RTVSPost2010PropOp50
 70
     1
102
RTVSPost2010Prop51ColorIndex
 90
      256
102
RTVSPost2010Prop51ColorRGB
 90
-16777216
102
RTVSPost2010PropOp51
 70
     0
102
RTVSPost2010Prop52
140
1.0
102
RTVSPost2010PropOp52
 70
     0
102
RTVSPost2010Prop53
 90
        2
102
RTVSPost2010PropOp53
 70
     1
102
RTVSPost2010Prop54
  1
strokes_ogs.tif
102
RTVSPost2010PropOp54
 70
     1
102
RTVSPost2010Prop55
280
     0
102
RTVSPost2010PropOp55
 70
     1
102
RTVSPost2010Prop56
140
1.0
102
RTVSPost2010PropOp56
 70
     1
102
RTVSPost2010Prop57
140
1.0
102
RTVSPost2010PropOp57
 70
     1
  0
XRECORD
  5
622
102
{ACAD_REACTORS
330
621
102
}
330
621
100
AcDbXrecord
280
     1
102
RTVSPropertyOp0
 70
     0
102
RTVSPropertyOp1
 70
     0
102
RTVSPropertyOp2
 70
     0
102
RTVSPropertyOp3
 70
     0
102
RTVSPropertyOp4
 70
     0
102
RTVSPropertyOp5
 70
     0
102
RTVSPropertyOp6
 70
     0
102
RTVSPropertyOp7
 70
     0
102
RTVSPropertyOp8
 70
     0
102
RTVSPropertyOp9
 70
     0
102
RTVSPropertyOp10
 70
     0
102
RTVSPropertyOp11
 70
     0
102
RTVSPropertyOp12
 70
     0
102
RTVSPropertyOp13
 70
     0
102
RTVSPropertyOp14
 70
     0
102
RTVSPropertyOp15
 70
     0
102
RTVSPropertyOp16
 70
     0
102
RTVSPropertyOp17
 70
     0
102
RTVSPropertyOp18
 70
     0
102
RTVSPropertyOp19
 70
     0
102
RTVSPropertyOp20
 70
     0
102
RTVSPropertyOp21
 70
     0
102
RTVSPropertyOp22
 70
     0
102
RTVSPropertyOp23
 70
     0
102
RTVSPropertyOp24
 70
     0
102
RTVSPropertyOp25
 70
     0
102
RTVSPropertyOp26
 70
     0
102
RTVSPropertyOp27
 70
     0
102
RTVSPropertyOp28
 70
     1
102
RTVSPropertyOp29
 70
     1
102
RTVSPropertyOp30
 70
     1
102
RTVSPropertyOp31
 70
     1
102
RTVSPropertyOp32
 70
     1
102
RTVSPropertyOp33
 70
     1
102
RTVSPropertyOp34
 70
     1
102
RTVSPropertyOp35
 70
     1
102
RTVSPropertyOp36
 70
     1
102
RTVSPropertyOp37
 70
     1
102
RTVSPropertyOp38
 70
     1
102
RTVSPropertyOp39
 70
     1
102
RTVSPropertyOp40
 70
     1
102
RTVSPropertyOp41
 70
     1
102
RTVSPropertyOp42
 70
     1
102
RTVSPropertyOp43
 70
     1
102
RTVSPropertyOp44
 70
     1
102
RTVSPropertyOp45
 70
     1
102
RTVSPropertyOp46
 70
     1
102
RTVSPropertyOp47
 70
     1
102
RTVSPropertyOp48
 70
     1
102
RTVSPropertyOp49
 70
     1
102
RTVSPropertyOp50
 70
     1
102
RTVSPropertyOp51
 70
     0
102
RTVSPropertyOp52
 70
     0
102
RTVSPropertyOp53
 70
     1
102
RTVSPropertyOp54
 70
     1
102
RTVSPropertyOp55
 70
     1
102
RTVSPropertyOp56
 70
     1
102
RTVSPropertyOp57
 70
     1
102
RTVSPost2010Prop28
280
     0
102
RTVSPost2010PropOp28
 70
     1
102
RTVSPost2010Prop29
280
     1
102
RTVSPost2010PropOp29
 70
     1
102
RTVSPost2010Prop30
280
     1
102
RTVSPost2010PropOp30
 70
     1
102
RTVSPost2010Prop31
280
     0
102
RTVSPost2010PropOp31
 70
     1
102
RTVSPost2010Prop32
280
     0
102
RTVSPost2010PropOp32
 70
     1
102
RTVSPost2010Prop33
280
     0
102
RTVSPost2010PropOp33
 70
     1
102
RTVSPost2010Prop34
280
     0
102
RTVSPost2010PropOp34
 70
     1
102
RTVSPost2010Prop35
280
     0
102
RTVSPost2010PropOp35
 70
     1
102
RTVSPost2010Prop36
280
     0
102
RTVSPost2010PropOp36
 70
     1
102
RTVSPost2010Prop37
 90
       50
102
RTVSPost2010PropOp37
 70
     1
102
RTVSPost2010Prop38
140
0.0
102
RTVSPost2010PropOp38
 70
     1
102
RTVSPost2010Prop39
140
1.0
102
RTVSPost2010PropOp39
 70
     1
102
RTVSPost2010Prop40
 90
        0
102
RTVSPost2010PropOp40
 70
     1
102
RTVSPost2010Prop41ColorIndex
 90
       18
102
RTVSPost2010Prop41ColorRGB
 90
        0
102
RTVSPost2010PropOp41
 70
     1
102
RTVSPost2010Prop42
 90
       50
102
RTVSPost2010PropOp42
 70
     1
102
RTVSPost2010Prop43
 90
        3
102
RTVSPost2010PropOp43
 70
     1
102
RTVSPost2010Prop44ColorIndex
 90
        5
102
RTVSPost2010Prop44ColorRGB
 90
      255
102
RTVSPost2010PropOp44
 70
     1
102
RTVSPost2010Prop45
280
     0
102
RTVSPost2010PropOp45
 70
     1
102
RTVSPost2010Prop46
 90
       50
102
RTVSPost2010PropOp46
 70
     1
102
RTVSPost2010Prop47
 90
       50
102
RTVSPost2010PropOp47
 70
     1
102
RTVSPost2010Prop48
 90
       50
102
RTVSPost2010PropOp48
 70
     1
102
RTVSPost2010Prop49
280
     0
102
RTVSPost2010PropOp49
 70
     1
102
RTVSPost2010Prop50
 90
       50
102
RTVSPost2010PropOp50
 70
     1
102
RTVSPost2010Prop51ColorIndex
 90
      256
102
RTVSPost2010Prop51ColorRGB
 90
-16777216
102
RTVSPost2010PropOp51
 70
     0
102
RTVSPost2010Prop52
140
1.0
102
RTVSPost2010PropOp52
 70
     0
102
RTVSPost2010Prop53
 90
        2
102
RTVSPost2010PropOp53
 70
     1
102
RTVSPost2010Prop54
  1
strokes_ogs.tif
102
RTVSPost2010PropOp54
 70
     1
102
RTVSPost2010Prop55
280
     0
102
RTVSPost2010PropOp55
 70
     1
102
RTVSPost2010Prop56
140
1.0
102
RTVSPost2010PropOp56
 70
     1
102
RTVSPost2010Prop57
140
1.0
102
RTVSPost2010PropOp57
 70
     1
  0
XRECORD
  5
610
102
{ACAD_REACTORS
330
60F
102
}
330
60F
100
AcDbXrecord
280
     1
102
RTVSPropertyOp0
 70
     1
102
RTVSPropertyOp1
 70
     1
102
RTVSPropertyOp2
 70
     1
102
RTVSPropertyOp3
 70
     1
102
RTVSPropertyOp4
 70
     1
102
RTVSPropertyOp5
 70
     1
102
RTVSPropertyOp6
 70
     1
102
RTVSPropertyOp7
 70
     1
102
RTVSPropertyOp8
 70
     1
102
RTVSPropertyOp9
 70
     1
102
RTVSPropertyOp10
 70
     1
102
RTVSPropertyOp11
 70
     1
102
RTVSPropertyOp12
 70
     1
102
RTVSPropertyOp13
 70
     1
102
RTVSPropertyOp14
 70
     1
102
RTVSPropertyOp15
 70
     1
102
RTVSPropertyOp16
 70
     1
102
RTVSPropertyOp17
 70
     1
102
RTVSPropertyOp18
 70
     1
102
RTVSPropertyOp19
 70
     1
102
RTVSPropertyOp20
 70
     1
102
RTVSPropertyOp21
 70
     1
102
RTVSPropertyOp22
 70
     1
102
RTVSPropertyOp23
 70
     1
102
RTVSPropertyOp24
 70
     1
102
RTVSPropertyOp25
 70
     1
102
RTVSPropertyOp26
 70
     1
102
RTVSPropertyOp27
 70
     1
102
RTVSPropertyOp28
 70
     1
102
RTVSPropertyOp29
 70
     1
102
RTVSPropertyOp30
 70
     1
102
RTVSPropertyOp31
 70
     1
102
RTVSPropertyOp32
 70
     1
102
RTVSPropertyOp33
 70
     1
102
RTVSPropertyOp34
 70
     1
102
RTVSPropertyOp35
 70
     1
102
RTVSPropertyOp36
 70
     1
102
RTVSPropertyOp37
 70
     1
102
RTVSPropertyOp38
 70
     1
102
RTVSPropertyOp39
 70
     1
102
RTVSPropertyOp40
 70
     1
102
RTVSPropertyOp41
 70
     1
102
RTVSPropertyOp42
 70
     1
102
RTVSPropertyOp43
 70
     1
102
RTVSPropertyOp44
 70
     1
102
RTVSPropertyOp45
 70
     1
102
RTVSPropertyOp46
 70
     1
102
RTVSPropertyOp47
 70
     1
102
RTVSPropertyOp48
 70
     1
102
RTVSPropertyOp49
 70
     1
102
RTVSPropertyOp50
 70
     1
102
RTVSPropertyOp51
 70
     0
102
RTVSPropertyOp52
 70
     0
102
RTVSPropertyOp53
 70
     1
102
RTVSPropertyOp54
 70
     1
102
RTVSPropertyOp55
 70
     1
102
RTVSPropertyOp56
 70
     1
102
RTVSPropertyOp57
 70
     1
102
RTVSPost2010Prop28
280
     0
102
RTVSPost2010PropOp28
 70
     1
102
RTVSPost2010Prop29
280
     1
102
RTVSPost2010PropOp29
 70
     1
102
RTVSPost2010Prop30
280
     1
102
RTVSPost2010PropOp30
 70
     1
102
RTVSPost2010Prop31
280
     0
102
RTVSPost2010PropOp31
 70
     1
102
RTVSPost2010Prop32
280
     0
102
RTVSPost2010PropOp32
 70
     1
102
RTVSPost2010Prop33
280
     0
102
RTVSPost2010PropOp33
 70
     1
102
RTVSPost2010Prop34
280
     0
102
RTVSPost2010PropOp34
 70
     1
102
RTVSPost2010Prop35
280
     0
102
RTVSPost2010PropOp35
 70
     1
102
RTVSPost2010Prop36
280
     0
102
RTVSPost2010PropOp36
 70
     1
102
RTVSPost2010Prop37
 90
       50
102
RTVSPost2010PropOp37
 70
     1
102
RTVSPost2010Prop38
140
0.0
102
RTVSPost2010PropOp38
 70
     1
102
RTVSPost2010Prop39
140
1.0
102
RTVSPost2010PropOp39
 70
     1
102
RTVSPost2010Prop40
 90
        0
102
RTVSPost2010PropOp40
 70
     1
102
RTVSPost2010Prop41ColorIndex
 90
       18
102
RTVSPost2010Prop41ColorRGB
 90
        0
102
RTVSPost2010PropOp41
 70
     1
102
RTVSPost2010Prop42
 90
       50
102
RTVSPost2010PropOp42
 70
     1
102
RTVSPost2010Prop43
 90
        3
102
RTVSPost2010PropOp43
 70
     1
102
RTVSPost2010Prop44ColorIndex
 90
        5
102
RTVSPost2010Prop44ColorRGB
 90
      255
102
RTVSPost2010PropOp44
 70
     1
102
RTVSPost2010Prop45
280
     0
102
RTVSPost2010PropOp45
 70
     1
102
RTVSPost2010Prop46
 90
       50
102
RTVSPost2010PropOp46
 70
     1
102
RTVSPost2010Prop47
 90
       50
102
RTVSPost2010PropOp47
 70
     1
102
RTVSPost2010Prop48
 90
       50
102
RTVSPost2010PropOp48
 70
     1
102
RTVSPost2010Prop49
280
     0
102
RTVSPost2010PropOp49
 70
     1
102
RTVSPost2010Prop50
 90
       50
102
RTVSPost2010PropOp50
 70
     1
102
RTVSPost2010Prop51ColorIndex
 90
      256
102
RTVSPost2010Prop51ColorRGB
 90
-16777216
102
RTVSPost2010PropOp51
 70
     0
102
RTVSPost2010Prop52
140
1.0
102
RTVSPost2010PropOp52
 70
     0
102
RTVSPost2010Prop53
 90
        2
102
RTVSPost2010PropOp53
 70
     1
102
RTVSPost2010Prop54
  1
strokes_ogs.tif
102
RTVSPost2010PropOp54
 70
     1
102
RTVSPost2010Prop55
280
     0
102
RTVSPost2010PropOp55
 70
     1
102
RTVSPost2010Prop56
140
1.0
102
RTVSPost2010PropOp56
 70
     1
102
RTVSPost2010Prop57
140
1.0
102
RTVSPost2010PropOp57
 70
     1
  0
XRECORD
  5
62E
102
{ACAD_REACTORS
330
62D
102
}
330
62D
100
AcDbXrecord
280
     1
102
RTVSPropertyOp0
 70
     1
102
RTVSPropertyOp1
 70
     1
102
RTVSPropertyOp2
 70
     1
102
RTVSPropertyOp3
 70
     1
102
RTVSPropertyOp4
 70
     1
102
RTVSPropertyOp5
 70
     1
102
RTVSPropertyOp6
 70
     1
102
RTVSPropertyOp7
 70
     1
102
RTVSPropertyOp8
 70
     1
102
RTVSPropertyOp9
 70
     1
102
RTVSPropertyOp10
 70
     1
102
RTVSPropertyOp11
 70
     1
102
RTVSPropertyOp12
 70
     1
102
RTVSPropertyOp13
 70
     1
102
RTVSPropertyOp14
 70
     1
102
RTVSPropertyOp15
 70
     1
102
RTVSPropertyOp16
 70
     1
102
RTVSPropertyOp17
 70
     1
102
RTVSPropertyOp18
 70
     1
102
RTVSPropertyOp19
 70
     1
102
RTVSPropertyOp20
 70
     1
102
RTVSPropertyOp21
 70
     1
102
RTVSPropertyOp22
 70
     1
102
RTVSPropertyOp23
 70
     1
102
RTVSPropertyOp24
 70
     1
102
RTVSPropertyOp25
 70
     1
102
RTVSPropertyOp26
 70
     1
102
RTVSPropertyOp27
 70
     1
102
RTVSPropertyOp28
 70
     1
102
RTVSPropertyOp29
 70
     1
102
RTVSPropertyOp30
 70
     1
102
RTVSPropertyOp31
 70
     1
102
RTVSPropertyOp32
 70
     1
102
RTVSPropertyOp33
 70
     1
102
RTVSPropertyOp34
 70
     1
102
RTVSPropertyOp35
 70
     1
102
RTVSPropertyOp36
 70
     1
102
RTVSPropertyOp37
 70
     1
102
RTVSPropertyOp38
 70
     1
102
RTVSPropertyOp39
 70
     1
102
RTVSPropertyOp40
 70
     1
102
RTVSPropertyOp41
 70
     1
102
RTVSPropertyOp42
 70
     1
102
RTVSPropertyOp43
 70
     1
102
RTVSPropertyOp44
 70
     1
102
RTVSPropertyOp45
 70
     1
102
RTVSPropertyOp46
 70
     1
102
RTVSPropertyOp47
 70
     1
102
RTVSPropertyOp48
 70
     1
102
RTVSPropertyOp49
 70
     1
102
RTVSPropertyOp50
 70
     1
102
RTVSPropertyOp51
 70
     0
102
RTVSPropertyOp52
 70
     0
102
RTVSPropertyOp53
 70
     1
102
RTVSPropertyOp54
 70
     1
102
RTVSPropertyOp55
 70
     1
102
RTVSPropertyOp56
 70
     1
102
RTVSPropertyOp57
 70
     1
102
RTVSPost2010Prop28
280
     0
102
RTVSPost2010PropOp28
 70
     1
102
RTVSPost2010Prop29
280
     1
102
RTVSPost2010PropOp29
 70
     1
102
RTVSPost2010Prop30
280
     1
102
RTVSPost2010PropOp30
 70
     1
102
RTVSPost2010Prop31
280
     0
102
RTVSPost2010PropOp31
 70
     1
102
RTVSPost2010Prop32
280
     0
102
RTVSPost2010PropOp32
 70
     1
102
RTVSPost2010Prop33
280
     0
102
RTVSPost2010PropOp33
 70
     1
102
RTVSPost2010Prop34
280
     0
102
RTVSPost2010PropOp34
 70
     1
102
RTVSPost2010Prop35
280
     0
102
RTVSPost2010PropOp35
 70
     1
102
RTVSPost2010Prop36
280
     0
102
RTVSPost2010PropOp36
 70
     1
102
RTVSPost2010Prop37
 90
       50
102
RTVSPost2010PropOp37
 70
     1
102
RTVSPost2010Prop38
140
0.0
102
RTVSPost2010PropOp38
 70
     1
102
RTVSPost2010Prop39
140
1.0
102
RTVSPost2010PropOp39
 70
     1
102
RTVSPost2010Prop40
 90
        0
102
RTVSPost2010PropOp40
 70
     1
102
RTVSPost2010Prop41ColorIndex
 90
       18
102
RTVSPost2010Prop41ColorRGB
 90
        0
102
RTVSPost2010PropOp41
 70
     1
102
RTVSPost2010Prop42
 90
       50
102
RTVSPost2010PropOp42
 70
     1
102
RTVSPost2010Prop43
 90
        3
102
RTVSPost2010PropOp43
 70
     1
102
RTVSPost2010Prop44ColorIndex
 90
        5
102
RTVSPost2010Prop44ColorRGB
 90
      255
102
RTVSPost2010PropOp44
 70
     1
102
RTVSPost2010Prop45
280
     0
102
RTVSPost2010PropOp45
 70
     1
102
RTVSPost2010Prop46
 90
       50
102
RTVSPost2010PropOp46
 70
     1
102
RTVSPost2010Prop47
 90
       50
102
RTVSPost2010PropOp47
 70
     1
102
RTVSPost2010Prop48
 90
       50
102
RTVSPost2010PropOp48
 70
     1
102
RTVSPost2010Prop49
280
     0
102
RTVSPost2010PropOp49
 70
     1
102
RTVSPost2010Prop50
 90
       50
102
RTVSPost2010PropOp50
 70
     1
102
RTVSPost2010Prop51ColorIndex
 90
      256
102
RTVSPost2010Prop51ColorRGB
 90
-16777216
102
RTVSPost2010PropOp51
 70
     0
102
RTVSPost2010Prop52
140
1.0
102
RTVSPost2010PropOp52
 70
     0
102
RTVSPost2010Prop53
 90
        2
102
RTVSPost2010PropOp53
 70
     1
102
RTVSPost2010Prop54
  1
strokes_ogs.tif
102
RTVSPost2010PropOp54
 70
     1
102
RTVSPost2010Prop55
280
     0
102
RTVSPost2010PropOp55
 70
     1
102
RTVSPost2010Prop56
140
1.0
102
RTVSPost2010PropOp56
 70
     1
102
RTVSPost2010Prop57
140
1.0
102
RTVSPost2010PropOp57
 70
     1
  0
XRECORD
  5
62C
102
{ACAD_REACTORS
330
62B
102
}
330
62B
100
AcDbXrecord
280
     1
102
RTVSPropertyOp0
 70
     1
102
RTVSPropertyOp1
 70
     1
102
RTVSPropertyOp2
 70
     1
102
RTVSPropertyOp3
 70
     1
102
RTVSPropertyOp4
 70
     1
102
RTVSPropertyOp5
 70
     1
102
RTVSPropertyOp6
 70
     1
102
RTVSPropertyOp7
 70
     1
102
RTVSPropertyOp8
 70
     1
102
RTVSPropertyOp9
 70
     1
102
RTVSPropertyOp10
 70
     1
102
RTVSPropertyOp11
 70
     1
102
RTVSPropertyOp12
 70
     1
102
RTVSPropertyOp13
 70
     1
102
RTVSPropertyOp14
 70
     1
102
RTVSPropertyOp15
 70
     1
102
RTVSPropertyOp16
 70
     1
102
RTVSPropertyOp17
 70
     1
102
RTVSPropertyOp18
 70
     1
102
RTVSPropertyOp19
 70
     1
102
RTVSPropertyOp20
 70
     1
102
RTVSPropertyOp21
 70
     1
102
RTVSPropertyOp22
 70
     1
102
RTVSPropertyOp23
 70
     1
102
RTVSPropertyOp24
 70
     1
102
RTVSPropertyOp25
 70
     1
102
RTVSPropertyOp26
 70
     1
102
RTVSPropertyOp27
 70
     1
102
RTVSPropertyOp28
 70
     1
102
RTVSPropertyOp29
 70
     1
102
RTVSPropertyOp30
 70
     1
102
RTVSPropertyOp31
 70
     1
102
RTVSPropertyOp32
 70
     1
102
RTVSPropertyOp33
 70
     1
102
RTVSPropertyOp34
 70
     1
102
RTVSPropertyOp35
 70
     1
102
RTVSPropertyOp36
 70
     1
102
RTVSPropertyOp37
 70
     1
102
RTVSPropertyOp38
 70
     1
102
RTVSPropertyOp39
 70
     1
102
RTVSPropertyOp40
 70
     1
102
RTVSPropertyOp41
 70
     1
102
RTVSPropertyOp42
 70
     1
102
RTVSPropertyOp43
 70
     1
102
RTVSPropertyOp44
 70
     1
102
RTVSPropertyOp45
 70
     1
102
RTVSPropertyOp46
 70
     1
102
RTVSPropertyOp47
 70
     1
102
RTVSPropertyOp48
 70
     1
102
RTVSPropertyOp49
 70
     1
102
RTVSPropertyOp50
 70
     1
102
RTVSPropertyOp51
 70
     0
102
RTVSPropertyOp52
 70
     0
102
RTVSPropertyOp53
 70
     1
102
RTVSPropertyOp54
 70
     1
102
RTVSPropertyOp55
 70
     1
102
RTVSPropertyOp56
 70
     1
102
RTVSPropertyOp57
 70
     1
102
RTVSPost2010Prop28
280
     0
102
RTVSPost2010PropOp28
 70
     1
102
RTVSPost2010Prop29
280
     1
102
RTVSPost2010PropOp29
 70
     1
102
RTVSPost2010Prop30
280
     1
102
RTVSPost2010PropOp30
 70
     1
102
RTVSPost2010Prop31
280
     0
102
RTVSPost2010PropOp31
 70
     1
102
RTVSPost2010Prop32
280
     0
102
RTVSPost2010PropOp32
 70
     1
102
RTVSPost2010Prop33
280
     0
102
RTVSPost2010PropOp33
 70
     1
102
RTVSPost2010Prop34
280
     0
102
RTVSPost2010PropOp34
 70
     1
102
RTVSPost2010Prop35
280
     0
102
RTVSPost2010PropOp35
 70
     1
102
RTVSPost2010Prop36
280
     0
102
RTVSPost2010PropOp36
 70
     1
102
RTVSPost2010Prop37
 90
       50
102
RTVSPost2010PropOp37
 70
     1
102
RTVSPost2010Prop38
140
0.0
102
RTVSPost2010PropOp38
 70
     1
102
RTVSPost2010Prop39
140
1.0
102
RTVSPost2010PropOp39
 70
     1
102
RTVSPost2010Prop40
 90
        0
102
RTVSPost2010PropOp40
 70
     1
102
RTVSPost2010Prop41ColorIndex
 90
       18
102
RTVSPost2010Prop41ColorRGB
 90
        0
102
RTVSPost2010PropOp41
 70
     1
102
RTVSPost2010Prop42
 90
       50
102
RTVSPost2010PropOp42
 70
     1
102
RTVSPost2010Prop43
 90
        3
102
RTVSPost2010PropOp43
 70
     1
102
RTVSPost2010Prop44ColorIndex
 90
        5
102
RTVSPost2010Prop44ColorRGB
 90
      255
102
RTVSPost2010PropOp44
 70
     1
102
RTVSPost2010Prop45
280
     0
102
RTVSPost2010PropOp45
 70
     1
102
RTVSPost2010Prop46
 90
       50
102
RTVSPost2010PropOp46
 70
     1
102
RTVSPost2010Prop47
 90
       50
102
RTVSPost2010PropOp47
 70
     1
102
RTVSPost2010Prop48
 90
       50
102
RTVSPost2010PropOp48
 70
     1
102
RTVSPost2010Prop49
280
     0
102
RTVSPost2010PropOp49
 70
     1
102
RTVSPost2010Prop50
 90
       50
102
RTVSPost2010PropOp50
 70
     1
102
RTVSPost2010Prop51ColorIndex
 90
      256
102
RTVSPost2010Prop51ColorRGB
 90
-16777216
102
RTVSPost2010PropOp51
 70
     0
102
RTVSPost2010Prop52
140
1.0
102
RTVSPost2010PropOp52
 70
     0
102
RTVSPost2010Prop53
 90
        2
102
RTVSPost2010PropOp53
 70
     1
102
RTVSPost2010Prop54
  1
strokes_ogs.tif
102
RTVSPost2010PropOp54
 70
     1
102
RTVSPost2010Prop55
280
     0
102
RTVSPost2010PropOp55
 70
     1
102
RTVSPost2010Prop56
140
1.0
102
RTVSPost2010PropOp56
 70
     1
102
RTVSPost2010Prop57
140
1.0
102
RTVSPost2010PropOp57
 70
     1
  0
XRECORD
  5
626
102
{ACAD_REACTORS
330
625
102
}
330
625
100
AcDbXrecord
280
     1
102
RTVSPropertyOp0
 70
     1
102
RTVSPropertyOp1
 70
     1
102
RTVSPropertyOp2
 70
     1
102
RTVSPropertyOp3
 70
     1
102
RTVSPropertyOp4
 70
     1
102
RTVSPropertyOp5
 70
     1
102
RTVSPropertyOp6
 70
     1
102
RTVSPropertyOp7
 70
     1
102
RTVSPropertyOp8
 70
     1
102
RTVSPropertyOp9
 70
     1
102
RTVSPropertyOp10
 70
     1
102
RTVSPropertyOp11
 70
     1
102
RTVSPropertyOp12
 70
     1
102
RTVSPropertyOp13
 70
     1
102
RTVSPropertyOp14
 70
     1
102
RTVSPropertyOp15
 70
     1
102
RTVSPropertyOp16
 70
     1
102
RTVSPropertyOp17
 70
     1
102
RTVSPropertyOp18
 70
     1
102
RTVSPropertyOp19
 70
     1
102
RTVSPropertyOp20
 70
     1
102
RTVSPropertyOp21
 70
     1
102
RTVSPropertyOp22
 70
     1
102
RTVSPropertyOp23
 70
     1
102
RTVSPropertyOp24
 70
     1
102
RTVSPropertyOp25
 70
     1
102
RTVSPropertyOp26
 70
     1
102
RTVSPropertyOp27
 70
     1
102
RTVSPropertyOp28
 70
     1
102
RTVSPropertyOp29
 70
     1
102
RTVSPropertyOp30
 70
     1
102
RTVSPropertyOp31
 70
     1
102
RTVSPropertyOp32
 70
     1
102
RTVSPropertyOp33
 70
     1
102
RTVSPropertyOp34
 70
     1
102
RTVSPropertyOp35
 70
     1
102
RTVSPropertyOp36
 70
     1
102
RTVSPropertyOp37
 70
     1
102
RTVSPropertyOp38
 70
     1
102
RTVSPropertyOp39
 70
     1
102
RTVSPropertyOp40
 70
     1
102
RTVSPropertyOp41
 70
     1
102
RTVSPropertyOp42
 70
     1
102
RTVSPropertyOp43
 70
     1
102
RTVSPropertyOp44
 70
     1
102
RTVSPropertyOp45
 70
     1
102
RTVSPropertyOp46
 70
     1
102
RTVSPropertyOp47
 70
     1
102
RTVSPropertyOp48
 70
     1
102
RTVSPropertyOp49
 70
     1
102
RTVSPropertyOp50
 70
     1
102
RTVSPropertyOp51
 70
     0
102
RTVSPropertyOp52
 70
     0
102
RTVSPropertyOp53
 70
     1
102
RTVSPropertyOp54
 70
     1
102
RTVSPropertyOp55
 70
     1
102
RTVSPropertyOp56
 70
     1
102
RTVSPropertyOp57
 70
     1
102
RTVSPost2010Prop28
280
     0
102
RTVSPost2010PropOp28
 70
     1
102
RTVSPost2010Prop29
280
     1
102
RTVSPost2010PropOp29
 70
     1
102
RTVSPost2010Prop30
280
     1
102
RTVSPost2010PropOp30
 70
     1
102
RTVSPost2010Prop31
280
     0
102
RTVSPost2010PropOp31
 70
     1
102
RTVSPost2010Prop32
280
     0
102
RTVSPost2010PropOp32
 70
     1
102
RTVSPost2010Prop33
280
     0
102
RTVSPost2010PropOp33
 70
     1
102
RTVSPost2010Prop34
280
     0
102
RTVSPost2010PropOp34
 70
     1
102
RTVSPost2010Prop35
280
     0
102
RTVSPost2010PropOp35
 70
     1
102
RTVSPost2010Prop36
280
     0
102
RTVSPost2010PropOp36
 70
     1
102
RTVSPost2010Prop37
 90
       50
102
RTVSPost2010PropOp37
 70
     1
102
RTVSPost2010Prop38
140
0.0
102
RTVSPost2010PropOp38
 70
     1
102
RTVSPost2010Prop39
140
1.0
102
RTVSPost2010PropOp39
 70
     1
102
RTVSPost2010Prop40
 90
        0
102
RTVSPost2010PropOp40
 70
     1
102
RTVSPost2010Prop41ColorIndex
 90
       18
102
RTVSPost2010Prop41ColorRGB
 90
        0
102
RTVSPost2010PropOp41
 70
     1
102
RTVSPost2010Prop42
 90
       50
102
RTVSPost2010PropOp42
 70
     1
102
RTVSPost2010Prop43
 90
        3
102
RTVSPost2010PropOp43
 70
     1
102
RTVSPost2010Prop44ColorIndex
 90
        5
102
RTVSPost2010Prop44ColorRGB
 90
      255
102
RTVSPost2010PropOp44
 70
     1
102
RTVSPost2010Prop45
280
     0
102
RTVSPost2010PropOp45
 70
     1
102
RTVSPost2010Prop46
 90
       50
102
RTVSPost2010PropOp46
 70
     1
102
RTVSPost2010Prop47
 90
       50
102
RTVSPost2010PropOp47
 70
     1
102
RTVSPost2010Prop48
 90
       50
102
RTVSPost2010PropOp48
 70
     1
102
RTVSPost2010Prop49
280
     0
102
RTVSPost2010PropOp49
 70
     1
102
RTVSPost2010Prop50
 90
       50
102
RTVSPost2010PropOp50
 70
     1
102
RTVSPost2010Prop51ColorIndex
 90
      256
102
RTVSPost2010Prop51ColorRGB
 90
-16777216
102
RTVSPost2010PropOp51
 70
     0
102
RTVSPost2010Prop52
140
1.0
102
RTVSPost2010PropOp52
 70
     0
102
RTVSPost2010Prop53
 90
        2
102
RTVSPost2010PropOp53
 70
     1
102
RTVSPost2010Prop54
  1
strokes_ogs.tif
102
RTVSPost2010PropOp54
 70
     1
102
RTVSPost2010Prop55
280
     0
102
RTVSPost2010PropOp55
 70
     1
102
RTVSPost2010Prop56
140
1.0
102
RTVSPost2010PropOp56
 70
     1
102
RTVSPost2010Prop57
140
1.0
102
RTVSPost2010PropOp57
 70
     1
  0
XRECORD
  5
628
102
{ACAD_REACTORS
330
627
102
}
330
627
100
AcDbXrecord
280
     1
102
RTVSPropertyOp0
 70
     1
102
RTVSPropertyOp1
 70
     1
102
RTVSPropertyOp2
 70
     1
102
RTVSPropertyOp3
 70
     1
102
RTVSPropertyOp4
 70
     1
102
RTVSPropertyOp5
 70
     1
102
RTVSPropertyOp6
 70
     1
102
RTVSPropertyOp7
 70
     1
102
RTVSPropertyOp8
 70
     1
102
RTVSPropertyOp9
 70
     1
102
RTVSPropertyOp10
 70
     1
102
RTVSPropertyOp11
 70
     1
102
RTVSPropertyOp12
 70
     1
102
RTVSPropertyOp13
 70
     1
102
RTVSPropertyOp14
 70
     1
102
RTVSPropertyOp15
 70
     1
102
RTVSPropertyOp16
 70
     1
102
RTVSPropertyOp17
 70
     1
102
RTVSPropertyOp18
 70
     1
102
RTVSPropertyOp19
 70
     1
102
RTVSPropertyOp20
 70
     1
102
RTVSPropertyOp21
 70
     1
102
RTVSPropertyOp22
 70
     1
102
RTVSPropertyOp23
 70
     1
102
RTVSPropertyOp24
 70
     1
102
RTVSPropertyOp25
 70
     1
102
RTVSPropertyOp26
 70
     1
102
RTVSPropertyOp27
 70
     1
102
RTVSPropertyOp28
 70
     1
102
RTVSPropertyOp29
 70
     1
102
RTVSPropertyOp30
 70
     1
102
RTVSPropertyOp31
 70
     1
102
RTVSPropertyOp32
 70
     1
102
RTVSPropertyOp33
 70
     1
102
RTVSPropertyOp34
 70
     1
102
RTVSPropertyOp35
 70
     1
102
RTVSPropertyOp36
 70
     1
102
RTVSPropertyOp37
 70
     1
102
RTVSPropertyOp38
 70
     1
102
RTVSPropertyOp39
 70
     1
102
RTVSPropertyOp40
 70
     1
102
RTVSPropertyOp41
 70
     1
102
RTVSPropertyOp42
 70
     1
102
RTVSPropertyOp43
 70
     1
102
RTVSPropertyOp44
 70
     1
102
RTVSPropertyOp45
 70
     1
102
RTVSPropertyOp46
 70
     1
102
RTVSPropertyOp47
 70
     1
102
RTVSPropertyOp48
 70
     1
102
RTVSPropertyOp49
 70
     1
102
RTVSPropertyOp50
 70
     1
102
RTVSPropertyOp51
 70
     0
102
RTVSPropertyOp52
 70
     0
102
RTVSPropertyOp53
 70
     1
102
RTVSPropertyOp54
 70
     1
102
RTVSPropertyOp55
 70
     1
102
RTVSPropertyOp56
 70
     1
102
RTVSPropertyOp57
 70
     1
102
RTVSPost2010Prop28
280
     0
102
RTVSPost2010PropOp28
 70
     1
102
RTVSPost2010Prop29
280
     1
102
RTVSPost2010PropOp29
 70
     1
102
RTVSPost2010Prop30
280
     1
102
RTVSPost2010PropOp30
 70
     1
102
RTVSPost2010Prop31
280
     0
102
RTVSPost2010PropOp31
 70
     1
102
RTVSPost2010Prop32
280
     0
102
RTVSPost2010PropOp32
 70
     1
102
RTVSPost2010Prop33
280
     0
102
RTVSPost2010PropOp33
 70
     1
102
RTVSPost2010Prop34
280
     0
102
RTVSPost2010PropOp34
 70
     1
102
RTVSPost2010Prop35
280
     0
102
RTVSPost2010PropOp35
 70
     1
102
RTVSPost2010Prop36
280
     0
102
RTVSPost2010PropOp36
 70
     1
102
RTVSPost2010Prop37
 90
       50
102
RTVSPost2010PropOp37
 70
     1
102
RTVSPost2010Prop38
140
0.0
102
RTVSPost2010PropOp38
 70
     1
102
RTVSPost2010Prop39
140
1.0
102
RTVSPost2010PropOp39
 70
     1
102
RTVSPost2010Prop40
 90
        0
102
RTVSPost2010PropOp40
 70
     1
102
RTVSPost2010Prop41ColorIndex
 90
       18
102
RTVSPost2010Prop41ColorRGB
 90
        0
102
RTVSPost2010PropOp41
 70
     1
102
RTVSPost2010Prop42
 90
       50
102
RTVSPost2010PropOp42
 70
     1
102
RTVSPost2010Prop43
 90
        3
102
RTVSPost2010PropOp43
 70
     1
102
RTVSPost2010Prop44ColorIndex
 90
        5
102
RTVSPost2010Prop44ColorRGB
 90
      255
102
RTVSPost2010PropOp44
 70
     1
102
RTVSPost2010Prop45
280
     0
102
RTVSPost2010PropOp45
 70
     1
102
RTVSPost2010Prop46
 90
       50
102
RTVSPost2010PropOp46
 70
     1
102
RTVSPost2010Prop47
 90
       50
102
RTVSPost2010PropOp47
 70
     1
102
RTVSPost2010Prop48
 90
       50
102
RTVSPost2010PropOp48
 70
     1
102
RTVSPost2010Prop49
280
     0
102
RTVSPost2010PropOp49
 70
     1
102
RTVSPost2010Prop50
 90
       50
102
RTVSPost2010PropOp50
 70
     1
102
RTVSPost2010Prop51ColorIndex
 90
      256
102
RTVSPost2010Prop51ColorRGB
 90
-16777216
102
RTVSPost2010PropOp51
 70
     0
102
RTVSPost2010Prop52
140
1.0
102
RTVSPost2010PropOp52
 70
     0
102
RTVSPost2010Prop53
 90
        2
102
RTVSPost2010PropOp53
 70
     1
102
RTVSPost2010Prop54
  1
strokes_ogs.tif
102
RTVSPost2010PropOp54
 70
     1
102
RTVSPost2010Prop55
280
     0
102
RTVSPost2010PropOp55
 70
     1
102
RTVSPost2010Prop56
140
1.0
102
RTVSPost2010PropOp56
 70
     1
102
RTVSPost2010Prop57
140
1.0
102
RTVSPost2010PropOp57
 70
     1
  0
XRECORD
  5
618
102
{ACAD_REACTORS
330
617
102
}
330
617
100
AcDbXrecord
280
     1
102
RTVSPropertyOp0
 70
     1
102
RTVSPropertyOp1
 70
     1
102
RTVSPropertyOp2
 70
     1
102
RTVSPropertyOp3
 70
     1
102
RTVSPropertyOp4
 70
     1
102
RTVSPropertyOp5
 70
     1
102
RTVSPropertyOp6
 70
     1
102
RTVSPropertyOp7
 70
     1
102
RTVSPropertyOp8
 70
     1
102
RTVSPropertyOp9
 70
     1
102
RTVSPropertyOp10
 70
     1
102
RTVSPropertyOp11
 70
     1
102
RTVSPropertyOp12
 70
     1
102
RTVSPropertyOp13
 70
     1
102
RTVSPropertyOp14
 70
     1
102
RTVSPropertyOp15
 70
     1
102
RTVSPropertyOp16
 70
     1
102
RTVSPropertyOp17
 70
     1
102
RTVSPropertyOp18
 70
     1
102
RTVSPropertyOp19
 70
     1
102
RTVSPropertyOp20
 70
     1
102
RTVSPropertyOp21
 70
     1
102
RTVSPropertyOp22
 70
     1
102
RTVSPropertyOp23
 70
     1
102
RTVSPropertyOp24
 70
     1
102
RTVSPropertyOp25
 70
     1
102
RTVSPropertyOp26
 70
     1
102
RTVSPropertyOp27
 70
     1
102
RTVSPropertyOp28
 70
     1
102
RTVSPropertyOp29
 70
     1
102
RTVSPropertyOp30
 70
     1
102
RTVSPropertyOp31
 70
     1
102
RTVSPropertyOp32
 70
     1
102
RTVSPropertyOp33
 70
     1
102
RTVSPropertyOp34
 70
     1
102
RTVSPropertyOp35
 70
     1
102
RTVSPropertyOp36
 70
     1
102
RTVSPropertyOp37
 70
     1
102
RTVSPropertyOp38
 70
     1
102
RTVSPropertyOp39
 70
     1
102
RTVSPropertyOp40
 70
     1
102
RTVSPropertyOp41
 70
     1
102
RTVSPropertyOp42
 70
     1
102
RTVSPropertyOp43
 70
     1
102
RTVSPropertyOp44
 70
     1
102
RTVSPropertyOp45
 70
     1
102
RTVSPropertyOp46
 70
     1
102
RTVSPropertyOp47
 70
     1
102
RTVSPropertyOp48
 70
     1
102
RTVSPropertyOp49
 70
     1
102
RTVSPropertyOp50
 70
     1
102
RTVSPropertyOp51
 70
     0
102
RTVSPropertyOp52
 70
     0
102
RTVSPropertyOp53
 70
     1
102
RTVSPropertyOp54
 70
     1
102
RTVSPropertyOp55
 70
     1
102
RTVSPropertyOp56
 70
     1
102
RTVSPropertyOp57
 70
     1
102
RTVSPost2010Prop28
280
     0
102
RTVSPost2010PropOp28
 70
     1
102
RTVSPost2010Prop29
280
     1
102
RTVSPost2010PropOp29
 70
     1
102
RTVSPost2010Prop30
280
     1
102
RTVSPost2010PropOp30
 70
     1
102
RTVSPost2010Prop31
280
     0
102
RTVSPost2010PropOp31
 70
     1
102
RTVSPost2010Prop32
280
     0
102
RTVSPost2010PropOp32
 70
     1
102
RTVSPost2010Prop33
280
     0
102
RTVSPost2010PropOp33
 70
     1
102
RTVSPost2010Prop34
280
     0
102
RTVSPost2010PropOp34
 70
     1
102
RTVSPost2010Prop35
280
     0
102
RTVSPost2010PropOp35
 70
     1
102
RTVSPost2010Prop36
280
     0
102
RTVSPost2010PropOp36
 70
     1
102
RTVSPost2010Prop37
 90
       50
102
RTVSPost2010PropOp37
 70
     1
102
RTVSPost2010Prop38
140
0.0
102
RTVSPost2010PropOp38
 70
     1
102
RTVSPost2010Prop39
140
1.0
102
RTVSPost2010PropOp39
 70
     1
102
RTVSPost2010Prop40
 90
        0
102
RTVSPost2010PropOp40
 70
     1
102
RTVSPost2010Prop41ColorIndex
 90
       18
102
RTVSPost2010Prop41ColorRGB
 90
        0
102
RTVSPost2010PropOp41
 70
     1
102
RTVSPost2010Prop42
 90
       50
102
RTVSPost2010PropOp42
 70
     1
102
RTVSPost2010Prop43
 90
        3
102
RTVSPost2010PropOp43
 70
     1
102
RTVSPost2010Prop44ColorIndex
 90
        5
102
RTVSPost2010Prop44ColorRGB
 90
      255
102
RTVSPost2010PropOp44
 70
     1
102
RTVSPost2010Prop45
280
     0
102
RTVSPost2010PropOp45
 70
     1
102
RTVSPost2010Prop46
 90
       50
102
RTVSPost2010PropOp46
 70
     1
102
RTVSPost2010Prop47
 90
       50
102
RTVSPost2010PropOp47
 70
     1
102
RTVSPost2010Prop48
 90
       50
102
RTVSPost2010PropOp48
 70
     1
102
RTVSPost2010Prop49
280
     0
102
RTVSPost2010PropOp49
 70
     1
102
RTVSPost2010Prop50
 90
       50
102
RTVSPost2010PropOp50
 70
     1
102
RTVSPost2010Prop51ColorIndex
 90
      256
102
RTVSPost2010Prop51ColorRGB
 90
-16777216
102
RTVSPost2010PropOp51
 70
     0
102
RTVSPost2010Prop52
140
1.0
102
RTVSPost2010PropOp52
 70
     0
102
RTVSPost2010Prop53
 90
        2
102
RTVSPost2010PropOp53
 70
     1
102
RTVSPost2010Prop54
  1
strokes_ogs.tif
102
RTVSPost2010PropOp54
 70
     1
102
RTVSPost2010Prop55
280
     0
102
RTVSPost2010PropOp55
 70
     1
102
RTVSPost2010Prop56
140
1.0
102
RTVSPost2010PropOp56
 70
     1
102
RTVSPost2010Prop57
140
1.0
102
RTVSPost2010PropOp57
 70
     1
  0
XRECORD
  5
60A
102
{ACAD_REACTORS
330
609
102
}
330
609
100
AcDbXrecord
280
     1
102
RTVSPropertyOp0
 70
     1
102
RTVSPropertyOp1
 70
     1
102
RTVSPropertyOp2
 70
     1
102
RTVSPropertyOp3
 70
     1
102
RTVSPropertyOp4
 70
     1
102
RTVSPropertyOp5
 70
     1
102
RTVSPropertyOp6
 70
     1
102
RTVSPropertyOp7
 70
     1
102
RTVSPropertyOp8
 70
     1
102
RTVSPropertyOp9
 70
     1
102
RTVSPropertyOp10
 70
     1
102
RTVSPropertyOp11
 70
     1
102
RTVSPropertyOp12
 70
     1
102
RTVSPropertyOp13
 70
     1
102
RTVSPropertyOp14
 70
     1
102
RTVSPropertyOp15
 70
     1
102
RTVSPropertyOp16
 70
     1
102
RTVSPropertyOp17
 70
     1
102
RTVSPropertyOp18
 70
     1
102
RTVSPropertyOp19
 70
     1
102
RTVSPropertyOp20
 70
     1
102
RTVSPropertyOp21
 70
     1
102
RTVSPropertyOp22
 70
     1
102
RTVSPropertyOp23
 70
     1
102
RTVSPropertyOp24
 70
     1
102
RTVSPropertyOp25
 70
     1
102
RTVSPropertyOp26
 70
     1
102
RTVSPropertyOp27
 70
     1
102
RTVSPropertyOp28
 70
     1
102
RTVSPropertyOp29
 70
     1
102
RTVSPropertyOp30
 70
     1
102
RTVSPropertyOp31
 70
     1
102
RTVSPropertyOp32
 70
     1
102
RTVSPropertyOp33
 70
     1
102
RTVSPropertyOp34
 70
     1
102
RTVSPropertyOp35
 70
     1
102
RTVSPropertyOp36
 70
     1
102
RTVSPropertyOp37
 70
     1
102
RTVSPropertyOp38
 70
     1
102
RTVSPropertyOp39
 70
     1
102
RTVSPropertyOp40
 70
     1
102
RTVSPropertyOp41
 70
     1
102
RTVSPropertyOp42
 70
     1
102
RTVSPropertyOp43
 70
     1
102
RTVSPropertyOp44
 70
     1
102
RTVSPropertyOp45
 70
     1
102
RTVSPropertyOp46
 70
     1
102
RTVSPropertyOp47
 70
     1
102
RTVSPropertyOp48
 70
     1
102
RTVSPropertyOp49
 70
     1
102
RTVSPropertyOp50
 70
     1
102
RTVSPropertyOp51
 70
     0
102
RTVSPropertyOp52
 70
     0
102
RTVSPropertyOp53
 70
     1
102
RTVSPropertyOp54
 70
     1
102
RTVSPropertyOp55
 70
     1
102
RTVSPropertyOp56
 70
     1
102
RTVSPropertyOp57
 70
     1
102
RTVSPost2010Prop28
280
     0
102
RTVSPost2010PropOp28
 70
     1
102
RTVSPost2010Prop29
280
     1
102
RTVSPost2010PropOp29
 70
     1
102
RTVSPost2010Prop30
280
     1
102
RTVSPost2010PropOp30
 70
     1
102
RTVSPost2010Prop31
280
     0
102
RTVSPost2010PropOp31
 70
     1
102
RTVSPost2010Prop32
280
     0
102
RTVSPost2010PropOp32
 70
     1
102
RTVSPost2010Prop33
280
     0
102
RTVSPost2010PropOp33
 70
     1
102
RTVSPost2010Prop34
280
     0
102
RTVSPost2010PropOp34
 70
     1
102
RTVSPost2010Prop35
280
     0
102
RTVSPost2010PropOp35
 70
     1
102
RTVSPost2010Prop36
280
     0
102
RTVSPost2010PropOp36
 70
     1
102
RTVSPost2010Prop37
 90
       50
102
RTVSPost2010PropOp37
 70
     1
102
RTVSPost2010Prop38
140
0.0
102
RTVSPost2010PropOp38
 70
     1
102
RTVSPost2010Prop39
140
1.0
102
RTVSPost2010PropOp39
 70
     1
102
RTVSPost2010Prop40
 90
        0
102
RTVSPost2010PropOp40
 70
     1
102
RTVSPost2010Prop41ColorIndex
 90
       18
102
RTVSPost2010Prop41ColorRGB
 90
        0
102
RTVSPost2010PropOp41
 70
     1
102
RTVSPost2010Prop42
 90
       50
102
RTVSPost2010PropOp42
 70
     1
102
RTVSPost2010Prop43
 90
        3
102
RTVSPost2010PropOp43
 70
     1
102
RTVSPost2010Prop44ColorIndex
 90
        5
102
RTVSPost2010Prop44ColorRGB
 90
      255
102
RTVSPost2010PropOp44
 70
     1
102
RTVSPost2010Prop45
280
     0
102
RTVSPost2010PropOp45
 70
     1
102
RTVSPost2010Prop46
 90
       50
102
RTVSPost2010PropOp46
 70
     1
102
RTVSPost2010Prop47
 90
       50
102
RTVSPost2010PropOp47
 70
     1
102
RTVSPost2010Prop48
 90
       50
102
RTVSPost2010PropOp48
 70
     1
102
RTVSPost2010Prop49
280
     0
102
RTVSPost2010PropOp49
 70
     1
102
RTVSPost2010Prop50
 90
       50
102
RTVSPost2010PropOp50
 70
     1
102
RTVSPost2010Prop51ColorIndex
 90
      256
102
RTVSPost2010Prop51ColorRGB
 90
-16777216
102
RTVSPost2010PropOp51
 70
     0
102
RTVSPost2010Prop52
140
1.0
102
RTVSPost2010PropOp52
 70
     0
102
RTVSPost2010Prop53
 90
        2
102
RTVSPost2010PropOp53
 70
     1
102
RTVSPost2010Prop54
  1
strokes_ogs.tif
102
RTVSPost2010PropOp54
 70
     1
102
RTVSPost2010Prop55
280
     0
102
RTVSPost2010PropOp55
 70
     1
102
RTVSPost2010Prop56
140
1.0
102
RTVSPost2010PropOp56
 70
     1
102
RTVSPost2010Prop57
140
1.0
102
RTVSPost2010PropOp57
 70
     1
  0
XRECORD
  5
62A
102
{ACAD_REACTORS
330
629
102
}
330
629
100
AcDbXrecord
280
     1
102
RTVSPropertyOp0
 70
     1
102
RTVSPropertyOp1
 70
     1
102
RTVSPropertyOp2
 70
     1
102
RTVSPropertyOp3
 70
     1
102
RTVSPropertyOp4
 70
     1
102
RTVSPropertyOp5
 70
     1
102
RTVSPropertyOp6
 70
     1
102
RTVSPropertyOp7
 70
     1
102
RTVSPropertyOp8
 70
     1
102
RTVSPropertyOp9
 70
     1
102
RTVSPropertyOp10
 70
     1
102
RTVSPropertyOp11
 70
     1
102
RTVSPropertyOp12
 70
     1
102
RTVSPropertyOp13
 70
     1
102
RTVSPropertyOp14
 70
     1
102
RTVSPropertyOp15
 70
     1
102
RTVSPropertyOp16
 70
     1
102
RTVSPropertyOp17
 70
     1
102
RTVSPropertyOp18
 70
     1
102
RTVSPropertyOp19
 70
     1
102
RTVSPropertyOp20
 70
     1
102
RTVSPropertyOp21
 70
     1
102
RTVSPropertyOp22
 70
     1
102
RTVSPropertyOp23
 70
     1
102
RTVSPropertyOp24
 70
     1
102
RTVSPropertyOp25
 70
     1
102
RTVSPropertyOp26
 70
     1
102
RTVSPropertyOp27
 70
     1
102
RTVSPropertyOp28
 70
     1
102
RTVSPropertyOp29
 70
     1
102
RTVSPropertyOp30
 70
     1
102
RTVSPropertyOp31
 70
     1
102
RTVSPropertyOp32
 70
     1
102
RTVSPropertyOp33
 70
     1
102
RTVSPropertyOp34
 70
     1
102
RTVSPropertyOp35
 70
     1
102
RTVSPropertyOp36
 70
     1
102
RTVSPropertyOp37
 70
     1
102
RTVSPropertyOp38
 70
     1
102
RTVSPropertyOp39
 70
     1
102
RTVSPropertyOp40
 70
     1
102
RTVSPropertyOp41
 70
     1
102
RTVSPropertyOp42
 70
     1
102
RTVSPropertyOp43
 70
     1
102
RTVSPropertyOp44
 70
     1
102
RTVSPropertyOp45
 70
     1
102
RTVSPropertyOp46
 70
     1
102
RTVSPropertyOp47
 70
     1
102
RTVSPropertyOp48
 70
     1
102
RTVSPropertyOp49
 70
     1
102
RTVSPropertyOp50
 70
     1
102
RTVSPropertyOp51
 70
     0
102
RTVSPropertyOp52
 70
     0
102
RTVSPropertyOp53
 70
     1
102
RTVSPropertyOp54
 70
     1
102
RTVSPropertyOp55
 70
     1
102
RTVSPropertyOp56
 70
     1
102
RTVSPropertyOp57
 70
     1
102
RTVSPost2010Prop28
280
     0
102
RTVSPost2010PropOp28
 70
     1
102
RTVSPost2010Prop29
280
     1
102
RTVSPost2010PropOp29
 70
     1
102
RTVSPost2010Prop30
280
     1
102
RTVSPost2010PropOp30
 70
     1
102
RTVSPost2010Prop31
280
     0
102
RTVSPost2010PropOp31
 70
     1
102
RTVSPost2010Prop32
280
     0
102
RTVSPost2010PropOp32
 70
     1
102
RTVSPost2010Prop33
280
     0
102
RTVSPost2010PropOp33
 70
     1
102
RTVSPost2010Prop34
280
     0
102
RTVSPost2010PropOp34
 70
     1
102
RTVSPost2010Prop35
280
     0
102
RTVSPost2010PropOp35
 70
     1
102
RTVSPost2010Prop36
280
     0
102
RTVSPost2010PropOp36
 70
     1
102
RTVSPost2010Prop37
 90
       50
102
RTVSPost2010PropOp37
 70
     1
102
RTVSPost2010Prop38
140
0.0
102
RTVSPost2010PropOp38
 70
     1
102
RTVSPost2010Prop39
140
1.0
102
RTVSPost2010PropOp39
 70
     1
102
RTVSPost2010Prop40
 90
        0
102
RTVSPost2010PropOp40
 70
     1
102
RTVSPost2010Prop41ColorIndex
 90
       18
102
RTVSPost2010Prop41ColorRGB
 90
        0
102
RTVSPost2010PropOp41
 70
     1
102
RTVSPost2010Prop42
 90
       50
102
RTVSPost2010PropOp42
 70
     1
102
RTVSPost2010Prop43
 90
        3
102
RTVSPost2010PropOp43
 70
     1
102
RTVSPost2010Prop44ColorIndex
 90
        5
102
RTVSPost2010Prop44ColorRGB
 90
      255
102
RTVSPost2010PropOp44
 70
     1
102
RTVSPost2010Prop45
280
     0
102
RTVSPost2010PropOp45
 70
     1
102
RTVSPost2010Prop46
 90
       50
102
RTVSPost2010PropOp46
 70
     1
102
RTVSPost2010Prop47
 90
       50
102
RTVSPost2010PropOp47
 70
     1
102
RTVSPost2010Prop48
 90
       50
102
RTVSPost2010PropOp48
 70
     1
102
RTVSPost2010Prop49
280
     0
102
RTVSPost2010PropOp49
 70
     1
102
RTVSPost2010Prop50
 90
       50
102
RTVSPost2010PropOp50
 70
     1
102
RTVSPost2010Prop51ColorIndex
 90
      256
102
RTVSPost2010Prop51ColorRGB
 90
-16777216
102
RTVSPost2010PropOp51
 70
     0
102
RTVSPost2010Prop52
140
1.0
102
RTVSPost2010PropOp52
 70
     0
102
RTVSPost2010Prop53
 90
        2
102
RTVSPost2010PropOp53
 70
     1
102
RTVSPost2010Prop54
  1
strokes_ogs.tif
102
RTVSPost2010PropOp54
 70
     1
102
RTVSPost2010Prop55
280
     0
102
RTVSPost2010PropOp55
 70
     1
102
RTVSPost2010Prop56
140
1.0
102
RTVSPost2010PropOp56
 70
     1
102
RTVSPost2010Prop57
140
1.0
102
RTVSPost2010PropOp57
 70
     1
  0
ENDSEC
  0
SECTION
  2
THUMBNAILIMAGE
 90
    16364
310
28000000B4000000550000000100080000000000C43B000000000000000000000001000000010000FFFFFF000000FF0000FFFF0000FF0000FFFF0000FF000000FF00FF000000000080808000C0C0C0000000FF007F7FFF000000A5005252A50000007F003F3F7F0000004C0026264C000000260013132600003FFF007F9FFF
310
000029A5005267A500001F7F003F4F7F0000134C00262F4C000009260013172600007FFF007FBFFF000052A500527CA500003F7F003F5F7F0000264C0026394C0000132600131C260000BFFF007FDFFF00007CA5005291A500005F7F003F6F7F0000394C0026424C00001C26001321260000FFFF007FFFFF0000A5A50052A5
310
A500007F7F003F7F7F00004C4C00264C4C00002626001326260000FFBF007FFFDF0000A57C0052A59100007F5F003F7F6F00004C3900264C420000261C001326210000FF7F007FFFBF0000A5520052A57C00007F3F003F7F5F00004C2600264C39000026130013261C0000FF3F007FFF9F0000A5290052A56700007F1F003F
310
7F4F00004C1300264C2F00002609001326170000FF00007FFF7F0000A5000052A55200007F00003F7F3F00004C0000264C260000260000132613003FFF00009FFF7F0029A5000067A552001F7F00004F7F3F00134C00002F4C260009260000172613007FFF0000BFFF7F0052A500007CA552003F7F00005F7F3F00264C0000
310
394C2600132600001C261300BFFF0000DFFF7F007CA5000091A552005F7F00006F7F3F00394C0000424C26001C26000021261300FFFF0000FFFF7F00A5A50000A5A552007F7F00007F7F3F004C4C00004C4C26002626000026261300FFBF0000FFDF7F00A57C0000A59152007F5F00007F6F3F004C3900004C422600261C00
310
0026211300FF7F0000FFBF7F00A5520000A57C52007F3F00007F5F3F004C2600004C39260026130000261C1300FF3F0000FF9F7F00A5290000A56752007F1F00007F4F3F004C1300004C2F26002609000026171300FF000000FF7F7F00A5000000A55252007F0000007F3F3F004C0000004C2626002600000026131300FF00
310
3F00FF7F9F00A5002900A55267007F001F007F3F4F004C0013004C262F002600090026131700FF007F00FF7FBF00A5005200A5527C007F003F007F3F5F004C0026004C2639002600130026131C00FF00BF00FF7FDF00A5007C00A55291007F005F007F3F6F004C0039004C26420026001C0026132100FF00FF00FF7FFF00A5
310
00A500A552A5007F007F007F3F7F004C004C004C264C002600260026132600BF00FF00DF7FFF007C00A5009152A5005F007F006F3F7F0039004C0042264C001C002600211326007F00FF00BF7FFF005200A5007C52A5003F007F005F3F7F0026004C0039264C00130026001C1326003F00FF009F7FFF002900A5006752A500
310
1F007F004F3F7F0013004C002F264C000900260017132600000000002D2D2D005B5B5B0089898900B7B7B700B3B3B30000000000000000000000000000000000000000000000000000000000000000000000000000000000000000000000000000000000000000000000000000000000000000000000000000000000000000
310
00000000000000000000000000000000000000000000000000000000000000000000000000000000000000000000000000000000000000000000000000000000000000000000000000000000000000000000000000000000000000000000000000000000000000000000000000000000000000000000000000000000000000
310
00000000000000000000000000000000000000000000000000000000000000000000000000000000000000000000000000000000000000000000000000000000000000000000000000000000000000000000000000000000000000000000000000000000000000000000000000000000000000000000000000000000000000
310
00000000000000000000000000000000000000000000000000000000000000000000000000000000000000000000000000000000000000000000000000000000000000000000000000000000000000000000000000000000000000000000000000000000000000000000000000000000000000000000000000000000000000
310
00000000000000000000000000000000000000000000000000000000000000000000000000000000000000000000000000000000000000000000000000000000000000000000000000000000000000000000000000000000000000000000000000000000000000000000000000000000000000000000000000000000000000
310
00000000000000000000000000000000000000000000000000000000000000000000000000000000000000000000000000000000000000000000000000000000000000000000000000000000000000000000000000000000000000000000000000000000000000000000000000000000000000000000000000000000000000
310
00000000000000000000000000000000000000000000000000000000000000000000000000000000000000000000000000000000000000000000000000000000000000000000000000000000000000000000000000000000000000000000000000000000000000000000000000000000000000000000000000000000000000
310
00000000000000000000000000000000000000000000000000000000000000000000000000000000000000000000000000000000000000000000000000000000000000000000000000000000000000000000000000000000000000000000000000000000000000000000000000000000000000000000000000000000000000
310
00000000000000000000000000000000000000000000000000000000000000000000000000000000000000000000000000000000000000000000000000000000000000000000000000000000000000000000000000000000000000000000000000000000000000000000000000000000000000000000000000000000000000
310
00000000000000000000000000000000000000000000000000000000000000000000000000000000000000000000000000000000000000000000000000000000000000000000000000000000000000000000000000000000000000000000000000000000000000000000000000000000000000000000000000000000000000
310
00000000000000000000000000000000000000000000000000000000000000000000000000000000000000000000000000000000000000000000000000000000000000000000000000000000000000000000000000000000000000000000000000000000000000000000000000000000000000000000000000000000000000
310
00000000000000000000000000000000000000000000000000000000000000000000000000000000000000000000000000000000000000000000000000000000000000000000000000000000000000000000000000000000000000000000000000000000000000000000000000000000000000000000000000000000000000
310
00000000000000000000000000000000000000000000000000000000000000000000000000000000000000000000000000000000000000000000000000000000000000000000000000000000000000000000000000000000000000000000000000000000000000000000000000000000000000000000000000000000000000
310
00000000000000000000000000000000000000000000000000000000000000000000000000000000000000000000000000000000000000000000000000000000000000000000000000000000000000000000000000000000000000000000000000000000000000000000000000000000000000000000000000000000000000
310
00000000000000000000000000000000000000000000000000000000000000000000000000000000000000000000000000000000000000000000000000000000000000000000000000000000000000000000000000000000000000000000000000000000000000000000000000000000000000000000000000000000000000
310
00000000000000000000000000000000000000000000000000000000000000000000000000000000000000000000000000000000000000000000000000000000000000000000000000000000000000000000000000000000000000000000000000000000000000000000000000000000000000000000000000000000000000
310
00000000000000000000000000000000000000000000000000000000000000000000000000000000000000000000000000000000000000000000000000000000000000000000000000000000000000000000000000000000000000000000000000000000000000000000000000000000000000000000000000000000000000
310
00000000000000000000000000000000000000000000000000000000000000000000000000000000000000000000000000000000000000000000000000000000000000000000000000000000000000000000000000000000000000000000000000000000000000000000000000000000000000000000000000000000000000
310
00000000000000000000000000000000000000000000000000000000000000000000000000000000000000000000000000000000000000000000000000000000000000000000000000000000000000000000000000000000000000000000000000000000000000000000000000000000000000000000000000000000000000
310
00000000000000000000000000000000000000000000000000000000000000000000000000000000000000000000000000000000000000000002020202020000000000000000000000000000000000000000000000000000000000000000000000000000000000000000000000000000000000000000000000000000000000
310
00000000000000000000000000000000000000000000000000000000000000000000000000000000000000000000000000000000000000000000000000000000000000000000000000000000000000000000000000000000000000000000000000000000000000000000000000000202020202000000000000000000000000
310
00000000000000000000000000000000000000000000000000000000000000000000000000000000000000000000000000000000000000000000000000000000000000000000000000000000000000000000000000000000000000000000000000000000000000000000000000000000000000000000000000000000000000
310
00000000000000000000000000000000000000000000000000000000000000000000000000000000000000000000000000000000000000000000000000000000000000000000000000000000000000000000000000000000000000000000000000000000000000000000000000000000000000000000000000000000000000
310
00000000000000000000000000000000000000000000000000000000000000000000000000000000000000000000000000000000000000000000000000000000010000000000000000000000000000000000000100000000000000000000000000000000000000000100000000010000000001000000000000000000000000
310
00000000000000000000000000000000000000000000000000000000000000000000000000000000000000000000000000000000000000000000000000000000000000000000000000000000000000000000000000000000000000000000000000000000000000000000000000000000000000030301030303030303030303
310
01030303030303030301030303000000000000000000000000000000000301030303030303030303030303000000000000000000000000000000000000000000000000000000000000000000000000000000000000000000000000000000000000000000000000000000000000000000000000000000000000000000000000
310
00000000000000000000000000000000000000000000000000000000000000000000000000000000000303010303030303030300010101000303030303030103030300000000000000000000000000000000030103010303030303030303030300000000000000000000000000000000000000000000000000000000000000
310
00000000000000000000000000000000000000000000000000000000000000000000000000000000000000000000000000000000000000000000000000000000000000000000000000000000000000000000000000000000000000000003030301030303030000030303010303030303030303010303030000000000000000
310
00000000000000000001030303030303000103030000000000000000000000000000000000000000000000000000000000000000000000000000000000000000000000000000000000000000000000000000000000000000000000000000000000000000000000000000000000000000000000000000000000000000000000
310
00000000000000000000000000000000000000030000000003000303030000000100000000030003000000000300000000000000000000000000000000000003030301010300000303000000000000000000000000000000000000000000000000000000000000000000000000000000000000000000000000000000000000
310
00000000000000000000000000000000000000000000000000000000000000000000000000000000000000000000000000000000000000000000000000000003010300000303030303000000030003000000000000010000000000030303000000030000000000000000000000000000000000000303000101030000030300
310
00000000000000000000000000000000000000000000000000000000000000000000000000000000000000000000000000000000000000000000000000000000000000000000000000000000000000000000000000000000000000000000000000000000000000000000000000000000000000000303030001030303030101
310
01010101010101010101030103010101010101010101010101000000000000000000000000000000000101010101010101000303000000000000000000000000000000000000000000000000000000000000000000000000000000000000000000000000000000000000000000000000000000000000000000000000000000
310
00000000000000000000000000000000000000000000000000000000000000000000000000000000000000030000000303030303000003000300030301030303010303030303030003000300030000000000000000000000000000000000030303030101030000030300000000000000000000000000000000000000000000
310
00000000000000000000000000000000000000000000000000000000000000000000000000000000000000000000000000000000000000000000000000000000000000000000000000000000000000000000000000000000000000000000000000000000000000000303030003030300030103030001000000000000030303
310
03030300000000000000000000000000000000000303030303030300000303030000000000000000000000000000000000000000000000000000000000000000000000000000000000000000000000000000000000000000000000000000000000000000000000000000000000000000000000000000000000000000000000
310
00000000000000000000000000000000000000000000000000000000000000030300030000040101010104010000000100000000030303030000000000000000000000000000000000030303000101000001010103000000000000000000000000000000000000000000000000000000000000000000000000000000000000
310
00000000000000000000000000000000000000000000000000000000000000000000000000000000000000000000000000000000000000000000000000000000000000000000000000000000000000000000000003030300000104030303030401000303010303000003000303000000000000000000000000000000000003
310
01010000010000000101010000000000000000000000000000000000000000000000000000000000000000000000000000000000000000000000000000000000000000000000000000000000000000000000000000000000000000000000000000000000000000000000000000000000000000000000000000000000000000
310
00000000000000000000030003000301030303030301010003030103030300000303030000000000000000000000030303030303030303000001000000030303000000000000000000000000000000000000000000000000000000000000000000000000000000000000000000000000000000000000000000000000000000
310
00000000000000000000000000000000000000000000000000000000000000000000000000000000000000000000000000000000000000000000000000000003000300010103030101030101010303010003030000030303000000000000000000000003010101010103030301010101010101030300000000000000000000
310
00000000000000000000000000000000000000000000000000000000000000000000000000000000000000000000000000000000000000000000000000000000000000000000000000000000000000000000000000000000000000000000000000000000000000000000000000000000000000010301010101010303030303
310
01010101010101010101010101030000000000000000000000030303030303030301010101010101010303000000000000000000000000000000000000000000000000000000000000000000000000000000000000000000000000000000000000000000000000000000000000000000000000000000000000000000000000
310
00000000000000000000000000000000000000000000000000000000000000000000000000000000000003000300000104030303010401000303010303030000030303000000000000000000000003030303030303010100000100000001010100000000000000000000000000000000000000000000000000000000000000
310
00000000000000000000000000000000000000000000000000000000000000000000000000000000000000000000000000000000000000000000000000000000000000000000000000000000000000000000000000000000000000000000000300030000000401010101040100030301030300000303030300000000000000
310
00000000000000000000030303000001000000030303000000000000000000000000000000000000000000000000000000000000000000000000000000000000000000000000000000000000000000000000000000000000000000000000000000000000000000000000000000000000000000000000000000000000000000
310
00000000000000000000000000000000000000000003000303030303030103030001000000010003030300030303000000000000000000000000000000000003030300000100000003030300000000000000000000000000000000000000000000000000000000000000000000000000000000000000000000000000000000
310
00000000000000000000000000000000000000000000000000000000000000000000000000000000000000000000000000000000000000000000000000000000000000000000000000000303030000000003030303030103030303030000000300030300000000000000000000000000000000000003030000010000010101
310
00000000000000000000000000000000000000000000000000000000000000000000000000000000000000000000000000000000000000000000000000000000000000000000000000000000000000000000000000000000000000000000000000000000000000000000000000000000000000000000000000000000000000
310
03030003000000000000000001000000000000000003030300000000000000000000000000000000000000030300000100000003030000000000000000000000000000000000000000000000000000000000000000000000000000000000000000000000000000000000000000000000000000000000000000000000000000
310
00000000000000000000000000000000000000000000000000000000000000000000000000000000000000000000000000000000000300030300000000000003030103000000000000030300030000000000000000000000000000000000000003030000010000000303000000000000000000000000000000000000000000
310
00000000000000000000000000000000000000000000000000000000000000000000000000000000000000000000000000000000000000000000000000000000000000000000000000000000000000000000000000000000000000000000000000000000000000000000030000030300000000000303010300000000000300
310
03000300000000000000000000000000000000000000030300000100000003030000000000000000000000000000000000000000000000000000000000000000000000000000000000000000000000000000000000000000000000000000000000000000000000000000000000000000000000000000000000000000000000
310
00000000000000000000000000000000000000000000000000000000000000000003000003030300000003030103000000030300030000030000000000000000000000000000000000000003030000010000000303000000000000000000000000000000000000000000000000000000000000000000000000000000000000
310
00000000000000000000000000000000000000000000000000000000000000000000000000000000000000000000000000000000000000000000000000000000000000000000000000000000000000000000000000000300000003000303000000010000030300000300000003000000000000000000000000000000000000
310
00030300000100000003030000000000000000000000000000000000000000000000000000000000000000000000000000000000000000000000000000000000000000000000000000000000000000000000000000000000000000000000000000000000000000000000000000000000000000000000000000000000000000
310
00000000000000000000000003030000000103000303030103030000030300000003000000000000000000000000000000000000000003030000010000010103000000000000000000000000000000000000000000000000000000000000000000000000000000000000000000000000000000000000000000000000000000
310
00000000000000000000000000000000000000000000000000000000000000000000000000000000000000000000000000000000000000000000000000000000000000030303030303030303010303030303030303030000000000000000000000000000000000000000000303000001000000030300000000000000000000
310
00000000000000000000000000000000000000000000000000000000000000000000000000000000000000000000000000000000000000000000000000000000000000000000000000000000000000000000000000000000000000000000000000000000000000000000000000000000000000000000000000000303000303
310
03030103030303000000000000000000000000000000000000000000000000000000030303030303030300000000000000000000000000000000000000000000000000000000000000000000000000000000000000000000000000000000000000000000000000000000000000000000000000000000000000000000000000
310
00000000000000000000000000000000000000000000000000000000000000000000000000000000000000000000000000000000000003010000000000000000000000000000000000000000000000000000000000000000000101010100000000000000000000000000000000000000000000000000000000000000000000
310
00000000000000000000000000000000000000000000000000000000000000000000000000000000000000000000000000000000000000000000000000000000000000000000000000000000000000000000000000000000000000000000000000000000000000000000000001000000000000000000000000000000000000
310
00000000000000000000000000000003030300000000000000000000000000000000000000000000000000000000000000000000000000000000000000000000000000000000000000000000000000000000000000000000000000000000000000000000000000000000000000000000000000000000000000000000000000
310
00000000000000000000000000000000000000000000000000000000000000000000010000000000000000000000000000000000000000000000000000000000000000000001000000000000000000000000000000000000000000000000000000000000000000000000000000000000000000000000000000000000000000
310
00000000000000000000000000000000000000000000000000000000000000000000000000000000000000000000000000000000000000000000000000000000000000000000000000000000000000000000000000000000000000000000000000000000000000000000000000000000000000000000000000000000000000
310
00000000000000000000000000000000000000000000000000000000000000000000000000000000000000000000000000000000000000000000000000000000000000000000000000000000000000000000000000000000000000000000000000000000000000000000000000000000000000000000000000000000000000
310
00000000000000000000000000000000000000000000000000000000000000000000000000000000000000000000000000000000000000000000000000000000000000000000000000000000000000000000000000000000000000000000000000000000000000000000000000000000000000000000000000000000000000
310
00000000000000000000000000000000000000000000000000000000000000000000000000000000000000000000000000000000000000000000000000000000000000000000000000000000000000000000000000000000000000000000000000000000000000000000000000000000000000000000000000000000000000
310
00000000000000000000000000000000000000000000000000000000000000000000000000000000000000000000000000000000000000000000000000000000000000000000000000000000000000000000000000000000000000000000000000000000000000000000000000000000000000000000000000000000000000
310
00000000000000000000000000000000000000000000000000000000000000000000000000000000000000000000000000000000000000000000000000000000000000000000000000000000000000000000000000000000000000000000000000000000000000000000000000000000000000000000000000000000000000
310
00000000000000000000000000000000000000000000000000000000000000000000000000000000000000000000000000000000000000000000000000000000000000000000000000000000000000000000000000000000000000000000000000000000000000000000000000000000000000000000000000000000000000
310
00000000000000000000000000000000000000000000000000000000000000000000000000000000000000000000000000000000000000000000000000000000000000000000000000000000000000000000000000000000000000000000000000000000000000000000000000000000000000000000000000000000000000
310
00000000000000000000000000000000000000000000000000000000000000000000000000000000000000000000000000000000000000000000000000000000000000000000000000000000000000000000000000000000000000000000000000000000000000000000000000000000000000000000000000000000000000
310
00000000000000000000000000000000000000000000000000000000000000000000000000000000000000000000000000000000000000000000000000000000000000000000000000000000000000000000000000000000000000000000000000000000000000000000000000000000000000000000000000000000000000
310
00000000000000000000000000000000000000000000000000000000000000000000000000000000000000000000000000000000000000000000000000000000000000000000000000000000000000000000000000000000000000000000000000000000000000000000000000000000000000000000000000000000000000
310
00000000000000000000000000000000000000000000000000000000000000000000000000000000000000000000000000000000000000000000000000000000000000000000000000000000000000000000000000000000000000000000000000000000000000000000000000000000000000000000000000000000000000
310
00000000000000000000000000000000000000000000000000000000000000000000000000000000000000000000000000000000000000000000000000000000000000000000000000000000000000000000000000000000000000000000000000000000000000000000000000000000000000000000000000000000000000
310
00000000000000000000000000000000000000000000000000000000000000000000000000000000000000000000000000000000000000000000000000000000000000000000000000000000000000000000000000000000000000000000000000000000000000000000000000000000000000000000000000000000000000
310
00000000000000000000000000000000000000000000000000000000000000000000000000000000000000000000000000000000000000000000000000000000000000000000000000000000000000000000000000000000000000000000000000000000000000000303030300000000000000000000000000000000000000
310
00000000000000000000000000000000000000000000000000000000000000000000000000000000000000000000000000000000000000000000000000000000000000000000000000000000000000000000000000000000000000000000000000000000000000000000000000000000000000000000000000000000000000
310
00000000000000000000000000000000000000000000000000000000000003030303000000000000000000000000000000000000000000000000000000000000000000000000000000000000000000000000000000000000000000000000000000000000000000000000000000000000000000000000000000000000000000
310
00000000000000000000000000000000000000000000000000000000000000000000000000000000000000000000000000000000000000000000000000000000000000000000000000000000000000000000000303030300000000000000000000000000000000000000000000000000000000000000000000000000000000
310
00000000000000000000000000000000000000000000000000000000000000000000000000000000000000000000000000000000000000000000000000000000000000000000000000000000000000000000000000000000000000000000000000000000000000000000000000000000000000000000000000000000000000
310
00000000000000000003030303000000000000000000000000000000000000000000000000000000000000000000000000000000000000000000000000000000000000000000000000000000000000000000000000000000000000000000000000000000000000000000000000000000000000000000000000000000000000
310
00000000000000000000000000000000000000000000000000000000000000000000000000000000000000000000000000000000000000000000000000000303030300000000000000000000000000000000000000000000000000000000000000000000000000000000000000000000000000000000000000000000000000
310
00000000000000000000000000000000000000000000000000000000000000000000000000000000000000000000000000000000000000000000000000000000000000000000000000000000000000000000000000000000000000000000000000000000000000000000000003030103030300030303030000000000000003
310
03030103030300000000000000000000000000000000000000000000000000000000000000000000000000000000000000000000000000000000000000000000000000000000000000000000000000000000000000000000000000000000000000000000000000000000000000000000000000000000000000000000000000
310
00000000000000000000000000000000000000000000000000000000000000000000030101030303030303030303030000000100030003010300030000000000000000000000000000000000000000000000000000000000000000000000000000000000000000000000000000000000000000000000000000000000000000
310
00000000000000000000000000000000000000000000000000000000000000000000000000000000000000000000000000000000000000000000000000000000000000000000000000000000000000000000000000000003030303030301030103030103030303010303030301030303000000000000000000000000000000
310
00000000000000000000000000000000000000000000000000000000000000000000000000000000000000000000000000000000000000000000000000000000000000000000000000000000000000000000000000000000000000000000000000000000000000000000000000000000000000000000000000000000000000
310
00000000000000000000000003030303030303030301030303010303030103030303010303030000000000000000000000000000000000000000000000000000000000000000000000000000000000000000000000000000000000000000000000000000000000000000000000000000000000000000000000000000000000
310
00000000000000000000000000000000000000000000000000000000000000000000000000000000000000000000000000000000000000000000000000030303030303000000000000000100000001000000010000000000000003000000000000000000000000000000000000000000000000000000000000000000000000
310
00000000000000000000000000000000000000000000000000000000000000000000000000000000000000000000000000000000000000000000000000000000000000000000000000000000000000000000000000000000000000000000000000000000000000000000000000000000000103030303030101010101010101
310
01010103030301010101010101010101030100000000000000000000000000000000000000000000000000000000000000000000000000000000000000000000000000000000000000000000000000000000000000000000000000000000000000000000000000000000000000000000000000000000000000000000000000
310
00000000000000000000000000000000000000000000000000000000000000000000000000000000030303030303000000000303030100000303030000010000000000000003000000000000000000000000000000000000000000000000000000000000000000000000000000000000000000000000000000000000000000
310
00000000000000000000000000000000000000000000000000000000000000000000000000000000000000000000000000000000000000000000000000000000000000000000000000000000000000000000000000000000000000000000000000030101010101030303010101030303010101010101010101010301000000
310
00000000000000000000000000000000000000000000000000000000000000000000000000000000000000000000000000000000000000000000000000000000000000000000000000000000000000000000000000000000000000000000000000000000000000000000000000000000000000000000000000000000000000
310
00000000000000000000000000000000000000000000000003000000000001000100000303030000010000000000000003000000000000000000000000000000000000000000000000000000000000000000000000000000000000000000000000000000000000000000000000000000000000000000000000000000000000
310
00000000000000000000000000000000000000000000000000000000000000000000000000000000000000000000000000000000000000000000000000000000000000000000000000000000000300000000000000010000000100000001000000000000000300000000000000000000000000000000000000000000000000
310
00000000000000000000000000000000000000000000000000000000000000000000000000000000000000000000000000000000000000000000000000000000000000000000000000000000000000000000000000000000000000000000000000000000000000000000000000000000000000000000000000000000000000
310
00000003030303030303030303030303030303030303030303030303000000000000000000000000000000000000000000000000000000000000000000000000000000000000000000000000000000000000000000000000000000000000000000000000000000000000000000000000000000000000000000000000000000
310
00000000000000000000000000000000000000000000000000000000000000000000000000000000000000000000000000000000000000000303030303030103010303010303030301030303030303030300000000000000000000000000000000000000000000000000000000000000000000000000000000000000000000
310
00000000000000000000000000000000000000000000000000000000000000000000000000000000000000000000000000000000000000000000000000000000000000000000000000000000000000000000000000000000000000000000000000000000000000000000000000030101010303010301030301030000000100
310
03000303030003000000000000000000000000000000000000000000000000000000000000000000000000000000000000000000000000000000000000000000000000000000000000000000000000000000000000000000000000000000000000000000000000000000000000000000000000000000000000000000000000
310
00000000000000000000000000000000000000000000000000000000000000000000000303010303030000000000000000000000000303030103030300000000000000000000000000000000000000000000000000000000000000000000000000000000000000000000000000000000000000000000000000000000000000
310
00000000000000000000000000000000000000000000000000000000000000000000000000000000000000000000000000000000000000000000000000000000000000000000000000000000000000000000000000000000000000000000000000000000000000000000000000000000000000000000000000000000000000
310
00000000000000000000000000000000000000000000000000000000000000000000000000000000000000000000000000000000000000000000000000000000000000000000000000000000000000000000000000000000000000000000000000000000000000000000000000000000000000000000000000000000000000
310
00000000000000000000000000000000000000000000000000000000000000000000000000000000000000000000000000000000000000000000000000000000000000000000000000000000000000000000000000000000000000000000000000000000000000000000000000000000000000000000000000000000000000
310
00000000000000000000000000000000000000000000000000000000000000000000000000000000000000000000000000000000000000000000000000000000000000000000000000000000000000000000000000000000000000000000000000000000000000000000000000000000000000000000000000000000000000
310
00000000000000000000000000000000000000000000000000000000000000000000000000000000000000000000000000000000000000000000000000000000000000000000000000000000000000000000000000000000000000000000000000000000000000000000000000000000000000000000000000000000000000
310
00000000000000000000000000000000000000000000000000000000000000000000000000000000000000000000000000000000000000000000000000000000000000000000000000000000000000000000000000000000000000000000000000000000000000000000000000000000000000000000000000000000000000
310
00000000000000000000000000000000000000000000000000000000000000000000000000000000000000000000000000000000000000000000000000000000000000000000000000000000000000000000000000000000000000000000000000000000000000000000000000000000000000000000000000000000000000
310
00000000000000000000000000000000000000000000000000000000000000000000000000000000000000000000000000000000000000000000000000000000000000000000000000000000000000000000000000000000000000000000000000000000000000000000000000000000000000000000000000000000000000
310
00000000000000000000000000000000000000000000000000000000000000000000000000000000000000000000000000000000000000000000000000000000000000000000000000000000000000000000000000000000000000000000000000000000000000000000000000000000000000000000000000000000000000
310
00000000000000000000000000000000000000000000000000000000000000000000000000000000000000000000000000000000000000000000000000000000000000000000000000000000000000000000000000000000000000000000000000000000000000000000000000000000000000000000000000000000000000
310
00000000000000000000000000000000000000000000000000000000000000000000000000000000000000000000000000000000000000000000000000000000000000000000000000000000000000000000000000000000000000000000000000000000000000000000000000000000000000000000000000000000000000
310
00000000000000000000000000000000000000000000000000000000000000000000000000000000000000000000000000000000000000000000000000000000000000000000000000000000000000000000000000000000000000000000000000000000000000000000000000000000000000000000000000000000000000
310
00000000000000000000000000000000000000000000000000000000000000000000000000000000000000000000000000000000000000000000000000000000000000000000000000000000000000000000000000000000000000000000000000000000000000000000000000000000000000000000000000000000000000
310
00000000000000000000000000000000000000000000000000000000000000000000000000000000000000000000000000000000000000000000000000000000000000000000000000000000000000000000000000000000000000000000000000000000000000000000000000000000000000000000000000000000000000
310
00000000000000000000000000000000000000000000000000000000000000000000000000000000000000000000000000000000000000000000000000000000000000000000000000000000000000000000000000000000000000000000000000000000000000000000000000000000000000000000000000000000000000
310
000000000000000000000000000000000000000000000000000000000000000000000000000000000000000000000000000000000000000000000000000000000000000000000000000000000000000000000000000000000000000000000000000000000000000000000000
  0
ENDSEC
  0
EOF
