  0
SECTION
  2
HEADER
  9
$ACADVER
  1
AC1015
  9
$ACADMAINTVER
 70
     6
  9
$DWGCODEPAGE
  3
ANSI_932
  9
$INSBASE
 10
1759.813698741728
 20
1053.821459558463
 30
0.0
  9
$EXTMIN
 10
143.2932943017972
 20
15.37111064034207
 30
0.0
  9
$EXTMAX
 10
1686.047691409531
 20
848.8536946196816
 30
0.0
  9
$LIMMIN
 10
0.0
 20
0.0
  9
$LIMMAX
 10
816.5000000000001
 20
565.0
  9
$ORTHOMODE
 70
     1
  9
$REGENMODE
 70
     1
  9
$FILLMODE
 70
     1
  9
$QTEXTMODE
 70
     0
  9
$MIRRTEXT
 70
     1
  9
$LTSCALE
 40
20.0
  9
$ATTMODE
 70
     1
  9
$TEXTSIZE
 40
10.8
  9
$TRACEWID
 40
0.05
  9
$TEXTSTYLE
  7
KANJI
  9
$CLAYER
  8
2
  9
$CELTYPE
  6
BYLAYER
  9
$CECOLOR
 62
   256
  9
$CELTSCALE
 40
1.0
  9
$DISPSILH
 70
     0
  9
$DIMSCALE
 40
3.0
  9
$DIMASZ
 40
2.0
  9
$DIMEXO
 40
0.5
  9
$DIMDLI
 40
0.0
  9
$DIMRND
 40
0.0
  9
$DIMDLE
 40
0.0
  9
$DIMEXE
 40
1.0
  9
$DIMTP
 40
0.0
  9
$DIMTM
 40
0.0
  9
$DIMTXT
 40
3.0
  9
$DIMCEN
 40
0.09
  9
$DIMTSZ
 40
0.0
  9
$DIMTOL
 70
     0
  9
$DIMLIM
 70
     0
  9
$DIMTIH
 70
     0
  9
$DIMTOH
 70
     0
  9
$DIMSE1
 70
     0
  9
$DIMSE2
 70
     0
  9
$DIMTAD
 70
     0
  9
$DIMZIN
 70
     8
  9
$DIMBLK
  1

  9
$DIMASO
 70
     0
  9
$DIMSHO
 70
     0
  9
$DIMPOST
  1

  9
$DIMAPOST
  1

  9
$DIMALT
 70
     0
  9
$DIMALTD
 70
     2
  9
$DIMALTF
 40
25.4
  9
$DIMLFAC
 40
1.0
  9
$DIMTOFL
 70
     1
  9
$DIMTVP
 40
1.0
  9
$DIMTIX
 70
     1
  9
$DIMSOXD
 70
     1
  9
$DIMSAH
 70
     0
  9
$DIMBLK1
  1

  9
$DIMBLK2
  1

  9
$DIMSTYLE
  2
STANDARD
  9
$DIMCLRD
 70
   256
  9
$DIMCLRE
 70
   256
  9
$DIMCLRT
 70
   256
  9
$DIMTFAC
 40
1.0
  9
$DIMGAP
 40
0.09
  9
$DIMJUST
 70
     0
  9
$DIMSD1
 70
     0
  9
$DIMSD2
 70
     0
  9
$DIMTOLJ
 70
     1
  9
$DIMTZIN
 70
     0
  9
$DIMALTZ
 70
     0
  9
$DIMALTTZ
 70
     0
  9
$DIMUPT
 70
     0
  9
$DIMDEC
 70
     1
  9
$DIMTDEC
 70
     4
  9
$DIMALTU
 70
     2
  9
$DIMALTTD
 70
     2
  9
$DIMTXSTY
  7
STANDARD
  9
$DIMAUNIT
 70
     0
  9
$DIMADEC
 70
     0
  9
$DIMALTRND
 40
0.0
  9
$DIMAZIN
 70
     0
  9
$DIMDSEP
 70
    46
  9
$DIMATFIT
 70
     3
  9
$DIMFRAC
 70
     0
  9
$DIMLDRBLK
  1

  9
$DIMLUNIT
 70
     2
  9
$DIMLWD
 70
    -2
  9
$DIMLWE
 70
    -2
  9
$DIMTMOVE
 70
     0
  9
$LUNITS
 70
     2
  9
$LUPREC
 70
     3
  9
$SKETCHINC
 40
0.1
  9
$FILLETRAD
 40
1.0
  9
$AUNITS
 70
     0
  9
$AUPREC
 70
     3
  9
$MENU
  1
C:\R13\WIN\SUPPORT\ACADFULL
  9
$ELEVATION
 40
0.0
  9
$PELEVATION
 40
0.0
  9
$THICKNESS
 40
0.0
  9
$LIMCHECK
 70
     0
  9
$CHAMFERA
 40
0.0
  9
$CHAMFERB
 40
0.0
  9
$CHAMFERC
 40
0.0
  9
$CHAMFERD
 40
0.0
  9
$SKPOLY
 70
     0
  9
$TDCREATE
 40
2457506.564635752
  9
$TDUCREATE
 40
2457506.189635752
  9
$TDUPDATE
 40
2457843.723016007
  9
$TDUUPDATE
 40
2457843.348016007
  9
$TDINDWG
 40
0.0245538773
  9
$TDUSRTIMER
 40
0.0245530324
  9
$USRTIMER
 70
     1
  9
$ANGBASE
 50
0.0
  9
$ANGDIR
 70
     0
  9
$PDMODE
 70
     0
  9
$PDSIZE
 40
0.0
  9
$PLINEWID
 40
0.0
  9
$SPLFRAME
 70
     0
  9
$SPLINETYPE
 70
     6
  9
$SPLINESEGS
 70
     8
  9
$HANDSEED
  5
84B
  9
$SURFTAB1
 70
     6
  9
$SURFTAB2
 70
     6
  9
$SURFTYPE
 70
     6
  9
$SURFU
 70
     6
  9
$SURFV
 70
     6
  9
$UCSBASE
  2

  9
$UCSNAME
  2

  9
$UCSORG
 10
0.0
 20
0.0
 30
0.0
  9
$UCSXDIR
 10
1.0
 20
0.0
 30
0.0
  9
$UCSYDIR
 10
0.0
 20
1.0
 30
0.0
  9
$UCSORTHOREF
  2

  9
$UCSORTHOVIEW
 70
     0
  9
$UCSORGTOP
 10
0.0
 20
0.0
 30
0.0
  9
$UCSORGBOTTOM
 10
0.0
 20
0.0
 30
0.0
  9
$UCSORGLEFT
 10
0.0
 20
0.0
 30
0.0
  9
$UCSORGRIGHT
 10
0.0
 20
0.0
 30
0.0
  9
$UCSORGFRONT
 10
0.0
 20
0.0
 30
0.0
  9
$UCSORGBACK
 10
0.0
 20
0.0
 30
0.0
  9
$PUCSBASE
  2

  9
$PUCSNAME
  2

  9
$PUCSORG
 10
0.0
 20
0.0
 30
0.0
  9
$PUCSXDIR
 10
1.0
 20
0.0
 30
0.0
  9
$PUCSYDIR
 10
0.0
 20
1.0
 30
0.0
  9
$PUCSORTHOREF
  2

  9
$PUCSORTHOVIEW
 70
     0
  9
$PUCSORGTOP
 10
0.0
 20
0.0
 30
0.0
  9
$PUCSORGBOTTOM
 10
0.0
 20
0.0
 30
0.0
  9
$PUCSORGLEFT
 10
0.0
 20
0.0
 30
0.0
  9
$PUCSORGRIGHT
 10
0.0
 20
0.0
 30
0.0
  9
$PUCSORGFRONT
 10
0.0
 20
0.0
 30
0.0
  9
$PUCSORGBACK
 10
0.0
 20
0.0
 30
0.0
  9
$USERI1
 70
     0
  9
$USERI2
 70
     0
  9
$USERI3
 70
     0
  9
$USERI4
 70
     0
  9
$USERI5
 70
     0
  9
$USERR1
 40
0.0
  9
$USERR2
 40
0.0
  9
$USERR3
 40
0.0
  9
$USERR4
 40
2448925.372986111
  9
$USERR5
 40
0.04166667
  9
$WORLDVIEW
 70
     1
  9
$SHADEDGE
 70
     3
  9
$SHADEDIF
 70
    70
  9
$TILEMODE
 70
     1
  9
$MAXACTVP
 70
    16
  9
$PINSBASE
 10
0.0
 20
0.0
 30
0.0
  9
$PLIMCHECK
 70
     0
  9
$PEXTMIN
 10
1000000000000000E+20
 20
1000000000000000E+20
 30
1000000000000000E+20
  9
$PEXTMAX
 10
-1000000000000000E+20
 20
-1000000000000000E+20
 30
-1000000000000000E+20
  9
$PLIMMIN
 10
0.0
 20
0.0
  9
$PLIMMAX
 10
12.0
 20
9.0
  9
$UNITMODE
 70
     0
  9
$VISRETAIN
 70
     0
  9
$PLINEGEN
 70
     0
  9
$PSLTSCALE
 70
     0
  9
$TREEDEPTH
 70
  3020
  9
$CMLSTYLE
  2
STANDARD
  9
$CMLJUST
 70
     0
  9
$CMLSCALE
 40
1.0
  9
$PROXYGRAPHICS
 70
     1
  9
$MEASUREMENT
 70
     0
  9
$CELWEIGHT
370
    -1
  9
$ENDCAPS
280
     0
  9
$JOINSTYLE
280
     0
  9
$LWDISPLAY
290
     0
  9
$INSUNITS
 70
     0
  9
$HYPERLINKBASE
  1

  9
$STYLESHEET
  1
monochrome.ctb
  9
$XEDIT
290
     1
  9
$CEPSNTYPE
380
     0
  9
$PSTYLEMODE
290
     1
  9
$FINGERPRINTGUID
  2
{4A48E0CD-A764-408F-BBF5-E68968262243}
  9
$VERSIONGUID
  2
{488F4AB5-13B2-42EB-8472-BA71E540B003}
  9
$EXTNAMES
290
     1
  9
$PSVPSCALE
 40
0.0
  9
$OLESTARTUP
290
     0
  0
ENDSEC
  0
SECTION
  2
CLASSES
  0
CLASS
  1
ACDBDICTIONARYWDFLT
  2
AcDbDictionaryWithDefault
  3
ObjectDBX Classes
 90
        0
280
     0
281
     0
  0
CLASS
  1
MATERIAL
  2
AcDbMaterial
  3
ObjectDBX Classes
 90
     1153
280
     0
281
     0
  0
CLASS
  1
SORTENTSTABLE
  2
AcDbSortentsTable
  3
ObjectDBX Classes
 90
        0
280
     0
281
     0
  0
CLASS
  1
VISUALSTYLE
  2
AcDbVisualStyle
  3
ObjectDBX Classes
 90
     4095
280
     0
281
     0
  0
CLASS
  1
SCALE
  2
AcDbScale
  3
ObjectDBX Classes
 90
     1153
280
     0
281
     0
  0
CLASS
  1
DICTIONARYVAR
  2
AcDbDictionaryVar
  3
ObjectDBX Classes
 90
        0
280
     0
281
     0
  0
CLASS
  1
MLEADERSTYLE
  2
AcDbMLeaderStyle
  3
ACDB_MLEADERSTYLE_CLASS
 90
     4095
280
     0
281
     0
  0
CLASS
  1
ACDBPLACEHOLDER
  2
AcDbPlaceHolder
  3
ObjectDBX Classes
 90
        0
280
     0
281
     0
  0
CLASS
  1
LAYOUT
  2
AcDbLayout
  3
ObjectDBX Classes
 90
        0
280
     0
281
     0
  0
ENDSEC
  0
SECTION
  2
TABLES
  0
TABLE
  2
VPORT
  5
2E
102
{ACAD_XDICTIONARY
360
811
102
}
330
0
100
AcDbSymbolTable
 70
     1
  0
VPORT
  5
35
330
2E
100
AcDbSymbolTableRecord
100
AcDbViewportTableRecord
  2
*ACTIVE
 70
     0
 10
0.0
 20
0.0
 11
1.0
 21
1.0
 12
1231.296641613284
 22
386.2294947809737
 13
0.0
 23
0.0
 14
1.0
 24
1.0
 15
50.0
 25
50.0
 16
0.0
 26
0.0
 36
1.0
 17
0.0
 27
0.0
 37
0.0
 40
1069.893922664697
 41
2.177611940298507
 42
50.0
 43
0.0
 44
0.0
 50
0.0
 51
0.0
 71
     0
 72
  5000
 73
     1
 74
     0
 75
     0
 76
     0
 77
     0
 78
     0
281
     0
 65
     1
110
0.0
120
0.0
130
0.0
111
1.0
121
0.0
131
0.0
112
0.0
122
1.0
132
0.0
 79
     0
146
0.0
1001
ACAD_NAV_VCDISPLAY
1070
     3
  0
ENDTAB
  0
TABLE
  2
LTYPE
  5
F
330
0
100
AcDbSymbolTable
 70
     2
  0
LTYPE
  5
10
330
F
100
AcDbSymbolTableRecord
100
AcDbLinetypeTableRecord
  2
BYBLOCK
 70
     0
  3

 72
    65
 73
     0
 40
0.0
  0
LTYPE
  5
11
330
F
100
AcDbSymbolTableRecord
100
AcDbLinetypeTableRecord
  2
BYLAYER
 70
     0
  3

 72
    65
 73
     0
 40
0.0
  0
LTYPE
  5
E
330
F
100
AcDbSymbolTableRecord
100
AcDbLinetypeTableRecord
  2
CONTINUOUS
 70
     0
  3
Solid line
 72
    65
 73
     0
 40
0.0
  0
LTYPE
  5
61
330
F
100
AcDbSymbolTableRecord
100
AcDbLinetypeTableRecord
  2
CENTER
 70
     0
  3
____ _ ____ _ ____ _ ____ _ ____ _ ____ _ ____
 72
    65
 73
     4
 40
2.0
 49
1.25
 74
     0
 49
-0.25
 74
     0
 49
0.25
 74
     0
 49
-0.25
 74
     0
  0
ENDTAB
  0
TABLE
  2
LAYER
  5
2
102
{ACAD_XDICTIONARY
360
3
102
}
330
0
100
AcDbSymbolTable
 70
     7
  0
LAYER
  5
1F
102
{ACAD_XDICTIONARY
360
20
102
}
330
2
100
AcDbSymbolTableRecord
100
AcDbLayerTableRecord
  2
0
 70
     0
 62
     7
  6
CONTINUOUS
370
    -3
390
7
  0
LAYER
  5
7A
102
{ACAD_XDICTIONARY
360
7B
102
}
330
2
100
AcDbSymbolTableRecord
100
AcDbLayerTableRecord
  2
1
 70
     0
 62
     9
  6
CONTINUOUS
370
    -3
390
7
  0
LAYER
  5
1
102
{ACAD_XDICTIONARY
360
5
102
}
330
2
100
AcDbSymbolTableRecord
100
AcDbLayerTableRecord
  2
2
 70
     0
 62
     4
  6
CONTINUOUS
370
    -3
390
7
  0
LAYER
  5
6D
102
{ACAD_XDICTIONARY
360
6E
102
}
330
2
100
AcDbSymbolTableRecord
100
AcDbLayerTableRecord
  2
4
 70
     0
 62
     3
  6
CONTINUOUS
370
    -3
390
7
  0
LAYER
  5
5E
102
{ACAD_XDICTIONARY
360
5F
102
}
330
2
100
AcDbSymbolTableRecord
100
AcDbLayerTableRecord
  2
L-CENTER
 70
     0
 62
     1
  6
CENTER
370
    -3
390
7
  0
LAYER
  5
68
102
{ACAD_XDICTIONARY
360
69
102
}
330
2
100
AcDbSymbolTableRecord
100
AcDbLayerTableRecord
  2
3
 70
     0
 62
     2
  6
CONTINUOUS
370
    -3
390
7
  0
LAYER
  5
74
330
2
100
AcDbSymbolTableRecord
100
AcDbLayerTableRecord
  2
5
 70
     0
 62
     6
  6
CONTINUOUS
370
    -3
390
7
  0
ENDTAB
  0
TABLE
  2
STYLE
  5
13
330
0
100
AcDbSymbolTable
 70
     2
  0
STYLE
  5
17
330
13
100
AcDbSymbolTableRecord
100
AcDbTextStyleTableRecord
  2
STANDARD
 70
     0
 40
0.0
 41
1.0
 50
0.0
 71
     0
 42
5.4
  3
TXT
  4

  0
STYLE
  5
12
330
13
100
AcDbSymbolTableRecord
100
AcDbTextStyleTableRecord
  2
KANJI
 70
     0
 40
0.0
 41
1.0
 50
0.0
 71
     0
 42
10.8
  3
TXT
  4
BIGFONT
  0
ENDTAB
  0
TABLE
  2
VIEW
  5
2C
330
0
100
AcDbSymbolTable
 70
     0
  0
ENDTAB
  0
TABLE
  2
UCS
  5
2D
330
0
100
AcDbSymbolTable
 70
     0
  0
ENDTAB
  0
TABLE
  2
APPID
  5
D
330
0
100
AcDbSymbolTable
 70
     4
  0
APPID
  5
C
330
D
100
AcDbSymbolTableRecord
100
AcDbRegAppTableRecord
  2
ACAD
 70
     0
  0
APPID
  5
36
330
D
100
AcDbSymbolTableRecord
100
AcDbRegAppTableRecord
  2
ACAD_NAV_VCDISPLAY
 70
     0
  0
APPID
  5
27
330
D
100
AcDbSymbolTableRecord
100
AcDbRegAppTableRecord
  2
ACAD_PSEXT
 70
     0
  0
APPID
  5
53C
330
D
100
AcDbSymbolTableRecord
100
AcDbRegAppTableRecord
  2
ACAD_MLEADERVER
 70
     0
  0
ENDTAB
  0
TABLE
  2
DIMSTYLE
  5
16
330
0
100
AcDbSymbolTable
 70
     1
100
AcDbDimStyleTable
  0
DIMSTYLE
105
15
330
16
100
AcDbSymbolTableRecord
100
AcDbDimStyleTableRecord
  2
STANDARD
 70
     0
178
     0
340
17
  0
ENDTAB
  0
TABLE
  2
BLOCK_RECORD
  5
1A
330
0
100
AcDbSymbolTable
 70
     0
  0
BLOCK_RECORD
  5
1B
102
{ACAD_XDICTIONARY
360
1C
102
}
330
1A
100
AcDbSymbolTableRecord
100
AcDbBlockTableRecord
  2
*MODEL_SPACE
340
23
  0
BLOCK_RECORD
  5
28
330
1A
100
AcDbSymbolTableRecord
100
AcDbBlockTableRecord
  2
*PAPER_SPACE
340
2B
  0
ENDTAB
  0
ENDSEC
  0
SECTION
  2
BLOCKS
  0
BLOCK
  5
1E
330
1B
100
AcDbEntity
  8
0
100
AcDbBlockBegin
  2
*MODEL_SPACE
 70
     0
 10
0.0
 20
0.0
 30
0.0
  3
*MODEL_SPACE
  1

  0
ENDBLK
  5
22
330
1B
100
AcDbEntity
  8
0
100
AcDbBlockEnd
  0
BLOCK
  5
29
330
28
100
AcDbEntity
 67
     1
  8
0
100
AcDbBlockBegin
  2
*PAPER_SPACE
 70
     0
 10
0.0
 20
0.0
 30
0.0
  3
*PAPER_SPACE
  1

  0
ENDBLK
  5
2A
330
28
100
AcDbEntity
 67
     1
  8
0
100
AcDbBlockEnd
  0
ENDSEC
  0
SECTION
  2
ENTITIES
  0
CIRCLE
  5
54E
330
1B
100
AcDbEntity
  8
4
100
AcDbCircle
 10
326.2932943017981
 20
74.10753195600626
 30
0.0
 40
7.587403
  0
ARC
  5
54F
330
1B
100
AcDbEntity
  8
4
100
AcDbCircle
 10
326.2932943017981
 20
74.10753195600626
 30
0.0
 40
14.00001
100
AcDbArc
 50
247.152098
 51
292.8492100000011
  0
LINE
  5
550
330
1B
100
AcDbEntity
  8
2
100
AcDbLine
 10
321.5886703017982
 20
71.39080095600627
 30
0.0
 11
326.2932943017981
 21
68.67480495600626
 31
0.0
  0
LINE
  5
551
330
1B
100
AcDbEntity
  8
L-CENTER
100
AcDbLine
 10
343.1310890388213
 20
74.10753195600626
 30
0.0
 11
309.455499564775
 21
74.10753195600626
 31
0.0
  0
LINE
  5
552
330
1B
100
AcDbEntity
  8
2
100
AcDbLine
 10
330.9979183017981
 20
71.39080095600627
 30
0.0
 11
326.2932943017981
 21
68.67480495600626
 31
0.0
  0
LINE
  5
553
330
1B
100
AcDbEntity
  8
2
100
AcDbLine
 10
326.2932943017981
 20
79.54025595600626
 30
0.0
 11
321.5886703017982
 21
76.82425995600624
 31
0.0
  0
LINE
  5
554
330
1B
100
AcDbEntity
  8
2
100
AcDbLine
 10
326.2932943017981
 20
79.54025595600626
 30
0.0
 11
330.9979183017981
 21
76.82425995600624
 31
0.0
  0
LINE
  5
555
330
1B
100
AcDbEntity
  8
4
100
AcDbLine
 10
313.3028173017979
 20
134.6075299560061
 30
0.0
 11
313.3028173017979
 21
149.6075299560061
 31
0.0
  0
LINE
  5
556
330
1B
100
AcDbEntity
  8
4
100
AcDbLine
 10
326.2932943017981
 20
157.1075299560061
 30
0.0
 11
313.3028173017979
 21
149.6075299560061
 31
0.0
  0
ARC
  5
557
330
1B
100
AcDbEntity
  8
4
100
AcDbCircle
 10
412.293295301798
 20
74.10753195600626
 30
0.0
 40
3.0
100
AcDbArc
 50
90.0
 51
180.0
  0
ARC
  5
558
330
1B
100
AcDbEntity
  8
4
100
AcDbCircle
 10
437.2932943017981
 20
74.10753195600626
 30
0.0
 40
3.0
100
AcDbArc
 50
90.0
 51
180.0
  0
LINE
  5
559
330
1B
100
AcDbEntity
  8
4
100
AcDbLine
 10
339.283528301798
 20
134.6075299560061
 30
0.0
 11
339.283528301798
 21
149.6075299560061
 31
0.0
  0
LINE
  5
55A
330
1B
100
AcDbEntity
  8
4
100
AcDbLine
 10
352.293295301798
 20
331.1273059560062
 30
0.0
 11
300.2932933017983
 21
331.1273059560062
 31
0.0
  0
LINE
  5
55B
330
1B
100
AcDbEntity
  8
4
100
AcDbLine
 10
300.2932933017983
 20
301.1273059560062
 30
0.0
 11
352.293295301798
 21
301.1273059560062
 31
0.0
  0
ARC
  5
55C
330
1B
100
AcDbEntity
  8
4
100
AcDbCircle
 10
300.2932933017983
 20
304.1273059560062
 30
0.0
 40
3.0
100
AcDbArc
 50
180.0
 51
270.0
  0
LINE
  5
55D
330
1B
100
AcDbEntity
  8
4
100
AcDbLine
 10
305.2932943017981
 20
309.1273069560061
 30
0.0
 11
313.293295301798
 21
309.1273069560061
 31
0.0
  0
LINE
  5
55E
330
1B
100
AcDbEntity
  8
4
100
AcDbLine
 10
301.293295301798
 20
305.1273049560064
 30
0.0
 11
313.293295301798
 21
305.1273049560064
 31
0.0
  0
LINE
  5
55F
330
1B
100
AcDbEntity
  8
4
100
AcDbLine
 10
297.2932933017983
 20
304.1273059560062
 30
0.0
 11
297.2932933017983
 21
328.1273059560062
 31
0.0
  0
LINE
  5
560
330
1B
100
AcDbEntity
  8
4
100
AcDbLine
 10
301.293295301798
 20
305.1273049560064
 30
0.0
 11
301.293295301798
 21
327.1273069560061
 31
0.0
  0
LINE
  5
561
330
1B
100
AcDbEntity
  8
4
100
AcDbLine
 10
305.2932943017981
 20
309.1273069560061
 30
0.0
 11
305.2932943017981
 21
327.1273069560061
 31
0.0
  0
ARC
  5
562
330
1B
100
AcDbEntity
  8
4
100
AcDbCircle
 10
300.2932933017983
 20
328.1273059560062
 30
0.0
 40
3.0
100
AcDbArc
 50
90.0
 51
180.0
  0
LINE
  5
563
330
1B
100
AcDbEntity
  8
4
100
AcDbLine
 10
301.293295301798
 20
327.1273069560061
 30
0.0
 11
305.2932943017981
 21
327.1273069560061
 31
0.0
  0
ARC
  5
564
330
1B
100
AcDbEntity
  8
4
100
AcDbCircle
 10
322.293295301798
 20
320.1273049560064
 30
0.0
 40
3.0
100
AcDbArc
 50
0.0
 51
90.0
  0
LINE
  5
565
330
1B
100
AcDbEntity
  8
4
100
AcDbLine
 10
321.2932933017983
 20
309.1273069560061
 30
0.0
 11
321.2932933017983
 21
323.1273049560064
 31
0.0
  0
LINE
  5
566
330
1B
100
AcDbEntity
  8
4
100
AcDbLine
 10
329.2932943017981
 20
324.1273069560061
 30
0.0
 11
329.2932943017981
 21
308.1273049560064
 31
0.0
  0
LINE
  5
567
330
1B
100
AcDbEntity
  8
4
100
AcDbLine
 10
317.2932943017981
 20
327.1273069560061
 30
0.0
 11
317.2932943017981
 21
305.1273049560064
 31
0.0
  0
ARC
  5
568
330
1B
100
AcDbEntity
  8
4
100
AcDbCircle
 10
322.293295301798
 20
312.1273069560061
 30
0.0
 40
3.0
100
AcDbArc
 50
270.0
 51
0.0
  0
LINE
  5
569
330
1B
100
AcDbEntity
  8
4
100
AcDbLine
 10
326.2932943017981
 20
305.1273049560064
 30
0.0
 11
317.2932943017981
 21
305.1273049560064
 31
0.0
  0
LINE
  5
56A
330
1B
100
AcDbEntity
  8
4
100
AcDbLine
 10
321.2932933017983
 20
309.1273069560061
 30
0.0
 11
322.293295301798
 21
309.1273069560061
 31
0.0
  0
LINE
  5
56B
330
1B
100
AcDbEntity
  8
4
100
AcDbLine
 10
313.293295301798
 20
305.1273049560064
 30
0.0
 11
313.293295301798
 21
309.1273069560061
 31
0.0
  0
LINE
  5
56C
330
1B
100
AcDbEntity
  8
4
100
AcDbLine
 10
336.7932943017981
 20
318.1273069560061
 30
0.0
 11
336.7932943017981
 21
314.1273049560064
 31
0.0
  0
LINE
  5
56D
330
1B
100
AcDbEntity
  8
4
100
AcDbLine
 10
331.7932933017983
 20
314.1273049560064
 30
0.0
 11
331.7932933017983
 21
318.1273069560061
 31
0.0
  0
LINE
  5
56E
330
1B
100
AcDbEntity
  8
4
100
AcDbLine
 10
336.7932943017981
 20
314.1273049560064
 30
0.0
 11
331.7932933017983
 21
314.1273049560064
 31
0.0
  0
LINE
  5
56F
330
1B
100
AcDbEntity
  8
4
100
AcDbLine
 10
336.7932943017981
 20
318.1273069560061
 30
0.0
 11
331.7932933017983
 21
318.1273069560061
 31
0.0
  0
ARC
  5
570
330
1B
100
AcDbEntity
  8
4
100
AcDbCircle
 10
326.2932943017981
 20
308.1273049560064
 30
0.0
 40
3.0
100
AcDbArc
 50
270.0
 51
0.0
  0
LINE
  5
571
330
1B
100
AcDbEntity
  8
4
100
AcDbLine
 10
325.293295301798
 20
320.1273049560064
 30
0.0
 11
325.293295301798
 21
312.1273069560061
 31
0.0
  0
LINE
  5
572
330
1B
100
AcDbEntity
  8
4
100
AcDbLine
 10
326.2932943017981
 20
327.1273069560061
 30
0.0
 11
317.2932943017981
 21
327.1273069560061
 31
0.0
  0
LINE
  5
573
330
1B
100
AcDbEntity
  8
4
100
AcDbLine
 10
321.2932933017983
 20
323.1273049560064
 30
0.0
 11
322.293295301798
 21
323.1273049560064
 31
0.0
  0
ARC
  5
574
330
1B
100
AcDbEntity
  8
4
100
AcDbCircle
 10
326.2932943017981
 20
324.1273069560061
 30
0.0
 40
3.0
100
AcDbArc
 50
0.0
 51
90.0
  0
CIRCLE
  5
575
330
1B
100
AcDbEntity
  8
4
100
AcDbCircle
 10
393.2932933017983
 20
232.1075299560061
 30
0.0
 40
30.999999
  0
LINE
  5
576
330
1B
100
AcDbEntity
  8
L-CENTER
100
AcDbLine
 10
439.4038903017981
 20
232.1075299560061
 30
0.0
 11
347.1826963017984
 21
232.1075299560061
 31
0.0
  0
ARC
  5
577
330
1B
100
AcDbEntity
  8
4
100
AcDbCircle
 10
352.293295301798
 20
304.1273059560062
 30
0.0
 40
3.0
100
AcDbArc
 50
270.0
 51
0.0
  0
LINE
  5
578
330
1B
100
AcDbEntity
  8
4
100
AcDbLine
 10
355.293295301798
 20
304.1273059560062
 30
0.0
 11
355.293295301798
 21
328.1273059560062
 31
0.0
  0
LINE
  5
579
330
1B
100
AcDbEntity
  8
4
100
AcDbLine
 10
339.2932933017983
 20
311.1273049560064
 30
0.0
 11
345.2932933017983
 21
327.1273069560061
 31
0.0
  0
LINE
  5
57A
330
1B
100
AcDbEntity
  8
4
100
AcDbLine
 10
349.293295301798
 20
311.1273049560064
 30
0.0
 11
349.293295301798
 21
327.1273069560061
 31
0.0
  0
LINE
  5
57B
330
1B
100
AcDbEntity
  8
4
100
AcDbLine
 10
349.293295301798
 20
311.1273049560064
 30
0.0
 11
351.2932933017983
 21
311.1273049560064
 31
0.0
  0
LINE
  5
57C
330
1B
100
AcDbEntity
  8
4
100
AcDbLine
 10
349.293295301798
 20
307.1273059560062
 30
0.0
 11
351.2932933017983
 21
307.1273059560062
 31
0.0
  0
LINE
  5
57D
330
1B
100
AcDbEntity
  8
4
100
AcDbLine
 10
349.293295301798
 20
305.1273049560064
 30
0.0
 11
349.293295301798
 21
307.1273059560062
 31
0.0
  0
LINE
  5
57E
330
1B
100
AcDbEntity
  8
4
100
AcDbLine
 10
345.2932933017983
 20
305.1273049560064
 30
0.0
 11
345.2932933017983
 21
307.1273059560062
 31
0.0
  0
LINE
  5
57F
330
1B
100
AcDbEntity
  8
4
100
AcDbLine
 10
349.293295301798
 20
305.1273049560064
 30
0.0
 11
345.2932933017983
 21
305.1273049560064
 31
0.0
  0
LINE
  5
580
330
1B
100
AcDbEntity
  8
4
100
AcDbLine
 10
339.2932933017983
 20
307.1273059560062
 30
0.0
 11
339.2932933017983
 21
311.1273049560064
 31
0.0
  0
LINE
  5
581
330
1B
100
AcDbEntity
  8
4
100
AcDbLine
 10
343.5652663017981
 20
311.1273049560064
 30
0.0
 11
345.2932933017983
 21
311.1273049560064
 31
0.0
  0
LINE
  5
582
330
1B
100
AcDbEntity
  8
4
100
AcDbLine
 10
339.2932933017983
 20
307.1273059560062
 30
0.0
 11
345.2932933017983
 21
307.1273059560062
 31
0.0
  0
LINE
  5
583
330
1B
100
AcDbEntity
  8
4
100
AcDbLine
 10
345.2932933017983
 20
315.7354609560061
 30
0.0
 11
343.5652663017981
 21
311.1273049560064
 31
0.0
  0
LINE
  5
584
330
1B
100
AcDbEntity
  8
4
100
AcDbLine
 10
345.2932933017983
 20
311.1273049560064
 30
0.0
 11
345.2932933017983
 21
315.7354609560061
 31
0.0
  0
LINE
  5
585
330
1B
100
AcDbEntity
  8
4
100
AcDbLine
 10
351.2932933017983
 20
311.1273049560064
 30
0.0
 11
351.2932933017983
 21
307.1273059560062
 31
0.0
  0
LINE
  5
586
330
1B
100
AcDbEntity
  8
4
100
AcDbLine
 10
345.2932933017983
 20
327.1273069560061
 30
0.0
 11
349.5652663017981
 21
327.1273069560061
 31
0.0
  0
ARC
  5
587
330
1B
100
AcDbEntity
  8
4
100
AcDbCircle
 10
352.293295301798
 20
328.1273059560062
 30
0.0
 40
3.0
100
AcDbArc
 50
0.0
 51
90.0
  0
LINE
  5
588
330
1B
100
AcDbEntity
  8
4
100
AcDbLine
 10
489.2932933017983
 20
163.4124619560062
 30
0.0
 11
489.2932933017983
 21
211.0753039560063
 31
0.0
  0
LINE
  5
589
330
1B
100
AcDbEntity
  8
4
100
AcDbLine
 10
558.2932933017983
 20
147.6075319560064
 30
0.0
 11
513.2932933017983
 21
147.6075319560064
 31
0.0
  0
LINE
  5
58A
330
1B
100
AcDbEntity
  8
4
100
AcDbLine
 10
508.293295301798
 20
144.6075319560064
 30
0.0
 11
557.2932943017981
 21
144.6075319560064
 31
0.0
  0
LINE
  5
58B
330
1B
100
AcDbEntity
  8
4
100
AcDbLine
 10
508.293295301798
 20
119.6075299560061
 30
0.0
 11
557.2932943017981
 21
119.6075299560061
 31
0.0
  0
LINE
  5
58C
330
1B
100
AcDbEntity
  8
4
100
AcDbLine
 10
508.293295301798
 20
147.1075309560063
 30
0.0
 11
508.293295301798
 21
117.1075309560063
 31
0.0
  0
LINE
  5
58D
330
1B
100
AcDbEntity
  8
4
100
AcDbLine
 10
499.293295301798
 20
90.10753095600626
 30
0.0
 11
499.293295301798
 21
174.1075309560063
 31
0.0
  0
LINE
  5
58E
330
1B
100
AcDbEntity
  8
4
100
AcDbLine
 10
500.2932943017981
 20
101.1075319560063
 30
0.0
 11
500.2932943017981
 21
163.1075299560061
 31
0.0
  0
LINE
  5
58F
330
1B
100
AcDbEntity
  8
4
100
AcDbLine
 10
499.293295301798
 20
90.10753095600626
 30
0.0
 11
492.2932933017983
 21
90.10753095600626
 31
0.0
  0
ARC
  5
590
330
1B
100
AcDbEntity
  8
4
100
AcDbCircle
 10
486.2932933017983
 20
74.10753195600626
 30
0.0
 40
3.0
100
AcDbArc
 50
0.0
 51
90.0
  0
ARC
  5
591
330
1B
100
AcDbEntity
  8
4
100
AcDbCircle
 10
492.2932933017983
 20
87.10753095600626
 30
0.0
 40
3.0
100
AcDbArc
 50
90.0
 51
180.0
  0
LINE
  5
592
330
1B
100
AcDbEntity
  8
4
100
AcDbLine
 10
500.2932943017981
 20
101.1075319560063
 30
0.0
 11
499.293295301798
 21
101.1075319560063
 31
0.0
  0
LINE
  5
593
330
1B
100
AcDbEntity
  8
4
100
AcDbLine
 10
500.2932943017981
 20
117.1075309560063
 30
0.0
 11
508.293295301798
 21
117.1075309560063
 31
0.0
  0
LINE
  5
594
330
1B
100
AcDbEntity
  8
4
100
AcDbLine
 10
499.293295301798
 20
174.1075309560063
 30
0.0
 11
492.2932933017983
 21
174.1075309560063
 31
0.0
  0
LINE
  5
595
330
1B
100
AcDbEntity
  8
4
100
AcDbLine
 10
489.2932933017983
 20
163.4124619560062
 30
0.0
 11
468.5086273017982
 21
163.4124619560062
 31
0.0
  0
ARC
  5
596
330
1B
100
AcDbEntity
  8
4
100
AcDbCircle
 10
492.2932933017983
 20
177.1075309560063
 30
0.0
 40
3.0
100
AcDbArc
 50
180.0
 51
270.0
  0
LINE
  5
597
330
1B
100
AcDbEntity
  8
4
100
AcDbLine
 10
513.2932933017983
 20
147.6075319560064
 30
0.0
 11
513.2932933017983
 21
144.6075319560064
 31
0.0
  0
LINE
  5
598
330
1B
100
AcDbEntity
  8
4
100
AcDbLine
 10
500.2932943017981
 20
163.1075299560061
 30
0.0
 11
499.293295301798
 21
163.1075299560061
 31
0.0
  0
LINE
  5
599
330
1B
100
AcDbEntity
  8
4
100
AcDbLine
 10
508.293295301798
 20
147.1075309560063
 30
0.0
 11
500.2932943017981
 21
147.1075309560063
 31
0.0
  0
LINE
  5
59A
330
1B
100
AcDbEntity
  8
4
100
AcDbLine
 10
558.2932933017983
 20
147.6075319560064
 30
0.0
 11
558.2932933017983
 21
120.6075319560064
 31
0.0
  0
LINE
  5
59B
330
1B
100
AcDbEntity
  8
4
100
AcDbLine
 10
557.2932943017981
 20
144.6075319560064
 30
0.0
 11
557.2932943017981
 21
119.6075299560061
 31
0.0
  0
LINE
  5
59C
330
1B
100
AcDbEntity
  8
4
100
AcDbLine
 10
557.2932943017981
 20
119.6075299560061
 30
0.0
 11
558.2932933017983
 21
120.6075319560064
 31
0.0
  0
LINE
  5
59D
330
1B
100
AcDbEntity
  8
4
100
AcDbLine
 10
558.2932933017983
 20
143.6075299560061
 30
0.0
 11
557.2932943017981
 21
144.6075319560064
 31
0.0
  0
LINE
  5
59E
330
1B
100
AcDbEntity
  8
4
100
AcDbLine
 10
307.293295301798
 20
366.1075309560063
 30
0.0
 11
345.2932933017983
 21
366.1075309560063
 31
0.0
  0
LINE
  5
59F
330
1B
100
AcDbEntity
  8
4
100
AcDbLine
 10
313.7932933017983
 20
367.6075309560063
 30
0.0
 11
338.793295301798
 21
367.6075309560063
 31
0.0
  0
LINE
  5
5A0
330
1B
100
AcDbEntity
  8
4
100
AcDbLine
 10
313.7932933017983
 20
369.6075319560064
 30
0.0
 11
338.793295301798
 21
369.6075319560064
 31
0.0
  0
LINE
  5
5A1
330
1B
100
AcDbEntity
  8
4
100
AcDbLine
 10
313.7932933017983
 20
373.6075309560063
 30
0.0
 11
338.793295301798
 21
373.6075309560063
 31
0.0
  0
LINE
  5
5A2
330
1B
100
AcDbEntity
  8
4
100
AcDbLine
 10
307.293295301798
 20
364.8497179560063
 30
0.0
 11
307.293295301798
 21
366.1075309560063
 31
0.0
  0
LINE
  5
5A3
330
1B
100
AcDbEntity
  8
4
100
AcDbLine
 10
320.043295301798
 20
369.6075319560064
 30
0.0
 11
320.043295301798
 21
373.6075309560063
 31
0.0
  0
LINE
  5
5A4
330
1B
100
AcDbEntity
  8
4
100
AcDbLine
 10
313.7932933017983
 20
367.6075309560063
 30
0.0
 11
313.7932933017983
 21
373.6075309560063
 31
0.0
  0
LINE
  5
5A5
330
1B
100
AcDbEntity
  8
4
100
AcDbLine
 10
314.793295301798
 20
366.1075309560063
 30
0.0
 11
314.793295301798
 21
367.6075309560063
 31
0.0
  0
LINE
  5
5A6
330
1B
100
AcDbEntity
  8
4
100
AcDbLine
 10
337.7932933017983
 20
366.1075309560063
 30
0.0
 11
337.7932933017983
 21
367.6075309560063
 31
0.0
  0
LINE
  5
5A7
330
1B
100
AcDbEntity
  8
4
100
AcDbLine
 10
332.5432933017983
 20
369.6075319560064
 30
0.0
 11
332.5432933017983
 21
373.6075309560063
 31
0.0
  0
LINE
  5
5A8
330
1B
100
AcDbEntity
  8
4
100
AcDbLine
 10
345.2932933017983
 20
364.8497179560063
 30
0.0
 11
345.2932933017983
 21
366.1075309560063
 31
0.0
  0
LINE
  5
5A9
330
1B
100
AcDbEntity
  8
4
100
AcDbLine
 10
338.793295301798
 20
373.6075309560063
 30
0.0
 11
338.793295301798
 21
367.6075309560063
 31
0.0
  0
ARC
  5
5AA
330
1B
100
AcDbEntity
  8
4
100
AcDbCircle
 10
471.304768301798
 20
344.8108999560063
 30
0.0
 40
4.999965
100
AcDbArc
 50
11.09485100000015
 51
77.95428599999852
  0
LINE
  5
5AB
330
1B
100
AcDbEntity
  8
4
100
AcDbLine
 10
965.410365782685
 20
74.10753195600626
 30
0.0
 11
965.410365782685
 21
52.10752995600626
 31
0.0
  0
LINE
  5
5AC
330
1B
100
AcDbEntity
  8
4
100
AcDbLine
 10
936.4103647826851
 20
52.10752995600626
 30
0.0
 11
936.4103647826851
 21
77.10753195600626
 31
0.0
  0
LINE
  5
5AD
330
1B
100
AcDbEntity
  8
4
100
AcDbLine
 10
954.4103647826851
 20
52.10752995600626
 30
0.0
 11
954.4103647826851
 21
77.10753195600626
 31
0.0
  0
LINE
  5
5AE
330
1B
100
AcDbEntity
  8
L-CENTER
100
AcDbLine
 10
945.4103647826851
 20
40.10752995600626
 30
0.0
 11
945.4103647826851
 21
89.10753195600626
 31
0.0
  0
LWPOLYLINE
  5
5AF
330
1B
100
AcDbEntity
  8
4
100
AcDbPolyline
 90
       41
 70
     0
 43
0.0
 10
925.1410597826848
 20
77.10753195600626
 10
924.9269167826847
 20
76.83539295600622
 10
924.7551517826851
 20
76.55264295600625
 10
924.6300007826849
 20
76.2582259560063
 10
924.5557027826849
 20
75.95107695600632
 10
924.5364877826851
 20
75.63013695600625
 10
924.6028837826848
 20
75.16007895600626
 10
924.756447782685
 20
74.66809995600624
 10
924.969417782685
 20
74.1610489560062
 10
925.6871137826852
 20
72.61798695600623
 10
925.860066782685
 20
72.11916795600632
 10
925.9536067826848
 20
71.63953395600629
 10
925.9399687826849
 20
71.18593695600623
 10
925.7478667826849
 20
70.66406295600632
 10
925.3918027826849
 20
70.18090095600633
 10
924.916680782685
 20
69.72426495600621
 10
923.226030782685
 20
68.39156895600627
 10
922.7237437826848
 20
67.91910195600622
 10
922.3269277826848
 20
67.41219795600625
 10
922.0804957826849
 20
66.85866495600624
 10
922.0220227826849
 20
66.07305195600634
 10
922.1730247826849
 20
65.22672795600624
 10
922.4231737826849
 20
64.35531195600629
 10
922.6621447826851
 20
63.49441395600627
 10
922.7796097826849
 20
62.67965295600629
 10
922.665240782685
 20
61.94664195600626
 10
922.2907387826849
 20
61.36517295600629
 10
921.7215217826847
 20
60.84988395600624
 10
921.0522457826851
 20
60.36769395600629
 10
920.3775607826851
 20
59.88552795600629
 10
919.792122782685
 20
59.37030195600619
 10
919.390584782685
 20
58.78894395600628
 10
919.2369847826849
 20
57.99595695600624
 10
919.3513057826849
 20
57.11082495600624
 10
919.6196197826848
 20
56.17740795600628
 10
919.9279957826852
 20
55.23956595600623
 10
920.1625147826849
 20
54.34115895600621
 10
920.2092487826849
 20
53.52604395600622
 10
920.064474782685
 20
52.99290495600621
 10
919.770225782685
 20
52.52275995600621
 10
919.3456717826853
 20
52.10752995600626
  0
LINE
  5
5B0
330
1B
100
AcDbEntity
  8
4
100
AcDbLine
 10
755.410365782685
 20
74.10753195600626
 30
0.0
 11
755.410365782685
 21
52.10752995600626
 31
0.0
  0
LINE
  5
5B1
330
1B
100
AcDbEntity
  8
L-CENTER
100
AcDbLine
 10
775.4103667826848
 20
40.10752995600626
 30
0.0
 11
775.4103667826848
 21
89.10753195600626
 31
0.0
  0
LINE
  5
5B2
330
1B
100
AcDbEntity
  8
L-CENTER
100
AcDbLine
 10
860.410365782685
 20
378.5022679560061
 30
0.0
 11
860.410365782685
 21
41.60883195600627
 31
0.0
  0
TEXT
  5
5B3
330
1B
100
AcDbEntity
  8
3
100
AcDbText
 10
982.6371428270058
 20
19.07113071671313
 30
0.0
 40
8.925376620868146
  1
LD4-00
  7
KANJI
100
AcDbText
  0
LINE
  5
5B4
330
1B
100
AcDbEntity
  8
2
100
AcDbLine
 10
981.846725917766
 20
15.37111064034207
 30
0.0
 11
1027.222838158285
 21
15.37111064034207
 31
0.0
  0
LINE
  5
5B5
330
1B
100
AcDbEntity
  8
4
100
AcDbLine
 10
755.410365782685
 20
52.10752995600626
 30
0.0
 11
965.410365782685
 21
52.10752995600626
 31
0.0
  0
LINE
  5
5B6
330
1B
100
AcDbEntity
  8
4
100
AcDbLine
 10
946.9103647826851
 20
241.1075299560061
 30
0.0
 11
1040.910366782685
 21
241.1075299560061
 31
0.0
  0
LINE
  5
5B7
330
1B
100
AcDbEntity
  8
4
100
AcDbLine
 10
951.9103647826851
 20
244.6075299560061
 30
0.0
 11
1041.910365782685
 21
244.6075299560061
 31
0.0
  0
LINE
  5
5B8
330
1B
100
AcDbEntity
  8
4
100
AcDbLine
 10
946.9103647826851
 20
203.1075319560064
 30
0.0
 11
1040.910366782685
 21
203.1075319560064
 31
0.0
  0
LINE
  5
5B9
330
1B
100
AcDbEntity
  8
L-CENTER
100
AcDbLine
 10
1050.161586782685
 20
222.1075309560063
 30
0.0
 11
776.5112002900901
 21
222.1075309560063
 31
0.0
  0
LINE
  5
5BA
330
1B
100
AcDbEntity
  8
4
100
AcDbLine
 10
813.910365782685
 20
163.4124619560062
 30
0.0
 11
813.910365782685
 21
365.1075319560064
 31
0.0
  0
ARC
  5
5BB
330
1B
100
AcDbEntity
  8
4
100
AcDbCircle
 10
2492.910363782685
 20
211.1075299560061
 30
0.0
 40
1700.000025
100
AcDbArc
 50
175.604525
 51
184.395475
  0
LINE
  5
5BC
330
1B
100
AcDbEntity
  8
4
100
AcDbLine
 10
797.9103667826848
 20
79.10752995600626
 30
0.0
 11
797.9103667826848
 21
343.1075299560061
 31
0.0
  0
LINE
  5
5BD
330
1B
100
AcDbEntity
  8
4
100
AcDbLine
 10
799.9103647826851
 20
77.10753195600626
 30
0.0
 11
799.9103647826851
 21
361.1075299560061
 31
0.0
  0
LINE
  5
5BE
330
1B
100
AcDbEntity
  8
4
100
AcDbLine
 10
920.9103667826848
 20
77.10753195600626
 30
0.0
 11
920.9103667826848
 21
361.1075299560061
 31
0.0
  0
LINE
  5
5BF
330
1B
100
AcDbEntity
  8
4
100
AcDbLine
 10
922.9103647826851
 20
79.10752995600626
 30
0.0
 11
922.9103647826851
 21
343.1075299560064
 31
0.0
  0
LINE
  5
5C0
330
1B
100
AcDbEntity
  8
4
100
AcDbLine
 10
906.910365782685
 20
365.1075319560064
 30
0.0
 11
906.910365782685
 21
87.10753095600626
 31
0.0
  0
LINE
  5
5C1
330
1B
100
AcDbEntity
  8
4
100
AcDbLine
 10
908.9103667826848
 20
81.10753095600626
 30
0.0
 11
908.9103667826848
 21
361.1075299560061
 31
0.0
  0
LINE
  5
5C2
330
1B
100
AcDbEntity
  8
L-CENTER
100
AcDbLine
 10
889.1950144565922
 20
132.1075309560063
 30
0.0
 11
794.625715108778
 21
132.1075309560063
 31
0.0
  0
LINE
  5
5C3
330
1B
100
AcDbEntity
  8
L-CENTER
100
AcDbLine
 10
939.3412747826851
 20
232.1075299560061
 30
0.0
 11
781.4794567826848
 21
232.1075299560061
 31
0.0
  0
LINE
  5
5C4
330
1B
100
AcDbEntity
  8
L-CENTER
100
AcDbLine
 10
938.6772097826847
 20
211.1075299560061
 30
0.0
 11
782.1435187826851
 21
211.1075299560061
 31
0.0
  0
ARC
  5
5C5
330
1B
100
AcDbEntity
  8
4
100
AcDbCircle
 10
803.9103667826848
 20
87.10753095600626
 30
0.0
 40
9.999999
100
AcDbArc
 50
270.0
 51
0.0
  0
CIRCLE
  5
5C6
330
1B
100
AcDbEntity
  8
4
100
AcDbCircle
 10
841.9103647826851
 20
132.1075309560063
 30
0.0
 40
30.999999
  0
CIRCLE
  5
5C7
330
1B
100
AcDbEntity
  8
4
100
AcDbCircle
 10
841.9103647826851
 20
132.1075309560063
 30
0.0
 40
42.0
  0
LINE
  5
5C8
330
1B
100
AcDbEntity
  8
4
100
AcDbLine
 10
786.910365782685
 20
173.1075319560064
 30
0.0
 11
786.910365782685
 21
271.1075299560061
 31
0.0
  0
LINE
  5
5C9
330
1B
100
AcDbEntity
  8
4
100
AcDbLine
 10
785.9103667826848
 20
263.1075319560064
 30
0.0
 11
785.9103667826848
 21
182.1075319560064
 31
0.0
  0
LINE
  5
5CA
330
1B
100
AcDbEntity
  8
4
100
AcDbLine
 10
787.536585782685
 20
127.1075299560061
 30
0.0
 11
787.536585782685
 21
157.1075299560061
 31
0.0
  0
LINE
  5
5CB
330
1B
100
AcDbEntity
  8
4
100
AcDbLine
 10
791.0365867826849
 20
126.1075309560063
 30
0.0
 11
791.0365867826849
 21
158.1075319560064
 31
0.0
  0
LINE
  5
5CC
330
1B
100
AcDbEntity
  8
4
100
AcDbLine
 10
791.0365867826849
 20
128.1075319560064
 30
0.0
 11
791.0365867826849
 21
156.1075309560063
 31
0.0
  0
LINE
  5
5CD
330
1B
100
AcDbEntity
  8
4
100
AcDbLine
 10
789.5365867826849
 20
127.1075299560061
 30
0.0
 11
789.5365867826849
 21
157.1075299560061
 31
0.0
  0
LINE
  5
5CE
330
1B
100
AcDbEntity
  8
4
100
AcDbLine
 10
782.5365847826847
 20
127.1075299560061
 30
0.0
 11
782.5365847826847
 21
157.1075299560061
 31
0.0
  0
LINE
  5
5CF
330
1B
100
AcDbEntity
  8
4
100
AcDbLine
 10
803.9103667826848
 20
77.10753195600626
 30
0.0
 11
758.410365782685
 21
77.10753195600626
 31
0.0
  0
ARC
  5
5D0
330
1B
100
AcDbEntity
  8
4
100
AcDbCircle
 10
758.410365782685
 20
74.10753195600626
 30
0.0
 40
3.0
100
AcDbArc
 50
90.0
 51
180.0
  0
LINE
  5
5D1
330
1B
100
AcDbEntity
  8
4
100
AcDbLine
 10
799.9103647826851
 20
79.10752995600626
 30
0.0
 11
797.9103667826848
 21
79.10752995600626
 31
0.0
  0
LINE
  5
5D2
330
1B
100
AcDbEntity
  8
4
100
AcDbLine
 10
794.9103667826848
 20
80.69493195600626
 30
0.0
 11
794.9103667826853
 21
77.10753195600626
 31
0.0
  0
LINE
  5
5D3
330
1B
100
AcDbEntity
  8
4
100
AcDbLine
 10
797.9103667826848
 20
80.60118195600626
 30
0.0
 11
794.9103667826848
 21
80.69493195600626
 31
0.0
  0
LINE
  5
5D4
330
1B
100
AcDbEntity
  8
4
100
AcDbLine
 10
789.5365867826849
 20
127.1075299560061
 30
0.0
 11
782.5365847826847
 21
127.1075299560061
 31
0.0
  0
LINE
  5
5D5
330
1B
100
AcDbEntity
  8
4
100
AcDbLine
 10
789.5365867826849
 20
128.1075319560064
 30
0.0
 11
791.0365867826849
 21
128.1075319560064
 31
0.0
  0
LINE
  5
5D6
330
1B
100
AcDbEntity
  8
4
100
AcDbLine
 10
795.036585782685
 20
126.1075309560063
 30
0.0
 11
791.0365867826849
 21
126.1075309560063
 31
0.0
  0
LINE
  5
5D7
330
1B
100
AcDbEntity
  8
4
100
AcDbLine
 10
782.5365847826847
 20
157.1075299560061
 30
0.0
 11
789.5365867826849
 21
157.1075299560061
 31
0.0
  0
LINE
  5
5D8
330
1B
100
AcDbEntity
  8
4
100
AcDbLine
 10
782.5365847826847
 20
134.6075299560061
 30
0.0
 11
787.536585782685
 21
134.6075299560061
 31
0.0
  0
LINE
  5
5D9
330
1B
100
AcDbEntity
  8
4
100
AcDbLine
 10
782.5365847826847
 20
149.6075299560061
 30
0.0
 11
787.536585782685
 21
149.6075299560061
 31
0.0
  0
LINE
  5
5DA
330
1B
100
AcDbEntity
  8
L-CENTER
100
AcDbLine
 10
778.7166487826848
 20
142.1075299560061
 30
0.0
 11
804.724575782685
 21
142.1075299560061
 31
0.0
  0
LINE
  5
5DB
330
1B
100
AcDbEntity
  8
4
100
AcDbLine
 10
792.1035596546194
 20
158.1075319560064
 30
0.0
 11
791.0365867826849
 21
158.1075319560064
 31
0.0
  0
LINE
  5
5DC
330
1B
100
AcDbEntity
  8
4
100
AcDbLine
 10
789.5365867826849
 20
156.1075309560063
 30
0.0
 11
791.0365867826849
 21
156.1075309560063
 31
0.0
  0
LINE
  5
5DD
330
1B
100
AcDbEntity
  8
4
100
AcDbLine
 10
791.7022956043033
 20
173.1075319560061
 30
0.0
 11
786.910365782685
 21
173.1075319560064
 31
0.0
  0
LINE
  5
5DE
330
1B
100
AcDbEntity
  8
4
100
AcDbLine
 10
791.3731240131715
 20
193.1075299560061
 30
0.0
 11
786.910365782685
 21
193.1075299560061
 31
0.0
  0
LINE
  5
5DF
330
1B
100
AcDbEntity
  8
4
100
AcDbLine
 10
785.9103667826848
 20
182.1075319560064
 30
0.0
 11
786.910365782685
 21
182.1075319560064
 31
0.0
  0
LINE
  5
5E0
330
1B
100
AcDbEntity
  8
4
100
AcDbLine
 10
785.9103667826848
 20
201.1075309560063
 30
0.0
 11
786.910365782685
 21
201.1075309560063
 31
0.0
  0
LINE
  5
5E1
330
1B
100
AcDbEntity
  8
4
100
AcDbLine
 10
785.9103667826848
 20
263.1075319560064
 30
0.0
 11
786.910365782685
 21
263.1075319560064
 31
0.0
  0
LINE
  5
5E2
330
1B
100
AcDbEntity
  8
4
100
AcDbLine
 10
785.9103667826848
 20
262.1075299560061
 30
0.0
 11
786.910365782685
 21
262.1075299560061
 31
0.0
  0
LINE
  5
5E3
330
1B
100
AcDbEntity
  8
4
100
AcDbLine
 10
792.336130362351
 20
271.1075299560061
 30
0.0
 11
786.910365782685
 21
271.1075299560061
 31
0.0
  0
LINE
  5
5E4
330
1B
100
AcDbEntity
  8
4
100
AcDbLine
 10
933.910365782685
 20
173.1075319560064
 30
0.0
 11
933.910365782685
 21
271.1075299560061
 31
0.0
  0
LINE
  5
5E5
330
1B
100
AcDbEntity
  8
4
100
AcDbLine
 10
934.9103647826851
 20
263.1075319560064
 30
0.0
 11
934.9103647826851
 21
182.1075319560064
 31
0.0
  0
ARC
  5
5E6
330
1B
100
AcDbEntity
  8
4
100
AcDbCircle
 10
-772.0896322173153
 20
211.1075299560061
 30
0.0
 40
1700.000007
100
AcDbArc
 50
356.0712989279959
 51
359.7809273689771
  0
LINE
  5
5E7
330
1B
100
AcDbEntity
  8
4
100
AcDbLine
 10
916.9103647826851
 20
77.10753195600626
 30
0.0
 11
962.410365782685
 21
77.10753195600626
 31
0.0
  0
LINE
  5
5E8
330
1B
100
AcDbEntity
  8
L-CENTER
100
AcDbLine
 10
901.0089997826849
 20
88.13170095600628
 30
0.0
 11
934.2106597826851
 21
88.13170095600628
 31
0.0
  0
LINE
  5
5E9
330
1B
100
AcDbEntity
  8
L-CENTER
100
AcDbLine
 10
841.9103647826851
 20
179.3921806299131
 30
0.0
 11
841.9103647826851
 21
84.82288128209927
 31
0.0
  0
ARC
  5
5EA
330
1B
100
AcDbEntity
  8
4
100
AcDbCircle
 10
841.9103647826851
 20
132.1075309560063
 30
0.0
 40
12.500001
100
AcDbArc
 50
106.260205
 51
73.739795
  0
LINE
  5
5EB
330
1B
100
AcDbEntity
  8
4
100
AcDbLine
 10
813.910365782685
 20
87.10753095600626
 30
0.0
 11
813.910365782685
 21
100.8025999560062
 31
0.0
  0
ARC
  5
5EC
330
1B
100
AcDbEntity
  8
4
100
AcDbCircle
 10
916.9103647826851
 20
87.10753095600626
 30
0.0
 40
9.999999
100
AcDbArc
 50
180.0
 51
270.0
  0
LINE
  5
5ED
330
1B
100
AcDbEntity
  8
4
100
AcDbLine
 10
845.410365782685
 20
140.6075299560061
 30
0.0
 11
838.4103667826848
 21
140.6075299560061
 31
0.0
  0
LINE
  5
5EE
330
1B
100
AcDbEntity
  8
4
100
AcDbLine
 10
845.410365782685
 20
147.6075319560064
 30
0.0
 11
838.4103667826848
 21
147.6075319560064
 31
0.0
  0
LINE
  5
5EF
330
1B
100
AcDbEntity
  8
4
100
AcDbLine
 10
838.4103667826848
 20
147.6075319560064
 30
0.0
 11
838.4103667826848
 21
140.6075299560061
 31
0.0
  0
LINE
  5
5F0
330
1B
100
AcDbEntity
  8
4
100
AcDbLine
 10
845.410365782685
 20
140.6075299560061
 30
0.0
 11
845.410365782685
 21
147.6075319560064
 31
0.0
  0
LINE
  5
5F1
330
1B
100
AcDbEntity
  8
4
100
AcDbLine
 10
920.9103667826848
 20
79.10752995600626
 30
0.0
 11
922.9103647826851
 21
79.10752995600626
 31
0.0
  0
ARC
  5
5F2
330
1B
100
AcDbEntity
  8
4
100
AcDbCircle
 10
962.410365782685
 20
74.10753195600626
 30
0.0
 40
3.0
100
AcDbArc
 50
0.0
 51
90.0
  0
LINE
  5
5F3
330
1B
100
AcDbEntity
  8
4
100
AcDbLine
 10
927.485559782685
 20
173.1075319560064
 30
0.0
 11
933.910365782685
 21
173.1075319560064
 31
0.0
  0
LINE
  5
5F4
330
1B
100
AcDbEntity
  8
4
100
AcDbLine
 10
927.815151782685
 20
193.1075299560061
 30
0.0
 11
933.910365782685
 21
193.1075299560061
 31
0.0
  0
LINE
  5
5F5
330
1B
100
AcDbEntity
  8
4
100
AcDbLine
 10
934.9103647826851
 20
182.1075319560064
 30
0.0
 11
933.910365782685
 21
182.1075319560064
 31
0.0
  0
LINE
  5
5F6
330
1B
100
AcDbEntity
  8
L-CENTER
100
AcDbLine
 10
935.8708147826851
 20
334.0831159560062
 30
0.0
 11
899.3490847826847
 21
334.0831159560062
 31
0.0
  0
ARC
  5
5F7
330
1B
100
AcDbEntity
  8
4
100
AcDbCircle
 10
-772.0896322173153
 20
211.1075299560061
 30
0.0
 40
1699.999959
100
AcDbArc
 50
0.2190726372084319
 51
3.928701183106268
  0
LINE
  5
5F8
330
1B
100
AcDbEntity
  8
4
100
AcDbLine
 10
946.9103647826851
 20
242.1075319560064
 30
0.0
 11
946.9103647826851
 21
202.1075299560061
 31
0.0
  0
LINE
  5
5F9
330
1B
100
AcDbEntity
  8
4
100
AcDbLine
 10
934.9103647826851
 20
202.1075299560061
 30
0.0
 11
946.9103647826851
 21
202.1075299560061
 31
0.0
  0
LINE
  5
5FA
330
1B
100
AcDbEntity
  8
4
100
AcDbLine
 10
934.9103647826851
 20
201.1075309560063
 30
0.0
 11
933.910365782685
 21
201.1075309560063
 31
0.0
  0
LINE
  5
5FB
330
1B
100
AcDbEntity
  8
4
100
AcDbLine
 10
946.9103647826851
 20
242.1075319560064
 30
0.0
 11
934.9103647826851
 21
242.1075319560064
 31
0.0
  0
LINE
  5
5FC
330
1B
100
AcDbEntity
  8
4
100
AcDbLine
 10
934.9103647826851
 20
263.1075319560064
 30
0.0
 11
933.910365782685
 21
263.1075319560064
 31
0.0
  0
LINE
  5
5FD
330
1B
100
AcDbEntity
  8
4
100
AcDbLine
 10
934.9103647826851
 20
262.1075299560061
 30
0.0
 11
933.910365782685
 21
262.1075299560061
 31
0.0
  0
LINE
  5
5FE
330
1B
100
AcDbEntity
  8
4
100
AcDbLine
 10
926.8512847826851
 20
271.1075299560061
 30
0.0
 11
933.910365782685
 21
271.1075299560061
 31
0.0
  0
LINE
  5
5FF
330
1B
100
AcDbEntity
  8
4
100
AcDbLine
 10
813.910365782685
 20
361.1075299560061
 30
0.0
 11
799.9103647826851
 21
361.1075299560061
 31
0.0
  0
LINE
  5
600
330
1B
100
AcDbEntity
  8
4
100
AcDbLine
 10
799.9103647826851
 20
343.1075299560061
 30
0.0
 11
797.9103667826848
 21
343.1075299560061
 31
0.0
  0
LINE
  5
601
330
1B
100
AcDbEntity
  8
4
100
AcDbLine
 10
906.910365782685
 20
361.1075299560061
 30
0.0
 11
920.9103667826848
 21
361.1075299560061
 31
0.0
  0
LINE
  5
602
330
1B
100
AcDbEntity
  8
4
100
AcDbLine
 10
870.6327787826849
 20
373.6075309560063
 30
0.0
 11
850.187952782685
 21
373.6075309560063
 31
0.0
  0
LINE
  5
603
330
1B
100
AcDbEntity
  8
4
100
AcDbLine
 10
841.4103667826848
 20
366.1075309560063
 30
0.0
 11
879.4103647826851
 21
366.1075309560063
 31
0.0
  0
LINE
  5
604
330
1B
100
AcDbEntity
  8
4
100
AcDbLine
 10
906.910365782685
 20
365.1075319560064
 30
0.0
 11
813.910365782685
 21
365.1075319560064
 31
0.0
  0
LINE
  5
605
330
1B
100
AcDbEntity
  8
4
100
AcDbLine
 10
872.9103667826848
 20
367.6075309560063
 30
0.0
 11
847.9103647826851
 21
367.6075309560063
 31
0.0
  0
LINE
  5
606
330
1B
100
AcDbEntity
  8
4
100
AcDbLine
 10
872.9103667826848
 20
369.6075319560064
 30
0.0
 11
847.9103647826851
 21
369.6075319560064
 31
0.0
  0
LINE
  5
607
330
1B
100
AcDbEntity
  8
4
100
AcDbLine
 10
841.4103667826848
 20
365.1075319560064
 30
0.0
 11
841.4103667826848
 21
366.1075309560063
 31
0.0
  0
LINE
  5
608
330
1B
100
AcDbEntity
  8
4
100
AcDbLine
 10
847.9103647826851
 20
369.6075319560064
 30
0.0
 11
847.9103647826851
 21
367.6075309560063
 31
0.0
  0
LINE
  5
609
330
1B
100
AcDbEntity
  8
4
100
AcDbLine
 10
848.9103667826848
 20
366.1075309560063
 30
0.0
 11
848.9103667826848
 21
367.6075309560063
 31
0.0
  0
LINE
  5
60A
330
1B
100
AcDbEntity
  8
4
100
AcDbLine
 10
850.187952782685
 20
369.6075319560064
 30
0.0
 11
850.187952782685
 21
373.6075309560063
 31
0.0
  0
LINE
  5
60B
330
1B
100
AcDbEntity
  8
4
100
AcDbLine
 10
871.9103647826851
 20
366.1075309560063
 30
0.0
 11
871.9103647826851
 21
367.6075309560063
 31
0.0
  0
LINE
  5
60C
330
1B
100
AcDbEntity
  8
4
100
AcDbLine
 10
872.9103667826848
 20
367.6075309560063
 30
0.0
 11
872.9103667826848
 21
369.6075319560064
 31
0.0
  0
LINE
  5
60D
330
1B
100
AcDbEntity
  8
4
100
AcDbLine
 10
870.6327787826849
 20
369.6075319560064
 30
0.0
 11
870.6327787826849
 21
373.6075309560063
 31
0.0
  0
LINE
  5
60E
330
1B
100
AcDbEntity
  8
4
100
AcDbLine
 10
879.4103647826851
 20
365.1075319560064
 30
0.0
 11
879.4103647826851
 21
366.1075309560063
 31
0.0
  0
LINE
  5
60F
330
1B
100
AcDbEntity
  8
4
100
AcDbLine
 10
1041.910365782685
 20
244.6075299560061
 30
0.0
 11
1041.910365782685
 21
204.1075309560063
 31
0.0
  0
LINE
  5
610
330
1B
100
AcDbEntity
  8
4
100
AcDbLine
 10
1040.910366782685
 20
241.1075299560061
 30
0.0
 11
1040.910366782685
 21
203.1075319560064
 31
0.0
  0
LINE
  5
611
330
1B
100
AcDbEntity
  8
4
100
AcDbLine
 10
1040.910366782685
 20
203.1075319560064
 30
0.0
 11
1041.910365782685
 21
204.1075309560063
 31
0.0
  0
LINE
  5
612
330
1B
100
AcDbEntity
  8
4
100
AcDbLine
 10
1041.910365782685
 20
240.1075309560063
 30
0.0
 11
1040.910366782685
 21
241.1075299560061
 31
0.0
  0
LINE
  5
613
330
1B
100
AcDbEntity
  8
L-CENTER
100
AcDbLine
 10
143.2932943017972
 20
640.1459807424442
 30
0.0
 11
566.1309630555829
 21
640.145980742444
 31
0.0
  0
LINE
  5
614
330
1B
100
AcDbEntity
  8
4
100
AcDbLine
 10
176.2932943017981
 20
707.1459807424444
 30
0.0
 11
476.2932943017981
 21
707.145980742444
 31
0.0
  0
LINE
  5
615
330
1B
100
AcDbEntity
  8
L-CENTER
100
AcDbLine
 10
153.2932943017986
 20
658.645980742444
 30
0.0
 11
499.2932943017972
 21
658.645980742444
 31
0.0
  0
LINE
  5
616
330
1B
100
AcDbEntity
  8
4
100
AcDbLine
 10
236.7572538316376
 20
585.1459807424442
 30
0.0
 11
334.7572538316376
 21
585.145980742444
 31
0.0
  0
LINE
  5
617
330
1B
100
AcDbEntity
  8
4
100
AcDbLine
 10
163.2932943017981
 20
613.1459807424444
 30
0.0
 11
163.2932943017981
 21
758.645980742444
 31
0.0
  0
LINE
  5
618
330
1B
100
AcDbEntity
  8
4
100
AcDbLine
 10
153.2932943017972
 20
598.1459807424437
 30
0.0
 11
153.2932943017972
 21
682.1459807424437
 31
0.0
  0
LINE
  5
619
330
1B
100
AcDbEntity
  8
4
100
AcDbLine
 10
164.2932943017981
 20
612.1459807424444
 30
0.0
 11
488.2932943017977
 21
612.1459807424412
 31
0.0
  0
LINE
  5
61A
330
1B
100
AcDbEntity
  8
4
100
AcDbLine
 10
177.2932943017981
 20
598.1459807424437
 30
0.0
 11
153.2932943017972
 21
598.1459807424437
 31
0.0
  0
LINE
  5
61B
330
1B
100
AcDbEntity
  8
4
100
AcDbLine
 10
214.9926104900619
 20
553.6459807424437
 30
0.0
 11
168.2932943017981
 21
553.645980742444
 31
0.0
  0
ARC
  5
61C
330
1B
100
AcDbEntity
  8
4
100
AcDbCircle
 10
168.2932943017981
 20
558.645980742444
 30
0.0
 40
5.0
100
AcDbArc
 50
180.0
 51
270.0
  0
ARC
  5
61D
330
1B
100
AcDbEntity
  8
4
100
AcDbCircle
 10
164.2932943017986
 20
613.1459807424444
 30
0.0
 40
1.0
100
AcDbArc
 50
180.0
 51
270.0
  0
LINE
  5
61E
330
1B
100
AcDbEntity
  8
4
100
AcDbLine
 10
163.2932943017981
 20
558.645980742444
 30
0.0
 11
163.2932943017981
 21
598.1459807424437
 31
0.0
  0
LINE
  5
61F
330
1B
100
AcDbEntity
  8
4
100
AcDbLine
 10
234.6389242586611
 20
591.8947548415031
 30
0.0
 11
219.5903657991516
 21
556.6811280462514
 31
0.0
  0
LINE
  5
620
330
1B
100
AcDbEntity
  8
L-CENTER
100
AcDbLine
 10
188.7932943017981
 20
553.6459807424435
 30
0.0
 11
188.7932943017981
 21
593.6459807424444
 31
0.0
  0
ARC
  5
621
330
1B
100
AcDbEntity
  8
4
100
AcDbCircle
 10
214.9926104900619
 20
558.6459807424437
 30
0.0
 40
5.0
100
AcDbArc
 50
269.9999999999948
 51
336.8605382367882
  0
ARC
  5
622
330
1B
100
AcDbEntity
  8
4
100
AcDbCircle
 10
326.2932943018
 20
2291.013527189658
 30
0.0
 40
1701.5
100
AcDbArc
 50
265.5506025256758
 51
274.4493974743241
  0
ARC
  5
623
330
1B
100
AcDbEntity
  8
4
100
AcDbCircle
 10
193.2932943017981
 20
597.145980742444
 30
0.0
 40
1.0
100
AcDbArc
 50
0.0
 51
90.0
  0
LINE
  5
624
330
1B
100
AcDbEntity
  8
4
100
AcDbLine
 10
194.2932943017981
 20
597.145980742444
 30
0.0
 11
194.2932943017981
 21
594.641442415802
 31
0.0
  0
LINE
  5
625
330
1B
100
AcDbEntity
  8
4
100
AcDbLine
 10
177.2932943017981
 20
598.1459807424444
 30
0.0
 11
475.2932943017981
 21
598.1459807424358
 31
0.0
  0
ARC
  5
626
330
1B
100
AcDbEntity
  8
4
100
AcDbCircle
 10
175.2932943017981
 20
611.1459807424444
 30
0.0
 40
1.0
100
AcDbArc
 50
0.0
 51
90.0
  0
LINE
  5
627
330
1B
100
AcDbEntity
  8
4
100
AcDbLine
 10
176.2932943017981
 20
611.1459807424444
 30
0.0
 11
176.2932943017981
 21
599.1459807424444
 31
0.0
  0
ARC
  5
628
330
1B
100
AcDbEntity
  8
4
100
AcDbCircle
 10
177.2932943017981
 20
599.1459807424444
 30
0.0
 40
1.0
100
AcDbArc
 50
180.0
 51
270.0
  0
CIRCLE
  5
629
330
1B
100
AcDbEntity
  8
4
100
AcDbCircle
 10
188.7932943017981
 20
573.645980742444
 30
0.0
 40
9.0
  0
LINE
  5
62A
330
1B
100
AcDbEntity
  8
L-CENTER
100
AcDbLine
 10
208.7932943017981
 20
573.645980742444
 30
0.0
 11
168.7932943017981
 21
573.645980742444
 31
0.0
  0
LINE
  5
62B
330
1B
100
AcDbEntity
  8
4
100
AcDbLine
 10
236.7572538316376
 20
585.145980742444
 30
0.0
 11
236.7572538316376
 21
589.027237228983
 31
0.0
  0
ARC
  5
62C
330
1B
100
AcDbEntity
  8
4
100
AcDbCircle
 10
233.7572538316376
 20
589.027237228983
 30
0.0
 40
3.0
100
AcDbArc
 50
0.0
 51
86.88792464264135
  0
LINE
  5
62D
330
1B
100
AcDbEntity
  8
4
100
AcDbLine
 10
245.7572538316376
 20
584.1459807424444
 30
0.0
 11
245.7572538316376
 21
585.145980742444
 31
0.0
  0
LINE
  5
62E
330
1B
100
AcDbEntity
  8
4
100
AcDbLine
 10
234.6389242586606
 20
725.3972066433853
 30
0.0
 11
219.5903657991516
 21
760.6108334386363
 31
0.0
  0
LINE
  5
62F
330
1B
100
AcDbEntity
  8
L-CENTER
100
AcDbLine
 10
188.7932943017981
 20
763.6459807424453
 30
0.0
 11
188.7932943017981
 21
723.6459807424426
 31
0.0
  0
LINE
  5
630
330
1B
100
AcDbEntity
  8
4
100
AcDbLine
 10
164.2932943017986
 20
705.1459807424444
 30
0.0
 11
488.2932943017977
 21
705.1459807424444
 31
0.0
  0
ARC
  5
631
330
1B
100
AcDbEntity
  8
4
100
AcDbCircle
 10
164.2932943017986
 20
704.1459807424444
 30
0.0
 40
1.0
100
AcDbArc
 50
90.0
 51
180.0
  0
ARC
  5
632
330
1B
100
AcDbEntity
  8
4
100
AcDbCircle
 10
160.2932943017972
 20
685.1459807424437
 30
0.0
 40
3.0
100
AcDbArc
 50
270.0
 51
0.0
  0
LINE
  5
633
330
1B
100
AcDbEntity
  8
4
100
AcDbLine
 10
160.2932943017972
 20
682.1459807424437
 30
0.0
 11
153.2932943017972
 21
682.1459807424437
 31
0.0
  0
LINE
  5
634
330
1B
100
AcDbEntity
  8
4
100
AcDbLine
 10
176.2932943017981
 20
707.1459807424442
 30
0.0
 11
176.2932943017981
 21
705.1459807424444
 31
0.0
  0
LINE
  5
635
330
1B
100
AcDbEntity
  8
4
100
AcDbLine
 10
214.9926104900619
 20
763.645980742444
 30
0.0
 11
168.2932943017981
 21
763.645980742444
 31
0.0
  0
ARC
  5
636
330
1B
100
AcDbEntity
  8
4
100
AcDbCircle
 10
168.2932943017981
 20
758.645980742444
 30
0.0
 40
5.0
100
AcDbArc
 50
90.0
 51
180.0
  0
CIRCLE
  5
637
330
1B
100
AcDbEntity
  8
4
100
AcDbCircle
 10
188.7932943017981
 20
743.645980742444
 30
0.0
 40
9.0
  0
LINE
  5
638
330
1B
100
AcDbEntity
  8
L-CENTER
100
AcDbLine
 10
208.7932943017991
 20
743.645980742444
 30
0.0
 11
168.7932943017963
 21
743.645980742444
 31
0.0
  0
ARC
  5
639
330
1B
100
AcDbEntity
  8
4
100
AcDbCircle
 10
214.9926104900619
 20
758.645980742444
 30
0.0
 40
5.0
100
AcDbArc
 50
23.13946176321182
 51
90.0
  0
LINE
  5
63A
330
1B
100
AcDbEntity
  8
L-CENTER
100
AcDbLine
 10
393.2932943017981
 20
575.145980742444
 30
0.0
 11
393.2932943017981
 21
737.7032121105292
 31
0.0
  0
LINE
  5
63B
330
1B
100
AcDbEntity
  8
4
100
AcDbLine
 10
489.2932943017981
 20
613.1459807424444
 30
0.0
 11
489.2932943017981
 21
758.645980742444
 31
0.0
  0
LINE
  5
63C
330
1B
100
AcDbEntity
  8
4
100
AcDbLine
 10
499.2932943017972
 20
598.1459807424437
 30
0.0
 11
499.2932943017972
 21
682.1459807424437
 31
0.0
  0
LINE
  5
63D
330
1B
100
AcDbEntity
  8
L-CENTER
100
AcDbLine
 10
326.2932943017981
 20
575.145980742444
 30
0.0
 11
326.2932943017981
 21
740.2365605891089
 31
0.0
  0
LINE
  5
63E
330
1B
100
AcDbEntity
  8
4
100
AcDbLine
 10
434.2932943017981
 20
553.645980742444
 30
0.0
 11
484.2932943017981
 21
553.645980742444
 31
0.0
  0
ARC
  5
63F
330
1B
100
AcDbEntity
  8
4
100
AcDbCircle
 10
326.2932943018
 20
2291.013527189658
 30
0.0
 40
1701.5
100
AcDbArc
 50
270.3853572600041
 51
270.8403906421432
  0
ARC
  5
640
330
1B
100
AcDbEntity
  8
4
100
AcDbCircle
 10
337.7572538316376
 20
586.5520792149914
 30
0.0
 40
3.0
100
AcDbArc
 50
90.38535725999483
 51
180.0
  0
LINE
  5
641
330
1B
100
AcDbEntity
  8
4
100
AcDbLine
 10
334.7572538316376
 20
585.145980742444
 30
0.0
 11
334.7572538316376
 21
586.5520792149914
 31
0.0
  0
LINE
  5
642
330
1B
100
AcDbEntity
  8
4
100
AcDbLine
 10
325.7572538316376
 20
584.145980742444
 30
0.0
 11
325.7572538316376
 21
585.145980742444
 31
0.0
  0
LINE
  5
643
330
1B
100
AcDbEntity
  8
4
100
AcDbLine
 10
421.2591062676097
 20
584.145980742444
 30
0.0
 11
434.2932943017981
 21
553.645980742444
 31
0.0
  0
LINE
  5
644
330
1B
100
AcDbEntity
  8
4
100
AcDbLine
 10
354.2932943017981
 20
585.145980742444
 30
0.0
 11
432.2932943017981
 21
585.145980742444
 31
0.0
  0
ARC
  5
645
330
1B
100
AcDbEntity
  8
4
100
AcDbCircle
 10
351.2932943017981
 20
586.6968752731198
 30
0.0
 40
3.0
100
AcDbArc
 50
0.0
 51
90.84039064214869
  0
LINE
  5
646
330
1B
100
AcDbEntity
  8
4
100
AcDbLine
 10
354.2932943017981
 20
585.145980742444
 30
0.0
 11
354.2932943017981
 21
586.6968752731198
 31
0.0
  0
LINE
  5
647
330
1B
100
AcDbEntity
  8
4
100
AcDbLine
 10
362.2932943017981
 20
584.145980742444
 30
0.0
 11
362.2932943017981
 21
585.145980742444
 31
0.0
  0
LINE
  5
648
330
1B
100
AcDbEntity
  8
4
100
AcDbLine
 10
432.2932943017981
 20
585.145980742444
 30
0.0
 11
432.2932943017981
 21
590.0022838405732
 31
0.0
  0
ARC
  5
649
330
1B
100
AcDbEntity
  8
4
100
AcDbCircle
 10
435.2932943017981
 20
590.0022838405732
 30
0.0
 40
3.0
100
AcDbArc
 50
93.66647366411495
 51
180.0
  0
LINE
  5
64A
330
1B
100
AcDbEntity
  8
4
100
AcDbLine
 10
424.2932943017981
 20
584.145980742444
 30
0.0
 11
424.2932943017981
 21
585.145980742444
 31
0.0
  0
ARC
  5
64B
330
1B
100
AcDbEntity
  8
4
100
AcDbCircle
 10
484.2932943017981
 20
558.645980742444
 30
0.0
 40
5.0
100
AcDbArc
 50
270.0
 51
0.0
  0
LINE
  5
64C
330
1B
100
AcDbEntity
  8
L-CENTER
100
AcDbLine
 10
463.7932943017981
 20
553.6459807424435
 30
0.0
 11
463.7932943017981
 21
593.6459807424444
 31
0.0
  0
LINE
  5
64D
330
1B
100
AcDbEntity
  8
4
100
AcDbLine
 10
475.2932943017981
 20
598.1459807424437
 30
0.0
 11
499.2932943017972
 21
598.1459807424437
 31
0.0
  0
LINE
  5
64E
330
1B
100
AcDbEntity
  8
L-CENTER
100
AcDbLine
 10
443.7932943017981
 20
573.645980742444
 30
0.0
 11
483.7932943017981
 21
573.645980742444
 31
0.0
  0
ARC
  5
64F
330
1B
100
AcDbEntity
  8
4
100
AcDbCircle
 10
477.2932943017981
 20
611.1459807424444
 30
0.0
 40
1.0
100
AcDbArc
 50
90.0
 51
180.0
  0
ARC
  5
650
330
1B
100
AcDbEntity
  8
4
100
AcDbCircle
 10
475.2932943017981
 20
599.1459807424444
 30
0.0
 40
1.0
100
AcDbArc
 50
270.0
 51
0.0
  0
ARC
  5
651
330
1B
100
AcDbEntity
  8
4
100
AcDbCircle
 10
459.2932943017981
 20
597.145980742444
 30
0.0
 40
1.0
100
AcDbArc
 50
90.0
 51
180.0
  0
LINE
  5
652
330
1B
100
AcDbEntity
  8
4
100
AcDbLine
 10
458.2932943017981
 20
597.145980742444
 30
0.0
 11
458.2932943017981
 21
594.6414424158017
 31
0.0
  0
LINE
  5
653
330
1B
100
AcDbEntity
  8
4
100
AcDbLine
 10
476.2932943017981
 20
611.1459807424444
 30
0.0
 11
476.2932943017981
 21
599.1459807424444
 31
0.0
  0
CIRCLE
  5
654
330
1B
100
AcDbEntity
  8
4
100
AcDbCircle
 10
463.7932943017981
 20
573.645980742444
 30
0.0
 40
9.0
  0
ARC
  5
655
330
1B
100
AcDbEntity
  8
4
100
AcDbCircle
 10
488.2932943017977
 20
613.1459807424444
 30
0.0
 40
1.0
100
AcDbArc
 50
270.0
 51
0.0
  0
LINE
  5
656
330
1B
100
AcDbEntity
  8
4
100
AcDbLine
 10
489.2932943017981
 20
558.645980742444
 30
0.0
 11
489.2932943017981
 21
598.1459807424437
 31
0.0
  0
ARC
  5
657
330
1B
100
AcDbEntity
  8
4
100
AcDbCircle
 10
437.5939781135344
 20
758.645980742444
 30
0.0
 40
5.0
100
AcDbArc
 50
90.0
 51
156.8605382367883
  0
LINE
  5
658
330
1B
100
AcDbEntity
  8
4
100
AcDbLine
 10
421.2591062676106
 20
733.1459807424444
 30
0.0
 11
432.9962228044446
 21
760.6108334386363
 31
0.0
  0
LINE
  5
659
330
1B
100
AcDbEntity
  8
L-CENTER
100
AcDbLine
 10
463.7932943017981
 20
763.6459807424453
 30
0.0
 11
463.7932943017981
 21
723.6459807424426
 31
0.0
  0
LINE
  5
65A
330
1B
100
AcDbEntity
  8
4
100
AcDbLine
 10
476.2932943017981
 20
707.1459807424442
 30
0.0
 11
476.2932943017981
 21
705.1459807424444
 31
0.0
  0
ARC
  5
65B
330
1B
100
AcDbEntity
  8
4
100
AcDbCircle
 10
488.2932943017977
 20
704.1459807424444
 30
0.0
 40
1.0
100
AcDbArc
 50
0.0
 51
90.0
  0
LINE
  5
65C
330
1B
100
AcDbEntity
  8
4
100
AcDbLine
 10
492.2932943017972
 20
682.1459807424437
 30
0.0
 11
499.2932943017972
 21
682.1459807424437
 31
0.0
  0
ARC
  5
65D
330
1B
100
AcDbEntity
  8
4
100
AcDbCircle
 10
492.2932943017972
 20
685.1459807424437
 30
0.0
 40
3.0
100
AcDbArc
 50
180.0
 51
270.0
  0
LINE
  5
65E
330
1B
100
AcDbEntity
  8
4
100
AcDbLine
 10
437.5939781135344
 20
763.645980742444
 30
0.0
 11
484.2932943017981
 21
763.645980742444
 31
0.0
  0
LINE
  5
65F
330
1B
100
AcDbEntity
  8
L-CENTER
100
AcDbLine
 10
443.7932943017972
 20
743.645980742444
 30
0.0
 11
483.7932943018
 21
743.645980742444
 31
0.0
  0
CIRCLE
  5
660
330
1B
100
AcDbEntity
  8
4
100
AcDbCircle
 10
463.7932943017981
 20
743.645980742444
 30
0.0
 40
9.0
  0
ARC
  5
661
330
1B
100
AcDbEntity
  8
4
100
AcDbCircle
 10
484.2932943017981
 20
758.645980742444
 30
0.0
 40
5.0
100
AcDbArc
 50
0.0
 51
90.0
  0
LINE
  5
662
330
1B
100
AcDbEntity
  8
4
100
AcDbLine
 10
362.2932943017981
 20
584.145980742444
 30
0.0
 11
424.2932943017981
 21
584.145980742444
 31
0.0
  0
LINE
  5
663
330
1B
100
AcDbEntity
  8
4
100
AcDbLine
 10
245.7572538316376
 20
584.1459807424444
 30
0.0
 11
325.7572538316376
 21
584.145980742444
 31
0.0
  0
LINE
  5
664
330
1B
100
AcDbEntity
  8
4
100
AcDbLine
 10
794.6144915320187
 20
290.1075309560065
 30
0.0
 11
793.1128706998547
 21
290.1075309560065
 31
0.0
  0
ARC
  5
665
330
1B
100
AcDbEntity
  8
4
100
AcDbCircle
 10
2492.7779112299
 20
211.1075309560042
 30
0.0
 40
1701.5
100
AcDbArc
 50
177.3388219708892
 51
181.91975938135
  0
LINE
  5
666
330
1B
100
AcDbEntity
  8
4
100
AcDbLine
 10
793.7337681894664
 20
154.1075309560065
 30
0.0
 11
792.2329250563494
 21
154.1075309560065
 31
0.0
  0
ARC
  5
667
330
1B
100
AcDbEntity
  8
4
100
AcDbCircle
 10
326.2932943018
 20
2291.013527189658
 30
0.0
 40
1700.0
100
AcDbArc
 50
265.5506025256758
 51
274.4493974743241
  0
ARC
  5
668
330
1B
100
AcDbEntity
  8
4
100
AcDbCircle
 10
326.2932943017981
 20
-973.72156570477
 30
0.0
 40
1701.5
100
AcDbArc
 50
85.58177541283315
 51
87.38938600307193
  0
LINE
  5
669
330
1B
100
AcDbEntity
  8
4
100
AcDbLine
 10
176.2932943017981
 20
707.4459807424441
 30
0.0
 11
476.2932943017981
 21
707.4459807424439
 31
0.0
  0
LINE
  5
66A
330
1B
100
AcDbEntity
  8
4
100
AcDbLine
 10
177.2932943017981
 20
719.1459807424442
 30
0.0
 11
475.2932943017981
 21
719.1459807424442
 31
0.0
  0
ARC
  5
66B
330
1B
100
AcDbEntity
  8
4
100
AcDbCircle
 10
351.2932943017981
 20
730.5950862117686
 30
0.0
 40
3.0
100
AcDbArc
 50
269.1596093578513
 51
0.0
  0
LINE
  5
66C
330
1B
100
AcDbEntity
  8
4
100
AcDbLine
 10
245.7572538316376
 20
733.1459807424449
 30
0.0
 11
325.7572538316376
 21
733.1459807424446
 31
0.0
  0
LINE
  5
66D
330
1B
100
AcDbEntity
  8
4
100
AcDbLine
 10
236.7572538316376
 20
732.1459807424444
 30
0.0
 11
334.7572538316376
 21
732.1459807424444
 31
0.0
  0
LINE
  5
66E
330
1B
100
AcDbEntity
  8
4
100
AcDbLine
 10
176.2932943017981
 20
718.1459807424442
 30
0.0
 11
176.2932943017981
 21
707.4459807424441
 31
0.0
  0
ARC
  5
66F
330
1B
100
AcDbEntity
  8
4
100
AcDbCircle
 10
177.2932943017981
 20
718.1459807424442
 30
0.0
 40
1.0
100
AcDbArc
 50
90.0
 51
180.0
  0
ARC
  5
670
330
1B
100
AcDbEntity
  8
4
100
AcDbCircle
 10
195.2932943017981
 20
721.7250568699426
 30
0.0
 40
1.0
100
AcDbArc
 50
94.41822458715102
 51
180.0
  0
LINE
  5
671
330
1B
100
AcDbEntity
  8
4
100
AcDbLine
 10
194.2932943017981
 20
721.7250568699426
 30
0.0
 11
194.2932943017981
 21
719.1459807424442
 31
0.0
  0
LINE
  5
672
330
1B
100
AcDbEntity
  8
4
100
AcDbLine
 10
245.7572538316376
 20
732.1459807424444
 30
0.0
 11
245.7572538316376
 21
733.1459807424449
 31
0.0
  0
LINE
  5
673
330
1B
100
AcDbEntity
  8
4
100
AcDbLine
 10
236.7572538316376
 20
732.1459807424444
 30
0.0
 11
236.7572538316376
 21
728.2647242559055
 31
0.0
  0
ARC
  5
674
330
1B
100
AcDbEntity
  8
4
100
AcDbCircle
 10
233.7572538316376
 20
728.2647242559055
 30
0.0
 40
3.0
100
AcDbArc
 50
273.11207535735
 51
0.0
  0
LINE
  5
675
330
1B
100
AcDbEntity
  8
L-CENTER
100
AcDbLine
 10
285.7572538316376
 20
848.8536946196816
 30
0.0
 11
285.7572538316376
 21
574.4019105343384
 31
0.0
  0
LINE
  5
676
330
1B
100
AcDbEntity
  8
4
100
AcDbLine
 10
325.7572538316376
 20
732.1459807424446
 30
0.0
 11
325.7572538316376
 21
733.1459807424446
 31
0.0
  0
ARC
  5
677
330
1B
100
AcDbEntity
  8
4
100
AcDbCircle
 10
337.7572538316376
 20
730.739882269897
 30
0.0
 40
3.0
100
AcDbArc
 50
180.0
 51
269.6146427399964
  0
LINE
  5
678
330
1B
100
AcDbEntity
  8
4
100
AcDbLine
 10
334.7572538316376
 20
732.1459807424444
 30
0.0
 11
334.7572538316376
 21
730.739882269897
 31
0.0
  0
LINE
  5
679
330
1B
100
AcDbEntity
  8
4
100
AcDbLine
 10
362.2932943017981
 20
733.1459807424444
 30
0.0
 11
424.2932943017981
 21
733.1459807424444
 31
0.0
  0
LINE
  5
67A
330
1B
100
AcDbEntity
  8
4
100
AcDbLine
 10
354.2932943017981
 20
732.1459807424444
 30
0.0
 11
432.2932943017981
 21
732.1459807424444
 31
0.0
  0
LINE
  5
67B
330
1B
100
AcDbEntity
  8
4
100
AcDbLine
 10
362.2932943017981
 20
732.1459807424444
 30
0.0
 11
362.2932943017981
 21
733.1459807424444
 31
0.0
  0
LINE
  5
67C
330
1B
100
AcDbEntity
  8
4
100
AcDbLine
 10
354.2932943017981
 20
732.1459807424444
 30
0.0
 11
354.2932943017981
 21
730.5950862117686
 31
0.0
  0
LINE
  5
67D
330
1B
100
AcDbEntity
  8
4
100
AcDbLine
 10
424.2932943017981
 20
732.1459807424444
 30
0.0
 11
424.2932943017981
 21
733.1459807424444
 31
0.0
  0
ARC
  5
67E
330
1B
100
AcDbEntity
  8
4
100
AcDbCircle
 10
435.2932943017981
 20
727.2896776443149
 30
0.0
 40
3.0
100
AcDbArc
 50
180.0
 51
266.3335263358851
  0
LINE
  5
67F
330
1B
100
AcDbEntity
  8
4
100
AcDbLine
 10
432.2932943017981
 20
732.1459807424444
 30
0.0
 11
432.2932943017981
 21
727.2896776443149
 31
0.0
  0
LINE
  5
680
330
1B
100
AcDbEntity
  8
4
100
AcDbLine
 10
476.2932943017981
 20
718.1459807424449
 30
0.0
 11
476.2932943017981
 21
707.4459807424446
 31
0.0
  0
ARC
  5
681
330
1B
100
AcDbEntity
  8
4
100
AcDbCircle
 10
475.2932943017981
 20
718.1459807424449
 30
0.0
 40
1.0
100
AcDbArc
 50
0.0
 51
90.0
  0
ARC
  5
682
330
1B
100
AcDbEntity
  8
4
100
AcDbCircle
 10
457.2932943017981
 20
721.7250568699426
 30
0.0
 40
1.0
100
AcDbArc
 50
0.0
 51
85.58177541284898
  0
LINE
  5
683
330
1B
100
AcDbEntity
  8
4
100
AcDbLine
 10
458.2932943017981
 20
721.7250568699426
 30
0.0
 11
458.2932943017981
 21
719.1459807424446
 31
0.0
  0
LINE
  5
684
330
1B
100
AcDbEntity
  8
4
100
AcDbLine
 10
557.2932943017981
 20
636.645980742444
 30
0.0
 11
557.2932943017981
 21
627.645980742444
 31
0.0
  0
LINE
  5
685
330
1B
100
AcDbEntity
  8
4
100
AcDbLine
 10
558.2932943017981
 20
651.6423498453828
 30
0.0
 11
558.2932943017981
 21
628.6423498453823
 31
0.0
  0
LINE
  5
686
330
1B
100
AcDbEntity
  8
4
100
AcDbLine
 10
508.2668560196339
 20
655.145980742444
 30
0.0
 11
508.2668560196339
 21
625.145980742444
 31
0.0
  0
LINE
  5
687
330
1B
100
AcDbEntity
  8
4
100
AcDbLine
 10
509.2668560196339
 20
627.645980742444
 30
0.0
 11
557.2932943017981
 21
627.645980742444
 31
0.0
  0
ARC
  5
688
330
1B
100
AcDbEntity
  8
4
100
AcDbCircle
 10
509.2668560196339
 20
626.645980742444
 30
0.0
 40
1.0
100
AcDbArc
 50
90.0
 51
180.0
  0
LINE
  5
689
330
1B
100
AcDbEntity
  8
4
100
AcDbLine
 10
558.2932943017981
 20
628.6423498453823
 30
0.0
 11
557.2969251988593
 21
627.645980742444
 31
0.0
  0
LINE
  5
68A
330
1B
100
AcDbEntity
  8
4
100
AcDbLine
 10
558.2932943017981
 20
636.645980742444
 30
0.0
 11
516.7668560196339
 21
636.645980742444
 31
0.0
  0
LINE
  5
68B
330
1B
100
AcDbEntity
  8
4
100
AcDbLine
 10
558.2932943017981
 20
643.645980742444
 30
0.0
 11
516.7668560196339
 21
643.645980742444
 31
0.0
  0
LINE
  5
68C
330
1B
100
AcDbEntity
  8
4
100
AcDbLine
 10
509.2668560196339
 20
652.645980742444
 30
0.0
 11
557.289663404737
 21
652.645980742444
 31
0.0
  0
ARC
  5
68D
330
1B
100
AcDbEntity
  8
4
100
AcDbCircle
 10
509.2668560196339
 20
653.645980742444
 30
0.0
 40
1.0
100
AcDbArc
 50
180.0
 51
270.0
  0
ARC
  5
68E
330
1B
100
AcDbEntity
  8
4
100
AcDbCircle
 10
516.7668560196339
 20
640.145980742444
 30
0.0
 40
3.5
100
AcDbArc
 50
180.0
 51
270.0
  0
ARC
  5
68F
330
1B
100
AcDbEntity
  8
4
100
AcDbCircle
 10
516.7668560196339
 20
640.145980742444
 30
0.0
 40
3.5
100
AcDbArc
 50
90.0
 51
180.0
  0
LINE
  5
690
330
1B
100
AcDbEntity
  8
4
100
AcDbLine
 10
513.2668560196339
 20
640.145980742444
 30
0.0
 11
513.2668560196339
 21
640.145980742444
 31
0.0
  0
LINE
  5
691
330
1B
100
AcDbEntity
  8
4
100
AcDbLine
 10
557.289663404737
 20
652.645980742444
 30
0.0
 11
558.2932943017981
 21
651.6423498453828
 31
0.0
  0
LINE
  5
692
330
1B
100
AcDbEntity
  8
4
100
AcDbLine
 10
557.2932943017981
 20
652.6423498453828
 30
0.0
 11
557.2932943017981
 21
643.645980742444
 31
0.0
  0
LINE
  5
693
330
1B
100
AcDbEntity
  8
4
100
AcDbLine
 10
508.2668560196339
 20
655.145980742444
 30
0.0
 11
500.2932943017981
 21
655.145980742444
 31
0.0
  0
LINE
  5
694
330
1B
100
AcDbEntity
  8
4
100
AcDbLine
 10
508.2668560196339
 20
625.145980742444
 30
0.0
 11
500.2932943017981
 21
625.145980742444
 31
0.0
  0
LINE
  5
695
330
1B
100
AcDbEntity
  8
4
100
AcDbLine
 10
152.2932943017981
 20
609.1459817424441
 30
0.0
 11
152.2932943017981
 21
671.1459797424441
 31
0.0
  0
LINE
  5
696
330
1B
100
AcDbEntity
  8
4
100
AcDbLine
 10
152.2932943017981
 20
609.1459817424441
 30
0.0
 11
153.2932933017983
 21
609.1459817424441
 31
0.0
  0
LINE
  5
697
330
1B
100
AcDbEntity
  8
4
100
AcDbLine
 10
152.2932943017981
 20
671.1459797424441
 30
0.0
 11
153.2932933017983
 21
671.1459797424441
 31
0.0
  0
LINE
  5
698
330
1B
100
AcDbEntity
  8
4
100
AcDbLine
 10
500.2932943017981
 20
609.1459817424441
 30
0.0
 11
500.2932943017981
 21
671.1459797424441
 31
0.0
  0
LINE
  5
699
330
1B
100
AcDbEntity
  8
4
100
AcDbLine
 10
500.2932943017981
 20
609.1459817424441
 30
0.0
 11
499.293295301798
 21
609.1459817424441
 31
0.0
  0
LINE
  5
69A
330
1B
100
AcDbEntity
  8
4
100
AcDbLine
 10
500.2932943017981
 20
671.1459797424441
 30
0.0
 11
499.293295301798
 21
671.1459797424441
 31
0.0
  0
LINE
  5
69B
330
1B
100
AcDbEntity
  8
4
100
AcDbLine
 10
290.7572538316381
 20
755.1459807424442
 30
0.0
 11
290.7572538316381
 21
840.1459807424442
 31
0.0
  0
LINE
  5
69C
330
1B
100
AcDbEntity
  8
4
100
AcDbLine
 10
280.7572538316381
 20
755.1459807424442
 30
0.0
 11
280.7572538316381
 21
840.1459807424442
 31
0.0
  0
LINE
  5
69D
330
1B
100
AcDbEntity
  8
4
100
AcDbLine
 10
304.7572538316381
 20
746.1459807424442
 30
0.0
 11
304.7572538316381
 21
839.1459807424442
 31
0.0
  0
LINE
  5
69E
330
1B
100
AcDbEntity
  8
4
100
AcDbLine
 10
266.7572538316385
 20
746.1459807424442
 30
0.0
 11
266.7572538316381
 21
839.1459807424442
 31
0.0
  0
LINE
  5
69F
330
1B
100
AcDbEntity
  8
4
100
AcDbLine
 10
265.7572538316385
 20
745.1459807424442
 30
0.0
 11
305.7572538316381
 21
745.1459807424442
 31
0.0
  0
LINE
  5
6A0
330
1B
100
AcDbEntity
  8
4
100
AcDbLine
 10
285.7572538316381
 20
750.1459807424442
 30
0.0
 11
285.7572538316381
 21
750.1459807424442
 31
0.0
  0
ARC
  5
6A1
330
1B
100
AcDbEntity
  8
4
100
AcDbCircle
 10
305.7572538316381
 20
746.1459807424442
 30
0.0
 40
1.0
100
AcDbArc
 50
180.0
 51
270.0
  0
ARC
  5
6A2
330
1B
100
AcDbEntity
  8
4
100
AcDbCircle
 10
285.7572538316381
 20
755.1459807424442
 30
0.0
 40
5.0
100
AcDbArc
 50
270.0
 51
0.0
  0
ARC
  5
6A3
330
1B
100
AcDbEntity
  8
4
100
AcDbCircle
 10
285.7572538316381
 20
755.1459807424442
 30
0.0
 40
5.0
100
AcDbArc
 50
180.0
 51
270.0
  0
ARC
  5
6A4
330
1B
100
AcDbEntity
  8
4
100
AcDbCircle
 10
265.7572538316385
 20
746.1459807424442
 30
0.0
 40
1.0
100
AcDbArc
 50
270.0
 51
0.0
  0
LINE
  5
6A5
330
1B
100
AcDbEntity
  8
4
100
AcDbLine
 10
266.7572538316381
 20
839.1459807424442
 30
0.0
 11
267.7572538316381
 21
840.1459807424442
 31
0.0
  0
LINE
  5
6A6
330
1B
100
AcDbEntity
  8
4
100
AcDbLine
 10
266.7572538316381
 20
839.1459807424442
 30
0.0
 11
280.7572538316381
 21
839.1459807424442
 31
0.0
  0
LINE
  5
6A7
330
1B
100
AcDbEntity
  8
4
100
AcDbLine
 10
303.7572538316381
 20
840.1459807424442
 30
0.0
 11
304.7572538316381
 21
839.1459807424442
 31
0.0
  0
LINE
  5
6A8
330
1B
100
AcDbEntity
  8
4
100
AcDbLine
 10
290.7572538316381
 20
839.1459807424442
 30
0.0
 11
304.7572538316381
 21
839.1459807424442
 31
0.0
  0
LINE
  5
6A9
330
1B
100
AcDbEntity
  8
4
100
AcDbLine
 10
267.7572538316381
 20
840.1459807424442
 30
0.0
 11
303.7572538316381
 21
840.1459807424442
 31
0.0
  0
LINE
  5
6AA
330
1B
100
AcDbEntity
  8
4
100
AcDbLine
 10
265.7572538316381
 20
733.1459807424449
 30
0.0
 11
265.7572538316385
 21
745.1459807424442
 31
0.0
  0
LINE
  5
6AB
330
1B
100
AcDbEntity
  8
4
100
AcDbLine
 10
305.7572538316381
 20
733.1459807424446
 30
0.0
 11
305.7572538316381
 21
745.1459807424442
 31
0.0
  0
LINE
  5
6AC
330
1B
100
AcDbEntity
  8
L-CENTER
100
AcDbLine
 10
397.2932943017981
 20
732.1459807424444
 30
0.0
 11
397.2932943017981
 21
697.810819127573
 31
0.0
  0
LINE
  5
6AD
330
1B
100
AcDbEntity
  8
L-CENTER
100
AcDbLine
 10
468.2932943017981
 20
732.1459807424444
 30
0.0
 11
468.2932943017981
 21
697.810819127573
 31
0.0
  0
ARC
  5
6AE
330
1B
100
AcDbEntity
  8
4
100
AcDbCircle
 10
326.2932943017981
 20
-973.72156570477
 30
0.0
 40
1701.5
100
AcDbArc
 50
87.82752662958346
 51
92.17247337041657
  0
ARC
  5
6AF
330
1B
100
AcDbEntity
  8
4
100
AcDbCircle
 10
326.2932943017981
 20
-973.72156570477
 30
0.0
 40
1701.5
100
AcDbArc
 50
92.61061399692805
 51
94.41822458716683
  0
LINE
  5
6B0
330
1B
100
AcDbEntity
  8
4
100
AcDbLine
 10
310.2932943017981
 20
640.145980742444
 30
0.0
 11
342.2932943017981
 21
640.145980742444
 31
0.0
  0
ARC
  5
6B1
330
1B
100
AcDbEntity
  8
4
100
AcDbCircle
 10
310.2932943017981
 20
643.145980742444
 30
0.0
 40
3.0
100
AcDbArc
 50
180.0
 51
270.0
  0
LINE
  5
6B2
330
1B
100
AcDbEntity
  8
4
100
AcDbLine
 10
307.2932943017981
 20
643.145980742444
 30
0.0
 11
307.2932943017981
 21
674.645980742444
 31
0.0
  0
ARC
  5
6B3
330
1B
100
AcDbEntity
  8
4
100
AcDbCircle
 10
310.2932943017981
 20
674.645980742444
 30
0.0
 40
3.0
100
AcDbArc
 50
90.0
 51
180.0
  0
LINE
  5
6B4
330
1B
100
AcDbEntity
  8
4
100
AcDbLine
 10
310.2932943017981
 20
677.645980742444
 30
0.0
 11
342.2932943017981
 21
677.645980742444
 31
0.0
  0
LINE
  5
6B5
330
1B
100
AcDbEntity
  8
4
100
AcDbLine
 10
345.2932943017981
 20
643.145980742444
 30
0.0
 11
345.2932943017981
 21
674.645980742444
 31
0.0
  0
ARC
  5
6B6
330
1B
100
AcDbEntity
  8
4
100
AcDbCircle
 10
342.2932943017981
 20
674.645980742444
 30
0.0
 40
3.0
100
AcDbArc
 50
0.0
 51
90.0
  0
ARC
  5
6B7
330
1B
100
AcDbEntity
  8
4
100
AcDbCircle
 10
342.2932943017981
 20
643.145980742444
 30
0.0
 40
3.0
100
AcDbArc
 50
270.0
 51
0.0
  0
CIRCLE
  5
6B8
330
1B
100
AcDbEntity
  8
4
100
AcDbCircle
 10
326.2932943017981
 20
658.645980742444
 30
0.0
 40
12.5
  0
LWPOLYLINE
  5
6B9
330
1B
100
AcDbEntity
  8
4
100
AcDbPolyline
 90
        6
 70
     1
 43
0.0
 10
338.7932943017981
 20
658.6459807424437
 10
332.5432943017981
 20
669.4712982897495
 10
320.0432943017981
 20
669.4712982897495
 10
313.7932943017981
 20
658.6459807424442
 10
320.0432943017981
 20
647.8206631951384
 10
332.5432943017981
 20
647.8206631951384
  0
LINE
  5
6BA
330
1B
100
AcDbEntity
  8
4
100
AcDbLine
 10
342.2932943017981
 20
588.4459807424441
 30
0.0
 11
342.2932943017981
 21
589.5887565929684
 31
0.0
  0
LINE
  5
6BB
330
1B
100
AcDbEntity
  8
4
100
AcDbLine
 10
313.3029132450315
 20
579.9459807424441
 30
0.0
 11
339.2836753585648
 21
579.9459807424441
 31
0.0
  0
LINE
  5
6BC
330
1B
100
AcDbEntity
  8
4
100
AcDbLine
 10
335.4306389076951
 20
588.4459807424441
 30
0.0
 11
342.2932943017981
 21
588.4459807424441
 31
0.0
  0
LINE
  5
6BD
330
1B
100
AcDbEntity
  8
4
100
AcDbLine
 10
325.7572538316376
 20
584.9459807424441
 30
0.0
 11
341.2932943017981
 21
584.9459807424441
 31
0.0
  0
LINE
  5
6BE
330
1B
100
AcDbEntity
  8
4
100
AcDbLine
 10
334.7832259927177
 20
586.9459807424439
 30
0.0
 11
341.2932943017981
 21
586.9459807424441
 31
0.0
  0
LINE
  5
6BF
330
1B
100
AcDbEntity
  8
4
100
AcDbLine
 10
341.2932943017981
 20
584.9459807424441
 30
0.0
 11
341.2932943017981
 21
586.9459807424441
 31
0.0
  0
LINE
  5
6C0
330
1B
100
AcDbEntity
  8
4
100
AcDbLine
 10
340.2932943017981
 20
586.9459807424441
 30
0.0
 11
340.2932943017981
 21
588.4459807424441
 31
0.0
  0
LINE
  5
6C1
330
1B
100
AcDbEntity
  8
4
100
AcDbLine
 10
339.2836753585648
 20
579.9459807424441
 30
0.0
 11
339.2836753585648
 21
584.9459807424441
 31
0.0
  0
LINE
  5
6C2
330
1B
100
AcDbEntity
  8
4
100
AcDbLine
 10
313.3029132450315
 20
579.9459807424441
 30
0.0
 11
313.3029132450315
 21
584.145980742444
 31
0.0
  0
LINE
  5
6C3
330
1B
100
AcDbEntity
  8
4
100
AcDbLine
 10
922.9103667826848
 20
326.8331159560062
 30
0.0
 11
922.9103667826848
 21
341.3331159560062
 31
0.0
  0
LINE
  5
6C4
330
1B
100
AcDbEntity
  8
4
100
AcDbLine
 10
922.9103667826848
 20
341.3331159560062
 30
0.0
 11
920.9103667826848
 21
341.3331159560062
 31
0.0
  0
LINE
  5
6C5
330
1B
100
AcDbEntity
  8
4
100
AcDbLine
 10
922.9103667826848
 20
326.8331159560062
 30
0.0
 11
920.9103667826848
 21
326.8331159560064
 31
0.0
  0
LINE
  5
6C6
330
1B
100
AcDbEntity
  8
4
100
AcDbLine
 10
930.9103667826848
 20
327.5831159560062
 30
0.0
 11
930.9103667826848
 21
340.5831159560062
 31
0.0
  0
LINE
  5
6C7
330
1B
100
AcDbEntity
  8
4
100
AcDbLine
 10
930.9103667826848
 20
340.5831159560062
 30
0.0
 11
922.9103667826848
 21
340.5831159560062
 31
0.0
  0
LINE
  5
6C8
330
1B
100
AcDbEntity
  8
4
100
AcDbLine
 10
930.9103667826848
 20
327.5831159560062
 30
0.0
 11
922.9103667826848
 21
327.5831159560062
 31
0.0
  0
LINE
  5
6C9
330
1B
100
AcDbEntity
  8
4
100
AcDbLine
 10
932.9103647826851
 20
204.6075299560061
 30
0.0
 11
924.9103647826846
 21
204.6075299560061
 31
0.0
  0
LINE
  5
6CA
330
1B
100
AcDbEntity
  8
4
100
AcDbLine
 10
932.9103647826851
 20
217.6075299560061
 30
0.0
 11
924.9103647826846
 21
217.6075299560064
 31
0.0
  0
LINE
  5
6CB
330
1B
100
AcDbEntity
  8
4
100
AcDbLine
 10
924.9103647826846
 20
203.8575299560064
 30
0.0
 11
922.9103647826851
 21
203.8575299560066
 31
0.0
  0
LINE
  5
6CC
330
1B
100
AcDbEntity
  8
4
100
AcDbLine
 10
924.9103647826851
 20
218.3575299560061
 30
0.0
 11
922.9103647826851
 21
218.3575299560061
 31
0.0
  0
LINE
  5
6CD
330
1B
100
AcDbEntity
  8
4
100
AcDbLine
 10
924.9103647826846
 20
203.8575299560064
 30
0.0
 11
924.9103647826851
 21
218.3575299560061
 31
0.0
  0
LINE
  5
6CE
330
1B
100
AcDbEntity
  8
4
100
AcDbLine
 10
932.9103647826851
 20
204.6075299560061
 30
0.0
 11
932.9103647826851
 21
217.6075299560061
 31
0.0
  0
LINE
  5
6CF
330
1B
100
AcDbEntity
  8
4
100
AcDbLine
 10
920.9103667826848
 20
343.1075299560061
 30
0.0
 11
922.9103647826851
 21
343.1075299560061
 31
0.0
  0
LINE
  5
6D0
330
1B
100
AcDbEntity
  8
4
100
AcDbLine
 10
930.9103667826848
 20
94.63194395600635
 30
0.0
 11
922.9103667826848
 21
94.63194395600635
 31
0.0
  0
LINE
  5
6D1
330
1B
100
AcDbEntity
  8
4
100
AcDbLine
 10
930.9103667826848
 20
81.63194395600635
 30
0.0
 11
922.9103667826848
 21
81.63194395600624
 31
0.0
  0
LINE
  5
6D2
330
1B
100
AcDbEntity
  8
4
100
AcDbLine
 10
922.9103667826848
 20
95.38194395600624
 30
0.0
 11
920.9103667826848
 21
95.38194395600613
 31
0.0
  0
LINE
  5
6D3
330
1B
100
AcDbEntity
  8
4
100
AcDbLine
 10
922.9103667826848
 20
80.88194395600635
 30
0.0
 11
920.9103667826848
 21
80.88194395600647
 31
0.0
  0
LINE
  5
6D4
330
1B
100
AcDbEntity
  8
4
100
AcDbLine
 10
922.9103667826848
 20
95.38194395600624
 30
0.0
 11
922.9103667826848
 21
80.88194395600635
 31
0.0
  0
LINE
  5
6D5
330
1B
100
AcDbEntity
  8
4
100
AcDbLine
 10
930.9103667826848
 20
94.63194395600635
 30
0.0
 11
930.9103667826848
 21
81.63194395600635
 31
0.0
  0
LINE
  5
6D6
330
1B
100
AcDbEntity
  8
4
100
AcDbLine
 10
390.7932943017981
 20
729.1459807424442
 30
0.0
 11
390.7932943017981
 21
721.1459807424442
 31
0.0
  0
LINE
  5
6D7
330
1B
100
AcDbEntity
  8
4
100
AcDbLine
 10
403.7932943017981
 20
729.1459807424442
 30
0.0
 11
403.7932943017981
 21
721.145980742444
 31
0.0
  0
LINE
  5
6D8
330
1B
100
AcDbEntity
  8
4
100
AcDbLine
 10
404.5432943017981
 20
721.1459807424442
 30
0.0
 11
390.0432943017981
 21
721.1459807424442
 31
0.0
  0
LINE
  5
6D9
330
1B
100
AcDbEntity
  8
4
100
AcDbLine
 10
404.5432943017981
 20
721.1459807424442
 30
0.0
 11
404.5432943017977
 21
719.1459807424442
 31
0.0
  0
LINE
  5
6DA
330
1B
100
AcDbEntity
  8
4
100
AcDbLine
 10
390.0432943017981
 20
721.1459807424442
 30
0.0
 11
390.0432943017981
 21
719.1459807424442
 31
0.0
  0
LINE
  5
6DB
330
1B
100
AcDbEntity
  8
4
100
AcDbLine
 10
403.7932943017981
 20
729.1459807424442
 30
0.0
 11
390.7932943017981
 21
729.1459807424442
 31
0.0
  0
LINE
  5
6DC
330
1B
100
AcDbEntity
  8
4
100
AcDbLine
 10
474.7932943017981
 20
729.1459807424442
 30
0.0
 11
461.7932943017981
 21
729.1459807424442
 31
0.0
  0
LINE
  5
6DD
330
1B
100
AcDbEntity
  8
4
100
AcDbLine
 10
475.5432943017981
 20
721.1459807424442
 30
0.0
 11
461.0432943017981
 21
721.1459807424442
 31
0.0
  0
LINE
  5
6DE
330
1B
100
AcDbEntity
  8
4
100
AcDbLine
 10
461.0432943017981
 20
721.1459807424442
 30
0.0
 11
461.0432943017981
 21
719.1459807424442
 31
0.0
  0
LINE
  5
6DF
330
1B
100
AcDbEntity
  8
4
100
AcDbLine
 10
461.7932943017981
 20
729.1459807424442
 30
0.0
 11
461.7932943017981
 21
721.1459807424442
 31
0.0
  0
LINE
  5
6E0
330
1B
100
AcDbEntity
  8
4
100
AcDbLine
 10
475.5432943017981
 20
721.1459807424442
 30
0.0
 11
475.5432943017981
 21
719.1459807424442
 31
0.0
  0
LINE
  5
6E1
330
1B
100
AcDbEntity
  8
4
100
AcDbLine
 10
474.7932943017981
 20
729.1459807424442
 30
0.0
 11
474.7932943017981
 21
721.145980742444
 31
0.0
  0
LINE
  5
6E2
330
1B
100
AcDbEntity
  8
4
100
AcDbLine
 10
248.7932943017981
 20
729.1459807424442
 30
0.0
 11
261.7932943017981
 21
729.1459807424442
 31
0.0
  0
LINE
  5
6E3
330
1B
100
AcDbEntity
  8
4
100
AcDbLine
 10
248.0432943017981
 20
721.1459807424442
 30
0.0
 11
262.5432943017981
 21
721.1459807424442
 31
0.0
  0
LINE
  5
6E4
330
1B
100
AcDbEntity
  8
4
100
AcDbLine
 10
262.5432943017981
 20
721.1459807424442
 30
0.0
 11
262.5432943017981
 21
719.1459807424442
 31
0.0
  0
LINE
  5
6E5
330
1B
100
AcDbEntity
  8
4
100
AcDbLine
 10
261.7932943017981
 20
729.1459807424442
 30
0.0
 11
261.7932943017981
 21
721.1459807424442
 31
0.0
  0
LINE
  5
6E6
330
1B
100
AcDbEntity
  8
4
100
AcDbLine
 10
248.0432943017981
 20
721.1459807424442
 30
0.0
 11
248.0432943017986
 21
719.1459807424442
 31
0.0
  0
LINE
  5
6E7
330
1B
100
AcDbEntity
  8
4
100
AcDbLine
 10
248.7932943017981
 20
729.1459807424442
 30
0.0
 11
248.7932943017981
 21
721.145980742444
 31
0.0
  0
LINE
  5
6E8
330
1B
100
AcDbEntity
  8
L-CENTER
100
AcDbLine
 10
255.2932943017981
 20
732.1459807424444
 30
0.0
 11
255.2932943017981
 21
697.810819127573
 31
0.0
  0
LINE
  5
6E9
330
1B
100
AcDbEntity
  8
4
100
AcDbLine
 10
177.0432943017981
 20
721.1459807424442
 30
0.0
 11
191.5432943017981
 21
721.1459807424442
 31
0.0
  0
LINE
  5
6EA
330
1B
100
AcDbEntity
  8
4
100
AcDbLine
 10
177.7932943017981
 20
729.1459807424442
 30
0.0
 11
190.7932943017981
 21
729.1459807424442
 31
0.0
  0
LINE
  5
6EB
330
1B
100
AcDbEntity
  8
4
100
AcDbLine
 10
190.7932943017981
 20
729.1459807424442
 30
0.0
 11
190.7932943017981
 21
721.1459807424442
 31
0.0
  0
LINE
  5
6EC
330
1B
100
AcDbEntity
  8
4
100
AcDbLine
 10
191.5432943017981
 20
721.1459807424442
 30
0.0
 11
191.5432943017981
 21
719.1459807424442
 31
0.0
  0
LINE
  5
6ED
330
1B
100
AcDbEntity
  8
4
100
AcDbLine
 10
177.7932943017981
 20
729.1459807424442
 30
0.0
 11
177.7932943017981
 21
721.145980742444
 31
0.0
  0
LINE
  5
6EE
330
1B
100
AcDbEntity
  8
4
100
AcDbLine
 10
177.0432943017981
 20
721.1459807424442
 30
0.0
 11
177.0432943017981
 21
719.1459807424442
 31
0.0
  0
LINE
  5
6EF
330
1B
100
AcDbEntity
  8
L-CENTER
100
AcDbLine
 10
184.2932943017981
 20
732.1459807424444
 30
0.0
 11
184.2932943017981
 21
697.810819127573
 31
0.0
  0
ARC
  5
6F0
330
1B
100
AcDbEntity
  8
4
100
AcDbCircle
 10
2045.141611341878
 20
211.0753039560063
 30
0.0
 40
700.0000410000001
100
AcDbArc
 50
168.905642
 51
179.9973620001074
  0
ARC
  5
6F1
330
1B
100
AcDbEntity
  8
4
100
AcDbCircle
 10
971.1416113418777
 20
211.0753039560063
 30
0.0
 40
699.99999
100
AcDbArc
 50
0.0023379998549896
 51
11.09395299999994
  0
LINE
  5
6F2
330
1B
100
AcDbEntity
  8
L-CENTER
100
AcDbLine
 10
1508.141611341878
 20
378.5022679560061
 30
0.0
 11
1508.141611341878
 21
51.2154949560063
 31
0.0
  0
LINE
  5
6F3
330
1B
100
AcDbEntity
  8
4
100
AcDbLine
 10
1671.141610341878
 20
100.8025999560062
 30
0.0
 11
1609.792003341878
 21
100.8025999560062
 31
0.0
  0
LINE
  5
6F4
330
1B
100
AcDbEntity
  8
4
100
AcDbLine
 10
1594.141612341878
 20
77.10753195600626
 30
0.0
 11
1668.141610341878
 21
77.10753195600626
 31
0.0
  0
LINE
  5
6F5
330
1B
100
AcDbEntity
  8
L-CENTER
100
AcDbLine
 10
1340.746873341878
 20
211.1075299560061
 30
0.0
 11
1675.536349341878
 21
211.1075299560061
 31
0.0
  0
LINE
  5
6F6
330
1B
100
AcDbEntity
  8
L-CENTER
100
AcDbLine
 10
1270.302010341878
 20
132.1075309560063
 30
0.0
 11
1686.047691409532
 21
132.1075309560063
 31
0.0
  0
LINE
  5
6F7
330
1B
100
AcDbEntity
  8
4
100
AcDbLine
 10
1671.141610341878
 20
52.10752995600626
 30
0.0
 11
1591.141612341878
 21
52.10752995600626
 31
0.0
  0
LINE
  5
6F8
330
1B
100
AcDbEntity
  8
4
100
AcDbLine
 10
1681.141612341878
 20
174.1075309560063
 30
0.0
 11
1681.141612341878
 21
90.10753095600626
 31
0.0
  0
LINE
  5
6F9
330
1B
100
AcDbEntity
  8
4
100
AcDbLine
 10
1682.141611341878
 20
101.1075319560063
 30
0.0
 11
1682.141611341878
 21
163.1075299560061
 31
0.0
  0
LINE
  5
6FA
330
1B
100
AcDbEntity
  8
4
100
AcDbLine
 10
1682.141611341878
 20
101.1075319560063
 30
0.0
 11
1681.141612341878
 21
101.1075319560063
 31
0.0
  0
LINE
  5
6FB
330
1B
100
AcDbEntity
  8
L-CENTER
100
AcDbLine
 10
1645.641610341878
 20
89.10753195600626
 30
0.0
 11
1645.641610341878
 21
40.10752995600626
 31
0.0
  0
LINE
  5
6FC
330
1B
100
AcDbEntity
  8
4
100
AcDbLine
 10
1671.141610341878
 20
52.10752995600626
 30
0.0
 11
1671.141610341878
 21
100.8025999560062
 31
0.0
  0
ARC
  5
6FD
330
1B
100
AcDbEntity
  8
4
100
AcDbCircle
 10
1668.141610341878
 20
74.10753195600626
 30
0.0
 40
3.0
100
AcDbArc
 50
0.0
 51
90.0
  0
ARC
  5
6FE
330
1B
100
AcDbEntity
  8
4
100
AcDbCircle
 10
1674.141610341878
 20
87.10753095600626
 30
0.0
 40
3.0
100
AcDbArc
 50
90.0
 51
180.0
  0
LINE
  5
6FF
330
1B
100
AcDbEntity
  8
4
100
AcDbLine
 10
1681.141612341878
 20
90.10753095600626
 30
0.0
 11
1674.141610341878
 21
90.10753095600626
 31
0.0
  0
LINE
  5
700
330
1B
100
AcDbEntity
  8
4
100
AcDbLine
 10
1682.141611341878
 20
163.1075299560061
 30
0.0
 11
1681.141612341878
 21
163.1075299560061
 31
0.0
  0
LINE
  5
701
330
1B
100
AcDbEntity
  8
4
100
AcDbLine
 10
1671.141610341878
 20
163.4124619560062
 30
0.0
 11
1671.141610341878
 21
211.0753039560063
 31
0.0
  0
LINE
  5
702
330
1B
100
AcDbEntity
  8
4
100
AcDbLine
 10
1671.141610341878
 20
163.4124619560062
 30
0.0
 11
1650.356866341878
 21
163.4124619560062
 31
0.0
  0
ARC
  5
703
330
1B
100
AcDbEntity
  8
4
100
AcDbCircle
 10
1674.141610341878
 20
177.1075309560063
 30
0.0
 40
3.0
100
AcDbArc
 50
180.0
 51
270.0
  0
LINE
  5
704
330
1B
100
AcDbEntity
  8
4
100
AcDbLine
 10
1681.141612341878
 20
174.1075309560063
 30
0.0
 11
1674.141610341878
 21
174.1075309560063
 31
0.0
  0
LINE
  5
705
330
1B
100
AcDbEntity
  8
4
100
AcDbLine
 10
1430.141611341878
 20
57.10753095600626
 30
0.0
 11
1586.141611341878
 21
57.10753095600626
 31
0.0
  0
ARC
  5
706
330
1B
100
AcDbEntity
  8
4
100
AcDbCircle
 10
1586.141611341878
 20
52.10752995600626
 30
0.0
 40
5.000000999999999
100
AcDbArc
 50
0.0
 51
90.0
  0
LINE
  5
707
330
1B
100
AcDbEntity
  8
4
100
AcDbLine
 10
1616.141611341878
 20
74.10753195600626
 30
0.0
 11
1616.141611341878
 21
52.10752995600626
 31
0.0
  0
ARC
  5
708
330
1B
100
AcDbEntity
  8
4
100
AcDbCircle
 10
1619.141611341878
 20
74.10753195600626
 30
0.0
 40
3.0
100
AcDbArc
 50
90.0
 51
180.0
  0
LINE
  5
709
330
1B
100
AcDbEntity
  8
4
100
AcDbLine
 10
1591.141612341878
 20
52.10752995600626
 30
0.0
 11
1591.141612341878
 21
74.10753195600626
 31
0.0
  0
ARC
  5
70A
330
1B
100
AcDbEntity
  8
4
100
AcDbCircle
 10
1594.141612341878
 20
74.10753195600626
 30
0.0
 40
3.0
100
AcDbArc
 50
90.0
 51
180.0
  0
LINE
  5
70B
330
1B
100
AcDbEntity
  8
4
100
AcDbLine
 10
1345.141612341878
 20
163.4124619560062
 30
0.0
 11
1365.926278341878
 21
163.4124619560062
 31
0.0
  0
LINE
  5
70C
330
1B
100
AcDbEntity
  8
4
100
AcDbLine
 10
1345.141612341878
 20
100.8025999560062
 30
0.0
 11
1406.491219341878
 21
100.8025999560062
 31
0.0
  0
LINE
  5
70D
330
1B
100
AcDbEntity
  8
4
100
AcDbLine
 10
1422.141610341878
 20
77.10753195600626
 30
0.0
 11
1348.141612341878
 21
77.10753195600626
 31
0.0
  0
LINE
  5
70E
330
1B
100
AcDbEntity
  8
4
100
AcDbLine
 10
1345.141612341878
 20
52.10752995600626
 30
0.0
 11
1425.141610341878
 21
52.10752995600626
 31
0.0
  0
ARC
  5
70F
330
1B
100
AcDbEntity
  8
4
100
AcDbCircle
 10
1430.141611341878
 20
52.10752995600626
 30
0.0
 40
5.000000999999999
100
AcDbArc
 50
90.0
 51
180.0
  0
LINE
  5
710
330
1B
100
AcDbEntity
  8
4
100
AcDbLine
 10
1425.141610341878
 20
52.10752995600626
 30
0.0
 11
1425.141610341878
 21
74.10753195600626
 31
0.0
  0
ARC
  5
711
330
1B
100
AcDbEntity
  8
4
100
AcDbCircle
 10
1422.141610341878
 20
74.10753195600626
 30
0.0
 40
3.0
100
AcDbArc
 50
0.0
 51
90.0
  0
LINE
  5
712
330
1B
100
AcDbEntity
  8
4
100
AcDbLine
 10
1400.141611341878
 20
74.10753195600626
 30
0.0
 11
1400.141611341878
 21
52.10752995600626
 31
0.0
  0
ARC
  5
713
330
1B
100
AcDbEntity
  8
4
100
AcDbCircle
 10
1397.141611341878
 20
74.10753195600626
 30
0.0
 40
3.0
100
AcDbArc
 50
0.0
 51
90.0
  0
LINE
  5
714
330
1B
100
AcDbEntity
  8
L-CENTER
100
AcDbLine
 10
1370.641612341878
 20
89.10753195600626
 30
0.0
 11
1370.641612341878
 21
40.10752995600626
 31
0.0
  0
LINE
  5
715
330
1B
100
AcDbEntity
  8
4
100
AcDbLine
 10
1277.141611341878
 20
144.6075319560064
 30
0.0
 11
1277.141611341878
 21
119.6075299560061
 31
0.0
  0
LINE
  5
716
330
1B
100
AcDbEntity
  8
4
100
AcDbLine
 10
1276.141612341878
 20
147.6075319560064
 30
0.0
 11
1276.141612341878
 21
120.6075319560064
 31
0.0
  0
LINE
  5
717
330
1B
100
AcDbEntity
  8
4
100
AcDbLine
 10
1334.141611341878
 20
101.1075319560063
 30
0.0
 11
1334.141611341878
 21
163.1075299560061
 31
0.0
  0
LINE
  5
718
330
1B
100
AcDbEntity
  8
4
100
AcDbLine
 10
1335.141610341878
 20
90.10753095600626
 30
0.0
 11
1335.141610341878
 21
174.1075309560063
 31
0.0
  0
LINE
  5
719
330
1B
100
AcDbEntity
  8
4
100
AcDbLine
 10
1326.141610341878
 20
147.1075309560063
 30
0.0
 11
1326.141610341878
 21
117.1075309560063
 31
0.0
  0
LINE
  5
71A
330
1B
100
AcDbEntity
  8
4
100
AcDbLine
 10
1326.141610341878
 20
119.6075299560061
 30
0.0
 11
1277.141611341878
 21
119.6075299560061
 31
0.0
  0
LINE
  5
71B
330
1B
100
AcDbEntity
  8
4
100
AcDbLine
 10
1345.141612341878
 20
52.10752995600626
 30
0.0
 11
1345.141612341878
 21
100.8025999560062
 31
0.0
  0
ARC
  5
71C
330
1B
100
AcDbEntity
  8
4
100
AcDbCircle
 10
1348.141612341878
 20
74.10753195600626
 30
0.0
 40
3.0
100
AcDbArc
 50
90.0
 51
180.0
  0
LINE
  5
71D
330
1B
100
AcDbEntity
  8
4
100
AcDbLine
 10
1334.141611341878
 20
101.1075319560063
 30
0.0
 11
1335.141610341878
 21
101.1075319560063
 31
0.0
  0
ARC
  5
71E
330
1B
100
AcDbEntity
  8
4
100
AcDbCircle
 10
1342.141612341878
 20
87.10753095600626
 30
0.0
 40
3.0
100
AcDbArc
 50
0.0
 51
90.0
  0
LINE
  5
71F
330
1B
100
AcDbEntity
  8
4
100
AcDbLine
 10
1335.141610341878
 20
90.10753095600626
 30
0.0
 11
1342.141612341878
 21
90.10753095600626
 31
0.0
  0
LINE
  5
720
330
1B
100
AcDbEntity
  8
4
100
AcDbLine
 10
1334.141611341878
 20
117.1075309560063
 30
0.0
 11
1326.141610341878
 21
117.1075309560063
 31
0.0
  0
LINE
  5
721
330
1B
100
AcDbEntity
  8
4
100
AcDbLine
 10
1277.141611341878
 20
119.6075299560061
 30
0.0
 11
1276.141612341878
 21
120.6075319560064
 31
0.0
  0
LINE
  5
722
330
1B
100
AcDbEntity
  8
4
100
AcDbLine
 10
1326.141610341878
 20
144.6075319560064
 30
0.0
 11
1277.141611341878
 21
144.6075319560064
 31
0.0
  0
LINE
  5
723
330
1B
100
AcDbEntity
  8
4
100
AcDbLine
 10
1276.141612341878
 20
147.6075319560064
 30
0.0
 11
1321.141612341878
 21
147.6075319560064
 31
0.0
  0
LINE
  5
724
330
1B
100
AcDbEntity
  8
4
100
AcDbLine
 10
1345.141612341878
 20
163.4124619560062
 30
0.0
 11
1345.141612341878
 21
211.0753039560063
 31
0.0
  0
LINE
  5
725
330
1B
100
AcDbEntity
  8
4
100
AcDbLine
 10
1334.141611341878
 20
163.1075299560061
 30
0.0
 11
1335.141610341878
 21
163.1075299560061
 31
0.0
  0
ARC
  5
726
330
1B
100
AcDbEntity
  8
4
100
AcDbCircle
 10
1342.141612341878
 20
177.1075309560063
 30
0.0
 40
3.0
100
AcDbArc
 50
270.0
 51
0.0
  0
LINE
  5
727
330
1B
100
AcDbEntity
  8
4
100
AcDbLine
 10
1335.141610341878
 20
174.1075309560063
 30
0.0
 11
1342.141612341878
 21
174.1075309560063
 31
0.0
  0
LINE
  5
728
330
1B
100
AcDbEntity
  8
4
100
AcDbLine
 10
1326.141610341878
 20
147.1075309560063
 30
0.0
 11
1334.141611341878
 21
147.1075309560063
 31
0.0
  0
LINE
  5
729
330
1B
100
AcDbEntity
  8
4
100
AcDbLine
 10
1321.141612341878
 20
147.6075319560064
 30
0.0
 11
1321.141612341878
 21
144.6075319560064
 31
0.0
  0
LINE
  5
72A
330
1B
100
AcDbEntity
  8
4
100
AcDbLine
 10
1276.141612341878
 20
143.6075299560061
 30
0.0
 11
1277.141611341878
 21
144.6075319560064
 31
0.0
  0
ARC
  5
72B
330
1B
100
AcDbEntity
  8
4
100
AcDbCircle
 10
1508.141611341878
 20
-334.8924670439937
 30
0.0
 40
699.9999660000001
100
AcDbArc
 50
77.95659000000003
 51
102.043163
  0
ARC
  5
72C
330
1B
100
AcDbEntity
  8
4
100
AcDbCircle
 10
1653.153193341878
 20
344.8108999560063
 30
0.0
 40
4.999974000000001
100
AcDbArc
 50
11.09471500000177
 51
77.95650499999896
  0
LINE
  5
72D
330
1B
100
AcDbEntity
  8
4
100
AcDbLine
 10
1520.641612341878
 20
373.6075309560063
 30
0.0
 11
1495.641610341878
 21
373.6075309560063
 31
0.0
  0
LINE
  5
72E
330
1B
100
AcDbEntity
  8
4
100
AcDbLine
 10
1520.641612341878
 20
369.6075319560064
 30
0.0
 11
1495.641610341878
 21
369.6075319560064
 31
0.0
  0
LINE
  5
72F
330
1B
100
AcDbEntity
  8
4
100
AcDbLine
 10
1520.641612341878
 20
367.6075309560063
 30
0.0
 11
1495.641610341878
 21
367.6075309560063
 31
0.0
  0
LINE
  5
730
330
1B
100
AcDbEntity
  8
4
100
AcDbLine
 10
1527.141610341878
 20
366.1075309560063
 30
0.0
 11
1489.141612341878
 21
366.1075309560063
 31
0.0
  0
LINE
  5
731
330
1B
100
AcDbEntity
  8
4
100
AcDbLine
 10
1519.641610341878
 20
366.1075309560063
 30
0.0
 11
1519.641610341878
 21
367.6075309560063
 31
0.0
  0
LINE
  5
732
330
1B
100
AcDbEntity
  8
4
100
AcDbLine
 10
1520.641612341878
 20
367.6075309560063
 30
0.0
 11
1520.641612341878
 21
373.6075309560063
 31
0.0
  0
LINE
  5
733
330
1B
100
AcDbEntity
  8
4
100
AcDbLine
 10
1527.141610341878
 20
364.8497179560063
 30
0.0
 11
1527.141610341878
 21
366.1075309560063
 31
0.0
  0
LINE
  5
734
330
1B
100
AcDbEntity
  8
4
100
AcDbLine
 10
1514.391610341878
 20
369.6075319560064
 30
0.0
 11
1514.391610341878
 21
373.6075309560063
 31
0.0
  0
LINE
  5
735
330
1B
100
AcDbEntity
  8
4
100
AcDbLine
 10
1501.891612341878
 20
369.6075319560064
 30
0.0
 11
1501.891612341878
 21
373.6075309560063
 31
0.0
  0
LINE
  5
736
330
1B
100
AcDbEntity
  8
4
100
AcDbLine
 10
1496.641612341878
 20
366.1075309560063
 30
0.0
 11
1496.641612341878
 21
367.6075309560063
 31
0.0
  0
LINE
  5
737
330
1B
100
AcDbEntity
  8
4
100
AcDbLine
 10
1495.641610341878
 20
373.6075309560063
 30
0.0
 11
1495.641610341878
 21
367.6075309560063
 31
0.0
  0
LINE
  5
738
330
1B
100
AcDbEntity
  8
4
100
AcDbLine
 10
1489.141612341878
 20
364.8497179560063
 30
0.0
 11
1489.141612341878
 21
366.1075309560063
 31
0.0
  0
ARC
  5
739
330
1B
100
AcDbEntity
  8
4
100
AcDbCircle
 10
1363.130137341878
 20
344.8108999560063
 30
0.0
 40
4.999965
100
AcDbArc
 50
102.0457140000009
 51
168.9051489999998
  0
CIRCLE
  5
73A
330
1B
100
AcDbEntity
  8
4
100
AcDbCircle
 10
1441.141611341877
 20
232.1075299560064
 30
0.0
 40
39.0
  0
CIRCLE
  5
73B
330
1B
100
AcDbEntity
  8
4
100
AcDbCircle
 10
1441.141611341877
 20
232.1075299560064
 30
0.0
 40
31.0
  0
CIRCLE
  5
73C
330
1B
100
AcDbEntity
  8
4
100
AcDbCircle
 10
1508.141611341877
 20
211.1075299560064
 30
0.0
 40
150.0
  0
CIRCLE
  5
73D
330
1B
100
AcDbEntity
  8
L-CENTER
100
AcDbCircle
 10
1508.141611341877
 20
211.1075299560064
 30
0.0
 40
142.0
  0
ARC
  5
73E
330
1B
100
AcDbEntity
  8
4
100
AcDbCircle
 10
1508.141611341877
 20
-159.8924700439936
 30
0.0
 40
450.0
100
AcDbArc
 50
75.12940953037051
 51
104.8705904696295
  0
ARC
  5
73F
330
1B
100
AcDbEntity
  8
4
100
AcDbCircle
 10
1508.141611341877
 20
604.1075299560066
 30
0.0
 40
450.0
100
AcDbArc
 50
253.724182143563
 51
268.3140398365351
  0
CIRCLE
  5
740
330
1B
100
AcDbEntity
  8
4
100
AcDbCircle
 10
1508.141611341877
 20
211.1075299560064
 30
0.0
 40
132.0
  0
LINE
  5
741
330
1B
100
AcDbEntity
  8
L-CENTER
100
AcDbLine
 10
1487.252208341877
 20
232.1075299560061
 30
0.0
 11
1395.031014341877
 21
232.1075299560061
 31
0.0
  0
LINE
  5
742
330
1B
100
AcDbEntity
  8
L-CENTER
100
AcDbLine
 10
1441.141611341877
 20
278.2181269560062
 30
0.0
 11
1441.141611341877
 21
185.9969329560063
 31
0.0
  0
LINE
  5
743
330
1B
100
AcDbEntity
  8
L-CENTER
100
AcDbLine
 10
1444.641611341877
 20
321.0927562366301
 30
0.0
 11
1429.641611341877
 21
347.0735183501629
 31
0.0
  0
LINE
  5
744
330
1B
100
AcDbEntity
  8
L-CENTER
100
AcDbLine
 10
1444.641611341877
 20
101.1223036753828
 30
0.0
 11
1429.641611341877
 21
75.14154156184952
 31
0.0
  0
LINE
  5
745
330
1B
100
AcDbEntity
  8
L-CENTER
100
AcDbLine
 10
1607.866503576885
 20
222.1075299560061
 30
0.0
 11
1489.7665781879
 21
222.1075299560061
 31
0.0
  0
CIRCLE
  5
746
330
1B
100
AcDbEntity
  8
4
100
AcDbCircle
 10
1548.677651812038
 20
222.1075299560061
 30
0.0
 40
49.0
  0
CIRCLE
  5
747
330
1B
100
AcDbEntity
  8
4
100
AcDbCircle
 10
1548.677651812038
 20
222.1075299560061
 30
0.0
 40
40.0
  0
ARC
  5
748
330
1B
100
AcDbEntity
  8
4
100
AcDbCircle
 10
1508.141611341877
 20
604.1075299560066
 30
0.0
 40
450.0
100
AcDbArc
 50
271.6859601634649
 51
286.2758178564368
  0
LINE
  5
749
330
1B
100
AcDbEntity
  8
L-CENTER
100
AcDbLine
 10
1548.677651812038
 20
279.8225269569791
 30
0.0
 11
1548.677651812038
 21
161.5452891409748
 31
0.0
  0
CIRCLE
  5
74A
330
1B
100
AcDbEntity
  8
4
100
AcDbCircle
 10
1508.141611341877
 20
142.1075299560064
 30
0.0
 40
18.0
  0
LINE
  5
74B
330
1B
100
AcDbEntity
  8
L-CENTER
100
AcDbLine
 10
1571.641611341878
 20
321.0927562366301
 30
0.0
 11
1586.641611341877
 21
347.0735183501629
 31
0.0
  0
LINE
  5
74C
330
1B
100
AcDbEntity
  8
L-CENTER
100
AcDbLine
 10
1571.641611341878
 20
101.1223036753823
 30
0.0
 11
1586.641611341877
 21
75.14154156184952
 31
0.0
  0
CIRCLE
  5
74D
330
1B
100
AcDbEntity
  8
4
100
AcDbCircle
 10
1366.141611341877
 20
211.1075299560061
 30
0.0
 40
7.25
  0
CIRCLE
  5
74E
330
1B
100
AcDbEntity
  8
4
100
AcDbCircle
 10
1366.141611341877
 20
211.1075299560061
 30
0.0
 40
6.5
  0
LINE
  5
74F
330
1B
100
AcDbEntity
  8
2
100
AcDbLine
 10
1362.674437862109
 20
211.1022093303927
 30
0.0
 11
1364.409560534308
 21
214.1075299560061
 31
0.0
  0
LINE
  5
750
330
1B
100
AcDbEntity
  8
2
100
AcDbLine
 10
1367.873662149446
 20
208.1075299560061
 30
0.0
 11
1369.608784821645
 21
211.1128505816196
 31
0.0
  0
LINE
  5
751
330
1B
100
AcDbEntity
  8
2
100
AcDbLine
 10
1364.409560534308
 20
214.1075299560061
 30
0.0
 11
1367.867529297056
 21
214.1075299560064
 31
0.0
  0
LINE
  5
752
330
1B
100
AcDbEntity
  8
2
100
AcDbLine
 10
1364.415693386698
 20
208.1075299560064
 30
0.0
 11
1367.873662149446
 21
208.1075299560061
 31
0.0
  0
LINE
  5
753
330
1B
100
AcDbEntity
  8
2
100
AcDbLine
 10
1367.867529297056
 20
214.1075299560064
 30
0.0
 11
1369.608784821645
 21
211.1128505816196
 31
0.0
  0
LINE
  5
754
330
1B
100
AcDbEntity
  8
2
100
AcDbLine
 10
1362.674437862109
 20
211.1022093303927
 30
0.0
 11
1364.415693386698
 21
208.1075299560064
 31
0.0
  0
CIRCLE
  5
755
330
1B
100
AcDbEntity
  8
4
100
AcDbCircle
 10
1650.141611341878
 20
211.1075299560061
 30
0.0
 40
6.5
  0
CIRCLE
  5
756
330
1B
100
AcDbEntity
  8
4
100
AcDbCircle
 10
1650.141611341878
 20
211.1075299560061
 30
0.0
 40
7.25
  0
LINE
  5
757
330
1B
100
AcDbEntity
  8
2
100
AcDbLine
 10
1648.409560534309
 20
208.1075299560061
 30
0.0
 11
1646.67443786211
 21
211.1128505816196
 31
0.0
  0
LINE
  5
758
330
1B
100
AcDbEntity
  8
2
100
AcDbLine
 10
1648.415693386699
 20
214.1075299560064
 30
0.0
 11
1646.67443786211
 21
211.1128505816196
 31
0.0
  0
LINE
  5
759
330
1B
100
AcDbEntity
  8
2
100
AcDbLine
 10
1653.608784821646
 20
211.1022093303927
 30
0.0
 11
1651.867529297058
 21
208.1075299560064
 31
0.0
  0
LINE
  5
75A
330
1B
100
AcDbEntity
  8
2
100
AcDbLine
 10
1651.867529297058
 20
208.1075299560064
 30
0.0
 11
1648.409560534309
 21
208.1075299560061
 31
0.0
  0
LINE
  5
75B
330
1B
100
AcDbEntity
  8
2
100
AcDbLine
 10
1651.873662149448
 20
214.1075299560061
 30
0.0
 11
1648.415693386699
 21
214.1075299560064
 31
0.0
  0
LINE
  5
75C
330
1B
100
AcDbEntity
  8
2
100
AcDbLine
 10
1653.608784821646
 20
211.1022093303927
 30
0.0
 11
1651.873662149448
 21
214.1075299560061
 31
0.0
  0
CIRCLE
  5
75D
330
1B
100
AcDbEntity
  8
4
100
AcDbCircle
 10
1437.141611341877
 20
88.13192261861616
 30
0.0
 40
6.5
  0
CIRCLE
  5
75E
330
1B
100
AcDbEntity
  8
4
100
AcDbCircle
 10
1437.141611341877
 20
88.13192261861616
 30
0.0
 40
7.25
  0
LINE
  5
75F
330
1B
100
AcDbEntity
  8
2
100
AcDbLine
 10
1438.873662149446
 20
85.13192261861627
 30
0.0
 11
1440.608784821645
 21
88.13724324422958
 31
0.0
  0
LINE
  5
760
330
1B
100
AcDbEntity
  8
2
100
AcDbLine
 10
1438.867529297056
 20
91.13192261861639
 30
0.0
 11
1440.608784821645
 21
88.13724324422958
 31
0.0
  0
LINE
  5
761
330
1B
100
AcDbEntity
  8
2
100
AcDbLine
 10
1433.674437862109
 20
88.12660199300285
 30
0.0
 11
1435.415693386698
 21
85.13192261861639
 31
0.0
  0
LINE
  5
762
330
1B
100
AcDbEntity
  8
2
100
AcDbLine
 10
1435.415693386698
 20
85.13192261861639
 30
0.0
 11
1438.873662149446
 21
85.13192261861627
 31
0.0
  0
LINE
  5
763
330
1B
100
AcDbEntity
  8
2
100
AcDbLine
 10
1435.409560534308
 20
91.13192261861627
 30
0.0
 11
1438.867529297056
 21
91.13192261861639
 31
0.0
  0
LINE
  5
764
330
1B
100
AcDbEntity
  8
2
100
AcDbLine
 10
1433.674437862109
 20
88.12660199300285
 30
0.0
 11
1435.409560534308
 21
91.13192261861627
 31
0.0
  0
CIRCLE
  5
765
330
1B
100
AcDbEntity
  8
4
100
AcDbCircle
 10
1579.141611341879
 20
88.13192261861616
 30
0.0
 40
7.25
  0
CIRCLE
  5
766
330
1B
100
AcDbEntity
  8
4
100
AcDbCircle
 10
1579.141611341879
 20
88.13192261861616
 30
0.0
 40
6.5
  0
LINE
  5
767
330
1B
100
AcDbEntity
  8
2
100
AcDbLine
 10
1580.873662149448
 20
91.13192261861627
 30
0.0
 11
1577.415693386699
 21
91.13192261861639
 31
0.0
  0
LINE
  5
768
330
1B
100
AcDbEntity
  8
2
100
AcDbLine
 10
1580.867529297058
 20
85.13192261861639
 30
0.0
 11
1577.40956053431
 21
85.13192261861627
 31
0.0
  0
LINE
  5
769
330
1B
100
AcDbEntity
  8
2
100
AcDbLine
 10
1582.608784821647
 20
88.12660199300285
 30
0.0
 11
1580.873662149448
 21
91.13192261861627
 31
0.0
  0
LINE
  5
76A
330
1B
100
AcDbEntity
  8
2
100
AcDbLine
 10
1582.608784821647
 20
88.12660199300285
 30
0.0
 11
1580.867529297058
 21
85.13192261861639
 31
0.0
  0
LINE
  5
76B
330
1B
100
AcDbEntity
  8
2
100
AcDbLine
 10
1577.415693386699
 20
91.13192261861639
 30
0.0
 11
1575.674437862111
 21
88.13724324422958
 31
0.0
  0
LINE
  5
76C
330
1B
100
AcDbEntity
  8
2
100
AcDbLine
 10
1577.40956053431
 20
85.13192261861627
 30
0.0
 11
1575.674437862111
 21
88.13724324422958
 31
0.0
  0
CIRCLE
  5
76D
330
1B
100
AcDbEntity
  8
4
100
AcDbCircle
 10
1437.141611341877
 20
334.0831372933962
 30
0.0
 40
7.25
  0
CIRCLE
  5
76E
330
1B
100
AcDbEntity
  8
4
100
AcDbCircle
 10
1437.141611341877
 20
334.0831372933962
 30
0.0
 40
6.5
  0
LINE
  5
76F
330
1B
100
AcDbEntity
  8
2
100
AcDbLine
 10
1435.409560534308
 20
331.0831372933962
 30
0.0
 11
1438.867529297056
 21
331.0831372933962
 31
0.0
  0
LINE
  5
770
330
1B
100
AcDbEntity
  8
2
100
AcDbLine
 10
1435.415693386698
 20
337.0831372933962
 30
0.0
 11
1438.873662149446
 21
337.0831372933962
 31
0.0
  0
LINE
  5
771
330
1B
100
AcDbEntity
  8
2
100
AcDbLine
 10
1433.674437862109
 20
334.0884579190097
 30
0.0
 11
1435.409560534308
 21
331.0831372933962
 31
0.0
  0
LINE
  5
772
330
1B
100
AcDbEntity
  8
2
100
AcDbLine
 10
1433.674437862109
 20
334.0884579190097
 30
0.0
 11
1435.415693386698
 21
337.0831372933962
 31
0.0
  0
LINE
  5
773
330
1B
100
AcDbEntity
  8
2
100
AcDbLine
 10
1438.867529297056
 20
331.0831372933962
 30
0.0
 11
1440.608784821645
 21
334.0778166677828
 31
0.0
  0
LINE
  5
774
330
1B
100
AcDbEntity
  8
2
100
AcDbLine
 10
1438.873662149446
 20
337.0831372933962
 30
0.0
 11
1440.608784821645
 21
334.0778166677828
 31
0.0
  0
CIRCLE
  5
775
330
1B
100
AcDbEntity
  8
4
100
AcDbCircle
 10
1579.141611341879
 20
334.0831372933962
 30
0.0
 40
6.5
  0
CIRCLE
  5
776
330
1B
100
AcDbEntity
  8
4
100
AcDbCircle
 10
1579.141611341879
 20
334.0831372933962
 30
0.0
 40
7.25
  0
LINE
  5
777
330
1B
100
AcDbEntity
  8
2
100
AcDbLine
 10
1577.40956053431
 20
337.0831372933962
 30
0.0
 11
1575.674437862111
 21
334.0778166677828
 31
0.0
  0
LINE
  5
778
330
1B
100
AcDbEntity
  8
2
100
AcDbLine
 10
1577.415693386699
 20
331.0831372933962
 30
0.0
 11
1575.674437862111
 21
334.0778166677828
 31
0.0
  0
LINE
  5
779
330
1B
100
AcDbEntity
  8
2
100
AcDbLine
 10
1582.608784821647
 20
334.0884579190097
 30
0.0
 11
1580.867529297058
 21
337.0831372933962
 31
0.0
  0
LINE
  5
77A
330
1B
100
AcDbEntity
  8
2
100
AcDbLine
 10
1582.608784821647
 20
334.0884579190097
 30
0.0
 11
1580.873662149448
 21
331.0831372933962
 31
0.0
  0
LINE
  5
77B
330
1B
100
AcDbEntity
  8
2
100
AcDbLine
 10
1580.867529297058
 20
337.0831372933962
 30
0.0
 11
1577.40956053431
 21
337.0831372933962
 31
0.0
  0
LINE
  5
77C
330
1B
100
AcDbEntity
  8
2
100
AcDbLine
 10
1580.873662149448
 20
331.0831372933962
 30
0.0
 11
1577.415693386699
 21
331.0831372933962
 31
0.0
  0
LINE
  5
77D
330
1B
100
AcDbEntity
  8
4
100
AcDbLine
 10
1553.677652812038
 20
244.6075299560061
 30
0.0
 11
1543.677653812038
 21
244.6075299560061
 31
0.0
  0
LINE
  5
77E
330
1B
100
AcDbEntity
  8
4
100
AcDbLine
 10
1553.677652812038
 20
236.6075289560063
 30
0.0
 11
1543.677653812038
 21
236.6075289560063
 31
0.0
  0
LINE
  5
77F
330
1B
100
AcDbEntity
  8
4
100
AcDbLine
 10
1543.677653812038
 20
236.6075289560063
 30
0.0
 11
1543.677653812038
 21
244.6075299560061
 31
0.0
  0
LINE
  5
780
330
1B
100
AcDbEntity
  8
4
100
AcDbLine
 10
1553.677652812038
 20
244.6075299560061
 30
0.0
 11
1553.677652812038
 21
236.6075289560063
 31
0.0
  0
ARC
  5
781
330
1B
100
AcDbEntity
  8
4
100
AcDbCircle
 10
1548.677651812038
 20
222.1075299560061
 30
0.0
 40
19.000008
100
AcDbArc
 50
105.2575104584719
 51
74.74249199999916
  0
LINE
  5
782
330
1B
100
AcDbEntity
  8
2
100
AcDbLine
 10
188.793295301798
 20
85.98106695600632
 30
0.0
 11
188.793295301798
 21
85.98106695600632
 31
0.0
  0
CIRCLE
  5
783
330
1B
100
AcDbEntity
  8
2
100
AcDbCircle
 10
326.2932943017981
 20
74.10753195600626
 30
0.0
 40
6.587403
  0
LINE
  5
784
330
1B
100
AcDbEntity
  8
2
100
AcDbLine
 10
330.9979183017981
 20
76.82425995600624
 30
0.0
 11
330.9979183017981
 21
71.39080095600627
 31
0.0
  0
LINE
  5
785
330
1B
100
AcDbEntity
  8
2
100
AcDbLine
 10
321.5886703017982
 20
76.82425995600624
 30
0.0
 11
321.5886703017982
 21
71.39080095600627
 31
0.0
  0
ARC
  5
786
330
1B
100
AcDbEntity
  8
4
100
AcDbCircle
 10
240.2932933017983
 20
74.10753195600626
 30
0.0
 40
3.0
100
AcDbArc
 50
0.0
 51
90.0
  0
LINE
  5
787
330
1B
100
AcDbEntity
  8
4
100
AcDbLine
 10
313.3028173017979
 20
134.6075299560061
 30
0.0
 11
326.2932943017981
 21
127.1075299560061
 31
0.0
  0
CIRCLE
  5
788
330
1B
100
AcDbEntity
  8
4
100
AcDbCircle
 10
326.2932943017981
 20
142.1075299560061
 30
0.0
 40
15.999999
  0
CIRCLE
  5
789
330
1B
100
AcDbEntity
  8
4
100
AcDbCircle
 10
326.2932943017981
 20
142.1075299560061
 30
0.0
 40
15.0
  0
LINE
  5
78A
330
1B
100
AcDbEntity
  8
4
100
AcDbLine
 10
326.2932943017981
 20
127.1075299560061
 30
0.0
 11
339.283528301798
 21
134.6075299560061
 31
0.0
  0
ARC
  5
78B
330
1B
100
AcDbEntity
  8
4
100
AcDbCircle
 10
326.2932943017981
 20
74.10753195600626
 30
0.0
 40
14.000091
100
AcDbArc
 50
23.68532800000034
 51
156.3146719999991
  0
LINE
  5
78C
330
1B
100
AcDbEntity
  8
L-CENTER
100
AcDbLine
 10
348.5381683017981
 20
142.1075299560061
 30
0.0
 11
304.0484203017982
 21
142.1075299560061
 31
0.0
  0
LINE
  5
78D
330
1B
100
AcDbEntity
  8
4
100
AcDbLine
 10
339.283528301798
 20
149.6075299560061
 30
0.0
 11
326.2932943017981
 21
157.1075299560061
 31
0.0
  0
CIRCLE
  5
78E
330
1B
100
AcDbEntity
  8
4
100
AcDbCircle
 10
285.7574053017984
 20
222.1075309560063
 30
0.0
 40
48.999999
  0
CIRCLE
  5
78F
330
1B
100
AcDbEntity
  8
4
100
AcDbCircle
 10
285.7574053017984
 20
222.1075309560063
 30
0.0
 40
39.999999
  0
CIRCLE
  5
790
330
1B
100
AcDbEntity
  8
4
100
AcDbCircle
 10
393.2932933017983
 20
232.1075299560061
 30
0.0
 40
39.0
  0
LINE
  5
791
330
1B
100
AcDbEntity
  8
L-CENTER
100
AcDbLine
 10
285.7574053017984
 20
163.0386829560061
 30
0.0
 11
285.7574053017984
 21
281.1763789560064
 31
0.0
  0
LINE
  5
792
330
1B
100
AcDbEntity
  8
L-CENTER
100
AcDbLine
 10
393.2932933017983
 20
185.9969329560063
 30
0.0
 11
393.2932933017983
 21
278.2181269560062
 31
0.0
  0
LINE
  5
793
330
1B
100
AcDbEntity
  8
4
100
AcDbLine
 10
489.2932933017983
 20
100.8025999560062
 30
0.0
 11
427.9436863017982
 21
100.8025999560062
 31
0.0
  0
LINE
  5
794
330
1B
100
AcDbEntity
  8
4
100
AcDbLine
 10
412.293295301798
 20
77.10753195600626
 30
0.0
 11
486.2932933017983
 21
77.10753195600626
 31
0.0
  0
ARC
  5
795
330
1B
100
AcDbEntity
  8
4
100
AcDbCircle
 10
326.3345533017982
 20
604.1075299560061
 30
0.0
 40
450.0000150000001
100
AcDbArc
 50
271.325114
 51
286.270435
  0
ARC
  5
796
330
1B
100
AcDbEntity
  8
4
100
AcDbCircle
 10
-210.7067056982019
 20
211.0753039560063
 30
0.0
 40
700.0000410000001
100
AcDbArc
 50
0.0026379998925568
 51
11.09435800000004
  0
ARC
  5
797
330
1B
100
AcDbEntity
  8
4
100
AcDbCircle
 10
181.2817123017981
 20
344.8108999560063
 30
0.0
 40
4.999974000000001
100
AcDbArc
 50
102.0434950000014
 51
168.9052849999981
  0
ARC
  5
798
330
1B
100
AcDbEntity
  8
4
100
AcDbCircle
 10
160.293295301798
 20
177.1075309560063
 30
0.0
 40
3.0
100
AcDbArc
 50
270.0
 51
0.0
  0
LINE
  5
799
330
1B
100
AcDbEntity
  8
4
100
AcDbLine
 10
153.2932933017983
 20
174.1075309560063
 30
0.0
 11
160.293295301798
 21
174.1075309560063
 31
0.0
  0
LINE
  5
79A
330
1B
100
AcDbEntity
  8
4
100
AcDbLine
 10
152.2932943017981
 20
163.1075299560061
 30
0.0
 11
153.2932933017983
 21
163.1075299560061
 31
0.0
  0
LINE
  5
79B
330
1B
100
AcDbEntity
  8
4
100
AcDbLine
 10
163.293295301798
 20
163.4124619560062
 30
0.0
 11
184.0780393017981
 21
163.4124619560062
 31
0.0
  0
ARC
  5
79C
330
1B
100
AcDbEntity
  8
4
100
AcDbCircle
 10
215.2932943017981
 20
74.10753195600626
 30
0.0
 40
3.0
100
AcDbArc
 50
0.0
 51
90.0
  0
LINE
  5
79D
330
1B
100
AcDbEntity
  8
4
100
AcDbLine
 10
152.2932943017981
 20
101.1075319560063
 30
0.0
 11
153.2932933017983
 21
101.1075319560063
 31
0.0
  0
ARC
  5
79E
330
1B
100
AcDbEntity
  8
4
100
AcDbCircle
 10
160.293295301798
 20
87.10753095600626
 30
0.0
 40
3.0
100
AcDbArc
 50
0.0
 51
90.0
  0
LINE
  5
79F
330
1B
100
AcDbEntity
  8
4
100
AcDbLine
 10
153.2932933017983
 20
90.10753095600626
 30
0.0
 11
160.293295301798
 21
90.10753095600626
 31
0.0
  0
ARC
  5
7A0
330
1B
100
AcDbEntity
  8
4
100
AcDbCircle
 10
166.293295301798
 20
74.10753195600626
 30
0.0
 40
3.0
100
AcDbArc
 50
90.0
 51
180.0
  0
LINE
  5
7A1
330
1B
100
AcDbEntity
  8
4
100
AcDbLine
 10
163.293295301798
 20
100.8025999560062
 30
0.0
 11
224.6429023017981
 21
100.8025999560062
 31
0.0
  0
LINE
  5
7A2
330
1B
100
AcDbEntity
  8
4
100
AcDbLine
 10
153.2932933017983
 20
174.1075309560063
 30
0.0
 11
153.2932933017983
 21
90.10753095600626
 31
0.0
  0
LINE
  5
7A3
330
1B
100
AcDbEntity
  8
4
100
AcDbLine
 10
152.2932943017981
 20
101.1075319560063
 30
0.0
 11
152.2932943017981
 21
163.1075299560061
 31
0.0
  0
LINE
  5
7A4
330
1B
100
AcDbEntity
  8
4
100
AcDbLine
 10
163.293295301798
 20
163.4124619560062
 30
0.0
 11
163.293295301798
 21
211.0753039560063
 31
0.0
  0
ARC
  5
7A5
330
1B
100
AcDbEntity
  8
4
100
AcDbCircle
 10
863.2932943017981
 20
211.0753039560063
 30
0.0
 40
699.99999
100
AcDbArc
 50
168.9060470000001
 51
179.997662000145
  0
ARC
  5
7A6
330
1B
100
AcDbEntity
  8
4
100
AcDbCircle
 10
326.2932943017981
 20
211.1075299560061
 30
0.0
 40
150.000033
100
AcDbArc
 50
272.077521
 51
267.9236009999999
  0
ARC
  5
7A7
330
1B
100
AcDbEntity
  8
4
100
AcDbCircle
 10
326.2932943017981
 20
211.1075299560061
 30
0.0
 40
131.999979
100
AcDbArc
 50
275.5744099999999
 51
264.4266549999999
  0
LINE
  5
7A8
330
1B
100
AcDbEntity
  8
4
100
AcDbLine
 10
240.2932933017983
 20
77.10753195600626
 30
0.0
 11
166.293295301798
 21
77.10753195600626
 31
0.0
  0
LINE
  5
7A9
330
1B
100
AcDbEntity
  8
L-CENTER
100
AcDbLine
 10
344.8262533017983
 20
222.1075309560063
 30
0.0
 11
226.688557301798
 21
222.1075309560063
 31
0.0
  0
ARC
  5
7AA
330
1B
100
AcDbEntity
  8
4
100
AcDbCircle
 10
326.2932943017981
 20
-159.8924680439937
 30
0.0
 40
449.9999789999999
100
AcDbArc
 50
75.12940000000002
 51
104.870667
  0
ARC
  5
7AB
330
1B
100
AcDbEntity
  8
4
100
AcDbCircle
 10
326.3345533017982
 20
604.1075299560061
 30
0.0
 40
450.000003
100
AcDbArc
 50
253.718472
 51
268.6656509999999
  0
LINE
  5
7AC
330
1B
100
AcDbEntity
  8
L-CENTER
100
AcDbLine
 10
493.6880323017981
 20
211.1075299560061
 30
0.0
 11
158.8985563017982
 21
211.1075299560061
 31
0.0
  0
ARC
  5
7AD
330
1B
100
AcDbEntity
  8
4
100
AcDbCircle
 10
326.2932943017981
 20
-334.8924670439937
 30
0.0
 40
699.9999660000001
100
AcDbArc
 50
77.956837
 51
102.04341
  0
LINE
  5
7AE
330
1B
100
AcDbEntity
  8
L-CENTER
100
AcDbLine
 10
564.1328953017983
 20
132.1075309560063
 30
0.0
 11
148.3872142341443
 21
132.1075309560063
 31
0.0
  0
ARC
  5
7AF
330
1B
100
AcDbEntity
  8
4
100
AcDbCircle
 10
404.2932943017981
 20
52.10752995600626
 30
0.0
 40
5.000000999999999
100
AcDbArc
 50
0.0
 51
90.0
  0
ARC
  5
7B0
330
1B
100
AcDbEntity
  8
4
100
AcDbCircle
 10
248.2932943017981
 20
52.10752995600626
 30
0.0
 40
5.000000999999999
100
AcDbArc
 50
90.0
 51
180.0
  0
LINE
  5
7B1
330
1B
100
AcDbEntity
  8
4
100
AcDbLine
 10
404.2932943017981
 20
57.10753095600626
 30
0.0
 11
248.2932943017981
 21
57.10753095600626
 31
0.0
  0
LINE
  5
7B2
330
1B
100
AcDbEntity
  8
4
100
AcDbLine
 10
489.2932933017983
 20
52.10752995600626
 30
0.0
 11
409.293295301798
 21
52.10752995600626
 31
0.0
  0
LINE
  5
7B3
330
1B
100
AcDbEntity
  8
4
100
AcDbLine
 10
163.293295301798
 20
52.10752995600626
 30
0.0
 11
243.2932933017983
 21
52.10752995600626
 31
0.0
  0
LINE
  5
7B4
330
1B
100
AcDbEntity
  8
L-CENTER
100
AcDbLine
 10
326.2932943017981
 20
378.5022679560061
 30
0.0
 11
326.2932943017981
 21
51.2154949560063
 31
0.0
  0
LINE
  5
7B5
330
1B
100
AcDbEntity
  8
L-CENTER
100
AcDbLine
 10
188.793295301798
 20
89.10753195600626
 30
0.0
 11
188.793295301798
 21
40.10752995600626
 31
0.0
  0
LINE
  5
7B6
330
1B
100
AcDbEntity
  8
4
100
AcDbLine
 10
163.293295301798
 20
52.10752995600626
 30
0.0
 11
163.293295301798
 21
100.8025999560062
 31
0.0
  0
LINE
  5
7B7
330
1B
100
AcDbEntity
  8
4
100
AcDbLine
 10
218.2932943017981
 20
74.10753195600626
 30
0.0
 11
218.2932943017981
 21
52.10752995600626
 31
0.0
  0
LINE
  5
7B8
330
1B
100
AcDbEntity
  8
4
100
AcDbLine
 10
243.2932933017983
 20
52.10752995600626
 30
0.0
 11
243.2932933017983
 21
74.10753195600626
 31
0.0
  0
LINE
  5
7B9
330
1B
100
AcDbEntity
  8
L-CENTER
100
AcDbLine
 10
463.7932933017983
 20
89.10753195600626
 30
0.0
 11
463.7932933017983
 21
40.10752995600626
 31
0.0
  0
LINE
  5
7BA
330
1B
100
AcDbEntity
  8
4
100
AcDbLine
 10
409.293295301798
 20
52.10752995600626
 30
0.0
 11
409.293295301798
 21
74.10753195600626
 31
0.0
  0
LINE
  5
7BB
330
1B
100
AcDbEntity
  8
4
100
AcDbLine
 10
434.2932943017981
 20
74.10753195600626
 30
0.0
 11
434.2932943017981
 21
52.10752995600626
 31
0.0
  0
LINE
  5
7BC
330
1B
100
AcDbEntity
  8
4
100
AcDbLine
 10
489.2932933017983
 20
52.10752995600626
 30
0.0
 11
489.2932933017983
 21
100.8025999560062
 31
0.0
  0
LINE
  5
7BD
330
1B
100
AcDbEntity
  8
4
100
AcDbLine
 10
951.9103647826851
 20
241.1075299560061
 30
0.0
 11
951.9103647826851
 21
244.6075299560061
 31
0.0
  0
LINE
  5
7BE
330
1B
100
AcDbEntity
  8
4
100
AcDbLine
 10
1109.295268681485
 20
243.2532628467566
 30
0.0
 11
1099.295269681485
 21
243.2532628467566
 31
0.0
  0
LINE
  5
7BF
330
1B
100
AcDbEntity
  8
4
100
AcDbLine
 10
1109.295268681485
 20
235.2532618467567
 30
0.0
 11
1099.295269681485
 21
235.2532618467567
 31
0.0
  0
LINE
  5
7C0
330
1B
100
AcDbEntity
  8
4
100
AcDbLine
 10
1099.295269681485
 20
235.2532618467567
 30
0.0
 11
1099.295269681485
 21
243.2532628467566
 31
0.0
  0
LINE
  5
7C1
330
1B
100
AcDbEntity
  8
4
100
AcDbLine
 10
1109.295268681485
 20
243.2532628467566
 30
0.0
 11
1109.295268681485
 21
235.2532618467567
 31
0.0
  0
LINE
  5
7C2
330
1B
100
AcDbEntity
  8
L-CENTER
100
AcDbLine
 10
1131.835381681485
 20
220.7532628467566
 30
0.0
 11
1076.755153681484
 21
220.7532628467566
 31
0.0
  0
ARC
  5
7C3
330
1B
100
AcDbEntity
  8
4
100
AcDbCircle
 10
1104.295267681484
 20
220.7532628467566
 30
0.0
 40
19.000008
100
AcDbArc
 50
105.2575104584719
 51
74.74249200000067
  0
LINE
  5
7C4
330
1B
100
AcDbEntity
  8
L-CENTER
100
AcDbLine
 10
1104.295267681484
 20
193.2131488467564
 30
0.0
 11
1104.295267681484
 21
248.2933768467567
 31
0.0
  0
LINE
  5
7C5
330
1B
100
AcDbEntity
  8
4
100
AcDbLine
 10
615.1333355565157
 20
148.8324791082432
 30
0.0
 11
608.1333365565156
 21
148.8324791082432
 31
0.0
  0
LINE
  5
7C6
330
1B
100
AcDbEntity
  8
4
100
AcDbLine
 10
615.1333355565157
 20
141.8324801082431
 30
0.0
 11
608.1333365565156
 21
141.8324801082431
 31
0.0
  0
LINE
  5
7C7
330
1B
100
AcDbEntity
  8
4
100
AcDbLine
 10
608.1333365565156
 20
148.8324791082432
 30
0.0
 11
608.1333365565156
 21
141.8324801082431
 31
0.0
  0
LINE
  5
7C8
330
1B
100
AcDbEntity
  8
4
100
AcDbLine
 10
615.1333355565157
 20
141.8324801082431
 30
0.0
 11
615.1333355565157
 21
148.8324791082432
 31
0.0
  0
LINE
  5
7C9
330
1B
100
AcDbEntity
  8
L-CENTER
100
AcDbLine
 10
631.2942215565158
 20
133.3324781082431
 30
0.0
 11
591.9724475565154
 21
133.3324781082431
 31
0.0
  0
ARC
  5
7CA
330
1B
100
AcDbEntity
  8
4
100
AcDbCircle
 10
611.6333345565154
 20
133.3324781082431
 30
0.0
 40
12.500001
100
AcDbArc
 50
106.2601938221139
 51
73.73979499999801
  0
LINE
  5
7CB
330
1B
100
AcDbEntity
  8
L-CENTER
100
AcDbLine
 10
611.6333345565154
 20
152.9933651082433
 30
0.0
 11
611.6333345565154
 21
113.6715911082431
 31
0.0
  0
ENDSEC
  0
SECTION
  2
OBJECTS
  0
DICTIONARY
  5
9
330
0
100
AcDbDictionary
281
     1
  3
ACAD_COLOR
350
31
  3
ACAD_GROUP
350
2F
  3
ACAD_LAYOUT
350
24
  3
ACAD_MATERIAL
350
B
  3
ACAD_MLEADERSTYLE
350
519
  3
ACAD_MLINESTYLE
350
19
  3
ACAD_PLOTSETTINGS
350
30
  3
ACAD_PLOTSTYLENAME
350
8
  3
ACAD_SCALELIST
350
38
  3
ACAD_VISUALSTYLE
350
32
  3
ACDBHEADERROUNDTRIPXREC
350
80D
  3
AcDbVariableDictionary
350
516
  3
DWGPROPS
350
810
  0
DICTIONARY
  5
811
330
2E
100
AcDbDictionary
280
     1
281
     1
  3
ACAD_XREC_ROUNDTRIP
360
812
  0
DICTIONARY
  5
3
330
2
100
AcDbDictionary
280
     1
281
     1
  3
ACAD_LAYERSTATES
360
4
  0
DICTIONARY
  5
20
330
1F
100
AcDbDictionary
280
     1
281
     1
  3
ADSK_XREC_LAYER_RECONCILED
360
21
  0
DICTIONARY
  5
7B
330
7A
100
AcDbDictionary
280
     1
281
     1
  3
ADSK_XREC_LAYER_RECONCILED
360
7C
  0
DICTIONARY
  5
5
330
1
100
AcDbDictionary
280
     1
281
     1
  3
ADSK_XREC_LAYER_RECONCILED
360
6
  0
DICTIONARY
  5
6E
330
6D
100
AcDbDictionary
280
     1
281
     1
  3
ADSK_XREC_LAYER_RECONCILED
360
6F
  0
DICTIONARY
  5
5F
330
5E
100
AcDbDictionary
280
     1
281
     1
  3
ADSK_XREC_LAYER_RECONCILED
360
60
  0
DICTIONARY
  5
69
330
68
100
AcDbDictionary
280
     1
281
     1
  3
ADSK_XREC_LAYER_RECONCILED
360
6A
  0
DICTIONARY
  5
1C
330
1B
100
AcDbDictionary
280
     1
281
     1
  3
ACAD_SORTENTS
360
1D
  0
DICTIONARY
  5
31
102
{ACAD_REACTORS
330
9
102
}
330
9
100
AcDbDictionary
281
     1
  0
DICTIONARY
  5
2F
102
{ACAD_REACTORS
330
9
102
}
330
9
100
AcDbDictionary
281
     1
  0
DICTIONARY
  5
24
102
{ACAD_REACTORS
330
9
102
}
330
9
100
AcDbDictionary
281
     1
  3
Model
350
23
  3
ﾚｲｱｳﾄ1
350
2B
  0
DICTIONARY
  5
B
102
{ACAD_REACTORS
330
9
102
}
330
9
100
AcDbDictionary
281
     1
  3
ByBlock
350
5B
  3
ByLayer
350
14
  3
Global
350
A
  0
DICTIONARY
  5
519
102
{ACAD_REACTORS
330
9
102
}
330
9
100
AcDbDictionary
281
     1
  3
Standard
350
53B
  0
DICTIONARY
  5
19
102
{ACAD_REACTORS
330
9
102
}
330
9
100
AcDbDictionary
281
     1
  3
STANDARD
350
18
  0
DICTIONARY
  5
30
102
{ACAD_REACTORS
330
9
102
}
330
9
100
AcDbDictionary
281
     1
  0
ACDBDICTIONARYWDFLT
  5
8
102
{ACAD_REACTORS
330
9
102
}
330
9
100
AcDbDictionary
281
     1
  3
Normal
350
7
100
AcDbDictionaryWithDefault
340
7
  0
DICTIONARY
  5
38
102
{ACAD_REACTORS
330
9
102
}
330
9
100
AcDbDictionary
281
     1
  3
*A1
350
5A
  0
DICTIONARY
  5
32
102
{ACAD_REACTORS
330
9
102
}
330
9
100
AcDbDictionary
281
     1
  3
2dWireframe
350
521
  3
Basic
350
523
  3
Brighten
350
526
  3
ColorChange
350
52A
  3
Conceptual
350
524
  3
Dim
350
525
  3
EdgeColorOff
350
52D
  3
Facepattern
350
529
  3
Flat
350
51D
  3
FlatWithEdges
350
51E
  3
Gouraud
350
51F
  3
GouraudWithEdges
350
520
  3
Hidden
350
522
  3
JitterOff
350
52B
  3
Linepattern
350
528
  3
OverhangOff
350
52C
  3
Realistic
350
33
  3
Shaded
350
532
  3
Shaded with edges
350
531
  3
Shades of Gray
350
52E
  3
Sketchy
350
52F
  3
Thicken
350
527
  3
Wireframe
350
34
  3
X-Ray
350
530
  0
DICTIONARY
  5
80D
102
{ACAD_REACTORS
330
9
102
}
330
9
100
AcDbDictionary
281
     1
  3
COLORDICT
350
80E
  3
MATERIALDICT
350
80F
  0
DICTIONARY
  5
516
102
{ACAD_REACTORS
330
9
102
}
330
9
100
AcDbDictionary
281
     1
  3
CANNOSCALE
350
517
  3
CMLEADERSTYLE
350
53D
  3
DIMASSOC
350
7CC
  3
HIDETEXT
350
7CD
  3
MSLTSCALE
350
7D4
  3
XCLIPFRAME
350
51A
  0
XRECORD
  5
810
102
{ACAD_REACTORS
330
9
102
}
330
9
100
AcDbXrecord
280
     1
  1
DWGPROPS COOKIE
  2

  3

  4

  6

  7

  8
sg-d03
  9

300
=
301
=
302
=
303
=
304
=
305
=
306
=
307
=
308
=
309
=
 40
0.0
 41
2457506.189635752
 42
2457843.348016007
  1

 90
        0
  0
XRECORD
  5
812
102
{ACAD_REACTORS
330
811
102
}
330
811
100
AcDbXrecord
280
     1
102
VTR_0.000_0.000_1.000_1.000_VISUALSTYLE
340
521
102
VTR_0.000_0.000_1.000_1.000_GRIDDISPLAY
 70
     3
102
VTR_0.000_0.000_1.000_1.000_GRIDMAJOR
 70
     5
102
VTR_0.000_0.000_1.000_1.000_DEFAULTLIGHTING
280
     1
102
VTR_0.000_0.000_1.000_1.000_DEFAULTLIGHTINGTYPE
 70
     1
102
VTR_0.000_0.000_1.000_1.000_BRIGHTNESS
141
0.0
102
VTR_0.000_0.000_1.000_1.000_CONTRAST
142
0.0
  0
DICTIONARY
  5
4
102
{ACAD_REACTORS
330
3
102
}
330
3
100
AcDbDictionary
281
     1
  0
XRECORD
  5
21
102
{ACAD_REACTORS
330
20
102
}
330
20
100
AcDbXrecord
280
     1
290
     1
  0
XRECORD
  5
7C
102
{ACAD_REACTORS
330
7B
102
}
330
7B
100
AcDbXrecord
280
     1
290
     1
  0
XRECORD
  5
6
102
{ACAD_REACTORS
330
5
102
}
330
5
100
AcDbXrecord
280
     1
290
     1
  0
XRECORD
  5
6F
102
{ACAD_REACTORS
330
6E
102
}
330
6E
100
AcDbXrecord
280
     1
290
     1
  0
XRECORD
  5
60
102
{ACAD_REACTORS
330
5F
102
}
330
5F
100
AcDbXrecord
280
     1
290
     1
  0
XRECORD
  5
6A
102
{ACAD_REACTORS
330
69
102
}
330
69
100
AcDbXrecord
280
     1
290
     1
  0
SORTENTSTABLE
  5
1D
102
{ACAD_REACTORS
330
1C
102
}
330
1C
100
AcDbSortentsTable
330
1B
331
0
  5
512
  0
LAYOUT
  5
23
102
{ACAD_REACTORS
330
24
102
}
102
{ACAD_XDICTIONARY
360
25
102
}
330
24
100
AcDbPlotSettings
  1

  2
Brother MFC-J6973CDW Printer.pc3
  4
A3
  6

 40
2.9
 41
3.0
 42
2.9
 43
2.9
 44
296.8
 45
419.9
 46
10.0
 47
25.0
 48
59.9999999050001
 49
0.0
140
1205.99999728
141
817.4999980924998
142
1.0
143
3.0
 70
 11936
 72
     1
 73
     3
 74
     4
  7
monochrome.ctb
 75
     0
147
0.3333333333333333
148
-59.9999999050001
149
0.0
100
AcDbLayout
  1
Model
 70
     0
 71
     0
 10
0.0
 20
0.0
 11
12.0
 21
9.0
 12
0.0
 22
0.0
 32
0.0
 14
143.2932943017972
 24
15.37111064034207
 34
0.0
 15
1686.047691409531
 25
848.8536946196816
 35
0.0
146
0.0
 13
0.0
 23
0.0
 33
0.0
 16
1.0
 26
0.0
 36
0.0
 17
0.0
 27
1.0
 37
0.0
 76
     0
330
1B
331
35
1001
ACAD_PSEXT
1000
Brother MFC-J6973CDW Printer.pc3
1000
Brother MFC-J6973CDW Printer
1000
BRN30055CE7E60D
1000
MFC-J6973CDW LAN
1070
     0
  0
LAYOUT
  5
2B
102
{ACAD_REACTORS
330
24
102
}
330
24
100
AcDbPlotSettings
  1

  2
SR-LP8300F
  4

  6

 40
0.0
 41
0.0
 42
0.0
 43
0.0
 44
0.0
 45
0.0
 46
0.0
 47
0.0
 48
0.0
 49
0.0
140
0.0
141
0.0
142
1.0
143
1.0
 70
   688
 72
     0
 73
     0
 74
     5
  7
monochrome.ctb
 75
    16
147
1.0
148
0.0
149
0.0
100
AcDbLayout
  1
ﾚｲｱｳﾄ1
 70
     0
 71
     1
 10
0.0
 20
0.0
 11
12.0
 21
9.0
 12
0.0
 22
0.0
 32
0.0
 14
1000000000000000E+20
 24
1000000000000000E+20
 34
1000000000000000E+20
 15
-1000000000000000E+20
 25
-1000000000000000E+20
 35
-1000000000000000E+20
146
0.0
 13
0.0
 23
0.0
 33
0.0
 16
1.0
 26
0.0
 36
0.0
 17
0.0
 27
1.0
 37
0.0
 76
     0
330
28
  0
MATERIAL
  5
5B
102
{ACAD_REACTORS
330
B
102
}
102
{ACAD_XDICTIONARY
360
817
102
}
330
B
100
AcDbMaterial
  1
ByBlock
 72
     0
 73
     2
 43
0.0208333333333333
 43
0.0
 43
0.0
 43
0.0
 43
0.0
 43
0.0208333333333333
 43
0.0
 43
0.0
 43
0.0
 43
0.0
 43
1.0
 43
0.0
 43
0.0
 43
0.0
 43
0.0
 43
1.0
 77
     0
 78
     2
 47
0.0208333333333333
 47
0.0
 47
0.0
 47
0.0
 47
0.0
 47
0.0208333333333333
 47
0.0
 47
0.0
 47
0.0
 47
0.0
 47
1.0
 47
0.0
 47
0.0
 47
0.0
 47
0.0
 47
1.0
171
     0
172
     2
 49
0.0208333333333333
 49
0.0
 49
0.0
 49
0.0
 49
0.0
 49
0.0208333333333333
 49
0.0
 49
0.0
 49
0.0
 49
0.0
 49
1.0
 49
0.0
 49
0.0
 49
0.0
 49
0.0
 49
1.0
175
     0
176
     2
142
0.0208333333333333
142
0.0
142
0.0
142
0.0
142
0.0
142
0.0208333333333333
142
0.0
142
0.0
142
0.0
142
0.0
142
1.0
142
0.0
142
0.0
142
0.0
142
0.0
142
1.0
179
     0
270
     2
144
0.0208333333333333
144
0.0
144
0.0
144
0.0
144
0.0
144
0.0208333333333333
144
0.0
144
0.0
144
0.0
144
0.0
144
1.0
144
0.0
144
0.0
144
0.0
144
0.0
144
1.0
274
     2
147
0.0208333333333333
147
0.0
147
0.0
147
0.0
147
0.0
147
0.0208333333333333
147
0.0
147
0.0
147
0.0
147
0.0
147
1.0
147
0.0
147
0.0
147
0.0
147
0.0
147
1.0
  0
MATERIAL
  5
14
102
{ACAD_REACTORS
330
B
102
}
102
{ACAD_XDICTIONARY
360
813
102
}
330
B
100
AcDbMaterial
  1
ByLayer
 72
     0
 73
     2
 43
0.0208333333333333
 43
0.0
 43
0.0
 43
0.0
 43
0.0
 43
0.0208333333333333
 43
0.0
 43
0.0
 43
0.0
 43
0.0
 43
1.0
 43
0.0
 43
0.0
 43
0.0
 43
0.0
 43
1.0
 77
     0
 78
     2
 47
0.0208333333333333
 47
0.0
 47
0.0
 47
0.0
 47
0.0
 47
0.0208333333333333
 47
0.0
 47
0.0
 47
0.0
 47
0.0
 47
1.0
 47
0.0
 47
0.0
 47
0.0
 47
0.0
 47
1.0
171
     0
172
     2
 49
0.0208333333333333
 49
0.0
 49
0.0
 49
0.0
 49
0.0
 49
0.0208333333333333
 49
0.0
 49
0.0
 49
0.0
 49
0.0
 49
1.0
 49
0.0
 49
0.0
 49
0.0
 49
0.0
 49
1.0
175
     0
176
     2
142
0.0208333333333333
142
0.0
142
0.0
142
0.0
142
0.0
142
0.0208333333333333
142
0.0
142
0.0
142
0.0
142
0.0
142
1.0
142
0.0
142
0.0
142
0.0
142
0.0
142
1.0
179
     0
270
     2
144
0.0208333333333333
144
0.0
144
0.0
144
0.0
144
0.0
144
0.0208333333333333
144
0.0
144
0.0
144
0.0
144
0.0
144
1.0
144
0.0
144
0.0
144
0.0
144
0.0
144
1.0
274
     2
147
0.0208333333333333
147
0.0
147
0.0
147
0.0
147
0.0
147
0.0208333333333333
147
0.0
147
0.0
147
0.0
147
0.0
147
1.0
147
0.0
147
0.0
147
0.0
147
0.0
147
1.0
  0
MATERIAL
  5
A
102
{ACAD_REACTORS
330
B
102
}
102
{ACAD_XDICTIONARY
360
815
102
}
330
B
100
AcDbMaterial
  1
Global
 72
     0
 73
     2
 43
0.0208333333333333
 43
0.0
 43
0.0
 43
0.0
 43
0.0
 43
0.0208333333333333
 43
0.0
 43
0.0
 43
0.0
 43
0.0
 43
1.0
 43
0.0
 43
0.0
 43
0.0
 43
0.0
 43
1.0
 77
     0
 78
     2
 47
0.0208333333333333
 47
0.0
 47
0.0
 47
0.0
 47
0.0
 47
0.0208333333333333
 47
0.0
 47
0.0
 47
0.0
 47
0.0
 47
1.0
 47
0.0
 47
0.0
 47
0.0
 47
0.0
 47
1.0
171
     0
172
     2
 49
0.0208333333333333
 49
0.0
 49
0.0
 49
0.0
 49
0.0
 49
0.0208333333333333
 49
0.0
 49
0.0
 49
0.0
 49
0.0
 49
1.0
 49
0.0
 49
0.0
 49
0.0
 49
0.0
 49
1.0
175
     0
176
     2
142
0.0208333333333333
142
0.0
142
0.0
142
0.0
142
0.0
142
0.0208333333333333
142
0.0
142
0.0
142
0.0
142
0.0
142
1.0
142
0.0
142
0.0
142
0.0
142
0.0
142
1.0
179
     0
270
     2
144
0.0208333333333333
144
0.0
144
0.0
144
0.0
144
0.0
144
0.0208333333333333
144
0.0
144
0.0
144
0.0
144
0.0
144
1.0
144
0.0
144
0.0
144
0.0
144
0.0
144
1.0
274
     2
147
0.0208333333333333
147
0.0
147
0.0
147
0.0
147
0.0
147
0.0208333333333333
147
0.0
147
0.0
147
0.0
147
0.0
147
1.0
147
0.0
147
0.0
147
0.0
147
0.0
147
1.0
1001
ACAD
1070
    -1
1070
     3
1070
     0
1000

1071
        0
  0
MLEADERSTYLE
  5
53B
102
{ACAD_REACTORS
330
519
102
}
102
{ACAD_XDICTIONARY
360
849
102
}
330
519
100
AcDbMLeaderStyle
170
     2
171
     1
172
     0
 90
        2
 40
0.0
 41
0.0
173
     1
 91
-1056964608
340
11
 92
       -2
290
     1
 42
0.09
291
     1
 43
0.36
  3
Standard
341
0
 44
0.18
300

342
12
174
     1
178
     6
175
     1
176
     0
 93
-1056964608
 45
0.18
292
     0
297
     0
 46
0.18
343
0
 94
-1056964608
 47
1.0
 49
1.0
140
1.0
293
     1
141
0.0
294
     1
177
     0
142
1.0
295
     0
296
     0
143
0.125
1001
ACAD_MLEADERVER
1070
     2
  0
MLINESTYLE
  5
18
102
{ACAD_REACTORS
330
19
102
}
330
19
100
AcDbMlineStyle
  2
STANDARD
 70
     0
  3

 62
     0
 51
90.0
 52
90.0
 71
     2
 49
0.5
 62
   256
  6
BYLAYER
 49
-0.5
 62
   256
  6
BYLAYER
  0
ACDBPLACEHOLDER
  5
7
102
{ACAD_REACTORS
330
8
102
}
330
8
  0
SCALE
  5
5A
102
{ACAD_REACTORS
330
38
102
}
330
38
100
AcDbScale
 70
     0
300
1:1
140
1.0
141
1.0
290
     1
  0
VISUALSTYLE
  5
521
102
{ACAD_REACTORS
330
32
102
}
102
{ACAD_XDICTIONARY
360
825
102
}
330
32
100
AcDbVisualStyle
  2
2dWireframe
 70
     4
 71
     0
 72
     2
 73
     0
 90
        0
 40
0.6
 41
30.0
 62
     5
 63
     7
 74
     1
 91
        4
 64
     7
 65
   257
 75
     1
175
     1
 42
1.0
 92
        0
 66
   257
 43
1.0
 76
     1
 77
     6
 78
     2
 67
     7
 79
     5
170
     0
171
     0
290
     0
174
     0
 93
        1
 44
0.0
173
     0
291
     0
 45
0.0
1001
ACAD
1000
AcDbSavedByObjectVersion
1070
     0
  0
VISUALSTYLE
  5
523
102
{ACAD_REACTORS
330
32
102
}
102
{ACAD_XDICTIONARY
360
829
102
}
330
32
100
AcDbVisualStyle
  2
Basic
 70
     7
 71
     1
 72
     0
 73
     1
 90
        0
 40
0.6
 41
30.0
 62
     5
 63
     7
 74
     0
 91
        4
 64
     7
 65
   257
 75
     1
175
     1
 42
1.0
 92
        8
 66
     7
 43
1.0
 76
     1
 77
     6
 78
     2
 67
     7
 79
     5
170
     0
171
     0
290
     0
174
     0
 93
        1
 44
0.0
173
     0
291
     1
 45
0.0
1001
ACAD
1000
AcDbSavedByObjectVersion
1070
     0
  0
VISUALSTYLE
  5
526
102
{ACAD_REACTORS
330
32
102
}
102
{ACAD_XDICTIONARY
360
82F
102
}
330
32
100
AcDbVisualStyle
  2
Brighten
 70
    12
 71
     2
 72
     2
 73
     0
 90
        0
 40
0.6
 41
30.0
 62
     5
 63
     7
 74
     1
 91
        4
 64
     7
 65
   257
 75
     1
175
     1
 42
1.0
 92
        8
 66
     7
 43
1.0
 76
     1
 77
     6
 78
     2
 67
     7
 79
     5
170
     0
171
     0
290
     0
174
     0
 93
        1
 44
50.0
173
     0
291
     1
 45
0.0
1001
ACAD
1000
AcDbSavedByObjectVersion
1070
     0
  0
VISUALSTYLE
  5
52A
102
{ACAD_REACTORS
330
32
102
}
102
{ACAD_XDICTIONARY
360
837
102
}
330
32
100
AcDbVisualStyle
  2
ColorChange
 70
    16
 71
     2
 72
     2
 73
     3
 90
        0
 40
0.6
 41
30.0
 62
     5
 63
     8
 74
     1
 91
        4
 64
     7
 65
   257
 75
     1
175
     1
 42
1.0
 92
        8
 66
     8
 43
1.0
 76
     1
 77
     6
 78
     2
 67
     7
 79
     5
170
     0
171
     0
290
     0
174
     0
 93
        1
 44
0.0
173
     0
291
     1
 45
0.0
1001
ACAD
1000
AcDbSavedByObjectVersion
1070
     0
  0
VISUALSTYLE
  5
524
102
{ACAD_REACTORS
330
32
102
}
102
{ACAD_XDICTIONARY
360
82B
102
}
330
32
100
AcDbVisualStyle
  2
Conceptual
 70
     9
 71
     3
 72
     2
 73
     0
 90
        0
 40
0.6
 41
30.0
 62
     5
 63
     7
 74
     2
 91
        2
 64
     7
 65
   257
 75
     1
175
     1
 42
40.0
 92
        8
 66
     7
 43
1.0
 76
     1
 77
     6
 78
     2
 67
     7
 79
     3
170
     0
171
     0
290
     0
174
     0
 93
        1
 44
0.0
173
     0
291
     0
 45
0.0
1001
ACAD
1000
AcDbSavedByObjectVersion
1070
     0
  0
VISUALSTYLE
  5
525
102
{ACAD_REACTORS
330
32
102
}
102
{ACAD_XDICTIONARY
360
82D
102
}
330
32
100
AcDbVisualStyle
  2
Dim
 70
    11
 71
     2
 72
     2
 73
     0
 90
        0
 40
0.6
 41
30.0
 62
     5
 63
     7
 74
     1
 91
        4
 64
     7
 65
   257
 75
     1
175
     1
 42
1.0
 92
        8
 66
     7
 43
1.0
 76
     1
 77
     6
 78
     2
 67
     7
 79
     5
170
     0
171
     0
290
     0
174
     0
 93
        1
 44
-50.0
173
     0
291
     1
 45
0.0
1001
ACAD
1000
AcDbSavedByObjectVersion
1070
     0
  0
VISUALSTYLE
  5
52D
102
{ACAD_REACTORS
330
32
102
}
102
{ACAD_XDICTIONARY
360
83D
102
}
330
32
100
AcDbVisualStyle
  2
EdgeColorOff
 70
    22
 71
     2
 72
     2
 73
     0
 90
        0
 40
0.6
 41
30.0
 62
     5
 63
     7
 74
     1
 91
        4
 64
     7
 65
   257
 75
     1
175
     1
 42
1.0
 92
        8
 66
     7
 43
1.0
 76
     1
 77
     6
 78
     2
 67
     7
 79
     5
170
     0
171
     0
290
     0
174
     0
 93
        1
 44
0.0
173
     0
291
     1
 45
0.0
1001
ACAD
1000
AcDbSavedByObjectVersion
1070
     0
  0
VISUALSTYLE
  5
529
102
{ACAD_REACTORS
330
32
102
}
102
{ACAD_XDICTIONARY
360
835
102
}
330
32
100
AcDbVisualStyle
  2
Facepattern
 70
    15
 71
     2
 72
     2
 73
     0
 90
        0
 40
0.6
 41
30.0
 62
     5
 63
     7
 74
     1
 91
        4
 64
     7
 65
   257
 75
     1
175
     1
 42
1.0
 92
        8
 66
     7
 43
1.0
 76
     1
 77
     6
 78
     2
 67
     7
 79
     5
170
     0
171
     0
290
     0
174
     0
 93
        1
 44
0.0
173
     0
291
     1
 45
0.0
1001
ACAD
1000
AcDbSavedByObjectVersion
1070
     0
  0
VISUALSTYLE
  5
51D
102
{ACAD_REACTORS
330
32
102
}
102
{ACAD_XDICTIONARY
360
81D
102
}
330
32
100
AcDbVisualStyle
  2
Flat
 70
     0
 71
     2
 72
     1
 73
     1
 90
        2
 40
0.6
 41
30.0
 62
     5
 63
     7
 74
     0
 91
        4
 64
     7
 65
   257
 75
     1
175
     1
 42
1.0
 92
        8
 66
     7
 43
1.0
 76
     1
 77
     6
 78
     2
 67
     7
 79
     5
170
     0
171
     0
290
     0
174
     0
 93
       13
 44
0.0
173
     0
291
     1
 45
0.0
1001
ACAD
1000
AcDbSavedByObjectVersion
1070
     0
  0
VISUALSTYLE
  5
51E
102
{ACAD_REACTORS
330
32
102
}
102
{ACAD_XDICTIONARY
360
81F
102
}
330
32
100
AcDbVisualStyle
  2
FlatWithEdges
 70
     1
 71
     2
 72
     1
 73
     1
 90
        2
 40
0.6
 41
30.0
 62
     5
 63
     7
 74
     1
 91
        4
 64
     7
 65
   257
 75
     1
175
     1
 42
1.0
 92
        0
 66
   257
 43
1.0
 76
     1
 77
     6
 78
     2
 67
     7
 79
     5
170
     0
171
     0
290
     0
174
     0
 93
       13
 44
0.0
173
     0
291
     1
 45
0.0
1001
ACAD
1000
AcDbSavedByObjectVersion
1070
     0
  0
VISUALSTYLE
  5
51F
102
{ACAD_REACTORS
330
32
102
}
102
{ACAD_XDICTIONARY
360
821
102
}
330
32
100
AcDbVisualStyle
  2
Gouraud
 70
     2
 71
     2
 72
     2
 73
     1
 90
        2
 40
0.6
 41
30.0
 62
     5
 63
     7
 74
     0
 91
        4
 64
     7
 65
   257
 75
     1
175
     1
 42
1.0
 92
        0
 66
     7
 43
1.0
 76
     1
 77
     6
 78
     2
 67
     7
 79
     5
170
     0
171
     0
290
     0
174
     0
 93
       13
 44
0.0
173
     0
291
     1
 45
0.0
1001
ACAD
1000
AcDbSavedByObjectVersion
1070
     0
  0
VISUALSTYLE
  5
520
102
{ACAD_REACTORS
330
32
102
}
102
{ACAD_XDICTIONARY
360
823
102
}
330
32
100
AcDbVisualStyle
  2
GouraudWithEdges
 70
     3
 71
     2
 72
     2
 73
     1
 90
        2
 40
0.6
 41
30.0
 62
     5
 63
     7
 74
     1
 91
        4
 64
     7
 65
   257
 75
     1
175
     1
 42
1.0
 92
        0
 66
   257
 43
1.0
 76
     1
 77
     6
 78
     2
 67
     7
 79
     5
170
     0
171
     0
290
     0
174
     0
 93
       13
 44
0.0
173
     0
291
     1
 45
0.0
1001
ACAD
1000
AcDbSavedByObjectVersion
1070
     0
  0
VISUALSTYLE
  5
522
102
{ACAD_REACTORS
330
32
102
}
102
{ACAD_XDICTIONARY
360
827
102
}
330
32
100
AcDbVisualStyle
  2
Hidden
 70
     6
 71
     1
 72
     2
 73
     2
 90
        0
 40
0.6
 41
30.0
 62
     5
 63
     7
 74
     2
 91
        2
 64
     7
 65
   257
 75
     2
175
     1
 42
40.0
 92
        0
 66
   257
 43
1.0
 76
     1
 77
     6
 78
     2
 67
     7
 79
     3
170
     0
171
     0
290
     0
174
     0
 93
        1
 44
0.0
173
     0
291
     0
 45
0.0
1001
ACAD
1000
AcDbSavedByObjectVersion
1070
     0
  0
VISUALSTYLE
  5
52B
102
{ACAD_REACTORS
330
32
102
}
102
{ACAD_XDICTIONARY
360
839
102
}
330
32
100
AcDbVisualStyle
  2
JitterOff
 70
    20
 71
     2
 72
     2
 73
     0
 90
        0
 40
0.6
 41
30.0
 62
     5
 63
     7
 74
     1
 91
        4
 64
     7
 65
   257
 75
     1
175
     1
 42
1.0
 92
       10
 66
     7
 43
1.0
 76
     1
 77
     6
 78
     2
 67
     7
 79
     5
170
     0
171
     0
290
     0
174
     0
 93
        1
 44
0.0
173
     0
291
     1
 45
0.0
1001
ACAD
1000
AcDbSavedByObjectVersion
1070
     0
  0
VISUALSTYLE
  5
528
102
{ACAD_REACTORS
330
32
102
}
102
{ACAD_XDICTIONARY
360
833
102
}
330
32
100
AcDbVisualStyle
  2
Linepattern
 70
    14
 71
     2
 72
     2
 73
     0
 90
        0
 40
0.6
 41
30.0
 62
     5
 63
     7
 74
     1
 91
        4
 64
     7
 65
   257
 75
     7
175
     7
 42
1.0
 92
        8
 66
     7
 43
1.0
 76
     1
 77
     6
 78
     2
 67
     7
 79
     5
170
     0
171
     0
290
     0
174
     0
 93
        1
 44
0.0
173
     0
291
     1
 45
0.0
1001
ACAD
1000
AcDbSavedByObjectVersion
1070
     0
  0
VISUALSTYLE
  5
52C
102
{ACAD_REACTORS
330
32
102
}
102
{ACAD_XDICTIONARY
360
83B
102
}
330
32
100
AcDbVisualStyle
  2
OverhangOff
 70
    21
 71
     2
 72
     2
 73
     0
 90
        0
 40
0.6
 41
30.0
 62
     5
 63
     7
 74
     1
 91
        4
 64
     7
 65
   257
 75
     1
175
     1
 42
1.0
 92
        9
 66
     7
 43
1.0
 76
     1
 77
     6
 78
     2
 67
     7
 79
     5
170
     0
171
     0
290
     0
174
     0
 93
        1
 44
0.0
173
     0
291
     1
 45
0.0
1001
ACAD
1000
AcDbSavedByObjectVersion
1070
     0
  0
VISUALSTYLE
  5
33
102
{ACAD_REACTORS
330
32
102
}
102
{ACAD_XDICTIONARY
360
819
102
}
330
32
100
AcDbVisualStyle
  2
Realistic
 70
     8
 71
     2
 72
     3
 73
     0
 90
        2
 40
0.6
 41
30.0
 62
     5
 63
     7
 74
     0
 91
        0
 64
     7
 65
   257
 75
     1
175
     1
 42
1.0
 92
        8
 66
   257
 43
1.0
 76
     1
 77
     6
 78
     2
 67
     7
 79
     3
170
     0
171
     0
290
     0
174
     0
 93
       13
 44
0.0
173
     0
291
     0
 45
0.0
1001
ACAD
1000
AcDbSavedByObjectVersion
1070
     0
  0
VISUALSTYLE
  5
532
102
{ACAD_REACTORS
330
32
102
}
102
{ACAD_XDICTIONARY
360
847
102
}
330
32
100
AcDbVisualStyle
  2
Shaded
 70
    27
 71
     2
 72
     2
 73
     1
 90
        2
 40
0.6
 41
30.0
 62
     5
 63
     7
 74
     0
 91
        4
 64
     7
 65
   257
 75
     1
175
     1
 42
1.0
 92
        8
 66
   257
 43
1.0
 76
     1
 77
     6
 78
     2
 67
   251
 79
     3
170
     0
171
     0
290
     0
174
     0
 93
        5
 44
0.0
173
     0
291
     0
 45
0.0
1001
ACAD
1000
AcDbSavedByObjectVersion
1070
     0
  0
VISUALSTYLE
  5
531
102
{ACAD_REACTORS
330
32
102
}
102
{ACAD_XDICTIONARY
360
845
102
}
330
32
100
AcDbVisualStyle
  2
Shaded with edges
 70
    26
 71
     2
 72
     2
 73
     1
 90
        2
 40
0.6
 41
30.0
 62
     5
 63
     7
 74
     1
 91
       10
 64
     7
 65
   257
 75
     2
175
     1
 42
1.0
 92
        8
 66
   257
 43
1.0
 76
     1
 77
     6
 78
     2
 67
     7
 79
     3
170
     0
171
     0
290
     0
174
     0
 93
        5
 44
0.0
173
     0
291
     0
 45
0.0
1001
ACAD
1000
AcDbSavedByObjectVersion
1070
     0
  0
VISUALSTYLE
  5
52E
102
{ACAD_REACTORS
330
32
102
}
102
{ACAD_XDICTIONARY
360
83F
102
}
330
32
100
AcDbVisualStyle
  2
Shades of Gray
 70
    23
 71
     2
 72
     2
 73
     3
 90
        0
 40
0.6
 41
30.0
 62
     5
 63
     7
 74
     2
 91
        2
 64
     7
 65
     7
 75
     1
175
     1
 42
40.0
 92
        8
 66
     7
 43
1.0
 76
     1
 77
     6
 78
     2
 67
     7
 79
     3
170
     0
171
     0
290
     0
174
     0
 93
        1
 44
0.0
173
     0
291
     0
 45
0.0
1001
ACAD
1000
AcDbSavedByObjectVersion
1070
     0
  0
VISUALSTYLE
  5
52F
102
{ACAD_REACTORS
330
32
102
}
102
{ACAD_XDICTIONARY
360
841
102
}
330
32
100
AcDbVisualStyle
  2
Sketchy
 70
    24
 71
     1
 72
     2
 73
     2
 90
        0
 40
0.6
 41
30.0
 62
     5
 63
     7
 74
     2
 91
        2
 64
     7
 65
     7
 75
     1
175
     1
 42
40.0
 92
       11
 66
     7
 43
1.0
 76
     1
 77
     6
 78
     2
 67
     7
 79
     6
170
     0
171
     0
290
     0
174
     0
 93
        1
 44
0.0
173
     0
291
     0
 45
0.0
1001
ACAD
1000
AcDbSavedByObjectVersion
1070
     0
  0
VISUALSTYLE
  5
527
102
{ACAD_REACTORS
330
32
102
}
102
{ACAD_XDICTIONARY
360
831
102
}
330
32
100
AcDbVisualStyle
  2
Thicken
 70
    13
 71
     2
 72
     2
 73
     0
 90
        0
 40
0.6
 41
30.0
 62
     5
 63
     7
 74
     1
 91
        4
 64
     7
 65
   257
 75
     1
175
     1
 42
1.0
 92
       12
 66
     7
 43
1.0
 76
     1
 77
     6
 78
     2
 67
     7
 79
     5
170
     0
171
     0
290
     0
174
     0
 93
        1
 44
0.0
173
     0
291
     1
 45
0.0
1001
ACAD
1000
AcDbSavedByObjectVersion
1070
     0
  0
VISUALSTYLE
  5
34
102
{ACAD_REACTORS
330
32
102
}
102
{ACAD_XDICTIONARY
360
81B
102
}
330
32
100
AcDbVisualStyle
  2
Wireframe
 70
     5
 71
     0
 72
     2
 73
     0
 90
        0
 40
0.6
 41
30.0
 62
     5
 63
     7
 74
     1
 91
        4
 64
     7
 65
   257
 75
     1
175
     1
 42
1.0
 92
        0
 66
   257
 43
1.0
 76
     1
 77
     6
 78
     2
 67
     7
 79
     3
170
     0
171
     0
290
     0
174
     0
 93
        1
 44
0.0
173
     0
291
     0
 45
0.0
1001
ACAD
1000
AcDbSavedByObjectVersion
1070
     0
  0
VISUALSTYLE
  5
530
102
{ACAD_REACTORS
330
32
102
}
102
{ACAD_XDICTIONARY
360
843
102
}
330
32
100
AcDbVisualStyle
  2
X-Ray
 70
    25
 71
     2
 72
     2
 73
     1
 90
        1
 40
0.5
 41
30.0
 62
     5
 63
     7
 74
     1
 91
        0
 64
     7
 65
   257
 75
     1
175
     1
 42
1.0
 92
        8
 66
     7
 43
1.0
 76
     1
 77
     6
 78
     2
 67
     7
 79
     3
170
     0
171
     0
290
     0
174
     0
 93
       13
 44
0.0
173
     0
291
     0
 45
0.0
1001
ACAD
1000
AcDbSavedByObjectVersion
1070
     0
  0
XRECORD
  5
80E
102
{ACAD_REACTORS
330
80D
102
}
330
80D
100
AcDbXrecord
280
     1
340
31
  0
XRECORD
  5
80F
102
{ACAD_REACTORS
330
80D
102
}
330
80D
100
AcDbXrecord
280
     1
340
B
  0
DICTIONARYVAR
  5
517
102
{ACAD_REACTORS
330
516
102
}
330
516
100
DictionaryVariables
280
     0
  1
1:1
  0
DICTIONARYVAR
  5
53D
102
{ACAD_REACTORS
330
516
102
}
330
516
100
DictionaryVariables
280
     0
  1
Standard
  0
DICTIONARYVAR
  5
7CC
102
{ACAD_REACTORS
330
516
102
}
330
516
100
DictionaryVariables
280
     0
  1
0
  0
DICTIONARYVAR
  5
7CD
102
{ACAD_REACTORS
330
516
102
}
330
516
100
DictionaryVariables
280
     0
  1
1
  0
DICTIONARYVAR
  5
7D4
102
{ACAD_REACTORS
330
516
102
}
330
516
100
DictionaryVariables
280
     0
  1
1
  0
DICTIONARYVAR
  5
51A
102
{ACAD_REACTORS
330
516
102
}
330
516
100
DictionaryVariables
280
     0
  1
0
  0
DICTIONARY
  5
25
330
23
100
AcDbDictionary
280
     1
281
     1
  3
ADSK_XREC_LAYOUTTHUMBNAIL
360
26
  0
DICTIONARY
  5
817
330
5B
100
AcDbDictionary
280
     1
281
     1
  3
ACAD_XREC_ROUNDTRIP
360
818
  0
DICTIONARY
  5
813
330
14
100
AcDbDictionary
280
     1
281
     1
  3
ACAD_XREC_ROUNDTRIP
360
814
  0
DICTIONARY
  5
815
330
A
100
AcDbDictionary
280
     1
281
     1
  3
ACAD_XREC_ROUNDTRIP
360
816
  0
DICTIONARY
  5
849
330
53B
100
AcDbDictionary
280
     1
281
     1
  3
ACAD_XREC_ROUNDTRIP
360
84A
  0
DICTIONARY
  5
825
330
521
100
AcDbDictionary
280
     1
281
     1
  3
ACAD_XREC_ROUNDTRIP
360
826
  0
DICTIONARY
  5
829
330
523
100
AcDbDictionary
280
     1
281
     1
  3
ACAD_XREC_ROUNDTRIP
360
82A
  0
DICTIONARY
  5
82F
330
526
100
AcDbDictionary
280
     1
281
     1
  3
ACAD_XREC_ROUNDTRIP
360
830
  0
DICTIONARY
  5
837
330
52A
100
AcDbDictionary
280
     1
281
     1
  3
ACAD_XREC_ROUNDTRIP
360
838
  0
DICTIONARY
  5
82B
330
524
100
AcDbDictionary
280
     1
281
     1
  3
ACAD_XREC_ROUNDTRIP
360
82C
  0
DICTIONARY
  5
82D
330
525
100
AcDbDictionary
280
     1
281
     1
  3
ACAD_XREC_ROUNDTRIP
360
82E
  0
DICTIONARY
  5
83D
330
52D
100
AcDbDictionary
280
     1
281
     1
  3
ACAD_XREC_ROUNDTRIP
360
83E
  0
DICTIONARY
  5
835
330
529
100
AcDbDictionary
280
     1
281
     1
  3
ACAD_XREC_ROUNDTRIP
360
836
  0
DICTIONARY
  5
81D
330
51D
100
AcDbDictionary
280
     1
281
     1
  3
ACAD_XREC_ROUNDTRIP
360
81E
  0
DICTIONARY
  5
81F
330
51E
100
AcDbDictionary
280
     1
281
     1
  3
ACAD_XREC_ROUNDTRIP
360
820
  0
DICTIONARY
  5
821
330
51F
100
AcDbDictionary
280
     1
281
     1
  3
ACAD_XREC_ROUNDTRIP
360
822
  0
DICTIONARY
  5
823
330
520
100
AcDbDictionary
280
     1
281
     1
  3
ACAD_XREC_ROUNDTRIP
360
824
  0
DICTIONARY
  5
827
330
522
100
AcDbDictionary
280
     1
281
     1
  3
ACAD_XREC_ROUNDTRIP
360
828
  0
DICTIONARY
  5
839
330
52B
100
AcDbDictionary
280
     1
281
     1
  3
ACAD_XREC_ROUNDTRIP
360
83A
  0
DICTIONARY
  5
833
330
528
100
AcDbDictionary
280
     1
281
     1
  3
ACAD_XREC_ROUNDTRIP
360
834
  0
DICTIONARY
  5
83B
330
52C
100
AcDbDictionary
280
     1
281
     1
  3
ACAD_XREC_ROUNDTRIP
360
83C
  0
DICTIONARY
  5
819
330
33
100
AcDbDictionary
280
     1
281
     1
  3
ACAD_XREC_ROUNDTRIP
360
81A
  0
DICTIONARY
  5
847
330
532
100
AcDbDictionary
280
     1
281
     1
  3
ACAD_XREC_ROUNDTRIP
360
848
  0
DICTIONARY
  5
845
330
531
100
AcDbDictionary
280
     1
281
     1
  3
ACAD_XREC_ROUNDTRIP
360
846
  0
DICTIONARY
  5
83F
330
52E
100
AcDbDictionary
280
     1
281
     1
  3
ACAD_XREC_ROUNDTRIP
360
840
  0
DICTIONARY
  5
841
330
52F
100
AcDbDictionary
280
     1
281
     1
  3
ACAD_XREC_ROUNDTRIP
360
842
  0
DICTIONARY
  5
831
330
527
100
AcDbDictionary
280
     1
281
     1
  3
ACAD_XREC_ROUNDTRIP
360
832
  0
DICTIONARY
  5
81B
330
34
100
AcDbDictionary
280
     1
281
     1
  3
ACAD_XREC_ROUNDTRIP
360
81C
  0
DICTIONARY
  5
843
330
530
100
AcDbDictionary
280
     1
281
     1
  3
ACAD_XREC_ROUNDTRIP
360
844
  0
XRECORD
  5
26
102
{ACAD_REACTORS
330
25
102
}
330
25
100
AcDbXrecord
280
     1
310
280000000001000089000000010008000000000000890000000000000000000000010000000000003028210000000000C8C8C8000000000000000000000000000000000000000000000000000000000000000000330000006600000099000000CC000000FF00000000330000333300006633000099330000CC330000FF3300
310
0000660000336600006666000099660000CC660000FF66000000990000339900006699000099990000CC990000FF99000000CC000033CC000066CC000099CC0000CCCC0000FFCC000000FF000033FF000066FF000099FF0000CCFF0000FFFF000000003300330033006600330099003300CC003300FF003300003333003333
310
33006633330099333300CC333300FF33330000663300336633006666330099663300CC663300FF66330000993300339933006699330099993300CC993300FF99330000CC330033CC330066CC330099CC3300CCCC3300FFCC330000FF330033FF330066FF330099FF3300CCFF3300FFFF330000006600330066006600660099
310
006600CC006600FF00660000336600333366006633660099336600CC336600FF33660000666600336666006666660099666600CC666600FF66660000996600339966006699660099996600CC996600FF99660000CC660033CC660066CC660099CC6600CCCC6600FFCC660000FF660033FF660066FF660099FF6600CCFF6600
310
FFFF660000009900330099006600990099009900CC009900FF00990000339900333399006633990099339900CC339900FF33990000669900336699006666990099669900CC669900FF66990000999900339999006699990099999900CC999900FF99990000CC990033CC990066CC990099CC9900CCCC9900FFCC990000FF99
310
0033FF990066FF990099FF9900CCFF9900FFFF99000000CC003300CC006600CC009900CC00CC00CC00FF00CC000033CC003333CC006633CC009933CC00CC33CC00FF33CC000066CC003366CC006666CC009966CC00CC66CC00FF66CC000099CC003399CC006699CC009999CC00CC99CC00FF99CC0000CCCC0033CCCC0066CC
310
CC0099CCCC00CCCCCC00FFCCCC0000FFCC0033FFCC0066FFCC0099FFCC00CCFFCC00FFFFCC000000FF003300FF006600FF009900FF00CC00FF00FF00FF000033FF003333FF006633FF009933FF00CC33FF00FF33FF000066FF003366FF006666FF009966FF00CC66FF00FF66FF000099FF003399FF006699FF009999FF00CC
310
99FF00FF99FF0000CCFF0033CCFF0066CCFF0099CCFF00CCCCFF00FFCCFF0000FFFF0033FFFF0066FFFF0099FFFF00CCFFFF00FFFFFF00000000000D0D0D001A1A1A00282828003535350043434300505050005D5D5D006B6B6B00787878008686860093939300A1A1A100AEAEAE00BBBBBB00C9C9C900D6D6D600E4E4E400
310
F1F1F100FFFFFF000000000000000000000000000000000000000000000000000000000000000000000000000000000000000000000000000000000000000000000000000000000000000000000000000000000000000000000000000000000000000000000000000000000000000000000000000000000000000000000000
310
00000000000000000000000000000000000000000000000000000000000000000000000000000000000000000000000000000000000000000000000000000000000000000000000000000000000000000000000000000000000000000000000000000000000000000000000000000000000000000000000000000000000000
310
00000000000000000000000000000000000000000000000000000000000000000000000000000000000000000000000000000000000000000000000000000000000000000000000000000000000000000000000000000000000000000000000000000000000000000000000000000000000000000000000000000000000000
310
00000000000000000000000000000000000000000000000000000000000000000000000000000000000000000000000000000000000000000000000000000000000000000000000000000000000000000000000000000000000000000000000000000000000000000000000000000000000000000000000000000000000000
310
00000000000000000000000000000000000000000000000000000000000000000000000000000000000000000000000000000000000000000000000000000000000000000000000000000000000000000000000000000000000000000000000000000000000000000000000000000000000000000000000000000000000000
310
00000000000000000000000000000000000000000000000000000000000000000000000000000000000000000000000000000000000000000000000000000000000000000000000000000000000000000000000000000000000000000000000000000000000000000000000000000000000000000000000000000000000000
310
00000000000000000000000000000000000000000000000000000000000000000000000000000000000000000000000000000000000000000000000000000000000000000000000000000000000000000000000000000000000000000000000000000000000000000000000000000000000000000000000000000000000000
310
00000000000000000000000000000000000000000000000000000000000000000000000000000000000000000000000000000000000000000000000000000000000000000000000000000000000000000000000000000000000000000000000000000000000000000000000000000000000000000000000000000000000000
310
00000000000000000000000000000000000000000000000000000000000000000000000000000000000000000000000000000000000000000000000000000000000000000000000000000000000000000000000000000000000000000000000000000000000000000000000000000000000000000000000000000000000000
310
00000000000000000000000000000000000000000000000000000000000000000000000000000000000000000000000000000000282828282828282828282828282828282800000000000000000000000000000000000000000000000000000000000000000000000000000000000000000000000000000000000000000000
310
00000000000000000000000000000000000000000000000000000000000000000000000000000000000000000000000000000000000000000000000000000000000000000000000000000000000000000000000000000000000000000000000000000000000000000000000000000000000000000000000000000000000000
310
00000000000000000000000000000000000000000000000000000000000000000000000000000000000000000000000000000000000000000000000000000000000000000000280000000000000000000000000000000000000000000000000000000000000000000000000000000000000000000000000000000000000000
310
00000000000000000000000000000000000000000000000000000000000000000000000000000000000000000000000000000000000000000000000000000000000000000000000000000000000000000000000000000000000000000000000000000000000000000000000000000000000000000000000000000000000000
310
000000000000000000000000000000000000000000000000000000000000000000000000000000282828F0F028F028F028F0F028282800002828F0F028282828282828282828280028000000000000000000000000000000000000000000000000000000000000000000000000000000000000000000000000000000000000
310
00000000000000000000000000000000000000000000000000000000000000000000000000000000000000000000000000000000000000000000000000000000000000000000000000000000000000000000000000000000000000000000000000000000000000000000000000000000000000000000000000000000000000
310
0000000000000000000000000000000000000000000000000000000000000000000000000000000000280000F0F00000F00000F0F0000028000028F0F0F000F0F00000F0F000F0F028002800000000000000000000000000000000000000000000000000000000000000000000000000000000000000000000000000000000
310
00000000000000000000000000000000000000000000000000000000000000000000000000000000000000000000000000000000000000000000000000000000000000000000000000000000000000000000000000000000000000000000000000000000000000000000000000000000000000000000000000000000000000
310
00000000000000000000000000000000000000000000000000000000000000000000000000000000000000282828F0F02828F0282828F028282800002828F02828F028282828F028F0282800280000000000000000000000000000000000000000000000000000000000000000000000000000000000000000000000000000
310
00000000000000000000000000000000000000000000000000000000000000000000000000000000000000000000000000000000000000000000000000000000000000000000000000000000000000000000000000000000000000000000000000000000000000000000000000000000000000000000000000000000000000
310
00000000000000000000000000000000000000000000000000000000000000000000000000000000000000000000000000000000000000000000000000000000000000000000000000000000000000000000000000000000000000000000000000000000000000000000000000000000000000000000000000000000000000
310
00000000000000000000000000000000000000000000000000000000000000000000000000000000000000000000000000000000000000000000000000000000000000000000000000000000000000000000000000000000000000000000000000000000000000000000000000000000000000000000000000000000000000
310
00000000000000000000000000000000000000000000000000000000000000000000000000000000000000000000000000000000000000000000000000000000000000000000000000000000000000000000000000000000000000000000000000000000000000000000000000000000000000000000000000000000000000
310
00000000000000000000000000000000000000000000000000000000000000000000000000000000000000000000000000000000000000000000000000000000000000000000000000000000000000000000000000000000000000000000000000000000000000F0F0F0F0F0F0F0F0F0F0F0F0F0F0F0F0F0F0F0F0F0F0F0F0
310
F0F0F0F0F0F0F0F0F0F0F0F0F0F0F0F0F0F0F0F0F0F0F0F0F0F0F0F0F0F0F0F0F0F0F0F0F0F0F0F0F0F0F0F0F0F0F0F0F0F0F0F0F0F0F0F0F0F0F0F0F0F0BEF0F0F0F0F0F0F0F0F0F0F0F0F0F0BEF0F0F0F0F00000000000000000000000000000000000000000000000000000000000000000000000000000000000000000
310
000000000000000000000000000000000000000000000000000000000000000000000000000000000000000000000000000000000000000000000000000000000000000000000000000000000000000000000000000000000000000000000000000000000000000000F0000000000000000000000000000000000000000000
310
000000F00000000000000000F000000000000000F00000000000000000F0000000F000BEBEBEF0F0F0F0F0F0F0F0F0F0F0F0F0F0F0F0F0F0F0F0F0F0F0F00000BE2828282828282828282828282828BE00282800F0000000000000000000000000000000000000000000000000000000000000000000000000000000000000
310
0000000000000000000000000000000000000000000000000000000000000000000000000000000000000000000000000000000000000000000000000000000000000000000000000000000000000000000000000000000000000000000000000000000000000000000000F000000000000000000000000000000000000000
310
0000000000F0BEBEBEBEBEBEBEBEBE00000000000000F00000000000000000F0000000F000BEBEBEF0F0F0F0F0F0F0F0F0F0F0F000F0F0F0F0F0F0F0F0F0F0F00000BE2828002828002828282800282828BE00282800F000000000000000000000000000000000000000000000000000000000000000000000000000000000
310
00000000000000000000000000000000000000000000000000000000000000000000000000000000000000000000000000000000000000000000000000000000000000000000000000000000000000000000000000000000000000000000000000000000000000000000000000F00000000000000000000000000000000000
310
00000000000000F0BEBEBEBEBEBEBEBEF000000000000000F00000000000000000F0BEBEBEF000BEBEBEF0F0F0F0F0F000F0F0F0F0F0F0F0F0F0F0F000F000F0F0F00000BEBEBE000000000000000000000000BEBEBEBEBEBE0000000000000000000000000000000000000000000000000000000000000000000000000000
310
000000000000000000000000000000000000000000000000000000000000000000000000000000000000000000000000000000000000000000000000000000000000000000000000000000000000000000000000000000000000000000000000000000000000000000000000000000F0000000000000000000000000000000
310
000000000000000000F0BE00000000000000F000000000000000F00000000000000000F0BEBE00F0F0F0F0F0F0F0F02DF0F0F0F0F0BEF0F0F0F0F0BEF0F0F0F0BEF0F0F0F0F0BEF0BEF0F0F0F0F0F0F0F0F0F0F0F0BEBEBEBEBEF0000000000000000000000000000000000000000000000000000000000000000000000000
310
0000000000000000000000000000000000000000000000000000000000000000000000000000000000000000000000000000000000000000000000000000000000000000000000000000000000000000000000000000000000000000000000000000000000000000000000000000000000F000000000000000000000000000
310
0000000000000000000000F0BEBEBEBEBEBE0000BEBEBEBEBEBE0000F0BEBEBEBEBEBE0000F0000000F0BEBEBEBEBEBEBEBE2D00000000BEBEBEBEBEBEBEBE00BEBEBEBEBEBE00BEBE00000028282828282828000000000000000000F000000000000000000000000000000000000000000000000000000000000000000000
310
00000000000000000000000000000000000000000000000000000000000000000000000000000000000000000000000000000000000000000000000000000000000000000000000000000000000000000000000000000000000000000000000000000000000000000000000000000000000000F00000000000000000000000
310
00000000000000000000000000F0BEBEBEBEBEBEF0F0BEBEBEBEBEBEBEF0F0BEBEBEBEBEBEF0F0BEBEBEBEF0BEBEBEBEBEBEBEBE002D000000BEBEBEBEBEBEBEBEBEBEBEBEBEBEBEBEBEBEBEBE0028002828282828000000000000000000F00000000000000000000000000000000000000000000000000000000000000000
310
000000000000000000000000000000000000000000000000000000000000000000000000000000000000000000000000000000000000000000000000000000000000000000000000000000000000000000000000000000000000000000000000000000000000000000000000000000000000000000F0000000000000000000
310
000000000000000000000000000000F0F0F0BEBEBEBEF0F0F0F0BEBEF0BEBEF0F0F0F0BEBEBEBEF0F0BEBEBEBEF0BEBEBEBEF0BEF0BE00002D2D00BE00BE00BE00BEBEBEBEBEBE00BEBEBEBEBEBEBEBEBEBEBEBEBEBEBEBEBEBEBEBEBEBEBEBEBE000000000000000000000000000000000000000000000000000000000000
310
0000000000000000000000000000000000000000000000000000000000000000000000000000000000000000000000000000000000000000000000000000000000000000000000000000000000000000000000000000000000000000000000000000000000000000000000000000000000000000000000F000000000000000
310
0000000000000000000000000000000000F00000BEBEBEBE0000F000BEBE00BEBE00F00000BEBEBEBE0000F0BEBEBEF0F0F0F0BEF0F0F0F0000000002DBE00BE00BE00BE00BEBEBEBE00BE00BEBEBE00282828282828282828282828282828282828F000000000000000000000000000000000000000000000000000000000
310
00000000000000000000000000000000000000000000000000000000000000000000000000000000000000000000000000000000000000000000000000000000000000000000000000000000000000000000000000000000000000000000000000000000000000000000000000000000000000000000000000F00000000000
310
00000000000000000000000000000000000000F0F0BEBEBEBEBEBEF0F0F0BEBEBEBEF0BEF0F0F0BEBEBEBEF0F0BEBEBEBEF0F0F0F0BEBEBEBEBEBEBEBEBEBE2DBEBEBEBEBEBEBEBEBEBEBEBEBEBEBEBEBEBEBE2828282828282828282828282828282828F00000000000000000000000000000000000000000000000000000
310
000000000000000000000000000000000000000000000000000000000000000000000000000000000000000000000000000000000000000000000000000000000000000000000000000000000000000000000000000000000000000000000000000000000000000000000000000000000000000000000000000000F0000000
310
000000000000000000000000000000000000000000F0F0BEBEBEBEBEBEF0F0BEBEBEBEBEBEBEF0F0F0F0BEBEF0F0F0BEBEBEBEF0F0F0BEBEBEBEBEBEF0BEBEBEBEBEF0BEF0BEF0BEBEBEBEBEBEF0BEBEBEBEBEBEBEBEF0F0F0BEF0F0F0F0F0F0F0F0F0F0F0F0F0000000000000000000000000000000000000000000000000
310
0000000000000000000000000000000000000000000000000000000000000000000000000000000000000000000000000000000000000000000000000000000000000000000000000000000000000000000000000000000000000000000000000000000000000000000000000000000000000000000000000000000000F000
310
0000000000000000000000000000000000000000000000F000000000BE000000F0000000BEBE0000F0000000BEBE000000F0BEBEBEBEBEBEBE00BEBEBEBEBE000000BE000000BE0000BEBE000000BE00BEBEBE00BEBEBEBEBE00BEBE000000BEBE00BEBE00000000F000000000000000000000000000000000000000000000
310
00000000000000000000000000000000000000000000000000000000000000000000000000000000000000000000000000000000000000000000000000000000000000000000000000000000000000000000000000000000000000000000000000000000000000000000000000000000000000000000000000000000000000
310
F0000000000000000000000000000000000000000000000000F0F0F0F0F0F0F0F0F0F0F0F0F0F0F0F0F0F0F0F0F0F0F0F0F0F0F0F0F0F0F0F0F0BEF0F0F0F0F0F0F0F0F0BEF0F0F0F0F0F0F0F0F0F0F0BEF0F0F0F0F0BEF0F0BEF0F0F0BEF0F0F0F0F0F0F0F0F0F0F0F0F00000000000000000000000000000000000000000
310
00000000000000000000000000000000000000000000000000000000000000000000000000000000000000000000000000000000000000000000000000000000000000000000000000000000000000000000000000000000000000000000000000000000000000000000000000000000000000000000000000000000000000
310
0000F0000000000000000000000000000000000000000000000000000000000000000000000000000000000000000000000000000000000000F0BEBEBEBEBEBEBEBEBEBEBEBEBEBEBEBEBEBEBEBEBEBEBEBEBEBEBEBEBEBEBEBEBEBEBEBEBEBEBEBEBEBEBEBEBEBEBEBEBEBEF0000000000000000000000000000000000000
310
00000000000000000000000000000000000000000000000000000000000000000000000000000000000000000000000000000000000000000000000000000000000000000000000000000000000000000000000000000000000000000000000000000000000000000000000000000000000000000000000000000000000000
310
00000000F0000000000000000000000000000000000000000000000000000000000000000000000000000000000000000000000000000000000000000000000000000000000000000000000000000000000000000000000000000000000000000000000000000000000000000000F000000000000000000000000000000000
310
00000000000000000000000000000000000000000000000000000000000000000000000000000000000000000000000000000000000000000000000000000000000000000000000000000000000000000000000000000000000000000000000000000000000000000000000000000000000000000000000000000000000000
310
000000000000F0000000000000000000000000000000000000000000000000000000000000000000000000000000000000000000000000000000000000000000000000000000000000000000000000000000000000000000000000000000000000000000000000000000000000000000F00000000000000000000000000000
310
00000000000000000000000000000000000000000000000000000000000000000000000000000000000000000000000000000000000000000000000000000000000000000000000000000000000000000000000000000000000000000000000000000000000000000000000000000000000000000000000000000000000000
310
0000000000000000F00000000000000000000000000000000000000000000000000000000000000000000000000000000000000000002D2D2D2D2D2D2D2D2D2D0000002D2D2D2D2D2D2D2D2D0000000000000000000000000000000000000000000000000000000000000000000000000000F0000000000000000000000000
310
00000000000000000000000000000000000000000000000000000000000000000000000000000000000000000000000000000000000000000000000000000000000000000000000000000000000000000000000000000000000000000000000000000000000000000000000000000000000000000000000000000000000000
310
00000000000000000000F000000000000000000000000000000000000000000000000000000000000000000000000000000000000000000000DCDC00DCDCDCDCDC00000000DCDC00DCDCDCDCDC000000000000000000000000000000000000000000000000000000000000000000000000000000F000000000000000000000
310
00000000000000000000000000000000000000000000000000000000000000000000000000000000000000000000000000000000000000000000000000000000000000000000000000000000000000000000000000000000000000000000000000000000000000000000000000000000000000000000000000000000000000
310
000000000000000000000000F0000000000000000000000000000000000000000000000000000000000000000000000000000000000000000000000000000000000000000000000000000000000000000000000000000000000000000000000000000000000000000000000000000000000000000000F00000000000000000
310
00000000000000000000000000000000000000000000000000000000000000000000000000000000000000000000000000000000000000000000000000000000000000000000000000000000000000000000000000000000000000000000000000000000000000000000000000000000000000000000000000000000000000
310
0000000000000000000000000000F000000000000000000000000000000000000000000000000000000000000000000000000000000000000000002D00000000000000000000002D000000000000000000000000000000000000000000000000000000000000000000000000000000000000000000000000F0000000000000
310
00000000000000000000000000000000000000000000000000000000000000000000000000000000000000000000000000000000000000000000000000000000000000000000000000000000000000000000000000000000000000000000000000000000000000000000000000000000000000000000000000000000000000
310
00000000000000000000000000000000F000000000000000000000000000000000000000000000000000000000000000000000000000000000000000DCDC2D00000000000000000000DCDC0000000000000000000000000000000000000000000000000000000000000000000000000000000000000000000000F000000000
310
00000000000000000000000000000000000000000000000000000000000000000000000000000000000000000000000000000000000000000000000000000000000000000000000000000000000000000000000000000000000000000000000000000000000000000000000000000000000000000000000000000000000000
310
000000000000000000000000000000000000F00000000000000000000000000000000000000000000000000000000000000000000000000000000000000000DCDC2D000000000000000000DCDCDC00000000000000000000000000000000000000000000000000000000000000000000000000000000000000000000F00000
310
00000000000000000000000000000000000000000000000000000000000000000000000000000000000000000000000000000000000000000000000000000000000000000000000000000000000000000000000000000000000000000000000000000000000000000000000000000000000000000000000000000000000000
310
0000000000000000000000000000000000000000F00000000000000000000000000000000000000000000000000000000000000000000000000000000000000000DCDCDC2D000000000000000000DCDC2D2D00BE000000000000000000000000000000000000000000000000000000000000000000000000000000000000F0
310
00000000000000000000000000000000000000000000000000000000000000000000000000000000000000000000000000000000000000000000000000000000000000000000000000000000000000000000000000000000000000000000000000000000000000000000000000000000000000000000000000000000000000
310
00000000000000000000000000000000000000000000F000000000000000000000000000000000000000000000000000000000000000000000000000000000000000000000DCDC2D282800000000000000DCDCDC2D282828000000000000000000000000000000000000000000000000000000000000000000000000000000
310
00F00000000000000000000000000000000000000000000000000000000000000000000000000000000000000000000000000000000000000000000000000000000000000000000000000000000000000000000000000000000000000000000000000000000000000000000000000000000000000000000000000000000000
310
000000000000000000000000000000000000000000000000F0000000000000000000000000000000000000000000000000000000000000000000000000000000000000000000002DBE2DBEBEDCDC2D000000000000BE2DBEBEBEBEDC0000000000000000000000000000000000000000000000000000000000000000000000
310
000000F0000000000000000000000000000000000000000000000000000000000000000000000000000000000000000000000000000000000000000000000000000000000000000000000000000000000000000000000000000000000000000000000000000000000000000000000000000000000000000000000000000000
310
0000000000000000000000000000000000000000000000000000F000000000000000000000002D2D2D2D2D2D2D2D2D2D2D2D2D2D2D2D2D2D2D2D2D2D2D2D2D2D2D2D2D2D2D000000002D2D2D282D2D2D2D00000000002D2828BE2D28DC2D00000000002D2D2D2D2D2D2D2D2D2D2D2D2D2D2D2D2D2D2D2D2D00000000000000
310
0000000000F000000000000000000000000000000000000000000000000000000000000000000000000000000000000000000000000000000000000000000000000000000000000000000000000000000000000000000000000000000000000000000000000000000000000000000000000000000000000000000000000000
310
00000000000000000000000000000000000000000000000000000000F000000000000000000000002D00000000000000000000000000DCDCDC000000000000000000000000002D000000002D2D2D28282D2D2D000000002D2D2D2D28282D2D2D00000000002D0000000000000000DCDCDC00000000000000002D0000000000
310
00000000000000F00000000000000000000000000000000000000000000000000000000000000000000000000000000000000000000000000000000000000000000000000000000000000000000000000000000000000000000000000000000000000000000000000000000000000000000000000000000000000000000000
310
000000000000000000000000000000000000000000000000000000000000F000000000000000000000002D00000000000000000000000000000000000000000000000000000000002D000000DCDC00002D2D00002D000000DCDC2D00002D2D00002D00000000002D000000000000000000000000000000000000002D000000
310
000000000000000000F0000000000000000000000000000000000000000000000000000000000000000000000000000000000000000000000000000000000000000000000000000000000000000000000000000000000000000000000000000000000000000000000000000000000000000000000000000000000000000000
310
0000000000000000000000000000000000000000000000000000000000000000F000000000000000000000002D002D2D2D2D2D2D2D2D2D2D2D2DDCDCDC2D2D2D2D2D2D2D2D2D2D2D2D002D0000000000002D2D2D2D0000000000DCDC2D00002D2D00002D00000000002D002D2D2D2D2D2D2DDCDCDC2D2D2D2D2D2D2D002D00
310
0000000000000000000000F000000000000000000000000000000000000000000000000000000000000000000000000000000000000000000000000000000000000000000000000000000000000000000000000000000000000000000000000000000000000000000000000000000000000000000000000000000000000000
310
00000000000000000000000000000000000000000000000000000000000000000000F000000000000000000000002D002D0000000000000000000000DCDCDC00000000000000000000002D002D0000000000000000DCDC0000000000000000002D2D2D2D000000000000002D002D000000000000DCDCDC0000000000002D00
310
2D000000000000000000000000F00000000000000000000000000000000000000000000000000000000000000000000000000000000000000000000000000000000000000000000000000000000000000000000000000000000000000000000000000000000000000000000000000000000000000000000000000000000000
310
000000000000000000000000000000000000000000000000000000000000000000000000F000000000000000000000002D002D2D2D2D2D2D2D2D2D2D000000000000000000000000000000002D002D000000000000000000000000000000000000000000DCDC000000000000002D002D000000000000000000000000000000
310
2D002D000000000000000000000000F0000000000000000000000000000000000000000000000000000000000000000000000000000000000000000000000000000000000000000000000000000000000000000000000000000000000000000000000000000000000000000000000000000000000000000000000000000000
310
0000000000000000000000000000000000000000000000000000000000000000000000000000F000000000000000000000002D002D000000DCDC0000002D000000000000000000000000000000002D002D0000000000000000000000000000000000000000000000000000000000002D002D00000000000000000000000000
310
00002D002D2D2D2D2D2D00000000000000F000000000000000000000000000000000000000000000000000000000000000000000000000000000000000000000000000000000000000000000000000000000000000000000000000000000000000000000000000000000000000000000000000000000000000000000000000
310
00000000000000000000000000000000000000000000000000000000000000000000000000000000F000000000000000000000002D002D00000000000000002D000000000000000000000000000000002D002D0000000000000000000000000000000000000000000000000000000000002D002D0000000000000000000000
310
000000002D002D00DCDCDCDC00000000000000F00000000000000000000000000000000000000000000000000000000000000000000000000000000000000000000000000000000000000000000000000000000000000000000000000000000000000000000000000000000000000000000000000000000000000000000000
310
000000000000000000000000000000000000000000000000000000000000000000000000000000000000F000000000000000000000002D002D00000000000000002D000000000000000000000000000000002D002D0000000000000000000000000000000000000000000000000000000000002D002D00000000000000BE00
310
0000000000002D2D2D00002D000000000000000000F0000000000000000000000000000000000000BE00000000000000000000000000000000000000000000000000BE000000000000000000000000000000000000000000000000000000000000000000000000000000000000000000000000000000000000000000000000
310
0000000000000000000000000000000000000000000000000000000000000000000000000000000000000000F000000000000000000000002D282828282828280000002D000000BE00000000000000282828282828282D000000000000000000000000000000000000002D2D2D2D2D2D2D2D2D2D2D2D282828282828282828
310
28282828282828282D282D2D2D2D000000000000000000F0000000000000000000000000000000002828BE282828282800000000000000BE000000000000002828282828BE28282800000000000000000000000000000000000000000000000000000000000000000000000000000000000000000000000000000000000000
310
00000000000000000000000000000000000000000000000000000000000000000000000000000000000000000000F000000000000000000000002800BE00002800282828282828282828282828282828282800280000BE002800000000000000000000000000000000000000002D002D00002D000000002800BE0000000000
310
0000BE00000000282828BE002800002D000000000000000000F0000000000000000000000000000000002800BE00002800282828282828282828282828282828282800280000BE0000280000000000000000000000000000000000000000000000000000000000000000000000000000000000000000000000000000000000
310
000000000000000000000000000000000000000000000000000000000000000000000000000000000000000000000000F000000000000000000000002800BE0000280028002828282800BE28280028282828002800280000BE002800000000000000000000000000000000000000002D002D00002D000000002800BE000000
310
00000000BE00000000282828BE002800002D000000000000000000F0000000000000000000000000000000002800BE0000280028BE2828BEBEBEBEBEBEBEBEBE282800BE00280000BE002828000000000000000000000000000000000000000000000000000000000000000000000000000000000000000000000000000000
310
0000000000000000000000000000000000000000000000000000000000000000000000000000000000000000000000000000F000000000000000000000002828282828282828282800282828282828282828000028282828282828282800000000000000000000000000000000000000002D002D00DC2D0000000028282828
310
28280000BE00BE0000002828282828282DDC2D2D000000000000000000F0000000000000000000000000000000002828BE28282828282D2DBE282828282828282828BE2D2D2D28282828BE28282800000000000000000000000000000000000000000000000000000000000000000000000000000000000000000000000000
310
00000000000000000000000000000000000000000000000000000000000000000000000000000000000000000000000000000000F000000000000000000000282800000000002828002828280000002828000028282800282800000000002828000000000000000000000000000000000000002D002D00DC2D000000000000
310
BE0028282828BE28280000BE282828BEBE0000DCDC2D000000000000000000F00000000000000000000000000000002828000000000028282D2D2828000000BE00000000282D2D2D28000000000000280000000000000000000000000000000000000000000000000000000000000000000000000000000000000000000000
310
000000000000000000000000000000000000000000000000000000000000000000000000000000000000000000000000000000000000F0000000000000000000002828282828282828282828002D000000BE00000000000028280028282828282828000000000000000000000000000000000000002D002D00DC2D00000000
310
0000000028282828BE282828000028282800000000DCDC2D000000000000000000F000000000000000000000000000000028282828282828BEBE28BE0000000000BE0000000000BE2828BE28282828282828280000000000000000000000000000000000000000000000000000000000000000000000000000000000000000
310
0000000000000000000000000000000000000000000000000000000000000000000000000000000000000000000000000000000000000000F0000000000000000000002800000000282828280000002D000000BE00000000000000282800280000000028280000000000000000000000000000000000002D002D00002D0000
310
00000000000028282800BE002828280028282800000000000000000000000000000000F0000000000000000000000000000028280000000028BE282800000000000000BE000000000000002828BE28000000002828000000000000000000000000000000000000000000000000000000000000000000000000000000000000
310
00000000000000000000000000000000000000000000000000000000000000000000000000000000000000000000000000000000000000000000F0000000000000000000002800000028280028000000002D0000282828000000000000002828282800000028282828282828000000000000000000000000002DDCDC00002D
310
0000000000002828282800282828BE28280028282800000000000000000000000000000000F00000000000000000002828282828282800000000BEBE2800000000000000282828000000000000002828BE28000000282800000000000000000000000000000000000000000000000000000000000000000000000000000000
310
000000000000000000000000000000000000000000000000000000000000000000000000000000000000000000000000000000000000000000000000F0000000000000000000BE28BEBEBE28BE28BEBEBEBEBEBEBEBE28BE2828BEBEBEBEBEBEBE28BE28BEBEBE2828BEBEBEBE282D2D2D2D2DDC2D0000000000002DDCDC00
310
002D2D2D2D2D2D2D28282828BE28BE28BE28280028282800000000000000000000000000000000F000000000000000000028BEBEBEBE2828BEBEBE28BE28BEBEBEBEBEBEBEBE28BEBE28BEBEBEBEBEBEBE2828BE28BEBE28280000000000000000000000000000000000000000000000000000000000000000000000000000
310
0000000000000000000000000000000000000000000000000000000000000000000000000000000000000000000000000000000000000000000000000000F0000000000000000000002800002828282800000000002D00BE28BE2828000000000000000028002800002828282828282800002D0000DC000000000000002DDC
310
DC000000000000000000BEBEBE28282828282828280028282800000000000000000000000000000000F000000000000000000028282828282828000028BE2828000000000000000028BE0028000000000000000028BE2800002828000000000000000000000000000000000000000000000000000000000000000000000000
310
00000000000000000000000000000000000000000000000000000000000000000000000000000000000000000000000000000000000000000000000000000000F000000000000000000000280000280028000028282828BE28282828282828282828282800002828280000282D000000002D00002D00000000000000000000
310
2D002D000000000000000000282828282828BE282828000028282800000000000000000000000000000000F000000000000000000000000000000028000028BE280000002828282828282828282828282828280000002828BE0000282800000000000000000000000000000000000000000000000000000000000000000000
310
000000000000000000000000000000000000000000000000000000000000000000000000000000000000000000000000000000000000000000000000000000000000F0000000000000000000002D2828282828282828000000BE000000BE000000000000000028282828282828282D000000002D00002D0000000000000000
310
00002D002D000000000000000000002828282828BE282828000028282800000000000000000000000000000000F0000000000000000000000000000000282828BE282828282800000000000000BE000000BE0000002828282828BE282828280000000000000000000000000000000000000000000000000000000000000000
310
0000000000000000000000000000000000000000000000000000000000000000000000000000000000000000000000000000000000000000000000000000000000000000F0000000000000000000002D282800280000000000282828282828BE0000000000BE000000000028002828282D000000002D00DCDC000000000000
310
000000002D002D000000000000000000002828280028BE28BE00000028282828000000000000000000000000000000F0000000000000000000000000000000282828BE280000000000000000000000BE282828BE2828280000000028BE28002800000000000000000000000000000000000000000000000000000000000000
310
00000000000000000000000000000000000000000000000000000000000000000000000000000000000000000000000000000000000000000000000000000000000000000000F0000000000000000000002D2828002800000000282828BE28282828000000000028280000000028002828002D2D2D2D2D2D00DCDC00000000
310
0000000000002D002D0000000000000000000028282800002D00BE00000028282828000000000000000000000000000000F0000000000000000000000000000000002828BE280000000028BE280000000028282828BE2828282800000028BE2800280000000000000000000000000000000000000000000000000000000000
310
000000000000000000000000000000000000000000000000000000000000000000000000000000000000000000000000000000000000000000000000000000000000000000000000F0000000000000000000002D2828002800000028280000BE00002828280000282828282828000028282828002D00DCDC002D00002D0000
310
000000000000DCDC2D002D0000000000000000000028282800002D00BE00000028282828282828282828282828280000000000F00000000000000000000000000000000028282D280000282828BE2828000000282800282828002828000000002D2D0028000000000000000000000000000000000000000000000000000000
310
0000000000000000000000000000000000000000000000000000000000000000000000000000000000000000000000000000000000000000000000000000000000000000000000000000F0000000000000000000002D2828BE28BEBEBE2828BEBEBEBEBEBE2828BE282828BEBE282828BEBE282828BE0000DCDC002D00002D
310
0000000000000000DCDC2D002D000000000000000000BE28BEBEBEBE2DBEBEBEBEBEBEBE2828280000000000000000280000000000F0000000000000000000000000000000BE282D2D2DBEBE282828BE282828BE2828282828BE2828282828BEBEBE2D2DBE2800000000000000000000000000000000000000000000000000
310
00000000000000000000000000000000000000000000000000000000000000000000000000000000000000000000000000000000000000000000000000000000000000000000000000000000F0000000000000000000002D282800280000BE2828BEBE2DBEBEBE2828BE282800BE0000282800282828280000000000002D00
310
002D0000000000000000DCDC2D002D2D2D2D2D2D2D2D2D2D2D282828BEBE2DBEBEBEBEBE2828282828BEBEBEBEBEBEBEBE282D2D2D0000F000000000000000000000000000000000282D2D280028280000BE002828002828BE28BEBEBE28BE28280000002D2D00280000000000000000000000000000000000000000000000
310
000000000000000000000000000000000000000000000000000000000000000000000000000000000000000000000000000000000000000000000000000000000000000000000000000000000000F0000000000000000000002D28280028000000282800002D0000002828BEBEBEBEBEBEBEBEBEBE2D2D2D2D2D2D2D2D2D2D
310
2D2D2D2D2D00000000000000BE002D002D000000000000000000BE28BEBEBEBE2DBEBEBEBEBEBEBE28282800000000000000002800DCDC0000F0000000000000000000000000000000002828BE28BEBEBEBEBEBEBEBEBEBE2828002828282828002828000028BE282800000000000000000000000000000000000000000000
310
0000000000000000000000000000000000000000000000000000000000000000000000000000000000000000000000000000000000000000000000000000000000000000000000000000000000000000F0000000000000000000002D28280028000000282800002D0000282828002828002D00002828002800282800000000
310
00002D000000000000000000000000002D002D0000000000000000000028282800002D00BE000000282828282828282828282828282800DCDC0000F0000000000000000000000000000000002828BE280028280000BE002828280028280028282800282800000028BE28280000000000000000000000000000000000000000
310
00000000000000000000000000000000000000000000000000000000000000000000000000000000000000000000000000000000000000000000000000000000000000000000000000000000000000000000F0000000000000000000002D28002828000000282828282D0028282800002828282D0028282800280028280000
310
000000002D000000000000000000000000002D002D0000000000000000000028282800002D00BE000000282828282D00000000000000002D0000000000F0000000000000000000000000000000002800BE282800282800BE282828000028282800BE0028282800000028BE2828000000000000000000000000000000000000
310
000000000000000000000000000000000000000000000000000000000000000000000000000000000000000000000000000000000000000000000000000000000000000000000000000000000000000000000000F0000000000000000000002D28002800280000002828282D2D2D2D2D2D0000282828282828002828280028
310
0000000000002D000000000000000000000000002D002D0000000000000000000028282800002D00BE000000282828282D00000000000000002D0000000000F000000000000000000000000000000000280028BE2800282828BE2828000000BE282828BE2828280000002828BE282800000000000000000000000000000000
310
0000000000000000000000000000000000000000000000000000000000000000000000000000000000000000000000000000000000000000000000000000000000000000000000000000000000000000000000000000F0000000000000000000002D280028282828280000002828282800BEDC2D2D2D2D2D28282828280028
310
00280000000000002D000000000000000000000000002D002D0000000000000000000028282800002D00BE000000282828282D00000000000000002D0000000000F000000000000000000000000000000000280028BE2828280028BE2800000000BE000028BE28000000282828BE2800280000000000000000000000000000
310
00000000000000000000000000000000000000000000000000000000000000000000000000000000000000000000000000000000000000000000000000000000000000000000000000000000000000000000000000000000F0000000000000000000002D2800002800280028282828BE28282828DCDCDC28282D2828282828
310
280000280000000000002D000000000000000000000000002DDCDC00000000000000000000282828002D2D2DDCDCDCDC282828002D2D2D2DDCDC2D2D2D2D0000000000F00000000000000000000000000000000028000028BE28002828BE282828282828282828BE28282828282828BE280028000000000000000000000000
310
000000000000000000000000000000000000000000000000000000000000000000000000000000000000000000000000000000000000000000000000000000000000000000000000000000000000000000000000000000000000F0000000000000000000002D28000028282828000000002D0028282828282800002D000028
310
2828280000280000000000002D000000000000000000000000002DDCDC000000000000000000002D282800002D00DCDCDCDC2828280000000000DCDC0000002D0000000000F00000000000000000000000000000000028000028BEBE280000000000000000BE00000000000000002828BE2800002800000000000000000000
310
0000000000000000000000000000000000000000000000000000000000000000000000000000000000000000000000000000000000000000000000000000000000000000000000000000000000000000000000000000000000000000F0000000000000000000002D28000000282828280000002D2828282828282800002D00
310
28280028000000280000000000002D000000000000000000000000002DDCDC000000000000000000002D282800002D00BE000000282828000000000000000000002D0000000000F0000000000000000000000000000000002800000028BE282800000000000000BE000000000000002828BE28000000280000000000000000
310
00000000000000000000000000000000000000000000000000000000000000000000000000000000000000000000000000000000000000000000000000000000000000000000000000000000000000000000000000000000000000000000F0000000000000000000002D00280000002828282800002D282828282828280000
310
2D2828002800000000280000000000002D00000000000000000000000000BEBE2D000000000000000000002D282800002D00BE000000282828000000000000000000002D0000000000F000000000000000000000000000000000002800000028BE2828BE0000000000BE0000000000BE2828BE280000000028000000000000
310
000000000000000000000000000000000000000000000000000000000000000000000000000000000000000000000000000000000000000000000000000000000000000000000000000000000000000000000000000000000000000000000000F0000000000000000000002D00280000000028280028282D28282828282828
310
00282D2828280000000000280000000000002D000000000000000000000000002D002D000000000000000000002D282800002D00BE000000282828000000000000000000002D0000000000F00000000000000000000000000000000000280000000028BE2D2D2800000000BE00000000282D2D2D2800000000002800000000
310
0000000000000000000000000000000000000000000000000000000000000000000000000000000000000000000000000000000000000000000000000000000000000000000000000000000000000000000000000000000000000000000000000000F0000000000000000000002D00280000000000282800002D2828282828
310
282828282D2828000000000028000000000000002D000000000000000000000000002D002D000000000000000000002D282800002D00BE0000BEBE2828BE0000000000000000002D0000000000F00000000000000000000000000000000000280000000000282D2DBE282828282828282828282D2D2D000000000028000000
310
00000000000000000000000000000000000000000000000000000000000000000000000000000000000000000000000000000000000000000000000000000000000000000000000000000000000000000000000000000000000000000000000000000000F0000000000000000000002D00282828000000000028282D000000
310
BE00000028282D0000000000282828000000000000002D000000000000000000000000002D002D000000000000000000002D282800002D00BE000000282800000000000000000000002D0000000000F0000000000000000000000000000000000028282800000000BE2828BEBEBEBEBEBEBEBEBEBE2828BE00000028282800
310
000000000000000000000000000000000000000000000000000000000000000000000000000000000000000000000000000000000000000000000000000000000000000000000000000000000000000000000000000000000000000000000000000000000000F0000000000000000000002D00000000282828282828282D28
310
28282828282828282D2828282828000000000000000000002D000000000000000000000000002D002D000000000000000000002D28282828282828282828282800000000000000000000002D0000000000F0000000000000000000000000000000000000000028282828282828282828282828282828282828282828280000
310
0000000000000000000000000000000000000000000000000000000000000000000000000000000000000000000000000000000000000000000000000000000000000000000000000000000000000000000000000000000000000000000000000000000000000000F0000000000000000000002D0000000000000000000000
310
2D0028282828280000002D0000000000000000000000000000002D0000000000000000000000002D2D2D2D2D2D2D2D2D2D2D2D2D2D2D2D2D2D2D282828280000000000000000000000000000002D0000000000F000000000000000000000000000000000000000000000000000000000002828282828000000000000000000
310
00000000000000000000000000000000000000000000000000000000000000000000000000000000000000000000000000000000000000000000000000000000000000000000000000000000000000000000000000000000000000000000000000000000000000000000F0000000000000000000002D000000000000000000
310
00002D000000BE00000000002D0000000000000000000000000000002D00000000000000000000000000000000000000000000000000002D000000002D00BE000000000000000000000000000000002D0000000000F000000000000000000000000000000000000000000000000000000000000000BE000000000000000000
310
000000000000000000000000000000000000000000000000000000000000000000000000000000000000000000000000000000000000000000000000000000000000000000000000000000000000000000000000000000000000000000000000000000000000000000000000F0000000000000000000002D00000000000000
310
000000002D0000000000000000002D0000000000000000000000000000002D00000000000000000000000000000000000000000000000000002D000000002D0000000000000000000000000000000000002D0000000000F0000000000000000000000000000000000000000000000000000000000000000000000000000000
310
0000000000000000000000000000000000000000000000000000000000000000000000000000000000000000000000000000000000000000000000000000000000000000000000000000000000000000000000000000000000000000000000000000000000000000000000000000F0000000000000000000002D0000000000
310
0000000000002D0000000000000000002D0000000000000000000000000000002D00000000000000000000000000000000000000000000000000002D000000002D0000000000000000000000000000000000002D0000000000F000000000000000000000000000000000000000000000000000000000000000000000000000
310
00000000000000000000000000000000000000000000000000000000000000000000000000000000000000000000000000000000000000000000000000000000000000000000000000000000000000000000000000000000000000000000000000000000000000000000000000000000F0000000000000000000002D2D2D2D
310
DCDCDCDCDC2D2D2D2D2D2D2D2D2D2D2D2D2D2D2D2D2D2D2D2DDCDCDC2D2D2D2D2D2D2D00000000000000000000000000000000000000000000000000002D2D2D2D2D2D2D2D2D2D2D2D2DDCDCDC2D2D2D2D2D2D2D2D2D0000000000F00000000000000000000000000000000000000000000000000000000000000000000000
310
000000000000000000000000000000000000000000000000000000000000000000000000000000000000000000000000000000000000000000000000000000000000000000000000000000000000000000000000000000000000000000000000000000000000000000000000000000000000F0000000000000000000002D00
310
0000DCDCDCDCDC00000000000000DCDCDCDC000000000000000000DCDCDC0000000000002D00000000000000000000000000000000000000000000000000002D00DCBEBE0000000000000000DCDCDC00000000000000002D0000000000F0000000000000000000000000000000000000000000000000000000000000000000
310
0000000000000000000000000000000000000000000000000000000000000000000000000000000000000000000000000000000000000000000000000000000000000000000000000000000000000000000000000000000000000000000000000000000000000000000000000000000000000000F000000000000000000000
310
2D2D2D2D2D2D2D2D2D2D2D2D2D2D2D2D2D2D2D2D2D2D2D2D2D2D2D2D2D2D2D2D2D2D2D2D2D2D2D00000000000000000000000000000000000000000000000000002D2D2D2DBE2D2D2D2D2D2D2D2D2D2D2D2D2D2D2D2D2D2D2D2D0000000000F000000000000000000000000000000000000000000000000000000000000000
310
00000000000000000000000000000000000000000000000000000000000000000000000000000000000000000000000000000000000000000000000000000000000000000000000000000000000000000000000000000000000000000000000000000000000000000000000000000000000000000000F00000000000000000
310
00002D0000000000000000000000000000000000DCDCDC000000000000000000000000000000002D2D00000000000000000000000000000000000000000000000000002D00000000000000000000DCDCDC0000000000000000002D2D0000000000F00000000000000000000000000000000000000000000000000000000000
310
000000000000000000000000000000000000000000000000000000000000000000000000000000000000000000000000000000000000000000000000000000000000000000000000000000000000000000000000000000000000000000000000000000000000000000000000000000000000000000000000F0000000000000
310
00000000000000000000000000000000000000000000DCDCDC00000000000000000000000000000000000000000000000000000000000000000000000000000000000000000000000000000000000000DCDCBEBE000000000000000000000000000000F0000000000000000000000000000000000000000000000000000000
310
0000000000000000000000000000000000000000000000000000000000000000000000000000000000000000000000000000000000000000000000000000000000000000000000000000000000000000000000000000000000000000000000000000000000000000000000000000000000000000000000000000F000000000
310
0000000000000000000000000000000000000000000000000000000000000000000000000000000000000000000000000000000000000000000000000000000000000000000000000000000000000000000000000000000000000000000000000000000000F000000000000000000000000000000000000000000000000000
310
00000000000000000000000000000000000000000000000000000000000000000000000000000000000000000000000000000000000000000000000000000000000000000000000000000000000000000000000000000000000000000000000000000000000000000000000000000000000000000000000000000000F00000
310
00000000000000000000000000000000000000000000000000000000000000000000000000000000000000000000000000000000000000000000000000000000000000000000000000000000000000000000000000000000000000000000000000000000000000F00000000000000000000000000000000000000000000000
310
000000000000000000000000000000000000000000000000000000000000000000000000000000000000000000000000000000000000000000000000000000000000000000000000000000000000000000000000000000000000000000000000000000000000000000000000000000000000000000000000000000000000F0
310
000000000000000000000000000000000000000000000000000000000000000000000000000000000000000000000000000000000000000000000000000000000000000000000000000000000000000000000000000000000000000000000000000000000000000000F0000000000000000000000000000000000000000000
310
00000000000000000000000000000000000000000000000000000000000000000000000000000000000000000000000000000000000000000000000000000000000000000000000000000000000000000000000000000000000000000000000000000000000000000000000000000000000000000000000000000000000000
310
00F0000000000000000000000000000000000000000000000000000000000000000000000000000000000000000000000000000000000000000000000000000000000000000000000000000000000000000000000000000000000000000000000000000000000000000000F000000000000000000000000000000000000000
310
00000000000000000000000000000000000000000000000000000000000000000000000000000000000000000000000000000000000000000000000000000000000000000000000000000000000000000000000000000000000000000000000000000000000000000000000000000000000000000000000000000000000000
310
000000F0F0F0F0F0F0F0F0F0F0F0F0F0F0F0F0F0F0F0F0F0F0F0F0F0F0F0F0F0F0F0F0F0F0F0F0F0F0F0F0F0F0F0F0F0F0F0F0F0F0F0F0F0F0F0F0F0F0F0F0F0F0F0F0F0F0F0F0F0F0F0F0F0F0F0F0F0F0F0F0F0F0F0F0F0F0F0F0F0F0F0F0F0F0F0F0F0F0F0F0F0F0F0F0F0F0F00000000000000000000000000000000000
310
00000000000000000000000000000000000000000000000000000000000000000000000000000000000000000000000000000000000000000000000000000000000000000000000000000000000000000000000000000000000000000000000000000000000000000000000000000000000000000000000000000000000000
310
00000000000000000000000000000000000000000000000000000000000000000000000000000000000000000000000000000000000000000000000000000000000000000000000000000000000000000000000000000000000000000000000000000000000000000000000000000000000000000000000000000000000000
310
00000000000000000000000000000000000000000000000000000000000000000000000000000000000000000000000000000000000000000000000000000000000000000000000000000000000000000000000000000000000000000000000000000000000000000000000000000000000000000000000000000000000000
310
00000000000000000000000000000000000000000000000000000000000000000000000000000000000000000000000000000000000000000000000000000000000000000000000000000000000000000000000000000000000000000000000000000000000000000000000000000000000000000000000000000000000000
310
00000000000000000000000000000000000000000000000000000000000000000000000000000000000000000000000000000000000000000000000000000000000000000000000000000000000000000000000000000000000000000000000000000000000000000000000000000000000000000000000000000000000000
310
00000000000000000000000000000000000000000000000000000000000000000000000000000000000000000000000000000000000000000000000000000000000000000000000000000000000000000000000000000000000000000000000000000000000000000000000000000000000000000000000000000000000000
310
00000000000000000000000000000000000000000000000000000000000000000000000000000000000000000000000000000000000000000000000000000000000000000000000000000000000000000000000000000000000000000000000000000000000000000000000000000000000000000000000000000000000000
310
00000000000000000000000000000000000000000000002828BE28282800000000000000000000000000000000000000282828BE282800000000000000000000000000000000000000000000000000000000000000000000000000000000000000000000000000000000000000000000000000000000000000000000000000
310
00000000000000000000000000000000000000000000000000000000000000000000000000000000000000000000000000000000000000000000000000000000000000000000000000000000000000000000000000000000000000000000000000000000000000000000000000000000000000000000000000000000000000
310
00000000000000000000000000000000000000000000000000282828280000280000000000000000000000000000000000002800282828280000000000000000000000000000000000000000000000000000000000000000000000000000000000000000000000000000000000000000000000000000000000000000000000
310
00000000000000000000000000000000000000000000000000000000000000000000000000000000000000000000000000000000000000000000000000000000000000000000000000000000000000000000000000000000000000000000000000000000000000000000000000000000000000000000000000000000000000
310
000000000000000000000000000000000000000000000000000000BEBEBEBEBE002800000000BE000028282800000000BE00002800BE28BE2828000000000000000000000000000000000000000000000000000000000000000000000000000000000000000000000000000000000000000000000000000000000000000000
310
00000000000000000000000000000000000000000000000000000000000000000000000000000000000000000000000000000000000000000000000000000000000000000000000000000000000000000000000000000000000000000000000000000000000000000000000000000000000000000000000000000000000000
310
00000000000000000000000000000000000000000000000000000000002800282800000028282828BE2828282828282828282828282828000028282800000000000000000000000000000000000000000000000000000000000000000000000000000000000000000000000000000000000000000000000000000000000000
310
00000000000000000000000000000000000000000000000000000000000000000000000000000000000000000000000000000000000000000000000000000000000000000000000000000000000000000000000000000000000000000000000000000000000000000000000000000000000000000000000000000000000000
310
000000000000000000000000000000000000000000000000000000000000282828282828282828282828BE282828282828282828282828282828282828282800000000000000000000000000000000000000000000000000000000000000000000000000000000000000000000000000000000000000000000000000000000
310
00000000000000000000000000000000000000000000000000000000000000000000000000000000000000000000000000000000000000000000000000000000000000000000000000000000000000000000000000000000000000000000000000000000000000000000000000000000000000000000000000000000000000
310
0000000000000000000000000000000000000000000000000000000000000000282828282828282828282828BE282828BE2828282828BE282828282828282828280000000000000000000000000000000000000000000000000000000000000000000000000000000000000000000000000000000000000000000000000000
310
00000000000000000000000000000000000000000000000000000000000000000000000000000000000000000000000000000000000000000000000000000000000000000000000000000000000000000000000000000000000000000000000000000000000000000000000000000000000000000000000000000000000000
310
00000000000000000000000000000000000000000000000000000000000000000000282800000000000000000000BE000000BE0000000000BE00000000000000002828000000000000000000000000000000000000000000000000000000000000000000000000000000000000000000000000000000000000000000000000
310
00000000000000000000000000000000000000000000000000000000000000000000000000000000000000000000000000000000000000000000000000000000000000000000000000000000000000000000000000000000000000000000000000000000000000000000000000000000000000000000000000000000000000
310
000000000000000000000000000000000000000000000000000000000000000000000000282800000000000000000000BE000000BE0000000000BE0000000000000000282828282828282800000000000000000000000000000000000000000000000000000000000000000000000000000000000000000000000000000000
310
00000000000000000000000000000000000000000000000000000000000000000000000000000000000000000000000000000000000000000000000000000000000000000000000000000000000000000000000000000000000000000000000000000000000000000000000000000000000000000000000000000000000000
310
00000000000000000000000000000000000000000000000000000000000000000000000000BE2828BEBEBEBEBEBEBEBEBEBEBEBE2828282828BEBEBEBEBEBEBEBEBEBEBEBE2828282828282828BE00000000000000000000000000000000000000000000000000000000000000000000000000000000000000000000000000
310
00000000000000000000000000000000000000000000000000000000000000000000000000000000000000000000000000000000000000000000000000000000000000000000000000000000000000000000000000000000000000000000000000000000000000000000000000000000000000000000000000000000000000
310
00000000000000000000000000000000000000000000000000000000000000000000000000000000282800000000000000000000BE002828282828000000BE00000000000000002828282828282828000000000000000000000000000000000000000000000000000000000000000000000000000000000000000000000000
310
00000000000000000000000000000000000000000000000000000000000000000000000000000000000000000000000000000000000000000000000000000000000000000000000000000000000000000000000000000000000000000000000000000000000000000000000000000000000000000000000000000000000000
310
0000000000000000000000000000000000000000000000000000000000000000000000000000000000002828BEBEBEBEBEBEBEBEBEBEBEBE2828BE2828BEBEBEBEBEBEBEBEBEBEBEBE282828000000000000000000000000000000000000000000000000000000000000000000000000000000000000000000000000000000
310
00000000000000000000000000000000000000000000000000000000000000000000000000000000000000000000000000000000000000000000000000000000000000000000000000000000000000000000000000000000000000000000000000000000000000000000000000000000000000000000000000000000000000
310
0000000000000000000000000000000000000000000000000000000000000000000000000000000000000000282800000000000000000000BE002828282828000000BE000000000000000028280000000000000000000000000000000000000000000000000000000000000000000000000000000000000000000000000000
310
00000000000000000000000000000000000000000000000000000000000000000000000000000000000000000000000000000000000000000000000000000000000000000000000000000000000000000000000000000000000000000000000000000000000000000000000000000000000000000000000000000000000000
310
00000000000000000000000000000000000000000000000000000000000000000000000000000000000000000000282800000000000000000000BE002828282828000000BE00000000000000002828000000000000000000000000000000000000000000000000000000000000000000000000000000000000000000000000
310
00000000000000000000000000000000000000000000000000000000000000000000000000000000000000000000000000000000000000000000000000000000000000000000000000000000000000000000000000000000000000000000000000000000000000000000000000000000000000000000000000000000000000
310
000000000000000000000000000000000000000000000000000000000000000000000000000000000000000000000000002800BE0000000000BE0000BE000000BE0000000000BEBE0000000000BE00280000000000000000000000000000000000000000000000000000000000000000000000000000000000000000000000
310
00000000000000000000000000000000000000000000000000000000000000000000000000000000000000000000000000000000000000000000000000000000000000000000000000000000000000000000000000000000000000000000000000000000000000000000000000000000000000000000000000000000000000
310
0000000000000000000000000000000000000000000000000000000000000000000000000000000000000000000000000000002828BE2828282828BE2828BE28282828282828282828BE2828282828BE2828000000000000000000000000000000000000000000000000000000000000000000000000000000000000000000
310
00000000000000000000000000000000000000000000000000000000000000000000000000000000000000000000000000000000000000000000000000000000000000000000000000000000000000000000000000000000000000000000000000000000000000000000000000000000000000000000000000000000000000
310
00000000000000000000000000000000000000000000000000000000000000000000000000000000000000000000000000000000002828BE2828282828BE2828BE2828282828282828282828282828282828282800000000000000000000000000000000000000000000000000000000000000000000000000000000000000
310
00000000000000000000000000000000000000000000000000000000000000000000000000000000000000000000000000000000000000000000000000000000000000000000000000000000000000000000000000000000000000000000000000000000000000000000000000000000000000000000000000000000000000
310
000000000000000000000000000000000000000000000000000000000000000000000000000000000000000000000000000000000000002828BE2828282828BE282828282828282828282828282828282828282828280000000000000000000000000000000000000000000000000000000000000000000000000000000000
310
00000000000000000000000000000000000000000000000000000000000000000000000000000000000000000000000000000000000000000000000000000000000000000000000000000000000000000000000000000000000000000000000000000000000000000000000000000000000000000000000000000000000000
310
0000000000000000000000000000000000000000000000000000000000000000000000000000000000000000000000000000000000000000002828BE2800002828BE2828BE28282828280028282828BE2828280028BE2828000000000000000000000000000000000000000000000000000000000000000000000000000000
310
00000000000000000000000000000000000000000000000000000000000000000000000000000000000000000000000000000000000000000000000000000000000000000000000000000000000000000000000000000000000000000000000000000000000000000000000000000000000000000000000000000000000000
310
0000000000000000000000000000000000000000000000000000000000000000000000000000000000000000000000000000000000000000000000BEBEBEBEBE002800002828282828000000000000000000000028BE282828BE00000000000000000000000000000000000000000000000000000000000000000000000000
310
00000000000000000000000000000000000000000000000000000000000000000000000000000000000000000000000000000000000000000000000000000000000000000000000000000000000000000000000000000000000000000000000000000000000000000000000000000000000000000000000000000000000000
310
00000000000000000000000000000000000000000000000000000000000000000000000000000000000000000000000000000000000000000000000000280028280028000000002828282800000000000000000000002800002800280000000000000000000000000000000000000000000000000000000000000000000000
310
00000000000000000000000000000000000000000000000000000000000000000000000000000000000000000000000000000000000000000000000000000000000000000000000000000000000000000000000000000000000000000000000000000000000000000000000000000000000000000000000000000000000000
310
00000000000000000000000000000000000000000000000000000000000000000000000000000000000000000000000000000000000000000000000000000028282828282800000000282828280000000000000000000000282828282828000000000000000000000000000000000000000000000000000000000000000000
310
00000000000000000000000000000000000000000000000000000000000000000000000000000000000000000000000000000000000000000000000000000000000000000000000000000000000000000000000000000000000000000000000000000000000000000000000000000000000000000000000000000000000000
310
00000000000000000000000000000000000000000000000000000000000000000000000000000000000000000000000000000000000000000000000000000000000000000000000000000028282828000000000000000000000000000000000000000000000000000000000000000000000000000000000000000000000000
310
00000000000000000000000000000000000000000000000000000000000000000000000000000000000000000000000000000000000000000000000000000000000000000000000000000000000000000000000000000000000000000000000000000000000000000000000000000000000000000000000000000000000000
310
00000000000000000000000000000000000000000000000000000000000000000000000000000000000000000000000000000000000000000000000000000000000000000000000000000000002828282800000000000000000000000000000000000000000000000000000000000000000000000000000000000000000000
310
00000000000000000000000000000000000000000000000000000000000000000000000000000000000000000000000000000000000000000000000000000000000000000000000000000000000000000000000000000000000000000000000000000000000000000000000000000000000000000000000000000000000000
310
00000000000000000000000000000000000000000000000000000000000000000000000000000000000000000000000000000000000000000000000000000000000000000000000000000000000000282828280000000000000000000000000000000000000000000000000000000000000000000000000000000000000000
310
00000000000000000000000000000000000000000000000000000000000000000000000000000000000000000000000000000000000000000000000000000000000000000000000000000000000000000000000000000000000000000000000000000000000000000000000000000000000000000000000000000000000000
310
00000000000000000000000000000000000000000000000000000000000000000000000000000000000000000000000000000000000000000000000000000000000000000000000000000000000000000028282828000000000000000000000000000000000000000000000000000000000000000000000000000000000000
310
00000000000000000000000000000000000000000000000000000000000000000000000000000000000000000000000000000000000000000000000000000000000000000000000000000000000000000000000000000000000000000000000000000000000000000000000000000000000000000000000000000000000000
310
00000000000000000000000000000000000000000000000000000000000000000000000000000000000000000000000000000000000000000000000000000000000000000000000000000000000000000000002828282800000000000000000000000000000000000000000000000000000000000000000000000000000000
310
00000000000000000000000000000000000000000000000000000000000000000000000000000000000000000000000000000000000000000000000000000000000000000000000000000000000000000000000000000000000000000000000000000000000000000000000000000000000000000000000000000000000000
310
00000000000000000000000000000000000000000000000000000000000000000000000000000000000000000000000000000000000000000000000000000000000000000000000000000000000000000000000000282828280000000000000000000000000000000000000000000000000000000000000000000000000000
310
00000000000000000000000000000000000000000000000000000000000000000000000000000000000000000000000000000000000000000000000000000000000000000000000000000000000000000000000000000000000000000000000000000000000000000000000000000000000000000000000000000000000000
310
00000000000000000000000000000000000000000000000000000000000000000000000000000000000000000000000000000000000000000000000000000000000000000000000000000000000000000000000000000028282828000000000000000000000000000000000000000000000000000000000000000000000000
310
00000000000000000000000000000000000000000000000000000000000000000000000000000000000000000000000000000000000000000000000000000000000000000000000000000000000000000000000000000000000000000000000000000000000000000000000000000000000000000000000000000000000000
310
000000000000000000000000000000000000000000000000000000000000000000000000000000000000000000000000000000000000000000000000000000000000000000000000000000000000000000000000000000000000BE000000000000000000000000000000000000000000000000000000000000000000000000
310
00000000000000000000000000000000000000000000000000000000000000000000000000000000000000000000000000000000000000000000000000000000000000000000000000000000000000000000000000000000000000000000000000000000000000000000000000000000000000000000000000000000000000
310
00000000000000000000000000000000000000000000000000000000000000000000000000000000000000000000000000000000000000000000000000000000000000000000000000000000000000000000000000000000000000000000000000000000000000000000000000000000000000000000000000000000000000
310
00000000000000000000000000000000000000000000000000000000000000000000000000000000000000000000000000000000000000000000000000000000000000000000000000000000000000000000000000000000000000000000000000000000000000000000000000000000000000000000000000000000000000
310
00000000000000000000000000000000000000000000000000000000000000000000000000000000000000000000000000000000000000000000000000000000000000000000000000000000000000000000000000000000000000000000000000000000000000000000000000000000000000000000000000000000000000
310
00000000000000000000000000000000000000000000000000000000000000000000000000000000000000000000000000000000000000000000000000000000000000000000000000000000000000000000000000000000000000000000000000000000000000000000000000000000000000000000000000000000000000
310
00000000000000000000000000000000000000000000000000000000000000000000000000000000000000000000000000000000000000000000000000000000000000000000000000000000000000000000000000000000000000000000000000000000000000000000000000000000000000000000000000000000000000
310
00000000000000000000000000000000000000000000000000000000000000000000000000000000000000000000000000000000000000000000000000000000000000000000000000000000000000000000000000000000000000000000000000000000000000000000000000000000000000000000000000000000000000
310
00000000000000000000000000000000000000000000000000000000000000000000000000000000000000000000000000000000000000000000000000000000000000000000000000000000000000000000000000000000000000000000000000000000000000000000000000000000000000000000000000000000000000
310
00000000000000000000000000000000000000000000000000000000000000000000000000000000000000000000000000000000000000000000000000000000000000000000000000000000000000000000000000000000000000000000000000000000000000000000000000000000000000000000000000000000000000
310
00000000000000000000000000000000000000000000000000000000000000000000000000000000000000000000000000000000000000000000000000000000000000000000000000000000000000000000000000000000000000000000000000000000000000000000000000000000000000000000000000000000000000
310
00000000000000000000000000000000000000000000000000000000000000000000000000000000000000000000000000000000000000000000000000000000000000000000000000000000000000000000000000000000000000000000000000000000000000000000000000000000000000000000000000000000000000
310
00000000000000000000000000000000000000000000000000000000000000000000000000000000000000000000000000000000000000000000000000000000000000000000000000000000000000000000000000000000000000000000000000000000000000000000000000000000000000000000000000000000000000
310
00000000000000000000000000000000000000000000000000000000000000000000000000000000000000000000000000000000000000000000000000000000000000000000000000000000000000000000000000000000000000000000000000000000000000000000000000000000000000000000000000000000000000
310
00000000000000000000000000000000000000000000000000000000000000000000000000000000000000000000000000000000000000000000000000000000000000000000000000000000000000000000000000000000000000000000000000000000000000000000000000000000000000000000000000000000000000
310
00000000000000000000000000000000000000000000000000000000000000000000000000000000000000000000000000000000000000000000000000000000000000000000000000000000000000000000000000000000000000000000000000000000000000000000000000000000000000000000000000000000000000
310
00000000000000000000000000000000000000000000000000000000000000000000000000000000000000000000000000000000000000000000000000000000000000000000000000000000000000000000000000000000000000000000000000000000000000000000000000000000000000000000000000000000000000
310
00000000000000000000000000000000000000000000000000000000000000000000000000000000000000000000000000000000000000000000000000000000000000000000000000000000000000000000000000000000000000000000000000000000000000000000000000000000000000000000000000000000000000
310
00000000000000000000000000000000000000000000000000000000000000000000000000000000000000000000000000000000000000000000000000000000000000000000000000000000000000000000000000000000000000000000000000000000000000000000000000000000000000000000000000000000000000
310
00000000000000000000000000000000000000000000000000000000000000000000000000000000000000000000000000000000000000000000000000000000000000000000000000000000000000000000000000000000000000000000000000000000000000000000000000000000000000000000000000000000000000
310
00000000000000000000000000000000000000000000000000000000000000000000000000000000000000000000000000000000000000000000000000000000000000000000000000000000000000000000000000000000000000000000000000000000000000000000000000000000000000000000000000000000000000
310
00000000000000000000000000000000000000000000000000000000000000000000000000000000000000000000000000000000000000000000000000000000000000000000000000000000000000000000000000000000000000000000000000000000000000000000000000000000000000000000000000000000000000
310
00000000000000000000000000000000000000000000000000000000000000000000000000000000000000000000000000000000000000000000000000000000000000000000000000000000000000000000000000000000000000000000000000000000000000000000000000000000000000000000000000000000000000
310
00000000000000000000000000000000000000000000000000000000000000000000000000000000000000000000000000000000000000000000000000000000000000000000000000000000000000000000000000000000000000000000000000000000000000000000000000000000000000000000000000000000000000
310
00000000000000000000000000000000000000000000000000000000000000000000000000000000000000000000000000000000000000000000000000000000000000000000000000000000000000000000000000000000000000000000000000000000000000000000000000000000000000000000000000000000000000
310
00000000000000000000000000000000000000000000000000000000000000000000000000000000000000000000000000000000000000000000000000000000000000000000000000000000000000000000000000000000000000000000000000000000000000000000000000000000000000000000000000000000000000
310
00000000000000000000000000000000000000000000000000000000000000000000000000000000000000000000000000000000000000000000000000000000000000000000000000000000000000000000000000000000000000000000000000000000000000000000000000000000000000000000000000000000000000
310
00000000000000000000000000000000000000000000000000000000000000000000000000000000000000000000000000000000000000000000000000000000000000000000000000000000000000000000000000000000000000000000000000000000000000000000000000000000000000000000000000000000000000
310
00000000000000000000000000000000000000000000000000000000000000000000000000000000000000000000000000000000000000000000000000000000000000000000000000000000000000000000000000000000000000000000000000000000000000000000000000000000000000000000000000000000000000
310
00000000000000000000000000000000000000000000000000000000000000000000000000000000000000000000000000000000000000000000000000000000000000000000000000000000000000000000000000000000000000000000000000000000000000000000000000000000000000000000000000000000000000
310
00000000000000000000000000000000000000000000000000000000000000000000000000000000000000000000000000000000000000000000000000000000000000000000000000000000000000000000000000000000000000000000000000000000000000000000000000000000000000000000000000000000000000
310
00000000000000000000000000000000000000000000000000000000000000000000000000000000000000000000000000000000000000000000000000000000000000000000000000000000000000000000000000000000000000000000000000000000000000000000000000000000000000000000000000000000000000
310
00000000000000000000000000000000000000000000000000000000000000000000000000000000000000000000000000000000000000000000000000000000000000000000000000000000000000000000000000000000000000000000000000000000000000000000000000000000000000000000000000000000000000
310
00000000000000000000000000000000000000000000000000000000000000000000000000000000000000000000000000000000000000000000000000000000000000000000000000000000000000000000000000000000000000000000000000000000000000000000000000000000000000000000000000000000000000
310
0000000000000000000000000000000000000000000000000000000000000000000000000000000000000000000000000000000000000000000000000000000000000000
  0
XRECORD
  5
818
102
{ACAD_REACTORS
330
817
102
}
330
817
100
AcDbXrecord
280
     1
102
MATERIAL
148
0.0
149
0.0
149
0.0
 93
        0
 94
      127
282
     0
 72
     0
 77
     0
171
     0
175
     0
179
     0
273
     0
  0
XRECORD
  5
814
102
{ACAD_REACTORS
330
813
102
}
330
813
100
AcDbXrecord
280
     1
102
MATERIAL
148
0.0
149
0.0
149
0.0
 93
        0
 94
      127
282
     0
 72
     0
 77
     0
171
     0
175
     0
179
     0
273
     0
  0
XRECORD
  5
816
102
{ACAD_REACTORS
330
815
102
}
330
815
100
AcDbXrecord
280
     1
102
MATERIAL
148
0.0
149
0.0
149
0.0
 93
        0
 94
      127
282
     0
 72
     0
 77
     0
171
     0
175
     0
179
     0
273
     0
  0
XRECORD
  5
84A
102
{ACAD_REACTORS
330
849
102
}
330
849
100
AcDbXrecord
280
     1
102
ACAD_ROUNDTRIP_2010_MLEADER_STYLE
  0
XRECORD
  5
826
102
{ACAD_REACTORS
330
825
102
}
330
825
100
AcDbXrecord
280
     1
102
RTVSPropertyOp0
 70
     1
102
RTVSPropertyOp1
 70
     1
102
RTVSPropertyOp2
 70
     1
102
RTVSPropertyOp3
 70
     1
102
RTVSPropertyOp4
 70
     1
102
RTVSPropertyOp5
 70
     1
102
RTVSPropertyOp6
 70
     1
102
RTVSPropertyOp7
 70
     1
102
RTVSPropertyOp8
 70
     1
102
RTVSPropertyOp9
 70
     1
102
RTVSPropertyOp10
 70
     1
102
RTVSPropertyOp11
 70
     1
102
RTVSPropertyOp12
 70
     1
102
RTVSPropertyOp13
 70
     1
102
RTVSPropertyOp14
 70
     1
102
RTVSPropertyOp15
 70
     1
102
RTVSPropertyOp16
 70
     1
102
RTVSPropertyOp17
 70
     1
102
RTVSPropertyOp18
 70
     1
102
RTVSPropertyOp19
 70
     1
102
RTVSPropertyOp20
 70
     1
102
RTVSPropertyOp21
 70
     1
102
RTVSPropertyOp22
 70
     1
102
RTVSPropertyOp23
 70
     1
102
RTVSPropertyOp24
 70
     1
102
RTVSPropertyOp25
 70
     1
102
RTVSPropertyOp26
 70
     1
102
RTVSPropertyOp27
 70
     1
102
RTVSPropertyOp28
 70
     1
102
RTVSPropertyOp29
 70
     1
102
RTVSPropertyOp30
 70
     1
102
RTVSPropertyOp31
 70
     1
102
RTVSPropertyOp32
 70
     1
102
RTVSPropertyOp33
 70
     1
102
RTVSPropertyOp34
 70
     1
102
RTVSPropertyOp35
 70
     1
102
RTVSPropertyOp36
 70
     1
102
RTVSPropertyOp37
 70
     1
102
RTVSPropertyOp38
 70
     1
102
RTVSPropertyOp39
 70
     1
102
RTVSPropertyOp40
 70
     1
102
RTVSPropertyOp41
 70
     1
102
RTVSPropertyOp42
 70
     1
102
RTVSPropertyOp43
 70
     1
102
RTVSPropertyOp44
 70
     1
102
RTVSPropertyOp45
 70
     1
102
RTVSPropertyOp46
 70
     1
102
RTVSPropertyOp47
 70
     1
102
RTVSPropertyOp48
 70
     1
102
RTVSPropertyOp49
 70
     1
102
RTVSPropertyOp50
 70
     1
102
RTVSPropertyOp51
 70
     0
102
RTVSPropertyOp52
 70
     0
102
RTVSPropertyOp53
 70
     1
102
RTVSPropertyOp54
 70
     1
102
RTVSPropertyOp55
 70
     1
102
RTVSPropertyOp56
 70
     1
102
RTVSPropertyOp57
 70
     1
102
RTVSPost2010Prop28
280
     1
102
RTVSPost2010PropOp28
 70
     1
102
RTVSPost2010Prop29
280
     1
102
RTVSPost2010PropOp29
 70
     1
102
RTVSPost2010Prop30
280
     0
102
RTVSPost2010PropOp30
 70
     1
102
RTVSPost2010Prop31
280
     0
102
RTVSPost2010PropOp31
 70
     1
102
RTVSPost2010Prop32
280
     0
102
RTVSPost2010PropOp32
 70
     1
102
RTVSPost2010Prop33
280
     0
102
RTVSPost2010PropOp33
 70
     1
102
RTVSPost2010Prop34
280
     0
102
RTVSPost2010PropOp34
 70
     1
102
RTVSPost2010Prop35
280
     0
102
RTVSPost2010PropOp35
 70
     1
102
RTVSPost2010Prop36
280
     0
102
RTVSPost2010PropOp36
 70
     1
102
RTVSPost2010Prop37
 90
       50
102
RTVSPost2010PropOp37
 70
     1
102
RTVSPost2010Prop38
140
0.0
102
RTVSPost2010PropOp38
 70
     1
102
RTVSPost2010Prop39
140
1.0
102
RTVSPost2010PropOp39
 70
     1
102
RTVSPost2010Prop40
 90
        0
102
RTVSPost2010PropOp40
 70
     1
102
RTVSPost2010Prop41ColorIndex
 90
       18
102
RTVSPost2010Prop41ColorRGB
 90
        0
102
RTVSPost2010PropOp41
 70
     1
102
RTVSPost2010Prop42
 90
       50
102
RTVSPost2010PropOp42
 70
     1
102
RTVSPost2010Prop43
 90
        3
102
RTVSPost2010PropOp43
 70
     1
102
RTVSPost2010Prop44ColorIndex
 90
        5
102
RTVSPost2010Prop44ColorRGB
 90
      255
102
RTVSPost2010PropOp44
 70
     1
102
RTVSPost2010Prop45
280
     0
102
RTVSPost2010PropOp45
 70
     1
102
RTVSPost2010Prop46
 90
       50
102
RTVSPost2010PropOp46
 70
     1
102
RTVSPost2010Prop47
 90
       50
102
RTVSPost2010PropOp47
 70
     1
102
RTVSPost2010Prop48
 90
       50
102
RTVSPost2010PropOp48
 70
     1
102
RTVSPost2010Prop49
280
     0
102
RTVSPost2010PropOp49
 70
     1
102
RTVSPost2010Prop50
 90
       50
102
RTVSPost2010PropOp50
 70
     1
102
RTVSPost2010Prop51ColorIndex
 90
      256
102
RTVSPost2010Prop51ColorRGB
 90
-16777216
102
RTVSPost2010PropOp51
 70
     0
102
RTVSPost2010Prop52
140
1.0
102
RTVSPost2010PropOp52
 70
     0
102
RTVSPost2010Prop53
 90
        2
102
RTVSPost2010PropOp53
 70
     1
102
RTVSPost2010Prop54
  1
strokes_ogs.tif
102
RTVSPost2010PropOp54
 70
     1
102
RTVSPost2010Prop55
280
     0
102
RTVSPost2010PropOp55
 70
     1
102
RTVSPost2010Prop56
140
1.0
102
RTVSPost2010PropOp56
 70
     1
102
RTVSPost2010Prop57
140
1.0
102
RTVSPost2010PropOp57
 70
     1
  0
XRECORD
  5
82A
102
{ACAD_REACTORS
330
829
102
}
330
829
100
AcDbXrecord
280
     1
102
RTVSPropertyOp0
 70
     1
102
RTVSPropertyOp1
 70
     1
102
RTVSPropertyOp2
 70
     1
102
RTVSPropertyOp3
 70
     1
102
RTVSPropertyOp4
 70
     1
102
RTVSPropertyOp5
 70
     1
102
RTVSPropertyOp6
 70
     1
102
RTVSPropertyOp7
 70
     1
102
RTVSPropertyOp8
 70
     1
102
RTVSPropertyOp9
 70
     1
102
RTVSPropertyOp10
 70
     1
102
RTVSPropertyOp11
 70
     1
102
RTVSPropertyOp12
 70
     1
102
RTVSPropertyOp13
 70
     1
102
RTVSPropertyOp14
 70
     1
102
RTVSPropertyOp15
 70
     1
102
RTVSPropertyOp16
 70
     1
102
RTVSPropertyOp17
 70
     1
102
RTVSPropertyOp18
 70
     1
102
RTVSPropertyOp19
 70
     1
102
RTVSPropertyOp20
 70
     1
102
RTVSPropertyOp21
 70
     1
102
RTVSPropertyOp22
 70
     1
102
RTVSPropertyOp23
 70
     1
102
RTVSPropertyOp24
 70
     1
102
RTVSPropertyOp25
 70
     1
102
RTVSPropertyOp26
 70
     1
102
RTVSPropertyOp27
 70
     1
102
RTVSPropertyOp28
 70
     1
102
RTVSPropertyOp29
 70
     1
102
RTVSPropertyOp30
 70
     1
102
RTVSPropertyOp31
 70
     1
102
RTVSPropertyOp32
 70
     1
102
RTVSPropertyOp33
 70
     1
102
RTVSPropertyOp34
 70
     1
102
RTVSPropertyOp35
 70
     1
102
RTVSPropertyOp36
 70
     1
102
RTVSPropertyOp37
 70
     1
102
RTVSPropertyOp38
 70
     1
102
RTVSPropertyOp39
 70
     1
102
RTVSPropertyOp40
 70
     1
102
RTVSPropertyOp41
 70
     1
102
RTVSPropertyOp42
 70
     1
102
RTVSPropertyOp43
 70
     1
102
RTVSPropertyOp44
 70
     1
102
RTVSPropertyOp45
 70
     1
102
RTVSPropertyOp46
 70
     1
102
RTVSPropertyOp47
 70
     1
102
RTVSPropertyOp48
 70
     1
102
RTVSPropertyOp49
 70
     1
102
RTVSPropertyOp50
 70
     1
102
RTVSPropertyOp51
 70
     0
102
RTVSPropertyOp52
 70
     0
102
RTVSPropertyOp53
 70
     1
102
RTVSPropertyOp54
 70
     1
102
RTVSPropertyOp55
 70
     1
102
RTVSPropertyOp56
 70
     1
102
RTVSPropertyOp57
 70
     1
102
RTVSPost2010Prop28
280
     0
102
RTVSPost2010PropOp28
 70
     1
102
RTVSPost2010Prop29
280
     1
102
RTVSPost2010PropOp29
 70
     1
102
RTVSPost2010Prop30
280
     1
102
RTVSPost2010PropOp30
 70
     1
102
RTVSPost2010Prop31
280
     0
102
RTVSPost2010PropOp31
 70
     1
102
RTVSPost2010Prop32
280
     0
102
RTVSPost2010PropOp32
 70
     1
102
RTVSPost2010Prop33
280
     0
102
RTVSPost2010PropOp33
 70
     1
102
RTVSPost2010Prop34
280
     0
102
RTVSPost2010PropOp34
 70
     1
102
RTVSPost2010Prop35
280
     0
102
RTVSPost2010PropOp35
 70
     1
102
RTVSPost2010Prop36
280
     0
102
RTVSPost2010PropOp36
 70
     1
102
RTVSPost2010Prop37
 90
       50
102
RTVSPost2010PropOp37
 70
     1
102
RTVSPost2010Prop38
140
0.0
102
RTVSPost2010PropOp38
 70
     1
102
RTVSPost2010Prop39
140
1.0
102
RTVSPost2010PropOp39
 70
     1
102
RTVSPost2010Prop40
 90
        0
102
RTVSPost2010PropOp40
 70
     1
102
RTVSPost2010Prop41ColorIndex
 90
       18
102
RTVSPost2010Prop41ColorRGB
 90
        0
102
RTVSPost2010PropOp41
 70
     1
102
RTVSPost2010Prop42
 90
       50
102
RTVSPost2010PropOp42
 70
     1
102
RTVSPost2010Prop43
 90
        3
102
RTVSPost2010PropOp43
 70
     1
102
RTVSPost2010Prop44ColorIndex
 90
        5
102
RTVSPost2010Prop44ColorRGB
 90
      255
102
RTVSPost2010PropOp44
 70
     1
102
RTVSPost2010Prop45
280
     0
102
RTVSPost2010PropOp45
 70
     1
102
RTVSPost2010Prop46
 90
       50
102
RTVSPost2010PropOp46
 70
     1
102
RTVSPost2010Prop47
 90
       50
102
RTVSPost2010PropOp47
 70
     1
102
RTVSPost2010Prop48
 90
       50
102
RTVSPost2010PropOp48
 70
     1
102
RTVSPost2010Prop49
280
     0
102
RTVSPost2010PropOp49
 70
     1
102
RTVSPost2010Prop50
 90
       50
102
RTVSPost2010PropOp50
 70
     1
102
RTVSPost2010Prop51ColorIndex
 90
      256
102
RTVSPost2010Prop51ColorRGB
 90
-16777216
102
RTVSPost2010PropOp51
 70
     0
102
RTVSPost2010Prop52
140
1.0
102
RTVSPost2010PropOp52
 70
     0
102
RTVSPost2010Prop53
 90
        2
102
RTVSPost2010PropOp53
 70
     1
102
RTVSPost2010Prop54
  1
strokes_ogs.tif
102
RTVSPost2010PropOp54
 70
     1
102
RTVSPost2010Prop55
280
     0
102
RTVSPost2010PropOp55
 70
     1
102
RTVSPost2010Prop56
140
1.0
102
RTVSPost2010PropOp56
 70
     1
102
RTVSPost2010Prop57
140
1.0
102
RTVSPost2010PropOp57
 70
     1
  0
XRECORD
  5
830
102
{ACAD_REACTORS
330
82F
102
}
330
82F
100
AcDbXrecord
280
     1
102
RTVSPropertyOp0
 70
     1
102
RTVSPropertyOp1
 70
     1
102
RTVSPropertyOp2
 70
     1
102
RTVSPropertyOp3
 70
     1
102
RTVSPropertyOp4
 70
     1
102
RTVSPropertyOp5
 70
     1
102
RTVSPropertyOp6
 70
     1
102
RTVSPropertyOp7
 70
     1
102
RTVSPropertyOp8
 70
     1
102
RTVSPropertyOp9
 70
     1
102
RTVSPropertyOp10
 70
     1
102
RTVSPropertyOp11
 70
     1
102
RTVSPropertyOp12
 70
     1
102
RTVSPropertyOp13
 70
     1
102
RTVSPropertyOp14
 70
     1
102
RTVSPropertyOp15
 70
     1
102
RTVSPropertyOp16
 70
     1
102
RTVSPropertyOp17
 70
     1
102
RTVSPropertyOp18
 70
     1
102
RTVSPropertyOp19
 70
     1
102
RTVSPropertyOp20
 70
     1
102
RTVSPropertyOp21
 70
     1
102
RTVSPropertyOp22
 70
     1
102
RTVSPropertyOp23
 70
     1
102
RTVSPropertyOp24
 70
     1
102
RTVSPropertyOp25
 70
     1
102
RTVSPropertyOp26
 70
     1
102
RTVSPropertyOp27
 70
     1
102
RTVSPropertyOp28
 70
     1
102
RTVSPropertyOp29
 70
     1
102
RTVSPropertyOp30
 70
     1
102
RTVSPropertyOp31
 70
     1
102
RTVSPropertyOp32
 70
     1
102
RTVSPropertyOp33
 70
     1
102
RTVSPropertyOp34
 70
     1
102
RTVSPropertyOp35
 70
     1
102
RTVSPropertyOp36
 70
     1
102
RTVSPropertyOp37
 70
     1
102
RTVSPropertyOp38
 70
     1
102
RTVSPropertyOp39
 70
     1
102
RTVSPropertyOp40
 70
     1
102
RTVSPropertyOp41
 70
     1
102
RTVSPropertyOp42
 70
     1
102
RTVSPropertyOp43
 70
     1
102
RTVSPropertyOp44
 70
     1
102
RTVSPropertyOp45
 70
     1
102
RTVSPropertyOp46
 70
     1
102
RTVSPropertyOp47
 70
     1
102
RTVSPropertyOp48
 70
     1
102
RTVSPropertyOp49
 70
     1
102
RTVSPropertyOp50
 70
     1
102
RTVSPropertyOp51
 70
     0
102
RTVSPropertyOp52
 70
     0
102
RTVSPropertyOp53
 70
     1
102
RTVSPropertyOp54
 70
     1
102
RTVSPropertyOp55
 70
     1
102
RTVSPropertyOp56
 70
     1
102
RTVSPropertyOp57
 70
     1
102
RTVSPost2010Prop28
280
     0
102
RTVSPost2010PropOp28
 70
     1
102
RTVSPost2010Prop29
280
     1
102
RTVSPost2010PropOp29
 70
     1
102
RTVSPost2010Prop30
280
     1
102
RTVSPost2010PropOp30
 70
     1
102
RTVSPost2010Prop31
280
     0
102
RTVSPost2010PropOp31
 70
     1
102
RTVSPost2010Prop32
280
     0
102
RTVSPost2010PropOp32
 70
     1
102
RTVSPost2010Prop33
280
     0
102
RTVSPost2010PropOp33
 70
     1
102
RTVSPost2010Prop34
280
     0
102
RTVSPost2010PropOp34
 70
     1
102
RTVSPost2010Prop35
280
     0
102
RTVSPost2010PropOp35
 70
     1
102
RTVSPost2010Prop36
280
     0
102
RTVSPost2010PropOp36
 70
     1
102
RTVSPost2010Prop37
 90
       50
102
RTVSPost2010PropOp37
 70
     1
102
RTVSPost2010Prop38
140
0.0
102
RTVSPost2010PropOp38
 70
     1
102
RTVSPost2010Prop39
140
1.0
102
RTVSPost2010PropOp39
 70
     1
102
RTVSPost2010Prop40
 90
        0
102
RTVSPost2010PropOp40
 70
     1
102
RTVSPost2010Prop41ColorIndex
 90
       18
102
RTVSPost2010Prop41ColorRGB
 90
        0
102
RTVSPost2010PropOp41
 70
     1
102
RTVSPost2010Prop42
 90
       50
102
RTVSPost2010PropOp42
 70
     1
102
RTVSPost2010Prop43
 90
        3
102
RTVSPost2010PropOp43
 70
     1
102
RTVSPost2010Prop44ColorIndex
 90
        5
102
RTVSPost2010Prop44ColorRGB
 90
      255
102
RTVSPost2010PropOp44
 70
     1
102
RTVSPost2010Prop45
280
     0
102
RTVSPost2010PropOp45
 70
     1
102
RTVSPost2010Prop46
 90
       50
102
RTVSPost2010PropOp46
 70
     1
102
RTVSPost2010Prop47
 90
       50
102
RTVSPost2010PropOp47
 70
     1
102
RTVSPost2010Prop48
 90
       50
102
RTVSPost2010PropOp48
 70
     1
102
RTVSPost2010Prop49
280
     0
102
RTVSPost2010PropOp49
 70
     1
102
RTVSPost2010Prop50
 90
       50
102
RTVSPost2010PropOp50
 70
     1
102
RTVSPost2010Prop51ColorIndex
 90
      256
102
RTVSPost2010Prop51ColorRGB
 90
-16777216
102
RTVSPost2010PropOp51
 70
     0
102
RTVSPost2010Prop52
140
1.0
102
RTVSPost2010PropOp52
 70
     0
102
RTVSPost2010Prop53
 90
        2
102
RTVSPost2010PropOp53
 70
     1
102
RTVSPost2010Prop54
  1
strokes_ogs.tif
102
RTVSPost2010PropOp54
 70
     1
102
RTVSPost2010Prop55
280
     0
102
RTVSPost2010PropOp55
 70
     1
102
RTVSPost2010Prop56
140
1.0
102
RTVSPost2010PropOp56
 70
     1
102
RTVSPost2010Prop57
140
1.0
102
RTVSPost2010PropOp57
 70
     1
  0
XRECORD
  5
838
102
{ACAD_REACTORS
330
837
102
}
330
837
100
AcDbXrecord
280
     1
102
RTVSPropertyOp0
 70
     1
102
RTVSPropertyOp1
 70
     1
102
RTVSPropertyOp2
 70
     1
102
RTVSPropertyOp3
 70
     1
102
RTVSPropertyOp4
 70
     1
102
RTVSPropertyOp5
 70
     1
102
RTVSPropertyOp6
 70
     1
102
RTVSPropertyOp7
 70
     1
102
RTVSPropertyOp8
 70
     1
102
RTVSPropertyOp9
 70
     1
102
RTVSPropertyOp10
 70
     1
102
RTVSPropertyOp11
 70
     1
102
RTVSPropertyOp12
 70
     1
102
RTVSPropertyOp13
 70
     1
102
RTVSPropertyOp14
 70
     1
102
RTVSPropertyOp15
 70
     1
102
RTVSPropertyOp16
 70
     1
102
RTVSPropertyOp17
 70
     1
102
RTVSPropertyOp18
 70
     1
102
RTVSPropertyOp19
 70
     1
102
RTVSPropertyOp20
 70
     1
102
RTVSPropertyOp21
 70
     1
102
RTVSPropertyOp22
 70
     1
102
RTVSPropertyOp23
 70
     1
102
RTVSPropertyOp24
 70
     1
102
RTVSPropertyOp25
 70
     1
102
RTVSPropertyOp26
 70
     1
102
RTVSPropertyOp27
 70
     1
102
RTVSPropertyOp28
 70
     1
102
RTVSPropertyOp29
 70
     1
102
RTVSPropertyOp30
 70
     1
102
RTVSPropertyOp31
 70
     1
102
RTVSPropertyOp32
 70
     1
102
RTVSPropertyOp33
 70
     1
102
RTVSPropertyOp34
 70
     1
102
RTVSPropertyOp35
 70
     1
102
RTVSPropertyOp36
 70
     1
102
RTVSPropertyOp37
 70
     1
102
RTVSPropertyOp38
 70
     1
102
RTVSPropertyOp39
 70
     1
102
RTVSPropertyOp40
 70
     1
102
RTVSPropertyOp41
 70
     1
102
RTVSPropertyOp42
 70
     1
102
RTVSPropertyOp43
 70
     1
102
RTVSPropertyOp44
 70
     1
102
RTVSPropertyOp45
 70
     1
102
RTVSPropertyOp46
 70
     1
102
RTVSPropertyOp47
 70
     1
102
RTVSPropertyOp48
 70
     1
102
RTVSPropertyOp49
 70
     1
102
RTVSPropertyOp50
 70
     1
102
RTVSPropertyOp51
 70
     0
102
RTVSPropertyOp52
 70
     0
102
RTVSPropertyOp53
 70
     1
102
RTVSPropertyOp54
 70
     1
102
RTVSPropertyOp55
 70
     1
102
RTVSPropertyOp56
 70
     1
102
RTVSPropertyOp57
 70
     1
102
RTVSPost2010Prop28
280
     0
102
RTVSPost2010PropOp28
 70
     1
102
RTVSPost2010Prop29
280
     1
102
RTVSPost2010PropOp29
 70
     1
102
RTVSPost2010Prop30
280
     1
102
RTVSPost2010PropOp30
 70
     1
102
RTVSPost2010Prop31
280
     0
102
RTVSPost2010PropOp31
 70
     1
102
RTVSPost2010Prop32
280
     0
102
RTVSPost2010PropOp32
 70
     1
102
RTVSPost2010Prop33
280
     0
102
RTVSPost2010PropOp33
 70
     1
102
RTVSPost2010Prop34
280
     0
102
RTVSPost2010PropOp34
 70
     1
102
RTVSPost2010Prop35
280
     0
102
RTVSPost2010PropOp35
 70
     1
102
RTVSPost2010Prop36
280
     0
102
RTVSPost2010PropOp36
 70
     1
102
RTVSPost2010Prop37
 90
       50
102
RTVSPost2010PropOp37
 70
     1
102
RTVSPost2010Prop38
140
0.0
102
RTVSPost2010PropOp38
 70
     1
102
RTVSPost2010Prop39
140
1.0
102
RTVSPost2010PropOp39
 70
     1
102
RTVSPost2010Prop40
 90
        0
102
RTVSPost2010PropOp40
 70
     1
102
RTVSPost2010Prop41ColorIndex
 90
       18
102
RTVSPost2010Prop41ColorRGB
 90
        0
102
RTVSPost2010PropOp41
 70
     1
102
RTVSPost2010Prop42
 90
       50
102
RTVSPost2010PropOp42
 70
     1
102
RTVSPost2010Prop43
 90
        3
102
RTVSPost2010PropOp43
 70
     1
102
RTVSPost2010Prop44ColorIndex
 90
        5
102
RTVSPost2010Prop44ColorRGB
 90
      255
102
RTVSPost2010PropOp44
 70
     1
102
RTVSPost2010Prop45
280
     0
102
RTVSPost2010PropOp45
 70
     1
102
RTVSPost2010Prop46
 90
       50
102
RTVSPost2010PropOp46
 70
     1
102
RTVSPost2010Prop47
 90
       50
102
RTVSPost2010PropOp47
 70
     1
102
RTVSPost2010Prop48
 90
       50
102
RTVSPost2010PropOp48
 70
     1
102
RTVSPost2010Prop49
280
     0
102
RTVSPost2010PropOp49
 70
     1
102
RTVSPost2010Prop50
 90
       50
102
RTVSPost2010PropOp50
 70
     1
102
RTVSPost2010Prop51ColorIndex
 90
      256
102
RTVSPost2010Prop51ColorRGB
 90
-16777216
102
RTVSPost2010PropOp51
 70
     0
102
RTVSPost2010Prop52
140
1.0
102
RTVSPost2010PropOp52
 70
     0
102
RTVSPost2010Prop53
 90
        2
102
RTVSPost2010PropOp53
 70
     1
102
RTVSPost2010Prop54
  1
strokes_ogs.tif
102
RTVSPost2010PropOp54
 70
     1
102
RTVSPost2010Prop55
280
     0
102
RTVSPost2010PropOp55
 70
     1
102
RTVSPost2010Prop56
140
1.0
102
RTVSPost2010PropOp56
 70
     1
102
RTVSPost2010Prop57
140
1.0
102
RTVSPost2010PropOp57
 70
     1
  0
XRECORD
  5
82C
102
{ACAD_REACTORS
330
82B
102
}
330
82B
100
AcDbXrecord
280
     1
102
RTVSPropertyOp0
 70
     1
102
RTVSPropertyOp1
 70
     1
102
RTVSPropertyOp2
 70
     1
102
RTVSPropertyOp3
 70
     1
102
RTVSPropertyOp4
 70
     1
102
RTVSPropertyOp5
 70
     1
102
RTVSPropertyOp6
 70
     1
102
RTVSPropertyOp7
 70
     1
102
RTVSPropertyOp8
 70
     1
102
RTVSPropertyOp9
 70
     1
102
RTVSPropertyOp10
 70
     1
102
RTVSPropertyOp11
 70
     1
102
RTVSPropertyOp12
 70
     1
102
RTVSPropertyOp13
 70
     1
102
RTVSPropertyOp14
 70
     1
102
RTVSPropertyOp15
 70
     1
102
RTVSPropertyOp16
 70
     1
102
RTVSPropertyOp17
 70
     1
102
RTVSPropertyOp18
 70
     1
102
RTVSPropertyOp19
 70
     1
102
RTVSPropertyOp20
 70
     1
102
RTVSPropertyOp21
 70
     1
102
RTVSPropertyOp22
 70
     1
102
RTVSPropertyOp23
 70
     1
102
RTVSPropertyOp24
 70
     1
102
RTVSPropertyOp25
 70
     1
102
RTVSPropertyOp26
 70
     1
102
RTVSPropertyOp27
 70
     1
102
RTVSPropertyOp28
 70
     1
102
RTVSPropertyOp29
 70
     1
102
RTVSPropertyOp30
 70
     1
102
RTVSPropertyOp31
 70
     1
102
RTVSPropertyOp32
 70
     1
102
RTVSPropertyOp33
 70
     1
102
RTVSPropertyOp34
 70
     1
102
RTVSPropertyOp35
 70
     1
102
RTVSPropertyOp36
 70
     1
102
RTVSPropertyOp37
 70
     1
102
RTVSPropertyOp38
 70
     1
102
RTVSPropertyOp39
 70
     1
102
RTVSPropertyOp40
 70
     1
102
RTVSPropertyOp41
 70
     1
102
RTVSPropertyOp42
 70
     1
102
RTVSPropertyOp43
 70
     1
102
RTVSPropertyOp44
 70
     1
102
RTVSPropertyOp45
 70
     1
102
RTVSPropertyOp46
 70
     1
102
RTVSPropertyOp47
 70
     1
102
RTVSPropertyOp48
 70
     1
102
RTVSPropertyOp49
 70
     1
102
RTVSPropertyOp50
 70
     1
102
RTVSPropertyOp51
 70
     0
102
RTVSPropertyOp52
 70
     0
102
RTVSPropertyOp53
 70
     1
102
RTVSPropertyOp54
 70
     1
102
RTVSPropertyOp55
 70
     1
102
RTVSPropertyOp56
 70
     1
102
RTVSPropertyOp57
 70
     1
102
RTVSPost2010Prop28
280
     0
102
RTVSPost2010PropOp28
 70
     1
102
RTVSPost2010Prop29
280
     1
102
RTVSPost2010PropOp29
 70
     1
102
RTVSPost2010Prop30
280
     1
102
RTVSPost2010PropOp30
 70
     1
102
RTVSPost2010Prop31
280
     0
102
RTVSPost2010PropOp31
 70
     1
102
RTVSPost2010Prop32
280
     0
102
RTVSPost2010PropOp32
 70
     1
102
RTVSPost2010Prop33
280
     0
102
RTVSPost2010PropOp33
 70
     1
102
RTVSPost2010Prop34
280
     0
102
RTVSPost2010PropOp34
 70
     1
102
RTVSPost2010Prop35
280
     0
102
RTVSPost2010PropOp35
 70
     1
102
RTVSPost2010Prop36
280
     0
102
RTVSPost2010PropOp36
 70
     1
102
RTVSPost2010Prop37
 90
       50
102
RTVSPost2010PropOp37
 70
     1
102
RTVSPost2010Prop38
140
0.0
102
RTVSPost2010PropOp38
 70
     1
102
RTVSPost2010Prop39
140
1.0
102
RTVSPost2010PropOp39
 70
     1
102
RTVSPost2010Prop40
 90
        0
102
RTVSPost2010PropOp40
 70
     1
102
RTVSPost2010Prop41ColorIndex
 90
       18
102
RTVSPost2010Prop41ColorRGB
 90
        0
102
RTVSPost2010PropOp41
 70
     1
102
RTVSPost2010Prop42
 90
       50
102
RTVSPost2010PropOp42
 70
     1
102
RTVSPost2010Prop43
 90
        3
102
RTVSPost2010PropOp43
 70
     1
102
RTVSPost2010Prop44ColorIndex
 90
        5
102
RTVSPost2010Prop44ColorRGB
 90
      255
102
RTVSPost2010PropOp44
 70
     1
102
RTVSPost2010Prop45
280
     0
102
RTVSPost2010PropOp45
 70
     1
102
RTVSPost2010Prop46
 90
       50
102
RTVSPost2010PropOp46
 70
     1
102
RTVSPost2010Prop47
 90
       50
102
RTVSPost2010PropOp47
 70
     1
102
RTVSPost2010Prop48
 90
       50
102
RTVSPost2010PropOp48
 70
     1
102
RTVSPost2010Prop49
280
     0
102
RTVSPost2010PropOp49
 70
     1
102
RTVSPost2010Prop50
 90
       50
102
RTVSPost2010PropOp50
 70
     1
102
RTVSPost2010Prop51ColorIndex
 90
      256
102
RTVSPost2010Prop51ColorRGB
 90
-16777216
102
RTVSPost2010PropOp51
 70
     0
102
RTVSPost2010Prop52
140
1.0
102
RTVSPost2010PropOp52
 70
     0
102
RTVSPost2010Prop53
 90
        2
102
RTVSPost2010PropOp53
 70
     1
102
RTVSPost2010Prop54
  1
strokes_ogs.tif
102
RTVSPost2010PropOp54
 70
     1
102
RTVSPost2010Prop55
280
     0
102
RTVSPost2010PropOp55
 70
     1
102
RTVSPost2010Prop56
140
1.0
102
RTVSPost2010PropOp56
 70
     1
102
RTVSPost2010Prop57
140
1.0
102
RTVSPost2010PropOp57
 70
     1
  0
XRECORD
  5
82E
102
{ACAD_REACTORS
330
82D
102
}
330
82D
100
AcDbXrecord
280
     1
102
RTVSPropertyOp0
 70
     1
102
RTVSPropertyOp1
 70
     1
102
RTVSPropertyOp2
 70
     1
102
RTVSPropertyOp3
 70
     1
102
RTVSPropertyOp4
 70
     1
102
RTVSPropertyOp5
 70
     1
102
RTVSPropertyOp6
 70
     1
102
RTVSPropertyOp7
 70
     1
102
RTVSPropertyOp8
 70
     1
102
RTVSPropertyOp9
 70
     1
102
RTVSPropertyOp10
 70
     1
102
RTVSPropertyOp11
 70
     1
102
RTVSPropertyOp12
 70
     1
102
RTVSPropertyOp13
 70
     1
102
RTVSPropertyOp14
 70
     1
102
RTVSPropertyOp15
 70
     1
102
RTVSPropertyOp16
 70
     1
102
RTVSPropertyOp17
 70
     1
102
RTVSPropertyOp18
 70
     1
102
RTVSPropertyOp19
 70
     1
102
RTVSPropertyOp20
 70
     1
102
RTVSPropertyOp21
 70
     1
102
RTVSPropertyOp22
 70
     1
102
RTVSPropertyOp23
 70
     1
102
RTVSPropertyOp24
 70
     1
102
RTVSPropertyOp25
 70
     1
102
RTVSPropertyOp26
 70
     1
102
RTVSPropertyOp27
 70
     1
102
RTVSPropertyOp28
 70
     1
102
RTVSPropertyOp29
 70
     1
102
RTVSPropertyOp30
 70
     1
102
RTVSPropertyOp31
 70
     1
102
RTVSPropertyOp32
 70
     1
102
RTVSPropertyOp33
 70
     1
102
RTVSPropertyOp34
 70
     1
102
RTVSPropertyOp35
 70
     1
102
RTVSPropertyOp36
 70
     1
102
RTVSPropertyOp37
 70
     1
102
RTVSPropertyOp38
 70
     1
102
RTVSPropertyOp39
 70
     1
102
RTVSPropertyOp40
 70
     1
102
RTVSPropertyOp41
 70
     1
102
RTVSPropertyOp42
 70
     1
102
RTVSPropertyOp43
 70
     1
102
RTVSPropertyOp44
 70
     1
102
RTVSPropertyOp45
 70
     1
102
RTVSPropertyOp46
 70
     1
102
RTVSPropertyOp47
 70
     1
102
RTVSPropertyOp48
 70
     1
102
RTVSPropertyOp49
 70
     1
102
RTVSPropertyOp50
 70
     1
102
RTVSPropertyOp51
 70
     0
102
RTVSPropertyOp52
 70
     0
102
RTVSPropertyOp53
 70
     1
102
RTVSPropertyOp54
 70
     1
102
RTVSPropertyOp55
 70
     1
102
RTVSPropertyOp56
 70
     1
102
RTVSPropertyOp57
 70
     1
102
RTVSPost2010Prop28
280
     0
102
RTVSPost2010PropOp28
 70
     1
102
RTVSPost2010Prop29
280
     1
102
RTVSPost2010PropOp29
 70
     1
102
RTVSPost2010Prop30
280
     1
102
RTVSPost2010PropOp30
 70
     1
102
RTVSPost2010Prop31
280
     0
102
RTVSPost2010PropOp31
 70
     1
102
RTVSPost2010Prop32
280
     0
102
RTVSPost2010PropOp32
 70
     1
102
RTVSPost2010Prop33
280
     0
102
RTVSPost2010PropOp33
 70
     1
102
RTVSPost2010Prop34
280
     0
102
RTVSPost2010PropOp34
 70
     1
102
RTVSPost2010Prop35
280
     0
102
RTVSPost2010PropOp35
 70
     1
102
RTVSPost2010Prop36
280
     0
102
RTVSPost2010PropOp36
 70
     1
102
RTVSPost2010Prop37
 90
       50
102
RTVSPost2010PropOp37
 70
     1
102
RTVSPost2010Prop38
140
0.0
102
RTVSPost2010PropOp38
 70
     1
102
RTVSPost2010Prop39
140
1.0
102
RTVSPost2010PropOp39
 70
     1
102
RTVSPost2010Prop40
 90
        0
102
RTVSPost2010PropOp40
 70
     1
102
RTVSPost2010Prop41ColorIndex
 90
       18
102
RTVSPost2010Prop41ColorRGB
 90
        0
102
RTVSPost2010PropOp41
 70
     1
102
RTVSPost2010Prop42
 90
       50
102
RTVSPost2010PropOp42
 70
     1
102
RTVSPost2010Prop43
 90
        3
102
RTVSPost2010PropOp43
 70
     1
102
RTVSPost2010Prop44ColorIndex
 90
        5
102
RTVSPost2010Prop44ColorRGB
 90
      255
102
RTVSPost2010PropOp44
 70
     1
102
RTVSPost2010Prop45
280
     0
102
RTVSPost2010PropOp45
 70
     1
102
RTVSPost2010Prop46
 90
       50
102
RTVSPost2010PropOp46
 70
     1
102
RTVSPost2010Prop47
 90
       50
102
RTVSPost2010PropOp47
 70
     1
102
RTVSPost2010Prop48
 90
       50
102
RTVSPost2010PropOp48
 70
     1
102
RTVSPost2010Prop49
280
     0
102
RTVSPost2010PropOp49
 70
     1
102
RTVSPost2010Prop50
 90
       50
102
RTVSPost2010PropOp50
 70
     1
102
RTVSPost2010Prop51ColorIndex
 90
      256
102
RTVSPost2010Prop51ColorRGB
 90
-16777216
102
RTVSPost2010PropOp51
 70
     0
102
RTVSPost2010Prop52
140
1.0
102
RTVSPost2010PropOp52
 70
     0
102
RTVSPost2010Prop53
 90
        2
102
RTVSPost2010PropOp53
 70
     1
102
RTVSPost2010Prop54
  1
strokes_ogs.tif
102
RTVSPost2010PropOp54
 70
     1
102
RTVSPost2010Prop55
280
     0
102
RTVSPost2010PropOp55
 70
     1
102
RTVSPost2010Prop56
140
1.0
102
RTVSPost2010PropOp56
 70
     1
102
RTVSPost2010Prop57
140
1.0
102
RTVSPost2010PropOp57
 70
     1
  0
XRECORD
  5
83E
102
{ACAD_REACTORS
330
83D
102
}
330
83D
100
AcDbXrecord
280
     1
102
RTVSPropertyOp0
 70
     0
102
RTVSPropertyOp1
 70
     0
102
RTVSPropertyOp2
 70
     0
102
RTVSPropertyOp3
 70
     0
102
RTVSPropertyOp4
 70
     0
102
RTVSPropertyOp5
 70
     0
102
RTVSPropertyOp6
 70
     0
102
RTVSPropertyOp7
 70
     0
102
RTVSPropertyOp8
 70
     0
102
RTVSPropertyOp9
 70
     0
102
RTVSPropertyOp10
 70
     0
102
RTVSPropertyOp11
 70
     0
102
RTVSPropertyOp12
 70
     0
102
RTVSPropertyOp13
 70
     0
102
RTVSPropertyOp14
 70
     0
102
RTVSPropertyOp15
 70
     0
102
RTVSPropertyOp16
 70
     0
102
RTVSPropertyOp17
 70
     0
102
RTVSPropertyOp18
 70
     0
102
RTVSPropertyOp19
 70
     0
102
RTVSPropertyOp20
 70
     0
102
RTVSPropertyOp21
 70
     0
102
RTVSPropertyOp22
 70
     0
102
RTVSPropertyOp23
 70
     0
102
RTVSPropertyOp24
 70
     0
102
RTVSPropertyOp25
 70
     0
102
RTVSPropertyOp26
 70
     0
102
RTVSPropertyOp27
 70
     0
102
RTVSPropertyOp28
 70
     1
102
RTVSPropertyOp29
 70
     1
102
RTVSPropertyOp30
 70
     1
102
RTVSPropertyOp31
 70
     1
102
RTVSPropertyOp32
 70
     1
102
RTVSPropertyOp33
 70
     1
102
RTVSPropertyOp34
 70
     1
102
RTVSPropertyOp35
 70
     1
102
RTVSPropertyOp36
 70
     1
102
RTVSPropertyOp37
 70
     1
102
RTVSPropertyOp38
 70
     1
102
RTVSPropertyOp39
 70
     1
102
RTVSPropertyOp40
 70
     1
102
RTVSPropertyOp41
 70
     1
102
RTVSPropertyOp42
 70
     1
102
RTVSPropertyOp43
 70
     1
102
RTVSPropertyOp44
 70
     1
102
RTVSPropertyOp45
 70
     1
102
RTVSPropertyOp46
 70
     1
102
RTVSPropertyOp47
 70
     1
102
RTVSPropertyOp48
 70
     1
102
RTVSPropertyOp49
 70
     1
102
RTVSPropertyOp50
 70
     1
102
RTVSPropertyOp51
 70
     0
102
RTVSPropertyOp52
 70
     0
102
RTVSPropertyOp53
 70
     1
102
RTVSPropertyOp54
 70
     1
102
RTVSPropertyOp55
 70
     1
102
RTVSPropertyOp56
 70
     1
102
RTVSPropertyOp57
 70
     1
102
RTVSPost2010Prop28
280
     0
102
RTVSPost2010PropOp28
 70
     1
102
RTVSPost2010Prop29
280
     1
102
RTVSPost2010PropOp29
 70
     1
102
RTVSPost2010Prop30
280
     1
102
RTVSPost2010PropOp30
 70
     1
102
RTVSPost2010Prop31
280
     0
102
RTVSPost2010PropOp31
 70
     1
102
RTVSPost2010Prop32
280
     0
102
RTVSPost2010PropOp32
 70
     1
102
RTVSPost2010Prop33
280
     0
102
RTVSPost2010PropOp33
 70
     1
102
RTVSPost2010Prop34
280
     0
102
RTVSPost2010PropOp34
 70
     1
102
RTVSPost2010Prop35
280
     0
102
RTVSPost2010PropOp35
 70
     1
102
RTVSPost2010Prop36
280
     0
102
RTVSPost2010PropOp36
 70
     1
102
RTVSPost2010Prop37
 90
       50
102
RTVSPost2010PropOp37
 70
     1
102
RTVSPost2010Prop38
140
0.0
102
RTVSPost2010PropOp38
 70
     1
102
RTVSPost2010Prop39
140
1.0
102
RTVSPost2010PropOp39
 70
     1
102
RTVSPost2010Prop40
 90
        0
102
RTVSPost2010PropOp40
 70
     1
102
RTVSPost2010Prop41ColorIndex
 90
       18
102
RTVSPost2010Prop41ColorRGB
 90
        0
102
RTVSPost2010PropOp41
 70
     1
102
RTVSPost2010Prop42
 90
       50
102
RTVSPost2010PropOp42
 70
     1
102
RTVSPost2010Prop43
 90
        3
102
RTVSPost2010PropOp43
 70
     1
102
RTVSPost2010Prop44ColorIndex
 90
        5
102
RTVSPost2010Prop44ColorRGB
 90
      255
102
RTVSPost2010PropOp44
 70
     1
102
RTVSPost2010Prop45
280
     0
102
RTVSPost2010PropOp45
 70
     1
102
RTVSPost2010Prop46
 90
       50
102
RTVSPost2010PropOp46
 70
     1
102
RTVSPost2010Prop47
 90
       50
102
RTVSPost2010PropOp47
 70
     1
102
RTVSPost2010Prop48
 90
       50
102
RTVSPost2010PropOp48
 70
     1
102
RTVSPost2010Prop49
280
     0
102
RTVSPost2010PropOp49
 70
     1
102
RTVSPost2010Prop50
 90
       50
102
RTVSPost2010PropOp50
 70
     1
102
RTVSPost2010Prop51ColorIndex
 90
      256
102
RTVSPost2010Prop51ColorRGB
 90
-16777216
102
RTVSPost2010PropOp51
 70
     0
102
RTVSPost2010Prop52
140
1.0
102
RTVSPost2010PropOp52
 70
     0
102
RTVSPost2010Prop53
 90
        2
102
RTVSPost2010PropOp53
 70
     1
102
RTVSPost2010Prop54
  1
strokes_ogs.tif
102
RTVSPost2010PropOp54
 70
     1
102
RTVSPost2010Prop55
280
     0
102
RTVSPost2010PropOp55
 70
     1
102
RTVSPost2010Prop56
140
1.0
102
RTVSPost2010PropOp56
 70
     1
102
RTVSPost2010Prop57
140
1.0
102
RTVSPost2010PropOp57
 70
     1
  0
XRECORD
  5
836
102
{ACAD_REACTORS
330
835
102
}
330
835
100
AcDbXrecord
280
     1
102
RTVSPropertyOp0
 70
     1
102
RTVSPropertyOp1
 70
     1
102
RTVSPropertyOp2
 70
     1
102
RTVSPropertyOp3
 70
     1
102
RTVSPropertyOp4
 70
     1
102
RTVSPropertyOp5
 70
     1
102
RTVSPropertyOp6
 70
     1
102
RTVSPropertyOp7
 70
     1
102
RTVSPropertyOp8
 70
     1
102
RTVSPropertyOp9
 70
     1
102
RTVSPropertyOp10
 70
     1
102
RTVSPropertyOp11
 70
     1
102
RTVSPropertyOp12
 70
     1
102
RTVSPropertyOp13
 70
     1
102
RTVSPropertyOp14
 70
     1
102
RTVSPropertyOp15
 70
     1
102
RTVSPropertyOp16
 70
     1
102
RTVSPropertyOp17
 70
     1
102
RTVSPropertyOp18
 70
     1
102
RTVSPropertyOp19
 70
     1
102
RTVSPropertyOp20
 70
     1
102
RTVSPropertyOp21
 70
     1
102
RTVSPropertyOp22
 70
     1
102
RTVSPropertyOp23
 70
     1
102
RTVSPropertyOp24
 70
     1
102
RTVSPropertyOp25
 70
     1
102
RTVSPropertyOp26
 70
     1
102
RTVSPropertyOp27
 70
     1
102
RTVSPropertyOp28
 70
     1
102
RTVSPropertyOp29
 70
     1
102
RTVSPropertyOp30
 70
     1
102
RTVSPropertyOp31
 70
     1
102
RTVSPropertyOp32
 70
     1
102
RTVSPropertyOp33
 70
     1
102
RTVSPropertyOp34
 70
     1
102
RTVSPropertyOp35
 70
     1
102
RTVSPropertyOp36
 70
     1
102
RTVSPropertyOp37
 70
     1
102
RTVSPropertyOp38
 70
     1
102
RTVSPropertyOp39
 70
     1
102
RTVSPropertyOp40
 70
     1
102
RTVSPropertyOp41
 70
     1
102
RTVSPropertyOp42
 70
     1
102
RTVSPropertyOp43
 70
     1
102
RTVSPropertyOp44
 70
     1
102
RTVSPropertyOp45
 70
     1
102
RTVSPropertyOp46
 70
     1
102
RTVSPropertyOp47
 70
     1
102
RTVSPropertyOp48
 70
     1
102
RTVSPropertyOp49
 70
     1
102
RTVSPropertyOp50
 70
     1
102
RTVSPropertyOp51
 70
     0
102
RTVSPropertyOp52
 70
     0
102
RTVSPropertyOp53
 70
     1
102
RTVSPropertyOp54
 70
     1
102
RTVSPropertyOp55
 70
     1
102
RTVSPropertyOp56
 70
     1
102
RTVSPropertyOp57
 70
     1
102
RTVSPost2010Prop28
280
     0
102
RTVSPost2010PropOp28
 70
     1
102
RTVSPost2010Prop29
280
     1
102
RTVSPost2010PropOp29
 70
     1
102
RTVSPost2010Prop30
280
     1
102
RTVSPost2010PropOp30
 70
     1
102
RTVSPost2010Prop31
280
     0
102
RTVSPost2010PropOp31
 70
     1
102
RTVSPost2010Prop32
280
     0
102
RTVSPost2010PropOp32
 70
     1
102
RTVSPost2010Prop33
280
     0
102
RTVSPost2010PropOp33
 70
     1
102
RTVSPost2010Prop34
280
     0
102
RTVSPost2010PropOp34
 70
     1
102
RTVSPost2010Prop35
280
     0
102
RTVSPost2010PropOp35
 70
     1
102
RTVSPost2010Prop36
280
     0
102
RTVSPost2010PropOp36
 70
     1
102
RTVSPost2010Prop37
 90
       50
102
RTVSPost2010PropOp37
 70
     1
102
RTVSPost2010Prop38
140
0.0
102
RTVSPost2010PropOp38
 70
     1
102
RTVSPost2010Prop39
140
1.0
102
RTVSPost2010PropOp39
 70
     1
102
RTVSPost2010Prop40
 90
        0
102
RTVSPost2010PropOp40
 70
     1
102
RTVSPost2010Prop41ColorIndex
 90
       18
102
RTVSPost2010Prop41ColorRGB
 90
        0
102
RTVSPost2010PropOp41
 70
     1
102
RTVSPost2010Prop42
 90
       50
102
RTVSPost2010PropOp42
 70
     1
102
RTVSPost2010Prop43
 90
        3
102
RTVSPost2010PropOp43
 70
     1
102
RTVSPost2010Prop44ColorIndex
 90
        5
102
RTVSPost2010Prop44ColorRGB
 90
      255
102
RTVSPost2010PropOp44
 70
     1
102
RTVSPost2010Prop45
280
     0
102
RTVSPost2010PropOp45
 70
     1
102
RTVSPost2010Prop46
 90
       50
102
RTVSPost2010PropOp46
 70
     1
102
RTVSPost2010Prop47
 90
       50
102
RTVSPost2010PropOp47
 70
     1
102
RTVSPost2010Prop48
 90
       50
102
RTVSPost2010PropOp48
 70
     1
102
RTVSPost2010Prop49
280
     0
102
RTVSPost2010PropOp49
 70
     1
102
RTVSPost2010Prop50
 90
       50
102
RTVSPost2010PropOp50
 70
     1
102
RTVSPost2010Prop51ColorIndex
 90
      256
102
RTVSPost2010Prop51ColorRGB
 90
-16777216
102
RTVSPost2010PropOp51
 70
     0
102
RTVSPost2010Prop52
140
1.0
102
RTVSPost2010PropOp52
 70
     0
102
RTVSPost2010Prop53
 90
        2
102
RTVSPost2010PropOp53
 70
     1
102
RTVSPost2010Prop54
  1
strokes_ogs.tif
102
RTVSPost2010PropOp54
 70
     1
102
RTVSPost2010Prop55
280
     0
102
RTVSPost2010PropOp55
 70
     1
102
RTVSPost2010Prop56
140
1.0
102
RTVSPost2010PropOp56
 70
     1
102
RTVSPost2010Prop57
140
1.0
102
RTVSPost2010PropOp57
 70
     1
  0
XRECORD
  5
81E
102
{ACAD_REACTORS
330
81D
102
}
330
81D
100
AcDbXrecord
280
     1
102
RTVSPropertyOp0
 70
     1
102
RTVSPropertyOp1
 70
     1
102
RTVSPropertyOp2
 70
     1
102
RTVSPropertyOp3
 70
     1
102
RTVSPropertyOp4
 70
     1
102
RTVSPropertyOp5
 70
     1
102
RTVSPropertyOp6
 70
     1
102
RTVSPropertyOp7
 70
     1
102
RTVSPropertyOp8
 70
     1
102
RTVSPropertyOp9
 70
     1
102
RTVSPropertyOp10
 70
     1
102
RTVSPropertyOp11
 70
     1
102
RTVSPropertyOp12
 70
     1
102
RTVSPropertyOp13
 70
     1
102
RTVSPropertyOp14
 70
     1
102
RTVSPropertyOp15
 70
     1
102
RTVSPropertyOp16
 70
     1
102
RTVSPropertyOp17
 70
     1
102
RTVSPropertyOp18
 70
     1
102
RTVSPropertyOp19
 70
     1
102
RTVSPropertyOp20
 70
     1
102
RTVSPropertyOp21
 70
     1
102
RTVSPropertyOp22
 70
     1
102
RTVSPropertyOp23
 70
     1
102
RTVSPropertyOp24
 70
     1
102
RTVSPropertyOp25
 70
     1
102
RTVSPropertyOp26
 70
     1
102
RTVSPropertyOp27
 70
     1
102
RTVSPropertyOp28
 70
     1
102
RTVSPropertyOp29
 70
     1
102
RTVSPropertyOp30
 70
     1
102
RTVSPropertyOp31
 70
     1
102
RTVSPropertyOp32
 70
     1
102
RTVSPropertyOp33
 70
     1
102
RTVSPropertyOp34
 70
     1
102
RTVSPropertyOp35
 70
     1
102
RTVSPropertyOp36
 70
     1
102
RTVSPropertyOp37
 70
     1
102
RTVSPropertyOp38
 70
     1
102
RTVSPropertyOp39
 70
     1
102
RTVSPropertyOp40
 70
     1
102
RTVSPropertyOp41
 70
     1
102
RTVSPropertyOp42
 70
     1
102
RTVSPropertyOp43
 70
     1
102
RTVSPropertyOp44
 70
     1
102
RTVSPropertyOp45
 70
     1
102
RTVSPropertyOp46
 70
     1
102
RTVSPropertyOp47
 70
     1
102
RTVSPropertyOp48
 70
     1
102
RTVSPropertyOp49
 70
     1
102
RTVSPropertyOp50
 70
     1
102
RTVSPropertyOp51
 70
     0
102
RTVSPropertyOp52
 70
     0
102
RTVSPropertyOp53
 70
     1
102
RTVSPropertyOp54
 70
     1
102
RTVSPropertyOp55
 70
     1
102
RTVSPropertyOp56
 70
     1
102
RTVSPropertyOp57
 70
     1
102
RTVSPost2010Prop28
280
     0
102
RTVSPost2010PropOp28
 70
     1
102
RTVSPost2010Prop29
280
     1
102
RTVSPost2010PropOp29
 70
     1
102
RTVSPost2010Prop30
280
     1
102
RTVSPost2010PropOp30
 70
     1
102
RTVSPost2010Prop31
280
     0
102
RTVSPost2010PropOp31
 70
     1
102
RTVSPost2010Prop32
280
     0
102
RTVSPost2010PropOp32
 70
     1
102
RTVSPost2010Prop33
280
     0
102
RTVSPost2010PropOp33
 70
     1
102
RTVSPost2010Prop34
280
     0
102
RTVSPost2010PropOp34
 70
     1
102
RTVSPost2010Prop35
280
     0
102
RTVSPost2010PropOp35
 70
     1
102
RTVSPost2010Prop36
280
     0
102
RTVSPost2010PropOp36
 70
     1
102
RTVSPost2010Prop37
 90
       50
102
RTVSPost2010PropOp37
 70
     1
102
RTVSPost2010Prop38
140
0.0
102
RTVSPost2010PropOp38
 70
     1
102
RTVSPost2010Prop39
140
1.0
102
RTVSPost2010PropOp39
 70
     1
102
RTVSPost2010Prop40
 90
        0
102
RTVSPost2010PropOp40
 70
     1
102
RTVSPost2010Prop41ColorIndex
 90
       18
102
RTVSPost2010Prop41ColorRGB
 90
        0
102
RTVSPost2010PropOp41
 70
     1
102
RTVSPost2010Prop42
 90
       50
102
RTVSPost2010PropOp42
 70
     1
102
RTVSPost2010Prop43
 90
        3
102
RTVSPost2010PropOp43
 70
     1
102
RTVSPost2010Prop44ColorIndex
 90
        5
102
RTVSPost2010Prop44ColorRGB
 90
      255
102
RTVSPost2010PropOp44
 70
     1
102
RTVSPost2010Prop45
280
     0
102
RTVSPost2010PropOp45
 70
     1
102
RTVSPost2010Prop46
 90
       50
102
RTVSPost2010PropOp46
 70
     1
102
RTVSPost2010Prop47
 90
       50
102
RTVSPost2010PropOp47
 70
     1
102
RTVSPost2010Prop48
 90
       50
102
RTVSPost2010PropOp48
 70
     1
102
RTVSPost2010Prop49
280
     0
102
RTVSPost2010PropOp49
 70
     1
102
RTVSPost2010Prop50
 90
       50
102
RTVSPost2010PropOp50
 70
     1
102
RTVSPost2010Prop51ColorIndex
 90
      256
102
RTVSPost2010Prop51ColorRGB
 90
-16777216
102
RTVSPost2010PropOp51
 70
     0
102
RTVSPost2010Prop52
140
1.0
102
RTVSPost2010PropOp52
 70
     0
102
RTVSPost2010Prop53
 90
        2
102
RTVSPost2010PropOp53
 70
     1
102
RTVSPost2010Prop54
  1
strokes_ogs.tif
102
RTVSPost2010PropOp54
 70
     1
102
RTVSPost2010Prop55
280
     0
102
RTVSPost2010PropOp55
 70
     1
102
RTVSPost2010Prop56
140
1.0
102
RTVSPost2010PropOp56
 70
     1
102
RTVSPost2010Prop57
140
1.0
102
RTVSPost2010PropOp57
 70
     1
  0
XRECORD
  5
820
102
{ACAD_REACTORS
330
81F
102
}
330
81F
100
AcDbXrecord
280
     1
102
RTVSPropertyOp0
 70
     1
102
RTVSPropertyOp1
 70
     1
102
RTVSPropertyOp2
 70
     1
102
RTVSPropertyOp3
 70
     1
102
RTVSPropertyOp4
 70
     1
102
RTVSPropertyOp5
 70
     1
102
RTVSPropertyOp6
 70
     1
102
RTVSPropertyOp7
 70
     1
102
RTVSPropertyOp8
 70
     1
102
RTVSPropertyOp9
 70
     1
102
RTVSPropertyOp10
 70
     1
102
RTVSPropertyOp11
 70
     1
102
RTVSPropertyOp12
 70
     1
102
RTVSPropertyOp13
 70
     1
102
RTVSPropertyOp14
 70
     1
102
RTVSPropertyOp15
 70
     1
102
RTVSPropertyOp16
 70
     1
102
RTVSPropertyOp17
 70
     1
102
RTVSPropertyOp18
 70
     1
102
RTVSPropertyOp19
 70
     1
102
RTVSPropertyOp20
 70
     1
102
RTVSPropertyOp21
 70
     1
102
RTVSPropertyOp22
 70
     1
102
RTVSPropertyOp23
 70
     1
102
RTVSPropertyOp24
 70
     1
102
RTVSPropertyOp25
 70
     1
102
RTVSPropertyOp26
 70
     1
102
RTVSPropertyOp27
 70
     1
102
RTVSPropertyOp28
 70
     1
102
RTVSPropertyOp29
 70
     1
102
RTVSPropertyOp30
 70
     1
102
RTVSPropertyOp31
 70
     1
102
RTVSPropertyOp32
 70
     1
102
RTVSPropertyOp33
 70
     1
102
RTVSPropertyOp34
 70
     1
102
RTVSPropertyOp35
 70
     1
102
RTVSPropertyOp36
 70
     1
102
RTVSPropertyOp37
 70
     1
102
RTVSPropertyOp38
 70
     1
102
RTVSPropertyOp39
 70
     1
102
RTVSPropertyOp40
 70
     1
102
RTVSPropertyOp41
 70
     1
102
RTVSPropertyOp42
 70
     1
102
RTVSPropertyOp43
 70
     1
102
RTVSPropertyOp44
 70
     1
102
RTVSPropertyOp45
 70
     1
102
RTVSPropertyOp46
 70
     1
102
RTVSPropertyOp47
 70
     1
102
RTVSPropertyOp48
 70
     1
102
RTVSPropertyOp49
 70
     1
102
RTVSPropertyOp50
 70
     1
102
RTVSPropertyOp51
 70
     0
102
RTVSPropertyOp52
 70
     0
102
RTVSPropertyOp53
 70
     1
102
RTVSPropertyOp54
 70
     1
102
RTVSPropertyOp55
 70
     1
102
RTVSPropertyOp56
 70
     1
102
RTVSPropertyOp57
 70
     1
102
RTVSPost2010Prop28
280
     0
102
RTVSPost2010PropOp28
 70
     1
102
RTVSPost2010Prop29
280
     1
102
RTVSPost2010PropOp29
 70
     1
102
RTVSPost2010Prop30
280
     1
102
RTVSPost2010PropOp30
 70
     1
102
RTVSPost2010Prop31
280
     0
102
RTVSPost2010PropOp31
 70
     1
102
RTVSPost2010Prop32
280
     0
102
RTVSPost2010PropOp32
 70
     1
102
RTVSPost2010Prop33
280
     0
102
RTVSPost2010PropOp33
 70
     1
102
RTVSPost2010Prop34
280
     0
102
RTVSPost2010PropOp34
 70
     1
102
RTVSPost2010Prop35
280
     0
102
RTVSPost2010PropOp35
 70
     1
102
RTVSPost2010Prop36
280
     0
102
RTVSPost2010PropOp36
 70
     1
102
RTVSPost2010Prop37
 90
       50
102
RTVSPost2010PropOp37
 70
     1
102
RTVSPost2010Prop38
140
0.0
102
RTVSPost2010PropOp38
 70
     1
102
RTVSPost2010Prop39
140
1.0
102
RTVSPost2010PropOp39
 70
     1
102
RTVSPost2010Prop40
 90
        0
102
RTVSPost2010PropOp40
 70
     1
102
RTVSPost2010Prop41ColorIndex
 90
       18
102
RTVSPost2010Prop41ColorRGB
 90
        0
102
RTVSPost2010PropOp41
 70
     1
102
RTVSPost2010Prop42
 90
       50
102
RTVSPost2010PropOp42
 70
     1
102
RTVSPost2010Prop43
 90
        3
102
RTVSPost2010PropOp43
 70
     1
102
RTVSPost2010Prop44ColorIndex
 90
        5
102
RTVSPost2010Prop44ColorRGB
 90
      255
102
RTVSPost2010PropOp44
 70
     1
102
RTVSPost2010Prop45
280
     0
102
RTVSPost2010PropOp45
 70
     1
102
RTVSPost2010Prop46
 90
       50
102
RTVSPost2010PropOp46
 70
     1
102
RTVSPost2010Prop47
 90
       50
102
RTVSPost2010PropOp47
 70
     1
102
RTVSPost2010Prop48
 90
       50
102
RTVSPost2010PropOp48
 70
     1
102
RTVSPost2010Prop49
280
     0
102
RTVSPost2010PropOp49
 70
     1
102
RTVSPost2010Prop50
 90
       50
102
RTVSPost2010PropOp50
 70
     1
102
RTVSPost2010Prop51ColorIndex
 90
      256
102
RTVSPost2010Prop51ColorRGB
 90
-16777216
102
RTVSPost2010PropOp51
 70
     0
102
RTVSPost2010Prop52
140
1.0
102
RTVSPost2010PropOp52
 70
     0
102
RTVSPost2010Prop53
 90
        2
102
RTVSPost2010PropOp53
 70
     1
102
RTVSPost2010Prop54
  1
strokes_ogs.tif
102
RTVSPost2010PropOp54
 70
     1
102
RTVSPost2010Prop55
280
     0
102
RTVSPost2010PropOp55
 70
     1
102
RTVSPost2010Prop56
140
1.0
102
RTVSPost2010PropOp56
 70
     1
102
RTVSPost2010Prop57
140
1.0
102
RTVSPost2010PropOp57
 70
     1
  0
XRECORD
  5
822
102
{ACAD_REACTORS
330
821
102
}
330
821
100
AcDbXrecord
280
     1
102
RTVSPropertyOp0
 70
     1
102
RTVSPropertyOp1
 70
     1
102
RTVSPropertyOp2
 70
     1
102
RTVSPropertyOp3
 70
     1
102
RTVSPropertyOp4
 70
     1
102
RTVSPropertyOp5
 70
     1
102
RTVSPropertyOp6
 70
     1
102
RTVSPropertyOp7
 70
     1
102
RTVSPropertyOp8
 70
     1
102
RTVSPropertyOp9
 70
     1
102
RTVSPropertyOp10
 70
     1
102
RTVSPropertyOp11
 70
     1
102
RTVSPropertyOp12
 70
     1
102
RTVSPropertyOp13
 70
     1
102
RTVSPropertyOp14
 70
     1
102
RTVSPropertyOp15
 70
     1
102
RTVSPropertyOp16
 70
     1
102
RTVSPropertyOp17
 70
     1
102
RTVSPropertyOp18
 70
     1
102
RTVSPropertyOp19
 70
     1
102
RTVSPropertyOp20
 70
     1
102
RTVSPropertyOp21
 70
     1
102
RTVSPropertyOp22
 70
     1
102
RTVSPropertyOp23
 70
     1
102
RTVSPropertyOp24
 70
     1
102
RTVSPropertyOp25
 70
     1
102
RTVSPropertyOp26
 70
     1
102
RTVSPropertyOp27
 70
     1
102
RTVSPropertyOp28
 70
     1
102
RTVSPropertyOp29
 70
     1
102
RTVSPropertyOp30
 70
     1
102
RTVSPropertyOp31
 70
     1
102
RTVSPropertyOp32
 70
     1
102
RTVSPropertyOp33
 70
     1
102
RTVSPropertyOp34
 70
     1
102
RTVSPropertyOp35
 70
     1
102
RTVSPropertyOp36
 70
     1
102
RTVSPropertyOp37
 70
     1
102
RTVSPropertyOp38
 70
     1
102
RTVSPropertyOp39
 70
     1
102
RTVSPropertyOp40
 70
     1
102
RTVSPropertyOp41
 70
     1
102
RTVSPropertyOp42
 70
     1
102
RTVSPropertyOp43
 70
     1
102
RTVSPropertyOp44
 70
     1
102
RTVSPropertyOp45
 70
     1
102
RTVSPropertyOp46
 70
     1
102
RTVSPropertyOp47
 70
     1
102
RTVSPropertyOp48
 70
     1
102
RTVSPropertyOp49
 70
     1
102
RTVSPropertyOp50
 70
     1
102
RTVSPropertyOp51
 70
     0
102
RTVSPropertyOp52
 70
     0
102
RTVSPropertyOp53
 70
     1
102
RTVSPropertyOp54
 70
     1
102
RTVSPropertyOp55
 70
     1
102
RTVSPropertyOp56
 70
     1
102
RTVSPropertyOp57
 70
     1
102
RTVSPost2010Prop28
280
     0
102
RTVSPost2010PropOp28
 70
     1
102
RTVSPost2010Prop29
280
     1
102
RTVSPost2010PropOp29
 70
     1
102
RTVSPost2010Prop30
280
     1
102
RTVSPost2010PropOp30
 70
     1
102
RTVSPost2010Prop31
280
     0
102
RTVSPost2010PropOp31
 70
     1
102
RTVSPost2010Prop32
280
     0
102
RTVSPost2010PropOp32
 70
     1
102
RTVSPost2010Prop33
280
     0
102
RTVSPost2010PropOp33
 70
     1
102
RTVSPost2010Prop34
280
     0
102
RTVSPost2010PropOp34
 70
     1
102
RTVSPost2010Prop35
280
     0
102
RTVSPost2010PropOp35
 70
     1
102
RTVSPost2010Prop36
280
     0
102
RTVSPost2010PropOp36
 70
     1
102
RTVSPost2010Prop37
 90
       50
102
RTVSPost2010PropOp37
 70
     1
102
RTVSPost2010Prop38
140
0.0
102
RTVSPost2010PropOp38
 70
     1
102
RTVSPost2010Prop39
140
1.0
102
RTVSPost2010PropOp39
 70
     1
102
RTVSPost2010Prop40
 90
        0
102
RTVSPost2010PropOp40
 70
     1
102
RTVSPost2010Prop41ColorIndex
 90
       18
102
RTVSPost2010Prop41ColorRGB
 90
        0
102
RTVSPost2010PropOp41
 70
     1
102
RTVSPost2010Prop42
 90
       50
102
RTVSPost2010PropOp42
 70
     1
102
RTVSPost2010Prop43
 90
        3
102
RTVSPost2010PropOp43
 70
     1
102
RTVSPost2010Prop44ColorIndex
 90
        5
102
RTVSPost2010Prop44ColorRGB
 90
      255
102
RTVSPost2010PropOp44
 70
     1
102
RTVSPost2010Prop45
280
     0
102
RTVSPost2010PropOp45
 70
     1
102
RTVSPost2010Prop46
 90
       50
102
RTVSPost2010PropOp46
 70
     1
102
RTVSPost2010Prop47
 90
       50
102
RTVSPost2010PropOp47
 70
     1
102
RTVSPost2010Prop48
 90
       50
102
RTVSPost2010PropOp48
 70
     1
102
RTVSPost2010Prop49
280
     0
102
RTVSPost2010PropOp49
 70
     1
102
RTVSPost2010Prop50
 90
       50
102
RTVSPost2010PropOp50
 70
     1
102
RTVSPost2010Prop51ColorIndex
 90
      256
102
RTVSPost2010Prop51ColorRGB
 90
-16777216
102
RTVSPost2010PropOp51
 70
     0
102
RTVSPost2010Prop52
140
1.0
102
RTVSPost2010PropOp52
 70
     0
102
RTVSPost2010Prop53
 90
        2
102
RTVSPost2010PropOp53
 70
     1
102
RTVSPost2010Prop54
  1
strokes_ogs.tif
102
RTVSPost2010PropOp54
 70
     1
102
RTVSPost2010Prop55
280
     0
102
RTVSPost2010PropOp55
 70
     1
102
RTVSPost2010Prop56
140
1.0
102
RTVSPost2010PropOp56
 70
     1
102
RTVSPost2010Prop57
140
1.0
102
RTVSPost2010PropOp57
 70
     1
  0
XRECORD
  5
824
102
{ACAD_REACTORS
330
823
102
}
330
823
100
AcDbXrecord
280
     1
102
RTVSPropertyOp0
 70
     1
102
RTVSPropertyOp1
 70
     1
102
RTVSPropertyOp2
 70
     1
102
RTVSPropertyOp3
 70
     1
102
RTVSPropertyOp4
 70
     1
102
RTVSPropertyOp5
 70
     1
102
RTVSPropertyOp6
 70
     1
102
RTVSPropertyOp7
 70
     1
102
RTVSPropertyOp8
 70
     1
102
RTVSPropertyOp9
 70
     1
102
RTVSPropertyOp10
 70
     1
102
RTVSPropertyOp11
 70
     1
102
RTVSPropertyOp12
 70
     1
102
RTVSPropertyOp13
 70
     1
102
RTVSPropertyOp14
 70
     1
102
RTVSPropertyOp15
 70
     1
102
RTVSPropertyOp16
 70
     1
102
RTVSPropertyOp17
 70
     1
102
RTVSPropertyOp18
 70
     1
102
RTVSPropertyOp19
 70
     1
102
RTVSPropertyOp20
 70
     1
102
RTVSPropertyOp21
 70
     1
102
RTVSPropertyOp22
 70
     1
102
RTVSPropertyOp23
 70
     1
102
RTVSPropertyOp24
 70
     1
102
RTVSPropertyOp25
 70
     1
102
RTVSPropertyOp26
 70
     1
102
RTVSPropertyOp27
 70
     1
102
RTVSPropertyOp28
 70
     1
102
RTVSPropertyOp29
 70
     1
102
RTVSPropertyOp30
 70
     1
102
RTVSPropertyOp31
 70
     1
102
RTVSPropertyOp32
 70
     1
102
RTVSPropertyOp33
 70
     1
102
RTVSPropertyOp34
 70
     1
102
RTVSPropertyOp35
 70
     1
102
RTVSPropertyOp36
 70
     1
102
RTVSPropertyOp37
 70
     1
102
RTVSPropertyOp38
 70
     1
102
RTVSPropertyOp39
 70
     1
102
RTVSPropertyOp40
 70
     1
102
RTVSPropertyOp41
 70
     1
102
RTVSPropertyOp42
 70
     1
102
RTVSPropertyOp43
 70
     1
102
RTVSPropertyOp44
 70
     1
102
RTVSPropertyOp45
 70
     1
102
RTVSPropertyOp46
 70
     1
102
RTVSPropertyOp47
 70
     1
102
RTVSPropertyOp48
 70
     1
102
RTVSPropertyOp49
 70
     1
102
RTVSPropertyOp50
 70
     1
102
RTVSPropertyOp51
 70
     0
102
RTVSPropertyOp52
 70
     0
102
RTVSPropertyOp53
 70
     1
102
RTVSPropertyOp54
 70
     1
102
RTVSPropertyOp55
 70
     1
102
RTVSPropertyOp56
 70
     1
102
RTVSPropertyOp57
 70
     1
102
RTVSPost2010Prop28
280
     0
102
RTVSPost2010PropOp28
 70
     1
102
RTVSPost2010Prop29
280
     1
102
RTVSPost2010PropOp29
 70
     1
102
RTVSPost2010Prop30
280
     1
102
RTVSPost2010PropOp30
 70
     1
102
RTVSPost2010Prop31
280
     0
102
RTVSPost2010PropOp31
 70
     1
102
RTVSPost2010Prop32
280
     0
102
RTVSPost2010PropOp32
 70
     1
102
RTVSPost2010Prop33
280
     0
102
RTVSPost2010PropOp33
 70
     1
102
RTVSPost2010Prop34
280
     0
102
RTVSPost2010PropOp34
 70
     1
102
RTVSPost2010Prop35
280
     0
102
RTVSPost2010PropOp35
 70
     1
102
RTVSPost2010Prop36
280
     0
102
RTVSPost2010PropOp36
 70
     1
102
RTVSPost2010Prop37
 90
       50
102
RTVSPost2010PropOp37
 70
     1
102
RTVSPost2010Prop38
140
0.0
102
RTVSPost2010PropOp38
 70
     1
102
RTVSPost2010Prop39
140
1.0
102
RTVSPost2010PropOp39
 70
     1
102
RTVSPost2010Prop40
 90
        0
102
RTVSPost2010PropOp40
 70
     1
102
RTVSPost2010Prop41ColorIndex
 90
       18
102
RTVSPost2010Prop41ColorRGB
 90
        0
102
RTVSPost2010PropOp41
 70
     1
102
RTVSPost2010Prop42
 90
       50
102
RTVSPost2010PropOp42
 70
     1
102
RTVSPost2010Prop43
 90
        3
102
RTVSPost2010PropOp43
 70
     1
102
RTVSPost2010Prop44ColorIndex
 90
        5
102
RTVSPost2010Prop44ColorRGB
 90
      255
102
RTVSPost2010PropOp44
 70
     1
102
RTVSPost2010Prop45
280
     0
102
RTVSPost2010PropOp45
 70
     1
102
RTVSPost2010Prop46
 90
       50
102
RTVSPost2010PropOp46
 70
     1
102
RTVSPost2010Prop47
 90
       50
102
RTVSPost2010PropOp47
 70
     1
102
RTVSPost2010Prop48
 90
       50
102
RTVSPost2010PropOp48
 70
     1
102
RTVSPost2010Prop49
280
     0
102
RTVSPost2010PropOp49
 70
     1
102
RTVSPost2010Prop50
 90
       50
102
RTVSPost2010PropOp50
 70
     1
102
RTVSPost2010Prop51ColorIndex
 90
      256
102
RTVSPost2010Prop51ColorRGB
 90
-16777216
102
RTVSPost2010PropOp51
 70
     0
102
RTVSPost2010Prop52
140
1.0
102
RTVSPost2010PropOp52
 70
     0
102
RTVSPost2010Prop53
 90
        2
102
RTVSPost2010PropOp53
 70
     1
102
RTVSPost2010Prop54
  1
strokes_ogs.tif
102
RTVSPost2010PropOp54
 70
     1
102
RTVSPost2010Prop55
280
     0
102
RTVSPost2010PropOp55
 70
     1
102
RTVSPost2010Prop56
140
1.0
102
RTVSPost2010PropOp56
 70
     1
102
RTVSPost2010Prop57
140
1.0
102
RTVSPost2010PropOp57
 70
     1
  0
XRECORD
  5
828
102
{ACAD_REACTORS
330
827
102
}
330
827
100
AcDbXrecord
280
     1
102
RTVSPropertyOp0
 70
     1
102
RTVSPropertyOp1
 70
     1
102
RTVSPropertyOp2
 70
     1
102
RTVSPropertyOp3
 70
     1
102
RTVSPropertyOp4
 70
     1
102
RTVSPropertyOp5
 70
     1
102
RTVSPropertyOp6
 70
     1
102
RTVSPropertyOp7
 70
     1
102
RTVSPropertyOp8
 70
     1
102
RTVSPropertyOp9
 70
     1
102
RTVSPropertyOp10
 70
     1
102
RTVSPropertyOp11
 70
     1
102
RTVSPropertyOp12
 70
     1
102
RTVSPropertyOp13
 70
     1
102
RTVSPropertyOp14
 70
     1
102
RTVSPropertyOp15
 70
     1
102
RTVSPropertyOp16
 70
     1
102
RTVSPropertyOp17
 70
     1
102
RTVSPropertyOp18
 70
     1
102
RTVSPropertyOp19
 70
     1
102
RTVSPropertyOp20
 70
     1
102
RTVSPropertyOp21
 70
     1
102
RTVSPropertyOp22
 70
     1
102
RTVSPropertyOp23
 70
     1
102
RTVSPropertyOp24
 70
     1
102
RTVSPropertyOp25
 70
     1
102
RTVSPropertyOp26
 70
     1
102
RTVSPropertyOp27
 70
     1
102
RTVSPropertyOp28
 70
     1
102
RTVSPropertyOp29
 70
     1
102
RTVSPropertyOp30
 70
     1
102
RTVSPropertyOp31
 70
     1
102
RTVSPropertyOp32
 70
     1
102
RTVSPropertyOp33
 70
     1
102
RTVSPropertyOp34
 70
     1
102
RTVSPropertyOp35
 70
     1
102
RTVSPropertyOp36
 70
     1
102
RTVSPropertyOp37
 70
     1
102
RTVSPropertyOp38
 70
     1
102
RTVSPropertyOp39
 70
     1
102
RTVSPropertyOp40
 70
     1
102
RTVSPropertyOp41
 70
     1
102
RTVSPropertyOp42
 70
     1
102
RTVSPropertyOp43
 70
     1
102
RTVSPropertyOp44
 70
     1
102
RTVSPropertyOp45
 70
     1
102
RTVSPropertyOp46
 70
     1
102
RTVSPropertyOp47
 70
     1
102
RTVSPropertyOp48
 70
     1
102
RTVSPropertyOp49
 70
     1
102
RTVSPropertyOp50
 70
     1
102
RTVSPropertyOp51
 70
     0
102
RTVSPropertyOp52
 70
     0
102
RTVSPropertyOp53
 70
     1
102
RTVSPropertyOp54
 70
     1
102
RTVSPropertyOp55
 70
     1
102
RTVSPropertyOp56
 70
     1
102
RTVSPropertyOp57
 70
     1
102
RTVSPost2010Prop28
280
     0
102
RTVSPost2010PropOp28
 70
     1
102
RTVSPost2010Prop29
280
     1
102
RTVSPost2010PropOp29
 70
     1
102
RTVSPost2010Prop30
280
     1
102
RTVSPost2010PropOp30
 70
     1
102
RTVSPost2010Prop31
280
     0
102
RTVSPost2010PropOp31
 70
     1
102
RTVSPost2010Prop32
280
     0
102
RTVSPost2010PropOp32
 70
     1
102
RTVSPost2010Prop33
280
     0
102
RTVSPost2010PropOp33
 70
     1
102
RTVSPost2010Prop34
280
     0
102
RTVSPost2010PropOp34
 70
     1
102
RTVSPost2010Prop35
280
     0
102
RTVSPost2010PropOp35
 70
     1
102
RTVSPost2010Prop36
280
     0
102
RTVSPost2010PropOp36
 70
     1
102
RTVSPost2010Prop37
 90
       50
102
RTVSPost2010PropOp37
 70
     1
102
RTVSPost2010Prop38
140
0.0
102
RTVSPost2010PropOp38
 70
     1
102
RTVSPost2010Prop39
140
1.0
102
RTVSPost2010PropOp39
 70
     1
102
RTVSPost2010Prop40
 90
        0
102
RTVSPost2010PropOp40
 70
     1
102
RTVSPost2010Prop41ColorIndex
 90
       18
102
RTVSPost2010Prop41ColorRGB
 90
        0
102
RTVSPost2010PropOp41
 70
     1
102
RTVSPost2010Prop42
 90
       50
102
RTVSPost2010PropOp42
 70
     1
102
RTVSPost2010Prop43
 90
        3
102
RTVSPost2010PropOp43
 70
     1
102
RTVSPost2010Prop44ColorIndex
 90
        5
102
RTVSPost2010Prop44ColorRGB
 90
      255
102
RTVSPost2010PropOp44
 70
     1
102
RTVSPost2010Prop45
280
     0
102
RTVSPost2010PropOp45
 70
     1
102
RTVSPost2010Prop46
 90
       50
102
RTVSPost2010PropOp46
 70
     1
102
RTVSPost2010Prop47
 90
       50
102
RTVSPost2010PropOp47
 70
     1
102
RTVSPost2010Prop48
 90
       50
102
RTVSPost2010PropOp48
 70
     1
102
RTVSPost2010Prop49
280
     0
102
RTVSPost2010PropOp49
 70
     1
102
RTVSPost2010Prop50
 90
       50
102
RTVSPost2010PropOp50
 70
     1
102
RTVSPost2010Prop51ColorIndex
 90
      256
102
RTVSPost2010Prop51ColorRGB
 90
-16777216
102
RTVSPost2010PropOp51
 70
     0
102
RTVSPost2010Prop52
140
1.0
102
RTVSPost2010PropOp52
 70
     0
102
RTVSPost2010Prop53
 90
        2
102
RTVSPost2010PropOp53
 70
     1
102
RTVSPost2010Prop54
  1
strokes_ogs.tif
102
RTVSPost2010PropOp54
 70
     1
102
RTVSPost2010Prop55
280
     0
102
RTVSPost2010PropOp55
 70
     1
102
RTVSPost2010Prop56
140
1.0
102
RTVSPost2010PropOp56
 70
     1
102
RTVSPost2010Prop57
140
1.0
102
RTVSPost2010PropOp57
 70
     1
  0
XRECORD
  5
83A
102
{ACAD_REACTORS
330
839
102
}
330
839
100
AcDbXrecord
280
     1
102
RTVSPropertyOp0
 70
     0
102
RTVSPropertyOp1
 70
     0
102
RTVSPropertyOp2
 70
     0
102
RTVSPropertyOp3
 70
     0
102
RTVSPropertyOp4
 70
     0
102
RTVSPropertyOp5
 70
     0
102
RTVSPropertyOp6
 70
     0
102
RTVSPropertyOp7
 70
     0
102
RTVSPropertyOp8
 70
     0
102
RTVSPropertyOp9
 70
     0
102
RTVSPropertyOp10
 70
     0
102
RTVSPropertyOp11
 70
     0
102
RTVSPropertyOp12
 70
     0
102
RTVSPropertyOp13
 70
     0
102
RTVSPropertyOp14
 70
     0
102
RTVSPropertyOp15
 70
     0
102
RTVSPropertyOp16
 70
     0
102
RTVSPropertyOp17
 70
     0
102
RTVSPropertyOp18
 70
     0
102
RTVSPropertyOp19
 70
     0
102
RTVSPropertyOp20
 70
     0
102
RTVSPropertyOp21
 70
     0
102
RTVSPropertyOp22
 70
     0
102
RTVSPropertyOp23
 70
     0
102
RTVSPropertyOp24
 70
     0
102
RTVSPropertyOp25
 70
     0
102
RTVSPropertyOp26
 70
     0
102
RTVSPropertyOp27
 70
     0
102
RTVSPropertyOp28
 70
     1
102
RTVSPropertyOp29
 70
     1
102
RTVSPropertyOp30
 70
     1
102
RTVSPropertyOp31
 70
     1
102
RTVSPropertyOp32
 70
     1
102
RTVSPropertyOp33
 70
     1
102
RTVSPropertyOp34
 70
     1
102
RTVSPropertyOp35
 70
     1
102
RTVSPropertyOp36
 70
     1
102
RTVSPropertyOp37
 70
     1
102
RTVSPropertyOp38
 70
     1
102
RTVSPropertyOp39
 70
     1
102
RTVSPropertyOp40
 70
     1
102
RTVSPropertyOp41
 70
     1
102
RTVSPropertyOp42
 70
     1
102
RTVSPropertyOp43
 70
     1
102
RTVSPropertyOp44
 70
     1
102
RTVSPropertyOp45
 70
     1
102
RTVSPropertyOp46
 70
     1
102
RTVSPropertyOp47
 70
     1
102
RTVSPropertyOp48
 70
     1
102
RTVSPropertyOp49
 70
     1
102
RTVSPropertyOp50
 70
     1
102
RTVSPropertyOp51
 70
     0
102
RTVSPropertyOp52
 70
     0
102
RTVSPropertyOp53
 70
     1
102
RTVSPropertyOp54
 70
     1
102
RTVSPropertyOp55
 70
     1
102
RTVSPropertyOp56
 70
     1
102
RTVSPropertyOp57
 70
     1
102
RTVSPost2010Prop28
280
     0
102
RTVSPost2010PropOp28
 70
     1
102
RTVSPost2010Prop29
280
     1
102
RTVSPost2010PropOp29
 70
     1
102
RTVSPost2010Prop30
280
     1
102
RTVSPost2010PropOp30
 70
     1
102
RTVSPost2010Prop31
280
     0
102
RTVSPost2010PropOp31
 70
     1
102
RTVSPost2010Prop32
280
     0
102
RTVSPost2010PropOp32
 70
     1
102
RTVSPost2010Prop33
280
     0
102
RTVSPost2010PropOp33
 70
     1
102
RTVSPost2010Prop34
280
     0
102
RTVSPost2010PropOp34
 70
     1
102
RTVSPost2010Prop35
280
     0
102
RTVSPost2010PropOp35
 70
     1
102
RTVSPost2010Prop36
280
     0
102
RTVSPost2010PropOp36
 70
     1
102
RTVSPost2010Prop37
 90
       50
102
RTVSPost2010PropOp37
 70
     1
102
RTVSPost2010Prop38
140
0.0
102
RTVSPost2010PropOp38
 70
     1
102
RTVSPost2010Prop39
140
1.0
102
RTVSPost2010PropOp39
 70
     1
102
RTVSPost2010Prop40
 90
        0
102
RTVSPost2010PropOp40
 70
     1
102
RTVSPost2010Prop41ColorIndex
 90
       18
102
RTVSPost2010Prop41ColorRGB
 90
        0
102
RTVSPost2010PropOp41
 70
     1
102
RTVSPost2010Prop42
 90
       50
102
RTVSPost2010PropOp42
 70
     1
102
RTVSPost2010Prop43
 90
        3
102
RTVSPost2010PropOp43
 70
     1
102
RTVSPost2010Prop44ColorIndex
 90
        5
102
RTVSPost2010Prop44ColorRGB
 90
      255
102
RTVSPost2010PropOp44
 70
     1
102
RTVSPost2010Prop45
280
     0
102
RTVSPost2010PropOp45
 70
     1
102
RTVSPost2010Prop46
 90
       50
102
RTVSPost2010PropOp46
 70
     1
102
RTVSPost2010Prop47
 90
       50
102
RTVSPost2010PropOp47
 70
     1
102
RTVSPost2010Prop48
 90
       50
102
RTVSPost2010PropOp48
 70
     1
102
RTVSPost2010Prop49
280
     0
102
RTVSPost2010PropOp49
 70
     1
102
RTVSPost2010Prop50
 90
       50
102
RTVSPost2010PropOp50
 70
     1
102
RTVSPost2010Prop51ColorIndex
 90
      256
102
RTVSPost2010Prop51ColorRGB
 90
-16777216
102
RTVSPost2010PropOp51
 70
     0
102
RTVSPost2010Prop52
140
1.0
102
RTVSPost2010PropOp52
 70
     0
102
RTVSPost2010Prop53
 90
        2
102
RTVSPost2010PropOp53
 70
     1
102
RTVSPost2010Prop54
  1
strokes_ogs.tif
102
RTVSPost2010PropOp54
 70
     1
102
RTVSPost2010Prop55
280
     0
102
RTVSPost2010PropOp55
 70
     1
102
RTVSPost2010Prop56
140
1.0
102
RTVSPost2010PropOp56
 70
     1
102
RTVSPost2010Prop57
140
1.0
102
RTVSPost2010PropOp57
 70
     1
  0
XRECORD
  5
834
102
{ACAD_REACTORS
330
833
102
}
330
833
100
AcDbXrecord
280
     1
102
RTVSPropertyOp0
 70
     1
102
RTVSPropertyOp1
 70
     1
102
RTVSPropertyOp2
 70
     1
102
RTVSPropertyOp3
 70
     1
102
RTVSPropertyOp4
 70
     1
102
RTVSPropertyOp5
 70
     1
102
RTVSPropertyOp6
 70
     1
102
RTVSPropertyOp7
 70
     1
102
RTVSPropertyOp8
 70
     1
102
RTVSPropertyOp9
 70
     1
102
RTVSPropertyOp10
 70
     1
102
RTVSPropertyOp11
 70
     1
102
RTVSPropertyOp12
 70
     1
102
RTVSPropertyOp13
 70
     1
102
RTVSPropertyOp14
 70
     1
102
RTVSPropertyOp15
 70
     1
102
RTVSPropertyOp16
 70
     1
102
RTVSPropertyOp17
 70
     1
102
RTVSPropertyOp18
 70
     1
102
RTVSPropertyOp19
 70
     1
102
RTVSPropertyOp20
 70
     1
102
RTVSPropertyOp21
 70
     1
102
RTVSPropertyOp22
 70
     1
102
RTVSPropertyOp23
 70
     1
102
RTVSPropertyOp24
 70
     1
102
RTVSPropertyOp25
 70
     1
102
RTVSPropertyOp26
 70
     1
102
RTVSPropertyOp27
 70
     1
102
RTVSPropertyOp28
 70
     1
102
RTVSPropertyOp29
 70
     1
102
RTVSPropertyOp30
 70
     1
102
RTVSPropertyOp31
 70
     1
102
RTVSPropertyOp32
 70
     1
102
RTVSPropertyOp33
 70
     1
102
RTVSPropertyOp34
 70
     1
102
RTVSPropertyOp35
 70
     1
102
RTVSPropertyOp36
 70
     1
102
RTVSPropertyOp37
 70
     1
102
RTVSPropertyOp38
 70
     1
102
RTVSPropertyOp39
 70
     1
102
RTVSPropertyOp40
 70
     1
102
RTVSPropertyOp41
 70
     1
102
RTVSPropertyOp42
 70
     1
102
RTVSPropertyOp43
 70
     1
102
RTVSPropertyOp44
 70
     1
102
RTVSPropertyOp45
 70
     1
102
RTVSPropertyOp46
 70
     1
102
RTVSPropertyOp47
 70
     1
102
RTVSPropertyOp48
 70
     1
102
RTVSPropertyOp49
 70
     1
102
RTVSPropertyOp50
 70
     1
102
RTVSPropertyOp51
 70
     0
102
RTVSPropertyOp52
 70
     0
102
RTVSPropertyOp53
 70
     1
102
RTVSPropertyOp54
 70
     1
102
RTVSPropertyOp55
 70
     1
102
RTVSPropertyOp56
 70
     1
102
RTVSPropertyOp57
 70
     1
102
RTVSPost2010Prop28
280
     0
102
RTVSPost2010PropOp28
 70
     1
102
RTVSPost2010Prop29
280
     1
102
RTVSPost2010PropOp29
 70
     1
102
RTVSPost2010Prop30
280
     1
102
RTVSPost2010PropOp30
 70
     1
102
RTVSPost2010Prop31
280
     0
102
RTVSPost2010PropOp31
 70
     1
102
RTVSPost2010Prop32
280
     0
102
RTVSPost2010PropOp32
 70
     1
102
RTVSPost2010Prop33
280
     0
102
RTVSPost2010PropOp33
 70
     1
102
RTVSPost2010Prop34
280
     0
102
RTVSPost2010PropOp34
 70
     1
102
RTVSPost2010Prop35
280
     0
102
RTVSPost2010PropOp35
 70
     1
102
RTVSPost2010Prop36
280
     0
102
RTVSPost2010PropOp36
 70
     1
102
RTVSPost2010Prop37
 90
       50
102
RTVSPost2010PropOp37
 70
     1
102
RTVSPost2010Prop38
140
0.0
102
RTVSPost2010PropOp38
 70
     1
102
RTVSPost2010Prop39
140
1.0
102
RTVSPost2010PropOp39
 70
     1
102
RTVSPost2010Prop40
 90
        0
102
RTVSPost2010PropOp40
 70
     1
102
RTVSPost2010Prop41ColorIndex
 90
       18
102
RTVSPost2010Prop41ColorRGB
 90
        0
102
RTVSPost2010PropOp41
 70
     1
102
RTVSPost2010Prop42
 90
       50
102
RTVSPost2010PropOp42
 70
     1
102
RTVSPost2010Prop43
 90
        3
102
RTVSPost2010PropOp43
 70
     1
102
RTVSPost2010Prop44ColorIndex
 90
        5
102
RTVSPost2010Prop44ColorRGB
 90
      255
102
RTVSPost2010PropOp44
 70
     1
102
RTVSPost2010Prop45
280
     0
102
RTVSPost2010PropOp45
 70
     1
102
RTVSPost2010Prop46
 90
       50
102
RTVSPost2010PropOp46
 70
     1
102
RTVSPost2010Prop47
 90
       50
102
RTVSPost2010PropOp47
 70
     1
102
RTVSPost2010Prop48
 90
       50
102
RTVSPost2010PropOp48
 70
     1
102
RTVSPost2010Prop49
280
     0
102
RTVSPost2010PropOp49
 70
     1
102
RTVSPost2010Prop50
 90
       50
102
RTVSPost2010PropOp50
 70
     1
102
RTVSPost2010Prop51ColorIndex
 90
      256
102
RTVSPost2010Prop51ColorRGB
 90
-16777216
102
RTVSPost2010PropOp51
 70
     0
102
RTVSPost2010Prop52
140
1.0
102
RTVSPost2010PropOp52
 70
     0
102
RTVSPost2010Prop53
 90
        2
102
RTVSPost2010PropOp53
 70
     1
102
RTVSPost2010Prop54
  1
strokes_ogs.tif
102
RTVSPost2010PropOp54
 70
     1
102
RTVSPost2010Prop55
280
     0
102
RTVSPost2010PropOp55
 70
     1
102
RTVSPost2010Prop56
140
1.0
102
RTVSPost2010PropOp56
 70
     1
102
RTVSPost2010Prop57
140
1.0
102
RTVSPost2010PropOp57
 70
     1
  0
XRECORD
  5
83C
102
{ACAD_REACTORS
330
83B
102
}
330
83B
100
AcDbXrecord
280
     1
102
RTVSPropertyOp0
 70
     0
102
RTVSPropertyOp1
 70
     0
102
RTVSPropertyOp2
 70
     0
102
RTVSPropertyOp3
 70
     0
102
RTVSPropertyOp4
 70
     0
102
RTVSPropertyOp5
 70
     0
102
RTVSPropertyOp6
 70
     0
102
RTVSPropertyOp7
 70
     0
102
RTVSPropertyOp8
 70
     0
102
RTVSPropertyOp9
 70
     0
102
RTVSPropertyOp10
 70
     0
102
RTVSPropertyOp11
 70
     0
102
RTVSPropertyOp12
 70
     0
102
RTVSPropertyOp13
 70
     0
102
RTVSPropertyOp14
 70
     0
102
RTVSPropertyOp15
 70
     0
102
RTVSPropertyOp16
 70
     0
102
RTVSPropertyOp17
 70
     0
102
RTVSPropertyOp18
 70
     0
102
RTVSPropertyOp19
 70
     0
102
RTVSPropertyOp20
 70
     0
102
RTVSPropertyOp21
 70
     0
102
RTVSPropertyOp22
 70
     0
102
RTVSPropertyOp23
 70
     0
102
RTVSPropertyOp24
 70
     0
102
RTVSPropertyOp25
 70
     0
102
RTVSPropertyOp26
 70
     0
102
RTVSPropertyOp27
 70
     0
102
RTVSPropertyOp28
 70
     1
102
RTVSPropertyOp29
 70
     1
102
RTVSPropertyOp30
 70
     1
102
RTVSPropertyOp31
 70
     1
102
RTVSPropertyOp32
 70
     1
102
RTVSPropertyOp33
 70
     1
102
RTVSPropertyOp34
 70
     1
102
RTVSPropertyOp35
 70
     1
102
RTVSPropertyOp36
 70
     1
102
RTVSPropertyOp37
 70
     1
102
RTVSPropertyOp38
 70
     1
102
RTVSPropertyOp39
 70
     1
102
RTVSPropertyOp40
 70
     1
102
RTVSPropertyOp41
 70
     1
102
RTVSPropertyOp42
 70
     1
102
RTVSPropertyOp43
 70
     1
102
RTVSPropertyOp44
 70
     1
102
RTVSPropertyOp45
 70
     1
102
RTVSPropertyOp46
 70
     1
102
RTVSPropertyOp47
 70
     1
102
RTVSPropertyOp48
 70
     1
102
RTVSPropertyOp49
 70
     1
102
RTVSPropertyOp50
 70
     1
102
RTVSPropertyOp51
 70
     0
102
RTVSPropertyOp52
 70
     0
102
RTVSPropertyOp53
 70
     1
102
RTVSPropertyOp54
 70
     1
102
RTVSPropertyOp55
 70
     1
102
RTVSPropertyOp56
 70
     1
102
RTVSPropertyOp57
 70
     1
102
RTVSPost2010Prop28
280
     0
102
RTVSPost2010PropOp28
 70
     1
102
RTVSPost2010Prop29
280
     1
102
RTVSPost2010PropOp29
 70
     1
102
RTVSPost2010Prop30
280
     1
102
RTVSPost2010PropOp30
 70
     1
102
RTVSPost2010Prop31
280
     0
102
RTVSPost2010PropOp31
 70
     1
102
RTVSPost2010Prop32
280
     0
102
RTVSPost2010PropOp32
 70
     1
102
RTVSPost2010Prop33
280
     0
102
RTVSPost2010PropOp33
 70
     1
102
RTVSPost2010Prop34
280
     0
102
RTVSPost2010PropOp34
 70
     1
102
RTVSPost2010Prop35
280
     0
102
RTVSPost2010PropOp35
 70
     1
102
RTVSPost2010Prop36
280
     0
102
RTVSPost2010PropOp36
 70
     1
102
RTVSPost2010Prop37
 90
       50
102
RTVSPost2010PropOp37
 70
     1
102
RTVSPost2010Prop38
140
0.0
102
RTVSPost2010PropOp38
 70
     1
102
RTVSPost2010Prop39
140
1.0
102
RTVSPost2010PropOp39
 70
     1
102
RTVSPost2010Prop40
 90
        0
102
RTVSPost2010PropOp40
 70
     1
102
RTVSPost2010Prop41ColorIndex
 90
       18
102
RTVSPost2010Prop41ColorRGB
 90
        0
102
RTVSPost2010PropOp41
 70
     1
102
RTVSPost2010Prop42
 90
       50
102
RTVSPost2010PropOp42
 70
     1
102
RTVSPost2010Prop43
 90
        3
102
RTVSPost2010PropOp43
 70
     1
102
RTVSPost2010Prop44ColorIndex
 90
        5
102
RTVSPost2010Prop44ColorRGB
 90
      255
102
RTVSPost2010PropOp44
 70
     1
102
RTVSPost2010Prop45
280
     0
102
RTVSPost2010PropOp45
 70
     1
102
RTVSPost2010Prop46
 90
       50
102
RTVSPost2010PropOp46
 70
     1
102
RTVSPost2010Prop47
 90
       50
102
RTVSPost2010PropOp47
 70
     1
102
RTVSPost2010Prop48
 90
       50
102
RTVSPost2010PropOp48
 70
     1
102
RTVSPost2010Prop49
280
     0
102
RTVSPost2010PropOp49
 70
     1
102
RTVSPost2010Prop50
 90
       50
102
RTVSPost2010PropOp50
 70
     1
102
RTVSPost2010Prop51ColorIndex
 90
      256
102
RTVSPost2010Prop51ColorRGB
 90
-16777216
102
RTVSPost2010PropOp51
 70
     0
102
RTVSPost2010Prop52
140
1.0
102
RTVSPost2010PropOp52
 70
     0
102
RTVSPost2010Prop53
 90
        2
102
RTVSPost2010PropOp53
 70
     1
102
RTVSPost2010Prop54
  1
strokes_ogs.tif
102
RTVSPost2010PropOp54
 70
     1
102
RTVSPost2010Prop55
280
     0
102
RTVSPost2010PropOp55
 70
     1
102
RTVSPost2010Prop56
140
1.0
102
RTVSPost2010PropOp56
 70
     1
102
RTVSPost2010Prop57
140
1.0
102
RTVSPost2010PropOp57
 70
     1
  0
XRECORD
  5
81A
102
{ACAD_REACTORS
330
819
102
}
330
819
100
AcDbXrecord
280
     1
102
RTVSPropertyOp0
 70
     1
102
RTVSPropertyOp1
 70
     1
102
RTVSPropertyOp2
 70
     1
102
RTVSPropertyOp3
 70
     1
102
RTVSPropertyOp4
 70
     1
102
RTVSPropertyOp5
 70
     1
102
RTVSPropertyOp6
 70
     1
102
RTVSPropertyOp7
 70
     1
102
RTVSPropertyOp8
 70
     1
102
RTVSPropertyOp9
 70
     1
102
RTVSPropertyOp10
 70
     1
102
RTVSPropertyOp11
 70
     1
102
RTVSPropertyOp12
 70
     1
102
RTVSPropertyOp13
 70
     1
102
RTVSPropertyOp14
 70
     1
102
RTVSPropertyOp15
 70
     1
102
RTVSPropertyOp16
 70
     1
102
RTVSPropertyOp17
 70
     1
102
RTVSPropertyOp18
 70
     1
102
RTVSPropertyOp19
 70
     1
102
RTVSPropertyOp20
 70
     1
102
RTVSPropertyOp21
 70
     1
102
RTVSPropertyOp22
 70
     1
102
RTVSPropertyOp23
 70
     1
102
RTVSPropertyOp24
 70
     1
102
RTVSPropertyOp25
 70
     1
102
RTVSPropertyOp26
 70
     1
102
RTVSPropertyOp27
 70
     1
102
RTVSPropertyOp28
 70
     1
102
RTVSPropertyOp29
 70
     1
102
RTVSPropertyOp30
 70
     1
102
RTVSPropertyOp31
 70
     1
102
RTVSPropertyOp32
 70
     1
102
RTVSPropertyOp33
 70
     1
102
RTVSPropertyOp34
 70
     1
102
RTVSPropertyOp35
 70
     1
102
RTVSPropertyOp36
 70
     1
102
RTVSPropertyOp37
 70
     1
102
RTVSPropertyOp38
 70
     1
102
RTVSPropertyOp39
 70
     1
102
RTVSPropertyOp40
 70
     1
102
RTVSPropertyOp41
 70
     1
102
RTVSPropertyOp42
 70
     1
102
RTVSPropertyOp43
 70
     1
102
RTVSPropertyOp44
 70
     1
102
RTVSPropertyOp45
 70
     1
102
RTVSPropertyOp46
 70
     1
102
RTVSPropertyOp47
 70
     1
102
RTVSPropertyOp48
 70
     1
102
RTVSPropertyOp49
 70
     1
102
RTVSPropertyOp50
 70
     1
102
RTVSPropertyOp51
 70
     0
102
RTVSPropertyOp52
 70
     0
102
RTVSPropertyOp53
 70
     1
102
RTVSPropertyOp54
 70
     1
102
RTVSPropertyOp55
 70
     1
102
RTVSPropertyOp56
 70
     1
102
RTVSPropertyOp57
 70
     1
102
RTVSPost2010Prop28
280
     0
102
RTVSPost2010PropOp28
 70
     1
102
RTVSPost2010Prop29
280
     1
102
RTVSPost2010PropOp29
 70
     1
102
RTVSPost2010Prop30
280
     1
102
RTVSPost2010PropOp30
 70
     1
102
RTVSPost2010Prop31
280
     0
102
RTVSPost2010PropOp31
 70
     1
102
RTVSPost2010Prop32
280
     0
102
RTVSPost2010PropOp32
 70
     1
102
RTVSPost2010Prop33
280
     0
102
RTVSPost2010PropOp33
 70
     1
102
RTVSPost2010Prop34
280
     0
102
RTVSPost2010PropOp34
 70
     1
102
RTVSPost2010Prop35
280
     0
102
RTVSPost2010PropOp35
 70
     1
102
RTVSPost2010Prop36
280
     0
102
RTVSPost2010PropOp36
 70
     1
102
RTVSPost2010Prop37
 90
       50
102
RTVSPost2010PropOp37
 70
     1
102
RTVSPost2010Prop38
140
0.0
102
RTVSPost2010PropOp38
 70
     1
102
RTVSPost2010Prop39
140
1.0
102
RTVSPost2010PropOp39
 70
     1
102
RTVSPost2010Prop40
 90
        0
102
RTVSPost2010PropOp40
 70
     1
102
RTVSPost2010Prop41ColorIndex
 90
       18
102
RTVSPost2010Prop41ColorRGB
 90
        0
102
RTVSPost2010PropOp41
 70
     1
102
RTVSPost2010Prop42
 90
       50
102
RTVSPost2010PropOp42
 70
     1
102
RTVSPost2010Prop43
 90
        3
102
RTVSPost2010PropOp43
 70
     1
102
RTVSPost2010Prop44ColorIndex
 90
        5
102
RTVSPost2010Prop44ColorRGB
 90
      255
102
RTVSPost2010PropOp44
 70
     1
102
RTVSPost2010Prop45
280
     0
102
RTVSPost2010PropOp45
 70
     1
102
RTVSPost2010Prop46
 90
       50
102
RTVSPost2010PropOp46
 70
     1
102
RTVSPost2010Prop47
 90
       50
102
RTVSPost2010PropOp47
 70
     1
102
RTVSPost2010Prop48
 90
       50
102
RTVSPost2010PropOp48
 70
     1
102
RTVSPost2010Prop49
280
     0
102
RTVSPost2010PropOp49
 70
     1
102
RTVSPost2010Prop50
 90
       50
102
RTVSPost2010PropOp50
 70
     1
102
RTVSPost2010Prop51ColorIndex
 90
      256
102
RTVSPost2010Prop51ColorRGB
 90
-16777216
102
RTVSPost2010PropOp51
 70
     0
102
RTVSPost2010Prop52
140
1.0
102
RTVSPost2010PropOp52
 70
     0
102
RTVSPost2010Prop53
 90
        2
102
RTVSPost2010PropOp53
 70
     1
102
RTVSPost2010Prop54
  1
strokes_ogs.tif
102
RTVSPost2010PropOp54
 70
     1
102
RTVSPost2010Prop55
280
     0
102
RTVSPost2010PropOp55
 70
     1
102
RTVSPost2010Prop56
140
1.0
102
RTVSPost2010PropOp56
 70
     1
102
RTVSPost2010Prop57
140
1.0
102
RTVSPost2010PropOp57
 70
     1
  0
XRECORD
  5
848
102
{ACAD_REACTORS
330
847
102
}
330
847
100
AcDbXrecord
280
     1
102
RTVSPropertyOp0
 70
     1
102
RTVSPropertyOp1
 70
     1
102
RTVSPropertyOp2
 70
     1
102
RTVSPropertyOp3
 70
     1
102
RTVSPropertyOp4
 70
     1
102
RTVSPropertyOp5
 70
     1
102
RTVSPropertyOp6
 70
     1
102
RTVSPropertyOp7
 70
     1
102
RTVSPropertyOp8
 70
     1
102
RTVSPropertyOp9
 70
     1
102
RTVSPropertyOp10
 70
     1
102
RTVSPropertyOp11
 70
     1
102
RTVSPropertyOp12
 70
     1
102
RTVSPropertyOp13
 70
     1
102
RTVSPropertyOp14
 70
     1
102
RTVSPropertyOp15
 70
     1
102
RTVSPropertyOp16
 70
     1
102
RTVSPropertyOp17
 70
     1
102
RTVSPropertyOp18
 70
     1
102
RTVSPropertyOp19
 70
     1
102
RTVSPropertyOp20
 70
     1
102
RTVSPropertyOp21
 70
     1
102
RTVSPropertyOp22
 70
     1
102
RTVSPropertyOp23
 70
     1
102
RTVSPropertyOp24
 70
     1
102
RTVSPropertyOp25
 70
     1
102
RTVSPropertyOp26
 70
     1
102
RTVSPropertyOp27
 70
     1
102
RTVSPropertyOp28
 70
     1
102
RTVSPropertyOp29
 70
     1
102
RTVSPropertyOp30
 70
     1
102
RTVSPropertyOp31
 70
     1
102
RTVSPropertyOp32
 70
     1
102
RTVSPropertyOp33
 70
     1
102
RTVSPropertyOp34
 70
     1
102
RTVSPropertyOp35
 70
     1
102
RTVSPropertyOp36
 70
     1
102
RTVSPropertyOp37
 70
     1
102
RTVSPropertyOp38
 70
     1
102
RTVSPropertyOp39
 70
     1
102
RTVSPropertyOp40
 70
     1
102
RTVSPropertyOp41
 70
     1
102
RTVSPropertyOp42
 70
     1
102
RTVSPropertyOp43
 70
     1
102
RTVSPropertyOp44
 70
     1
102
RTVSPropertyOp45
 70
     1
102
RTVSPropertyOp46
 70
     1
102
RTVSPropertyOp47
 70
     1
102
RTVSPropertyOp48
 70
     1
102
RTVSPropertyOp49
 70
     1
102
RTVSPropertyOp50
 70
     1
102
RTVSPropertyOp51
 70
     0
102
RTVSPropertyOp52
 70
     0
102
RTVSPropertyOp53
 70
     1
102
RTVSPropertyOp54
 70
     1
102
RTVSPropertyOp55
 70
     1
102
RTVSPropertyOp56
 70
     1
102
RTVSPropertyOp57
 70
     1
102
RTVSPost2010Prop28
280
     0
102
RTVSPost2010PropOp28
 70
     1
102
RTVSPost2010Prop29
280
     1
102
RTVSPost2010PropOp29
 70
     1
102
RTVSPost2010Prop30
280
     1
102
RTVSPost2010PropOp30
 70
     1
102
RTVSPost2010Prop31
280
     0
102
RTVSPost2010PropOp31
 70
     1
102
RTVSPost2010Prop32
280
     0
102
RTVSPost2010PropOp32
 70
     1
102
RTVSPost2010Prop33
280
     0
102
RTVSPost2010PropOp33
 70
     1
102
RTVSPost2010Prop34
280
     0
102
RTVSPost2010PropOp34
 70
     1
102
RTVSPost2010Prop35
280
     0
102
RTVSPost2010PropOp35
 70
     1
102
RTVSPost2010Prop36
280
     0
102
RTVSPost2010PropOp36
 70
     1
102
RTVSPost2010Prop37
 90
       50
102
RTVSPost2010PropOp37
 70
     1
102
RTVSPost2010Prop38
140
0.0
102
RTVSPost2010PropOp38
 70
     1
102
RTVSPost2010Prop39
140
1.0
102
RTVSPost2010PropOp39
 70
     1
102
RTVSPost2010Prop40
 90
        0
102
RTVSPost2010PropOp40
 70
     1
102
RTVSPost2010Prop41ColorIndex
 90
       18
102
RTVSPost2010Prop41ColorRGB
 90
        0
102
RTVSPost2010PropOp41
 70
     1
102
RTVSPost2010Prop42
 90
       50
102
RTVSPost2010PropOp42
 70
     1
102
RTVSPost2010Prop43
 90
        3
102
RTVSPost2010PropOp43
 70
     1
102
RTVSPost2010Prop44ColorIndex
 90
        5
102
RTVSPost2010Prop44ColorRGB
 90
      255
102
RTVSPost2010PropOp44
 70
     1
102
RTVSPost2010Prop45
280
     0
102
RTVSPost2010PropOp45
 70
     1
102
RTVSPost2010Prop46
 90
       50
102
RTVSPost2010PropOp46
 70
     1
102
RTVSPost2010Prop47
 90
       50
102
RTVSPost2010PropOp47
 70
     1
102
RTVSPost2010Prop48
 90
       50
102
RTVSPost2010PropOp48
 70
     1
102
RTVSPost2010Prop49
280
     0
102
RTVSPost2010PropOp49
 70
     1
102
RTVSPost2010Prop50
 90
       50
102
RTVSPost2010PropOp50
 70
     1
102
RTVSPost2010Prop51ColorIndex
 90
      256
102
RTVSPost2010Prop51ColorRGB
 90
-16777216
102
RTVSPost2010PropOp51
 70
     0
102
RTVSPost2010Prop52
140
1.0
102
RTVSPost2010PropOp52
 70
     0
102
RTVSPost2010Prop53
 90
        2
102
RTVSPost2010PropOp53
 70
     1
102
RTVSPost2010Prop54
  1
strokes_ogs.tif
102
RTVSPost2010PropOp54
 70
     1
102
RTVSPost2010Prop55
280
     0
102
RTVSPost2010PropOp55
 70
     1
102
RTVSPost2010Prop56
140
1.0
102
RTVSPost2010PropOp56
 70
     1
102
RTVSPost2010Prop57
140
1.0
102
RTVSPost2010PropOp57
 70
     1
  0
XRECORD
  5
846
102
{ACAD_REACTORS
330
845
102
}
330
845
100
AcDbXrecord
280
     1
102
RTVSPropertyOp0
 70
     1
102
RTVSPropertyOp1
 70
     1
102
RTVSPropertyOp2
 70
     1
102
RTVSPropertyOp3
 70
     1
102
RTVSPropertyOp4
 70
     1
102
RTVSPropertyOp5
 70
     1
102
RTVSPropertyOp6
 70
     1
102
RTVSPropertyOp7
 70
     1
102
RTVSPropertyOp8
 70
     1
102
RTVSPropertyOp9
 70
     1
102
RTVSPropertyOp10
 70
     1
102
RTVSPropertyOp11
 70
     1
102
RTVSPropertyOp12
 70
     1
102
RTVSPropertyOp13
 70
     1
102
RTVSPropertyOp14
 70
     1
102
RTVSPropertyOp15
 70
     1
102
RTVSPropertyOp16
 70
     1
102
RTVSPropertyOp17
 70
     1
102
RTVSPropertyOp18
 70
     1
102
RTVSPropertyOp19
 70
     1
102
RTVSPropertyOp20
 70
     1
102
RTVSPropertyOp21
 70
     1
102
RTVSPropertyOp22
 70
     1
102
RTVSPropertyOp23
 70
     1
102
RTVSPropertyOp24
 70
     1
102
RTVSPropertyOp25
 70
     1
102
RTVSPropertyOp26
 70
     1
102
RTVSPropertyOp27
 70
     1
102
RTVSPropertyOp28
 70
     1
102
RTVSPropertyOp29
 70
     1
102
RTVSPropertyOp30
 70
     1
102
RTVSPropertyOp31
 70
     1
102
RTVSPropertyOp32
 70
     1
102
RTVSPropertyOp33
 70
     1
102
RTVSPropertyOp34
 70
     1
102
RTVSPropertyOp35
 70
     1
102
RTVSPropertyOp36
 70
     1
102
RTVSPropertyOp37
 70
     1
102
RTVSPropertyOp38
 70
     1
102
RTVSPropertyOp39
 70
     1
102
RTVSPropertyOp40
 70
     1
102
RTVSPropertyOp41
 70
     1
102
RTVSPropertyOp42
 70
     1
102
RTVSPropertyOp43
 70
     1
102
RTVSPropertyOp44
 70
     1
102
RTVSPropertyOp45
 70
     1
102
RTVSPropertyOp46
 70
     1
102
RTVSPropertyOp47
 70
     1
102
RTVSPropertyOp48
 70
     1
102
RTVSPropertyOp49
 70
     1
102
RTVSPropertyOp50
 70
     1
102
RTVSPropertyOp51
 70
     0
102
RTVSPropertyOp52
 70
     0
102
RTVSPropertyOp53
 70
     1
102
RTVSPropertyOp54
 70
     1
102
RTVSPropertyOp55
 70
     1
102
RTVSPropertyOp56
 70
     1
102
RTVSPropertyOp57
 70
     1
102
RTVSPost2010Prop28
280
     0
102
RTVSPost2010PropOp28
 70
     1
102
RTVSPost2010Prop29
280
     1
102
RTVSPost2010PropOp29
 70
     1
102
RTVSPost2010Prop30
280
     1
102
RTVSPost2010PropOp30
 70
     1
102
RTVSPost2010Prop31
280
     0
102
RTVSPost2010PropOp31
 70
     1
102
RTVSPost2010Prop32
280
     0
102
RTVSPost2010PropOp32
 70
     1
102
RTVSPost2010Prop33
280
     0
102
RTVSPost2010PropOp33
 70
     1
102
RTVSPost2010Prop34
280
     0
102
RTVSPost2010PropOp34
 70
     1
102
RTVSPost2010Prop35
280
     0
102
RTVSPost2010PropOp35
 70
     1
102
RTVSPost2010Prop36
280
     0
102
RTVSPost2010PropOp36
 70
     1
102
RTVSPost2010Prop37
 90
       50
102
RTVSPost2010PropOp37
 70
     1
102
RTVSPost2010Prop38
140
0.0
102
RTVSPost2010PropOp38
 70
     1
102
RTVSPost2010Prop39
140
1.0
102
RTVSPost2010PropOp39
 70
     1
102
RTVSPost2010Prop40
 90
        0
102
RTVSPost2010PropOp40
 70
     1
102
RTVSPost2010Prop41ColorIndex
 90
       18
102
RTVSPost2010Prop41ColorRGB
 90
        0
102
RTVSPost2010PropOp41
 70
     1
102
RTVSPost2010Prop42
 90
       50
102
RTVSPost2010PropOp42
 70
     1
102
RTVSPost2010Prop43
 90
        3
102
RTVSPost2010PropOp43
 70
     1
102
RTVSPost2010Prop44ColorIndex
 90
        5
102
RTVSPost2010Prop44ColorRGB
 90
      255
102
RTVSPost2010PropOp44
 70
     1
102
RTVSPost2010Prop45
280
     0
102
RTVSPost2010PropOp45
 70
     1
102
RTVSPost2010Prop46
 90
       50
102
RTVSPost2010PropOp46
 70
     1
102
RTVSPost2010Prop47
 90
       50
102
RTVSPost2010PropOp47
 70
     1
102
RTVSPost2010Prop48
 90
       50
102
RTVSPost2010PropOp48
 70
     1
102
RTVSPost2010Prop49
280
     0
102
RTVSPost2010PropOp49
 70
     1
102
RTVSPost2010Prop50
 90
       50
102
RTVSPost2010PropOp50
 70
     1
102
RTVSPost2010Prop51ColorIndex
 90
      256
102
RTVSPost2010Prop51ColorRGB
 90
-16777216
102
RTVSPost2010PropOp51
 70
     0
102
RTVSPost2010Prop52
140
1.0
102
RTVSPost2010PropOp52
 70
     0
102
RTVSPost2010Prop53
 90
        2
102
RTVSPost2010PropOp53
 70
     1
102
RTVSPost2010Prop54
  1
strokes_ogs.tif
102
RTVSPost2010PropOp54
 70
     1
102
RTVSPost2010Prop55
280
     0
102
RTVSPost2010PropOp55
 70
     1
102
RTVSPost2010Prop56
140
1.0
102
RTVSPost2010PropOp56
 70
     1
102
RTVSPost2010Prop57
140
1.0
102
RTVSPost2010PropOp57
 70
     1
  0
XRECORD
  5
840
102
{ACAD_REACTORS
330
83F
102
}
330
83F
100
AcDbXrecord
280
     1
102
RTVSPropertyOp0
 70
     1
102
RTVSPropertyOp1
 70
     1
102
RTVSPropertyOp2
 70
     1
102
RTVSPropertyOp3
 70
     1
102
RTVSPropertyOp4
 70
     1
102
RTVSPropertyOp5
 70
     1
102
RTVSPropertyOp6
 70
     1
102
RTVSPropertyOp7
 70
     1
102
RTVSPropertyOp8
 70
     1
102
RTVSPropertyOp9
 70
     1
102
RTVSPropertyOp10
 70
     1
102
RTVSPropertyOp11
 70
     1
102
RTVSPropertyOp12
 70
     1
102
RTVSPropertyOp13
 70
     1
102
RTVSPropertyOp14
 70
     1
102
RTVSPropertyOp15
 70
     1
102
RTVSPropertyOp16
 70
     1
102
RTVSPropertyOp17
 70
     1
102
RTVSPropertyOp18
 70
     1
102
RTVSPropertyOp19
 70
     1
102
RTVSPropertyOp20
 70
     1
102
RTVSPropertyOp21
 70
     1
102
RTVSPropertyOp22
 70
     1
102
RTVSPropertyOp23
 70
     1
102
RTVSPropertyOp24
 70
     1
102
RTVSPropertyOp25
 70
     1
102
RTVSPropertyOp26
 70
     1
102
RTVSPropertyOp27
 70
     1
102
RTVSPropertyOp28
 70
     1
102
RTVSPropertyOp29
 70
     1
102
RTVSPropertyOp30
 70
     1
102
RTVSPropertyOp31
 70
     1
102
RTVSPropertyOp32
 70
     1
102
RTVSPropertyOp33
 70
     1
102
RTVSPropertyOp34
 70
     1
102
RTVSPropertyOp35
 70
     1
102
RTVSPropertyOp36
 70
     1
102
RTVSPropertyOp37
 70
     1
102
RTVSPropertyOp38
 70
     1
102
RTVSPropertyOp39
 70
     1
102
RTVSPropertyOp40
 70
     1
102
RTVSPropertyOp41
 70
     1
102
RTVSPropertyOp42
 70
     1
102
RTVSPropertyOp43
 70
     1
102
RTVSPropertyOp44
 70
     1
102
RTVSPropertyOp45
 70
     1
102
RTVSPropertyOp46
 70
     1
102
RTVSPropertyOp47
 70
     1
102
RTVSPropertyOp48
 70
     1
102
RTVSPropertyOp49
 70
     1
102
RTVSPropertyOp50
 70
     1
102
RTVSPropertyOp51
 70
     0
102
RTVSPropertyOp52
 70
     0
102
RTVSPropertyOp53
 70
     1
102
RTVSPropertyOp54
 70
     1
102
RTVSPropertyOp55
 70
     1
102
RTVSPropertyOp56
 70
     1
102
RTVSPropertyOp57
 70
     1
102
RTVSPost2010Prop28
280
     0
102
RTVSPost2010PropOp28
 70
     1
102
RTVSPost2010Prop29
280
     1
102
RTVSPost2010PropOp29
 70
     1
102
RTVSPost2010Prop30
280
     1
102
RTVSPost2010PropOp30
 70
     1
102
RTVSPost2010Prop31
280
     0
102
RTVSPost2010PropOp31
 70
     1
102
RTVSPost2010Prop32
280
     0
102
RTVSPost2010PropOp32
 70
     1
102
RTVSPost2010Prop33
280
     0
102
RTVSPost2010PropOp33
 70
     1
102
RTVSPost2010Prop34
280
     0
102
RTVSPost2010PropOp34
 70
     1
102
RTVSPost2010Prop35
280
     0
102
RTVSPost2010PropOp35
 70
     1
102
RTVSPost2010Prop36
280
     0
102
RTVSPost2010PropOp36
 70
     1
102
RTVSPost2010Prop37
 90
       50
102
RTVSPost2010PropOp37
 70
     1
102
RTVSPost2010Prop38
140
0.0
102
RTVSPost2010PropOp38
 70
     1
102
RTVSPost2010Prop39
140
1.0
102
RTVSPost2010PropOp39
 70
     1
102
RTVSPost2010Prop40
 90
        0
102
RTVSPost2010PropOp40
 70
     1
102
RTVSPost2010Prop41ColorIndex
 90
       18
102
RTVSPost2010Prop41ColorRGB
 90
        0
102
RTVSPost2010PropOp41
 70
     1
102
RTVSPost2010Prop42
 90
       50
102
RTVSPost2010PropOp42
 70
     1
102
RTVSPost2010Prop43
 90
        3
102
RTVSPost2010PropOp43
 70
     1
102
RTVSPost2010Prop44ColorIndex
 90
        5
102
RTVSPost2010Prop44ColorRGB
 90
      255
102
RTVSPost2010PropOp44
 70
     1
102
RTVSPost2010Prop45
280
     0
102
RTVSPost2010PropOp45
 70
     1
102
RTVSPost2010Prop46
 90
       50
102
RTVSPost2010PropOp46
 70
     1
102
RTVSPost2010Prop47
 90
       50
102
RTVSPost2010PropOp47
 70
     1
102
RTVSPost2010Prop48
 90
       50
102
RTVSPost2010PropOp48
 70
     1
102
RTVSPost2010Prop49
280
     0
102
RTVSPost2010PropOp49
 70
     1
102
RTVSPost2010Prop50
 90
       50
102
RTVSPost2010PropOp50
 70
     1
102
RTVSPost2010Prop51ColorIndex
 90
      256
102
RTVSPost2010Prop51ColorRGB
 90
-16777216
102
RTVSPost2010PropOp51
 70
     0
102
RTVSPost2010Prop52
140
1.0
102
RTVSPost2010PropOp52
 70
     0
102
RTVSPost2010Prop53
 90
        2
102
RTVSPost2010PropOp53
 70
     1
102
RTVSPost2010Prop54
  1
strokes_ogs.tif
102
RTVSPost2010PropOp54
 70
     1
102
RTVSPost2010Prop55
280
     0
102
RTVSPost2010PropOp55
 70
     1
102
RTVSPost2010Prop56
140
1.0
102
RTVSPost2010PropOp56
 70
     1
102
RTVSPost2010Prop57
140
1.0
102
RTVSPost2010PropOp57
 70
     1
  0
XRECORD
  5
842
102
{ACAD_REACTORS
330
841
102
}
330
841
100
AcDbXrecord
280
     1
102
RTVSPropertyOp0
 70
     1
102
RTVSPropertyOp1
 70
     1
102
RTVSPropertyOp2
 70
     1
102
RTVSPropertyOp3
 70
     1
102
RTVSPropertyOp4
 70
     1
102
RTVSPropertyOp5
 70
     1
102
RTVSPropertyOp6
 70
     1
102
RTVSPropertyOp7
 70
     1
102
RTVSPropertyOp8
 70
     1
102
RTVSPropertyOp9
 70
     1
102
RTVSPropertyOp10
 70
     1
102
RTVSPropertyOp11
 70
     1
102
RTVSPropertyOp12
 70
     1
102
RTVSPropertyOp13
 70
     1
102
RTVSPropertyOp14
 70
     1
102
RTVSPropertyOp15
 70
     1
102
RTVSPropertyOp16
 70
     1
102
RTVSPropertyOp17
 70
     1
102
RTVSPropertyOp18
 70
     1
102
RTVSPropertyOp19
 70
     1
102
RTVSPropertyOp20
 70
     1
102
RTVSPropertyOp21
 70
     1
102
RTVSPropertyOp22
 70
     1
102
RTVSPropertyOp23
 70
     1
102
RTVSPropertyOp24
 70
     1
102
RTVSPropertyOp25
 70
     1
102
RTVSPropertyOp26
 70
     1
102
RTVSPropertyOp27
 70
     1
102
RTVSPropertyOp28
 70
     1
102
RTVSPropertyOp29
 70
     1
102
RTVSPropertyOp30
 70
     1
102
RTVSPropertyOp31
 70
     1
102
RTVSPropertyOp32
 70
     1
102
RTVSPropertyOp33
 70
     1
102
RTVSPropertyOp34
 70
     1
102
RTVSPropertyOp35
 70
     1
102
RTVSPropertyOp36
 70
     1
102
RTVSPropertyOp37
 70
     1
102
RTVSPropertyOp38
 70
     1
102
RTVSPropertyOp39
 70
     1
102
RTVSPropertyOp40
 70
     1
102
RTVSPropertyOp41
 70
     1
102
RTVSPropertyOp42
 70
     1
102
RTVSPropertyOp43
 70
     1
102
RTVSPropertyOp44
 70
     1
102
RTVSPropertyOp45
 70
     1
102
RTVSPropertyOp46
 70
     1
102
RTVSPropertyOp47
 70
     1
102
RTVSPropertyOp48
 70
     1
102
RTVSPropertyOp49
 70
     1
102
RTVSPropertyOp50
 70
     1
102
RTVSPropertyOp51
 70
     0
102
RTVSPropertyOp52
 70
     0
102
RTVSPropertyOp53
 70
     1
102
RTVSPropertyOp54
 70
     1
102
RTVSPropertyOp55
 70
     1
102
RTVSPropertyOp56
 70
     1
102
RTVSPropertyOp57
 70
     1
102
RTVSPost2010Prop28
280
     0
102
RTVSPost2010PropOp28
 70
     1
102
RTVSPost2010Prop29
280
     1
102
RTVSPost2010PropOp29
 70
     1
102
RTVSPost2010Prop30
280
     1
102
RTVSPost2010PropOp30
 70
     1
102
RTVSPost2010Prop31
280
     0
102
RTVSPost2010PropOp31
 70
     1
102
RTVSPost2010Prop32
280
     0
102
RTVSPost2010PropOp32
 70
     1
102
RTVSPost2010Prop33
280
     0
102
RTVSPost2010PropOp33
 70
     1
102
RTVSPost2010Prop34
280
     0
102
RTVSPost2010PropOp34
 70
     1
102
RTVSPost2010Prop35
280
     0
102
RTVSPost2010PropOp35
 70
     1
102
RTVSPost2010Prop36
280
     0
102
RTVSPost2010PropOp36
 70
     1
102
RTVSPost2010Prop37
 90
       50
102
RTVSPost2010PropOp37
 70
     1
102
RTVSPost2010Prop38
140
0.0
102
RTVSPost2010PropOp38
 70
     1
102
RTVSPost2010Prop39
140
1.0
102
RTVSPost2010PropOp39
 70
     1
102
RTVSPost2010Prop40
 90
        0
102
RTVSPost2010PropOp40
 70
     1
102
RTVSPost2010Prop41ColorIndex
 90
       18
102
RTVSPost2010Prop41ColorRGB
 90
        0
102
RTVSPost2010PropOp41
 70
     1
102
RTVSPost2010Prop42
 90
       50
102
RTVSPost2010PropOp42
 70
     1
102
RTVSPost2010Prop43
 90
        3
102
RTVSPost2010PropOp43
 70
     1
102
RTVSPost2010Prop44ColorIndex
 90
        5
102
RTVSPost2010Prop44ColorRGB
 90
      255
102
RTVSPost2010PropOp44
 70
     1
102
RTVSPost2010Prop45
280
     0
102
RTVSPost2010PropOp45
 70
     1
102
RTVSPost2010Prop46
 90
       50
102
RTVSPost2010PropOp46
 70
     1
102
RTVSPost2010Prop47
 90
       50
102
RTVSPost2010PropOp47
 70
     1
102
RTVSPost2010Prop48
 90
       50
102
RTVSPost2010PropOp48
 70
     1
102
RTVSPost2010Prop49
280
     0
102
RTVSPost2010PropOp49
 70
     1
102
RTVSPost2010Prop50
 90
       50
102
RTVSPost2010PropOp50
 70
     1
102
RTVSPost2010Prop51ColorIndex
 90
      256
102
RTVSPost2010Prop51ColorRGB
 90
-16777216
102
RTVSPost2010PropOp51
 70
     0
102
RTVSPost2010Prop52
140
1.0
102
RTVSPost2010PropOp52
 70
     0
102
RTVSPost2010Prop53
 90
        2
102
RTVSPost2010PropOp53
 70
     1
102
RTVSPost2010Prop54
  1
strokes_ogs.tif
102
RTVSPost2010PropOp54
 70
     1
102
RTVSPost2010Prop55
280
     0
102
RTVSPost2010PropOp55
 70
     1
102
RTVSPost2010Prop56
140
1.0
102
RTVSPost2010PropOp56
 70
     1
102
RTVSPost2010Prop57
140
1.0
102
RTVSPost2010PropOp57
 70
     1
  0
XRECORD
  5
832
102
{ACAD_REACTORS
330
831
102
}
330
831
100
AcDbXrecord
280
     1
102
RTVSPropertyOp0
 70
     1
102
RTVSPropertyOp1
 70
     1
102
RTVSPropertyOp2
 70
     1
102
RTVSPropertyOp3
 70
     1
102
RTVSPropertyOp4
 70
     1
102
RTVSPropertyOp5
 70
     1
102
RTVSPropertyOp6
 70
     1
102
RTVSPropertyOp7
 70
     1
102
RTVSPropertyOp8
 70
     1
102
RTVSPropertyOp9
 70
     1
102
RTVSPropertyOp10
 70
     1
102
RTVSPropertyOp11
 70
     1
102
RTVSPropertyOp12
 70
     1
102
RTVSPropertyOp13
 70
     1
102
RTVSPropertyOp14
 70
     1
102
RTVSPropertyOp15
 70
     1
102
RTVSPropertyOp16
 70
     1
102
RTVSPropertyOp17
 70
     1
102
RTVSPropertyOp18
 70
     1
102
RTVSPropertyOp19
 70
     1
102
RTVSPropertyOp20
 70
     1
102
RTVSPropertyOp21
 70
     1
102
RTVSPropertyOp22
 70
     1
102
RTVSPropertyOp23
 70
     1
102
RTVSPropertyOp24
 70
     1
102
RTVSPropertyOp25
 70
     1
102
RTVSPropertyOp26
 70
     1
102
RTVSPropertyOp27
 70
     1
102
RTVSPropertyOp28
 70
     1
102
RTVSPropertyOp29
 70
     1
102
RTVSPropertyOp30
 70
     1
102
RTVSPropertyOp31
 70
     1
102
RTVSPropertyOp32
 70
     1
102
RTVSPropertyOp33
 70
     1
102
RTVSPropertyOp34
 70
     1
102
RTVSPropertyOp35
 70
     1
102
RTVSPropertyOp36
 70
     1
102
RTVSPropertyOp37
 70
     1
102
RTVSPropertyOp38
 70
     1
102
RTVSPropertyOp39
 70
     1
102
RTVSPropertyOp40
 70
     1
102
RTVSPropertyOp41
 70
     1
102
RTVSPropertyOp42
 70
     1
102
RTVSPropertyOp43
 70
     1
102
RTVSPropertyOp44
 70
     1
102
RTVSPropertyOp45
 70
     1
102
RTVSPropertyOp46
 70
     1
102
RTVSPropertyOp47
 70
     1
102
RTVSPropertyOp48
 70
     1
102
RTVSPropertyOp49
 70
     1
102
RTVSPropertyOp50
 70
     1
102
RTVSPropertyOp51
 70
     0
102
RTVSPropertyOp52
 70
     0
102
RTVSPropertyOp53
 70
     1
102
RTVSPropertyOp54
 70
     1
102
RTVSPropertyOp55
 70
     1
102
RTVSPropertyOp56
 70
     1
102
RTVSPropertyOp57
 70
     1
102
RTVSPost2010Prop28
280
     0
102
RTVSPost2010PropOp28
 70
     1
102
RTVSPost2010Prop29
280
     1
102
RTVSPost2010PropOp29
 70
     1
102
RTVSPost2010Prop30
280
     1
102
RTVSPost2010PropOp30
 70
     1
102
RTVSPost2010Prop31
280
     0
102
RTVSPost2010PropOp31
 70
     1
102
RTVSPost2010Prop32
280
     0
102
RTVSPost2010PropOp32
 70
     1
102
RTVSPost2010Prop33
280
     0
102
RTVSPost2010PropOp33
 70
     1
102
RTVSPost2010Prop34
280
     0
102
RTVSPost2010PropOp34
 70
     1
102
RTVSPost2010Prop35
280
     0
102
RTVSPost2010PropOp35
 70
     1
102
RTVSPost2010Prop36
280
     0
102
RTVSPost2010PropOp36
 70
     1
102
RTVSPost2010Prop37
 90
       50
102
RTVSPost2010PropOp37
 70
     1
102
RTVSPost2010Prop38
140
0.0
102
RTVSPost2010PropOp38
 70
     1
102
RTVSPost2010Prop39
140
1.0
102
RTVSPost2010PropOp39
 70
     1
102
RTVSPost2010Prop40
 90
        0
102
RTVSPost2010PropOp40
 70
     1
102
RTVSPost2010Prop41ColorIndex
 90
       18
102
RTVSPost2010Prop41ColorRGB
 90
        0
102
RTVSPost2010PropOp41
 70
     1
102
RTVSPost2010Prop42
 90
       50
102
RTVSPost2010PropOp42
 70
     1
102
RTVSPost2010Prop43
 90
        3
102
RTVSPost2010PropOp43
 70
     1
102
RTVSPost2010Prop44ColorIndex
 90
        5
102
RTVSPost2010Prop44ColorRGB
 90
      255
102
RTVSPost2010PropOp44
 70
     1
102
RTVSPost2010Prop45
280
     0
102
RTVSPost2010PropOp45
 70
     1
102
RTVSPost2010Prop46
 90
       50
102
RTVSPost2010PropOp46
 70
     1
102
RTVSPost2010Prop47
 90
       50
102
RTVSPost2010PropOp47
 70
     1
102
RTVSPost2010Prop48
 90
       50
102
RTVSPost2010PropOp48
 70
     1
102
RTVSPost2010Prop49
280
     0
102
RTVSPost2010PropOp49
 70
     1
102
RTVSPost2010Prop50
 90
       50
102
RTVSPost2010PropOp50
 70
     1
102
RTVSPost2010Prop51ColorIndex
 90
      256
102
RTVSPost2010Prop51ColorRGB
 90
-16777216
102
RTVSPost2010PropOp51
 70
     0
102
RTVSPost2010Prop52
140
1.0
102
RTVSPost2010PropOp52
 70
     0
102
RTVSPost2010Prop53
 90
        2
102
RTVSPost2010PropOp53
 70
     1
102
RTVSPost2010Prop54
  1
strokes_ogs.tif
102
RTVSPost2010PropOp54
 70
     1
102
RTVSPost2010Prop55
280
     0
102
RTVSPost2010PropOp55
 70
     1
102
RTVSPost2010Prop56
140
1.0
102
RTVSPost2010PropOp56
 70
     1
102
RTVSPost2010Prop57
140
1.0
102
RTVSPost2010PropOp57
 70
     1
  0
XRECORD
  5
81C
102
{ACAD_REACTORS
330
81B
102
}
330
81B
100
AcDbXrecord
280
     1
102
RTVSPropertyOp0
 70
     1
102
RTVSPropertyOp1
 70
     1
102
RTVSPropertyOp2
 70
     1
102
RTVSPropertyOp3
 70
     1
102
RTVSPropertyOp4
 70
     1
102
RTVSPropertyOp5
 70
     1
102
RTVSPropertyOp6
 70
     1
102
RTVSPropertyOp7
 70
     1
102
RTVSPropertyOp8
 70
     1
102
RTVSPropertyOp9
 70
     1
102
RTVSPropertyOp10
 70
     1
102
RTVSPropertyOp11
 70
     1
102
RTVSPropertyOp12
 70
     1
102
RTVSPropertyOp13
 70
     1
102
RTVSPropertyOp14
 70
     1
102
RTVSPropertyOp15
 70
     1
102
RTVSPropertyOp16
 70
     1
102
RTVSPropertyOp17
 70
     1
102
RTVSPropertyOp18
 70
     1
102
RTVSPropertyOp19
 70
     1
102
RTVSPropertyOp20
 70
     1
102
RTVSPropertyOp21
 70
     1
102
RTVSPropertyOp22
 70
     1
102
RTVSPropertyOp23
 70
     1
102
RTVSPropertyOp24
 70
     1
102
RTVSPropertyOp25
 70
     1
102
RTVSPropertyOp26
 70
     1
102
RTVSPropertyOp27
 70
     1
102
RTVSPropertyOp28
 70
     1
102
RTVSPropertyOp29
 70
     1
102
RTVSPropertyOp30
 70
     1
102
RTVSPropertyOp31
 70
     1
102
RTVSPropertyOp32
 70
     1
102
RTVSPropertyOp33
 70
     1
102
RTVSPropertyOp34
 70
     1
102
RTVSPropertyOp35
 70
     1
102
RTVSPropertyOp36
 70
     1
102
RTVSPropertyOp37
 70
     1
102
RTVSPropertyOp38
 70
     1
102
RTVSPropertyOp39
 70
     1
102
RTVSPropertyOp40
 70
     1
102
RTVSPropertyOp41
 70
     1
102
RTVSPropertyOp42
 70
     1
102
RTVSPropertyOp43
 70
     1
102
RTVSPropertyOp44
 70
     1
102
RTVSPropertyOp45
 70
     1
102
RTVSPropertyOp46
 70
     1
102
RTVSPropertyOp47
 70
     1
102
RTVSPropertyOp48
 70
     1
102
RTVSPropertyOp49
 70
     1
102
RTVSPropertyOp50
 70
     1
102
RTVSPropertyOp51
 70
     0
102
RTVSPropertyOp52
 70
     0
102
RTVSPropertyOp53
 70
     1
102
RTVSPropertyOp54
 70
     1
102
RTVSPropertyOp55
 70
     1
102
RTVSPropertyOp56
 70
     1
102
RTVSPropertyOp57
 70
     1
102
RTVSPost2010Prop28
280
     0
102
RTVSPost2010PropOp28
 70
     1
102
RTVSPost2010Prop29
280
     1
102
RTVSPost2010PropOp29
 70
     1
102
RTVSPost2010Prop30
280
     1
102
RTVSPost2010PropOp30
 70
     1
102
RTVSPost2010Prop31
280
     0
102
RTVSPost2010PropOp31
 70
     1
102
RTVSPost2010Prop32
280
     0
102
RTVSPost2010PropOp32
 70
     1
102
RTVSPost2010Prop33
280
     0
102
RTVSPost2010PropOp33
 70
     1
102
RTVSPost2010Prop34
280
     0
102
RTVSPost2010PropOp34
 70
     1
102
RTVSPost2010Prop35
280
     0
102
RTVSPost2010PropOp35
 70
     1
102
RTVSPost2010Prop36
280
     0
102
RTVSPost2010PropOp36
 70
     1
102
RTVSPost2010Prop37
 90
       50
102
RTVSPost2010PropOp37
 70
     1
102
RTVSPost2010Prop38
140
0.0
102
RTVSPost2010PropOp38
 70
     1
102
RTVSPost2010Prop39
140
1.0
102
RTVSPost2010PropOp39
 70
     1
102
RTVSPost2010Prop40
 90
        0
102
RTVSPost2010PropOp40
 70
     1
102
RTVSPost2010Prop41ColorIndex
 90
       18
102
RTVSPost2010Prop41ColorRGB
 90
        0
102
RTVSPost2010PropOp41
 70
     1
102
RTVSPost2010Prop42
 90
       50
102
RTVSPost2010PropOp42
 70
     1
102
RTVSPost2010Prop43
 90
        3
102
RTVSPost2010PropOp43
 70
     1
102
RTVSPost2010Prop44ColorIndex
 90
        5
102
RTVSPost2010Prop44ColorRGB
 90
      255
102
RTVSPost2010PropOp44
 70
     1
102
RTVSPost2010Prop45
280
     0
102
RTVSPost2010PropOp45
 70
     1
102
RTVSPost2010Prop46
 90
       50
102
RTVSPost2010PropOp46
 70
     1
102
RTVSPost2010Prop47
 90
       50
102
RTVSPost2010PropOp47
 70
     1
102
RTVSPost2010Prop48
 90
       50
102
RTVSPost2010PropOp48
 70
     1
102
RTVSPost2010Prop49
280
     0
102
RTVSPost2010PropOp49
 70
     1
102
RTVSPost2010Prop50
 90
       50
102
RTVSPost2010PropOp50
 70
     1
102
RTVSPost2010Prop51ColorIndex
 90
      256
102
RTVSPost2010Prop51ColorRGB
 90
-16777216
102
RTVSPost2010PropOp51
 70
     0
102
RTVSPost2010Prop52
140
1.0
102
RTVSPost2010PropOp52
 70
     0
102
RTVSPost2010Prop53
 90
        2
102
RTVSPost2010PropOp53
 70
     1
102
RTVSPost2010Prop54
  1
strokes_ogs.tif
102
RTVSPost2010PropOp54
 70
     1
102
RTVSPost2010Prop55
280
     0
102
RTVSPost2010PropOp55
 70
     1
102
RTVSPost2010Prop56
140
1.0
102
RTVSPost2010PropOp56
 70
     1
102
RTVSPost2010Prop57
140
1.0
102
RTVSPost2010PropOp57
 70
     1
  0
XRECORD
  5
844
102
{ACAD_REACTORS
330
843
102
}
330
843
100
AcDbXrecord
280
     1
102
RTVSPropertyOp0
 70
     1
102
RTVSPropertyOp1
 70
     1
102
RTVSPropertyOp2
 70
     1
102
RTVSPropertyOp3
 70
     1
102
RTVSPropertyOp4
 70
     1
102
RTVSPropertyOp5
 70
     1
102
RTVSPropertyOp6
 70
     1
102
RTVSPropertyOp7
 70
     1
102
RTVSPropertyOp8
 70
     1
102
RTVSPropertyOp9
 70
     1
102
RTVSPropertyOp10
 70
     1
102
RTVSPropertyOp11
 70
     1
102
RTVSPropertyOp12
 70
     1
102
RTVSPropertyOp13
 70
     1
102
RTVSPropertyOp14
 70
     1
102
RTVSPropertyOp15
 70
     1
102
RTVSPropertyOp16
 70
     1
102
RTVSPropertyOp17
 70
     1
102
RTVSPropertyOp18
 70
     1
102
RTVSPropertyOp19
 70
     1
102
RTVSPropertyOp20
 70
     1
102
RTVSPropertyOp21
 70
     1
102
RTVSPropertyOp22
 70
     1
102
RTVSPropertyOp23
 70
     1
102
RTVSPropertyOp24
 70
     1
102
RTVSPropertyOp25
 70
     1
102
RTVSPropertyOp26
 70
     1
102
RTVSPropertyOp27
 70
     1
102
RTVSPropertyOp28
 70
     1
102
RTVSPropertyOp29
 70
     1
102
RTVSPropertyOp30
 70
     1
102
RTVSPropertyOp31
 70
     1
102
RTVSPropertyOp32
 70
     1
102
RTVSPropertyOp33
 70
     1
102
RTVSPropertyOp34
 70
     1
102
RTVSPropertyOp35
 70
     1
102
RTVSPropertyOp36
 70
     1
102
RTVSPropertyOp37
 70
     1
102
RTVSPropertyOp38
 70
     1
102
RTVSPropertyOp39
 70
     1
102
RTVSPropertyOp40
 70
     1
102
RTVSPropertyOp41
 70
     1
102
RTVSPropertyOp42
 70
     1
102
RTVSPropertyOp43
 70
     1
102
RTVSPropertyOp44
 70
     1
102
RTVSPropertyOp45
 70
     1
102
RTVSPropertyOp46
 70
     1
102
RTVSPropertyOp47
 70
     1
102
RTVSPropertyOp48
 70
     1
102
RTVSPropertyOp49
 70
     1
102
RTVSPropertyOp50
 70
     1
102
RTVSPropertyOp51
 70
     0
102
RTVSPropertyOp52
 70
     0
102
RTVSPropertyOp53
 70
     1
102
RTVSPropertyOp54
 70
     1
102
RTVSPropertyOp55
 70
     1
102
RTVSPropertyOp56
 70
     1
102
RTVSPropertyOp57
 70
     1
102
RTVSPost2010Prop28
280
     0
102
RTVSPost2010PropOp28
 70
     1
102
RTVSPost2010Prop29
280
     1
102
RTVSPost2010PropOp29
 70
     1
102
RTVSPost2010Prop30
280
     1
102
RTVSPost2010PropOp30
 70
     1
102
RTVSPost2010Prop31
280
     0
102
RTVSPost2010PropOp31
 70
     1
102
RTVSPost2010Prop32
280
     0
102
RTVSPost2010PropOp32
 70
     1
102
RTVSPost2010Prop33
280
     0
102
RTVSPost2010PropOp33
 70
     1
102
RTVSPost2010Prop34
280
     0
102
RTVSPost2010PropOp34
 70
     1
102
RTVSPost2010Prop35
280
     0
102
RTVSPost2010PropOp35
 70
     1
102
RTVSPost2010Prop36
280
     0
102
RTVSPost2010PropOp36
 70
     1
102
RTVSPost2010Prop37
 90
       50
102
RTVSPost2010PropOp37
 70
     1
102
RTVSPost2010Prop38
140
0.0
102
RTVSPost2010PropOp38
 70
     1
102
RTVSPost2010Prop39
140
1.0
102
RTVSPost2010PropOp39
 70
     1
102
RTVSPost2010Prop40
 90
        0
102
RTVSPost2010PropOp40
 70
     1
102
RTVSPost2010Prop41ColorIndex
 90
       18
102
RTVSPost2010Prop41ColorRGB
 90
        0
102
RTVSPost2010PropOp41
 70
     1
102
RTVSPost2010Prop42
 90
       50
102
RTVSPost2010PropOp42
 70
     1
102
RTVSPost2010Prop43
 90
        3
102
RTVSPost2010PropOp43
 70
     1
102
RTVSPost2010Prop44ColorIndex
 90
        5
102
RTVSPost2010Prop44ColorRGB
 90
      255
102
RTVSPost2010PropOp44
 70
     1
102
RTVSPost2010Prop45
280
     0
102
RTVSPost2010PropOp45
 70
     1
102
RTVSPost2010Prop46
 90
       50
102
RTVSPost2010PropOp46
 70
     1
102
RTVSPost2010Prop47
 90
       50
102
RTVSPost2010PropOp47
 70
     1
102
RTVSPost2010Prop48
 90
       50
102
RTVSPost2010PropOp48
 70
     1
102
RTVSPost2010Prop49
280
     0
102
RTVSPost2010PropOp49
 70
     1
102
RTVSPost2010Prop50
 90
       50
102
RTVSPost2010PropOp50
 70
     1
102
RTVSPost2010Prop51ColorIndex
 90
      256
102
RTVSPost2010Prop51ColorRGB
 90
-16777216
102
RTVSPost2010PropOp51
 70
     0
102
RTVSPost2010Prop52
140
1.0
102
RTVSPost2010PropOp52
 70
     0
102
RTVSPost2010Prop53
 90
        2
102
RTVSPost2010PropOp53
 70
     1
102
RTVSPost2010Prop54
  1
strokes_ogs.tif
102
RTVSPost2010PropOp54
 70
     1
102
RTVSPost2010Prop55
280
     0
102
RTVSPost2010PropOp55
 70
     1
102
RTVSPost2010Prop56
140
1.0
102
RTVSPost2010PropOp56
 70
     1
102
RTVSPost2010Prop57
140
1.0
102
RTVSPost2010PropOp57
 70
     1
  0
ENDSEC
  0
SECTION
  2
THUMBNAILIMAGE
 90
    16364
310
28000000B4000000550000000100080000000000C43B000000000000000000000001000000010000FFFFFF000000FF0000FFFF0000FF0000FFFF0000FF000000FF00FF000000000080808000C0C0C0000000FF007F7FFF000000A5005252A50000007F003F3F7F0000004C0026264C000000260013132600003FFF007F9FFF
310
000029A5005267A500001F7F003F4F7F0000134C00262F4C000009260013172600007FFF007FBFFF000052A500527CA500003F7F003F5F7F0000264C0026394C0000132600131C260000BFFF007FDFFF00007CA5005291A500005F7F003F6F7F0000394C0026424C00001C26001321260000FFFF007FFFFF0000A5A50052A5
310
A500007F7F003F7F7F00004C4C00264C4C00002626001326260000FFBF007FFFDF0000A57C0052A59100007F5F003F7F6F00004C3900264C420000261C001326210000FF7F007FFFBF0000A5520052A57C00007F3F003F7F5F00004C2600264C39000026130013261C0000FF3F007FFF9F0000A5290052A56700007F1F003F
310
7F4F00004C1300264C2F00002609001326170000FF00007FFF7F0000A5000052A55200007F00003F7F3F00004C0000264C260000260000132613003FFF00009FFF7F0029A5000067A552001F7F00004F7F3F00134C00002F4C260009260000172613007FFF0000BFFF7F0052A500007CA552003F7F00005F7F3F00264C0000
310
394C2600132600001C261300BFFF0000DFFF7F007CA5000091A552005F7F00006F7F3F00394C0000424C26001C26000021261300FFFF0000FFFF7F00A5A50000A5A552007F7F00007F7F3F004C4C00004C4C26002626000026261300FFBF0000FFDF7F00A57C0000A59152007F5F00007F6F3F004C3900004C422600261C00
310
0026211300FF7F0000FFBF7F00A5520000A57C52007F3F00007F5F3F004C2600004C39260026130000261C1300FF3F0000FF9F7F00A5290000A56752007F1F00007F4F3F004C1300004C2F26002609000026171300FF000000FF7F7F00A5000000A55252007F0000007F3F3F004C0000004C2626002600000026131300FF00
310
3F00FF7F9F00A5002900A55267007F001F007F3F4F004C0013004C262F002600090026131700FF007F00FF7FBF00A5005200A5527C007F003F007F3F5F004C0026004C2639002600130026131C00FF00BF00FF7FDF00A5007C00A55291007F005F007F3F6F004C0039004C26420026001C0026132100FF00FF00FF7FFF00A5
310
00A500A552A5007F007F007F3F7F004C004C004C264C002600260026132600BF00FF00DF7FFF007C00A5009152A5005F007F006F3F7F0039004C0042264C001C002600211326007F00FF00BF7FFF005200A5007C52A5003F007F005F3F7F0026004C0039264C00130026001C1326003F00FF009F7FFF002900A5006752A500
310
1F007F004F3F7F0013004C002F264C000900260017132600000000002D2D2D005B5B5B0089898900B7B7B700B3B3B30000000000000000000000000000000000000000000000000000000000000000000000000000000000000000000000000000000000000000000000000000000000000000000000000000000000000000
310
00000000000000000000000000000000000000000000000000000000000000000000000000000000000000000000000000000000000000000000000000000000000000000000000000000000000000000000000000000000000000000000000000000000000000000000000000000000000000000000000000000000000000
310
00000000000000000000000000000000000000000000000000000000000000000000000000000000000000000000000000000000000000000000000000000000000000000000000000000000000000000000000000000000000000000000000000000000000000000000000000000000000000000000000000000000000000
310
00000000000000000000000000000000000000000000000000000000000000000000000000000000000000000000000000000000000000000000000000000000000000000000000000000000000000000000000000000000000000000000000000000000000000000000000000000000000000000000000000000000000000
310
00000000000000000000000000000000000000000000000000000000000000000000000000000000000000000000000000000000000000000000000000000000000000000000000000000000000000000000000000000000000000000000000000000000000000000000000000000000000000000000000000000000000000
310
00000000000000000000000000000000000000000000000000000000000000000000000000000000000000000000000000000000000000000000000000000000000000000000000000000000000000000000000000000000000000000000000000000000000000000000000000000000000000000000000000000000000000
310
00000000000000000000000000000000000000000000000000000000000000000000000000000000000000000000000000000000000000000000000000000000000000000000000000000000000000000000000000000000000000000000000000000000000000000000000000000000000000000000000000000000000000
310
00000000000000000000000000000000000000000000000000000000000000000000000000000000000000000000000000000000000000000000000000000000000000000000000000000000000000000000000000000000000000000000000000000000000000000000000000000000000000000000000000000000000000
310
00000000000000000000000000000000000000000000000000000000000000000000000000000000000000000000000000000000000000000000000000000000000000000000000000000000000000000000000000000000000000000000000000000000000000000000000000000000000000000000000000000000000000
310
00000000000000000000000000000000000000000000000000000000000000000000000000000000000000000000000000000000000000000000000000000000000000000000000000000000000000000000000000000000000000000000000000000000000000000000000000000000000000000000000000000000000000
310
00000000000000000000000000000000000000000000000000000000000000000000000000000000000000000000000000000000000000000000000000000000000000000000000000000000000000000000000000000000000000000000000000000000000000000000000000000000000000000000000000000000000000
310
00000000000000000000000000000000000000000000000000000000000000000000000000000000000000000000000000000000000000000000000000000000000000000000000000000000000000000000000000000000000000000000000000000000000000000000000000000000000000000000000000000000000000
310
00000000000000000000000000000000000000000000000000000000000000000000000000000000000000000000000000000000000000000000000000000000000000000000000000000000000000000000000000000000000000000000000000000000000000000000000000000000000000000000000000000000000000
310
00000000000000000000000000000000000000000000000000000000000000000000000000000000000000000000000000000000000000000000000000000000000000000000000000000000000000000000000000000000000000000000000000000000000000000000000000000000000000000000000000000000000000
310
00000000000000000000000000000000000000000000000000000000000000000000000000000000000000000000000000000000000000000000000000000000000000000000000000000000000000000000000000000000000000000000000000000000000000000000000000000000000000000000000000000000000000
310
00000000000000000000000000000000000000000000000000000000000000000000000000000000000000000000000000000000000000000000000000000000000000000000000000000000000000000000000000000000000000000000000000000000000000000000000000000000000000000000000000000000000000
310
00000000000000000000000000000000000000000000000000000000000000000000000000000000000000000000000000000000000000000000000000000000000000000000000000000000000000000000000000000000000000000000000000000000000000000000000000000000000000000000000000000000000000
310
00000000000000000000000000000000000000000000000000000000000000000000000000000000000000000000000000000000000000000000000000000000000000000000000000000000000000000000000000000000000000000000000000000000000000000000000000000000000000000000000000000000000000
310
00000000000000000000000000000000000000000000000000000000000000000000000000000000000000000000000000000000000000000000000000000000000000000000000000000000000000000000000000000000000000000000000000000000000000000000000000000000000000000000000000000000000000
310
00000000000000000000000000000000000000000000000000000000000000000000000000000000000000000000040404040000000000000000000000000000000000000000000000000000000000000000000000000000000000000000000000000000000000000000000000000000000000000000000000000000000000
310
00000000000000000000000000000000000000000000000000000000000000000000000000000000000000000000000000000000000000000000000000000000000000000000000000000000000000000000000000000000000000000000000000000002020202000000000000000000000000000000000000000000000000
310
00000000000000000000000000000000000000000000000000000000000000000000000000000000000000000000000000000000000000000000000000000000000000000000000000000000000000000000000000000000000001000000000000000000000000000000000000000000010000000000000000000000000000
310
00000000000000000001000000000001000000000000010000000000000000000000000000000000000000000000000000000000000000010000000000000000000000000000000000000000010000000000000000000000000000000000000000000000000000000000000000000000000000000000000000000000000000
310
00000000000000000000000000000303010303030303030303030301030303030303030303030103030000000000000000000000000000000000000003030303030303030303030303030303030000000000000000000000000000000000000000000000000000000000030301030303030303030303030303030303030303
310
03030103030000000000000000000000000000000000000000000000000000000000000000000000000000000000000000000000000000000000000000000000000000030001000003000300030300010104000303000300030000010003000000000000000000000000000000000000000300010000000000010000000003
310
03010300000000000000000000000000000000000000000000000000000000000300010003000100030101010101010101000103000300010003000000000000000000000000000000000000000000000000000000000000000000000000000000000000000000000000000000000000000000000000000003030103030303
310
03030003030301030303000303030303030103030000000000000000000000000000000000000003030303030300010100000103030303030000000000000000000000000000000000000000000000000000000000030301030303030401030303030303030303040303030301030300000000000000000000000000000000
310
00000000000000000000000000000000000000000000000000000000000000000000000000000000000000000000030301030303030003030000000100000003030003030303010303030000000000000000000000000000000000000000010003030301030300000303030100000000000000000000000000000000000000
310
00000000000000000000030303010303030304030000000100000000030401030303010303030000000000000000000000000000000000000000000000000000000000000000000000000000000000000000000000000000000000000000000000000003000000000300030000000000010000000000030003000000000303
310
00000000000000010000000000000000000000000003030303010303030003030000000000000000000000000000000000000000000000000000000000000003000000000101030300000000010000000000030301030000000003000000000000000000000000000000000000000000000000000000000000000000000000
310
00000000000000000000000000000000000000000000000000030000000300030000000000000100000000000003030300000003030303030300000301030000000000000000000000030303030303030303000303000000000000000000000000000000000000000000000000000003030303030300000003010300000000
310
00000303000000000000030100000000030000000000000000000000000000000000000000000000000000000000000000000000000000000000000000000000000000000000000000000000000101010101010101010101010101010101010101010101010101010101010101010000030103010000000000000000000003
310
03030303010303030103030000000000000000000000000000000000000000000000000000030301010303010101010301010101010103030303010101010101030101010103000000000000000000000000000000000000000000000000000000000000000000000000000000000000000000000000000000000000000000
310
00000000030003000300000000000001010103010000000000000300030003030303030300000301030000000000000000000000010101030303010303000303000000000000000000000000000000000000000000000000000003030303030300000303000000000000000301000300000000000003010300000300000000
310
00000000000000000000000000000000000000000000000000000000000000000000000000000000000000000000000000000000000000000003030300030303030303030303010303030303030303030303030303000000000000000000000000000000000000000003030303030103030300030300000000000000000000
310
00000000000000000000000000000000000000000003030301030303030303030303030303030103030303030301030303000000000000000000000000000000000000000000000000000000000000000000000000000000000000000000000000000000000000000000000000000300030303000000030301030001000000
310
00000000000003030003000000000000000000000000000000000000000000000303030301030300000303030000000000000000000000000000000000000000000000000000000000000303030103000000000000000001000303010300000000030103030300000000000000000000000000000000000000000000000000
310
00000000000000000000000000000000000000000000000000000000000000000000000003000303000000030303010303010000000001000000000303000300000000000000000000000000000000000000000000030303000101000000030303000000000000000000000000000000000000000000000000000000000000
310
00030303000000000100000000010303030103030000000301030300000000000000000000000000000000000000000000000000000000000000000000000000000000000000000000000000000000000000000000000000000300030300000303030001000301000003030103030000030003030000000000000000000000
310
00000000000000000000000303030000010000000303030303030303030303000000000103000000000000000000000000000000000003030300000303010303000003030003030003030000000303030000000000000000000000000000000000000000000000000000000000000000000000000000000000000000000000
310
00000000000000000000000000000001010101010101010101010101010101010101010101010101010100000000000000000000000000000000000000000001030101010101010101010303030000000000000300000003010303000000000000000000000000000000010304040101030301010303010303030303030103
310
01010104040300000000000000000000000000000000000000000000000000000000000000000000000000000000000000000000000000000000000000000000000000000300030300010101010101010101010303000100030300030003030000000000000000000000000000000000000000000103030301010101010103
310
03030301010101010103010001030101030000000000000000000000000000000003030300030300010003030103010301010301030100000303030000000000000000000000000000000000000000000000000000000000000000000000000000000000000000000000000000000000000000000000000000000303030000
310
03030000010000010303010101010103010300030300000000000000000000000000000000000000000001030101010101010101010103030303030303030300000003010300000000000000000000000000000000000303030001010101010101010303030303030303000003010303000000000000000000000000000000
310
00000000000000000000000000000000000000000000000000000000000000000000000000000000000000000000000003030300000003030001000301000003030100030300030300030000000000000000000000000000000000000000000003030300000100000003030303030303030303030000000001000000000000
310
00000000000000000000000003030300000303010003030003030303030303030000030103030000000000000000000000000000000000000000000000000000000000000000000000000000000000000000000000000000000000000000000000000000000303000300000003030103030100000303010303000300030003
310
00000000000000000000000000000000000000000000030303000001000000030303000000000000000000000000000000000000000000000000000000000000000303010300030301030300000103030301030300000003010003000000000000000000000000000000000000000000000000000000000000000000000000
310
00000000000000000000000000000000000000000000000000000003000303030303000301030001000000000103030303030003000000000000000000000000000000000000000000000003030300000100000003030300000000000000000000000000000000000000000000000000000000000000030003030303030103
310
00000001000003010003030303010300030000000000000000000000000000000000000000000000000000000000000000000000000000000000000000000000000000000000000000000000000000000300030003000003030303030103030303030000030003000300000000000000000000000000000000000000000000
310
00030303000001000000030300000000000000000000000000000000000000000000000000000000000000000300000103000000030303030303030303030000000301000003000000000000000000000000000000000000000000000000000000000000000000000000000000000000000000000000000000000000000000
310
00000000000003000003000300000000030301030300000000000303000003000000000000000000000000000000000000000000000003030300000100000003030000000000000000000000000000000000000000000000000000000000000000030000030103000000000000010000000000000003010000030000000000
310
00000000000000000000000000000000000000000000000000000000000000000000000000000000000000000000000000000000000000000000000300000003030300000003030103030000000303030000000300000000000000000000000000000000000000000000000303030000010000000303000000000000000000
310
00000000000000000000000000000000000000000000000300000003010301000000000100000000010303010300000300000000000000000000000000000000000000000000000000000000000000000000000000000000000000000000000000000000000000000000000000000000030000000003000303000303010303
310
00000300030000000003000000000000000000000000000000000000000000000003030300000100000101030300000000000000000000000000000000000000000000000000000000000000030000000003030403000000010000000003040103000000030000000000000000000000000000000000000000000000000000
310
00000000000000000000000000000000000000000000000000000000000000000000000000000303000000000303000303030103030303030300000000000300000000000000000000000000000000000000000000000003030000010000000303030000000000000000000000000000000000000000000000000000000000
310
00000003000000000304010303030303030303030403000000000300000000000000000000000000000000000000000000000000000000000000000000000000000000000000000000000000000000000000000000000000000000000303030303000003030303010303030300000003030303030000000000000000000000
310
00000000000000000000000000030300000100000003030000000000000000000000000000000000000000000000000000000000000000000303030303000000030101010101010300000003030303030000000000000000000000000000000000000000000000000000000000000000000000000000000000000000000000
310
00000000000000000000000000000000000000000000000303030303030103030303030303000000000000000000000000000000000000000000000000000000000003030303030303030303000000000000000000000000000000000000000000000000000000000000000000000000000003030303030303030303030303
310
03000000000000000000000000000000000000000000000000000000000000000000000000000000000000000000000000000000000000000000000000000000000000000000000000000000000000000003010300000000000000000000000000000000000000000000000000000000000000000000000000000003030000
310
00000000000000000000000000000000000000000000000000000000000000000000000000000000000000000003030300000000000000000000000000000000000000000000000000000000000000000000000000000000000000000000000000000000000000000000000000000000000000000000000000000000000000
310
00000000000000000000000000000000000000000000000000000000000000000000000000000000000000000000000000000000000000000000000000000000000000000000000000000000000000000000000000000000000000000000000000000000000000000000000000000000000000000000000000000000000000
310
00000000000000000000000000000000000000000000000000000000000000000000000000000000000000000000000000000000000000000000000000000000000000000000000000000000000000000000000000000000000000000000000000000000000000000000000000000000000000000000000000000000000000
310
00000000000000000000000000000000000000000000000000000000000000000000000000000000000000000000000000000000000000000000000000000000000000000000000000000000000000000000000000000000000000000000000000000000000000000000000000000000000000000000000000000000000000
310
00000000000000000000000000000000000000000000000000000000000000000000000000000000000000000000000000000000000000000000000000000000000000000000000000000000000000000000000000000000000000000000000000000000000000000000000000000000000000000000000000000000000000
310
00000000000000000000000000000000000000000000000000000000000000000000000000000000000000000000000000000000000000000000000000000000000000000000000000000000000000000000000000000000000000000000000000000000000000000000000000000000000000000000000000000000000000
310
00000000000000000000000000000000000000000000000000000000000000000000000000000000000000000000000000000000000000000000000000000000000000000000000000000000000000000000000000000000000000000000000000000000000000000000000000000000000000000000000000000000000000
310
00000000000000000000000000000000000000000000000000000000000000000000000000000000000000000000000000000000000000000000000000000000000000000000000000000000000000000000000000000000000000000000000000000000000000000000000000000000000000000000000000000000000000
310
00000000000000000000000000000000000000000000000000000000000000000000000000000000000000000000000000000000000000000000000000000000000000000000000000000000000000000000000000000000000000000000000000000000000000000000000000000000000000000000000000000000000000
310
00000000000000000000000000000000000000000000000000000000000000000000000000000000000000000000000000000000000000000000000000000000000000000000000000000000000000000000000000000000000000000000000000000000000000000000000000000000000000000000000000000000000000
310
00000000000000000000000000000000000000000000000000000000000000000000000000000000000000000000000000000000000000000000000000000000000000000000000000000000000000000000000000000000000000000000000000000000000000000000000000000000000000000000000000000000000000
310
00000000000000000000000000000000000000000000000000000000000000000000000000000000000000000000000000000000000000000000000000000000000000000000000000000000000000000000000000000000000000000000000000000000000000000000000000000000000000000000000000000000000000
310
00000000000000000000000000000000000000000000000000000000000000000000000000000000000000000000000000000000000000000000000000000000000000000000000000000000000000000000000000000000000000000000000000000000000000000000000000000000000000000000000000000000000000
310
00000000000000000000000000000000000000000000000000000000000000000000000000000000000000000000000000000000000000000000000000000000000000000000000000000000000000000000000000000000000000000000000000000000000000000000000000000000000000000000000000000000000000
310
00000000000000000000000000000000000000000000000000000000000000000000000000000000000000000000000000000000000000000000000000000000000000000000000000000000000000000000000000000000000000000000000000000000000000000000000000000000000000000000000000000000000000
310
00000000000000000000000000000000000000000000000000000000000000000000000000000000000000000000000000000000000000000000000000000000000000000000000000000000000000000000000000000000000000000000000000000000000000000000000000000000000000000000000000000000000000
310
00000000000000000000000000000000000000000000000000000000000000000000000000000000000000000000000000000000000000000000000000000000000000000000000000000000000000000000000000000000000000000000000000000000000000000000000000000000000000000000000000000000000000
310
00000000000000000000000000000000000000000000000000000000000000000000000000000000000000000000000000000000000000000000000000000000000000000000000000000000000000000000000000000000000000000000000000000000000000000000000000000000000000000000000000000000030103
310
03030000000000000000000000000000000303030103000000000000000000000000000000000000000000000000000000000000000000000000000000000000000000000000000000000000000000000000000000000000000000000000000000000000000000000000000000000000000000000000000000000000000000
310
00000000000000000000000000000000000000000000000000000000000000000000000000000000000000000000000000030303030003000000000000000000000000000000030003030003000000000000000000000000000000000000000000000000000000000000000000000000000000000000000000000000000000
310
00000000000000000000000000000000000000000000000000000000000000000000000000000000000000000000000000000000000000000000000000000000000000000000000000000000000000000000000000000000000000000000000000000000000003010101010300000000010003030300000001000300010303
310
01030000000000000000000000000000000000000000000000000000000000000000000000000000000000000000000000000000000000000000000000000000000000000000000000000000000000000000000000000000000000000000000000000000000000000000000000000000000000000000000000000000000000
310
00000000000000000000000000000000000000000000000000000000030003030303030303030103030303030303030303030303030003000000000000000000000000000000000000000000000000000000000000000000000000000000000000000000000000000000000000000000000000000000000000000000000000
310
00000000000000000000000000000000000000000000000000000000000000000000000000000000000000000000000000000000000000000000000000000000000000000000000000000000000000000003030303030303030303010303010303030301030303030301030300000000000000000000000000000000000000
310
00000000000000000000000000000000000000000000000000000000000000000000000000000000000000000000000000000000000000000000000000000000000000000000000000000000000000000000000000000000000000000000000000000000000000000000000000000000000000000000000000000000000000
310
00000000000000030303030303030303030103030103030303010303030303030303030000000000000000000000000000000000000000000000000000000000000000000000000000000000000000000000000000000000000000000000000000000000000000000000000000000000000000000000000000000000000000
310
00000000000000000000000000000000000000000000000000000000000000000000000000000000000000000000000000000000000000000000000003000000000000000000010000010000000001000000000000000303030303030000000000000000000000000000000000000000000000000000000000000000000000
310
00000000000000000000000000000000000000000000000000000000000000000000000000000000000000000000000000000000000000000000000000000000000000000000000000000000000000000000000000000000000000000000000000000000000000000000000000000000010301010101010101010101010303
310
03030101010101010101010103030303030301000000000000000000000000000000000000000000000000000000000000000000000000000000000000000000000000000000000000000000000000000000000000000000000000000000000000000000000000000000000000000000000000000000000000000000000000
310
00000000000000000000000000000000000000000000000000000000000000000000000000000003000000000000000000010003030303000001000000000000000303030303030000000000000000000000000000000000000000000000000000000000000000000000000000000000000000000000000000000000000000
310
00000000000000000000000000000000000000000000000000000000000000000000000000000000000000000000000000000000000000000000000000000000000000000000000000000000000000000000000000000000000000000301010101010101010101010303030301010101010101010101030300000000000000
310
00000000000000000000000000000000000000000000000000000000000000000000000000000000000000000000000000000000000000000000000000000000000000000000000000000000000000000000000000000000000000000000000000000000000000000000000000000000000000000000000000000000000000
310
00000000000000000000000000000000000003000000000000000000010003030303000001000000000000000303000000000000000000000000000000000000000000000000000000000000000000000000000000000000000000000000000000000000000000000000000000000000000000000000000000000000000000
310
00000000000000000000000000000000000000000000000000000000000000000000000000000000000000000000000000000000000000000000000000000000000000000000000300000000000000000001000001000000000100000000000000030000000000000000000000000000000000000000000000000000000000
310
00000000000000000000000000000000000000000000000000000000000000000000000000000000000000000000000000000000000000000000000000000000000000000000000000000000000000000000000000000000000000000000000000000000000000000000000000000000000000000000000000000000030301
310
03030303030103010303030303030303010303030301030300000000000000000000000000000000000000000000000000000000000000000000000000000000000000000000000000000000000000000000000000000000000000000000000000000000000000000000000000000000000000000000000000000000000000
310
00000000000000000000000000000000000000000000000000000000000000000000000000000000000000000000000000000303010303030303010301030303030303030303030303030303030000000000000000000000000000000000000000000000000000000000000000000000000000000000000000000000000000
310
00000000000000000000000000000000000000000000000000000000000000000000000000000000000000000000000000000000000000000000000000000000000000000000000000000000000000000000000000000000000000000000000000000000000000030001030303030301030303030303030303030303030303
310
03030300000000000000000000000000000000000000000000000000000000000000000000000000000000000000000000000000000000000000000000000000000000000000000000000000000000000000000000000000000000000000000000000000000000000000000000000000000000000000000000000000000000
310
00000000000000000000000000000000000000000000000000000000000301010101000300030303030001000000000100030001030301030000000000000000000000000000000000000000000000000000000000000000000000000000000000000000000000000000000000000000000000000000000000000000000000
310
00000000000000000000000000000000000000000000000000000000000000000000000000000000000000000000000000000000000000000000000000000000000000000000000000000000000000000000030003030003000003000303000000000000000000030003030003000000000000000000000000000000000000
310
00000000000000000000000000000000000000000000000000000000000000000000000000000000000000000000000000000000000000000000000000000000000000000000000000000000000000000000000000000000000000000000000000000000000000000000000000000000000000000000000000000000000000
310
00000000000000000003030303030000030003030000000000000000000303030303030000000000000000000000000000000000000000000000000000000000000000000000000000000000000000000000000000000000000000000000000000000000000000000000000000000000000000000000000000000000000000
310
00000000000000000000000000000000000000000000000000000000000000000000000000000000000000000000000000000000000000000000000000000000000000000003000303000000000000000000000000000000000000000000000000000000000000000000000000000000000000000000000000000000000000
310
00000000000000000000000000000000000000000000000000000000000000000000000000000000000000000000000000000000000000000000000000000000000000000000000000000000000000000000000000000000000000000000000000000000000000000000000000000000000000000000000000000300030300
310
00000000000000000000000000000000000000000000000000000000000000000000000000000000000000000000000000000000000000000000000000000000000000000000000000000000000000000000000000000000000000000000000000000000000000000000000000000000000000000000000000000000000000
310
00000000000000000000000000000000000000000000000000000000000000000000000000000000000000000000000003000303000000000000000000000000000000000000000000000000000000000000000000000000000000000000000000000000000000000000000000000000000000000000000000000000000000
310
00000000000000000000000000000000000000000000000000000000000000000000000000000000000000000000000000000000000000000000000000000000000000000000000000000000000000000000000000000000000000000000000000000000000300030300000000000000000000000000000000000000000000
310
00000000000000000000000000000000000000000000000000000000000000000000000000000000000000000000000000000000000000000000000000000000000000000000000000000000000000000000000000000000000000000000000000000000000000000000000000000000000000000000000000000000000000
310
00000000000000000000000000000000000000000000000000000003000303000000000000000000000000000000000000000000000000000000000000000000000000000000000000000000000000000000000000000000000000000000000000000000000000000000000000000000000000000000000000000000000000
310
00000000000000000000000000000000000000000000000000000000000000000000000000000000000000000000000000000000000000000000000000000000000000000000000000000000000000000303030300000000000000000000000000000000000000000000000000000000000000000000000000000000000000
310
00000000000000000000000000000000000000000000000000000000000000000000000000000000000000000000000000000000000000000000000000000000000000000000000000000000000000000000000000000000000000000000000000000000000000000000000000000000000000000000000000000000000000
310
00000000000000000000000000000000000000000000000000000000000000000000000000000000000000000000000000000000000000000000000000000000000000000000000000000000000000000000000000000000000000000000000000000000000000000000000000000000000000000000000000000000000000
310
00000000000000000000000000000000000000000000000000000000000000000000000000000000000000000000000000000000000000000000000000000000000000000000000000000000000000000000000000000000000000000000000000000000000000000000000000000000000000000000000000000000000000
310
00000000000000000000000000000000000000000000000000000000000000000000000000000000000000000000000000000000000000000000000000000000000000000000000000000000000000000000000000000000000000000000000000000000000000000000000000000000000000000000000000000000000000
310
00000000000000000000000000000000000000000000000000000000000000000000000000000000000000000000000000000000000000000000000000000000000000000000000000000000000000000000000000000000000000000000000000000000000000000000000000000000000000000000000000000000000000
310
00000000000000000000000000000000000000000000000000000000000000000000000000000000000000000000000000000000000000000000000000000000000000000000000000000000000000000000000000000000000000000000000000000000000000000000000000000000000000000000000000000000000000
310
00000000000000000000000000000000000000000000000000000000000000000000000000000000000000000000000000000000000000000000000000000000000000000000000000000000000000000000000000000000000000000000000000000000000000000000000000000000000000000000000000000000000000
310
00000000000000000000000000000000000000000000000000000000000000000000000000000000000000000000000000000000000000000000000000000000000000000000000000000000000000000000000000000000000000000000000000000000000000000000000000000000000000000000000000000000000000
310
00000000000000000000000000000000000000000000000000000000000000000000000000000000000000000000000000000000000000000000000000000000000000000000000000000000000000000000000000000000000000000000000000000000000000000000000000000000000000000000000000000000000000
310
00000000000000000000000000000000000000000000000000000000000000000000000000000000000000000000000000000000000000000000000000000000000000000000000000000000000000000000000000000000000000000000000000000000000000000000000000000000000000000000000000000000000000
310
000000000000000000000000000000000000000000000000000000000000000000000000000000000000000000000000000000000000000000000000000000000000000000000000000000000000000000000000000000000000000000000000000000000000000000000000
  0
ENDSEC
  0
EOF
