  0
SECTION
  2
HEADER
  9
$ACADVER
  1
AC1015
  9
$ACADMAINTVER
 70
     6
  9
$DWGCODEPAGE
  3
ANSI_932
  9
$INSBASE
 10
1383.477506021891
 20
783.4994729925246
 30
0.0
  9
$EXTMIN
 10
79.67943614402733
 20
11.89506092333477
 30
0.0
  9
$EXTMAX
 10
834.5563737312024
 20
676.0948499424129
 30
0.0
  9
$LIMMIN
 10
0.0
 20
0.0
  9
$LIMMAX
 10
816.5000000000001
 20
565.0
  9
$ORTHOMODE
 70
     1
  9
$REGENMODE
 70
     1
  9
$FILLMODE
 70
     1
  9
$QTEXTMODE
 70
     0
  9
$MIRRTEXT
 70
     1
  9
$LTSCALE
 40
20.0
  9
$ATTMODE
 70
     1
  9
$TEXTSIZE
 40
7.5
  9
$TRACEWID
 40
0.05
  9
$TEXTSTYLE
  7
KANJI
  9
$CLAYER
  8
2
  9
$CELTYPE
  6
BYLAYER
  9
$CECOLOR
 62
   256
  9
$CELTSCALE
 40
1.0
  9
$DISPSILH
 70
     0
  9
$DIMSCALE
 40
2.5
  9
$DIMASZ
 40
2.0
  9
$DIMEXO
 40
0.5
  9
$DIMDLI
 40
0.0
  9
$DIMRND
 40
0.0
  9
$DIMDLE
 40
0.0
  9
$DIMEXE
 40
1.0
  9
$DIMTP
 40
0.0
  9
$DIMTM
 40
0.0
  9
$DIMTXT
 40
3.0
  9
$DIMCEN
 40
0.09
  9
$DIMTSZ
 40
0.0
  9
$DIMTOL
 70
     0
  9
$DIMLIM
 70
     0
  9
$DIMTIH
 70
     0
  9
$DIMTOH
 70
     0
  9
$DIMSE1
 70
     0
  9
$DIMSE2
 70
     0
  9
$DIMTAD
 70
     0
  9
$DIMZIN
 70
     8
  9
$DIMBLK
  1

  9
$DIMASO
 70
     0
  9
$DIMSHO
 70
     0
  9
$DIMPOST
  1

  9
$DIMAPOST
  1

  9
$DIMALT
 70
     0
  9
$DIMALTD
 70
     2
  9
$DIMALTF
 40
25.4
  9
$DIMLFAC
 40
1.0
  9
$DIMTOFL
 70
     1
  9
$DIMTVP
 40
1.0
  9
$DIMTIX
 70
     1
  9
$DIMSOXD
 70
     1
  9
$DIMSAH
 70
     0
  9
$DIMBLK1
  1

  9
$DIMBLK2
  1

  9
$DIMSTYLE
  2
STANDARD
  9
$DIMCLRD
 70
   256
  9
$DIMCLRE
 70
   256
  9
$DIMCLRT
 70
   256
  9
$DIMTFAC
 40
1.0
  9
$DIMGAP
 40
0.09
  9
$DIMJUST
 70
     0
  9
$DIMSD1
 70
     0
  9
$DIMSD2
 70
     0
  9
$DIMTOLJ
 70
     1
  9
$DIMTZIN
 70
     0
  9
$DIMALTZ
 70
     0
  9
$DIMALTTZ
 70
     0
  9
$DIMUPT
 70
     0
  9
$DIMDEC
 70
     1
  9
$DIMTDEC
 70
     4
  9
$DIMALTU
 70
     2
  9
$DIMALTTD
 70
     2
  9
$DIMTXSTY
  7
STANDARD
  9
$DIMAUNIT
 70
     0
  9
$DIMADEC
 70
     0
  9
$DIMALTRND
 40
0.0
  9
$DIMAZIN
 70
     0
  9
$DIMDSEP
 70
    46
  9
$DIMATFIT
 70
     3
  9
$DIMFRAC
 70
     0
  9
$DIMLDRBLK
  1

  9
$DIMLUNIT
 70
     2
  9
$DIMLWD
 70
    -2
  9
$DIMLWE
 70
    -2
  9
$DIMTMOVE
 70
     0
  9
$LUNITS
 70
     2
  9
$LUPREC
 70
     3
  9
$SKETCHINC
 40
0.1
  9
$FILLETRAD
 40
1.0
  9
$AUNITS
 70
     0
  9
$AUPREC
 70
     3
  9
$MENU
  1
C:\R13\WIN\SUPPORT\ACADFULL
  9
$ELEVATION
 40
0.0
  9
$PELEVATION
 40
0.0
  9
$THICKNESS
 40
0.0
  9
$LIMCHECK
 70
     0
  9
$CHAMFERA
 40
0.0
  9
$CHAMFERB
 40
0.0
  9
$CHAMFERC
 40
0.0
  9
$CHAMFERD
 40
0.0
  9
$SKPOLY
 70
     0
  9
$TDCREATE
 40
2457311.432121493
  9
$TDUCREATE
 40
2457311.057121493
  9
$TDUPDATE
 40
2458109.421845521
  9
$TDUUPDATE
 40
2458109.046845521
  9
$TDINDWG
 40
0.0250861227
  9
$TDUSRTIMER
 40
0.0250853935
  9
$USRTIMER
 70
     1
  9
$ANGBASE
 50
0.0
  9
$ANGDIR
 70
     0
  9
$PDMODE
 70
     0
  9
$PDSIZE
 40
0.0
  9
$PLINEWID
 40
0.0
  9
$SPLFRAME
 70
     0
  9
$SPLINETYPE
 70
     6
  9
$SPLINESEGS
 70
     8
  9
$HANDSEED
  5
56D
  9
$SURFTAB1
 70
     6
  9
$SURFTAB2
 70
     6
  9
$SURFTYPE
 70
     6
  9
$SURFU
 70
     6
  9
$SURFV
 70
     6
  9
$UCSBASE
  2

  9
$UCSNAME
  2

  9
$UCSORG
 10
0.0
 20
0.0
 30
0.0
  9
$UCSXDIR
 10
1.0
 20
0.0
 30
0.0
  9
$UCSYDIR
 10
0.0
 20
1.0
 30
0.0
  9
$UCSORTHOREF
  2

  9
$UCSORTHOVIEW
 70
     0
  9
$UCSORGTOP
 10
0.0
 20
0.0
 30
0.0
  9
$UCSORGBOTTOM
 10
0.0
 20
0.0
 30
0.0
  9
$UCSORGLEFT
 10
0.0
 20
0.0
 30
0.0
  9
$UCSORGRIGHT
 10
0.0
 20
0.0
 30
0.0
  9
$UCSORGFRONT
 10
0.0
 20
0.0
 30
0.0
  9
$UCSORGBACK
 10
0.0
 20
0.0
 30
0.0
  9
$PUCSBASE
  2

  9
$PUCSNAME
  2

  9
$PUCSORG
 10
0.0
 20
0.0
 30
0.0
  9
$PUCSXDIR
 10
1.0
 20
0.0
 30
0.0
  9
$PUCSYDIR
 10
0.0
 20
1.0
 30
0.0
  9
$PUCSORTHOREF
  2

  9
$PUCSORTHOVIEW
 70
     0
  9
$PUCSORGTOP
 10
0.0
 20
0.0
 30
0.0
  9
$PUCSORGBOTTOM
 10
0.0
 20
0.0
 30
0.0
  9
$PUCSORGLEFT
 10
0.0
 20
0.0
 30
0.0
  9
$PUCSORGRIGHT
 10
0.0
 20
0.0
 30
0.0
  9
$PUCSORGFRONT
 10
0.0
 20
0.0
 30
0.0
  9
$PUCSORGBACK
 10
0.0
 20
0.0
 30
0.0
  9
$USERI1
 70
     0
  9
$USERI2
 70
     0
  9
$USERI3
 70
     0
  9
$USERI4
 70
     0
  9
$USERI5
 70
     0
  9
$USERR1
 40
0.0
  9
$USERR2
 40
0.0
  9
$USERR3
 40
0.0
  9
$USERR4
 40
2448925.372986111
  9
$USERR5
 40
0.04166667
  9
$WORLDVIEW
 70
     1
  9
$SHADEDGE
 70
     3
  9
$SHADEDIF
 70
    70
  9
$TILEMODE
 70
     1
  9
$MAXACTVP
 70
    16
  9
$PINSBASE
 10
0.0
 20
0.0
 30
0.0
  9
$PLIMCHECK
 70
     0
  9
$PEXTMIN
 10
1000000000000000E+20
 20
1000000000000000E+20
 30
1000000000000000E+20
  9
$PEXTMAX
 10
-1000000000000000E+20
 20
-1000000000000000E+20
 30
-1000000000000000E+20
  9
$PLIMMIN
 10
0.0
 20
0.0
  9
$PLIMMAX
 10
12.0
 20
9.0
  9
$UNITMODE
 70
     0
  9
$VISRETAIN
 70
     0
  9
$PLINEGEN
 70
     0
  9
$PSLTSCALE
 70
     0
  9
$TREEDEPTH
 70
  3020
  9
$CMLSTYLE
  2
STANDARD
  9
$CMLJUST
 70
     0
  9
$CMLSCALE
 40
1.0
  9
$PROXYGRAPHICS
 70
     1
  9
$MEASUREMENT
 70
     0
  9
$CELWEIGHT
370
    -1
  9
$ENDCAPS
280
     0
  9
$JOINSTYLE
280
     0
  9
$LWDISPLAY
290
     0
  9
$INSUNITS
 70
     0
  9
$HYPERLINKBASE
  1

  9
$STYLESHEET
  1
R14.ctb
  9
$XEDIT
290
     1
  9
$CEPSNTYPE
380
     0
  9
$PSTYLEMODE
290
     1
  9
$FINGERPRINTGUID
  2
{3ED457CE-4AD6-4606-8B41-B9E060CC2AC1}
  9
$VERSIONGUID
  2
{DDEF4D37-9D82-43D1-B110-3567CBD2DAAF}
  9
$EXTNAMES
290
     1
  9
$PSVPSCALE
 40
0.0
  9
$OLESTARTUP
290
     0
  0
ENDSEC
  0
SECTION
  2
CLASSES
  0
CLASS
  1
ACDBDICTIONARYWDFLT
  2
AcDbDictionaryWithDefault
  3
ObjectDBX Classes
 90
        0
280
     0
281
     0
  0
CLASS
  1
MATERIAL
  2
AcDbMaterial
  3
ObjectDBX Classes
 90
     1153
280
     0
281
     0
  0
CLASS
  1
SORTENTSTABLE
  2
AcDbSortentsTable
  3
ObjectDBX Classes
 90
        0
280
     0
281
     0
  0
CLASS
  1
VISUALSTYLE
  2
AcDbVisualStyle
  3
ObjectDBX Classes
 90
     4095
280
     0
281
     0
  0
CLASS
  1
SCALE
  2
AcDbScale
  3
ObjectDBX Classes
 90
     1153
280
     0
281
     0
  0
CLASS
  1
DICTIONARYVAR
  2
AcDbDictionaryVar
  3
ObjectDBX Classes
 90
        0
280
     0
281
     0
  0
CLASS
  1
MLEADERSTYLE
  2
AcDbMLeaderStyle
  3
ACDB_MLEADERSTYLE_CLASS
 90
     4095
280
     0
281
     0
  0
CLASS
  1
ACDBPLACEHOLDER
  2
AcDbPlaceHolder
  3
ObjectDBX Classes
 90
        0
280
     0
281
     0
  0
CLASS
  1
LAYOUT
  2
AcDbLayout
  3
ObjectDBX Classes
 90
        0
280
     0
281
     0
  0
ENDSEC
  0
SECTION
  2
TABLES
  0
TABLE
  2
VPORT
  5
2B
102
{ACAD_XDICTIONARY
360
532
102
}
330
0
100
AcDbSymbolTable
 70
     1
  0
VPORT
  5
30
330
2B
100
AcDbSymbolTableRecord
100
AcDbViewportTableRecord
  2
*ACTIVE
 70
     0
 10
0.0
 20
0.0
 11
1.0
 21
1.0
 12
695.5317351194467
 22
392.0251732947839
 13
0.0
 23
0.0
 14
1.0
 24
1.0
 15
50.0
 25
50.0
 16
0.0
 26
0.0
 36
1.0
 17
0.0
 27
0.0
 37
0.0
 40
819.1693947629232
 41
1.82716049382716
 42
50.0
 43
0.0
 44
0.0
 50
0.0
 51
0.0
 71
     0
 72
  5000
 73
     1
 74
     0
 75
     0
 76
     0
 77
     0
 78
     0
281
     0
 65
     1
110
0.0
120
0.0
130
0.0
111
1.0
121
0.0
131
0.0
112
0.0
122
1.0
132
0.0
 79
     0
146
0.0
1001
ACAD_NAV_VCDISPLAY
1070
     3
  0
ENDTAB
  0
TABLE
  2
LTYPE
  5
F
330
0
100
AcDbSymbolTable
 70
     2
  0
LTYPE
  5
10
330
F
100
AcDbSymbolTableRecord
100
AcDbLinetypeTableRecord
  2
BYBLOCK
 70
     0
  3

 72
    65
 73
     0
 40
0.0
  0
LTYPE
  5
11
330
F
100
AcDbSymbolTableRecord
100
AcDbLinetypeTableRecord
  2
BYLAYER
 70
     0
  3

 72
    65
 73
     0
 40
0.0
  0
LTYPE
  5
E
330
F
100
AcDbSymbolTableRecord
100
AcDbLinetypeTableRecord
  2
CONTINUOUS
 70
     0
  3
Solid line
 72
    65
 73
     0
 40
0.0
  0
LTYPE
  5
5C
330
F
100
AcDbSymbolTableRecord
100
AcDbLinetypeTableRecord
  2
CENTER
 70
     0
  3
____ _ ____ _ ____ _ ____ _ ____ _ ____ _ ____
 72
    65
 73
     4
 40
2.0
 49
1.25
 74
     0
 49
-0.25
 74
     0
 49
0.25
 74
     0
 49
-0.25
 74
     0
  0
ENDTAB
  0
TABLE
  2
LAYER
  5
2
102
{ACAD_XDICTIONARY
360
3
102
}
330
0
100
AcDbSymbolTable
 70
     9
  0
LAYER
  5
1F
102
{ACAD_XDICTIONARY
360
20
102
}
330
2
100
AcDbSymbolTableRecord
100
AcDbLayerTableRecord
  2
0
 70
     0
 62
     7
  6
CONTINUOUS
370
    -3
390
7
  0
LAYER
  5
75
102
{ACAD_XDICTIONARY
360
76
102
}
330
2
100
AcDbSymbolTableRecord
100
AcDbLayerTableRecord
  2
1
 70
     0
 62
     9
  6
CONTINUOUS
370
    -3
390
7
  0
LAYER
  5
1
102
{ACAD_XDICTIONARY
360
5
102
}
330
2
100
AcDbSymbolTableRecord
100
AcDbLayerTableRecord
  2
2
 70
     0
 62
     4
  6
CONTINUOUS
370
    -3
390
7
  0
LAYER
  5
68
102
{ACAD_XDICTIONARY
360
69
102
}
330
2
100
AcDbSymbolTableRecord
100
AcDbLayerTableRecord
  2
4
 70
     0
 62
     3
  6
CONTINUOUS
370
    -3
390
7
  0
LAYER
  5
59
102
{ACAD_XDICTIONARY
360
5A
102
}
330
2
100
AcDbSymbolTableRecord
100
AcDbLayerTableRecord
  2
L-CENTER
 70
     0
 62
     1
  6
CENTER
370
    -3
390
7
  0
LAYER
  5
63
102
{ACAD_XDICTIONARY
360
64
102
}
330
2
100
AcDbSymbolTableRecord
100
AcDbLayerTableRecord
  2
3
 70
     0
 62
     2
  6
CONTINUOUS
370
    -3
390
7
  0
LAYER
  5
6F
330
2
100
AcDbSymbolTableRecord
100
AcDbLayerTableRecord
  2
5
 70
     0
 62
     6
  6
CONTINUOUS
370
    -3
390
7
  0
LAYER
  5
4B2
330
2
100
AcDbSymbolTableRecord
100
AcDbLayerTableRecord
  2
Defpoints
 70
     0
 62
     7
  6
CONTINUOUS
290
     0
370
    -3
390
7
  0
ENDTAB
  0
TABLE
  2
STYLE
  5
13
330
0
100
AcDbSymbolTable
 70
     2
  0
STYLE
  5
17
330
13
100
AcDbSymbolTableRecord
100
AcDbTextStyleTableRecord
  2
STANDARD
 70
     0
 40
0.0
 41
1.0
 50
0.0
 71
     0
 42
4.5
  3
TXT
  4

  0
STYLE
  5
12
330
13
100
AcDbSymbolTableRecord
100
AcDbTextStyleTableRecord
  2
KANJI
 70
     0
 40
0.0
 41
1.0
 50
0.0
 71
     0
 42
7.5
  3
TXT
  4
BIGFONT
  0
ENDTAB
  0
TABLE
  2
VIEW
  5
29
330
0
100
AcDbSymbolTable
 70
     0
  0
ENDTAB
  0
TABLE
  2
UCS
  5
2A
330
0
100
AcDbSymbolTable
 70
     0
  0
ENDTAB
  0
TABLE
  2
APPID
  5
D
330
0
100
AcDbSymbolTable
 70
     5
  0
APPID
  5
C
330
D
100
AcDbSymbolTableRecord
100
AcDbRegAppTableRecord
  2
ACAD
 70
     0
  0
APPID
  5
32
330
D
100
AcDbSymbolTableRecord
100
AcDbRegAppTableRecord
  2
ACAD_NAV_VCDISPLAY
 70
     0
  0
APPID
  5
48C
330
D
100
AcDbSymbolTableRecord
100
AcDbRegAppTableRecord
  2
ACAD_PSEXT
 70
     0
  0
APPID
  5
48E
330
D
100
AcDbSymbolTableRecord
100
AcDbRegAppTableRecord
  2
ACAD_MLEADERVER
 70
     0
  0
ENDTAB
  0
TABLE
  2
DIMSTYLE
  5
16
330
0
100
AcDbSymbolTable
 70
     1
100
AcDbDimStyleTable
  0
DIMSTYLE
105
15
330
16
100
AcDbSymbolTableRecord
100
AcDbDimStyleTableRecord
  2
STANDARD
 70
     0
178
     0
340
17
  0
ENDTAB
  0
TABLE
  2
BLOCK_RECORD
  5
1A
330
0
100
AcDbSymbolTable
 70
     0
  0
BLOCK_RECORD
  5
1B
102
{ACAD_XDICTIONARY
360
1C
102
}
330
1A
100
AcDbSymbolTableRecord
100
AcDbBlockTableRecord
  2
*MODEL_SPACE
340
23
  0
BLOCK_RECORD
  5
25
330
1A
100
AcDbSymbolTableRecord
100
AcDbBlockTableRecord
  2
*PAPER_SPACE
340
28
  0
ENDTAB
  0
ENDSEC
  0
SECTION
  2
BLOCKS
  0
BLOCK
  5
1E
330
1B
100
AcDbEntity
  8
0
100
AcDbBlockBegin
  2
*MODEL_SPACE
 70
     0
 10
0.0
 20
0.0
 30
0.0
  3
*MODEL_SPACE
  1

  0
ENDBLK
  5
22
330
1B
100
AcDbEntity
  8
0
100
AcDbBlockEnd
  0
BLOCK
  5
26
330
25
100
AcDbEntity
 67
     1
  8
0
100
AcDbBlockBegin
  2
*PAPER_SPACE
 70
     0
 10
0.0
 20
0.0
 30
0.0
  3
*PAPER_SPACE
  1

  0
ENDBLK
  5
27
330
25
100
AcDbEntity
 67
     1
  8
0
100
AcDbBlockEnd
  0
ENDSEC
  0
SECTION
  2
ENTITIES
  0
LINE
  5
1D1
330
1B
100
AcDbEntity
  8
L-CENTER
100
AcDbLine
 10
182.572385287233
 20
658.2177546956638
 30
0.0
 11
182.572385287233
 21
617.9818969526647
 31
0.0
  0
LINE
  5
1D2
330
1B
100
AcDbEntity
  8
4
100
AcDbLine
 10
175.322385287233
 20
648.5948499424113
 30
0.0
 11
175.322385287233
 21
646.5948499424115
 31
0.0
  0
LINE
  5
1D3
330
1B
100
AcDbEntity
  8
4
100
AcDbLine
 10
176.072385287233
 20
656.5948499424113
 30
0.0
 11
176.0723852872333
 21
648.5948499424113
 31
0.0
  0
LINE
  5
1D4
330
1B
100
AcDbEntity
  8
4
100
AcDbLine
 10
189.822385287233
 20
648.5948499424113
 30
0.0
 11
189.822385287233
 21
646.5948499424115
 31
0.0
  0
LINE
  5
1D5
330
1B
100
AcDbEntity
  8
4
100
AcDbLine
 10
189.072385287233
 20
656.5948499424113
 30
0.0
 11
189.072385287233
 21
648.5948499424113
 31
0.0
  0
LINE
  5
1D6
330
1B
100
AcDbEntity
  8
4
100
AcDbLine
 10
176.072385287233
 20
656.5948499424113
 30
0.0
 11
189.072385287233
 21
656.5948499424113
 31
0.0
  0
LINE
  5
1D7
330
1B
100
AcDbEntity
  8
4
100
AcDbLine
 10
175.322385287233
 20
648.5948499424113
 30
0.0
 11
189.822385287233
 21
648.5948499424113
 31
0.0
  0
LINE
  5
1D8
330
1B
100
AcDbEntity
  8
L-CENTER
100
AcDbLine
 10
242.572385287233
 20
658.2177546956638
 30
0.0
 11
242.572385287233
 21
617.9818969526647
 31
0.0
  0
LINE
  5
1D9
330
1B
100
AcDbEntity
  8
4
100
AcDbLine
 10
236.072385287233
 20
656.5948499424113
 30
0.0
 11
236.0723852872333
 21
648.5948499424113
 31
0.0
  0
LINE
  5
1DA
330
1B
100
AcDbEntity
  8
4
100
AcDbLine
 10
235.322385287233
 20
648.5948499424113
 30
0.0
 11
235.322385287233
 21
646.5948499424115
 31
0.0
  0
LINE
  5
1DB
330
1B
100
AcDbEntity
  8
4
100
AcDbLine
 10
249.072385287233
 20
656.5948499424113
 30
0.0
 11
249.072385287233
 21
648.5948499424113
 31
0.0
  0
LINE
  5
1DC
330
1B
100
AcDbEntity
  8
4
100
AcDbLine
 10
249.822385287233
 20
648.5948499424113
 30
0.0
 11
249.822385287233
 21
646.5948499424115
 31
0.0
  0
LINE
  5
1DD
330
1B
100
AcDbEntity
  8
4
100
AcDbLine
 10
235.322385287233
 20
648.5948499424113
 30
0.0
 11
249.822385287233
 21
648.5948499424113
 31
0.0
  0
LINE
  5
1DE
330
1B
100
AcDbEntity
  8
4
100
AcDbLine
 10
236.072385287233
 20
656.5948499424113
 30
0.0
 11
249.072385287233
 21
656.5948499424113
 31
0.0
  0
LINE
  5
1DF
330
1B
100
AcDbEntity
  8
4
100
AcDbLine
 10
429.072385287233
 20
656.5948499424113
 30
0.0
 11
429.0723852872328
 21
648.5948499424113
 31
0.0
  0
LINE
  5
1E0
330
1B
100
AcDbEntity
  8
4
100
AcDbLine
 10
429.822385287233
 20
648.5948499424113
 30
0.0
 11
429.822385287233
 21
646.5948499424115
 31
0.0
  0
LINE
  5
1E1
330
1B
100
AcDbEntity
  8
4
100
AcDbLine
 10
416.072385287233
 20
656.5948499424113
 30
0.0
 11
416.072385287233
 21
648.5948499424113
 31
0.0
  0
LINE
  5
1E2
330
1B
100
AcDbEntity
  8
4
100
AcDbLine
 10
415.322385287233
 20
648.5948499424113
 30
0.0
 11
415.322385287233
 21
646.5948499424115
 31
0.0
  0
LINE
  5
1E3
330
1B
100
AcDbEntity
  8
4
100
AcDbLine
 10
429.822385287233
 20
648.5948499424113
 30
0.0
 11
415.322385287233
 21
648.5948499424113
 31
0.0
  0
LINE
  5
1E4
330
1B
100
AcDbEntity
  8
4
100
AcDbLine
 10
429.072385287233
 20
656.5948499424113
 30
0.0
 11
416.072385287233
 21
656.5948499424113
 31
0.0
  0
LINE
  5
1E5
330
1B
100
AcDbEntity
  8
4
100
AcDbLine
 10
369.822385287233
 20
648.5948499424113
 30
0.0
 11
369.822385287233
 21
646.5948499424115
 31
0.0
  0
LINE
  5
1E6
330
1B
100
AcDbEntity
  8
4
100
AcDbLine
 10
369.072385287233
 20
656.5948499424113
 30
0.0
 11
369.0723852872328
 21
648.5948499424113
 31
0.0
  0
LINE
  5
1E7
330
1B
100
AcDbEntity
  8
4
100
AcDbLine
 10
356.072385287233
 20
656.5948499424113
 30
0.0
 11
356.072385287233
 21
648.5948499424113
 31
0.0
  0
LINE
  5
1E8
330
1B
100
AcDbEntity
  8
4
100
AcDbLine
 10
355.322385287233
 20
648.5948499424113
 30
0.0
 11
355.322385287233
 21
646.5948499424115
 31
0.0
  0
LINE
  5
1E9
330
1B
100
AcDbEntity
  8
4
100
AcDbLine
 10
369.822385287233
 20
648.5948499424113
 30
0.0
 11
355.322385287233
 21
648.5948499424113
 31
0.0
  0
LINE
  5
1EA
330
1B
100
AcDbEntity
  8
4
100
AcDbLine
 10
369.072385287233
 20
656.5948499424113
 30
0.0
 11
356.072385287233
 21
656.5948499424113
 31
0.0
  0
LINE
  5
1EB
330
1B
100
AcDbEntity
  8
4
100
AcDbLine
 10
817.1562287312023
 20
195.9253936227457
 30
0.0
 11
809.1562287312023
 21
195.9253936227457
 31
0.0
  0
LINE
  5
1EC
330
1B
100
AcDbEntity
  8
4
100
AcDbLine
 10
809.1562287312023
 20
196.6753936227457
 30
0.0
 11
807.1562287312028
 21
196.6753936227457
 31
0.0
  0
LINE
  5
1ED
330
1B
100
AcDbEntity
  8
4
100
AcDbLine
 10
817.1562287312023
 20
182.9253936227457
 30
0.0
 11
809.1562287312023
 21
182.9253936227457
 31
0.0
  0
LINE
  5
1EE
330
1B
100
AcDbEntity
  8
4
100
AcDbLine
 10
809.1562287312023
 20
182.1753936227457
 30
0.0
 11
807.1562287312028
 21
182.1753936227456
 31
0.0
  0
LINE
  5
1EF
330
1B
100
AcDbEntity
  8
2
100
AcDbLine
 10
807.1562287312023
 20
186.5969664979995
 30
0.0
 11
809.1562287312023
 21
188.5969664979995
 31
0.0
  0
LINE
  5
1F0
330
1B
100
AcDbEntity
  8
4
100
AcDbLine
 10
809.1562287312023
 20
182.1753936227457
 30
0.0
 11
809.1562287312023
 21
196.6753936227457
 31
0.0
  0
LINE
  5
1F1
330
1B
100
AcDbEntity
  8
4
100
AcDbLine
 10
817.1562287312023
 20
182.9253936227457
 30
0.0
 11
817.1562287312023
 21
195.9253936227457
 31
0.0
  0
LINE
  5
1F2
330
1B
100
AcDbEntity
  8
2
100
AcDbLine
 10
807.1562287312023
 20
189.4253936227457
 30
0.0
 11
809.1562287312023
 21
191.4253936227457
 31
0.0
  0
LINE
  5
1F3
330
1B
100
AcDbEntity
  8
4
100
AcDbLine
 10
815.1562287312023
 20
79.00229862274568
 30
0.0
 11
807.1562287312023
 21
79.00229862274568
 31
0.0
  0
LINE
  5
1F4
330
1B
100
AcDbEntity
  8
4
100
AcDbLine
 10
807.1562287312023
 20
78.25229862274568
 30
0.0
 11
805.1562287312028
 21
78.25229862274568
 31
0.0
  0
LINE
  5
1F5
330
1B
100
AcDbEntity
  8
4
100
AcDbLine
 10
815.1562287312023
 20
92.00229862274568
 30
0.0
 11
807.1562287312023
 21
92.00229862274563
 31
0.0
  0
LINE
  5
1F6
330
1B
100
AcDbEntity
  8
4
100
AcDbLine
 10
807.1562287312023
 20
92.75229862274568
 30
0.0
 11
805.1562287312028
 21
92.75229862274574
 31
0.0
  0
LINE
  5
1F7
330
1B
100
AcDbEntity
  8
2
100
AcDbLine
 10
805.1562287312023
 20
88.3307257474919
 30
0.0
 11
807.1562287312023
 21
86.3307257474919
 31
0.0
  0
LINE
  5
1F8
330
1B
100
AcDbEntity
  8
4
100
AcDbLine
 10
807.1562287312023
 20
92.75229862274568
 30
0.0
 11
807.1562287312023
 21
78.25229862274568
 31
0.0
  0
LINE
  5
1F9
330
1B
100
AcDbEntity
  8
4
100
AcDbLine
 10
815.1562287312023
 20
92.00229862274568
 30
0.0
 11
815.1562287312023
 21
79.00229862274568
 31
0.0
  0
LINE
  5
1FA
330
1B
100
AcDbEntity
  8
2
100
AcDbLine
 10
805.1562287312023
 20
85.50229862274568
 30
0.0
 11
807.1562287312023
 21
83.50229862274568
 31
0.0
  0
LINE
  5
1FB
330
1B
100
AcDbEntity
  8
L-CENTER
100
AcDbLine
 10
817.8386612312025
 20
85.50229862274568
 30
0.0
 11
777.1126756313485
 21
85.50229862274568
 31
0.0
  0
LINE
  5
1FC
330
1B
100
AcDbEntity
  8
2
100
AcDbLine
 10
805.1562287312023
 20
290.5200614979994
 30
0.0
 11
807.1562287312023
 21
292.5200614979994
 31
0.0
  0
LINE
  5
1FD
330
1B
100
AcDbEntity
  8
2
100
AcDbLine
 10
805.1562287312023
 20
293.3484886227457
 30
0.0
 11
807.1562287312023
 21
295.3484886227457
 31
0.0
  0
LINE
  5
1FE
330
1B
100
AcDbEntity
  8
4
100
AcDbLine
 10
815.1562287312023
 20
286.8484886227457
 30
0.0
 11
815.1562287312023
 21
299.8484886227457
 31
0.0
  0
LINE
  5
1FF
330
1B
100
AcDbEntity
  8
4
100
AcDbLine
 10
815.1562287312023
 20
286.8484886227457
 30
0.0
 11
807.1562287312023
 21
286.8484886227457
 31
0.0
  0
LINE
  5
200
330
1B
100
AcDbEntity
  8
4
100
AcDbLine
 10
815.1562287312023
 20
299.8484886227457
 30
0.0
 11
807.1562287312023
 21
299.8484886227457
 31
0.0
  0
LINE
  5
201
330
1B
100
AcDbEntity
  8
4
100
AcDbLine
 10
807.1562287312023
 20
286.0984886227457
 30
0.0
 11
805.1562287312028
 21
286.0984886227457
 31
0.0
  0
LINE
  5
202
330
1B
100
AcDbEntity
  8
4
100
AcDbLine
 10
807.1562287312023
 20
300.5984886227457
 30
0.0
 11
805.1562287312028
 21
300.5984886227457
 31
0.0
  0
LINE
  5
203
330
1B
100
AcDbEntity
  8
4
100
AcDbLine
 10
807.1562287312023
 20
286.0984886227457
 30
0.0
 11
807.1562287312023
 21
300.5984886227457
 31
0.0
  0
LINE
  5
206
330
1B
100
AcDbEntity
  8
4
100
AcDbLine
 10
294.1001671487771
 20
517.5948499424115
 30
0.0
 11
315.5627663439997
 21
517.5948499424115
 31
0.0
  0
LINE
  5
207
330
1B
100
AcDbEntity
  8
4
100
AcDbLine
 10
315.5627663439997
 20
517.5948499424115
 30
0.0
 11
315.5627663439997
 21
522.5948499424115
 31
0.0
  0
LINE
  5
21A
330
1B
100
AcDbEntity
  8
4
100
AcDbLine
 10
472.572385287233
 20
561.0948499424114
 30
0.0
 11
463.572385287233
 21
561.0948499424115
 31
0.0
  0
LINE
  5
21B
330
1B
100
AcDbEntity
  8
4
100
AcDbLine
 10
472.572385287233
 20
586.0948499424114
 30
0.0
 11
463.572385287233
 21
586.0948499424115
 31
0.0
  0
LINE
  5
21C
330
1B
100
AcDbEntity
  8
4
100
AcDbLine
 10
521.572385287233
 20
585.0948499424114
 30
0.0
 11
521.572385287233
 21
577.0948499424114
 31
0.0
  0
LINE
  5
21D
330
1B
100
AcDbEntity
  8
4
100
AcDbLine
 10
521.572385287233
 20
585.0948499424114
 30
0.0
 11
522.572385287233
 21
584.0948499424114
 31
0.0
  0
LINE
  5
21E
330
1B
100
AcDbEntity
  8
4
100
AcDbLine
 10
521.572385287233
 20
570.0948499424114
 30
0.0
 11
521.572385287233
 21
562.0948499424114
 31
0.0
  0
LINE
  5
21F
330
1B
100
AcDbEntity
  8
4
100
AcDbLine
 10
521.572385287233
 20
562.0948499424114
 30
0.0
 11
522.572385287233
 21
563.0948499424114
 31
0.0
  0
LINE
  5
220
330
1B
100
AcDbEntity
  8
4
100
AcDbLine
 10
522.572385287233
 20
584.0948499424114
 30
0.0
 11
522.572385287233
 21
563.0948499424114
 31
0.0
  0
ARC
  5
221
330
1B
100
AcDbEntity
  8
4
100
AcDbCircle
 10
473.572385287233
 20
586.0948499424114
 30
0.0
 40
1.0
100
AcDbArc
 50
180.0
 51
270.0
  0
ARC
  5
222
330
1B
100
AcDbEntity
  8
4
100
AcDbCircle
 10
473.572385287233
 20
561.0948499424114
 30
0.0
 40
1.0
100
AcDbArc
 50
90.0
 51
180.0
  0
LINE
  5
223
330
1B
100
AcDbEntity
  8
4
100
AcDbLine
 10
472.572385287233
 20
586.0948499424114
 30
0.0
 11
472.572385287233
 21
561.0948499424114
 31
0.0
  0
ARC
  5
224
330
1B
100
AcDbEntity
  8
4
100
AcDbCircle
 10
481.072385287233
 20
573.5948499424114
 30
0.0
 40
3.5
100
AcDbArc
 50
90.0
 51
270.0
  0
LINE
  5
225
330
1B
100
AcDbEntity
  8
4
100
AcDbLine
 10
521.572385287233
 20
562.0948499424114
 30
0.0
 11
473.572385287233
 21
562.0948499424114
 31
0.0
  0
LINE
  5
226
330
1B
100
AcDbEntity
  8
4
100
AcDbLine
 10
521.572385287233
 20
585.0948499424114
 30
0.0
 11
473.572385287233
 21
585.0948499424114
 31
0.0
  0
LINE
  5
227
330
1B
100
AcDbEntity
  8
4
100
AcDbLine
 10
522.572385287233
 20
577.0948499424114
 30
0.0
 11
481.072385287233
 21
577.0948499424114
 31
0.0
  0
LINE
  5
228
330
1B
100
AcDbEntity
  8
4
100
AcDbLine
 10
522.572385287233
 20
570.0948499424114
 30
0.0
 11
481.072385287233
 21
570.0948499424114
 31
0.0
  0
ARC
  5
229
330
1B
100
AcDbEntity
  8
4
100
AcDbCircle
 10
302.5723852872335
 20
-547.8528476577806
 30
0.0
 40
1201.5
100
AcDbArc
 50
87.44790840434078
 51
92.55209159565926
  0
ARC
  5
22A
330
1B
100
AcDbEntity
  8
4
100
AcDbCircle
 10
302.5723852872335
 20
-547.8528476577806
 30
0.0
 40
1201.5
100
AcDbArc
 50
93.17279844686406
 51
95.25291183089617
  0
LINE
  5
22B
330
1B
100
AcDbEntity
  8
L-CENTER
100
AcDbLine
 10
362.572385287233
 20
658.2177546956638
 30
0.0
 11
362.572385287233
 21
617.9818969526647
 31
0.0
  0
LINE
  5
22C
330
1B
100
AcDbEntity
  8
L-CENTER
100
AcDbLine
 10
422.572385287233
 20
658.2177546956638
 30
0.0
 11
422.572385287233
 21
617.9818969526647
 31
0.0
  0
LINE
  5
22D
330
1B
100
AcDbEntity
  8
4
100
AcDbLine
 10
463.572385287233
 20
599.5948499424115
 30
0.0
 11
462.572385287233
 21
599.5948499424115
 31
0.0
  0
LINE
  5
22E
330
1B
100
AcDbEntity
  8
4
100
AcDbLine
 10
462.572385287233
 20
547.5948499424115
 30
0.0
 11
463.572385287233
 21
547.5948499424115
 31
0.0
  0
LINE
  5
22F
330
1B
100
AcDbEntity
  8
4
100
AcDbLine
 10
463.572385287233
 20
599.5948499424115
 30
0.0
 11
463.572385287233
 21
547.5948499424115
 31
0.0
  0
LINE
  5
230
330
1B
100
AcDbEntity
  8
4
100
AcDbLine
 10
141.572582787233
 20
599.5948499424115
 30
0.0
 11
142.572582787233
 21
599.5948499424115
 31
0.0
  0
LINE
  5
231
330
1B
100
AcDbEntity
  8
4
100
AcDbLine
 10
141.572582787233
 20
547.5948499424115
 30
0.0
 11
142.572582787233
 21
547.5948499424115
 31
0.0
  0
LINE
  5
232
330
1B
100
AcDbEntity
  8
4
100
AcDbLine
 10
141.572582787233
 20
599.5948499424115
 30
0.0
 11
141.572582787233
 21
547.5948499424115
 31
0.0
  0
ARC
  5
233
330
1B
100
AcDbEntity
  8
4
100
AcDbCircle
 10
429.5723852872333
 20
645.5948499424114
 30
0.0
 40
1.0
100
AcDbArc
 50
0.0
 51
90.0
  0
LINE
  5
234
330
1B
100
AcDbEntity
  8
4
100
AcDbLine
 10
430.5723852872333
 20
645.5948499424114
 30
0.0
 11
430.572385287233
 21
635.8948499424116
 31
0.0
  0
LINE
  5
235
330
1B
100
AcDbEntity
  8
4
100
AcDbLine
 10
412.572385287233
 20
648.6011840542615
 30
0.0
 11
412.572385287233
 21
646.5948499424114
 31
0.0
  0
LINE
  5
236
330
1B
100
AcDbEntity
  8
4
100
AcDbLine
 10
407.572385287233
 20
659.5948499424114
 30
0.0
 11
407.572385287233
 21
650.8811720480089
 31
0.0
  0
LINE
  5
237
330
1B
100
AcDbEntity
  8
4
100
AcDbLine
 10
399.572385287233
 20
659.5948499424117
 30
0.0
 11
399.5723852872333
 21
660.5948499424117
 31
0.0
  0
ARC
  5
238
330
1B
100
AcDbEntity
  8
4
100
AcDbCircle
 10
409.572385287233
 20
650.8811720480089
 30
0.0
 40
2.0
100
AcDbArc
 50
180.0
 51
264.8992489331526
  0
LINE
  5
239
330
1B
100
AcDbEntity
  8
L-CENTER
100
AcDbLine
 10
368.572385287233
 20
665.4948499424115
 30
0.0
 11
368.572385287233
 21
516.2297811123266
 31
0.0
  0
LINE
  5
23A
330
1B
100
AcDbEntity
  8
4
100
AcDbLine
 10
337.5723852872333
 20
659.5948499424114
 30
0.0
 11
337.572385287233
 21
660.5948499424112
 31
0.0
  0
ARC
  5
23B
330
1B
100
AcDbEntity
  8
4
100
AcDbCircle
 10
326.572385287233
 20
656.4080252431038
 30
0.0
 40
3.0
100
AcDbArc
 50
268.8582899841188
 51
0.0
  0
LINE
  5
23C
330
1B
100
AcDbEntity
  8
4
100
AcDbLine
 10
329.5723852872333
 20
659.5948499424117
 30
0.0
 11
329.572385287233
 21
656.4080252431038
 31
0.0
  0
LINE
  5
23D
330
1B
100
AcDbEntity
  8
4
100
AcDbLine
 10
323.1001671487774
 20
659.5948499424114
 30
0.0
 11
323.1001671487774
 21
656.4173435703656
 31
0.0
  0
ARC
  5
23E
330
1B
100
AcDbEntity
  8
4
100
AcDbCircle
 10
302.5723852872335
 20
-547.8528476577806
 30
0.0
 40
1201.5
100
AcDbArc
 50
88.85828998412633
 51
88.88075687807617
  0
ARC
  5
23F
330
1B
100
AcDbEntity
  8
4
100
AcDbCircle
 10
326.1001671487771
 20
656.4173435703656
 30
0.0
 40
3.0
100
AcDbArc
 50
180.0
 51
268.8807568780739
  0
LINE
  5
240
330
1B
100
AcDbEntity
  8
4
100
AcDbLine
 10
329.5723852872333
 20
659.5948499424114
 30
0.0
 11
407.572385287233
 21
659.5948499424114
 31
0.0
  0
LINE
  5
241
330
1B
100
AcDbEntity
  8
4
100
AcDbLine
 10
337.572385287233
 20
660.5948499424112
 30
0.0
 11
399.5723852872333
 21
660.5948499424117
 31
0.0
  0
LINE
  5
242
330
1B
100
AcDbEntity
  8
4
100
AcDbLine
 10
314.1001671487771
 20
659.5948499424112
 30
0.0
 11
314.1001671487771
 21
660.5948499424114
 31
0.0
  0
LINE
  5
243
330
1B
100
AcDbEntity
  8
4
100
AcDbLine
 10
234.1001671487771
 20
659.5948499424112
 30
0.0
 11
234.1001671487771
 21
660.5948499424114
 31
0.0
  0
LINE
  5
244
330
1B
100
AcDbEntity
  8
L-CENTER
100
AcDbLine
 10
274.1001671487771
 20
665.4948499424115
 30
0.0
 11
274.1001671487771
 21
434.5476719425524
 31
0.0
  0
LINE
  5
245
330
1B
100
AcDbEntity
  8
4
100
AcDbLine
 10
234.1001671487771
 20
660.5948499424114
 30
0.0
 11
314.1001671487771
 21
660.5948499424114
 31
0.0
  0
LINE
  5
246
330
1B
100
AcDbEntity
  8
4
100
AcDbLine
 10
225.1001671487771
 20
659.5948499424114
 30
0.0
 11
225.1001671487771
 21
653.0203415442074
 31
0.0
  0
ARC
  5
247
330
1B
100
AcDbEntity
  8
4
100
AcDbCircle
 10
223.1001671487771
 20
653.0203415442074
 30
0.0
 40
2.0
100
AcDbArc
 50
273.7862388158275
 51
0.0
  0
LINE
  5
248
330
1B
100
AcDbEntity
  8
4
100
AcDbLine
 10
192.572385287233
 20
648.6011840542615
 30
0.0
 11
192.572385287233
 21
646.5948499424114
 31
0.0
  0
ARC
  5
249
330
1B
100
AcDbEntity
  8
4
100
AcDbCircle
 10
175.572385287233
 20
645.5948499424114
 30
0.0
 40
1.0
100
AcDbArc
 50
90.0
 51
180.0
  0
LINE
  5
24A
330
1B
100
AcDbEntity
  8
4
100
AcDbLine
 10
174.572385287233
 20
645.5948499424114
 30
0.0
 11
174.572385287233
 21
635.8948499424116
 31
0.0
  0
LINE
  5
24B
330
1B
100
AcDbEntity
  8
4
100
AcDbLine
 10
225.1001671487771
 20
659.5948499424114
 30
0.0
 11
323.1001671487774
 21
659.5948499424114
 31
0.0
  0
LINE
  5
24C
330
1B
100
AcDbEntity
  8
4
100
AcDbLine
 10
429.5723852872333
 20
646.5948499424114
 30
0.0
 11
175.572385287233
 21
646.5948499424114
 31
0.0
  0
LINE
  5
24D
330
1B
100
AcDbEntity
  8
4
100
AcDbLine
 10
430.572385287233
 20
635.8948499424116
 30
0.0
 11
174.572385287233
 21
635.8948499424116
 31
0.0
  0
ARC
  5
24E
330
1B
100
AcDbEntity
  8
4
100
AcDbCircle
 10
302.5723852872335
 20
-547.8528476577806
 30
0.0
 40
1201.5
100
AcDbArc
 50
84.74708816910388
 51
86.82720155313596
  0
LWPOLYLINE
  5
24F
330
1B
100
AcDbEntity
  8
4
100
AcDbPolyline
 90
        6
 70
     1
 43
0.0
 10
315.072385287233
 20
591.0948499424115
 10
308.822385287233
 20
601.9201674897171
 10
296.322385287233
 20
601.9201674897171
 10
290.072385287233
 20
591.0948499424115
 10
296.322385287233
 20
580.269532395106
 10
308.822385287233
 20
580.269532395106
  0
CIRCLE
  5
250
330
1B
100
AcDbEntity
  8
4
100
AcDbCircle
 10
302.572385287233
 20
591.0948499424115
 30
0.0
 40
12.5
  0
LINE
  5
251
330
1B
100
AcDbEntity
  8
4
100
AcDbLine
 10
282.5723852872333
 20
570.0948499424115
 30
0.0
 11
282.572385287233
 21
607.0948499424115
 31
0.0
  0
LINE
  5
252
330
1B
100
AcDbEntity
  8
4
100
AcDbLine
 10
286.5723852872333
 20
566.0948499424115
 30
0.0
 11
282.5723852872333
 21
570.0948499424115
 31
0.0
  0
LINE
  5
253
330
1B
100
AcDbEntity
  8
4
100
AcDbLine
 10
286.5723852872333
 20
566.0948499424115
 30
0.0
 11
318.572385287233
 21
566.0948499424115
 31
0.0
  0
LINE
  5
254
330
1B
100
AcDbEntity
  8
4
100
AcDbLine
 10
322.572385287233
 20
570.0948499424115
 30
0.0
 11
318.572385287233
 21
566.0948499424115
 31
0.0
  0
LINE
  5
255
330
1B
100
AcDbEntity
  8
4
100
AcDbLine
 10
322.572385287233
 20
570.0948499424115
 30
0.0
 11
322.5723852872333
 21
607.0948499424115
 31
0.0
  0
LINE
  5
256
330
1B
100
AcDbEntity
  8
4
100
AcDbLine
 10
318.5723852872333
 20
611.0948499424115
 30
0.0
 11
322.5723852872333
 21
607.0948499424115
 31
0.0
  0
LINE
  5
257
330
1B
100
AcDbEntity
  8
4
100
AcDbLine
 10
286.572385287233
 20
611.0948499424115
 30
0.0
 11
282.572385287233
 21
607.0948499424115
 31
0.0
  0
LINE
  5
258
330
1B
100
AcDbEntity
  8
4
100
AcDbLine
 10
286.572385287233
 20
611.0948499424115
 30
0.0
 11
318.5723852872333
 21
611.0948499424115
 31
0.0
  0
LINE
  5
259
330
1B
100
AcDbEntity
  8
4
100
AcDbLine
 10
234.1001671487774
 20
521.5948499424115
 30
0.0
 11
314.1001671487774
 21
521.5948499424115
 31
0.0
  0
LINE
  5
25A
330
1B
100
AcDbEntity
  8
4
100
AcDbLine
 10
337.5723852872333
 20
521.5948499424117
 30
0.0
 11
399.5723852872333
 21
521.5948499424117
 31
0.0
  0
ARC
  5
25B
330
1B
100
AcDbEntity
  8
4
100
AcDbCircle
 10
449.572385287233
 20
673.0948499424115
 30
0.0
 40
3.0
100
AcDbArc
 50
0.0
 51
90.0
  0
ARC
  5
25C
330
1B
100
AcDbEntity
  8
4
100
AcDbCircle
 10
404.4762019157134
 20
673.0948499424115
 30
0.0
 40
3.0
100
AcDbArc
 50
90.0
 51
154.7988763545256
  0
ARC
  5
25D
330
1B
100
AcDbEntity
  8
4
100
AcDbCircle
 10
427.5723852872335
 20
661.0948499424115
 30
0.0
 40
7.0
100
AcDbArc
 50
282.3736251161828
 51
220.0052008848616
  0
LINE
  5
25E
330
1B
100
AcDbEntity
  8
L-CENTER
100
AcDbLine
 10
412.5723852872333
 20
661.0948499424115
 30
0.0
 11
442.5723852872333
 21
661.0948499424115
 31
0.0
  0
LINE
  5
25F
330
1B
100
AcDbEntity
  8
4
100
AcDbLine
 10
404.4762019157134
 20
676.0948499424115
 30
0.0
 11
449.572385287233
 21
676.0948499424115
 31
0.0
  0
LINE
  5
260
330
1B
100
AcDbEntity
  8
4
100
AcDbLine
 10
430.572385287233
 20
633.5948499424114
 30
0.0
 11
430.572385287233
 21
635.5948499424115
 31
0.0
  0
ARC
  5
261
330
1B
100
AcDbEntity
  8
4
100
AcDbCircle
 10
450.572385287233
 20
631.5948499424115
 30
0.0
 40
2.0
100
AcDbArc
 50
0.0
 51
90.0
  0
ARC
  5
262
330
1B
100
AcDbEntity
  8
4
100
AcDbCircle
 10
455.572385287233
 20
613.5948499424114
 30
0.0
 40
3.0
100
AcDbArc
 50
180.0
 51
270.0
  0
LINE
  5
263
330
1B
100
AcDbEntity
  8
4
100
AcDbLine
 10
462.5723852872335
 20
610.5948499424114
 30
0.0
 11
455.572385287233
 21
610.5948499424114
 31
0.0
  0
LINE
  5
264
330
1B
100
AcDbEntity
  8
4
100
AcDbLine
 10
430.572385287233
 20
546.5948499424114
 30
0.0
 11
430.572385287233
 21
537.5948499424113
 31
0.0
  0
ARC
  5
265
330
1B
100
AcDbEntity
  8
4
100
AcDbCircle
 10
432.572385287233
 20
546.5948499424114
 30
0.0
 40
2.0
100
AcDbArc
 50
90.0
 51
180.0
  0
LINE
  5
266
330
1B
100
AcDbEntity
  8
4
100
AcDbLine
 10
462.572385287233
 20
536.5948499424114
 30
0.0
 11
430.3044360948155
 21
536.5948499424115
 31
0.0
  0
ARC
  5
267
330
1B
100
AcDbEntity
  8
4
100
AcDbCircle
 10
450.572385287233
 20
550.5948499424115
 30
0.0
 40
2.0
100
AcDbArc
 50
270.0
 51
0.0
  0
LINE
  5
268
330
1B
100
AcDbEntity
  8
4
100
AcDbLine
 10
462.572385287233
 20
536.5948499424114
 30
0.0
 11
462.572385287233
 21
610.5948499424114
 31
0.0
  0
ARC
  5
269
330
1B
100
AcDbEntity
  8
4
100
AcDbCircle
 10
449.572385287233
 20
509.0948499424117
 30
0.0
 40
3.0
100
AcDbArc
 50
270.0
 51
0.0
  0
LINE
  5
26A
330
1B
100
AcDbEntity
  8
4
100
AcDbLine
 10
407.5723852872333
 20
522.5948499424117
 30
0.0
 11
407.5723852872333
 21
529.8085278368094
 31
0.0
  0
LINE
  5
26B
330
1B
100
AcDbEntity
  8
4
100
AcDbLine
 10
412.572385287233
 20
532.0885158305568
 30
0.0
 11
412.572385287233
 21
533.5948499424109
 31
0.0
  0
LINE
  5
26C
330
1B
100
AcDbEntity
  8
4
100
AcDbLine
 10
399.5723852872333
 20
521.5948499424117
 30
0.0
 11
399.5723852872333
 21
522.5948499424117
 31
0.0
  0
LINE
  5
26D
330
1B
100
AcDbEntity
  8
4
100
AcDbLine
 10
395.278267640174
 20
521.5948499424117
 30
0.0
 11
401.7617458091105
 21
507.8174588334218
 31
0.0
  0
ARC
  5
26E
330
1B
100
AcDbEntity
  8
4
100
AcDbCircle
 10
409.5723852872333
 20
529.8085278368094
 30
0.0
 40
2.0
100
AcDbArc
 50
95.10075106685387
 51
180.0
  0
ARC
  5
26F
330
1B
100
AcDbEntity
  8
4
100
AcDbCircle
 10
404.4762019157134
 20
509.0948499424114
 30
0.0
 40
3.0
100
AcDbArc
 50
205.2011236454744
 51
270.0
  0
CIRCLE
  5
270
330
1B
100
AcDbEntity
  8
4
100
AcDbCircle
 10
427.572385287233
 20
521.0948499424115
 30
0.0
 40
7.0
  0
LINE
  5
271
330
1B
100
AcDbEntity
  8
4
100
AcDbLine
 10
404.4762019157134
 20
506.0948499424114
 30
0.0
 11
449.572385287233
 21
506.0948499424117
 31
0.0
  0
LINE
  5
272
330
1B
100
AcDbEntity
  8
L-CENTER
100
AcDbLine
 10
412.572385287233
 20
521.0948499424115
 30
0.0
 11
442.572385287233
 21
521.0948499424115
 31
0.0
  0
LINE
  5
273
330
1B
100
AcDbEntity
  8
4
100
AcDbLine
 10
452.572385287233
 20
509.0948499424117
 30
0.0
 11
452.572385287233
 21
536.5948499424114
 31
0.0
  0
LINE
  5
274
330
1B
100
AcDbEntity
  8
L-CENTER
100
AcDbLine
 10
427.572385287233
 20
506.0948499424102
 30
0.0
 11
427.5723852872333
 21
536.0948499424115
 31
0.0
  0
ARC
  5
275
330
1B
100
AcDbEntity
  8
4
100
AcDbCircle
 10
414.572385287233
 20
533.5948499424109
 30
0.0
 40
2.0
100
AcDbArc
 50
90.0
 51
180.0
  0
ARC
  5
276
330
1B
100
AcDbEntity
  8
4
100
AcDbCircle
 10
428.572385287233
 20
537.5948499424113
 30
0.0
 40
2.0
100
AcDbArc
 50
270.0
 51
0.0
  0
LINE
  5
277
330
1B
100
AcDbEntity
  8
4
100
AcDbLine
 10
337.5723852872333
 20
521.5948499424117
 30
0.0
 11
337.5723852872333
 21
522.5948499424117
 31
0.0
  0
ARC
  5
278
330
1B
100
AcDbEntity
  8
4
100
AcDbCircle
 10
325.1001671487774
 20
525.253409785427
 30
0.0
 40
2.0
100
AcDbArc
 50
91.0725568845876
 51
180.0
  0
LINE
  5
279
330
1B
100
AcDbEntity
  8
4
100
AcDbLine
 10
329.5723852872333
 20
522.5948499424117
 30
0.0
 11
329.5723852872333
 21
525.3022348868103
 31
0.0
  0
LINE
  5
27A
330
1B
100
AcDbEntity
  8
4
100
AcDbLine
 10
323.1001671487774
 20
522.5948499424117
 30
0.0
 11
323.1001671487774
 21
525.253409785427
 31
0.0
  0
ARC
  5
27B
330
1B
100
AcDbEntity
  8
4
100
AcDbCircle
 10
302.5723852872367
 20
1728.542547542599
 30
0.0
 40
1201.5
100
AcDbArc
 50
271.0725568845769
 51
271.1902762962519
  0
ARC
  5
27C
330
1B
100
AcDbEntity
  8
4
100
AcDbCircle
 10
327.5723852872333
 20
525.3022348868103
 30
0.0
 40
2.0
100
AcDbArc
 50
0.0
 51
91.19027629627125
  0
LINE
  5
27D
330
1B
100
AcDbEntity
  8
4
100
AcDbLine
 10
314.1001671487774
 20
521.5948499424115
 30
0.0
 11
314.1001671487774
 21
522.5948499424117
 31
0.0
  0
LINE
  5
27E
330
1B
100
AcDbEntity
  8
4
100
AcDbLine
 10
234.1001671487774
 20
521.5948499424115
 30
0.0
 11
234.1001671487774
 21
522.5948499424115
 31
0.0
  0
LINE
  5
27F
330
1B
100
AcDbEntity
  8
4
100
AcDbLine
 10
225.1001671487774
 20
522.5948499424117
 30
0.0
 11
225.1001671487774
 21
527.6693583406113
 31
0.0
  0
ARC
  5
280
330
1B
100
AcDbEntity
  8
4
100
AcDbCircle
 10
223.1001671487774
 20
527.6693583406113
 30
0.0
 40
2.0
100
AcDbArc
 50
0.0
 51
86.21376118415954
  0
LINE
  5
281
330
1B
100
AcDbEntity
  8
4
100
AcDbLine
 10
225.1001671487774
 20
522.5948499424115
 30
0.0
 11
323.1001671487774
 21
522.5948499424117
 31
0.0
  0
LINE
  5
282
330
1B
100
AcDbEntity
  8
L-CENTER
100
AcDbLine
 10
302.572385287233
 20
514.837490957612
 30
0.0
 11
302.572385287233
 21
665.4948499424115
 31
0.0
  0
LINE
  5
283
330
1B
100
AcDbEntity
  8
4
100
AcDbLine
 10
329.5723852872333
 20
522.5948499424117
 30
0.0
 11
407.5723852872333
 21
522.5948499424117
 31
0.0
  0
LINE
  5
284
330
1B
100
AcDbEntity
  8
4
100
AcDbLine
 10
452.572385287233
 20
550.5948499424115
 30
0.0
 11
452.572385287233
 21
673.0948499424115
 31
0.0
  0
LINE
  5
285
330
1B
100
AcDbEntity
  8
4
100
AcDbLine
 10
395.2782676401742
 20
660.5948499424117
 30
0.0
 11
401.7617458091105
 21
674.3722410514011
 31
0.0
  0
LINE
  5
286
330
1B
100
AcDbEntity
  8
L-CENTER
100
AcDbLine
 10
427.5723852872333
 20
676.0948499424129
 30
0.0
 11
427.5723852872335
 21
646.0948499424115
 31
0.0
  0
ARC
  5
287
330
1B
100
AcDbEntity
  8
4
100
AcDbCircle
 10
200.6685686587526
 20
673.0948499424115
 30
0.0
 40
3.0
100
AcDbArc
 50
25.20112364547438
 51
90.0
  0
ARC
  5
288
330
1B
100
AcDbEntity
  8
4
100
AcDbCircle
 10
177.572385287233
 20
661.0948499424115
 30
0.0
 40
7.0
100
AcDbArc
 50
319.9947991151385
 51
257.6263748838114
  0
ARC
  5
289
330
1B
100
AcDbEntity
  8
4
100
AcDbCircle
 10
155.572385287233
 20
673.0948499424117
 30
0.0
 40
3.0
100
AcDbArc
 50
90.0
 51
180.0
  0
LINE
  5
28A
330
1B
100
AcDbEntity
  8
4
100
AcDbLine
 10
200.6685686587526
 20
676.0948499424115
 30
0.0
 11
155.572385287233
 21
676.0948499424117
 31
0.0
  0
LINE
  5
28B
330
1B
100
AcDbEntity
  8
L-CENTER
100
AcDbLine
 10
192.572385287233
 20
661.0948499424115
 30
0.0
 11
162.572385287233
 21
661.0948499424115
 31
0.0
  0
LINE
  5
28C
330
1B
100
AcDbEntity
  8
4
100
AcDbLine
 10
174.572385287233
 20
633.5948499424115
 30
0.0
 11
174.572385287233
 21
635.5948499424117
 31
0.0
  0
ARC
  5
28D
330
1B
100
AcDbEntity
  8
4
100
AcDbCircle
 10
154.572385287233
 20
631.5948499424117
 30
0.0
 40
2.0
100
AcDbArc
 50
90.0
 51
180.0
  0
LINE
  5
28E
330
1B
100
AcDbEntity
  8
4
100
AcDbLine
 10
149.572385287233
 20
610.5948499424113
 30
0.0
 11
142.5723852872333
 21
610.5948499424113
 31
0.0
  0
ARC
  5
28F
330
1B
100
AcDbEntity
  8
4
100
AcDbCircle
 10
149.572385287233
 20
613.5948499424113
 30
0.0
 40
3.0
100
AcDbArc
 50
270.0
 51
0.0
  0
LINE
  5
290
330
1B
100
AcDbEntity
  8
4
100
AcDbLine
 10
154.572385287233
 20
633.5948499424117
 30
0.0
 11
450.572385287233
 21
633.5948499424115
 31
0.0
  0
ARC
  5
291
330
1B
100
AcDbEntity
  8
4
100
AcDbCircle
 10
172.572385287233
 20
546.5948499424117
 30
0.0
 40
2.0
100
AcDbArc
 50
0.0
 51
90.0
  0
LINE
  5
292
330
1B
100
AcDbEntity
  8
4
100
AcDbLine
 10
174.572385287233
 20
546.5948499424117
 30
0.0
 11
174.572385287233
 21
537.5948499424118
 31
0.0
  0
LINE
  5
293
330
1B
100
AcDbEntity
  8
4
100
AcDbLine
 10
176.572385287233
 20
535.5948499424118
 30
0.0
 11
428.572385287233
 21
535.5948499424097
 31
0.0
  0
ARC
  5
294
330
1B
100
AcDbEntity
  8
4
100
AcDbCircle
 10
154.572385287233
 20
550.5948499424115
 30
0.0
 40
2.0
100
AcDbArc
 50
180.0
 51
270.0
  0
LINE
  5
295
330
1B
100
AcDbEntity
  8
4
100
AcDbLine
 10
174.8403344796681
 20
536.5948499424113
 30
0.0
 11
142.572385287233
 21
536.5948499424113
 31
0.0
  0
LINE
  5
296
330
1B
100
AcDbEntity
  8
4
100
AcDbLine
 10
154.572385287233
 20
548.5948499424115
 30
0.0
 11
450.572385287233
 21
548.5948499424135
 31
0.0
  0
LINE
  5
297
330
1B
100
AcDbEntity
  8
4
100
AcDbLine
 10
142.572385287233
 20
536.5948499424113
 30
0.0
 11
142.5723852872333
 21
610.5948499424113
 31
0.0
  0
LINE
  5
298
330
1B
100
AcDbEntity
  8
4
100
AcDbLine
 10
192.572385287233
 20
532.0885158305573
 30
0.0
 11
192.572385287233
 21
533.5948499424117
 31
0.0
  0
CIRCLE
  5
299
330
1B
100
AcDbEntity
  8
4
100
AcDbCircle
 10
177.572385287233
 20
521.0948499424115
 30
0.0
 40
7.0
  0
ARC
  5
29A
330
1B
100
AcDbEntity
  8
4
100
AcDbCircle
 10
200.6685686587526
 20
509.0948499424114
 30
0.0
 40
3.0
100
AcDbArc
 50
270.0
 51
334.7988763545256
  0
ARC
  5
29B
330
1B
100
AcDbEntity
  8
4
100
AcDbCircle
 10
155.572385287233
 20
509.0948499424117
 30
0.0
 40
3.0
100
AcDbArc
 50
180.0
 51
270.0
  0
LINE
  5
29C
330
1B
100
AcDbEntity
  8
L-CENTER
100
AcDbLine
 10
192.572385287233
 20
521.0948499424115
 30
0.0
 11
162.572385287233
 21
521.0948499424115
 31
0.0
  0
LINE
  5
29D
330
1B
100
AcDbEntity
  8
4
100
AcDbLine
 10
200.6685686587526
 20
506.0948499424114
 30
0.0
 11
155.572385287233
 21
506.0948499424117
 31
0.0
  0
LINE
  5
29E
330
1B
100
AcDbEntity
  8
4
100
AcDbLine
 10
152.572385287233
 20
509.0948499424117
 30
0.0
 11
152.572385287233
 21
536.5948499424113
 31
0.0
  0
LINE
  5
29F
330
1B
100
AcDbEntity
  8
L-CENTER
100
AcDbLine
 10
177.572385287233
 20
506.0948499424102
 30
0.0
 11
177.572385287233
 21
536.0948499424115
 31
0.0
  0
ARC
  5
2A0
330
1B
100
AcDbEntity
  8
4
100
AcDbCircle
 10
176.572385287233
 20
537.5948499424118
 30
0.0
 40
2.0
100
AcDbArc
 50
180.0
 51
270.0
  0
ARC
  5
2A1
330
1B
100
AcDbEntity
  8
4
100
AcDbCircle
 10
190.572385287233
 20
533.5948499424117
 30
0.0
 40
2.0
100
AcDbArc
 50
0.0
 51
90.0
  0
LINE
  5
2A2
330
1B
100
AcDbEntity
  8
4
100
AcDbLine
 10
152.572385287233
 20
550.5948499424115
 30
0.0
 11
152.572385287233
 21
673.0948499424117
 31
0.0
  0
LINE
  5
2A3
330
1B
100
AcDbEntity
  8
L-CENTER
100
AcDbLine
 10
177.572385287233
 20
676.0948499424129
 30
0.0
 11
177.572385287233
 21
646.0948499424115
 31
0.0
  0
LINE
  5
2A4
330
1B
100
AcDbEntity
  8
L-CENTER
100
AcDbLine
 10
79.67943614402733
 20
573.5948499424117
 30
0.0
 11
525.8042948572769
 21
573.5948499424114
 31
0.0
  0
LINE
  5
2A5
330
1B
100
AcDbEntity
  8
L-CENTER
100
AcDbLine
 10
146.572385287233
 20
591.0948499424117
 30
0.0
 11
458.572385287233
 21
591.0948499424114
 31
0.0
  0
LINE
  5
2A6
330
1B
100
AcDbEntity
  8
4
100
AcDbLine
 10
174.572385287233
 20
635.5948499424117
 30
0.0
 11
430.5723852872333
 21
635.5948499424115
 31
0.0
  0
LINE
  5
2A7
330
1B
100
AcDbEntity
  8
4
100
AcDbLine
 10
213.9696039027214
 20
530.3139395003241
 30
0.0
 11
203.3830247653556
 21
507.8174588334218
 31
0.0
  0
ARC
  5
2A8
330
1B
100
AcDbEntity
  8
4
100
AcDbCircle
 10
302.5723852872367
 20
1728.542547542599
 30
0.0
 40
1201.5
100
AcDbArc
 50
264.7470881691037
 51
275.2529118308959
  0
LINE
  5
2A9
330
1B
100
AcDbEntity
  8
4
100
AcDbLine
 10
214.651838068619
 20
650.4260127819666
 30
0.0
 11
203.3830247653556
 21
674.3722410514011
 31
0.0
  0
LINE
  5
2C5
330
1B
100
AcDbEntity
  8
4
100
AcDbLine
 10
805.1562287312023
 20
317.4253936227457
 30
0.0
 11
792.0563737312024
 21
317.4253936227457
 31
0.0
  0
LINE
  5
2C6
330
1B
100
AcDbEntity
  8
L-CENTER
100
AcDbLine
 10
817.8386612312025
 20
293.3484886227457
 30
0.0
 11
777.1126756313485
 21
293.3484886227457
 31
0.0
  0
LINE
  5
2CC
330
1B
100
AcDbEntity
  8
4
100
AcDbLine
 10
769.5563737312024
 20
321.4253936227457
 30
0.0
 11
769.5563737312024
 21
322.4253936227457
 31
0.0
  0
LINE
  5
2CD
330
1B
100
AcDbEntity
  8
4
100
AcDbLine
 10
761.0563737312024
 20
322.4253936227457
 30
0.0
 11
761.0563737312024
 21
323.9253936227457
 31
0.0
  0
LINE
  5
2CE
330
1B
100
AcDbEntity
  8
4
100
AcDbLine
 10
762.0563737312024
 20
323.9253936227457
 30
0.0
 11
762.0563737312024
 21
325.9253936227457
 31
0.0
  0
LINE
  5
2CF
330
1B
100
AcDbEntity
  8
4
100
AcDbLine
 10
759.7787862312026
 20
325.9253936227457
 30
0.0
 11
759.7787862312026
 21
329.9253936227457
 31
0.0
  0
LINE
  5
2D0
330
1B
100
AcDbEntity
  8
4
100
AcDbLine
 10
738.0563737312024
 20
322.4253936227457
 30
0.0
 11
738.0563737312024
 21
323.9253936227457
 31
0.0
  0
LINE
  5
2D1
330
1B
100
AcDbEntity
  8
4
100
AcDbLine
 10
737.0563737312024
 20
325.9253936227457
 30
0.0
 11
737.0563737312024
 21
323.9253936227457
 31
0.0
  0
LINE
  5
2D2
330
1B
100
AcDbEntity
  8
4
100
AcDbLine
 10
739.3339612312026
 20
325.9253936227457
 30
0.0
 11
739.3339612312026
 21
329.9253936227457
 31
0.0
  0
LINE
  5
2D3
330
1B
100
AcDbEntity
  8
4
100
AcDbLine
 10
762.0563737312024
 20
325.9253936227457
 30
0.0
 11
737.0563737312024
 21
325.9253936227457
 31
0.0
  0
LINE
  5
2D4
330
1B
100
AcDbEntity
  8
4
100
AcDbLine
 10
762.0563737312024
 20
323.9253936227457
 30
0.0
 11
737.0563737312024
 21
323.9253936227457
 31
0.0
  0
LINE
  5
2D5
330
1B
100
AcDbEntity
  8
4
100
AcDbLine
 10
759.7787862312026
 20
329.9253936227457
 30
0.0
 11
739.3339612312026
 21
329.9253936227457
 31
0.0
  0
LINE
  5
2D6
330
1B
100
AcDbEntity
  8
4
100
AcDbLine
 10
724.5563737312024
 20
322.4253936227457
 30
0.0
 11
724.5563737312024
 21
321.4253936227457
 31
0.0
  0
LINE
  5
2D7
330
1B
100
AcDbEntity
  8
4
100
AcDbLine
 10
694.0563737312024
 20
317.4253936227457
 30
0.0
 11
707.0563737312024
 21
317.4253936227457
 31
0.0
  0
LINE
  5
2D8
330
1B
100
AcDbEntity
  8
4
100
AcDbLine
 10
692.0563737312024
 20
299.4253936227457
 30
0.0
 11
694.0563737312024
 21
299.4253936227457
 31
0.0
  0
LINE
  5
2D9
330
1B
100
AcDbEntity
  8
4
100
AcDbLine
 10
769.5563737312024
 20
322.4253936227457
 30
0.0
 11
724.5563737312024
 21
322.4253936227457
 31
0.0
  0
LINE
  5
2DA
330
1B
100
AcDbEntity
  8
4
100
AcDbLine
 10
707.0563737312024
 20
321.4253936227457
 30
0.0
 11
792.0563737312024
 21
321.4253936227457
 31
0.0
  0
LINE
  5
2E4
330
1B
100
AcDbEntity
  8
4
100
AcDbLine
 10
819.1562287312023
 20
240.4253936227457
 30
0.0
 11
818.1562287312023
 21
240.4253936227457
 31
0.0
  0
LINE
  5
2E5
330
1B
100
AcDbEntity
  8
4
100
AcDbLine
 10
810.7570587312026
 20
248.4253936227457
 30
0.0
 11
818.1562287312023
 21
248.4253936227457
 31
0.0
  0
LINE
  5
2E6
330
1B
100
AcDbEntity
  8
4
100
AcDbLine
 10
819.1562287312023
 20
239.4253936227457
 30
0.0
 11
818.1562287312023
 21
239.4253936227457
 31
0.0
  0
LINE
  5
2E9
330
1B
100
AcDbEntity
  8
4
100
AcDbLine
 10
818.1562287312023
 20
178.4253936227457
 30
0.0
 11
819.1562287312023
 21
178.4253936227457
 31
0.0
  0
LINE
  5
2EA
330
1B
100
AcDbEntity
  8
4
100
AcDbLine
 10
812.0580837312024
 20
170.4253936227457
 30
0.0
 11
818.1562287312023
 21
170.4253936227457
 31
0.0
  0
LINE
  5
2F2
330
1B
100
AcDbEntity
  8
4
100
AcDbLine
 10
818.1562287312023
 20
159.4253936227457
 30
0.0
 11
819.1562287312023
 21
159.4253936227457
 31
0.0
  0
LINE
  5
2F3
330
1B
100
AcDbEntity
  8
4
100
AcDbLine
 10
818.1562287312023
 20
150.4253936227457
 30
0.0
 11
811.5744412312025
 21
150.4253936227457
 31
0.0
  0
ARC
  5
2F5
330
1B
100
AcDbEntity
  8
4
100
AcDbCircle
 10
799.6025162312027
 20
52.86069612274565
 30
0.0
 40
2.7321425
100
AcDbArc
 50
110.1659570000057
 51
211.6916979999961
  0
ARC
  5
2F6
330
1B
100
AcDbEntity
  8
4
100
AcDbCircle
 10
799.6025162312027
 20
52.86069612274565
 30
0.0
 40
2.7321425
100
AcDbArc
 50
110.1659570000057
 51
211.6916979999961
  0
ARC
  5
2F7
330
1B
100
AcDbEntity
  8
4
100
AcDbCircle
 10
797.7189712312025
 20
57.9900911227457
 30
0.0
 40
2.7321425
100
AcDbArc
 50
290.1659369999925
 51
31.6916980000047
  0
ARC
  5
2F8
330
1B
100
AcDbEntity
  8
4
100
AcDbCircle
 10
797.7189712312025
 20
57.9900911227457
 30
0.0
 40
2.7321425
100
AcDbArc
 50
290.1659369999925
 51
31.6916980000047
  0
LINE
  5
2F9
330
1B
100
AcDbEntity
  8
4
100
AcDbLine
 10
805.1562287312023
 20
61.42539362274567
 30
0.0
 11
792.0563737312024
 21
61.42539362274567
 31
0.0
  0
LINE
  5
2FA
330
1B
100
AcDbEntity
  8
4
100
AcDbLine
 10
735.5563737312024
 20
126.9253936227457
 30
0.0
 11
735.5563737312024
 21
133.9253936227457
 31
0.0
  0
LINE
  5
2FB
330
1B
100
AcDbEntity
  8
4
100
AcDbLine
 10
728.5563737312024
 20
133.9253936227457
 30
0.0
 11
728.5563737312024
 21
126.9253936227457
 31
0.0
  0
LINE
  5
2FC
330
1B
100
AcDbEntity
  8
4
100
AcDbLine
 10
735.5563737312024
 20
126.9253936227457
 30
0.0
 11
728.5563737312024
 21
126.9253936227457
 31
0.0
  0
LINE
  5
2FD
330
1B
100
AcDbEntity
  8
4
100
AcDbLine
 10
735.5563737312024
 20
133.9253936227457
 30
0.0
 11
728.5563737312024
 21
133.9253936227457
 31
0.0
  0
LINE
  5
2FE
330
1B
100
AcDbEntity
  8
4
100
AcDbLine
 10
694.0563737312024
 20
79.42539362274567
 30
0.0
 11
692.0563737312024
 21
79.42539362274567
 31
0.0
  0
LINE
  5
2FF
330
1B
100
AcDbEntity
  8
4
100
AcDbLine
 10
704.0563737312024
 20
61.42539362274567
 30
0.0
 11
704.0563737312024
 21
59.42539362274567
 31
0.0
  0
LINE
  5
300
330
1B
100
AcDbEntity
  8
4
100
AcDbLine
 10
694.0563737312024
 20
61.42539362274567
 30
0.0
 11
694.0563737312024
 21
59.42539362274567
 31
0.0
  0
LINE
  5
301
330
1B
100
AcDbEntity
  8
4
100
AcDbLine
 10
707.0563737312024
 20
61.42539362274567
 30
0.0
 11
694.0563737312024
 21
61.42539362274567
 31
0.0
  0
LINE
  5
302
330
1B
100
AcDbEntity
  8
L-CENTER
100
AcDbLine
 10
709.4931412312027
 20
60.42539362274567
 30
0.0
 11
691.3429937312022
 21
60.42539362274567
 31
0.0
  0
LINE
  5
303
330
1B
100
AcDbEntity
  8
4
100
AcDbLine
 10
707.0563737312024
 20
59.42539362274567
 30
0.0
 11
707.0563737312024
 21
92.14902612274568
 31
0.0
  0
CIRCLE
  5
304
330
1B
100
AcDbEntity
  8
4
100
AcDbCircle
 10
732.0563737312024
 20
119.4253936227457
 30
0.0
 40
26.0
  0
CIRCLE
  5
305
330
1B
100
AcDbEntity
  8
4
100
AcDbCircle
 10
732.0563737312024
 20
119.4253936227457
 30
0.0
 40
37.0
  0
LINE
  5
306
330
1B
100
AcDbEntity
  8
L-CENTER
100
AcDbLine
 10
732.0563737312024
 20
77.57749362274569
 30
0.0
 11
732.0563737312024
 21
161.2732936227457
 31
0.0
  0
ARC
  5
307
330
1B
100
AcDbEntity
  8
4
100
AcDbCircle
 10
732.0563737312024
 20
119.4253936227457
 30
0.0
 40
11.4999
100
AcDbArc
 50
107.7190909999996
 51
72.28090899999813
  0
ARC
  5
308
330
1B
100
AcDbEntity
  8
4
100
AcDbCircle
 10
-387.7915262687974
 20
189.4253936227457
 30
0.0
 40
1199.9999875
100
AcDbArc
 50
355.3432646815102
 51
359.6896463400817
  0
LINE
  5
309
330
1B
100
AcDbEntity
  8
4
100
AcDbLine
 10
819.1562287312023
 20
240.4253936227457
 30
0.0
 11
819.1562287312023
 21
159.4253936227457
 31
0.0
  0
LINE
  5
30A
330
1B
100
AcDbEntity
  8
4
100
AcDbLine
 10
818.1562287312023
 20
248.4253936227457
 30
0.0
 11
818.1562287312023
 21
150.4253936227457
 31
0.0
  0
LINE
  5
30C
330
1B
100
AcDbEntity
  8
4
100
AcDbLine
 10
688.4926537312023
 20
248.4253936227457
 30
0.0
 11
681.0563737312024
 21
248.4253936227457
 31
0.0
  0
LINE
  5
30D
330
1B
100
AcDbEntity
  8
4
100
AcDbLine
 10
680.0563737312024
 20
240.4253936227457
 30
0.0
 11
681.0563737312024
 21
240.4253936227457
 31
0.0
  0
LINE
  5
30E
330
1B
100
AcDbEntity
  8
4
100
AcDbLine
 10
680.0563737312024
 20
239.4253936227458
 30
0.0
 11
681.0563737312024
 21
239.4253936227458
 31
0.0
  0
LINE
  5
30F
330
1B
100
AcDbEntity
  8
4
100
AcDbLine
 10
687.2052987312023
 20
170.4253936227457
 30
0.0
 11
681.0563737312024
 21
170.4253936227457
 31
0.0
  0
LINE
  5
310
330
1B
100
AcDbEntity
  8
4
100
AcDbLine
 10
681.0563737312024
 20
178.4253936227457
 30
0.0
 11
680.0563737312024
 21
178.4253936227457
 31
0.0
  0
LINE
  5
317
330
1B
100
AcDbEntity
  8
4
100
AcDbLine
 10
681.0563737312024
 20
159.4253936227457
 30
0.0
 11
680.0563737312024
 21
159.4253936227457
 31
0.0
  0
LINE
  5
318
330
1B
100
AcDbEntity
  8
4
100
AcDbLine
 10
683.2026137312024
 20
142.4253936227457
 30
0.0
 11
684.7026137312024
 21
142.4253936227457
 31
0.0
  0
LINE
  5
319
330
1B
100
AcDbEntity
  8
4
100
AcDbLine
 10
687.6838162312025
 20
150.4253936227457
 30
0.0
 11
681.0563737312024
 21
150.4253936227457
 31
0.0
  0
LINE
  5
31A
330
1B
100
AcDbEntity
  8
4
100
AcDbLine
 10
687.8918237312024
 20
144.4253936227457
 30
0.0
 11
684.7026137312024
 21
144.4253936227457
 31
0.0
  0
LINE
  5
31B
330
1B
100
AcDbEntity
  8
4
100
AcDbLine
 10
676.2026137312024
 20
143.4253936227457
 30
0.0
 11
683.2026137312024
 21
143.4253936227457
 31
0.0
  0
LINE
  5
31C
330
1B
100
AcDbEntity
  8
4
100
AcDbLine
 10
681.2026137312024
 20
135.9253936227457
 30
0.0
 11
676.2026137312024
 21
135.9253936227457
 31
0.0
  0
LINE
  5
31D
330
1B
100
AcDbEntity
  8
4
100
AcDbLine
 10
683.2026137312024
 20
114.4253936227457
 30
0.0
 11
684.7026137312024
 21
114.4253936227457
 31
0.0
  0
LINE
  5
31E
330
1B
100
AcDbEntity
  8
4
100
AcDbLine
 10
683.2026137312024
 20
113.4253936227457
 30
0.0
 11
676.2026137312024
 21
113.4253936227457
 31
0.0
  0
LINE
  5
31F
330
1B
100
AcDbEntity
  8
4
100
AcDbLine
 10
681.2026137312024
 20
120.9253936227457
 30
0.0
 11
676.2026137312024
 21
120.9253936227457
 31
0.0
  0
LINE
  5
320
330
1B
100
AcDbEntity
  8
4
100
AcDbLine
 10
676.2026137312024
 20
113.4253936227457
 30
0.0
 11
676.2026137312024
 21
143.4253936227457
 31
0.0
  0
LINE
  5
321
330
1B
100
AcDbEntity
  8
4
100
AcDbLine
 10
681.2026137312024
 20
113.4253936227457
 30
0.0
 11
681.2026137312024
 21
143.4253936227457
 31
0.0
  0
LINE
  5
322
330
1B
100
AcDbEntity
  8
4
100
AcDbLine
 10
683.2026137312024
 20
113.4253936227457
 30
0.0
 11
683.2026137312024
 21
143.4253936227457
 31
0.0
  0
LINE
  5
323
330
1B
100
AcDbEntity
  8
4
100
AcDbLine
 10
684.7026137312024
 20
114.4253936227457
 30
0.0
 11
684.7026137312024
 21
142.4253936227457
 31
0.0
  0
LINE
  5
324
330
1B
100
AcDbEntity
  8
4
100
AcDbLine
 10
684.7026137312024
 20
112.4253936227457
 30
0.0
 11
684.7026137312024
 21
144.4253936227457
 31
0.0
  0
LINE
  5
329
330
1B
100
AcDbEntity
  8
4
100
AcDbLine
 10
681.0563737312024
 20
150.4253936227457
 30
0.0
 11
681.0563737312024
 21
248.4253936227457
 31
0.0
  0
LINE
  5
32A
330
1B
100
AcDbEntity
  8
4
100
AcDbLine
 10
680.0563737312024
 20
159.4253936227457
 30
0.0
 11
680.0563737312024
 21
240.4253936227457
 31
0.0
  0
LINE
  5
32B
330
1B
100
AcDbEntity
  8
4
100
AcDbLine
 10
834.5563737312024
 20
59.42539362274567
 30
0.0
 11
664.5563737312024
 21
59.42539362274567
 31
0.0
  0
LINE
  5
32C
330
1B
100
AcDbEntity
  8
L-CENTER
100
AcDbLine
 10
773.9042737312026
 20
119.4253936227457
 30
0.0
 11
690.2084737312026
 21
119.4253936227457
 31
0.0
  0
LINE
  5
32D
330
1B
100
AcDbEntity
  8
4
100
AcDbLine
 10
684.7026137312024
 20
112.4253936227457
 30
0.0
 11
689.5038837312023
 21
112.4253936227457
 31
0.0
  0
LINE
  5
32E
330
1B
100
AcDbEntity
  8
L-CENTER
100
AcDbLine
 10
671.8692012312023
 20
128.4253936227457
 30
0.0
 11
703.4899265126597
 21
128.4253936227457
 31
0.0
  0
LINE
  5
32F
330
1B
100
AcDbEntity
  8
L-CENTER
100
AcDbLine
 10
814.9577412312025
 20
209.4253936227457
 30
0.0
 11
675.6276637312022
 21
209.4253936227457
 31
0.0
  0
LINE
  5
330
330
1B
100
AcDbEntity
  8
L-CENTER
100
AcDbLine
 10
820.3656635529411
 20
189.4253936227457
 30
0.0
 11
674.2995387312022
 21
189.4253936227457
 31
0.0
  0
LINE
  5
331
330
1B
100
AcDbEntity
  8
4
100
AcDbLine
 10
807.1562287312023
 20
92.75229862274568
 30
0.0
 11
807.1562287312028
 21
286.0984886227457
 31
0.0
  0
LINE
  5
332
330
1B
100
AcDbEntity
  8
4
100
AcDbLine
 10
805.1562287312023
 20
61.42539362274567
 30
0.0
 11
805.1562287312023
 21
317.4253936227457
 31
0.0
  0
LINE
  5
333
330
1B
100
AcDbEntity
  8
4
100
AcDbLine
 10
794.0563737312024
 20
61.42539362274567
 30
0.0
 11
794.0563737312024
 21
317.4253936227457
 31
0.0
  0
LINE
  5
334
330
1B
100
AcDbEntity
  8
4
100
AcDbLine
 10
792.0563737312024
 20
59.42539362274567
 30
0.0
 11
792.0563737312024
 21
321.4253936227457
 31
0.0
  0
LINE
  5
335
330
1B
100
AcDbEntity
  8
4
100
AcDbLine
 10
694.0563737312024
 20
61.42539362274567
 30
0.0
 11
694.0563737312024
 21
317.4253936227457
 31
0.0
  0
LINE
  5
336
330
1B
100
AcDbEntity
  8
4
100
AcDbLine
 10
692.0563737312024
 20
79.42539362274567
 30
0.0
 11
692.0563737312024
 21
299.4253936227457
 31
0.0
  0
ARC
  5
337
330
1B
100
AcDbEntity
  8
4
100
AcDbCircle
 10
1899.556373731202
 20
189.4253936227457
 30
0.0
 40
1212.49999
100
AcDbArc
 50
174.795037
 51
185.205275
  0
LINE
  5
338
330
1B
100
AcDbEntity
  8
4
100
AcDbLine
 10
707.0563737312024
 20
146.7017611227457
 30
0.0
 11
707.0563737312024
 21
321.4253936227457
 31
0.0
  0
ARC
  5
33B
330
1B
100
AcDbEntity
  8
4
100
AcDbCircle
 10
-387.7915262687974
 20
189.4253936227457
 30
0.0
 40
1200.0000325
100
AcDbArc
 50
0.3103536482792206
 51
4.656735143476703
  0
LINE
  5
33E
330
1B
100
AcDbEntity
  8
L-CENTER
100
AcDbLine
 10
821.7517933708106
 20
199.4253936227457
 30
0.0
 11
592.5313337312024
 21
199.4253936227458
 31
0.0
  0
ARC
  5
348
330
1B
100
AcDbEntity
  8
4
100
AcDbCircle
 10
796.8366487312024
 20
44.86069612274565
 30
0.0
 40
2.7321425
100
AcDbArc
 50
110.1659569999956
 51
211.6916980000047
  0
ARC
  5
349
330
1B
100
AcDbEntity
  8
4
100
AcDbCircle
 10
796.8366487312024
 20
44.86069612274565
 30
0.0
 40
2.7321425
100
AcDbArc
 50
110.1659569999956
 51
211.6916980000047
  0
ARC
  5
34A
330
1B
100
AcDbEntity
  8
4
100
AcDbCircle
 10
792.1869887312024
 20
41.9900911227457
 30
0.0
 40
2.7321425
100
AcDbArc
 50
290.1659570000057
 51
31.6916979999961
  0
ARC
  5
34B
330
1B
100
AcDbEntity
  8
4
100
AcDbCircle
 10
792.1869887312024
 20
41.9900911227457
 30
0.0
 40
2.7321425
100
AcDbArc
 50
290.1659570000057
 51
31.6916979999961
  0
LINE
  5
35F
330
1B
100
AcDbEntity
  8
4
100
AcDbLine
 10
834.5563737312024
 20
39.42539362274567
 30
0.0
 11
664.5563737312024
 21
39.42539362274567
 31
0.0
  0
TEXT
  5
360
330
1B
100
AcDbEntity
  8
3
100
AcDbText
 10
536.054947795248
 20
11.89506092333477
 30
0.0
 40
7.437813850723454
  1
LD3-08
  7
KANJI
100
AcDbText
  0
LINE
  5
365
330
1B
100
AcDbEntity
  8
L-CENTER
100
AcDbLine
 10
749.5563737312024
 20
335.3025136227457
 30
0.0
 11
749.5563737312024
 21
32.07473862274566
 31
0.0
  0
LINE
  5
367
330
1B
100
AcDbEntity
  8
4
100
AcDbLine
 10
664.5563737312024
 20
39.42539362274567
 30
0.0
 11
664.5563737312024
 21
59.42539362274567
 31
0.0
  0
LINE
  5
368
330
1B
100
AcDbEntity
  8
L-CENTER
100
AcDbLine
 10
679.5563737312024
 20
29.42539362274567
 30
0.0
 11
679.5563737312024
 21
69.42539362274567
 31
0.0
  0
LINE
  5
36A
330
1B
100
AcDbEntity
  8
4
100
AcDbLine
 10
812.5563737312024
 20
39.42539362274567
 30
0.0
 11
812.5563737312024
 21
59.42539362274567
 31
0.0
  0
LINE
  5
36B
330
1B
100
AcDbEntity
  8
4
100
AcDbLine
 10
826.5563737312024
 20
39.42539362274567
 30
0.0
 11
826.5563737312024
 21
59.42539362274567
 31
0.0
  0
LINE
  5
36C
330
1B
100
AcDbEntity
  8
4
100
AcDbLine
 10
834.5563737312024
 20
59.42539362274567
 30
0.0
 11
834.5563737312024
 21
39.42539362274567
 31
0.0
  0
LINE
  5
36D
330
1B
100
AcDbEntity
  8
L-CENTER
100
AcDbLine
 10
819.5563737312024
 20
29.42539362274567
 30
0.0
 11
819.5563737312024
 21
69.42539362274567
 31
0.0
  0
ARC
  5
36E
330
1B
100
AcDbEntity
  8
4
100
AcDbCircle
 10
794.9531037312023
 20
49.99009112274564
 30
0.0
 40
2.7321425
100
AcDbArc
 50
290.1659370000027
 51
31.6916979999961
  0
ARC
  5
36F
330
1B
100
AcDbEntity
  8
4
100
AcDbCircle
 10
794.9531037312023
 20
49.99009112274564
 30
0.0
 40
2.7321425
100
AcDbArc
 50
290.1659370000027
 51
31.6916979999961
  0
ARC
  5
373
330
1B
100
AcDbEntity
  8
4
100
AcDbCircle
 10
438.2142302872331
 20
303.0604036227456
 30
0.0
 40
4.99994
100
AcDbArc
 50
9.411730000000128
 51
78.74548300000203
  0
LINE
  5
378
330
1B
100
AcDbEntity
  8
4
100
AcDbLine
 10
314.072385287233
 20
322.4253936227457
 30
0.0
 11
314.072385287233
 21
323.9253936227457
 31
0.0
  0
LINE
  5
379
330
1B
100
AcDbEntity
  8
4
100
AcDbLine
 10
322.572385287233
 20
321.1395036227457
 30
0.0
 11
322.572385287233
 21
322.4253936227457
 31
0.0
  0
LINE
  5
37A
330
1B
100
AcDbEntity
  8
4
100
AcDbLine
 10
308.822385287233
 20
325.9253936227457
 30
0.0
 11
308.822385287233
 21
329.9253936227457
 31
0.0
  0
LINE
  5
37B
330
1B
100
AcDbEntity
  8
4
100
AcDbLine
 10
315.072385287233
 20
329.9253936227457
 30
0.0
 11
315.072385287233
 21
323.9253936227457
 31
0.0
  0
LINE
  5
37C
330
1B
100
AcDbEntity
  8
4
100
AcDbLine
 10
326.572385287233
 20
286.5677286227457
 30
0.0
 11
316.072385287233
 21
286.5677286227457
 31
0.0
  0
LINE
  5
37F
330
1B
100
AcDbEntity
  8
4
100
AcDbLine
 10
291.072385287233
 20
322.4253936227457
 30
0.0
 11
291.072385287233
 21
323.9253936227457
 31
0.0
  0
LINE
  5
380
330
1B
100
AcDbEntity
  8
4
100
AcDbLine
 10
282.572385287233
 20
322.4253936227457
 30
0.0
 11
282.572385287233
 21
321.1395036227457
 31
0.0
  0
LINE
  5
381
330
1B
100
AcDbEntity
  8
4
100
AcDbLine
 10
290.072385287233
 20
323.9253936227457
 30
0.0
 11
290.072385287233
 21
329.9253936227457
 31
0.0
  0
LINE
  5
382
330
1B
100
AcDbEntity
  8
4
100
AcDbLine
 10
296.322385287233
 20
325.9253936227457
 30
0.0
 11
296.322385287233
 21
329.9253936227457
 31
0.0
  0
LINE
  5
383
330
1B
100
AcDbEntity
  8
4
100
AcDbLine
 10
292.072385287233
 20
286.5677286227457
 30
0.0
 11
299.572385287233
 21
286.5677286227457
 31
0.0
  0
LINE
  5
384
330
1B
100
AcDbEntity
  8
4
100
AcDbLine
 10
278.572385287233
 20
286.5677286227457
 30
0.0
 11
281.572385287233
 21
286.5677286227457
 31
0.0
  0
LINE
  5
385
330
1B
100
AcDbEntity
  8
4
100
AcDbLine
 10
329.572385287233
 20
289.5677286227457
 30
0.0
 11
275.572385287233
 21
289.5677286227457
 31
0.0
  0
LINE
  5
386
330
1B
100
AcDbEntity
  8
4
100
AcDbLine
 10
322.572385287233
 20
322.4253936227457
 30
0.0
 11
282.572385287233
 21
322.4253936227457
 31
0.0
  0
LINE
  5
387
330
1B
100
AcDbEntity
  8
4
100
AcDbLine
 10
290.072385287233
 20
329.9253936227457
 30
0.0
 11
315.072385287233
 21
329.9253936227457
 31
0.0
  0
LINE
  5
388
330
1B
100
AcDbEntity
  8
4
100
AcDbLine
 10
290.072385287233
 20
325.9253936227457
 30
0.0
 11
315.072385287233
 21
325.9253936227457
 31
0.0
  0
LINE
  5
389
330
1B
100
AcDbEntity
  8
4
100
AcDbLine
 10
290.072385287233
 20
323.9253936227457
 30
0.0
 11
315.072385287233
 21
323.9253936227457
 31
0.0
  0
LINE
  5
395
330
1B
100
AcDbEntity
  8
4
100
AcDbLine
 10
522.572385287233
 20
129.9253936227457
 30
0.0
 11
521.572385287233
 21
130.9253936227457
 31
0.0
  0
LINE
  5
396
330
1B
100
AcDbEntity
  8
4
100
AcDbLine
 10
522.572385287233
 20
133.9253936227457
 30
0.0
 11
522.572385287233
 21
108.9253936227457
 31
0.0
  0
LINE
  5
397
330
1B
100
AcDbEntity
  8
4
100
AcDbLine
 10
521.572385287233
 20
130.9253936227457
 30
0.0
 11
521.572385287233
 21
107.9253936227457
 31
0.0
  0
LINE
  5
398
330
1B
100
AcDbEntity
  8
4
100
AcDbLine
 10
521.572385287233
 20
107.9253936227457
 30
0.0
 11
522.572385287233
 21
108.9253936227457
 31
0.0
  0
LINE
  5
399
330
1B
100
AcDbEntity
  8
4
100
AcDbLine
 10
463.572385287233
 20
145.4253936227457
 30
0.0
 11
462.572385287233
 21
145.4253936227457
 31
0.0
  0
ARC
  5
39A
330
1B
100
AcDbEntity
  8
4
100
AcDbCircle
 10
455.572385287233
 20
159.4253936227457
 30
0.0
 40
3.0
100
AcDbArc
 50
180.0
 51
270.0
  0
LINE
  5
39B
330
1B
100
AcDbEntity
  8
4
100
AcDbLine
 10
455.572385287233
 20
156.4253936227457
 30
0.0
 11
462.572385287233
 21
156.4253936227457
 31
0.0
  0
LINE
  5
39C
330
1B
100
AcDbEntity
  8
4
100
AcDbLine
 10
477.572385287233
 20
133.9253936227457
 30
0.0
 11
477.572385287233
 21
130.9253936227457
 31
0.0
  0
LINE
  5
39D
330
1B
100
AcDbEntity
  8
4
100
AcDbLine
 10
472.572385287233
 20
131.9253936227457
 30
0.0
 11
463.572385287233
 21
131.9253936227457
 31
0.0
  0
LINE
  5
39E
330
1B
100
AcDbEntity
  8
4
100
AcDbLine
 10
423.2318102872331
 20
146.7017611227457
 30
0.0
 11
452.572385287233
 21
146.7017611227457
 31
0.0
  0
LINE
  5
39F
330
1B
100
AcDbEntity
  8
4
100
AcDbLine
 10
463.572385287233
 20
106.9253936227457
 30
0.0
 11
472.572385287233
 21
106.9253936227457
 31
0.0
  0
LINE
  5
3A0
330
1B
100
AcDbEntity
  8
4
100
AcDbLine
 10
462.572385287233
 20
93.42539362274567
 30
0.0
 11
463.572385287233
 21
93.42539362274567
 31
0.0
  0
ARC
  5
3A1
330
1B
100
AcDbEntity
  8
4
100
AcDbCircle
 10
455.572385287233
 20
79.42539362274567
 30
0.0
 40
3.0
100
AcDbArc
 50
90.0
 51
180.0
  0
LINE
  5
3A2
330
1B
100
AcDbEntity
  8
4
100
AcDbLine
 10
455.572385287233
 20
82.42539362274567
 30
0.0
 11
462.572385287233
 21
82.42539362274567
 31
0.0
  0
LINE
  5
3A3
330
1B
100
AcDbEntity
  8
4
100
AcDbLine
 10
463.572385287233
 20
145.4253936227457
 30
0.0
 11
463.572385287233
 21
93.42539362274567
 31
0.0
  0
LINE
  5
3A4
330
1B
100
AcDbEntity
  8
4
100
AcDbLine
 10
462.572385287233
 20
82.42539362274567
 30
0.0
 11
462.572385287233
 21
156.4253936227457
 31
0.0
  0
LINE
  5
3A5
330
1B
100
AcDbEntity
  8
4
100
AcDbLine
 10
472.572385287233
 20
131.9253936227457
 30
0.0
 11
472.572385287233
 21
106.9253936227457
 31
0.0
  0
LINE
  5
3A6
330
1B
100
AcDbEntity
  8
4
100
AcDbLine
 10
522.572385287233
 20
133.9253936227457
 30
0.0
 11
477.572385287233
 21
133.9253936227457
 31
0.0
  0
LINE
  5
3A7
330
1B
100
AcDbEntity
  8
4
100
AcDbLine
 10
472.572385287233
 20
130.9253936227457
 30
0.0
 11
521.572385287233
 21
130.9253936227457
 31
0.0
  0
LINE
  5
3A8
330
1B
100
AcDbEntity
  8
4
100
AcDbLine
 10
472.572385287233
 20
107.9253936227457
 30
0.0
 11
521.572385287233
 21
107.9253936227457
 31
0.0
  0
LINE
  5
3AE
330
1B
100
AcDbEntity
  8
4
100
AcDbLine
 10
320.2215552872332
 20
278.1006861227457
 30
0.0
 11
323.1651577872332
 21
283.5677286227457
 31
0.0
  0
ARC
  5
3AF
330
1B
100
AcDbEntity
  8
4
100
AcDbCircle
 10
321.322385287233
 20
273.8177286227457
 30
0.0
 40
2.2500525
100
AcDbArc
 50
180.0
 51
44.99999999999795
  0
LINE
  5
3B0
330
1B
100
AcDbEntity
  8
4
100
AcDbLine
 10
320.2215552872332
 20
278.1006861227457
 30
0.0
 11
322.9134502872331
 21
275.4087911227457
 31
0.0
  0
LINE
  5
3B1
330
1B
100
AcDbEntity
  8
4
100
AcDbLine
 10
319.072385287233
 20
273.8177286227457
 30
0.0
 11
316.072385287233
 21
273.8177286227457
 31
0.0
  0
LINE
  5
3B2
330
1B
100
AcDbEntity
  8
4
100
AcDbLine
 10
323.1651577872332
 20
283.5677286227457
 30
0.0
 11
316.072385287233
 21
283.5677286227457
 31
0.0
  0
LINE
  5
3B3
330
1B
100
AcDbEntity
  8
4
100
AcDbLine
 10
313.072385287233
 20
279.0677286227457
 30
0.0
 11
305.572385287233
 21
279.0677286227457
 31
0.0
  0
LINE
  5
3B4
330
1B
100
AcDbEntity
  8
4
100
AcDbLine
 10
313.072385287233
 20
276.0677286227457
 30
0.0
 11
305.572385287233
 21
276.0677286227457
 31
0.0
  0
LINE
  5
3B5
330
1B
100
AcDbEntity
  8
4
100
AcDbLine
 10
305.572385287233
 20
276.0677286227457
 30
0.0
 11
305.572385287233
 21
279.0677286227457
 31
0.0
  0
LINE
  5
3B6
330
1B
100
AcDbEntity
  8
4
100
AcDbLine
 10
313.072385287233
 20
276.0677286227457
 30
0.0
 11
313.072385287233
 21
279.0677286227457
 31
0.0
  0
LINE
  5
3B7
330
1B
100
AcDbEntity
  8
4
100
AcDbLine
 10
323.8114002872331
 20
278.4402861227456
 30
0.0
 11
326.572385287233
 21
283.5677286227457
 31
0.0
  0
ARC
  5
3B8
330
1B
100
AcDbEntity
  8
4
100
AcDbCircle
 10
321.322385287233
 20
273.8177286227457
 30
0.0
 40
5.250035
100
AcDbArc
 50
180.0
 51
61.69977899999819
  0
LINE
  5
3BB
330
1B
100
AcDbEntity
  8
4
100
AcDbLine
 10
295.072385287233
 20
283.5677286227457
 30
0.0
 11
298.072385287233
 21
283.5677286227457
 31
0.0
  0
LINE
  5
3BC
330
1B
100
AcDbEntity
  8
4
100
AcDbLine
 10
295.072385287233
 20
271.5677286227457
 30
0.0
 11
298.072385287233
 21
271.5677286227457
 31
0.0
  0
LINE
  5
3BD
330
1B
100
AcDbEntity
  8
4
100
AcDbLine
 10
295.072385287233
 20
283.5677286227457
 30
0.0
 11
295.072385287233
 21
271.5677286227457
 31
0.0
  0
LINE
  5
3BE
330
1B
100
AcDbEntity
  8
4
100
AcDbLine
 10
299.572385287233
 20
273.0677286227457
 30
0.0
 11
299.572385287233
 21
282.0677286227457
 31
0.0
  0
LINE
  5
3BF
330
1B
100
AcDbEntity
  8
4
100
AcDbLine
 10
302.572385287233
 20
271.5677286227457
 30
0.0
 11
302.572385287233
 21
283.5677286227457
 31
0.0
  0
ARC
  5
3C0
330
1B
100
AcDbEntity
  8
4
100
AcDbCircle
 10
298.072385287233
 20
273.0677286227457
 30
0.0
 40
1.5
100
AcDbArc
 50
270.0
 51
0.0
  0
LINE
  5
3C1
330
1B
100
AcDbEntity
  8
4
100
AcDbLine
 10
281.572385287233
 20
271.5677286227457
 30
0.0
 11
289.072385287233
 21
271.5677286227457
 31
0.0
  0
LINE
  5
3C2
330
1B
100
AcDbEntity
  8
4
100
AcDbLine
 10
292.072385287233
 20
268.5677286227457
 30
0.0
 11
299.572385287233
 21
268.5677286227457
 31
0.0
  0
LINE
  5
3C3
330
1B
100
AcDbEntity
  8
4
100
AcDbLine
 10
289.072385287233
 20
271.5677286227457
 30
0.0
 11
289.072385287233
 21
268.5677286227457
 31
0.0
  0
LINE
  5
3C4
330
1B
100
AcDbEntity
  8
4
100
AcDbLine
 10
278.572385287233
 20
268.5677286227457
 30
0.0
 11
289.072385287233
 21
268.5677286227457
 31
0.0
  0
LINE
  5
3C8
330
1B
100
AcDbEntity
  8
4
100
AcDbLine
 10
329.572385287233
 20
265.5677286227457
 30
0.0
 11
275.572385287233
 21
265.5677286227457
 31
0.0
  0
ARC
  5
3C9
330
1B
100
AcDbEntity
  8
4
100
AcDbCircle
 10
299.572385287233
 20
271.5677286227457
 30
0.0
 40
3.0
100
AcDbArc
 50
270.0
 51
0.0
  0
LINE
  5
3CA
330
1B
100
AcDbEntity
  8
4
100
AcDbLine
 10
315.562620287233
 20
120.9253936227457
 30
0.0
 11
315.562620287233
 21
135.9253936227457
 31
0.0
  0
LINE
  5
3CB
330
1B
100
AcDbEntity
  8
2
100
AcDbLine
 10
307.071675287233
 20
63.02318362274571
 30
0.0
 11
307.071675287233
 21
57.82760362274564
 31
0.0
  0
LINE
  5
3CC
330
1B
100
AcDbEntity
  8
4
100
AcDbLine
 10
289.581907787233
 20
120.9253936227457
 30
0.0
 11
302.572385287233
 21
113.4253936227457
 31
0.0
  0
LINE
  5
3CD
330
1B
100
AcDbEntity
  8
4
100
AcDbLine
 10
289.581907787233
 20
120.9253936227457
 30
0.0
 11
289.581907787233
 21
135.9253936227457
 31
0.0
  0
LINE
  5
3CE
330
1B
100
AcDbEntity
  8
4
100
AcDbLine
 10
302.572385287233
 20
143.4253936227457
 30
0.0
 11
289.581907787233
 21
135.9253936227457
 31
0.0
  0
LINE
  5
3CF
330
1B
100
AcDbEntity
  8
2
100
AcDbLine
 10
298.0730952872331
 20
63.02318362274571
 30
0.0
 11
298.0730952872331
 21
57.82760362274564
 31
0.0
  0
LINE
  5
3D0
330
1B
100
AcDbEntity
  8
2
100
AcDbLine
 10
298.0730952872331
 20
57.82760362274564
 30
0.0
 11
302.572385287233
 21
55.22999112274567
 31
0.0
  0
LINE
  5
3D1
330
1B
100
AcDbEntity
  8
2
100
AcDbLine
 10
302.572385287233
 20
65.62079612274567
 30
0.0
 11
298.0730952872331
 21
63.02318362274571
 31
0.0
  0
LINE
  5
3D2
330
1B
100
AcDbEntity
  8
L-CENTER
100
AcDbLine
 10
319.3181266669745
 20
60.42539362274567
 30
0.0
 11
285.8266439074915
 21
60.42539362274567
 31
0.0
  0
CIRCLE
  5
3D3
330
1B
100
AcDbEntity
  8
4
100
AcDbCircle
 10
302.572385287233
 20
60.42539362274567
 30
0.0
 40
7.3500975
  0
CIRCLE
  5
3D4
330
1B
100
AcDbEntity
  8
2
100
AcDbCircle
 10
302.572385287233
 20
60.42539362274567
 30
0.0
 40
6.3500975
  0
LINE
  5
3D5
330
1B
100
AcDbEntity
  8
2
100
AcDbLine
 10
307.071675287233
 20
57.82760362274564
 30
0.0
 11
302.572385287233
 21
55.22999112274567
 31
0.0
  0
LINE
  5
3D6
330
1B
100
AcDbEntity
  8
2
100
AcDbLine
 10
302.572385287233
 20
65.62079612274567
 30
0.0
 11
307.071675287233
 21
63.02318362274571
 31
0.0
  0
CIRCLE
  5
3D7
330
1B
100
AcDbEntity
  8
4
100
AcDbCircle
 10
302.572385287233
 20
128.4253936227457
 30
0.0
 40
15.0
  0
CIRCLE
  5
3D8
330
1B
100
AcDbEntity
  8
4
100
AcDbCircle
 10
302.572385287233
 20
128.4253936227457
 30
0.0
 40
16.0
  0
LINE
  5
3D9
330
1B
100
AcDbEntity
  8
L-CENTER
100
AcDbLine
 10
324.85027704267
 20
128.4253936227457
 30
0.0
 11
280.2944935317961
 21
128.4253936227457
 31
0.0
  0
LINE
  5
3DA
330
1B
100
AcDbEntity
  8
4
100
AcDbLine
 10
315.562620287233
 20
135.9253936227457
 30
0.0
 11
302.572385287233
 21
143.4253936227457
 31
0.0
  0
LINE
  5
3DB
330
1B
100
AcDbEntity
  8
4
100
AcDbLine
 10
302.572385287233
 20
113.4253936227457
 30
0.0
 11
315.562620287233
 21
120.9253936227457
 31
0.0
  0
CIRCLE
  5
3DC
330
1B
100
AcDbEntity
  8
4
100
AcDbCircle
 10
274.100460287233
 20
199.4253936227457
 30
0.0
 40
40.0
  0
CIRCLE
  5
3DD
330
1B
100
AcDbEntity
  8
4
100
AcDbCircle
 10
274.100460287233
 20
199.4253936227457
 30
0.0
 40
49.0
  0
LINE
  5
3DE
330
1B
100
AcDbEntity
  8
L-CENTER
100
AcDbLine
 10
274.100460287233
 20
255.1644086227457
 30
0.0
 11
274.100460287233
 21
143.6863786227457
 31
0.0
  0
LINE
  5
3DF
330
1B
100
AcDbEntity
  8
L-CENTER
100
AcDbLine
 10
368.572385287233
 20
255.2772519607963
 30
0.0
 11
368.572385287233
 21
163.573535284695
 31
0.0
  0
CIRCLE
  5
3E0
330
1B
100
AcDbEntity
  8
4
100
AcDbCircle
 10
368.572385287233
 20
209.4253936227457
 30
0.0
 40
31.0
  0
CIRCLE
  5
3E1
330
1B
100
AcDbEntity
  8
4
100
AcDbCircle
 10
368.572385287233
 20
209.4253936227457
 30
0.0
 40
39.0
  0
ARC
  5
3E2
330
1B
100
AcDbEntity
  8
4
100
AcDbCircle
 10
302.5721402872331
 20
536.4253936227457
 30
0.0
 40
400.0000375
100
AcDbArc
 50
271.965836
 51
284.866045
  0
LINE
  5
3E3
330
1B
100
AcDbEntity
  8
4
100
AcDbLine
 10
385.7667202872332
 20
92.14902612274568
 30
0.0
 11
452.572385287233
 21
92.14902612274568
 31
0.0
  0
LINE
  5
3E4
330
1B
100
AcDbEntity
  8
4
100
AcDbLine
 10
382.572385287233
 20
59.42539362274567
 30
0.0
 11
452.572385287233
 21
59.42539362274567
 31
0.0
  0
LINE
  5
3E5
330
1B
100
AcDbEntity
  8
L-CENTER
100
AcDbLine
 10
414.4242436252836
 20
209.4253936227457
 30
0.0
 11
322.7205269491825
 21
209.4253936227457
 31
0.0
  0
LINE
  5
3E9
330
1B
100
AcDbEntity
  8
4
100
AcDbLine
 10
278.572385287233
 20
286.5677286227457
 30
0.0
 11
278.572385287233
 21
268.5677286227457
 31
0.0
  0
LINE
  5
3EA
330
1B
100
AcDbEntity
  8
4
100
AcDbLine
 10
275.572385287233
 20
265.5677286227457
 30
0.0
 11
275.572385287233
 21
289.5677286227457
 31
0.0
  0
LINE
  5
3EB
330
1B
100
AcDbEntity
  8
4
100
AcDbLine
 10
292.072385287233
 20
286.5677286227457
 30
0.0
 11
292.072385287233
 21
268.5677286227457
 31
0.0
  0
LINE
  5
3EC
330
1B
100
AcDbEntity
  8
4
100
AcDbLine
 10
281.572385287233
 20
286.5677286227457
 30
0.0
 11
281.572385287233
 21
271.5677286227457
 31
0.0
  0
LINE
  5
3ED
330
1B
100
AcDbEntity
  8
4
100
AcDbLine
 10
329.572385287233
 20
289.5677286227457
 30
0.0
 11
329.572385287233
 21
265.5677286227457
 31
0.0
  0
ARC
  5
3EE
330
1B
100
AcDbEntity
  8
4
100
AcDbCircle
 10
299.572385287233
 20
283.5677286227457
 30
0.0
 40
3.0
100
AcDbArc
 50
0.0
 51
90.0
  0
ARC
  5
3EF
330
1B
100
AcDbEntity
  8
4
100
AcDbCircle
 10
298.072385287233
 20
282.0677286227457
 30
0.0
 40
1.5
100
AcDbArc
 50
0.0
 51
90.0
  0
LINE
  5
3F0
330
1B
100
AcDbEntity
  8
4
100
AcDbLine
 10
326.572385287233
 20
283.5677286227457
 30
0.0
 11
326.572385287233
 21
286.5677286227457
 31
0.0
  0
LINE
  5
3F1
330
1B
100
AcDbEntity
  8
4
100
AcDbLine
 10
316.072385287233
 20
286.5677286227457
 30
0.0
 11
316.072385287233
 21
283.5677286227457
 31
0.0
  0
ARC
  5
3F2
330
1B
100
AcDbEntity
  8
4
100
AcDbCircle
 10
-247.427614712767
 20
189.3934111227456
 30
0.0
 40
699.999955
100
AcDbArc
 50
0.0026179999598473
 51
9.413001000000031
  0
ARC
  5
3F3
330
1B
100
AcDbEntity
  8
4
100
AcDbCircle
 10
166.9305402872329
 20
303.0604036227456
 30
0.0
 40
4.9999875
100
AcDbArc
 50
101.2546859999973
 51
170.5884410000001
  0
ARC
  5
3F4
330
1B
100
AcDbEntity
  8
4
100
AcDbCircle
 10
149.572582787233
 20
159.4253936227457
 30
0.0
 40
3.0
100
AcDbArc
 50
270.0
 51
0.0
  0
LINE
  5
3F5
330
1B
100
AcDbEntity
  8
4
100
AcDbLine
 10
141.572582787233
 20
145.4253936227457
 30
0.0
 11
142.572582787233
 21
145.4253936227457
 31
0.0
  0
LINE
  5
3F6
330
1B
100
AcDbEntity
  8
4
100
AcDbLine
 10
142.572582787233
 20
156.4253936227457
 30
0.0
 11
149.572582787233
 21
156.4253936227457
 31
0.0
  0
LINE
  5
3F7
330
1B
100
AcDbEntity
  8
4
100
AcDbLine
 10
152.572582787233
 20
146.7017611227457
 30
0.0
 11
181.912960287233
 21
146.7017611227457
 31
0.0
  0
ARC
  5
3F8
330
1B
100
AcDbEntity
  8
4
100
AcDbCircle
 10
149.572582787233
 20
79.42539362274567
 30
0.0
 40
3.0
100
AcDbArc
 50
0.0
 51
90.0
  0
LINE
  5
3F9
330
1B
100
AcDbEntity
  8
4
100
AcDbLine
 10
141.572582787233
 20
93.42539362274567
 30
0.0
 11
142.572582787233
 21
93.42539362274567
 31
0.0
  0
LINE
  5
3FA
330
1B
100
AcDbEntity
  8
4
100
AcDbLine
 10
142.572582787233
 20
82.42539362274567
 30
0.0
 11
149.572582787233
 21
82.42539362274567
 31
0.0
  0
LINE
  5
3FB
330
1B
100
AcDbEntity
  8
4
100
AcDbLine
 10
141.572582787233
 20
145.4253936227457
 30
0.0
 11
141.572582787233
 21
93.42539362274567
 31
0.0
  0
LINE
  5
3FC
330
1B
100
AcDbEntity
  8
4
100
AcDbLine
 10
142.572582787233
 20
156.4253936227457
 30
0.0
 11
142.572582787233
 21
82.42539362274567
 31
0.0
  0
LINE
  5
3FD
330
1B
100
AcDbEntity
  8
4
100
AcDbLine
 10
152.572582787233
 20
189.4253936227457
 30
0.0
 11
152.572582787233
 21
59.42539362274567
 31
0.0
  0
ARC
  5
3FE
330
1B
100
AcDbEntity
  8
4
100
AcDbCircle
 10
852.572385287233
 20
189.3934111227456
 30
0.0
 40
699.999995
100
AcDbArc
 50
170.587364
 51
179.9976619996773
  0
ARC
  5
3FF
330
1B
100
AcDbEntity
  8
4
100
AcDbCircle
 10
302.572385287233
 20
189.4253936227457
 30
0.0
 40
127.999985
100
AcDbArc
 50
276.230032
 51
263.770755
  0
CIRCLE
  5
400
330
1B
100
AcDbEntity
  8
4
100
AcDbCircle
 10
302.572385287233
 20
189.4253936227457
 30
0.0
 40
110.0
  0
LINE
  5
401
330
1B
100
AcDbEntity
  8
L-CENTER
100
AcDbLine
 10
525.4653344304387
 20
119.4253936227457
 30
0.0
 11
79.67943614402736
 21
119.4253936227457
 31
0.0
  0
LINE
  5
402
330
1B
100
AcDbEntity
  8
4
100
AcDbLine
 10
152.572582787233
 20
92.14902612274568
 30
0.0
 11
219.3780502872329
 21
92.14902612274568
 31
0.0
  0
LINE
  5
403
330
1B
100
AcDbEntity
  8
4
100
AcDbLine
 10
152.572582787233
 20
59.42539362274567
 30
0.0
 11
222.572385287233
 21
59.42539362274567
 31
0.0
  0
ARC
  5
404
330
1B
100
AcDbEntity
  8
4
100
AcDbCircle
 10
302.5721402872331
 20
536.4253936227457
 30
0.0
 40
400.00008
100
AcDbArc
 50
255.134998
 51
268.0352
  0
ARC
  5
405
330
1B
100
AcDbEntity
  8
4
100
AcDbCircle
 10
302.572385287233
 20
-378.5744238772544
 30
0.0
 40
699.9999425
100
AcDbArc
 50
78.745476
 51
101.254605
  0
ARC
  5
406
330
1B
100
AcDbEntity
  8
4
100
AcDbCircle
 10
302.572385287233
 20
-137.5744238772543
 30
0.0
 40
399.9999825
100
AcDbArc
 50
76.93573899999998
 51
103.06433
  0
LINE
  5
407
330
1B
100
AcDbEntity
  8
L-CENTER
100
AcDbLine
 10
458.697072787233
 20
189.4253936227457
 30
0.0
 11
146.4476977872331
 21
189.4253936227457
 31
0.0
  0
LINE
  5
408
330
1B
100
AcDbEntity
  8
L-CENTER
100
AcDbLine
 10
329.8394752872329
 20
199.4253936227457
 30
0.0
 11
218.3614452872331
 21
199.4253936227457
 31
0.0
  0
LINE
  5
40F
330
1B
100
AcDbEntity
  8
4
100
AcDbLine
 10
382.572385287233
 20
44.42539362274567
 30
0.0
 11
222.572385287233
 21
44.42539362274567
 31
0.0
  0
LINE
  5
434
330
1B
100
AcDbEntity
  8
4
100
AcDbLine
 10
382.572385287233
 20
39.42539362274567
 30
0.0
 11
452.572385287233
 21
39.42539362274567
 31
0.0
  0
LINE
  5
460
330
1B
100
AcDbEntity
  8
4
100
AcDbLine
 10
152.572582787233
 20
39.42539362274567
 30
0.0
 11
222.572385287233
 21
39.42539362274567
 31
0.0
  0
LINE
  5
461
330
1B
100
AcDbEntity
  8
4
100
AcDbLine
 10
452.572385287233
 20
189.4253936227457
 30
0.0
 11
452.572385287233
 21
39.42539362274567
 31
0.0
  0
LINE
  5
462
330
1B
100
AcDbEntity
  8
L-CENTER
100
AcDbLine
 10
302.572385287233
 20
335.1391111227457
 30
0.0
 11
302.572385287233
 21
37.03432612274571
 31
0.0
  0
LINE
  5
464
330
1B
100
AcDbEntity
  8
4
100
AcDbLine
 10
152.572582787233
 20
59.42539362274567
 30
0.0
 11
152.572582787233
 21
39.42539362274567
 31
0.0
  0
LINE
  5
465
330
1B
100
AcDbEntity
  8
4
100
AcDbLine
 10
202.572385287233
 20
59.42539362274567
 30
0.0
 11
202.572385287233
 21
39.42539362274567
 31
0.0
  0
LINE
  5
466
330
1B
100
AcDbEntity
  8
L-CENTER
100
AcDbLine
 10
177.572385287233
 20
69.42539362274567
 30
0.0
 11
177.572385287233
 21
29.42539362274567
 31
0.0
  0
ARC
  5
467
330
1B
100
AcDbEntity
  8
4
100
AcDbCircle
 10
302.572385287233
 20
60.42539362274567
 30
0.0
 40
14.0
100
AcDbArc
 50
172.7952019999999
 51
7.204798000000081
  0
LINE
  5
468
330
1B
100
AcDbEntity
  8
4
100
AcDbLine
 10
222.572385287233
 20
59.42539362274567
 30
0.0
 11
222.572385287233
 21
39.42539362274567
 31
0.0
  0
LINE
  5
469
330
1B
100
AcDbEntity
  8
4
100
AcDbLine
 10
382.572385287233
 20
59.42539362274567
 30
0.0
 11
382.572385287233
 21
39.42539362274567
 31
0.0
  0
LINE
  5
46A
330
1B
100
AcDbEntity
  8
4
100
AcDbLine
 10
402.572385287233
 20
59.42539362274567
 30
0.0
 11
402.572385287233
 21
39.42539362274567
 31
0.0
  0
LINE
  5
46B
330
1B
100
AcDbEntity
  8
L-CENTER
100
AcDbLine
 10
427.572385287233
 20
69.42539362274567
 30
0.0
 11
427.572385287233
 21
29.42539362274567
 31
0.0
  0
LINE
  5
492
330
1B
100
AcDbEntity
  8
4
100
AcDbLine
 10
132.572385287233
 20
107.9253936227457
 30
0.0
 11
83.57238528723303
 21
107.9253936227457
 31
0.0
  0
LINE
  5
493
330
1B
100
AcDbEntity
  8
4
100
AcDbLine
 10
132.572385287233
 20
130.9253936227457
 30
0.0
 11
83.57238528723303
 21
130.9253936227457
 31
0.0
  0
LINE
  5
494
330
1B
100
AcDbEntity
  8
4
100
AcDbLine
 10
82.57238528723303
 20
133.9253936227457
 30
0.0
 11
127.572385287233
 21
133.9253936227457
 31
0.0
  0
LINE
  5
495
330
1B
100
AcDbEntity
  8
4
100
AcDbLine
 10
132.572385287233
 20
131.9253936227457
 30
0.0
 11
132.572385287233
 21
106.9253936227457
 31
0.0
  0
LINE
  5
496
330
1B
100
AcDbEntity
  8
4
100
AcDbLine
 10
141.572385287233
 20
106.9253936227457
 30
0.0
 11
132.572385287233
 21
106.9253936227457
 31
0.0
  0
LINE
  5
497
330
1B
100
AcDbEntity
  8
4
100
AcDbLine
 10
132.572385287233
 20
131.9253936227457
 30
0.0
 11
141.572385287233
 21
131.9253936227457
 31
0.0
  0
LINE
  5
498
330
1B
100
AcDbEntity
  8
4
100
AcDbLine
 10
127.572385287233
 20
133.9253936227457
 30
0.0
 11
127.572385287233
 21
130.9253936227457
 31
0.0
  0
LINE
  5
499
330
1B
100
AcDbEntity
  8
4
100
AcDbLine
 10
83.57238528723303
 20
107.9253936227457
 30
0.0
 11
82.57238528723303
 21
108.9253936227457
 31
0.0
  0
LINE
  5
49A
330
1B
100
AcDbEntity
  8
4
100
AcDbLine
 10
83.57238528723303
 20
130.9253936227457
 30
0.0
 11
83.57238528723303
 21
107.9253936227457
 31
0.0
  0
LINE
  5
49B
330
1B
100
AcDbEntity
  8
4
100
AcDbLine
 10
82.57238528723303
 20
133.9253936227457
 30
0.0
 11
82.57238528723303
 21
108.9253936227457
 31
0.0
  0
LINE
  5
49C
330
1B
100
AcDbEntity
  8
4
100
AcDbLine
 10
82.57238528723303
 20
129.9253936227457
 30
0.0
 11
83.57238528723303
 21
130.9253936227457
 31
0.0
  0
LINE
  5
4A3
330
1B
100
AcDbEntity
  8
4
100
AcDbLine
 10
82.57238528723303
 20
570.0948499424114
 30
0.0
 11
124.072385287233
 21
570.0948499424114
 31
0.0
  0
LINE
  5
4A4
330
1B
100
AcDbEntity
  8
4
100
AcDbLine
 10
82.57238528723303
 20
577.0948499424114
 30
0.0
 11
124.072385287233
 21
577.0948499424114
 31
0.0
  0
LINE
  5
4A5
330
1B
100
AcDbEntity
  8
4
100
AcDbLine
 10
83.57238528723303
 20
585.0948499424114
 30
0.0
 11
131.572385287233
 21
585.0948499424114
 31
0.0
  0
LINE
  5
4A6
330
1B
100
AcDbEntity
  8
4
100
AcDbLine
 10
83.57238528723303
 20
562.0948499424114
 30
0.0
 11
131.572385287233
 21
562.0948499424114
 31
0.0
  0
ARC
  5
4A7
330
1B
100
AcDbEntity
  8
4
100
AcDbCircle
 10
124.072385287233
 20
573.5948499424114
 30
0.0
 40
3.5
100
AcDbArc
 50
270.0
 51
90.0
  0
LINE
  5
4A8
330
1B
100
AcDbEntity
  8
4
100
AcDbLine
 10
132.572385287233
 20
586.0948499424114
 30
0.0
 11
132.572385287233
 21
561.0948499424114
 31
0.0
  0
ARC
  5
4A9
330
1B
100
AcDbEntity
  8
4
100
AcDbCircle
 10
131.572385287233
 20
561.0948499424114
 30
0.0
 40
1.0
100
AcDbArc
 50
0.0
 51
90.0
  0
ARC
  5
4AA
330
1B
100
AcDbEntity
  8
4
100
AcDbCircle
 10
131.572385287233
 20
586.0948499424114
 30
0.0
 40
1.0
100
AcDbArc
 50
270.0
 51
0.0
  0
LINE
  5
4AB
330
1B
100
AcDbEntity
  8
4
100
AcDbLine
 10
82.57238528723303
 20
584.0948499424114
 30
0.0
 11
82.57238528723303
 21
563.0948499424114
 31
0.0
  0
LINE
  5
4AC
330
1B
100
AcDbEntity
  8
4
100
AcDbLine
 10
83.57238528723303
 20
562.0948499424114
 30
0.0
 11
82.57238528723303
 21
563.0948499424114
 31
0.0
  0
LINE
  5
4AD
330
1B
100
AcDbEntity
  8
4
100
AcDbLine
 10
83.57238528723303
 20
570.0948499424114
 30
0.0
 11
83.57238528723303
 21
562.0948499424114
 31
0.0
  0
LINE
  5
4AE
330
1B
100
AcDbEntity
  8
4
100
AcDbLine
 10
83.57238528723303
 20
585.0948499424114
 30
0.0
 11
82.57238528723303
 21
584.0948499424114
 31
0.0
  0
LINE
  5
4AF
330
1B
100
AcDbEntity
  8
4
100
AcDbLine
 10
83.57238528723303
 20
585.0948499424114
 30
0.0
 11
83.57238528723303
 21
577.0948499424114
 31
0.0
  0
LINE
  5
4B0
330
1B
100
AcDbEntity
  8
4
100
AcDbLine
 10
132.572385287233
 20
586.0948499424114
 30
0.0
 11
141.572385287233
 21
586.0948499424115
 31
0.0
  0
LINE
  5
4B1
330
1B
100
AcDbEntity
  8
4
100
AcDbLine
 10
132.572385287233
 20
561.0948499424114
 30
0.0
 11
141.572385287233
 21
561.0948499424115
 31
0.0
  0
ARC
  5
4CC
330
1B
100
AcDbEntity
  8
4
100
AcDbCircle
 10
274.100460287233
 20
199.4253936227457
 30
0.0
 40
17.999945
100
AcDbArc
 50
106.127670836246
 51
73.87228000000023
  0
LINE
  5
4CD
330
1B
100
AcDbEntity
  8
4
100
AcDbLine
 10
279.100460287233
 20
220.9253936227457
 30
0.0
 11
269.100460287233
 21
220.9253936227457
 31
0.0
  0
LINE
  5
4CE
330
1B
100
AcDbEntity
  8
4
100
AcDbLine
 10
279.100460287233
 20
212.9253936227457
 30
0.0
 11
269.100460287233
 21
212.9253936227457
 31
0.0
  0
LINE
  5
4CF
330
1B
100
AcDbEntity
  8
4
100
AcDbLine
 10
269.100460287233
 20
212.9253936227457
 30
0.0
 11
269.100460287233
 21
220.9253936227457
 31
0.0
  0
LINE
  5
4D0
330
1B
100
AcDbEntity
  8
4
100
AcDbLine
 10
279.100460287233
 20
220.9253936227457
 30
0.0
 11
279.100460287233
 21
212.9253936227457
 31
0.0
  0
LINE
  5
4D1
330
1B
100
AcDbEntity
  8
4
100
AcDbLine
 10
667.0563737312024
 20
217.4253936227457
 30
0.0
 11
598.0563737312024
 21
217.4253936227457
 31
0.0
  0
LINE
  5
4D2
330
1B
100
AcDbEntity
  8
4
100
AcDbLine
 10
597.0563737312024
 20
220.9253936227457
 30
0.0
 11
662.0563737312024
 21
220.9253936227457
 31
0.0
  0
LINE
  5
4D3
330
1B
100
AcDbEntity
  8
4
100
AcDbLine
 10
667.0563737312024
 20
181.4253936227457
 30
0.0
 11
598.0563737312024
 21
181.4253936227457
 31
0.0
  0
LINE
  5
4D4
330
1B
100
AcDbEntity
  8
4
100
AcDbLine
 10
667.0563737312024
 20
219.4253936227457
 30
0.0
 11
679.9565187312024
 21
219.4253936227457
 31
0.0
  0
LINE
  5
4D5
330
1B
100
AcDbEntity
  8
4
100
AcDbLine
 10
679.9565187312024
 20
179.4253936227457
 30
0.0
 11
667.0563737312024
 21
179.4253936227457
 31
0.0
  0
LINE
  5
4D6
330
1B
100
AcDbEntity
  8
4
100
AcDbLine
 10
667.0563737312024
 20
219.4253936227457
 30
0.0
 11
667.0563737312024
 21
179.4253936227457
 31
0.0
  0
LINE
  5
4D7
330
1B
100
AcDbEntity
  8
4
100
AcDbLine
 10
662.0563737312024
 20
220.9253936227457
 30
0.0
 11
662.0563737312024
 21
217.4253936227457
 31
0.0
  0
LINE
  5
4D8
330
1B
100
AcDbEntity
  8
4
100
AcDbLine
 10
598.0563737312024
 20
217.4253936227457
 30
0.0
 11
598.0563737312024
 21
181.4253936227457
 31
0.0
  0
LINE
  5
4D9
330
1B
100
AcDbEntity
  8
4
100
AcDbLine
 10
597.0563737312024
 20
220.9253936227457
 30
0.0
 11
597.0563737312024
 21
182.4253936227457
 31
0.0
  0
LINE
  5
4DA
330
1B
100
AcDbEntity
  8
4
100
AcDbLine
 10
598.0563737312024
 20
181.4253936227457
 30
0.0
 11
597.0563737312024
 21
182.4253936227457
 31
0.0
  0
LINE
  5
4DB
330
1B
100
AcDbEntity
  8
4
100
AcDbLine
 10
597.0563737312024
 20
216.4253936227457
 30
0.0
 11
598.0563737312024
 21
217.4253936227457
 31
0.0
  0
LINE
  5
4E2
330
1B
100
AcDbEntity
  8
4
100
AcDbLine
 10
279.1001671487771
 20
498.5948499424115
 30
0.0
 11
279.1001671487771
 21
438.5948499424115
 31
0.0
  0
LINE
  5
4E3
330
1B
100
AcDbEntity
  8
4
100
AcDbLine
 10
269.1001671487771
 20
498.5948499424115
 30
0.0
 11
269.1001671487771
 21
438.5948499424115
 31
0.0
  0
LINE
  5
4E4
330
1B
100
AcDbEntity
  8
4
100
AcDbLine
 10
292.1001671487771
 20
507.5948499424115
 30
0.0
 11
292.1001671487771
 21
439.5948499424115
 31
0.0
  0
LINE
  5
4E5
330
1B
100
AcDbEntity
  8
4
100
AcDbLine
 10
256.1001671487771
 20
507.5948499424115
 30
0.0
 11
256.1001671487771
 21
439.5948499424115
 31
0.0
  0
LINE
  5
4E6
330
1B
100
AcDbEntity
  8
4
100
AcDbLine
 10
254.1001671487771
 20
508.5948499424115
 30
0.0
 11
294.1001671487771
 21
508.5948499424115
 31
0.0
  0
ARC
  5
4E7
330
1B
100
AcDbEntity
  8
4
100
AcDbCircle
 10
274.1001671487771
 20
498.5948499424114
 30
0.0
 40
5.0
100
AcDbArc
 50
0.0
 51
90.0
  0
ARC
  5
4E8
330
1B
100
AcDbEntity
  8
4
100
AcDbCircle
 10
293.1001671487771
 20
507.5948499424114
 30
0.0
 40
1.0
100
AcDbArc
 50
90.0
 51
180.0
  0
LINE
  5
4E9
330
1B
100
AcDbEntity
  8
4
100
AcDbLine
 10
274.1001671487771
 20
503.5948499424115
 30
0.0
 11
274.1001671487771
 21
503.5948499424115
 31
0.0
  0
ARC
  5
4EA
330
1B
100
AcDbEntity
  8
4
100
AcDbCircle
 10
274.1001671487771
 20
498.5948499424114
 30
0.0
 40
5.0
100
AcDbArc
 50
90.0
 51
180.0
  0
ARC
  5
4EB
330
1B
100
AcDbEntity
  8
4
100
AcDbCircle
 10
255.1001671487771
 20
507.5948499424114
 30
0.0
 40
1.0
100
AcDbArc
 50
0.0
 51
90.0
  0
LINE
  5
4EC
330
1B
100
AcDbEntity
  8
4
100
AcDbLine
 10
257.1001671487771
 20
438.5948499424115
 30
0.0
 11
291.1001671487771
 21
438.5948499424115
 31
0.0
  0
LINE
  5
4ED
330
1B
100
AcDbEntity
  8
4
100
AcDbLine
 10
291.1001671487771
 20
438.5948499424115
 30
0.0
 11
292.1001671487771
 21
439.5948499424115
 31
0.0
  0
LINE
  5
4EE
330
1B
100
AcDbEntity
  8
4
100
AcDbLine
 10
279.1001671487771
 20
439.5948499424115
 30
0.0
 11
292.1001671487771
 21
439.5948499424115
 31
0.0
  0
LINE
  5
4EF
330
1B
100
AcDbEntity
  8
4
100
AcDbLine
 10
256.1001671487771
 20
439.5948499424115
 30
0.0
 11
269.1001671487771
 21
439.5948499424115
 31
0.0
  0
LINE
  5
4F0
330
1B
100
AcDbEntity
  8
4
100
AcDbLine
 10
256.1001671487771
 20
439.5948499424115
 30
0.0
 11
257.1001671487771
 21
438.5948499424115
 31
0.0
  0
LINE
  5
4F1
330
1B
100
AcDbEntity
  8
4
100
AcDbLine
 10
254.1001671487771
 20
521.5948499424117
 30
0.0
 11
254.1001671487771
 21
508.5948499424115
 31
0.0
  0
LINE
  5
4F2
330
1B
100
AcDbEntity
  8
4
100
AcDbLine
 10
294.1001671487771
 20
521.5948499424115
 30
0.0
 11
294.1001671487771
 21
508.5948499424115
 31
0.0
  0
ENDSEC
  0
SECTION
  2
OBJECTS
  0
DICTIONARY
  5
9
330
0
100
AcDbDictionary
281
     1
  3
ACAD_COLOR
350
2E
  3
ACAD_GROUP
350
2C
  3
ACAD_LAYOUT
350
24
  3
ACAD_MATERIAL
350
B
  3
ACAD_MLEADERSTYLE
350
471
  3
ACAD_MLINESTYLE
350
19
  3
ACAD_PLOTSETTINGS
350
2D
  3
ACAD_PLOTSTYLENAME
350
8
  3
ACAD_SCALELIST
350
34
  3
ACAD_VISUALSTYLE
350
2F
  3
ACDBHEADERROUNDTRIPXREC
350
52E
  3
AcDbVariableDictionary
350
46E
  3
DWGPROPS
350
531
  0
DICTIONARY
  5
532
330
2B
100
AcDbDictionary
280
     1
281
     1
  3
ACAD_XREC_ROUNDTRIP
360
533
  0
DICTIONARY
  5
3
330
2
100
AcDbDictionary
280
     1
281
     1
  3
ACAD_LAYERSTATES
360
4
  0
DICTIONARY
  5
20
330
1F
100
AcDbDictionary
280
     1
281
     1
  3
ADSK_XREC_LAYER_RECONCILED
360
21
  0
DICTIONARY
  5
76
330
75
100
AcDbDictionary
280
     1
281
     1
  3
ADSK_XREC_LAYER_RECONCILED
360
77
  0
DICTIONARY
  5
5
330
1
100
AcDbDictionary
280
     1
281
     1
  3
ADSK_XREC_LAYER_RECONCILED
360
6
  0
DICTIONARY
  5
69
330
68
100
AcDbDictionary
280
     1
281
     1
  3
ADSK_XREC_LAYER_RECONCILED
360
6A
  0
DICTIONARY
  5
5A
330
59
100
AcDbDictionary
280
     1
281
     1
  3
ADSK_XREC_LAYER_RECONCILED
360
5B
  0
DICTIONARY
  5
64
330
63
100
AcDbDictionary
280
     1
281
     1
  3
ADSK_XREC_LAYER_RECONCILED
360
65
  0
DICTIONARY
  5
1C
330
1B
100
AcDbDictionary
280
     1
281
     1
  3
ACAD_SORTENTS
360
1D
  0
DICTIONARY
  5
2E
102
{ACAD_REACTORS
330
9
102
}
330
9
100
AcDbDictionary
281
     1
  0
DICTIONARY
  5
2C
102
{ACAD_REACTORS
330
9
102
}
330
9
100
AcDbDictionary
281
     1
  0
DICTIONARY
  5
24
102
{ACAD_REACTORS
330
9
102
}
330
9
100
AcDbDictionary
281
     1
  3
Model
350
23
  3
ﾚｲｱｳﾄ1
350
28
  0
DICTIONARY
  5
B
102
{ACAD_REACTORS
330
9
102
}
330
9
100
AcDbDictionary
281
     1
  3
ByBlock
350
57
  3
ByLayer
350
14
  3
Global
350
A
  0
DICTIONARY
  5
471
102
{ACAD_REACTORS
330
9
102
}
330
9
100
AcDbDictionary
281
     1
  3
Standard
350
48D
  0
DICTIONARY
  5
19
102
{ACAD_REACTORS
330
9
102
}
330
9
100
AcDbDictionary
281
     1
  3
STANDARD
350
18
  0
DICTIONARY
  5
2D
102
{ACAD_REACTORS
330
9
102
}
330
9
100
AcDbDictionary
281
     1
  0
ACDBDICTIONARYWDFLT
  5
8
102
{ACAD_REACTORS
330
9
102
}
330
9
100
AcDbDictionary
281
     1
  3
Normal
350
7
100
AcDbDictionaryWithDefault
340
7
  0
DICTIONARY
  5
34
102
{ACAD_REACTORS
330
9
102
}
330
9
100
AcDbDictionary
281
     1
  3
*A1
350
56
  0
DICTIONARY
  5
2F
102
{ACAD_REACTORS
330
9
102
}
330
9
100
AcDbDictionary
281
     1
  3
2dWireframe
350
31
  3
Basic
350
47B
  3
Brighten
350
47F
  3
ColorChange
350
483
  3
Conceptual
350
47D
  3
Dim
350
47E
  3
EdgeColorOff
350
486
  3
Facepattern
350
482
  3
Flat
350
475
  3
FlatWithEdges
350
476
  3
Gouraud
350
477
  3
GouraudWithEdges
350
478
  3
Hidden
350
47A
  3
JitterOff
350
484
  3
Linepattern
350
481
  3
OverhangOff
350
485
  3
Realistic
350
47C
  3
Shaded
350
48B
  3
Shaded with edges
350
48A
  3
Shades of Gray
350
487
  3
Sketchy
350
488
  3
Thicken
350
480
  3
Wireframe
350
479
  3
X-Ray
350
489
  0
DICTIONARY
  5
52E
102
{ACAD_REACTORS
330
9
102
}
330
9
100
AcDbDictionary
281
     1
  3
COLORDICT
350
52F
  3
MATERIALDICT
350
530
  0
DICTIONARY
  5
46E
102
{ACAD_REACTORS
330
9
102
}
330
9
100
AcDbDictionary
281
     1
  3
CANNOSCALE
350
46F
  3
CMLEADERSTYLE
350
48F
  3
DIMASSOC
350
52C
  3
HIDETEXT
350
52D
  3
MSLTSCALE
350
534
  3
XCLIPFRAME
350
472
  0
XRECORD
  5
531
102
{ACAD_REACTORS
330
9
102
}
330
9
100
AcDbXrecord
280
     1
  1
DWGPROPS COOKIE
  2

  3

  4

  6

  7

  8
sg-d03
  9

300
=
301
=
302
=
303
=
304
=
305
=
306
=
307
=
308
=
309
=
 40
0.0
 41
2457311.057121493
 42
2458109.046845521
  1

 90
        0
  0
XRECORD
  5
533
102
{ACAD_REACTORS
330
532
102
}
330
532
100
AcDbXrecord
280
     1
102
VTR_0.000_0.000_1.000_1.000_GRIDDISPLAY
 70
     3
102
VTR_0.000_0.000_1.000_1.000_GRIDMAJOR
 70
     5
102
VTR_0.000_0.000_1.000_1.000_DEFAULTLIGHTING
280
     1
102
VTR_0.000_0.000_1.000_1.000_DEFAULTLIGHTINGTYPE
 70
     1
102
VTR_0.000_0.000_1.000_1.000_BRIGHTNESS
141
0.0
102
VTR_0.000_0.000_1.000_1.000_CONTRAST
142
0.0
  0
DICTIONARY
  5
4
102
{ACAD_REACTORS
330
3
102
}
330
3
100
AcDbDictionary
281
     1
  0
XRECORD
  5
21
102
{ACAD_REACTORS
330
20
102
}
330
20
100
AcDbXrecord
280
     1
290
     1
  0
XRECORD
  5
77
102
{ACAD_REACTORS
330
76
102
}
330
76
100
AcDbXrecord
280
     1
290
     1
  0
XRECORD
  5
6
102
{ACAD_REACTORS
330
5
102
}
330
5
100
AcDbXrecord
280
     1
290
     1
  0
XRECORD
  5
6A
102
{ACAD_REACTORS
330
69
102
}
330
69
100
AcDbXrecord
280
     1
290
     1
  0
XRECORD
  5
5B
102
{ACAD_REACTORS
330
5A
102
}
330
5A
100
AcDbXrecord
280
     1
290
     1
  0
XRECORD
  5
65
102
{ACAD_REACTORS
330
64
102
}
330
64
100
AcDbXrecord
280
     1
290
     1
  0
SORTENTSTABLE
  5
1D
102
{ACAD_REACTORS
330
1C
102
}
330
1C
100
AcDbSortentsTable
330
1B
331
0
  5
18F
331
0
  5
3D3
331
0
  5
3D2
331
0
  5
3D1
331
0
  5
3D0
331
0
  5
3CE
331
0
  5
3CD
331
0
  5
3CC
331
0
  5
3CB
331
0
  5
3CA
331
0
  5
3C9
331
0
  5
3C8
331
0
  5
3C7
331
0
  5
3C6
331
0
  5
3C5
331
0
  5
3C4
331
0
  5
3C3
331
0
  5
3C2
331
0
  5
3C1
331
0
  5
3C0
331
0
  5
3BF
331
0
  5
3BE
331
0
  5
3BD
331
0
  5
3BC
331
0
  5
3BB
331
0
  5
3BA
331
0
  5
3B9
331
0
  5
3B8
331
0
  5
3B7
331
0
  5
3B6
331
0
  5
3B5
331
0
  5
3B4
331
0
  5
3B3
331
0
  5
3B2
331
0
  5
3B1
331
0
  5
3B0
331
0
  5
3AF
331
0
  5
3AE
331
0
  5
3AD
331
0
  5
3AC
331
0
  5
3AB
331
0
  5
3AA
331
0
  5
3A9
331
0
  5
3A8
331
0
  5
3A7
331
0
  5
3A6
331
0
  5
3A5
331
0
  5
3A4
331
0
  5
3A3
331
0
  5
3A2
331
0
  5
3A1
331
0
  5
3A0
331
0
  5
39F
331
0
  5
39E
331
0
  5
39D
331
0
  5
39C
331
0
  5
39B
331
0
  5
39A
331
0
  5
399
331
0
  5
398
331
0
  5
397
331
0
  5
396
331
0
  5
395
331
0
  5
394
331
0
  5
393
331
0
  5
392
331
0
  5
391
331
0
  5
390
331
0
  5
38F
331
0
  5
38E
331
0
  5
38D
331
0
  5
38C
331
0
  5
38B
331
0
  5
38A
331
0
  5
389
331
0
  5
388
331
0
  5
387
331
0
  5
386
331
0
  5
385
331
0
  5
384
331
0
  5
383
331
0
  5
382
331
0
  5
381
331
0
  5
380
331
0
  5
37F
331
0
  5
37E
331
0
  5
37D
331
0
  5
37C
331
0
  5
37B
331
0
  5
37A
331
0
  5
379
331
0
  5
378
331
0
  5
377
331
0
  5
376
331
0
  5
375
331
0
  5
374
331
0
  5
373
331
0
  5
372
331
0
  5
371
331
0
  5
370
331
0
  5
36F
331
0
  5
36E
331
0
  5
36D
331
0
  5
36C
331
0
  5
36B
331
0
  5
36A
331
0
  5
369
331
0
  5
368
331
0
  5
367
331
0
  5
366
331
0
  5
365
331
0
  5
364
331
0
  5
363
331
0
  5
362
331
0
  5
361
331
0
  5
360
331
0
  5
35F
331
0
  5
35E
331
0
  5
35D
331
0
  5
35C
331
0
  5
35B
331
0
  5
35A
331
0
  5
359
331
0
  5
358
331
0
  5
357
331
0
  5
356
331
0
  5
355
331
0
  5
354
331
0
  5
353
331
0
  5
352
331
0
  5
351
331
0
  5
350
331
0
  5
34F
331
0
  5
34E
331
0
  5
34D
331
0
  5
34C
331
0
  5
34B
331
0
  5
34A
331
0
  5
349
331
0
  5
348
331
0
  5
347
331
0
  5
346
331
0
  5
345
331
0
  5
344
331
0
  5
343
331
0
  5
342
331
0
  5
341
331
0
  5
340
331
0
  5
33F
331
0
  5
33E
331
0
  5
33D
331
0
  5
33C
331
0
  5
33B
331
0
  5
33A
331
0
  5
339
331
0
  5
338
331
0
  5
337
331
0
  5
336
331
0
  5
335
331
0
  5
334
331
0
  5
333
331
0
  5
332
331
0
  5
331
331
0
  5
330
331
0
  5
32F
331
0
  5
32E
331
0
  5
32D
331
0
  5
32C
331
0
  5
32B
331
0
  5
32A
331
0
  5
329
331
0
  5
328
331
0
  5
327
331
0
  5
326
331
0
  5
325
331
0
  5
324
331
0
  5
323
331
0
  5
322
331
0
  5
321
331
0
  5
320
331
0
  5
31F
331
0
  5
31E
331
0
  5
31D
331
0
  5
31C
331
0
  5
31B
331
0
  5
31A
331
0
  5
319
331
0
  5
318
331
0
  5
317
331
0
  5
316
331
0
  5
315
331
0
  5
314
331
0
  5
313
331
0
  5
312
331
0
  5
311
331
0
  5
310
331
0
  5
30F
331
0
  5
30E
331
0
  5
30D
331
0
  5
30C
331
0
  5
30B
331
0
  5
30A
331
0
  5
309
331
0
  5
308
331
0
  5
307
331
0
  5
306
331
0
  5
305
331
0
  5
304
331
0
  5
303
331
0
  5
302
331
0
  5
301
331
0
  5
300
331
0
  5
2FF
331
0
  5
2FE
331
0
  5
2FD
331
0
  5
2FC
331
0
  5
2FB
331
0
  5
2FA
331
0
  5
2F9
331
0
  5
2F8
331
0
  5
2F7
331
0
  5
2F6
331
0
  5
2F5
331
0
  5
2F4
331
0
  5
2F3
331
0
  5
2F2
331
0
  5
2F1
331
0
  5
2F0
331
0
  5
2EF
331
0
  5
2EE
331
0
  5
2ED
331
0
  5
2EC
331
0
  5
2EB
331
0
  5
2EA
331
0
  5
2E9
331
0
  5
2E8
331
0
  5
2E7
331
0
  5
2E6
331
0
  5
2E5
331
0
  5
2E4
331
0
  5
2E3
331
0
  5
2E2
331
0
  5
2E1
331
0
  5
2E0
331
0
  5
2DF
331
0
  5
2DE
331
0
  5
2DD
331
0
  5
2DC
331
0
  5
2DB
331
0
  5
2DA
331
0
  5
2D9
331
0
  5
2D8
331
0
  5
2D7
331
0
  5
2D6
331
0
  5
2D5
331
0
  5
2D4
331
0
  5
2D3
331
0
  5
2D2
331
0
  5
2D1
331
0
  5
2D0
331
0
  5
2CF
331
0
  5
2CE
331
0
  5
2CD
331
0
  5
2CC
331
0
  5
2CB
331
0
  5
2CA
331
0
  5
2C9
331
0
  5
2C8
331
0
  5
2C7
331
0
  5
2C6
331
0
  5
2C5
331
0
  5
2C4
331
0
  5
2C3
331
0
  5
2C2
331
0
  5
2C1
331
0
  5
2C0
331
0
  5
2BF
331
0
  5
2BE
331
0
  5
2BD
331
0
  5
2BC
331
0
  5
2BB
331
0
  5
2BA
331
0
  5
2B9
331
0
  5
2B8
331
0
  5
2B7
331
0
  5
2B6
331
0
  5
2B5
331
0
  5
2B4
331
0
  5
2B3
331
0
  5
2B2
331
0
  5
2B1
331
0
  5
2B0
331
0
  5
2AF
331
0
  5
2AE
331
0
  5
2AD
331
0
  5
2AC
331
0
  5
2AB
331
0
  5
2AA
331
0
  5
2A9
331
0
  5
2A8
331
0
  5
2A7
331
0
  5
2A6
331
0
  5
2A5
331
0
  5
2A4
331
0
  5
2A3
331
0
  5
2A2
331
0
  5
2A1
331
0
  5
2A0
331
0
  5
29F
331
0
  5
29E
331
0
  5
29D
331
0
  5
29C
331
0
  5
29B
331
0
  5
29A
331
0
  5
299
331
0
  5
298
331
0
  5
297
331
0
  5
296
331
0
  5
295
331
0
  5
294
331
0
  5
293
331
0
  5
292
331
0
  5
291
331
0
  5
290
331
0
  5
28F
331
0
  5
28E
331
0
  5
28D
331
0
  5
28C
331
0
  5
28B
331
0
  5
28A
331
0
  5
289
331
0
  5
288
331
0
  5
287
331
0
  5
286
331
0
  5
285
331
0
  5
284
331
0
  5
283
331
0
  5
282
331
0
  5
281
331
0
  5
280
331
0
  5
27F
331
0
  5
27E
331
0
  5
27D
331
0
  5
27C
331
0
  5
27B
331
0
  5
279
331
0
  5
278
331
0
  5
277
331
0
  5
276
331
0
  5
275
331
0
  5
274
331
0
  5
273
331
0
  5
272
331
0
  5
271
331
0
  5
270
331
0
  5
26F
331
0
  5
26E
331
0
  5
26D
331
0
  5
26C
331
0
  5
26B
331
0
  5
26A
331
0
  5
269
331
1D1
  5
268
331
1D2
  5
267
331
1D3
  5
266
331
1D4
  5
265
331
1D5
  5
264
331
1D6
  5
263
331
1D7
  5
262
331
1D8
  5
261
331
1D9
  5
260
331
1DA
  5
25F
331
1DB
  5
25E
331
1DC
  5
25D
331
1DD
  5
25C
331
1DE
  5
25B
331
1DF
  5
25A
331
1E0
  5
259
331
1E1
  5
258
331
1E2
  5
257
331
1E3
  5
256
331
1E4
  5
255
331
1E5
  5
254
331
1E6
  5
253
331
1E7
  5
252
331
1E8
  5
251
331
1E9
  5
250
331
1EA
  5
24F
331
1EB
  5
24E
331
1EC
  5
24D
331
1ED
  5
24C
331
1EE
  5
24B
331
1EF
  5
24A
331
1F0
  5
249
331
1F1
  5
248
331
1F2
  5
247
331
1F3
  5
246
331
1F4
  5
245
331
1F5
  5
244
331
1F6
  5
243
331
1F7
  5
242
331
1F8
  5
241
331
1F9
  5
240
331
1FA
  5
23F
331
1FB
  5
23E
331
1FC
  5
23D
331
1FD
  5
23C
331
1FE
  5
23B
331
1FF
  5
23A
331
200
  5
239
331
201
  5
238
331
202
  5
237
331
203
  5
236
331
0
  5
235
331
0
  5
234
331
206
  5
233
331
207
  5
232
331
21A
  5
21F
331
21B
  5
21E
331
21C
  5
21D
331
21D
  5
21C
331
21E
  5
21B
331
21F
  5
21A
331
220
  5
219
331
221
  5
218
331
222
  5
217
331
223
  5
216
331
224
  5
215
331
225
  5
214
331
226
  5
213
331
227
  5
212
331
228
  5
211
331
229
  5
210
331
22A
  5
20F
331
22B
  5
20E
331
22C
  5
20D
331
22D
  5
20C
331
22E
  5
20B
331
22F
  5
20A
331
230
  5
209
331
231
  5
208
331
232
  5
207
331
233
  5
206
331
234
  5
205
331
235
  5
204
331
236
  5
203
331
237
  5
202
331
238
  5
201
331
239
  5
200
331
23A
  5
1FF
331
23B
  5
1FE
331
23C
  5
1FD
331
23D
  5
1FC
331
23E
  5
1FB
331
23F
  5
1FA
331
240
  5
1F9
331
241
  5
1F8
331
242
  5
1F7
331
243
  5
1F6
331
244
  5
1F5
331
245
  5
1F4
331
246
  5
1F3
331
247
  5
1F2
331
248
  5
1F1
331
249
  5
1F0
331
24A
  5
1EF
331
24B
  5
1EE
331
24C
  5
1ED
331
24D
  5
1EC
331
24E
  5
1EB
331
24F
  5
1EA
331
250
  5
1E9
331
251
  5
1E8
331
252
  5
1E7
331
253
  5
1E6
331
254
  5
1E5
331
255
  5
1E4
331
256
  5
1E3
331
257
  5
1E2
331
258
  5
1E1
331
259
  5
1E0
331
25A
  5
1DF
331
25B
  5
1DE
331
25C
  5
1DD
331
25D
  5
1DC
331
25E
  5
1DB
331
25F
  5
1DA
331
260
  5
1D9
331
261
  5
1D8
331
262
  5
1D7
331
263
  5
1D6
331
264
  5
1D5
331
265
  5
1D4
331
266
  5
1D3
331
267
  5
1D2
331
268
  5
1D1
331
269
  5
1D0
331
26A
  5
1CF
331
26B
  5
1CE
331
26C
  5
1CD
331
26D
  5
1CC
331
26E
  5
1CB
331
26F
  5
1CA
331
270
  5
1C9
331
271
  5
1C8
331
272
  5
1C7
331
273
  5
1C6
331
274
  5
1C5
331
275
  5
1C4
331
276
  5
1C3
331
277
  5
1C2
331
278
  5
1C1
331
279
  5
1C0
331
27A
  5
1BF
331
27B
  5
1BE
331
27C
  5
1BD
331
27D
  5
1BC
331
27E
  5
1BB
331
27F
  5
1BA
331
280
  5
1B9
331
281
  5
1B8
331
282
  5
1B7
331
283
  5
1B6
331
284
  5
1B5
331
285
  5
1B4
331
286
  5
1B3
331
287
  5
1B2
331
288
  5
1B1
331
289
  5
1B0
331
28A
  5
1AF
331
28B
  5
1AE
331
28C
  5
1AD
331
28D
  5
1AC
331
28E
  5
1AB
331
28F
  5
1AA
331
290
  5
1A9
331
291
  5
1A8
331
292
  5
1A7
331
293
  5
1A6
331
294
  5
1A5
331
295
  5
1A4
331
296
  5
1A3
331
297
  5
1A2
331
298
  5
1A1
331
299
  5
1A0
331
29A
  5
19F
331
29B
  5
19E
331
29C
  5
19D
331
29D
  5
19C
331
29E
  5
19B
331
29F
  5
19A
331
2A0
  5
199
331
2A1
  5
198
331
2A2
  5
197
331
2A3
  5
196
331
2A4
  5
195
331
2A5
  5
194
331
2A6
  5
193
331
2A7
  5
192
331
2A8
  5
191
331
2A9
  5
190
331
0
  5
184
331
2C5
  5
174
331
2C6
  5
173
331
0
  5
172
331
0
  5
171
331
2CC
  5
16D
331
2CD
  5
16C
331
2CE
  5
16B
331
2CF
  5
16A
331
2D0
  5
169
331
2D1
  5
168
331
2D2
  5
167
331
2D3
  5
166
331
2D4
  5
165
331
2D5
  5
164
331
2D6
  5
163
331
2D7
  5
162
331
2D8
  5
161
331
2D9
  5
160
331
2DA
  5
15F
331
2E4
  5
155
331
2E5
  5
154
331
2E6
  5
153
331
2E9
  5
150
331
2EA
  5
14F
331
0
  5
14B
331
0
  5
14A
331
0
  5
149
331
0
  5
148
331
2F2
  5
147
331
2F3
  5
146
331
0
  5
145
331
2F5
  5
144
331
2F6
  5
143
331
2F7
  5
142
331
2F8
  5
141
331
2F9
  5
140
331
2FA
  5
13F
331
2FB
  5
13E
331
2FC
  5
13D
331
2FD
  5
13C
331
2FE
  5
13B
331
2FF
  5
13A
331
300
  5
139
331
301
  5
138
331
302
  5
137
331
303
  5
136
331
304
  5
135
331
305
  5
134
331
306
  5
133
331
307
  5
132
331
308
  5
131
331
309
  5
130
331
30A
  5
12F
331
0
  5
12E
331
30C
  5
12D
331
30D
  5
12C
331
30E
  5
12B
331
30F
  5
12A
331
310
  5
129
331
317
  5
122
331
318
  5
121
331
319
  5
120
331
31A
  5
11F
331
31B
  5
11E
331
31C
  5
11D
331
31D
  5
11C
331
31E
  5
11B
331
31F
  5
11A
331
320
  5
119
331
321
  5
118
331
322
  5
117
331
323
  5
116
331
324
  5
115
331
329
  5
110
331
32A
  5
10F
331
32B
  5
10E
331
32C
  5
10D
331
32D
  5
10C
331
32E
  5
10B
331
32F
  5
10A
331
330
  5
109
331
331
  5
108
331
332
  5
107
331
333
  5
106
331
334
  5
105
331
335
  5
104
331
336
  5
103
331
337
  5
102
331
338
  5
101
331
0
  5
FF
331
33B
  5
FE
331
0
  5
FC
331
33E
  5
FB
331
0
  5
F3
331
0
  5
F2
331
348
  5
F1
331
349
  5
F0
331
34A
  5
EF
331
34B
  5
EE
331
0
  5
ED
331
0
  5
EC
331
0
  5
EB
331
0
  5
EA
331
0
  5
E9
331
0
  5
E8
331
0
  5
E7
331
0
  5
E2
331
0
  5
E1
331
0
  5
E0
331
0
  5
DF
331
0
  5
DC
331
0
  5
DB
331
35F
  5
DA
331
360
  5
D9
331
0
  5
D8
331
0
  5
D7
331
365
  5
D4
331
367
  5
D2
331
368
  5
D1
331
0
  5
D0
331
36A
  5
CF
331
36B
  5
CE
331
36C
  5
CD
331
36D
  5
CC
331
36E
  5
CB
331
36F
  5
CA
331
0
  5
C9
331
0
  5
C8
331
0
  5
C7
331
373
  5
C6
331
0
  5
C5
331
0
  5
C4
331
0
  5
C3
331
0
  5
C2
331
378
  5
C1
331
379
  5
C0
331
37A
  5
BF
331
37B
  5
BE
331
37C
  5
BD
331
0
  5
BC
331
0
  5
BB
331
37F
  5
BA
331
380
  5
B9
331
381
  5
B8
331
382
  5
B7
331
383
  5
B6
331
384
  5
B5
331
385
  5
B4
331
386
  5
B3
331
387
  5
B2
331
388
  5
B1
331
389
  5
B0
331
0
  5
AF
331
0
  5
AE
331
0
  5
AD
331
0
  5
AC
331
0
  5
AB
331
0
  5
AA
331
0
  5
A9
331
0
  5
A8
331
0
  5
A7
331
0
  5
A6
331
0
  5
A5
331
395
  5
A4
331
396
  5
A3
331
397
  5
A2
331
398
  5
A1
331
399
  5
A0
331
39A
  5
9F
331
39B
  5
9E
331
39C
  5
9D
331
39D
  5
9C
331
39E
  5
9B
331
39F
  5
9A
331
3A0
  5
99
331
3A1
  5
98
331
3A2
  5
97
331
3A3
  5
96
331
3A4
  5
95
331
3A5
  5
94
331
3A6
  5
93
331
3A7
  5
92
331
3A8
  5
91
331
0
  5
90
331
0
  5
8F
331
0
  5
8E
331
0
  5
8D
331
0
  5
8C
331
3AE
  5
8B
331
3AF
  5
8A
331
3B0
  5
89
331
3B1
  5
88
331
3B2
  5
87
331
3B3
  5
86
331
3B4
  5
85
331
3B5
  5
84
331
3B6
  5
83
331
3B7
  5
82
331
3B8
  5
81
331
0
  5
80
331
0
  5
7F
331
3BB
  5
7E
331
3BC
  5
7D
331
3BD
  5
7C
331
3BE
  5
7B
331
3BF
  5
7A
331
3C0
  5
79
331
3C1
  5
78
331
3C2
  5
74
331
3C3
  5
73
331
3C4
  5
72
331
0
  5
71
331
0
  5
70
331
0
  5
6E
331
3C8
  5
6D
331
3C9
  5
6C
331
3CA
  5
6B
331
3CB
  5
67
331
3CC
  5
66
331
3CD
  5
62
331
3CE
  5
61
331
3CF
  5
60
331
3D0
  5
5F
331
3D1
  5
5E
331
3D2
  5
5D
331
3D3
  5
58
  0
LAYOUT
  5
23
102
{ACAD_REACTORS
330
24
102
}
330
24
100
AcDbPlotSettings
  1

  2
Bullzip PDF Printer.pc3
  4
A3
  6

 40
0.2
 41
0.0
 42
0.0
 43
0.0
 44
420.2
 45
297.1
 46
25.0
 47
12.0
 48
49.99999992083326
 49
0.0
140
1004.999997733333
141
681.2499984104165
142
1.0
143
2.5
 70
 11936
 72
     1
 73
     0
 74
     4
  7
monochrome.ctb
 75
     0
147
0.4
148
-49.99999992083326
149
0.0
100
AcDbLayout
  1
Model
 70
     0
 71
     0
 10
0.0
 20
0.0
 11
12.0
 21
9.0
 12
0.0
 22
0.0
 32
0.0
 14
79.67943614402733
 24
11.89506092333477
 34
0.0
 15
834.5563737312024
 25
676.0948499424129
 35
0.0
146
0.0
 13
0.0
 23
0.0
 33
0.0
 16
1.0
 26
0.0
 36
0.0
 17
0.0
 27
1.0
 37
0.0
 76
     0
330
1B
331
30
1001
ACAD_PSEXT
1000
Bullzip PDF Printer.pc3
1000
Bullzip PDF Printer
1000
BULLZIP
1000
Bullzip PDF Printer 10.1.0.1871
1070
     0
  0
LAYOUT
  5
28
102
{ACAD_REACTORS
330
24
102
}
330
24
100
AcDbPlotSettings
  1

  2
SR-LP8300F
  4

  6

 40
0.0
 41
0.0
 42
0.0
 43
0.0
 44
0.0
 45
0.0
 46
0.0
 47
0.0
 48
0.0
 49
0.0
140
0.0
141
0.0
142
1.0
143
1.0
 70
   688
 72
     0
 73
     0
 74
     5
  7
monochrome.ctb
 75
    16
147
1.0
148
0.0
149
0.0
100
AcDbLayout
  1
ﾚｲｱｳﾄ1
 70
     0
 71
     1
 10
0.0
 20
0.0
 11
12.0
 21
9.0
 12
0.0
 22
0.0
 32
0.0
 14
1000000000000000E+20
 24
1000000000000000E+20
 34
1000000000000000E+20
 15
-1000000000000000E+20
 25
-1000000000000000E+20
 35
-1000000000000000E+20
146
0.0
 13
0.0
 23
0.0
 33
0.0
 16
1.0
 26
0.0
 36
0.0
 17
0.0
 27
1.0
 37
0.0
 76
     0
330
25
  0
MATERIAL
  5
57
102
{ACAD_REACTORS
330
B
102
}
102
{ACAD_XDICTIONARY
360
539
102
}
330
B
100
AcDbMaterial
  1
ByBlock
 72
     0
 73
     2
 43
0.0208333333333333
 43
0.0
 43
0.0
 43
0.0
 43
0.0
 43
0.0208333333333333
 43
0.0
 43
0.0
 43
0.0
 43
0.0
 43
1.0
 43
0.0
 43
0.0
 43
0.0
 43
0.0
 43
1.0
 77
     0
 78
     2
 47
0.0208333333333333
 47
0.0
 47
0.0
 47
0.0
 47
0.0
 47
0.0208333333333333
 47
0.0
 47
0.0
 47
0.0
 47
0.0
 47
1.0
 47
0.0
 47
0.0
 47
0.0
 47
0.0
 47
1.0
171
     0
172
     2
 49
0.0208333333333333
 49
0.0
 49
0.0
 49
0.0
 49
0.0
 49
0.0208333333333333
 49
0.0
 49
0.0
 49
0.0
 49
0.0
 49
1.0
 49
0.0
 49
0.0
 49
0.0
 49
0.0
 49
1.0
175
     0
176
     2
142
0.0208333333333333
142
0.0
142
0.0
142
0.0
142
0.0
142
0.0208333333333333
142
0.0
142
0.0
142
0.0
142
0.0
142
1.0
142
0.0
142
0.0
142
0.0
142
0.0
142
1.0
179
     0
270
     2
144
0.0208333333333333
144
0.0
144
0.0
144
0.0
144
0.0
144
0.0208333333333333
144
0.0
144
0.0
144
0.0
144
0.0
144
1.0
144
0.0
144
0.0
144
0.0
144
0.0
144
1.0
274
     2
147
0.0208333333333333
147
0.0
147
0.0
147
0.0
147
0.0
147
0.0208333333333333
147
0.0
147
0.0
147
0.0
147
0.0
147
1.0
147
0.0
147
0.0
147
0.0
147
0.0
147
1.0
  0
MATERIAL
  5
14
102
{ACAD_REACTORS
330
B
102
}
102
{ACAD_XDICTIONARY
360
535
102
}
330
B
100
AcDbMaterial
  1
ByLayer
 72
     0
 73
     2
 43
0.0208333333333333
 43
0.0
 43
0.0
 43
0.0
 43
0.0
 43
0.0208333333333333
 43
0.0
 43
0.0
 43
0.0
 43
0.0
 43
1.0
 43
0.0
 43
0.0
 43
0.0
 43
0.0
 43
1.0
 77
     0
 78
     2
 47
0.0208333333333333
 47
0.0
 47
0.0
 47
0.0
 47
0.0
 47
0.0208333333333333
 47
0.0
 47
0.0
 47
0.0
 47
0.0
 47
1.0
 47
0.0
 47
0.0
 47
0.0
 47
0.0
 47
1.0
171
     0
172
     2
 49
0.0208333333333333
 49
0.0
 49
0.0
 49
0.0
 49
0.0
 49
0.0208333333333333
 49
0.0
 49
0.0
 49
0.0
 49
0.0
 49
1.0
 49
0.0
 49
0.0
 49
0.0
 49
0.0
 49
1.0
175
     0
176
     2
142
0.0208333333333333
142
0.0
142
0.0
142
0.0
142
0.0
142
0.0208333333333333
142
0.0
142
0.0
142
0.0
142
0.0
142
1.0
142
0.0
142
0.0
142
0.0
142
0.0
142
1.0
179
     0
270
     2
144
0.0208333333333333
144
0.0
144
0.0
144
0.0
144
0.0
144
0.0208333333333333
144
0.0
144
0.0
144
0.0
144
0.0
144
1.0
144
0.0
144
0.0
144
0.0
144
0.0
144
1.0
274
     2
147
0.0208333333333333
147
0.0
147
0.0
147
0.0
147
0.0
147
0.0208333333333333
147
0.0
147
0.0
147
0.0
147
0.0
147
1.0
147
0.0
147
0.0
147
0.0
147
0.0
147
1.0
  0
MATERIAL
  5
A
102
{ACAD_REACTORS
330
B
102
}
102
{ACAD_XDICTIONARY
360
537
102
}
330
B
100
AcDbMaterial
  1
Global
 72
     0
 73
     2
 43
0.0208333333333333
 43
0.0
 43
0.0
 43
0.0
 43
0.0
 43
0.0208333333333333
 43
0.0
 43
0.0
 43
0.0
 43
0.0
 43
1.0
 43
0.0
 43
0.0
 43
0.0
 43
0.0
 43
1.0
 77
     0
 78
     2
 47
0.0208333333333333
 47
0.0
 47
0.0
 47
0.0
 47
0.0
 47
0.0208333333333333
 47
0.0
 47
0.0
 47
0.0
 47
0.0
 47
1.0
 47
0.0
 47
0.0
 47
0.0
 47
0.0
 47
1.0
171
     0
172
     2
 49
0.0208333333333333
 49
0.0
 49
0.0
 49
0.0
 49
0.0
 49
0.0208333333333333
 49
0.0
 49
0.0
 49
0.0
 49
0.0
 49
1.0
 49
0.0
 49
0.0
 49
0.0
 49
0.0
 49
1.0
175
     0
176
     2
142
0.0208333333333333
142
0.0
142
0.0
142
0.0
142
0.0
142
0.0208333333333333
142
0.0
142
0.0
142
0.0
142
0.0
142
1.0
142
0.0
142
0.0
142
0.0
142
0.0
142
1.0
179
     0
270
     2
144
0.0208333333333333
144
0.0
144
0.0
144
0.0
144
0.0
144
0.0208333333333333
144
0.0
144
0.0
144
0.0
144
0.0
144
1.0
144
0.0
144
0.0
144
0.0
144
0.0
144
1.0
274
     2
147
0.0208333333333333
147
0.0
147
0.0
147
0.0
147
0.0
147
0.0208333333333333
147
0.0
147
0.0
147
0.0
147
0.0
147
1.0
147
0.0
147
0.0
147
0.0
147
0.0
147
1.0
1001
ACAD
1070
    -1
1070
     3
1070
     0
1000

1071
        0
  0
MLEADERSTYLE
  5
48D
102
{ACAD_REACTORS
330
471
102
}
102
{ACAD_XDICTIONARY
360
56B
102
}
330
471
100
AcDbMLeaderStyle
170
     2
171
     1
172
     0
 90
        2
 40
0.0
 41
0.0
173
     1
 91
-1056964608
340
11
 92
       -2
290
     1
 42
0.09
291
     1
 43
0.36
  3
Standard
341
0
 44
0.18
300

342
12
174
     1
178
     6
175
     1
176
     0
 93
-1056964608
 45
0.18
292
     0
297
     0
 46
0.18
343
0
 94
-1056964608
 47
1.0
 49
1.0
140
1.0
293
     1
141
0.0
294
     1
177
     0
142
1.0
295
     0
296
     0
143
0.125
1001
ACAD_MLEADERVER
1070
     2
  0
MLINESTYLE
  5
18
102
{ACAD_REACTORS
330
19
102
}
330
19
100
AcDbMlineStyle
  2
STANDARD
 70
     0
  3

 62
     0
 51
90.0
 52
90.0
 71
     2
 49
0.5
 62
   256
  6
BYLAYER
 49
-0.5
 62
   256
  6
BYLAYER
  0
ACDBPLACEHOLDER
  5
7
102
{ACAD_REACTORS
330
8
102
}
330
8
  0
SCALE
  5
56
102
{ACAD_REACTORS
330
34
102
}
330
34
100
AcDbScale
 70
     0
300
1:1
140
1.0
141
1.0
290
     1
  0
VISUALSTYLE
  5
31
102
{ACAD_REACTORS
330
2F
102
}
102
{ACAD_XDICTIONARY
360
53B
102
}
330
2F
100
AcDbVisualStyle
  2
2dWireframe
 70
     4
 71
     0
 72
     2
 73
     0
 90
        0
 40
0.6
 41
30.0
 62
     5
 63
     7
 74
     1
 91
        4
 64
     7
 65
   257
 75
     1
175
     1
 42
1.0
 92
        0
 66
   257
 43
1.0
 76
     1
 77
     6
 78
     2
 67
     7
 79
     5
170
     0
171
     0
290
     0
174
     0
 93
        1
 44
0.0
173
     0
291
     0
 45
0.0
1001
ACAD
1000
AcDbSavedByObjectVersion
1070
     0
  0
VISUALSTYLE
  5
47B
102
{ACAD_REACTORS
330
2F
102
}
102
{ACAD_XDICTIONARY
360
549
102
}
330
2F
100
AcDbVisualStyle
  2
Basic
 70
     7
 71
     1
 72
     0
 73
     1
 90
        0
 40
0.6
 41
30.0
 62
     5
 63
     7
 74
     0
 91
        4
 64
     7
 65
   257
 75
     1
175
     1
 42
1.0
 92
        8
 66
     7
 43
1.0
 76
     1
 77
     6
 78
     2
 67
     7
 79
     5
170
     0
171
     0
290
     0
174
     0
 93
        1
 44
0.0
173
     0
291
     1
 45
0.0
1001
ACAD
1000
AcDbSavedByObjectVersion
1070
     0
  0
VISUALSTYLE
  5
47F
102
{ACAD_REACTORS
330
2F
102
}
102
{ACAD_XDICTIONARY
360
551
102
}
330
2F
100
AcDbVisualStyle
  2
Brighten
 70
    12
 71
     2
 72
     2
 73
     0
 90
        0
 40
0.6
 41
30.0
 62
     5
 63
     7
 74
     1
 91
        4
 64
     7
 65
   257
 75
     1
175
     1
 42
1.0
 92
        8
 66
     7
 43
1.0
 76
     1
 77
     6
 78
     2
 67
     7
 79
     5
170
     0
171
     0
290
     0
174
     0
 93
        1
 44
50.0
173
     0
291
     1
 45
0.0
1001
ACAD
1000
AcDbSavedByObjectVersion
1070
     0
  0
VISUALSTYLE
  5
483
102
{ACAD_REACTORS
330
2F
102
}
102
{ACAD_XDICTIONARY
360
559
102
}
330
2F
100
AcDbVisualStyle
  2
ColorChange
 70
    16
 71
     2
 72
     2
 73
     3
 90
        0
 40
0.6
 41
30.0
 62
     5
 63
     8
 74
     1
 91
        4
 64
     7
 65
   257
 75
     1
175
     1
 42
1.0
 92
        8
 66
     8
 43
1.0
 76
     1
 77
     6
 78
     2
 67
     7
 79
     5
170
     0
171
     0
290
     0
174
     0
 93
        1
 44
0.0
173
     0
291
     1
 45
0.0
1001
ACAD
1000
AcDbSavedByObjectVersion
1070
     0
  0
VISUALSTYLE
  5
47D
102
{ACAD_REACTORS
330
2F
102
}
102
{ACAD_XDICTIONARY
360
54D
102
}
330
2F
100
AcDbVisualStyle
  2
Conceptual
 70
     9
 71
     3
 72
     2
 73
     0
 90
        0
 40
0.6
 41
30.0
 62
     5
 63
     7
 74
     2
 91
        2
 64
     7
 65
   257
 75
     1
175
     1
 42
40.0
 92
        8
 66
     7
 43
1.0
 76
     1
 77
     6
 78
     2
 67
     7
 79
     3
170
     0
171
     0
290
     0
174
     0
 93
        1
 44
0.0
173
     0
291
     0
 45
0.0
1001
ACAD
1000
AcDbSavedByObjectVersion
1070
     0
  0
VISUALSTYLE
  5
47E
102
{ACAD_REACTORS
330
2F
102
}
102
{ACAD_XDICTIONARY
360
54F
102
}
330
2F
100
AcDbVisualStyle
  2
Dim
 70
    11
 71
     2
 72
     2
 73
     0
 90
        0
 40
0.6
 41
30.0
 62
     5
 63
     7
 74
     1
 91
        4
 64
     7
 65
   257
 75
     1
175
     1
 42
1.0
 92
        8
 66
     7
 43
1.0
 76
     1
 77
     6
 78
     2
 67
     7
 79
     5
170
     0
171
     0
290
     0
174
     0
 93
        1
 44
-50.0
173
     0
291
     1
 45
0.0
1001
ACAD
1000
AcDbSavedByObjectVersion
1070
     0
  0
VISUALSTYLE
  5
486
102
{ACAD_REACTORS
330
2F
102
}
102
{ACAD_XDICTIONARY
360
55F
102
}
330
2F
100
AcDbVisualStyle
  2
EdgeColorOff
 70
    22
 71
     2
 72
     2
 73
     0
 90
        0
 40
0.6
 41
30.0
 62
     5
 63
     7
 74
     1
 91
        4
 64
     7
 65
   257
 75
     1
175
     1
 42
1.0
 92
        8
 66
     7
 43
1.0
 76
     1
 77
     6
 78
     2
 67
     7
 79
     5
170
     0
171
     0
290
     0
174
     0
 93
        1
 44
0.0
173
     0
291
     1
 45
0.0
1001
ACAD
1000
AcDbSavedByObjectVersion
1070
     0
  0
VISUALSTYLE
  5
482
102
{ACAD_REACTORS
330
2F
102
}
102
{ACAD_XDICTIONARY
360
557
102
}
330
2F
100
AcDbVisualStyle
  2
Facepattern
 70
    15
 71
     2
 72
     2
 73
     0
 90
        0
 40
0.6
 41
30.0
 62
     5
 63
     7
 74
     1
 91
        4
 64
     7
 65
   257
 75
     1
175
     1
 42
1.0
 92
        8
 66
     7
 43
1.0
 76
     1
 77
     6
 78
     2
 67
     7
 79
     5
170
     0
171
     0
290
     0
174
     0
 93
        1
 44
0.0
173
     0
291
     1
 45
0.0
1001
ACAD
1000
AcDbSavedByObjectVersion
1070
     0
  0
VISUALSTYLE
  5
475
102
{ACAD_REACTORS
330
2F
102
}
102
{ACAD_XDICTIONARY
360
53D
102
}
330
2F
100
AcDbVisualStyle
  2
Flat
 70
     0
 71
     2
 72
     1
 73
     1
 90
        2
 40
0.6
 41
30.0
 62
     5
 63
     7
 74
     0
 91
        4
 64
     7
 65
   257
 75
     1
175
     1
 42
1.0
 92
        8
 66
     7
 43
1.0
 76
     1
 77
     6
 78
     2
 67
     7
 79
     5
170
     0
171
     0
290
     0
174
     0
 93
       13
 44
0.0
173
     0
291
     1
 45
0.0
1001
ACAD
1000
AcDbSavedByObjectVersion
1070
     0
  0
VISUALSTYLE
  5
476
102
{ACAD_REACTORS
330
2F
102
}
102
{ACAD_XDICTIONARY
360
53F
102
}
330
2F
100
AcDbVisualStyle
  2
FlatWithEdges
 70
     1
 71
     2
 72
     1
 73
     1
 90
        2
 40
0.6
 41
30.0
 62
     5
 63
     7
 74
     1
 91
        4
 64
     7
 65
   257
 75
     1
175
     1
 42
1.0
 92
        0
 66
   257
 43
1.0
 76
     1
 77
     6
 78
     2
 67
     7
 79
     5
170
     0
171
     0
290
     0
174
     0
 93
       13
 44
0.0
173
     0
291
     1
 45
0.0
1001
ACAD
1000
AcDbSavedByObjectVersion
1070
     0
  0
VISUALSTYLE
  5
477
102
{ACAD_REACTORS
330
2F
102
}
102
{ACAD_XDICTIONARY
360
541
102
}
330
2F
100
AcDbVisualStyle
  2
Gouraud
 70
     2
 71
     2
 72
     2
 73
     1
 90
        2
 40
0.6
 41
30.0
 62
     5
 63
     7
 74
     0
 91
        4
 64
     7
 65
   257
 75
     1
175
     1
 42
1.0
 92
        0
 66
     7
 43
1.0
 76
     1
 77
     6
 78
     2
 67
     7
 79
     5
170
     0
171
     0
290
     0
174
     0
 93
       13
 44
0.0
173
     0
291
     1
 45
0.0
1001
ACAD
1000
AcDbSavedByObjectVersion
1070
     0
  0
VISUALSTYLE
  5
478
102
{ACAD_REACTORS
330
2F
102
}
102
{ACAD_XDICTIONARY
360
543
102
}
330
2F
100
AcDbVisualStyle
  2
GouraudWithEdges
 70
     3
 71
     2
 72
     2
 73
     1
 90
        2
 40
0.6
 41
30.0
 62
     5
 63
     7
 74
     1
 91
        4
 64
     7
 65
   257
 75
     1
175
     1
 42
1.0
 92
        0
 66
   257
 43
1.0
 76
     1
 77
     6
 78
     2
 67
     7
 79
     5
170
     0
171
     0
290
     0
174
     0
 93
       13
 44
0.0
173
     0
291
     1
 45
0.0
1001
ACAD
1000
AcDbSavedByObjectVersion
1070
     0
  0
VISUALSTYLE
  5
47A
102
{ACAD_REACTORS
330
2F
102
}
102
{ACAD_XDICTIONARY
360
547
102
}
330
2F
100
AcDbVisualStyle
  2
Hidden
 70
     6
 71
     1
 72
     2
 73
     2
 90
        0
 40
0.6
 41
30.0
 62
     5
 63
     7
 74
     2
 91
        2
 64
     7
 65
   257
 75
     2
175
     1
 42
40.0
 92
        0
 66
   257
 43
1.0
 76
     1
 77
     6
 78
     2
 67
     7
 79
     3
170
     0
171
     0
290
     0
174
     0
 93
        1
 44
0.0
173
     0
291
     0
 45
0.0
1001
ACAD
1000
AcDbSavedByObjectVersion
1070
     0
  0
VISUALSTYLE
  5
484
102
{ACAD_REACTORS
330
2F
102
}
102
{ACAD_XDICTIONARY
360
55B
102
}
330
2F
100
AcDbVisualStyle
  2
JitterOff
 70
    20
 71
     2
 72
     2
 73
     0
 90
        0
 40
0.6
 41
30.0
 62
     5
 63
     7
 74
     1
 91
        4
 64
     7
 65
   257
 75
     1
175
     1
 42
1.0
 92
       10
 66
     7
 43
1.0
 76
     1
 77
     6
 78
     2
 67
     7
 79
     5
170
     0
171
     0
290
     0
174
     0
 93
        1
 44
0.0
173
     0
291
     1
 45
0.0
1001
ACAD
1000
AcDbSavedByObjectVersion
1070
     0
  0
VISUALSTYLE
  5
481
102
{ACAD_REACTORS
330
2F
102
}
102
{ACAD_XDICTIONARY
360
555
102
}
330
2F
100
AcDbVisualStyle
  2
Linepattern
 70
    14
 71
     2
 72
     2
 73
     0
 90
        0
 40
0.6
 41
30.0
 62
     5
 63
     7
 74
     1
 91
        4
 64
     7
 65
   257
 75
     7
175
     7
 42
1.0
 92
        8
 66
     7
 43
1.0
 76
     1
 77
     6
 78
     2
 67
     7
 79
     5
170
     0
171
     0
290
     0
174
     0
 93
        1
 44
0.0
173
     0
291
     1
 45
0.0
1001
ACAD
1000
AcDbSavedByObjectVersion
1070
     0
  0
VISUALSTYLE
  5
485
102
{ACAD_REACTORS
330
2F
102
}
102
{ACAD_XDICTIONARY
360
55D
102
}
330
2F
100
AcDbVisualStyle
  2
OverhangOff
 70
    21
 71
     2
 72
     2
 73
     0
 90
        0
 40
0.6
 41
30.0
 62
     5
 63
     7
 74
     1
 91
        4
 64
     7
 65
   257
 75
     1
175
     1
 42
1.0
 92
        9
 66
     7
 43
1.0
 76
     1
 77
     6
 78
     2
 67
     7
 79
     5
170
     0
171
     0
290
     0
174
     0
 93
        1
 44
0.0
173
     0
291
     1
 45
0.0
1001
ACAD
1000
AcDbSavedByObjectVersion
1070
     0
  0
VISUALSTYLE
  5
47C
102
{ACAD_REACTORS
330
2F
102
}
102
{ACAD_XDICTIONARY
360
54B
102
}
330
2F
100
AcDbVisualStyle
  2
Realistic
 70
     8
 71
     2
 72
     3
 73
     0
 90
        2
 40
0.6
 41
30.0
 62
     5
 63
     7
 74
     0
 91
        0
 64
     7
 65
   257
 75
     1
175
     1
 42
1.0
 92
        8
 66
   257
 43
1.0
 76
     1
 77
     6
 78
     2
 67
     7
 79
     3
170
     0
171
     0
290
     0
174
     0
 93
       13
 44
0.0
173
     0
291
     0
 45
0.0
1001
ACAD
1000
AcDbSavedByObjectVersion
1070
     0
  0
VISUALSTYLE
  5
48B
102
{ACAD_REACTORS
330
2F
102
}
102
{ACAD_XDICTIONARY
360
569
102
}
330
2F
100
AcDbVisualStyle
  2
Shaded
 70
    27
 71
     2
 72
     2
 73
     1
 90
        2
 40
0.6
 41
30.0
 62
     5
 63
     7
 74
     0
 91
        4
 64
     7
 65
   257
 75
     1
175
     1
 42
1.0
 92
        8
 66
   257
 43
1.0
 76
     1
 77
     6
 78
     2
 67
   251
 79
     3
170
     0
171
     0
290
     0
174
     0
 93
        5
 44
0.0
173
     0
291
     0
 45
0.0
1001
ACAD
1000
AcDbSavedByObjectVersion
1070
     0
  0
VISUALSTYLE
  5
48A
102
{ACAD_REACTORS
330
2F
102
}
102
{ACAD_XDICTIONARY
360
567
102
}
330
2F
100
AcDbVisualStyle
  2
Shaded with edges
 70
    26
 71
     2
 72
     2
 73
     1
 90
        2
 40
0.6
 41
30.0
 62
     5
 63
     7
 74
     1
 91
       10
 64
     7
 65
   257
 75
     2
175
     1
 42
1.0
 92
        8
 66
   257
 43
1.0
 76
     1
 77
     6
 78
     2
 67
     7
 79
     3
170
     0
171
     0
290
     0
174
     0
 93
        5
 44
0.0
173
     0
291
     0
 45
0.0
1001
ACAD
1000
AcDbSavedByObjectVersion
1070
     0
  0
VISUALSTYLE
  5
487
102
{ACAD_REACTORS
330
2F
102
}
102
{ACAD_XDICTIONARY
360
561
102
}
330
2F
100
AcDbVisualStyle
  2
Shades of Gray
 70
    23
 71
     2
 72
     2
 73
     3
 90
        0
 40
0.6
 41
30.0
 62
     5
 63
     7
 74
     2
 91
        2
 64
     7
 65
     7
 75
     1
175
     1
 42
40.0
 92
        8
 66
     7
 43
1.0
 76
     1
 77
     6
 78
     2
 67
     7
 79
     3
170
     0
171
     0
290
     0
174
     0
 93
        1
 44
0.0
173
     0
291
     0
 45
0.0
1001
ACAD
1000
AcDbSavedByObjectVersion
1070
     0
  0
VISUALSTYLE
  5
488
102
{ACAD_REACTORS
330
2F
102
}
102
{ACAD_XDICTIONARY
360
563
102
}
330
2F
100
AcDbVisualStyle
  2
Sketchy
 70
    24
 71
     1
 72
     2
 73
     2
 90
        0
 40
0.6
 41
30.0
 62
     5
 63
     7
 74
     2
 91
        2
 64
     7
 65
     7
 75
     1
175
     1
 42
40.0
 92
       11
 66
     7
 43
1.0
 76
     1
 77
     6
 78
     2
 67
     7
 79
     6
170
     0
171
     0
290
     0
174
     0
 93
        1
 44
0.0
173
     0
291
     0
 45
0.0
1001
ACAD
1000
AcDbSavedByObjectVersion
1070
     0
  0
VISUALSTYLE
  5
480
102
{ACAD_REACTORS
330
2F
102
}
102
{ACAD_XDICTIONARY
360
553
102
}
330
2F
100
AcDbVisualStyle
  2
Thicken
 70
    13
 71
     2
 72
     2
 73
     0
 90
        0
 40
0.6
 41
30.0
 62
     5
 63
     7
 74
     1
 91
        4
 64
     7
 65
   257
 75
     1
175
     1
 42
1.0
 92
       12
 66
     7
 43
1.0
 76
     1
 77
     6
 78
     2
 67
     7
 79
     5
170
     0
171
     0
290
     0
174
     0
 93
        1
 44
0.0
173
     0
291
     1
 45
0.0
1001
ACAD
1000
AcDbSavedByObjectVersion
1070
     0
  0
VISUALSTYLE
  5
479
102
{ACAD_REACTORS
330
2F
102
}
102
{ACAD_XDICTIONARY
360
545
102
}
330
2F
100
AcDbVisualStyle
  2
Wireframe
 70
     5
 71
     0
 72
     2
 73
     0
 90
        0
 40
0.6
 41
30.0
 62
     5
 63
     7
 74
     1
 91
        4
 64
     7
 65
   257
 75
     1
175
     1
 42
1.0
 92
        0
 66
   257
 43
1.0
 76
     1
 77
     6
 78
     2
 67
     7
 79
     5
170
     0
171
     0
290
     0
174
     0
 93
        1
 44
0.0
173
     0
291
     0
 45
0.0
1001
ACAD
1000
AcDbSavedByObjectVersion
1070
     0
  0
VISUALSTYLE
  5
489
102
{ACAD_REACTORS
330
2F
102
}
102
{ACAD_XDICTIONARY
360
565
102
}
330
2F
100
AcDbVisualStyle
  2
X-Ray
 70
    25
 71
     2
 72
     2
 73
     1
 90
        1
 40
0.5
 41
30.0
 62
     5
 63
     7
 74
     1
 91
        0
 64
     7
 65
   257
 75
     1
175
     1
 42
1.0
 92
        8
 66
     7
 43
1.0
 76
     1
 77
     6
 78
     2
 67
     7
 79
     3
170
     0
171
     0
290
     0
174
     0
 93
       13
 44
0.0
173
     0
291
     0
 45
0.0
1001
ACAD
1000
AcDbSavedByObjectVersion
1070
     0
  0
XRECORD
  5
52F
102
{ACAD_REACTORS
330
52E
102
}
330
52E
100
AcDbXrecord
280
     1
340
2E
  0
XRECORD
  5
530
102
{ACAD_REACTORS
330
52E
102
}
330
52E
100
AcDbXrecord
280
     1
340
B
  0
DICTIONARYVAR
  5
46F
102
{ACAD_REACTORS
330
46E
102
}
330
46E
100
DictionaryVariables
280
     0
  1
1:1
  0
DICTIONARYVAR
  5
48F
102
{ACAD_REACTORS
330
46E
102
}
330
46E
100
DictionaryVariables
280
     0
  1
Standard
  0
DICTIONARYVAR
  5
52C
102
{ACAD_REACTORS
330
46E
102
}
330
46E
100
DictionaryVariables
280
     0
  1
0
  0
DICTIONARYVAR
  5
52D
102
{ACAD_REACTORS
330
46E
102
}
330
46E
100
DictionaryVariables
280
     0
  1
0
  0
DICTIONARYVAR
  5
534
102
{ACAD_REACTORS
330
46E
102
}
330
46E
100
DictionaryVariables
280
     0
  1
1
  0
DICTIONARYVAR
  5
472
102
{ACAD_REACTORS
330
46E
102
}
330
46E
100
DictionaryVariables
280
     0
  1
0
  0
DICTIONARY
  5
539
330
57
100
AcDbDictionary
280
     1
281
     1
  3
ACAD_XREC_ROUNDTRIP
360
53A
  0
DICTIONARY
  5
535
330
14
100
AcDbDictionary
280
     1
281
     1
  3
ACAD_XREC_ROUNDTRIP
360
536
  0
DICTIONARY
  5
537
330
A
100
AcDbDictionary
280
     1
281
     1
  3
ACAD_XREC_ROUNDTRIP
360
538
  0
DICTIONARY
  5
56B
330
48D
100
AcDbDictionary
280
     1
281
     1
  3
ACAD_XREC_ROUNDTRIP
360
56C
  0
DICTIONARY
  5
53B
330
31
100
AcDbDictionary
280
     1
281
     1
  3
ACAD_XREC_ROUNDTRIP
360
53C
  0
DICTIONARY
  5
549
330
47B
100
AcDbDictionary
280
     1
281
     1
  3
ACAD_XREC_ROUNDTRIP
360
54A
  0
DICTIONARY
  5
551
330
47F
100
AcDbDictionary
280
     1
281
     1
  3
ACAD_XREC_ROUNDTRIP
360
552
  0
DICTIONARY
  5
559
330
483
100
AcDbDictionary
280
     1
281
     1
  3
ACAD_XREC_ROUNDTRIP
360
55A
  0
DICTIONARY
  5
54D
330
47D
100
AcDbDictionary
280
     1
281
     1
  3
ACAD_XREC_ROUNDTRIP
360
54E
  0
DICTIONARY
  5
54F
330
47E
100
AcDbDictionary
280
     1
281
     1
  3
ACAD_XREC_ROUNDTRIP
360
550
  0
DICTIONARY
  5
55F
330
486
100
AcDbDictionary
280
     1
281
     1
  3
ACAD_XREC_ROUNDTRIP
360
560
  0
DICTIONARY
  5
557
330
482
100
AcDbDictionary
280
     1
281
     1
  3
ACAD_XREC_ROUNDTRIP
360
558
  0
DICTIONARY
  5
53D
330
475
100
AcDbDictionary
280
     1
281
     1
  3
ACAD_XREC_ROUNDTRIP
360
53E
  0
DICTIONARY
  5
53F
330
476
100
AcDbDictionary
280
     1
281
     1
  3
ACAD_XREC_ROUNDTRIP
360
540
  0
DICTIONARY
  5
541
330
477
100
AcDbDictionary
280
     1
281
     1
  3
ACAD_XREC_ROUNDTRIP
360
542
  0
DICTIONARY
  5
543
330
478
100
AcDbDictionary
280
     1
281
     1
  3
ACAD_XREC_ROUNDTRIP
360
544
  0
DICTIONARY
  5
547
330
47A
100
AcDbDictionary
280
     1
281
     1
  3
ACAD_XREC_ROUNDTRIP
360
548
  0
DICTIONARY
  5
55B
330
484
100
AcDbDictionary
280
     1
281
     1
  3
ACAD_XREC_ROUNDTRIP
360
55C
  0
DICTIONARY
  5
555
330
481
100
AcDbDictionary
280
     1
281
     1
  3
ACAD_XREC_ROUNDTRIP
360
556
  0
DICTIONARY
  5
55D
330
485
100
AcDbDictionary
280
     1
281
     1
  3
ACAD_XREC_ROUNDTRIP
360
55E
  0
DICTIONARY
  5
54B
330
47C
100
AcDbDictionary
280
     1
281
     1
  3
ACAD_XREC_ROUNDTRIP
360
54C
  0
DICTIONARY
  5
569
330
48B
100
AcDbDictionary
280
     1
281
     1
  3
ACAD_XREC_ROUNDTRIP
360
56A
  0
DICTIONARY
  5
567
330
48A
100
AcDbDictionary
280
     1
281
     1
  3
ACAD_XREC_ROUNDTRIP
360
568
  0
DICTIONARY
  5
561
330
487
100
AcDbDictionary
280
     1
281
     1
  3
ACAD_XREC_ROUNDTRIP
360
562
  0
DICTIONARY
  5
563
330
488
100
AcDbDictionary
280
     1
281
     1
  3
ACAD_XREC_ROUNDTRIP
360
564
  0
DICTIONARY
  5
553
330
480
100
AcDbDictionary
280
     1
281
     1
  3
ACAD_XREC_ROUNDTRIP
360
554
  0
DICTIONARY
  5
545
330
479
100
AcDbDictionary
280
     1
281
     1
  3
ACAD_XREC_ROUNDTRIP
360
546
  0
DICTIONARY
  5
565
330
489
100
AcDbDictionary
280
     1
281
     1
  3
ACAD_XREC_ROUNDTRIP
360
566
  0
XRECORD
  5
53A
102
{ACAD_REACTORS
330
539
102
}
330
539
100
AcDbXrecord
280
     1
102
MATERIAL
148
0.0
149
0.0
149
0.0
 93
        0
 94
      127
282
     0
 72
     0
 77
     0
171
     0
175
     0
179
     0
273
     0
  0
XRECORD
  5
536
102
{ACAD_REACTORS
330
535
102
}
330
535
100
AcDbXrecord
280
     1
102
MATERIAL
148
0.0
149
0.0
149
0.0
 93
        0
 94
      127
282
     0
 72
     0
 77
     0
171
     0
175
     0
179
     0
273
     0
  0
XRECORD
  5
538
102
{ACAD_REACTORS
330
537
102
}
330
537
100
AcDbXrecord
280
     1
102
MATERIAL
148
0.0
149
0.0
149
0.0
 93
        0
 94
      127
282
     0
 72
     0
 77
     0
171
     0
175
     0
179
     0
273
     0
  0
XRECORD
  5
56C
102
{ACAD_REACTORS
330
56B
102
}
330
56B
100
AcDbXrecord
280
     1
102
ACAD_ROUNDTRIP_2010_MLEADER_STYLE
  0
XRECORD
  5
53C
102
{ACAD_REACTORS
330
53B
102
}
330
53B
100
AcDbXrecord
280
     1
102
RTVSPropertyOp0
 70
     1
102
RTVSPropertyOp1
 70
     1
102
RTVSPropertyOp2
 70
     1
102
RTVSPropertyOp3
 70
     1
102
RTVSPropertyOp4
 70
     1
102
RTVSPropertyOp5
 70
     1
102
RTVSPropertyOp6
 70
     1
102
RTVSPropertyOp7
 70
     1
102
RTVSPropertyOp8
 70
     1
102
RTVSPropertyOp9
 70
     1
102
RTVSPropertyOp10
 70
     1
102
RTVSPropertyOp11
 70
     1
102
RTVSPropertyOp12
 70
     1
102
RTVSPropertyOp13
 70
     1
102
RTVSPropertyOp14
 70
     1
102
RTVSPropertyOp15
 70
     1
102
RTVSPropertyOp16
 70
     1
102
RTVSPropertyOp17
 70
     1
102
RTVSPropertyOp18
 70
     1
102
RTVSPropertyOp19
 70
     1
102
RTVSPropertyOp20
 70
     1
102
RTVSPropertyOp21
 70
     1
102
RTVSPropertyOp22
 70
     1
102
RTVSPropertyOp23
 70
     1
102
RTVSPropertyOp24
 70
     1
102
RTVSPropertyOp25
 70
     1
102
RTVSPropertyOp26
 70
     1
102
RTVSPropertyOp27
 70
     1
102
RTVSPropertyOp28
 70
     1
102
RTVSPropertyOp29
 70
     1
102
RTVSPropertyOp30
 70
     1
102
RTVSPropertyOp31
 70
     1
102
RTVSPropertyOp32
 70
     1
102
RTVSPropertyOp33
 70
     1
102
RTVSPropertyOp34
 70
     1
102
RTVSPropertyOp35
 70
     1
102
RTVSPropertyOp36
 70
     1
102
RTVSPropertyOp37
 70
     1
102
RTVSPropertyOp38
 70
     1
102
RTVSPropertyOp39
 70
     1
102
RTVSPropertyOp40
 70
     1
102
RTVSPropertyOp41
 70
     1
102
RTVSPropertyOp42
 70
     1
102
RTVSPropertyOp43
 70
     1
102
RTVSPropertyOp44
 70
     1
102
RTVSPropertyOp45
 70
     1
102
RTVSPropertyOp46
 70
     1
102
RTVSPropertyOp47
 70
     1
102
RTVSPropertyOp48
 70
     1
102
RTVSPropertyOp49
 70
     1
102
RTVSPropertyOp50
 70
     1
102
RTVSPropertyOp51
 70
     0
102
RTVSPropertyOp52
 70
     0
102
RTVSPropertyOp53
 70
     1
102
RTVSPropertyOp54
 70
     1
102
RTVSPropertyOp55
 70
     1
102
RTVSPropertyOp56
 70
     1
102
RTVSPropertyOp57
 70
     1
102
RTVSPost2010Prop28
280
     1
102
RTVSPost2010PropOp28
 70
     1
102
RTVSPost2010Prop29
280
     1
102
RTVSPost2010PropOp29
 70
     1
102
RTVSPost2010Prop30
280
     0
102
RTVSPost2010PropOp30
 70
     1
102
RTVSPost2010Prop31
280
     0
102
RTVSPost2010PropOp31
 70
     1
102
RTVSPost2010Prop32
280
     0
102
RTVSPost2010PropOp32
 70
     1
102
RTVSPost2010Prop33
280
     0
102
RTVSPost2010PropOp33
 70
     1
102
RTVSPost2010Prop34
280
     0
102
RTVSPost2010PropOp34
 70
     1
102
RTVSPost2010Prop35
280
     0
102
RTVSPost2010PropOp35
 70
     1
102
RTVSPost2010Prop36
280
     0
102
RTVSPost2010PropOp36
 70
     1
102
RTVSPost2010Prop37
 90
       50
102
RTVSPost2010PropOp37
 70
     1
102
RTVSPost2010Prop38
140
0.0
102
RTVSPost2010PropOp38
 70
     1
102
RTVSPost2010Prop39
140
1.0
102
RTVSPost2010PropOp39
 70
     1
102
RTVSPost2010Prop40
 90
        0
102
RTVSPost2010PropOp40
 70
     1
102
RTVSPost2010Prop41ColorIndex
 90
       18
102
RTVSPost2010Prop41ColorRGB
 90
        0
102
RTVSPost2010PropOp41
 70
     1
102
RTVSPost2010Prop42
 90
       50
102
RTVSPost2010PropOp42
 70
     1
102
RTVSPost2010Prop43
 90
        3
102
RTVSPost2010PropOp43
 70
     1
102
RTVSPost2010Prop44ColorIndex
 90
        5
102
RTVSPost2010Prop44ColorRGB
 90
      255
102
RTVSPost2010PropOp44
 70
     1
102
RTVSPost2010Prop45
280
     0
102
RTVSPost2010PropOp45
 70
     1
102
RTVSPost2010Prop46
 90
       50
102
RTVSPost2010PropOp46
 70
     1
102
RTVSPost2010Prop47
 90
       50
102
RTVSPost2010PropOp47
 70
     1
102
RTVSPost2010Prop48
 90
       50
102
RTVSPost2010PropOp48
 70
     1
102
RTVSPost2010Prop49
280
     0
102
RTVSPost2010PropOp49
 70
     1
102
RTVSPost2010Prop50
 90
       50
102
RTVSPost2010PropOp50
 70
     1
102
RTVSPost2010Prop51ColorIndex
 90
      256
102
RTVSPost2010Prop51ColorRGB
 90
-16777216
102
RTVSPost2010PropOp51
 70
     0
102
RTVSPost2010Prop52
140
1.0
102
RTVSPost2010PropOp52
 70
     0
102
RTVSPost2010Prop53
 90
        2
102
RTVSPost2010PropOp53
 70
     1
102
RTVSPost2010Prop54
  1
strokes_ogs.tif
102
RTVSPost2010PropOp54
 70
     1
102
RTVSPost2010Prop55
280
     0
102
RTVSPost2010PropOp55
 70
     1
102
RTVSPost2010Prop56
140
1.0
102
RTVSPost2010PropOp56
 70
     1
102
RTVSPost2010Prop57
140
1.0
102
RTVSPost2010PropOp57
 70
     1
  0
XRECORD
  5
54A
102
{ACAD_REACTORS
330
549
102
}
330
549
100
AcDbXrecord
280
     1
102
RTVSPropertyOp0
 70
     1
102
RTVSPropertyOp1
 70
     1
102
RTVSPropertyOp2
 70
     1
102
RTVSPropertyOp3
 70
     1
102
RTVSPropertyOp4
 70
     1
102
RTVSPropertyOp5
 70
     1
102
RTVSPropertyOp6
 70
     1
102
RTVSPropertyOp7
 70
     1
102
RTVSPropertyOp8
 70
     1
102
RTVSPropertyOp9
 70
     1
102
RTVSPropertyOp10
 70
     1
102
RTVSPropertyOp11
 70
     1
102
RTVSPropertyOp12
 70
     1
102
RTVSPropertyOp13
 70
     1
102
RTVSPropertyOp14
 70
     1
102
RTVSPropertyOp15
 70
     1
102
RTVSPropertyOp16
 70
     1
102
RTVSPropertyOp17
 70
     1
102
RTVSPropertyOp18
 70
     1
102
RTVSPropertyOp19
 70
     1
102
RTVSPropertyOp20
 70
     1
102
RTVSPropertyOp21
 70
     1
102
RTVSPropertyOp22
 70
     1
102
RTVSPropertyOp23
 70
     1
102
RTVSPropertyOp24
 70
     1
102
RTVSPropertyOp25
 70
     1
102
RTVSPropertyOp26
 70
     1
102
RTVSPropertyOp27
 70
     1
102
RTVSPropertyOp28
 70
     1
102
RTVSPropertyOp29
 70
     1
102
RTVSPropertyOp30
 70
     1
102
RTVSPropertyOp31
 70
     1
102
RTVSPropertyOp32
 70
     1
102
RTVSPropertyOp33
 70
     1
102
RTVSPropertyOp34
 70
     1
102
RTVSPropertyOp35
 70
     1
102
RTVSPropertyOp36
 70
     1
102
RTVSPropertyOp37
 70
     1
102
RTVSPropertyOp38
 70
     1
102
RTVSPropertyOp39
 70
     1
102
RTVSPropertyOp40
 70
     1
102
RTVSPropertyOp41
 70
     1
102
RTVSPropertyOp42
 70
     1
102
RTVSPropertyOp43
 70
     1
102
RTVSPropertyOp44
 70
     1
102
RTVSPropertyOp45
 70
     1
102
RTVSPropertyOp46
 70
     1
102
RTVSPropertyOp47
 70
     1
102
RTVSPropertyOp48
 70
     1
102
RTVSPropertyOp49
 70
     1
102
RTVSPropertyOp50
 70
     1
102
RTVSPropertyOp51
 70
     0
102
RTVSPropertyOp52
 70
     0
102
RTVSPropertyOp53
 70
     1
102
RTVSPropertyOp54
 70
     1
102
RTVSPropertyOp55
 70
     1
102
RTVSPropertyOp56
 70
     1
102
RTVSPropertyOp57
 70
     1
102
RTVSPost2010Prop28
280
     0
102
RTVSPost2010PropOp28
 70
     1
102
RTVSPost2010Prop29
280
     1
102
RTVSPost2010PropOp29
 70
     1
102
RTVSPost2010Prop30
280
     1
102
RTVSPost2010PropOp30
 70
     1
102
RTVSPost2010Prop31
280
     0
102
RTVSPost2010PropOp31
 70
     1
102
RTVSPost2010Prop32
280
     0
102
RTVSPost2010PropOp32
 70
     1
102
RTVSPost2010Prop33
280
     0
102
RTVSPost2010PropOp33
 70
     1
102
RTVSPost2010Prop34
280
     0
102
RTVSPost2010PropOp34
 70
     1
102
RTVSPost2010Prop35
280
     0
102
RTVSPost2010PropOp35
 70
     1
102
RTVSPost2010Prop36
280
     0
102
RTVSPost2010PropOp36
 70
     1
102
RTVSPost2010Prop37
 90
       50
102
RTVSPost2010PropOp37
 70
     1
102
RTVSPost2010Prop38
140
0.0
102
RTVSPost2010PropOp38
 70
     1
102
RTVSPost2010Prop39
140
1.0
102
RTVSPost2010PropOp39
 70
     1
102
RTVSPost2010Prop40
 90
        0
102
RTVSPost2010PropOp40
 70
     1
102
RTVSPost2010Prop41ColorIndex
 90
       18
102
RTVSPost2010Prop41ColorRGB
 90
        0
102
RTVSPost2010PropOp41
 70
     1
102
RTVSPost2010Prop42
 90
       50
102
RTVSPost2010PropOp42
 70
     1
102
RTVSPost2010Prop43
 90
        3
102
RTVSPost2010PropOp43
 70
     1
102
RTVSPost2010Prop44ColorIndex
 90
        5
102
RTVSPost2010Prop44ColorRGB
 90
      255
102
RTVSPost2010PropOp44
 70
     1
102
RTVSPost2010Prop45
280
     0
102
RTVSPost2010PropOp45
 70
     1
102
RTVSPost2010Prop46
 90
       50
102
RTVSPost2010PropOp46
 70
     1
102
RTVSPost2010Prop47
 90
       50
102
RTVSPost2010PropOp47
 70
     1
102
RTVSPost2010Prop48
 90
       50
102
RTVSPost2010PropOp48
 70
     1
102
RTVSPost2010Prop49
280
     0
102
RTVSPost2010PropOp49
 70
     1
102
RTVSPost2010Prop50
 90
       50
102
RTVSPost2010PropOp50
 70
     1
102
RTVSPost2010Prop51ColorIndex
 90
      256
102
RTVSPost2010Prop51ColorRGB
 90
-16777216
102
RTVSPost2010PropOp51
 70
     0
102
RTVSPost2010Prop52
140
1.0
102
RTVSPost2010PropOp52
 70
     0
102
RTVSPost2010Prop53
 90
        2
102
RTVSPost2010PropOp53
 70
     1
102
RTVSPost2010Prop54
  1
strokes_ogs.tif
102
RTVSPost2010PropOp54
 70
     1
102
RTVSPost2010Prop55
280
     0
102
RTVSPost2010PropOp55
 70
     1
102
RTVSPost2010Prop56
140
1.0
102
RTVSPost2010PropOp56
 70
     1
102
RTVSPost2010Prop57
140
1.0
102
RTVSPost2010PropOp57
 70
     1
  0
XRECORD
  5
552
102
{ACAD_REACTORS
330
551
102
}
330
551
100
AcDbXrecord
280
     1
102
RTVSPropertyOp0
 70
     1
102
RTVSPropertyOp1
 70
     1
102
RTVSPropertyOp2
 70
     1
102
RTVSPropertyOp3
 70
     1
102
RTVSPropertyOp4
 70
     1
102
RTVSPropertyOp5
 70
     1
102
RTVSPropertyOp6
 70
     1
102
RTVSPropertyOp7
 70
     1
102
RTVSPropertyOp8
 70
     1
102
RTVSPropertyOp9
 70
     1
102
RTVSPropertyOp10
 70
     1
102
RTVSPropertyOp11
 70
     1
102
RTVSPropertyOp12
 70
     1
102
RTVSPropertyOp13
 70
     1
102
RTVSPropertyOp14
 70
     1
102
RTVSPropertyOp15
 70
     1
102
RTVSPropertyOp16
 70
     1
102
RTVSPropertyOp17
 70
     1
102
RTVSPropertyOp18
 70
     1
102
RTVSPropertyOp19
 70
     1
102
RTVSPropertyOp20
 70
     1
102
RTVSPropertyOp21
 70
     1
102
RTVSPropertyOp22
 70
     1
102
RTVSPropertyOp23
 70
     1
102
RTVSPropertyOp24
 70
     1
102
RTVSPropertyOp25
 70
     1
102
RTVSPropertyOp26
 70
     1
102
RTVSPropertyOp27
 70
     1
102
RTVSPropertyOp28
 70
     1
102
RTVSPropertyOp29
 70
     1
102
RTVSPropertyOp30
 70
     1
102
RTVSPropertyOp31
 70
     1
102
RTVSPropertyOp32
 70
     1
102
RTVSPropertyOp33
 70
     1
102
RTVSPropertyOp34
 70
     1
102
RTVSPropertyOp35
 70
     1
102
RTVSPropertyOp36
 70
     1
102
RTVSPropertyOp37
 70
     1
102
RTVSPropertyOp38
 70
     1
102
RTVSPropertyOp39
 70
     1
102
RTVSPropertyOp40
 70
     1
102
RTVSPropertyOp41
 70
     1
102
RTVSPropertyOp42
 70
     1
102
RTVSPropertyOp43
 70
     1
102
RTVSPropertyOp44
 70
     1
102
RTVSPropertyOp45
 70
     1
102
RTVSPropertyOp46
 70
     1
102
RTVSPropertyOp47
 70
     1
102
RTVSPropertyOp48
 70
     1
102
RTVSPropertyOp49
 70
     1
102
RTVSPropertyOp50
 70
     1
102
RTVSPropertyOp51
 70
     0
102
RTVSPropertyOp52
 70
     0
102
RTVSPropertyOp53
 70
     1
102
RTVSPropertyOp54
 70
     1
102
RTVSPropertyOp55
 70
     1
102
RTVSPropertyOp56
 70
     1
102
RTVSPropertyOp57
 70
     1
102
RTVSPost2010Prop28
280
     0
102
RTVSPost2010PropOp28
 70
     1
102
RTVSPost2010Prop29
280
     1
102
RTVSPost2010PropOp29
 70
     1
102
RTVSPost2010Prop30
280
     1
102
RTVSPost2010PropOp30
 70
     1
102
RTVSPost2010Prop31
280
     0
102
RTVSPost2010PropOp31
 70
     1
102
RTVSPost2010Prop32
280
     0
102
RTVSPost2010PropOp32
 70
     1
102
RTVSPost2010Prop33
280
     0
102
RTVSPost2010PropOp33
 70
     1
102
RTVSPost2010Prop34
280
     0
102
RTVSPost2010PropOp34
 70
     1
102
RTVSPost2010Prop35
280
     0
102
RTVSPost2010PropOp35
 70
     1
102
RTVSPost2010Prop36
280
     0
102
RTVSPost2010PropOp36
 70
     1
102
RTVSPost2010Prop37
 90
       50
102
RTVSPost2010PropOp37
 70
     1
102
RTVSPost2010Prop38
140
0.0
102
RTVSPost2010PropOp38
 70
     1
102
RTVSPost2010Prop39
140
1.0
102
RTVSPost2010PropOp39
 70
     1
102
RTVSPost2010Prop40
 90
        0
102
RTVSPost2010PropOp40
 70
     1
102
RTVSPost2010Prop41ColorIndex
 90
       18
102
RTVSPost2010Prop41ColorRGB
 90
        0
102
RTVSPost2010PropOp41
 70
     1
102
RTVSPost2010Prop42
 90
       50
102
RTVSPost2010PropOp42
 70
     1
102
RTVSPost2010Prop43
 90
        3
102
RTVSPost2010PropOp43
 70
     1
102
RTVSPost2010Prop44ColorIndex
 90
        5
102
RTVSPost2010Prop44ColorRGB
 90
      255
102
RTVSPost2010PropOp44
 70
     1
102
RTVSPost2010Prop45
280
     0
102
RTVSPost2010PropOp45
 70
     1
102
RTVSPost2010Prop46
 90
       50
102
RTVSPost2010PropOp46
 70
     1
102
RTVSPost2010Prop47
 90
       50
102
RTVSPost2010PropOp47
 70
     1
102
RTVSPost2010Prop48
 90
       50
102
RTVSPost2010PropOp48
 70
     1
102
RTVSPost2010Prop49
280
     0
102
RTVSPost2010PropOp49
 70
     1
102
RTVSPost2010Prop50
 90
       50
102
RTVSPost2010PropOp50
 70
     1
102
RTVSPost2010Prop51ColorIndex
 90
      256
102
RTVSPost2010Prop51ColorRGB
 90
-16777216
102
RTVSPost2010PropOp51
 70
     0
102
RTVSPost2010Prop52
140
1.0
102
RTVSPost2010PropOp52
 70
     0
102
RTVSPost2010Prop53
 90
        2
102
RTVSPost2010PropOp53
 70
     1
102
RTVSPost2010Prop54
  1
strokes_ogs.tif
102
RTVSPost2010PropOp54
 70
     1
102
RTVSPost2010Prop55
280
     0
102
RTVSPost2010PropOp55
 70
     1
102
RTVSPost2010Prop56
140
1.0
102
RTVSPost2010PropOp56
 70
     1
102
RTVSPost2010Prop57
140
1.0
102
RTVSPost2010PropOp57
 70
     1
  0
XRECORD
  5
55A
102
{ACAD_REACTORS
330
559
102
}
330
559
100
AcDbXrecord
280
     1
102
RTVSPropertyOp0
 70
     1
102
RTVSPropertyOp1
 70
     1
102
RTVSPropertyOp2
 70
     1
102
RTVSPropertyOp3
 70
     1
102
RTVSPropertyOp4
 70
     1
102
RTVSPropertyOp5
 70
     1
102
RTVSPropertyOp6
 70
     1
102
RTVSPropertyOp7
 70
     1
102
RTVSPropertyOp8
 70
     1
102
RTVSPropertyOp9
 70
     1
102
RTVSPropertyOp10
 70
     1
102
RTVSPropertyOp11
 70
     1
102
RTVSPropertyOp12
 70
     1
102
RTVSPropertyOp13
 70
     1
102
RTVSPropertyOp14
 70
     1
102
RTVSPropertyOp15
 70
     1
102
RTVSPropertyOp16
 70
     1
102
RTVSPropertyOp17
 70
     1
102
RTVSPropertyOp18
 70
     1
102
RTVSPropertyOp19
 70
     1
102
RTVSPropertyOp20
 70
     1
102
RTVSPropertyOp21
 70
     1
102
RTVSPropertyOp22
 70
     1
102
RTVSPropertyOp23
 70
     1
102
RTVSPropertyOp24
 70
     1
102
RTVSPropertyOp25
 70
     1
102
RTVSPropertyOp26
 70
     1
102
RTVSPropertyOp27
 70
     1
102
RTVSPropertyOp28
 70
     1
102
RTVSPropertyOp29
 70
     1
102
RTVSPropertyOp30
 70
     1
102
RTVSPropertyOp31
 70
     1
102
RTVSPropertyOp32
 70
     1
102
RTVSPropertyOp33
 70
     1
102
RTVSPropertyOp34
 70
     1
102
RTVSPropertyOp35
 70
     1
102
RTVSPropertyOp36
 70
     1
102
RTVSPropertyOp37
 70
     1
102
RTVSPropertyOp38
 70
     1
102
RTVSPropertyOp39
 70
     1
102
RTVSPropertyOp40
 70
     1
102
RTVSPropertyOp41
 70
     1
102
RTVSPropertyOp42
 70
     1
102
RTVSPropertyOp43
 70
     1
102
RTVSPropertyOp44
 70
     1
102
RTVSPropertyOp45
 70
     1
102
RTVSPropertyOp46
 70
     1
102
RTVSPropertyOp47
 70
     1
102
RTVSPropertyOp48
 70
     1
102
RTVSPropertyOp49
 70
     1
102
RTVSPropertyOp50
 70
     1
102
RTVSPropertyOp51
 70
     0
102
RTVSPropertyOp52
 70
     0
102
RTVSPropertyOp53
 70
     1
102
RTVSPropertyOp54
 70
     1
102
RTVSPropertyOp55
 70
     1
102
RTVSPropertyOp56
 70
     1
102
RTVSPropertyOp57
 70
     1
102
RTVSPost2010Prop28
280
     0
102
RTVSPost2010PropOp28
 70
     1
102
RTVSPost2010Prop29
280
     1
102
RTVSPost2010PropOp29
 70
     1
102
RTVSPost2010Prop30
280
     1
102
RTVSPost2010PropOp30
 70
     1
102
RTVSPost2010Prop31
280
     0
102
RTVSPost2010PropOp31
 70
     1
102
RTVSPost2010Prop32
280
     0
102
RTVSPost2010PropOp32
 70
     1
102
RTVSPost2010Prop33
280
     0
102
RTVSPost2010PropOp33
 70
     1
102
RTVSPost2010Prop34
280
     0
102
RTVSPost2010PropOp34
 70
     1
102
RTVSPost2010Prop35
280
     0
102
RTVSPost2010PropOp35
 70
     1
102
RTVSPost2010Prop36
280
     0
102
RTVSPost2010PropOp36
 70
     1
102
RTVSPost2010Prop37
 90
       50
102
RTVSPost2010PropOp37
 70
     1
102
RTVSPost2010Prop38
140
0.0
102
RTVSPost2010PropOp38
 70
     1
102
RTVSPost2010Prop39
140
1.0
102
RTVSPost2010PropOp39
 70
     1
102
RTVSPost2010Prop40
 90
        0
102
RTVSPost2010PropOp40
 70
     1
102
RTVSPost2010Prop41ColorIndex
 90
       18
102
RTVSPost2010Prop41ColorRGB
 90
        0
102
RTVSPost2010PropOp41
 70
     1
102
RTVSPost2010Prop42
 90
       50
102
RTVSPost2010PropOp42
 70
     1
102
RTVSPost2010Prop43
 90
        3
102
RTVSPost2010PropOp43
 70
     1
102
RTVSPost2010Prop44ColorIndex
 90
        5
102
RTVSPost2010Prop44ColorRGB
 90
      255
102
RTVSPost2010PropOp44
 70
     1
102
RTVSPost2010Prop45
280
     0
102
RTVSPost2010PropOp45
 70
     1
102
RTVSPost2010Prop46
 90
       50
102
RTVSPost2010PropOp46
 70
     1
102
RTVSPost2010Prop47
 90
       50
102
RTVSPost2010PropOp47
 70
     1
102
RTVSPost2010Prop48
 90
       50
102
RTVSPost2010PropOp48
 70
     1
102
RTVSPost2010Prop49
280
     0
102
RTVSPost2010PropOp49
 70
     1
102
RTVSPost2010Prop50
 90
       50
102
RTVSPost2010PropOp50
 70
     1
102
RTVSPost2010Prop51ColorIndex
 90
      256
102
RTVSPost2010Prop51ColorRGB
 90
-16777216
102
RTVSPost2010PropOp51
 70
     0
102
RTVSPost2010Prop52
140
1.0
102
RTVSPost2010PropOp52
 70
     0
102
RTVSPost2010Prop53
 90
        2
102
RTVSPost2010PropOp53
 70
     1
102
RTVSPost2010Prop54
  1
strokes_ogs.tif
102
RTVSPost2010PropOp54
 70
     1
102
RTVSPost2010Prop55
280
     0
102
RTVSPost2010PropOp55
 70
     1
102
RTVSPost2010Prop56
140
1.0
102
RTVSPost2010PropOp56
 70
     1
102
RTVSPost2010Prop57
140
1.0
102
RTVSPost2010PropOp57
 70
     1
  0
XRECORD
  5
54E
102
{ACAD_REACTORS
330
54D
102
}
330
54D
100
AcDbXrecord
280
     1
102
RTVSPropertyOp0
 70
     1
102
RTVSPropertyOp1
 70
     1
102
RTVSPropertyOp2
 70
     1
102
RTVSPropertyOp3
 70
     1
102
RTVSPropertyOp4
 70
     1
102
RTVSPropertyOp5
 70
     1
102
RTVSPropertyOp6
 70
     1
102
RTVSPropertyOp7
 70
     1
102
RTVSPropertyOp8
 70
     1
102
RTVSPropertyOp9
 70
     1
102
RTVSPropertyOp10
 70
     1
102
RTVSPropertyOp11
 70
     1
102
RTVSPropertyOp12
 70
     1
102
RTVSPropertyOp13
 70
     1
102
RTVSPropertyOp14
 70
     1
102
RTVSPropertyOp15
 70
     1
102
RTVSPropertyOp16
 70
     1
102
RTVSPropertyOp17
 70
     1
102
RTVSPropertyOp18
 70
     1
102
RTVSPropertyOp19
 70
     1
102
RTVSPropertyOp20
 70
     1
102
RTVSPropertyOp21
 70
     1
102
RTVSPropertyOp22
 70
     1
102
RTVSPropertyOp23
 70
     1
102
RTVSPropertyOp24
 70
     1
102
RTVSPropertyOp25
 70
     1
102
RTVSPropertyOp26
 70
     1
102
RTVSPropertyOp27
 70
     1
102
RTVSPropertyOp28
 70
     1
102
RTVSPropertyOp29
 70
     1
102
RTVSPropertyOp30
 70
     1
102
RTVSPropertyOp31
 70
     1
102
RTVSPropertyOp32
 70
     1
102
RTVSPropertyOp33
 70
     1
102
RTVSPropertyOp34
 70
     1
102
RTVSPropertyOp35
 70
     1
102
RTVSPropertyOp36
 70
     1
102
RTVSPropertyOp37
 70
     1
102
RTVSPropertyOp38
 70
     1
102
RTVSPropertyOp39
 70
     1
102
RTVSPropertyOp40
 70
     1
102
RTVSPropertyOp41
 70
     1
102
RTVSPropertyOp42
 70
     1
102
RTVSPropertyOp43
 70
     1
102
RTVSPropertyOp44
 70
     1
102
RTVSPropertyOp45
 70
     1
102
RTVSPropertyOp46
 70
     1
102
RTVSPropertyOp47
 70
     1
102
RTVSPropertyOp48
 70
     1
102
RTVSPropertyOp49
 70
     1
102
RTVSPropertyOp50
 70
     1
102
RTVSPropertyOp51
 70
     0
102
RTVSPropertyOp52
 70
     0
102
RTVSPropertyOp53
 70
     1
102
RTVSPropertyOp54
 70
     1
102
RTVSPropertyOp55
 70
     1
102
RTVSPropertyOp56
 70
     1
102
RTVSPropertyOp57
 70
     1
102
RTVSPost2010Prop28
280
     0
102
RTVSPost2010PropOp28
 70
     1
102
RTVSPost2010Prop29
280
     1
102
RTVSPost2010PropOp29
 70
     1
102
RTVSPost2010Prop30
280
     1
102
RTVSPost2010PropOp30
 70
     1
102
RTVSPost2010Prop31
280
     0
102
RTVSPost2010PropOp31
 70
     1
102
RTVSPost2010Prop32
280
     0
102
RTVSPost2010PropOp32
 70
     1
102
RTVSPost2010Prop33
280
     0
102
RTVSPost2010PropOp33
 70
     1
102
RTVSPost2010Prop34
280
     0
102
RTVSPost2010PropOp34
 70
     1
102
RTVSPost2010Prop35
280
     0
102
RTVSPost2010PropOp35
 70
     1
102
RTVSPost2010Prop36
280
     0
102
RTVSPost2010PropOp36
 70
     1
102
RTVSPost2010Prop37
 90
       50
102
RTVSPost2010PropOp37
 70
     1
102
RTVSPost2010Prop38
140
0.0
102
RTVSPost2010PropOp38
 70
     1
102
RTVSPost2010Prop39
140
1.0
102
RTVSPost2010PropOp39
 70
     1
102
RTVSPost2010Prop40
 90
        0
102
RTVSPost2010PropOp40
 70
     1
102
RTVSPost2010Prop41ColorIndex
 90
       18
102
RTVSPost2010Prop41ColorRGB
 90
        0
102
RTVSPost2010PropOp41
 70
     1
102
RTVSPost2010Prop42
 90
       50
102
RTVSPost2010PropOp42
 70
     1
102
RTVSPost2010Prop43
 90
        3
102
RTVSPost2010PropOp43
 70
     1
102
RTVSPost2010Prop44ColorIndex
 90
        5
102
RTVSPost2010Prop44ColorRGB
 90
      255
102
RTVSPost2010PropOp44
 70
     1
102
RTVSPost2010Prop45
280
     0
102
RTVSPost2010PropOp45
 70
     1
102
RTVSPost2010Prop46
 90
       50
102
RTVSPost2010PropOp46
 70
     1
102
RTVSPost2010Prop47
 90
       50
102
RTVSPost2010PropOp47
 70
     1
102
RTVSPost2010Prop48
 90
       50
102
RTVSPost2010PropOp48
 70
     1
102
RTVSPost2010Prop49
280
     0
102
RTVSPost2010PropOp49
 70
     1
102
RTVSPost2010Prop50
 90
       50
102
RTVSPost2010PropOp50
 70
     1
102
RTVSPost2010Prop51ColorIndex
 90
      256
102
RTVSPost2010Prop51ColorRGB
 90
-16777216
102
RTVSPost2010PropOp51
 70
     0
102
RTVSPost2010Prop52
140
1.0
102
RTVSPost2010PropOp52
 70
     0
102
RTVSPost2010Prop53
 90
        2
102
RTVSPost2010PropOp53
 70
     1
102
RTVSPost2010Prop54
  1
strokes_ogs.tif
102
RTVSPost2010PropOp54
 70
     1
102
RTVSPost2010Prop55
280
     0
102
RTVSPost2010PropOp55
 70
     1
102
RTVSPost2010Prop56
140
1.0
102
RTVSPost2010PropOp56
 70
     1
102
RTVSPost2010Prop57
140
1.0
102
RTVSPost2010PropOp57
 70
     1
  0
XRECORD
  5
550
102
{ACAD_REACTORS
330
54F
102
}
330
54F
100
AcDbXrecord
280
     1
102
RTVSPropertyOp0
 70
     1
102
RTVSPropertyOp1
 70
     1
102
RTVSPropertyOp2
 70
     1
102
RTVSPropertyOp3
 70
     1
102
RTVSPropertyOp4
 70
     1
102
RTVSPropertyOp5
 70
     1
102
RTVSPropertyOp6
 70
     1
102
RTVSPropertyOp7
 70
     1
102
RTVSPropertyOp8
 70
     1
102
RTVSPropertyOp9
 70
     1
102
RTVSPropertyOp10
 70
     1
102
RTVSPropertyOp11
 70
     1
102
RTVSPropertyOp12
 70
     1
102
RTVSPropertyOp13
 70
     1
102
RTVSPropertyOp14
 70
     1
102
RTVSPropertyOp15
 70
     1
102
RTVSPropertyOp16
 70
     1
102
RTVSPropertyOp17
 70
     1
102
RTVSPropertyOp18
 70
     1
102
RTVSPropertyOp19
 70
     1
102
RTVSPropertyOp20
 70
     1
102
RTVSPropertyOp21
 70
     1
102
RTVSPropertyOp22
 70
     1
102
RTVSPropertyOp23
 70
     1
102
RTVSPropertyOp24
 70
     1
102
RTVSPropertyOp25
 70
     1
102
RTVSPropertyOp26
 70
     1
102
RTVSPropertyOp27
 70
     1
102
RTVSPropertyOp28
 70
     1
102
RTVSPropertyOp29
 70
     1
102
RTVSPropertyOp30
 70
     1
102
RTVSPropertyOp31
 70
     1
102
RTVSPropertyOp32
 70
     1
102
RTVSPropertyOp33
 70
     1
102
RTVSPropertyOp34
 70
     1
102
RTVSPropertyOp35
 70
     1
102
RTVSPropertyOp36
 70
     1
102
RTVSPropertyOp37
 70
     1
102
RTVSPropertyOp38
 70
     1
102
RTVSPropertyOp39
 70
     1
102
RTVSPropertyOp40
 70
     1
102
RTVSPropertyOp41
 70
     1
102
RTVSPropertyOp42
 70
     1
102
RTVSPropertyOp43
 70
     1
102
RTVSPropertyOp44
 70
     1
102
RTVSPropertyOp45
 70
     1
102
RTVSPropertyOp46
 70
     1
102
RTVSPropertyOp47
 70
     1
102
RTVSPropertyOp48
 70
     1
102
RTVSPropertyOp49
 70
     1
102
RTVSPropertyOp50
 70
     1
102
RTVSPropertyOp51
 70
     0
102
RTVSPropertyOp52
 70
     0
102
RTVSPropertyOp53
 70
     1
102
RTVSPropertyOp54
 70
     1
102
RTVSPropertyOp55
 70
     1
102
RTVSPropertyOp56
 70
     1
102
RTVSPropertyOp57
 70
     1
102
RTVSPost2010Prop28
280
     0
102
RTVSPost2010PropOp28
 70
     1
102
RTVSPost2010Prop29
280
     1
102
RTVSPost2010PropOp29
 70
     1
102
RTVSPost2010Prop30
280
     1
102
RTVSPost2010PropOp30
 70
     1
102
RTVSPost2010Prop31
280
     0
102
RTVSPost2010PropOp31
 70
     1
102
RTVSPost2010Prop32
280
     0
102
RTVSPost2010PropOp32
 70
     1
102
RTVSPost2010Prop33
280
     0
102
RTVSPost2010PropOp33
 70
     1
102
RTVSPost2010Prop34
280
     0
102
RTVSPost2010PropOp34
 70
     1
102
RTVSPost2010Prop35
280
     0
102
RTVSPost2010PropOp35
 70
     1
102
RTVSPost2010Prop36
280
     0
102
RTVSPost2010PropOp36
 70
     1
102
RTVSPost2010Prop37
 90
       50
102
RTVSPost2010PropOp37
 70
     1
102
RTVSPost2010Prop38
140
0.0
102
RTVSPost2010PropOp38
 70
     1
102
RTVSPost2010Prop39
140
1.0
102
RTVSPost2010PropOp39
 70
     1
102
RTVSPost2010Prop40
 90
        0
102
RTVSPost2010PropOp40
 70
     1
102
RTVSPost2010Prop41ColorIndex
 90
       18
102
RTVSPost2010Prop41ColorRGB
 90
        0
102
RTVSPost2010PropOp41
 70
     1
102
RTVSPost2010Prop42
 90
       50
102
RTVSPost2010PropOp42
 70
     1
102
RTVSPost2010Prop43
 90
        3
102
RTVSPost2010PropOp43
 70
     1
102
RTVSPost2010Prop44ColorIndex
 90
        5
102
RTVSPost2010Prop44ColorRGB
 90
      255
102
RTVSPost2010PropOp44
 70
     1
102
RTVSPost2010Prop45
280
     0
102
RTVSPost2010PropOp45
 70
     1
102
RTVSPost2010Prop46
 90
       50
102
RTVSPost2010PropOp46
 70
     1
102
RTVSPost2010Prop47
 90
       50
102
RTVSPost2010PropOp47
 70
     1
102
RTVSPost2010Prop48
 90
       50
102
RTVSPost2010PropOp48
 70
     1
102
RTVSPost2010Prop49
280
     0
102
RTVSPost2010PropOp49
 70
     1
102
RTVSPost2010Prop50
 90
       50
102
RTVSPost2010PropOp50
 70
     1
102
RTVSPost2010Prop51ColorIndex
 90
      256
102
RTVSPost2010Prop51ColorRGB
 90
-16777216
102
RTVSPost2010PropOp51
 70
     0
102
RTVSPost2010Prop52
140
1.0
102
RTVSPost2010PropOp52
 70
     0
102
RTVSPost2010Prop53
 90
        2
102
RTVSPost2010PropOp53
 70
     1
102
RTVSPost2010Prop54
  1
strokes_ogs.tif
102
RTVSPost2010PropOp54
 70
     1
102
RTVSPost2010Prop55
280
     0
102
RTVSPost2010PropOp55
 70
     1
102
RTVSPost2010Prop56
140
1.0
102
RTVSPost2010PropOp56
 70
     1
102
RTVSPost2010Prop57
140
1.0
102
RTVSPost2010PropOp57
 70
     1
  0
XRECORD
  5
560
102
{ACAD_REACTORS
330
55F
102
}
330
55F
100
AcDbXrecord
280
     1
102
RTVSPropertyOp0
 70
     0
102
RTVSPropertyOp1
 70
     0
102
RTVSPropertyOp2
 70
     0
102
RTVSPropertyOp3
 70
     0
102
RTVSPropertyOp4
 70
     0
102
RTVSPropertyOp5
 70
     0
102
RTVSPropertyOp6
 70
     0
102
RTVSPropertyOp7
 70
     0
102
RTVSPropertyOp8
 70
     0
102
RTVSPropertyOp9
 70
     0
102
RTVSPropertyOp10
 70
     0
102
RTVSPropertyOp11
 70
     0
102
RTVSPropertyOp12
 70
     0
102
RTVSPropertyOp13
 70
     0
102
RTVSPropertyOp14
 70
     0
102
RTVSPropertyOp15
 70
     0
102
RTVSPropertyOp16
 70
     0
102
RTVSPropertyOp17
 70
     0
102
RTVSPropertyOp18
 70
     0
102
RTVSPropertyOp19
 70
     0
102
RTVSPropertyOp20
 70
     0
102
RTVSPropertyOp21
 70
     0
102
RTVSPropertyOp22
 70
     0
102
RTVSPropertyOp23
 70
     0
102
RTVSPropertyOp24
 70
     0
102
RTVSPropertyOp25
 70
     0
102
RTVSPropertyOp26
 70
     0
102
RTVSPropertyOp27
 70
     0
102
RTVSPropertyOp28
 70
     1
102
RTVSPropertyOp29
 70
     1
102
RTVSPropertyOp30
 70
     1
102
RTVSPropertyOp31
 70
     1
102
RTVSPropertyOp32
 70
     1
102
RTVSPropertyOp33
 70
     1
102
RTVSPropertyOp34
 70
     1
102
RTVSPropertyOp35
 70
     1
102
RTVSPropertyOp36
 70
     1
102
RTVSPropertyOp37
 70
     1
102
RTVSPropertyOp38
 70
     1
102
RTVSPropertyOp39
 70
     1
102
RTVSPropertyOp40
 70
     1
102
RTVSPropertyOp41
 70
     1
102
RTVSPropertyOp42
 70
     1
102
RTVSPropertyOp43
 70
     1
102
RTVSPropertyOp44
 70
     1
102
RTVSPropertyOp45
 70
     1
102
RTVSPropertyOp46
 70
     1
102
RTVSPropertyOp47
 70
     1
102
RTVSPropertyOp48
 70
     1
102
RTVSPropertyOp49
 70
     1
102
RTVSPropertyOp50
 70
     1
102
RTVSPropertyOp51
 70
     0
102
RTVSPropertyOp52
 70
     0
102
RTVSPropertyOp53
 70
     1
102
RTVSPropertyOp54
 70
     1
102
RTVSPropertyOp55
 70
     1
102
RTVSPropertyOp56
 70
     1
102
RTVSPropertyOp57
 70
     1
102
RTVSPost2010Prop28
280
     0
102
RTVSPost2010PropOp28
 70
     1
102
RTVSPost2010Prop29
280
     1
102
RTVSPost2010PropOp29
 70
     1
102
RTVSPost2010Prop30
280
     1
102
RTVSPost2010PropOp30
 70
     1
102
RTVSPost2010Prop31
280
     0
102
RTVSPost2010PropOp31
 70
     1
102
RTVSPost2010Prop32
280
     0
102
RTVSPost2010PropOp32
 70
     1
102
RTVSPost2010Prop33
280
     0
102
RTVSPost2010PropOp33
 70
     1
102
RTVSPost2010Prop34
280
     0
102
RTVSPost2010PropOp34
 70
     1
102
RTVSPost2010Prop35
280
     0
102
RTVSPost2010PropOp35
 70
     1
102
RTVSPost2010Prop36
280
     0
102
RTVSPost2010PropOp36
 70
     1
102
RTVSPost2010Prop37
 90
       50
102
RTVSPost2010PropOp37
 70
     1
102
RTVSPost2010Prop38
140
0.0
102
RTVSPost2010PropOp38
 70
     1
102
RTVSPost2010Prop39
140
1.0
102
RTVSPost2010PropOp39
 70
     1
102
RTVSPost2010Prop40
 90
        0
102
RTVSPost2010PropOp40
 70
     1
102
RTVSPost2010Prop41ColorIndex
 90
       18
102
RTVSPost2010Prop41ColorRGB
 90
        0
102
RTVSPost2010PropOp41
 70
     1
102
RTVSPost2010Prop42
 90
       50
102
RTVSPost2010PropOp42
 70
     1
102
RTVSPost2010Prop43
 90
        3
102
RTVSPost2010PropOp43
 70
     1
102
RTVSPost2010Prop44ColorIndex
 90
        5
102
RTVSPost2010Prop44ColorRGB
 90
      255
102
RTVSPost2010PropOp44
 70
     1
102
RTVSPost2010Prop45
280
     0
102
RTVSPost2010PropOp45
 70
     1
102
RTVSPost2010Prop46
 90
       50
102
RTVSPost2010PropOp46
 70
     1
102
RTVSPost2010Prop47
 90
       50
102
RTVSPost2010PropOp47
 70
     1
102
RTVSPost2010Prop48
 90
       50
102
RTVSPost2010PropOp48
 70
     1
102
RTVSPost2010Prop49
280
     0
102
RTVSPost2010PropOp49
 70
     1
102
RTVSPost2010Prop50
 90
       50
102
RTVSPost2010PropOp50
 70
     1
102
RTVSPost2010Prop51ColorIndex
 90
      256
102
RTVSPost2010Prop51ColorRGB
 90
-16777216
102
RTVSPost2010PropOp51
 70
     0
102
RTVSPost2010Prop52
140
1.0
102
RTVSPost2010PropOp52
 70
     0
102
RTVSPost2010Prop53
 90
        2
102
RTVSPost2010PropOp53
 70
     1
102
RTVSPost2010Prop54
  1
strokes_ogs.tif
102
RTVSPost2010PropOp54
 70
     1
102
RTVSPost2010Prop55
280
     0
102
RTVSPost2010PropOp55
 70
     1
102
RTVSPost2010Prop56
140
1.0
102
RTVSPost2010PropOp56
 70
     1
102
RTVSPost2010Prop57
140
1.0
102
RTVSPost2010PropOp57
 70
     1
  0
XRECORD
  5
558
102
{ACAD_REACTORS
330
557
102
}
330
557
100
AcDbXrecord
280
     1
102
RTVSPropertyOp0
 70
     1
102
RTVSPropertyOp1
 70
     1
102
RTVSPropertyOp2
 70
     1
102
RTVSPropertyOp3
 70
     1
102
RTVSPropertyOp4
 70
     1
102
RTVSPropertyOp5
 70
     1
102
RTVSPropertyOp6
 70
     1
102
RTVSPropertyOp7
 70
     1
102
RTVSPropertyOp8
 70
     1
102
RTVSPropertyOp9
 70
     1
102
RTVSPropertyOp10
 70
     1
102
RTVSPropertyOp11
 70
     1
102
RTVSPropertyOp12
 70
     1
102
RTVSPropertyOp13
 70
     1
102
RTVSPropertyOp14
 70
     1
102
RTVSPropertyOp15
 70
     1
102
RTVSPropertyOp16
 70
     1
102
RTVSPropertyOp17
 70
     1
102
RTVSPropertyOp18
 70
     1
102
RTVSPropertyOp19
 70
     1
102
RTVSPropertyOp20
 70
     1
102
RTVSPropertyOp21
 70
     1
102
RTVSPropertyOp22
 70
     1
102
RTVSPropertyOp23
 70
     1
102
RTVSPropertyOp24
 70
     1
102
RTVSPropertyOp25
 70
     1
102
RTVSPropertyOp26
 70
     1
102
RTVSPropertyOp27
 70
     1
102
RTVSPropertyOp28
 70
     1
102
RTVSPropertyOp29
 70
     1
102
RTVSPropertyOp30
 70
     1
102
RTVSPropertyOp31
 70
     1
102
RTVSPropertyOp32
 70
     1
102
RTVSPropertyOp33
 70
     1
102
RTVSPropertyOp34
 70
     1
102
RTVSPropertyOp35
 70
     1
102
RTVSPropertyOp36
 70
     1
102
RTVSPropertyOp37
 70
     1
102
RTVSPropertyOp38
 70
     1
102
RTVSPropertyOp39
 70
     1
102
RTVSPropertyOp40
 70
     1
102
RTVSPropertyOp41
 70
     1
102
RTVSPropertyOp42
 70
     1
102
RTVSPropertyOp43
 70
     1
102
RTVSPropertyOp44
 70
     1
102
RTVSPropertyOp45
 70
     1
102
RTVSPropertyOp46
 70
     1
102
RTVSPropertyOp47
 70
     1
102
RTVSPropertyOp48
 70
     1
102
RTVSPropertyOp49
 70
     1
102
RTVSPropertyOp50
 70
     1
102
RTVSPropertyOp51
 70
     0
102
RTVSPropertyOp52
 70
     0
102
RTVSPropertyOp53
 70
     1
102
RTVSPropertyOp54
 70
     1
102
RTVSPropertyOp55
 70
     1
102
RTVSPropertyOp56
 70
     1
102
RTVSPropertyOp57
 70
     1
102
RTVSPost2010Prop28
280
     0
102
RTVSPost2010PropOp28
 70
     1
102
RTVSPost2010Prop29
280
     1
102
RTVSPost2010PropOp29
 70
     1
102
RTVSPost2010Prop30
280
     1
102
RTVSPost2010PropOp30
 70
     1
102
RTVSPost2010Prop31
280
     0
102
RTVSPost2010PropOp31
 70
     1
102
RTVSPost2010Prop32
280
     0
102
RTVSPost2010PropOp32
 70
     1
102
RTVSPost2010Prop33
280
     0
102
RTVSPost2010PropOp33
 70
     1
102
RTVSPost2010Prop34
280
     0
102
RTVSPost2010PropOp34
 70
     1
102
RTVSPost2010Prop35
280
     0
102
RTVSPost2010PropOp35
 70
     1
102
RTVSPost2010Prop36
280
     0
102
RTVSPost2010PropOp36
 70
     1
102
RTVSPost2010Prop37
 90
       50
102
RTVSPost2010PropOp37
 70
     1
102
RTVSPost2010Prop38
140
0.0
102
RTVSPost2010PropOp38
 70
     1
102
RTVSPost2010Prop39
140
1.0
102
RTVSPost2010PropOp39
 70
     1
102
RTVSPost2010Prop40
 90
        0
102
RTVSPost2010PropOp40
 70
     1
102
RTVSPost2010Prop41ColorIndex
 90
       18
102
RTVSPost2010Prop41ColorRGB
 90
        0
102
RTVSPost2010PropOp41
 70
     1
102
RTVSPost2010Prop42
 90
       50
102
RTVSPost2010PropOp42
 70
     1
102
RTVSPost2010Prop43
 90
        3
102
RTVSPost2010PropOp43
 70
     1
102
RTVSPost2010Prop44ColorIndex
 90
        5
102
RTVSPost2010Prop44ColorRGB
 90
      255
102
RTVSPost2010PropOp44
 70
     1
102
RTVSPost2010Prop45
280
     0
102
RTVSPost2010PropOp45
 70
     1
102
RTVSPost2010Prop46
 90
       50
102
RTVSPost2010PropOp46
 70
     1
102
RTVSPost2010Prop47
 90
       50
102
RTVSPost2010PropOp47
 70
     1
102
RTVSPost2010Prop48
 90
       50
102
RTVSPost2010PropOp48
 70
     1
102
RTVSPost2010Prop49
280
     0
102
RTVSPost2010PropOp49
 70
     1
102
RTVSPost2010Prop50
 90
       50
102
RTVSPost2010PropOp50
 70
     1
102
RTVSPost2010Prop51ColorIndex
 90
      256
102
RTVSPost2010Prop51ColorRGB
 90
-16777216
102
RTVSPost2010PropOp51
 70
     0
102
RTVSPost2010Prop52
140
1.0
102
RTVSPost2010PropOp52
 70
     0
102
RTVSPost2010Prop53
 90
        2
102
RTVSPost2010PropOp53
 70
     1
102
RTVSPost2010Prop54
  1
strokes_ogs.tif
102
RTVSPost2010PropOp54
 70
     1
102
RTVSPost2010Prop55
280
     0
102
RTVSPost2010PropOp55
 70
     1
102
RTVSPost2010Prop56
140
1.0
102
RTVSPost2010PropOp56
 70
     1
102
RTVSPost2010Prop57
140
1.0
102
RTVSPost2010PropOp57
 70
     1
  0
XRECORD
  5
53E
102
{ACAD_REACTORS
330
53D
102
}
330
53D
100
AcDbXrecord
280
     1
102
RTVSPropertyOp0
 70
     1
102
RTVSPropertyOp1
 70
     1
102
RTVSPropertyOp2
 70
     1
102
RTVSPropertyOp3
 70
     1
102
RTVSPropertyOp4
 70
     1
102
RTVSPropertyOp5
 70
     1
102
RTVSPropertyOp6
 70
     1
102
RTVSPropertyOp7
 70
     1
102
RTVSPropertyOp8
 70
     1
102
RTVSPropertyOp9
 70
     1
102
RTVSPropertyOp10
 70
     1
102
RTVSPropertyOp11
 70
     1
102
RTVSPropertyOp12
 70
     1
102
RTVSPropertyOp13
 70
     1
102
RTVSPropertyOp14
 70
     1
102
RTVSPropertyOp15
 70
     1
102
RTVSPropertyOp16
 70
     1
102
RTVSPropertyOp17
 70
     1
102
RTVSPropertyOp18
 70
     1
102
RTVSPropertyOp19
 70
     1
102
RTVSPropertyOp20
 70
     1
102
RTVSPropertyOp21
 70
     1
102
RTVSPropertyOp22
 70
     1
102
RTVSPropertyOp23
 70
     1
102
RTVSPropertyOp24
 70
     1
102
RTVSPropertyOp25
 70
     1
102
RTVSPropertyOp26
 70
     1
102
RTVSPropertyOp27
 70
     1
102
RTVSPropertyOp28
 70
     1
102
RTVSPropertyOp29
 70
     1
102
RTVSPropertyOp30
 70
     1
102
RTVSPropertyOp31
 70
     1
102
RTVSPropertyOp32
 70
     1
102
RTVSPropertyOp33
 70
     1
102
RTVSPropertyOp34
 70
     1
102
RTVSPropertyOp35
 70
     1
102
RTVSPropertyOp36
 70
     1
102
RTVSPropertyOp37
 70
     1
102
RTVSPropertyOp38
 70
     1
102
RTVSPropertyOp39
 70
     1
102
RTVSPropertyOp40
 70
     1
102
RTVSPropertyOp41
 70
     1
102
RTVSPropertyOp42
 70
     1
102
RTVSPropertyOp43
 70
     1
102
RTVSPropertyOp44
 70
     1
102
RTVSPropertyOp45
 70
     1
102
RTVSPropertyOp46
 70
     1
102
RTVSPropertyOp47
 70
     1
102
RTVSPropertyOp48
 70
     1
102
RTVSPropertyOp49
 70
     1
102
RTVSPropertyOp50
 70
     1
102
RTVSPropertyOp51
 70
     0
102
RTVSPropertyOp52
 70
     0
102
RTVSPropertyOp53
 70
     1
102
RTVSPropertyOp54
 70
     1
102
RTVSPropertyOp55
 70
     1
102
RTVSPropertyOp56
 70
     1
102
RTVSPropertyOp57
 70
     1
102
RTVSPost2010Prop28
280
     0
102
RTVSPost2010PropOp28
 70
     1
102
RTVSPost2010Prop29
280
     1
102
RTVSPost2010PropOp29
 70
     1
102
RTVSPost2010Prop30
280
     1
102
RTVSPost2010PropOp30
 70
     1
102
RTVSPost2010Prop31
280
     0
102
RTVSPost2010PropOp31
 70
     1
102
RTVSPost2010Prop32
280
     0
102
RTVSPost2010PropOp32
 70
     1
102
RTVSPost2010Prop33
280
     0
102
RTVSPost2010PropOp33
 70
     1
102
RTVSPost2010Prop34
280
     0
102
RTVSPost2010PropOp34
 70
     1
102
RTVSPost2010Prop35
280
     0
102
RTVSPost2010PropOp35
 70
     1
102
RTVSPost2010Prop36
280
     0
102
RTVSPost2010PropOp36
 70
     1
102
RTVSPost2010Prop37
 90
       50
102
RTVSPost2010PropOp37
 70
     1
102
RTVSPost2010Prop38
140
0.0
102
RTVSPost2010PropOp38
 70
     1
102
RTVSPost2010Prop39
140
1.0
102
RTVSPost2010PropOp39
 70
     1
102
RTVSPost2010Prop40
 90
        0
102
RTVSPost2010PropOp40
 70
     1
102
RTVSPost2010Prop41ColorIndex
 90
       18
102
RTVSPost2010Prop41ColorRGB
 90
        0
102
RTVSPost2010PropOp41
 70
     1
102
RTVSPost2010Prop42
 90
       50
102
RTVSPost2010PropOp42
 70
     1
102
RTVSPost2010Prop43
 90
        3
102
RTVSPost2010PropOp43
 70
     1
102
RTVSPost2010Prop44ColorIndex
 90
        5
102
RTVSPost2010Prop44ColorRGB
 90
      255
102
RTVSPost2010PropOp44
 70
     1
102
RTVSPost2010Prop45
280
     0
102
RTVSPost2010PropOp45
 70
     1
102
RTVSPost2010Prop46
 90
       50
102
RTVSPost2010PropOp46
 70
     1
102
RTVSPost2010Prop47
 90
       50
102
RTVSPost2010PropOp47
 70
     1
102
RTVSPost2010Prop48
 90
       50
102
RTVSPost2010PropOp48
 70
     1
102
RTVSPost2010Prop49
280
     0
102
RTVSPost2010PropOp49
 70
     1
102
RTVSPost2010Prop50
 90
       50
102
RTVSPost2010PropOp50
 70
     1
102
RTVSPost2010Prop51ColorIndex
 90
      256
102
RTVSPost2010Prop51ColorRGB
 90
-16777216
102
RTVSPost2010PropOp51
 70
     0
102
RTVSPost2010Prop52
140
1.0
102
RTVSPost2010PropOp52
 70
     0
102
RTVSPost2010Prop53
 90
        2
102
RTVSPost2010PropOp53
 70
     1
102
RTVSPost2010Prop54
  1
strokes_ogs.tif
102
RTVSPost2010PropOp54
 70
     1
102
RTVSPost2010Prop55
280
     0
102
RTVSPost2010PropOp55
 70
     1
102
RTVSPost2010Prop56
140
1.0
102
RTVSPost2010PropOp56
 70
     1
102
RTVSPost2010Prop57
140
1.0
102
RTVSPost2010PropOp57
 70
     1
  0
XRECORD
  5
540
102
{ACAD_REACTORS
330
53F
102
}
330
53F
100
AcDbXrecord
280
     1
102
RTVSPropertyOp0
 70
     1
102
RTVSPropertyOp1
 70
     1
102
RTVSPropertyOp2
 70
     1
102
RTVSPropertyOp3
 70
     1
102
RTVSPropertyOp4
 70
     1
102
RTVSPropertyOp5
 70
     1
102
RTVSPropertyOp6
 70
     1
102
RTVSPropertyOp7
 70
     1
102
RTVSPropertyOp8
 70
     1
102
RTVSPropertyOp9
 70
     1
102
RTVSPropertyOp10
 70
     1
102
RTVSPropertyOp11
 70
     1
102
RTVSPropertyOp12
 70
     1
102
RTVSPropertyOp13
 70
     1
102
RTVSPropertyOp14
 70
     1
102
RTVSPropertyOp15
 70
     1
102
RTVSPropertyOp16
 70
     1
102
RTVSPropertyOp17
 70
     1
102
RTVSPropertyOp18
 70
     1
102
RTVSPropertyOp19
 70
     1
102
RTVSPropertyOp20
 70
     1
102
RTVSPropertyOp21
 70
     1
102
RTVSPropertyOp22
 70
     1
102
RTVSPropertyOp23
 70
     1
102
RTVSPropertyOp24
 70
     1
102
RTVSPropertyOp25
 70
     1
102
RTVSPropertyOp26
 70
     1
102
RTVSPropertyOp27
 70
     1
102
RTVSPropertyOp28
 70
     1
102
RTVSPropertyOp29
 70
     1
102
RTVSPropertyOp30
 70
     1
102
RTVSPropertyOp31
 70
     1
102
RTVSPropertyOp32
 70
     1
102
RTVSPropertyOp33
 70
     1
102
RTVSPropertyOp34
 70
     1
102
RTVSPropertyOp35
 70
     1
102
RTVSPropertyOp36
 70
     1
102
RTVSPropertyOp37
 70
     1
102
RTVSPropertyOp38
 70
     1
102
RTVSPropertyOp39
 70
     1
102
RTVSPropertyOp40
 70
     1
102
RTVSPropertyOp41
 70
     1
102
RTVSPropertyOp42
 70
     1
102
RTVSPropertyOp43
 70
     1
102
RTVSPropertyOp44
 70
     1
102
RTVSPropertyOp45
 70
     1
102
RTVSPropertyOp46
 70
     1
102
RTVSPropertyOp47
 70
     1
102
RTVSPropertyOp48
 70
     1
102
RTVSPropertyOp49
 70
     1
102
RTVSPropertyOp50
 70
     1
102
RTVSPropertyOp51
 70
     0
102
RTVSPropertyOp52
 70
     0
102
RTVSPropertyOp53
 70
     1
102
RTVSPropertyOp54
 70
     1
102
RTVSPropertyOp55
 70
     1
102
RTVSPropertyOp56
 70
     1
102
RTVSPropertyOp57
 70
     1
102
RTVSPost2010Prop28
280
     0
102
RTVSPost2010PropOp28
 70
     1
102
RTVSPost2010Prop29
280
     1
102
RTVSPost2010PropOp29
 70
     1
102
RTVSPost2010Prop30
280
     1
102
RTVSPost2010PropOp30
 70
     1
102
RTVSPost2010Prop31
280
     0
102
RTVSPost2010PropOp31
 70
     1
102
RTVSPost2010Prop32
280
     0
102
RTVSPost2010PropOp32
 70
     1
102
RTVSPost2010Prop33
280
     0
102
RTVSPost2010PropOp33
 70
     1
102
RTVSPost2010Prop34
280
     0
102
RTVSPost2010PropOp34
 70
     1
102
RTVSPost2010Prop35
280
     0
102
RTVSPost2010PropOp35
 70
     1
102
RTVSPost2010Prop36
280
     0
102
RTVSPost2010PropOp36
 70
     1
102
RTVSPost2010Prop37
 90
       50
102
RTVSPost2010PropOp37
 70
     1
102
RTVSPost2010Prop38
140
0.0
102
RTVSPost2010PropOp38
 70
     1
102
RTVSPost2010Prop39
140
1.0
102
RTVSPost2010PropOp39
 70
     1
102
RTVSPost2010Prop40
 90
        0
102
RTVSPost2010PropOp40
 70
     1
102
RTVSPost2010Prop41ColorIndex
 90
       18
102
RTVSPost2010Prop41ColorRGB
 90
        0
102
RTVSPost2010PropOp41
 70
     1
102
RTVSPost2010Prop42
 90
       50
102
RTVSPost2010PropOp42
 70
     1
102
RTVSPost2010Prop43
 90
        3
102
RTVSPost2010PropOp43
 70
     1
102
RTVSPost2010Prop44ColorIndex
 90
        5
102
RTVSPost2010Prop44ColorRGB
 90
      255
102
RTVSPost2010PropOp44
 70
     1
102
RTVSPost2010Prop45
280
     0
102
RTVSPost2010PropOp45
 70
     1
102
RTVSPost2010Prop46
 90
       50
102
RTVSPost2010PropOp46
 70
     1
102
RTVSPost2010Prop47
 90
       50
102
RTVSPost2010PropOp47
 70
     1
102
RTVSPost2010Prop48
 90
       50
102
RTVSPost2010PropOp48
 70
     1
102
RTVSPost2010Prop49
280
     0
102
RTVSPost2010PropOp49
 70
     1
102
RTVSPost2010Prop50
 90
       50
102
RTVSPost2010PropOp50
 70
     1
102
RTVSPost2010Prop51ColorIndex
 90
      256
102
RTVSPost2010Prop51ColorRGB
 90
-16777216
102
RTVSPost2010PropOp51
 70
     0
102
RTVSPost2010Prop52
140
1.0
102
RTVSPost2010PropOp52
 70
     0
102
RTVSPost2010Prop53
 90
        2
102
RTVSPost2010PropOp53
 70
     1
102
RTVSPost2010Prop54
  1
strokes_ogs.tif
102
RTVSPost2010PropOp54
 70
     1
102
RTVSPost2010Prop55
280
     0
102
RTVSPost2010PropOp55
 70
     1
102
RTVSPost2010Prop56
140
1.0
102
RTVSPost2010PropOp56
 70
     1
102
RTVSPost2010Prop57
140
1.0
102
RTVSPost2010PropOp57
 70
     1
  0
XRECORD
  5
542
102
{ACAD_REACTORS
330
541
102
}
330
541
100
AcDbXrecord
280
     1
102
RTVSPropertyOp0
 70
     1
102
RTVSPropertyOp1
 70
     1
102
RTVSPropertyOp2
 70
     1
102
RTVSPropertyOp3
 70
     1
102
RTVSPropertyOp4
 70
     1
102
RTVSPropertyOp5
 70
     1
102
RTVSPropertyOp6
 70
     1
102
RTVSPropertyOp7
 70
     1
102
RTVSPropertyOp8
 70
     1
102
RTVSPropertyOp9
 70
     1
102
RTVSPropertyOp10
 70
     1
102
RTVSPropertyOp11
 70
     1
102
RTVSPropertyOp12
 70
     1
102
RTVSPropertyOp13
 70
     1
102
RTVSPropertyOp14
 70
     1
102
RTVSPropertyOp15
 70
     1
102
RTVSPropertyOp16
 70
     1
102
RTVSPropertyOp17
 70
     1
102
RTVSPropertyOp18
 70
     1
102
RTVSPropertyOp19
 70
     1
102
RTVSPropertyOp20
 70
     1
102
RTVSPropertyOp21
 70
     1
102
RTVSPropertyOp22
 70
     1
102
RTVSPropertyOp23
 70
     1
102
RTVSPropertyOp24
 70
     1
102
RTVSPropertyOp25
 70
     1
102
RTVSPropertyOp26
 70
     1
102
RTVSPropertyOp27
 70
     1
102
RTVSPropertyOp28
 70
     1
102
RTVSPropertyOp29
 70
     1
102
RTVSPropertyOp30
 70
     1
102
RTVSPropertyOp31
 70
     1
102
RTVSPropertyOp32
 70
     1
102
RTVSPropertyOp33
 70
     1
102
RTVSPropertyOp34
 70
     1
102
RTVSPropertyOp35
 70
     1
102
RTVSPropertyOp36
 70
     1
102
RTVSPropertyOp37
 70
     1
102
RTVSPropertyOp38
 70
     1
102
RTVSPropertyOp39
 70
     1
102
RTVSPropertyOp40
 70
     1
102
RTVSPropertyOp41
 70
     1
102
RTVSPropertyOp42
 70
     1
102
RTVSPropertyOp43
 70
     1
102
RTVSPropertyOp44
 70
     1
102
RTVSPropertyOp45
 70
     1
102
RTVSPropertyOp46
 70
     1
102
RTVSPropertyOp47
 70
     1
102
RTVSPropertyOp48
 70
     1
102
RTVSPropertyOp49
 70
     1
102
RTVSPropertyOp50
 70
     1
102
RTVSPropertyOp51
 70
     0
102
RTVSPropertyOp52
 70
     0
102
RTVSPropertyOp53
 70
     1
102
RTVSPropertyOp54
 70
     1
102
RTVSPropertyOp55
 70
     1
102
RTVSPropertyOp56
 70
     1
102
RTVSPropertyOp57
 70
     1
102
RTVSPost2010Prop28
280
     0
102
RTVSPost2010PropOp28
 70
     1
102
RTVSPost2010Prop29
280
     1
102
RTVSPost2010PropOp29
 70
     1
102
RTVSPost2010Prop30
280
     1
102
RTVSPost2010PropOp30
 70
     1
102
RTVSPost2010Prop31
280
     0
102
RTVSPost2010PropOp31
 70
     1
102
RTVSPost2010Prop32
280
     0
102
RTVSPost2010PropOp32
 70
     1
102
RTVSPost2010Prop33
280
     0
102
RTVSPost2010PropOp33
 70
     1
102
RTVSPost2010Prop34
280
     0
102
RTVSPost2010PropOp34
 70
     1
102
RTVSPost2010Prop35
280
     0
102
RTVSPost2010PropOp35
 70
     1
102
RTVSPost2010Prop36
280
     0
102
RTVSPost2010PropOp36
 70
     1
102
RTVSPost2010Prop37
 90
       50
102
RTVSPost2010PropOp37
 70
     1
102
RTVSPost2010Prop38
140
0.0
102
RTVSPost2010PropOp38
 70
     1
102
RTVSPost2010Prop39
140
1.0
102
RTVSPost2010PropOp39
 70
     1
102
RTVSPost2010Prop40
 90
        0
102
RTVSPost2010PropOp40
 70
     1
102
RTVSPost2010Prop41ColorIndex
 90
       18
102
RTVSPost2010Prop41ColorRGB
 90
        0
102
RTVSPost2010PropOp41
 70
     1
102
RTVSPost2010Prop42
 90
       50
102
RTVSPost2010PropOp42
 70
     1
102
RTVSPost2010Prop43
 90
        3
102
RTVSPost2010PropOp43
 70
     1
102
RTVSPost2010Prop44ColorIndex
 90
        5
102
RTVSPost2010Prop44ColorRGB
 90
      255
102
RTVSPost2010PropOp44
 70
     1
102
RTVSPost2010Prop45
280
     0
102
RTVSPost2010PropOp45
 70
     1
102
RTVSPost2010Prop46
 90
       50
102
RTVSPost2010PropOp46
 70
     1
102
RTVSPost2010Prop47
 90
       50
102
RTVSPost2010PropOp47
 70
     1
102
RTVSPost2010Prop48
 90
       50
102
RTVSPost2010PropOp48
 70
     1
102
RTVSPost2010Prop49
280
     0
102
RTVSPost2010PropOp49
 70
     1
102
RTVSPost2010Prop50
 90
       50
102
RTVSPost2010PropOp50
 70
     1
102
RTVSPost2010Prop51ColorIndex
 90
      256
102
RTVSPost2010Prop51ColorRGB
 90
-16777216
102
RTVSPost2010PropOp51
 70
     0
102
RTVSPost2010Prop52
140
1.0
102
RTVSPost2010PropOp52
 70
     0
102
RTVSPost2010Prop53
 90
        2
102
RTVSPost2010PropOp53
 70
     1
102
RTVSPost2010Prop54
  1
strokes_ogs.tif
102
RTVSPost2010PropOp54
 70
     1
102
RTVSPost2010Prop55
280
     0
102
RTVSPost2010PropOp55
 70
     1
102
RTVSPost2010Prop56
140
1.0
102
RTVSPost2010PropOp56
 70
     1
102
RTVSPost2010Prop57
140
1.0
102
RTVSPost2010PropOp57
 70
     1
  0
XRECORD
  5
544
102
{ACAD_REACTORS
330
543
102
}
330
543
100
AcDbXrecord
280
     1
102
RTVSPropertyOp0
 70
     1
102
RTVSPropertyOp1
 70
     1
102
RTVSPropertyOp2
 70
     1
102
RTVSPropertyOp3
 70
     1
102
RTVSPropertyOp4
 70
     1
102
RTVSPropertyOp5
 70
     1
102
RTVSPropertyOp6
 70
     1
102
RTVSPropertyOp7
 70
     1
102
RTVSPropertyOp8
 70
     1
102
RTVSPropertyOp9
 70
     1
102
RTVSPropertyOp10
 70
     1
102
RTVSPropertyOp11
 70
     1
102
RTVSPropertyOp12
 70
     1
102
RTVSPropertyOp13
 70
     1
102
RTVSPropertyOp14
 70
     1
102
RTVSPropertyOp15
 70
     1
102
RTVSPropertyOp16
 70
     1
102
RTVSPropertyOp17
 70
     1
102
RTVSPropertyOp18
 70
     1
102
RTVSPropertyOp19
 70
     1
102
RTVSPropertyOp20
 70
     1
102
RTVSPropertyOp21
 70
     1
102
RTVSPropertyOp22
 70
     1
102
RTVSPropertyOp23
 70
     1
102
RTVSPropertyOp24
 70
     1
102
RTVSPropertyOp25
 70
     1
102
RTVSPropertyOp26
 70
     1
102
RTVSPropertyOp27
 70
     1
102
RTVSPropertyOp28
 70
     1
102
RTVSPropertyOp29
 70
     1
102
RTVSPropertyOp30
 70
     1
102
RTVSPropertyOp31
 70
     1
102
RTVSPropertyOp32
 70
     1
102
RTVSPropertyOp33
 70
     1
102
RTVSPropertyOp34
 70
     1
102
RTVSPropertyOp35
 70
     1
102
RTVSPropertyOp36
 70
     1
102
RTVSPropertyOp37
 70
     1
102
RTVSPropertyOp38
 70
     1
102
RTVSPropertyOp39
 70
     1
102
RTVSPropertyOp40
 70
     1
102
RTVSPropertyOp41
 70
     1
102
RTVSPropertyOp42
 70
     1
102
RTVSPropertyOp43
 70
     1
102
RTVSPropertyOp44
 70
     1
102
RTVSPropertyOp45
 70
     1
102
RTVSPropertyOp46
 70
     1
102
RTVSPropertyOp47
 70
     1
102
RTVSPropertyOp48
 70
     1
102
RTVSPropertyOp49
 70
     1
102
RTVSPropertyOp50
 70
     1
102
RTVSPropertyOp51
 70
     0
102
RTVSPropertyOp52
 70
     0
102
RTVSPropertyOp53
 70
     1
102
RTVSPropertyOp54
 70
     1
102
RTVSPropertyOp55
 70
     1
102
RTVSPropertyOp56
 70
     1
102
RTVSPropertyOp57
 70
     1
102
RTVSPost2010Prop28
280
     0
102
RTVSPost2010PropOp28
 70
     1
102
RTVSPost2010Prop29
280
     1
102
RTVSPost2010PropOp29
 70
     1
102
RTVSPost2010Prop30
280
     1
102
RTVSPost2010PropOp30
 70
     1
102
RTVSPost2010Prop31
280
     0
102
RTVSPost2010PropOp31
 70
     1
102
RTVSPost2010Prop32
280
     0
102
RTVSPost2010PropOp32
 70
     1
102
RTVSPost2010Prop33
280
     0
102
RTVSPost2010PropOp33
 70
     1
102
RTVSPost2010Prop34
280
     0
102
RTVSPost2010PropOp34
 70
     1
102
RTVSPost2010Prop35
280
     0
102
RTVSPost2010PropOp35
 70
     1
102
RTVSPost2010Prop36
280
     0
102
RTVSPost2010PropOp36
 70
     1
102
RTVSPost2010Prop37
 90
       50
102
RTVSPost2010PropOp37
 70
     1
102
RTVSPost2010Prop38
140
0.0
102
RTVSPost2010PropOp38
 70
     1
102
RTVSPost2010Prop39
140
1.0
102
RTVSPost2010PropOp39
 70
     1
102
RTVSPost2010Prop40
 90
        0
102
RTVSPost2010PropOp40
 70
     1
102
RTVSPost2010Prop41ColorIndex
 90
       18
102
RTVSPost2010Prop41ColorRGB
 90
        0
102
RTVSPost2010PropOp41
 70
     1
102
RTVSPost2010Prop42
 90
       50
102
RTVSPost2010PropOp42
 70
     1
102
RTVSPost2010Prop43
 90
        3
102
RTVSPost2010PropOp43
 70
     1
102
RTVSPost2010Prop44ColorIndex
 90
        5
102
RTVSPost2010Prop44ColorRGB
 90
      255
102
RTVSPost2010PropOp44
 70
     1
102
RTVSPost2010Prop45
280
     0
102
RTVSPost2010PropOp45
 70
     1
102
RTVSPost2010Prop46
 90
       50
102
RTVSPost2010PropOp46
 70
     1
102
RTVSPost2010Prop47
 90
       50
102
RTVSPost2010PropOp47
 70
     1
102
RTVSPost2010Prop48
 90
       50
102
RTVSPost2010PropOp48
 70
     1
102
RTVSPost2010Prop49
280
     0
102
RTVSPost2010PropOp49
 70
     1
102
RTVSPost2010Prop50
 90
       50
102
RTVSPost2010PropOp50
 70
     1
102
RTVSPost2010Prop51ColorIndex
 90
      256
102
RTVSPost2010Prop51ColorRGB
 90
-16777216
102
RTVSPost2010PropOp51
 70
     0
102
RTVSPost2010Prop52
140
1.0
102
RTVSPost2010PropOp52
 70
     0
102
RTVSPost2010Prop53
 90
        2
102
RTVSPost2010PropOp53
 70
     1
102
RTVSPost2010Prop54
  1
strokes_ogs.tif
102
RTVSPost2010PropOp54
 70
     1
102
RTVSPost2010Prop55
280
     0
102
RTVSPost2010PropOp55
 70
     1
102
RTVSPost2010Prop56
140
1.0
102
RTVSPost2010PropOp56
 70
     1
102
RTVSPost2010Prop57
140
1.0
102
RTVSPost2010PropOp57
 70
     1
  0
XRECORD
  5
548
102
{ACAD_REACTORS
330
547
102
}
330
547
100
AcDbXrecord
280
     1
102
RTVSPropertyOp0
 70
     1
102
RTVSPropertyOp1
 70
     1
102
RTVSPropertyOp2
 70
     1
102
RTVSPropertyOp3
 70
     1
102
RTVSPropertyOp4
 70
     1
102
RTVSPropertyOp5
 70
     1
102
RTVSPropertyOp6
 70
     1
102
RTVSPropertyOp7
 70
     1
102
RTVSPropertyOp8
 70
     1
102
RTVSPropertyOp9
 70
     1
102
RTVSPropertyOp10
 70
     1
102
RTVSPropertyOp11
 70
     1
102
RTVSPropertyOp12
 70
     1
102
RTVSPropertyOp13
 70
     1
102
RTVSPropertyOp14
 70
     1
102
RTVSPropertyOp15
 70
     1
102
RTVSPropertyOp16
 70
     1
102
RTVSPropertyOp17
 70
     1
102
RTVSPropertyOp18
 70
     1
102
RTVSPropertyOp19
 70
     1
102
RTVSPropertyOp20
 70
     1
102
RTVSPropertyOp21
 70
     1
102
RTVSPropertyOp22
 70
     1
102
RTVSPropertyOp23
 70
     1
102
RTVSPropertyOp24
 70
     1
102
RTVSPropertyOp25
 70
     1
102
RTVSPropertyOp26
 70
     1
102
RTVSPropertyOp27
 70
     1
102
RTVSPropertyOp28
 70
     1
102
RTVSPropertyOp29
 70
     1
102
RTVSPropertyOp30
 70
     1
102
RTVSPropertyOp31
 70
     1
102
RTVSPropertyOp32
 70
     1
102
RTVSPropertyOp33
 70
     1
102
RTVSPropertyOp34
 70
     1
102
RTVSPropertyOp35
 70
     1
102
RTVSPropertyOp36
 70
     1
102
RTVSPropertyOp37
 70
     1
102
RTVSPropertyOp38
 70
     1
102
RTVSPropertyOp39
 70
     1
102
RTVSPropertyOp40
 70
     1
102
RTVSPropertyOp41
 70
     1
102
RTVSPropertyOp42
 70
     1
102
RTVSPropertyOp43
 70
     1
102
RTVSPropertyOp44
 70
     1
102
RTVSPropertyOp45
 70
     1
102
RTVSPropertyOp46
 70
     1
102
RTVSPropertyOp47
 70
     1
102
RTVSPropertyOp48
 70
     1
102
RTVSPropertyOp49
 70
     1
102
RTVSPropertyOp50
 70
     1
102
RTVSPropertyOp51
 70
     0
102
RTVSPropertyOp52
 70
     0
102
RTVSPropertyOp53
 70
     1
102
RTVSPropertyOp54
 70
     1
102
RTVSPropertyOp55
 70
     1
102
RTVSPropertyOp56
 70
     1
102
RTVSPropertyOp57
 70
     1
102
RTVSPost2010Prop28
280
     0
102
RTVSPost2010PropOp28
 70
     1
102
RTVSPost2010Prop29
280
     1
102
RTVSPost2010PropOp29
 70
     1
102
RTVSPost2010Prop30
280
     1
102
RTVSPost2010PropOp30
 70
     1
102
RTVSPost2010Prop31
280
     0
102
RTVSPost2010PropOp31
 70
     1
102
RTVSPost2010Prop32
280
     0
102
RTVSPost2010PropOp32
 70
     1
102
RTVSPost2010Prop33
280
     0
102
RTVSPost2010PropOp33
 70
     1
102
RTVSPost2010Prop34
280
     0
102
RTVSPost2010PropOp34
 70
     1
102
RTVSPost2010Prop35
280
     0
102
RTVSPost2010PropOp35
 70
     1
102
RTVSPost2010Prop36
280
     0
102
RTVSPost2010PropOp36
 70
     1
102
RTVSPost2010Prop37
 90
       50
102
RTVSPost2010PropOp37
 70
     1
102
RTVSPost2010Prop38
140
0.0
102
RTVSPost2010PropOp38
 70
     1
102
RTVSPost2010Prop39
140
1.0
102
RTVSPost2010PropOp39
 70
     1
102
RTVSPost2010Prop40
 90
        0
102
RTVSPost2010PropOp40
 70
     1
102
RTVSPost2010Prop41ColorIndex
 90
       18
102
RTVSPost2010Prop41ColorRGB
 90
        0
102
RTVSPost2010PropOp41
 70
     1
102
RTVSPost2010Prop42
 90
       50
102
RTVSPost2010PropOp42
 70
     1
102
RTVSPost2010Prop43
 90
        3
102
RTVSPost2010PropOp43
 70
     1
102
RTVSPost2010Prop44ColorIndex
 90
        5
102
RTVSPost2010Prop44ColorRGB
 90
      255
102
RTVSPost2010PropOp44
 70
     1
102
RTVSPost2010Prop45
280
     0
102
RTVSPost2010PropOp45
 70
     1
102
RTVSPost2010Prop46
 90
       50
102
RTVSPost2010PropOp46
 70
     1
102
RTVSPost2010Prop47
 90
       50
102
RTVSPost2010PropOp47
 70
     1
102
RTVSPost2010Prop48
 90
       50
102
RTVSPost2010PropOp48
 70
     1
102
RTVSPost2010Prop49
280
     0
102
RTVSPost2010PropOp49
 70
     1
102
RTVSPost2010Prop50
 90
       50
102
RTVSPost2010PropOp50
 70
     1
102
RTVSPost2010Prop51ColorIndex
 90
      256
102
RTVSPost2010Prop51ColorRGB
 90
-16777216
102
RTVSPost2010PropOp51
 70
     0
102
RTVSPost2010Prop52
140
1.0
102
RTVSPost2010PropOp52
 70
     0
102
RTVSPost2010Prop53
 90
        2
102
RTVSPost2010PropOp53
 70
     1
102
RTVSPost2010Prop54
  1
strokes_ogs.tif
102
RTVSPost2010PropOp54
 70
     1
102
RTVSPost2010Prop55
280
     0
102
RTVSPost2010PropOp55
 70
     1
102
RTVSPost2010Prop56
140
1.0
102
RTVSPost2010PropOp56
 70
     1
102
RTVSPost2010Prop57
140
1.0
102
RTVSPost2010PropOp57
 70
     1
  0
XRECORD
  5
55C
102
{ACAD_REACTORS
330
55B
102
}
330
55B
100
AcDbXrecord
280
     1
102
RTVSPropertyOp0
 70
     0
102
RTVSPropertyOp1
 70
     0
102
RTVSPropertyOp2
 70
     0
102
RTVSPropertyOp3
 70
     0
102
RTVSPropertyOp4
 70
     0
102
RTVSPropertyOp5
 70
     0
102
RTVSPropertyOp6
 70
     0
102
RTVSPropertyOp7
 70
     0
102
RTVSPropertyOp8
 70
     0
102
RTVSPropertyOp9
 70
     0
102
RTVSPropertyOp10
 70
     0
102
RTVSPropertyOp11
 70
     0
102
RTVSPropertyOp12
 70
     0
102
RTVSPropertyOp13
 70
     0
102
RTVSPropertyOp14
 70
     0
102
RTVSPropertyOp15
 70
     0
102
RTVSPropertyOp16
 70
     0
102
RTVSPropertyOp17
 70
     0
102
RTVSPropertyOp18
 70
     0
102
RTVSPropertyOp19
 70
     0
102
RTVSPropertyOp20
 70
     0
102
RTVSPropertyOp21
 70
     0
102
RTVSPropertyOp22
 70
     0
102
RTVSPropertyOp23
 70
     0
102
RTVSPropertyOp24
 70
     0
102
RTVSPropertyOp25
 70
     0
102
RTVSPropertyOp26
 70
     0
102
RTVSPropertyOp27
 70
     0
102
RTVSPropertyOp28
 70
     1
102
RTVSPropertyOp29
 70
     1
102
RTVSPropertyOp30
 70
     1
102
RTVSPropertyOp31
 70
     1
102
RTVSPropertyOp32
 70
     1
102
RTVSPropertyOp33
 70
     1
102
RTVSPropertyOp34
 70
     1
102
RTVSPropertyOp35
 70
     1
102
RTVSPropertyOp36
 70
     1
102
RTVSPropertyOp37
 70
     1
102
RTVSPropertyOp38
 70
     1
102
RTVSPropertyOp39
 70
     1
102
RTVSPropertyOp40
 70
     1
102
RTVSPropertyOp41
 70
     1
102
RTVSPropertyOp42
 70
     1
102
RTVSPropertyOp43
 70
     1
102
RTVSPropertyOp44
 70
     1
102
RTVSPropertyOp45
 70
     1
102
RTVSPropertyOp46
 70
     1
102
RTVSPropertyOp47
 70
     1
102
RTVSPropertyOp48
 70
     1
102
RTVSPropertyOp49
 70
     1
102
RTVSPropertyOp50
 70
     1
102
RTVSPropertyOp51
 70
     0
102
RTVSPropertyOp52
 70
     0
102
RTVSPropertyOp53
 70
     1
102
RTVSPropertyOp54
 70
     1
102
RTVSPropertyOp55
 70
     1
102
RTVSPropertyOp56
 70
     1
102
RTVSPropertyOp57
 70
     1
102
RTVSPost2010Prop28
280
     0
102
RTVSPost2010PropOp28
 70
     1
102
RTVSPost2010Prop29
280
     1
102
RTVSPost2010PropOp29
 70
     1
102
RTVSPost2010Prop30
280
     1
102
RTVSPost2010PropOp30
 70
     1
102
RTVSPost2010Prop31
280
     0
102
RTVSPost2010PropOp31
 70
     1
102
RTVSPost2010Prop32
280
     0
102
RTVSPost2010PropOp32
 70
     1
102
RTVSPost2010Prop33
280
     0
102
RTVSPost2010PropOp33
 70
     1
102
RTVSPost2010Prop34
280
     0
102
RTVSPost2010PropOp34
 70
     1
102
RTVSPost2010Prop35
280
     0
102
RTVSPost2010PropOp35
 70
     1
102
RTVSPost2010Prop36
280
     0
102
RTVSPost2010PropOp36
 70
     1
102
RTVSPost2010Prop37
 90
       50
102
RTVSPost2010PropOp37
 70
     1
102
RTVSPost2010Prop38
140
0.0
102
RTVSPost2010PropOp38
 70
     1
102
RTVSPost2010Prop39
140
1.0
102
RTVSPost2010PropOp39
 70
     1
102
RTVSPost2010Prop40
 90
        0
102
RTVSPost2010PropOp40
 70
     1
102
RTVSPost2010Prop41ColorIndex
 90
       18
102
RTVSPost2010Prop41ColorRGB
 90
        0
102
RTVSPost2010PropOp41
 70
     1
102
RTVSPost2010Prop42
 90
       50
102
RTVSPost2010PropOp42
 70
     1
102
RTVSPost2010Prop43
 90
        3
102
RTVSPost2010PropOp43
 70
     1
102
RTVSPost2010Prop44ColorIndex
 90
        5
102
RTVSPost2010Prop44ColorRGB
 90
      255
102
RTVSPost2010PropOp44
 70
     1
102
RTVSPost2010Prop45
280
     0
102
RTVSPost2010PropOp45
 70
     1
102
RTVSPost2010Prop46
 90
       50
102
RTVSPost2010PropOp46
 70
     1
102
RTVSPost2010Prop47
 90
       50
102
RTVSPost2010PropOp47
 70
     1
102
RTVSPost2010Prop48
 90
       50
102
RTVSPost2010PropOp48
 70
     1
102
RTVSPost2010Prop49
280
     0
102
RTVSPost2010PropOp49
 70
     1
102
RTVSPost2010Prop50
 90
       50
102
RTVSPost2010PropOp50
 70
     1
102
RTVSPost2010Prop51ColorIndex
 90
      256
102
RTVSPost2010Prop51ColorRGB
 90
-16777216
102
RTVSPost2010PropOp51
 70
     0
102
RTVSPost2010Prop52
140
1.0
102
RTVSPost2010PropOp52
 70
     0
102
RTVSPost2010Prop53
 90
        2
102
RTVSPost2010PropOp53
 70
     1
102
RTVSPost2010Prop54
  1
strokes_ogs.tif
102
RTVSPost2010PropOp54
 70
     1
102
RTVSPost2010Prop55
280
     0
102
RTVSPost2010PropOp55
 70
     1
102
RTVSPost2010Prop56
140
1.0
102
RTVSPost2010PropOp56
 70
     1
102
RTVSPost2010Prop57
140
1.0
102
RTVSPost2010PropOp57
 70
     1
  0
XRECORD
  5
556
102
{ACAD_REACTORS
330
555
102
}
330
555
100
AcDbXrecord
280
     1
102
RTVSPropertyOp0
 70
     1
102
RTVSPropertyOp1
 70
     1
102
RTVSPropertyOp2
 70
     1
102
RTVSPropertyOp3
 70
     1
102
RTVSPropertyOp4
 70
     1
102
RTVSPropertyOp5
 70
     1
102
RTVSPropertyOp6
 70
     1
102
RTVSPropertyOp7
 70
     1
102
RTVSPropertyOp8
 70
     1
102
RTVSPropertyOp9
 70
     1
102
RTVSPropertyOp10
 70
     1
102
RTVSPropertyOp11
 70
     1
102
RTVSPropertyOp12
 70
     1
102
RTVSPropertyOp13
 70
     1
102
RTVSPropertyOp14
 70
     1
102
RTVSPropertyOp15
 70
     1
102
RTVSPropertyOp16
 70
     1
102
RTVSPropertyOp17
 70
     1
102
RTVSPropertyOp18
 70
     1
102
RTVSPropertyOp19
 70
     1
102
RTVSPropertyOp20
 70
     1
102
RTVSPropertyOp21
 70
     1
102
RTVSPropertyOp22
 70
     1
102
RTVSPropertyOp23
 70
     1
102
RTVSPropertyOp24
 70
     1
102
RTVSPropertyOp25
 70
     1
102
RTVSPropertyOp26
 70
     1
102
RTVSPropertyOp27
 70
     1
102
RTVSPropertyOp28
 70
     1
102
RTVSPropertyOp29
 70
     1
102
RTVSPropertyOp30
 70
     1
102
RTVSPropertyOp31
 70
     1
102
RTVSPropertyOp32
 70
     1
102
RTVSPropertyOp33
 70
     1
102
RTVSPropertyOp34
 70
     1
102
RTVSPropertyOp35
 70
     1
102
RTVSPropertyOp36
 70
     1
102
RTVSPropertyOp37
 70
     1
102
RTVSPropertyOp38
 70
     1
102
RTVSPropertyOp39
 70
     1
102
RTVSPropertyOp40
 70
     1
102
RTVSPropertyOp41
 70
     1
102
RTVSPropertyOp42
 70
     1
102
RTVSPropertyOp43
 70
     1
102
RTVSPropertyOp44
 70
     1
102
RTVSPropertyOp45
 70
     1
102
RTVSPropertyOp46
 70
     1
102
RTVSPropertyOp47
 70
     1
102
RTVSPropertyOp48
 70
     1
102
RTVSPropertyOp49
 70
     1
102
RTVSPropertyOp50
 70
     1
102
RTVSPropertyOp51
 70
     0
102
RTVSPropertyOp52
 70
     0
102
RTVSPropertyOp53
 70
     1
102
RTVSPropertyOp54
 70
     1
102
RTVSPropertyOp55
 70
     1
102
RTVSPropertyOp56
 70
     1
102
RTVSPropertyOp57
 70
     1
102
RTVSPost2010Prop28
280
     0
102
RTVSPost2010PropOp28
 70
     1
102
RTVSPost2010Prop29
280
     1
102
RTVSPost2010PropOp29
 70
     1
102
RTVSPost2010Prop30
280
     1
102
RTVSPost2010PropOp30
 70
     1
102
RTVSPost2010Prop31
280
     0
102
RTVSPost2010PropOp31
 70
     1
102
RTVSPost2010Prop32
280
     0
102
RTVSPost2010PropOp32
 70
     1
102
RTVSPost2010Prop33
280
     0
102
RTVSPost2010PropOp33
 70
     1
102
RTVSPost2010Prop34
280
     0
102
RTVSPost2010PropOp34
 70
     1
102
RTVSPost2010Prop35
280
     0
102
RTVSPost2010PropOp35
 70
     1
102
RTVSPost2010Prop36
280
     0
102
RTVSPost2010PropOp36
 70
     1
102
RTVSPost2010Prop37
 90
       50
102
RTVSPost2010PropOp37
 70
     1
102
RTVSPost2010Prop38
140
0.0
102
RTVSPost2010PropOp38
 70
     1
102
RTVSPost2010Prop39
140
1.0
102
RTVSPost2010PropOp39
 70
     1
102
RTVSPost2010Prop40
 90
        0
102
RTVSPost2010PropOp40
 70
     1
102
RTVSPost2010Prop41ColorIndex
 90
       18
102
RTVSPost2010Prop41ColorRGB
 90
        0
102
RTVSPost2010PropOp41
 70
     1
102
RTVSPost2010Prop42
 90
       50
102
RTVSPost2010PropOp42
 70
     1
102
RTVSPost2010Prop43
 90
        3
102
RTVSPost2010PropOp43
 70
     1
102
RTVSPost2010Prop44ColorIndex
 90
        5
102
RTVSPost2010Prop44ColorRGB
 90
      255
102
RTVSPost2010PropOp44
 70
     1
102
RTVSPost2010Prop45
280
     0
102
RTVSPost2010PropOp45
 70
     1
102
RTVSPost2010Prop46
 90
       50
102
RTVSPost2010PropOp46
 70
     1
102
RTVSPost2010Prop47
 90
       50
102
RTVSPost2010PropOp47
 70
     1
102
RTVSPost2010Prop48
 90
       50
102
RTVSPost2010PropOp48
 70
     1
102
RTVSPost2010Prop49
280
     0
102
RTVSPost2010PropOp49
 70
     1
102
RTVSPost2010Prop50
 90
       50
102
RTVSPost2010PropOp50
 70
     1
102
RTVSPost2010Prop51ColorIndex
 90
      256
102
RTVSPost2010Prop51ColorRGB
 90
-16777216
102
RTVSPost2010PropOp51
 70
     0
102
RTVSPost2010Prop52
140
1.0
102
RTVSPost2010PropOp52
 70
     0
102
RTVSPost2010Prop53
 90
        2
102
RTVSPost2010PropOp53
 70
     1
102
RTVSPost2010Prop54
  1
strokes_ogs.tif
102
RTVSPost2010PropOp54
 70
     1
102
RTVSPost2010Prop55
280
     0
102
RTVSPost2010PropOp55
 70
     1
102
RTVSPost2010Prop56
140
1.0
102
RTVSPost2010PropOp56
 70
     1
102
RTVSPost2010Prop57
140
1.0
102
RTVSPost2010PropOp57
 70
     1
  0
XRECORD
  5
55E
102
{ACAD_REACTORS
330
55D
102
}
330
55D
100
AcDbXrecord
280
     1
102
RTVSPropertyOp0
 70
     0
102
RTVSPropertyOp1
 70
     0
102
RTVSPropertyOp2
 70
     0
102
RTVSPropertyOp3
 70
     0
102
RTVSPropertyOp4
 70
     0
102
RTVSPropertyOp5
 70
     0
102
RTVSPropertyOp6
 70
     0
102
RTVSPropertyOp7
 70
     0
102
RTVSPropertyOp8
 70
     0
102
RTVSPropertyOp9
 70
     0
102
RTVSPropertyOp10
 70
     0
102
RTVSPropertyOp11
 70
     0
102
RTVSPropertyOp12
 70
     0
102
RTVSPropertyOp13
 70
     0
102
RTVSPropertyOp14
 70
     0
102
RTVSPropertyOp15
 70
     0
102
RTVSPropertyOp16
 70
     0
102
RTVSPropertyOp17
 70
     0
102
RTVSPropertyOp18
 70
     0
102
RTVSPropertyOp19
 70
     0
102
RTVSPropertyOp20
 70
     0
102
RTVSPropertyOp21
 70
     0
102
RTVSPropertyOp22
 70
     0
102
RTVSPropertyOp23
 70
     0
102
RTVSPropertyOp24
 70
     0
102
RTVSPropertyOp25
 70
     0
102
RTVSPropertyOp26
 70
     0
102
RTVSPropertyOp27
 70
     0
102
RTVSPropertyOp28
 70
     1
102
RTVSPropertyOp29
 70
     1
102
RTVSPropertyOp30
 70
     1
102
RTVSPropertyOp31
 70
     1
102
RTVSPropertyOp32
 70
     1
102
RTVSPropertyOp33
 70
     1
102
RTVSPropertyOp34
 70
     1
102
RTVSPropertyOp35
 70
     1
102
RTVSPropertyOp36
 70
     1
102
RTVSPropertyOp37
 70
     1
102
RTVSPropertyOp38
 70
     1
102
RTVSPropertyOp39
 70
     1
102
RTVSPropertyOp40
 70
     1
102
RTVSPropertyOp41
 70
     1
102
RTVSPropertyOp42
 70
     1
102
RTVSPropertyOp43
 70
     1
102
RTVSPropertyOp44
 70
     1
102
RTVSPropertyOp45
 70
     1
102
RTVSPropertyOp46
 70
     1
102
RTVSPropertyOp47
 70
     1
102
RTVSPropertyOp48
 70
     1
102
RTVSPropertyOp49
 70
     1
102
RTVSPropertyOp50
 70
     1
102
RTVSPropertyOp51
 70
     0
102
RTVSPropertyOp52
 70
     0
102
RTVSPropertyOp53
 70
     1
102
RTVSPropertyOp54
 70
     1
102
RTVSPropertyOp55
 70
     1
102
RTVSPropertyOp56
 70
     1
102
RTVSPropertyOp57
 70
     1
102
RTVSPost2010Prop28
280
     0
102
RTVSPost2010PropOp28
 70
     1
102
RTVSPost2010Prop29
280
     1
102
RTVSPost2010PropOp29
 70
     1
102
RTVSPost2010Prop30
280
     1
102
RTVSPost2010PropOp30
 70
     1
102
RTVSPost2010Prop31
280
     0
102
RTVSPost2010PropOp31
 70
     1
102
RTVSPost2010Prop32
280
     0
102
RTVSPost2010PropOp32
 70
     1
102
RTVSPost2010Prop33
280
     0
102
RTVSPost2010PropOp33
 70
     1
102
RTVSPost2010Prop34
280
     0
102
RTVSPost2010PropOp34
 70
     1
102
RTVSPost2010Prop35
280
     0
102
RTVSPost2010PropOp35
 70
     1
102
RTVSPost2010Prop36
280
     0
102
RTVSPost2010PropOp36
 70
     1
102
RTVSPost2010Prop37
 90
       50
102
RTVSPost2010PropOp37
 70
     1
102
RTVSPost2010Prop38
140
0.0
102
RTVSPost2010PropOp38
 70
     1
102
RTVSPost2010Prop39
140
1.0
102
RTVSPost2010PropOp39
 70
     1
102
RTVSPost2010Prop40
 90
        0
102
RTVSPost2010PropOp40
 70
     1
102
RTVSPost2010Prop41ColorIndex
 90
       18
102
RTVSPost2010Prop41ColorRGB
 90
        0
102
RTVSPost2010PropOp41
 70
     1
102
RTVSPost2010Prop42
 90
       50
102
RTVSPost2010PropOp42
 70
     1
102
RTVSPost2010Prop43
 90
        3
102
RTVSPost2010PropOp43
 70
     1
102
RTVSPost2010Prop44ColorIndex
 90
        5
102
RTVSPost2010Prop44ColorRGB
 90
      255
102
RTVSPost2010PropOp44
 70
     1
102
RTVSPost2010Prop45
280
     0
102
RTVSPost2010PropOp45
 70
     1
102
RTVSPost2010Prop46
 90
       50
102
RTVSPost2010PropOp46
 70
     1
102
RTVSPost2010Prop47
 90
       50
102
RTVSPost2010PropOp47
 70
     1
102
RTVSPost2010Prop48
 90
       50
102
RTVSPost2010PropOp48
 70
     1
102
RTVSPost2010Prop49
280
     0
102
RTVSPost2010PropOp49
 70
     1
102
RTVSPost2010Prop50
 90
       50
102
RTVSPost2010PropOp50
 70
     1
102
RTVSPost2010Prop51ColorIndex
 90
      256
102
RTVSPost2010Prop51ColorRGB
 90
-16777216
102
RTVSPost2010PropOp51
 70
     0
102
RTVSPost2010Prop52
140
1.0
102
RTVSPost2010PropOp52
 70
     0
102
RTVSPost2010Prop53
 90
        2
102
RTVSPost2010PropOp53
 70
     1
102
RTVSPost2010Prop54
  1
strokes_ogs.tif
102
RTVSPost2010PropOp54
 70
     1
102
RTVSPost2010Prop55
280
     0
102
RTVSPost2010PropOp55
 70
     1
102
RTVSPost2010Prop56
140
1.0
102
RTVSPost2010PropOp56
 70
     1
102
RTVSPost2010Prop57
140
1.0
102
RTVSPost2010PropOp57
 70
     1
  0
XRECORD
  5
54C
102
{ACAD_REACTORS
330
54B
102
}
330
54B
100
AcDbXrecord
280
     1
102
RTVSPropertyOp0
 70
     1
102
RTVSPropertyOp1
 70
     1
102
RTVSPropertyOp2
 70
     1
102
RTVSPropertyOp3
 70
     1
102
RTVSPropertyOp4
 70
     1
102
RTVSPropertyOp5
 70
     1
102
RTVSPropertyOp6
 70
     1
102
RTVSPropertyOp7
 70
     1
102
RTVSPropertyOp8
 70
     1
102
RTVSPropertyOp9
 70
     1
102
RTVSPropertyOp10
 70
     1
102
RTVSPropertyOp11
 70
     1
102
RTVSPropertyOp12
 70
     1
102
RTVSPropertyOp13
 70
     1
102
RTVSPropertyOp14
 70
     1
102
RTVSPropertyOp15
 70
     1
102
RTVSPropertyOp16
 70
     1
102
RTVSPropertyOp17
 70
     1
102
RTVSPropertyOp18
 70
     1
102
RTVSPropertyOp19
 70
     1
102
RTVSPropertyOp20
 70
     1
102
RTVSPropertyOp21
 70
     1
102
RTVSPropertyOp22
 70
     1
102
RTVSPropertyOp23
 70
     1
102
RTVSPropertyOp24
 70
     1
102
RTVSPropertyOp25
 70
     1
102
RTVSPropertyOp26
 70
     1
102
RTVSPropertyOp27
 70
     1
102
RTVSPropertyOp28
 70
     1
102
RTVSPropertyOp29
 70
     1
102
RTVSPropertyOp30
 70
     1
102
RTVSPropertyOp31
 70
     1
102
RTVSPropertyOp32
 70
     1
102
RTVSPropertyOp33
 70
     1
102
RTVSPropertyOp34
 70
     1
102
RTVSPropertyOp35
 70
     1
102
RTVSPropertyOp36
 70
     1
102
RTVSPropertyOp37
 70
     1
102
RTVSPropertyOp38
 70
     1
102
RTVSPropertyOp39
 70
     1
102
RTVSPropertyOp40
 70
     1
102
RTVSPropertyOp41
 70
     1
102
RTVSPropertyOp42
 70
     1
102
RTVSPropertyOp43
 70
     1
102
RTVSPropertyOp44
 70
     1
102
RTVSPropertyOp45
 70
     1
102
RTVSPropertyOp46
 70
     1
102
RTVSPropertyOp47
 70
     1
102
RTVSPropertyOp48
 70
     1
102
RTVSPropertyOp49
 70
     1
102
RTVSPropertyOp50
 70
     1
102
RTVSPropertyOp51
 70
     0
102
RTVSPropertyOp52
 70
     0
102
RTVSPropertyOp53
 70
     1
102
RTVSPropertyOp54
 70
     1
102
RTVSPropertyOp55
 70
     1
102
RTVSPropertyOp56
 70
     1
102
RTVSPropertyOp57
 70
     1
102
RTVSPost2010Prop28
280
     0
102
RTVSPost2010PropOp28
 70
     1
102
RTVSPost2010Prop29
280
     1
102
RTVSPost2010PropOp29
 70
     1
102
RTVSPost2010Prop30
280
     1
102
RTVSPost2010PropOp30
 70
     1
102
RTVSPost2010Prop31
280
     0
102
RTVSPost2010PropOp31
 70
     1
102
RTVSPost2010Prop32
280
     0
102
RTVSPost2010PropOp32
 70
     1
102
RTVSPost2010Prop33
280
     0
102
RTVSPost2010PropOp33
 70
     1
102
RTVSPost2010Prop34
280
     0
102
RTVSPost2010PropOp34
 70
     1
102
RTVSPost2010Prop35
280
     0
102
RTVSPost2010PropOp35
 70
     1
102
RTVSPost2010Prop36
280
     0
102
RTVSPost2010PropOp36
 70
     1
102
RTVSPost2010Prop37
 90
       50
102
RTVSPost2010PropOp37
 70
     1
102
RTVSPost2010Prop38
140
0.0
102
RTVSPost2010PropOp38
 70
     1
102
RTVSPost2010Prop39
140
1.0
102
RTVSPost2010PropOp39
 70
     1
102
RTVSPost2010Prop40
 90
        0
102
RTVSPost2010PropOp40
 70
     1
102
RTVSPost2010Prop41ColorIndex
 90
       18
102
RTVSPost2010Prop41ColorRGB
 90
        0
102
RTVSPost2010PropOp41
 70
     1
102
RTVSPost2010Prop42
 90
       50
102
RTVSPost2010PropOp42
 70
     1
102
RTVSPost2010Prop43
 90
        3
102
RTVSPost2010PropOp43
 70
     1
102
RTVSPost2010Prop44ColorIndex
 90
        5
102
RTVSPost2010Prop44ColorRGB
 90
      255
102
RTVSPost2010PropOp44
 70
     1
102
RTVSPost2010Prop45
280
     0
102
RTVSPost2010PropOp45
 70
     1
102
RTVSPost2010Prop46
 90
       50
102
RTVSPost2010PropOp46
 70
     1
102
RTVSPost2010Prop47
 90
       50
102
RTVSPost2010PropOp47
 70
     1
102
RTVSPost2010Prop48
 90
       50
102
RTVSPost2010PropOp48
 70
     1
102
RTVSPost2010Prop49
280
     0
102
RTVSPost2010PropOp49
 70
     1
102
RTVSPost2010Prop50
 90
       50
102
RTVSPost2010PropOp50
 70
     1
102
RTVSPost2010Prop51ColorIndex
 90
      256
102
RTVSPost2010Prop51ColorRGB
 90
-16777216
102
RTVSPost2010PropOp51
 70
     0
102
RTVSPost2010Prop52
140
1.0
102
RTVSPost2010PropOp52
 70
     0
102
RTVSPost2010Prop53
 90
        2
102
RTVSPost2010PropOp53
 70
     1
102
RTVSPost2010Prop54
  1
strokes_ogs.tif
102
RTVSPost2010PropOp54
 70
     1
102
RTVSPost2010Prop55
280
     0
102
RTVSPost2010PropOp55
 70
     1
102
RTVSPost2010Prop56
140
1.0
102
RTVSPost2010PropOp56
 70
     1
102
RTVSPost2010Prop57
140
1.0
102
RTVSPost2010PropOp57
 70
     1
  0
XRECORD
  5
56A
102
{ACAD_REACTORS
330
569
102
}
330
569
100
AcDbXrecord
280
     1
102
RTVSPropertyOp0
 70
     1
102
RTVSPropertyOp1
 70
     1
102
RTVSPropertyOp2
 70
     1
102
RTVSPropertyOp3
 70
     1
102
RTVSPropertyOp4
 70
     1
102
RTVSPropertyOp5
 70
     1
102
RTVSPropertyOp6
 70
     1
102
RTVSPropertyOp7
 70
     1
102
RTVSPropertyOp8
 70
     1
102
RTVSPropertyOp9
 70
     1
102
RTVSPropertyOp10
 70
     1
102
RTVSPropertyOp11
 70
     1
102
RTVSPropertyOp12
 70
     1
102
RTVSPropertyOp13
 70
     1
102
RTVSPropertyOp14
 70
     1
102
RTVSPropertyOp15
 70
     1
102
RTVSPropertyOp16
 70
     1
102
RTVSPropertyOp17
 70
     1
102
RTVSPropertyOp18
 70
     1
102
RTVSPropertyOp19
 70
     1
102
RTVSPropertyOp20
 70
     1
102
RTVSPropertyOp21
 70
     1
102
RTVSPropertyOp22
 70
     1
102
RTVSPropertyOp23
 70
     1
102
RTVSPropertyOp24
 70
     1
102
RTVSPropertyOp25
 70
     1
102
RTVSPropertyOp26
 70
     1
102
RTVSPropertyOp27
 70
     1
102
RTVSPropertyOp28
 70
     1
102
RTVSPropertyOp29
 70
     1
102
RTVSPropertyOp30
 70
     1
102
RTVSPropertyOp31
 70
     1
102
RTVSPropertyOp32
 70
     1
102
RTVSPropertyOp33
 70
     1
102
RTVSPropertyOp34
 70
     1
102
RTVSPropertyOp35
 70
     1
102
RTVSPropertyOp36
 70
     1
102
RTVSPropertyOp37
 70
     1
102
RTVSPropertyOp38
 70
     1
102
RTVSPropertyOp39
 70
     1
102
RTVSPropertyOp40
 70
     1
102
RTVSPropertyOp41
 70
     1
102
RTVSPropertyOp42
 70
     1
102
RTVSPropertyOp43
 70
     1
102
RTVSPropertyOp44
 70
     1
102
RTVSPropertyOp45
 70
     1
102
RTVSPropertyOp46
 70
     1
102
RTVSPropertyOp47
 70
     1
102
RTVSPropertyOp48
 70
     1
102
RTVSPropertyOp49
 70
     1
102
RTVSPropertyOp50
 70
     1
102
RTVSPropertyOp51
 70
     0
102
RTVSPropertyOp52
 70
     0
102
RTVSPropertyOp53
 70
     1
102
RTVSPropertyOp54
 70
     1
102
RTVSPropertyOp55
 70
     1
102
RTVSPropertyOp56
 70
     1
102
RTVSPropertyOp57
 70
     1
102
RTVSPost2010Prop28
280
     0
102
RTVSPost2010PropOp28
 70
     1
102
RTVSPost2010Prop29
280
     1
102
RTVSPost2010PropOp29
 70
     1
102
RTVSPost2010Prop30
280
     1
102
RTVSPost2010PropOp30
 70
     1
102
RTVSPost2010Prop31
280
     0
102
RTVSPost2010PropOp31
 70
     1
102
RTVSPost2010Prop32
280
     0
102
RTVSPost2010PropOp32
 70
     1
102
RTVSPost2010Prop33
280
     0
102
RTVSPost2010PropOp33
 70
     1
102
RTVSPost2010Prop34
280
     0
102
RTVSPost2010PropOp34
 70
     1
102
RTVSPost2010Prop35
280
     0
102
RTVSPost2010PropOp35
 70
     1
102
RTVSPost2010Prop36
280
     0
102
RTVSPost2010PropOp36
 70
     1
102
RTVSPost2010Prop37
 90
       50
102
RTVSPost2010PropOp37
 70
     1
102
RTVSPost2010Prop38
140
0.0
102
RTVSPost2010PropOp38
 70
     1
102
RTVSPost2010Prop39
140
1.0
102
RTVSPost2010PropOp39
 70
     1
102
RTVSPost2010Prop40
 90
        0
102
RTVSPost2010PropOp40
 70
     1
102
RTVSPost2010Prop41ColorIndex
 90
       18
102
RTVSPost2010Prop41ColorRGB
 90
        0
102
RTVSPost2010PropOp41
 70
     1
102
RTVSPost2010Prop42
 90
       50
102
RTVSPost2010PropOp42
 70
     1
102
RTVSPost2010Prop43
 90
        3
102
RTVSPost2010PropOp43
 70
     1
102
RTVSPost2010Prop44ColorIndex
 90
        5
102
RTVSPost2010Prop44ColorRGB
 90
      255
102
RTVSPost2010PropOp44
 70
     1
102
RTVSPost2010Prop45
280
     0
102
RTVSPost2010PropOp45
 70
     1
102
RTVSPost2010Prop46
 90
       50
102
RTVSPost2010PropOp46
 70
     1
102
RTVSPost2010Prop47
 90
       50
102
RTVSPost2010PropOp47
 70
     1
102
RTVSPost2010Prop48
 90
       50
102
RTVSPost2010PropOp48
 70
     1
102
RTVSPost2010Prop49
280
     0
102
RTVSPost2010PropOp49
 70
     1
102
RTVSPost2010Prop50
 90
       50
102
RTVSPost2010PropOp50
 70
     1
102
RTVSPost2010Prop51ColorIndex
 90
      256
102
RTVSPost2010Prop51ColorRGB
 90
-16777216
102
RTVSPost2010PropOp51
 70
     0
102
RTVSPost2010Prop52
140
1.0
102
RTVSPost2010PropOp52
 70
     0
102
RTVSPost2010Prop53
 90
        2
102
RTVSPost2010PropOp53
 70
     1
102
RTVSPost2010Prop54
  1
strokes_ogs.tif
102
RTVSPost2010PropOp54
 70
     1
102
RTVSPost2010Prop55
280
     0
102
RTVSPost2010PropOp55
 70
     1
102
RTVSPost2010Prop56
140
1.0
102
RTVSPost2010PropOp56
 70
     1
102
RTVSPost2010Prop57
140
1.0
102
RTVSPost2010PropOp57
 70
     1
  0
XRECORD
  5
568
102
{ACAD_REACTORS
330
567
102
}
330
567
100
AcDbXrecord
280
     1
102
RTVSPropertyOp0
 70
     1
102
RTVSPropertyOp1
 70
     1
102
RTVSPropertyOp2
 70
     1
102
RTVSPropertyOp3
 70
     1
102
RTVSPropertyOp4
 70
     1
102
RTVSPropertyOp5
 70
     1
102
RTVSPropertyOp6
 70
     1
102
RTVSPropertyOp7
 70
     1
102
RTVSPropertyOp8
 70
     1
102
RTVSPropertyOp9
 70
     1
102
RTVSPropertyOp10
 70
     1
102
RTVSPropertyOp11
 70
     1
102
RTVSPropertyOp12
 70
     1
102
RTVSPropertyOp13
 70
     1
102
RTVSPropertyOp14
 70
     1
102
RTVSPropertyOp15
 70
     1
102
RTVSPropertyOp16
 70
     1
102
RTVSPropertyOp17
 70
     1
102
RTVSPropertyOp18
 70
     1
102
RTVSPropertyOp19
 70
     1
102
RTVSPropertyOp20
 70
     1
102
RTVSPropertyOp21
 70
     1
102
RTVSPropertyOp22
 70
     1
102
RTVSPropertyOp23
 70
     1
102
RTVSPropertyOp24
 70
     1
102
RTVSPropertyOp25
 70
     1
102
RTVSPropertyOp26
 70
     1
102
RTVSPropertyOp27
 70
     1
102
RTVSPropertyOp28
 70
     1
102
RTVSPropertyOp29
 70
     1
102
RTVSPropertyOp30
 70
     1
102
RTVSPropertyOp31
 70
     1
102
RTVSPropertyOp32
 70
     1
102
RTVSPropertyOp33
 70
     1
102
RTVSPropertyOp34
 70
     1
102
RTVSPropertyOp35
 70
     1
102
RTVSPropertyOp36
 70
     1
102
RTVSPropertyOp37
 70
     1
102
RTVSPropertyOp38
 70
     1
102
RTVSPropertyOp39
 70
     1
102
RTVSPropertyOp40
 70
     1
102
RTVSPropertyOp41
 70
     1
102
RTVSPropertyOp42
 70
     1
102
RTVSPropertyOp43
 70
     1
102
RTVSPropertyOp44
 70
     1
102
RTVSPropertyOp45
 70
     1
102
RTVSPropertyOp46
 70
     1
102
RTVSPropertyOp47
 70
     1
102
RTVSPropertyOp48
 70
     1
102
RTVSPropertyOp49
 70
     1
102
RTVSPropertyOp50
 70
     1
102
RTVSPropertyOp51
 70
     0
102
RTVSPropertyOp52
 70
     0
102
RTVSPropertyOp53
 70
     1
102
RTVSPropertyOp54
 70
     1
102
RTVSPropertyOp55
 70
     1
102
RTVSPropertyOp56
 70
     1
102
RTVSPropertyOp57
 70
     1
102
RTVSPost2010Prop28
280
     0
102
RTVSPost2010PropOp28
 70
     1
102
RTVSPost2010Prop29
280
     1
102
RTVSPost2010PropOp29
 70
     1
102
RTVSPost2010Prop30
280
     1
102
RTVSPost2010PropOp30
 70
     1
102
RTVSPost2010Prop31
280
     0
102
RTVSPost2010PropOp31
 70
     1
102
RTVSPost2010Prop32
280
     0
102
RTVSPost2010PropOp32
 70
     1
102
RTVSPost2010Prop33
280
     0
102
RTVSPost2010PropOp33
 70
     1
102
RTVSPost2010Prop34
280
     0
102
RTVSPost2010PropOp34
 70
     1
102
RTVSPost2010Prop35
280
     0
102
RTVSPost2010PropOp35
 70
     1
102
RTVSPost2010Prop36
280
     0
102
RTVSPost2010PropOp36
 70
     1
102
RTVSPost2010Prop37
 90
       50
102
RTVSPost2010PropOp37
 70
     1
102
RTVSPost2010Prop38
140
0.0
102
RTVSPost2010PropOp38
 70
     1
102
RTVSPost2010Prop39
140
1.0
102
RTVSPost2010PropOp39
 70
     1
102
RTVSPost2010Prop40
 90
        0
102
RTVSPost2010PropOp40
 70
     1
102
RTVSPost2010Prop41ColorIndex
 90
       18
102
RTVSPost2010Prop41ColorRGB
 90
        0
102
RTVSPost2010PropOp41
 70
     1
102
RTVSPost2010Prop42
 90
       50
102
RTVSPost2010PropOp42
 70
     1
102
RTVSPost2010Prop43
 90
        3
102
RTVSPost2010PropOp43
 70
     1
102
RTVSPost2010Prop44ColorIndex
 90
        5
102
RTVSPost2010Prop44ColorRGB
 90
      255
102
RTVSPost2010PropOp44
 70
     1
102
RTVSPost2010Prop45
280
     0
102
RTVSPost2010PropOp45
 70
     1
102
RTVSPost2010Prop46
 90
       50
102
RTVSPost2010PropOp46
 70
     1
102
RTVSPost2010Prop47
 90
       50
102
RTVSPost2010PropOp47
 70
     1
102
RTVSPost2010Prop48
 90
       50
102
RTVSPost2010PropOp48
 70
     1
102
RTVSPost2010Prop49
280
     0
102
RTVSPost2010PropOp49
 70
     1
102
RTVSPost2010Prop50
 90
       50
102
RTVSPost2010PropOp50
 70
     1
102
RTVSPost2010Prop51ColorIndex
 90
      256
102
RTVSPost2010Prop51ColorRGB
 90
-16777216
102
RTVSPost2010PropOp51
 70
     0
102
RTVSPost2010Prop52
140
1.0
102
RTVSPost2010PropOp52
 70
     0
102
RTVSPost2010Prop53
 90
        2
102
RTVSPost2010PropOp53
 70
     1
102
RTVSPost2010Prop54
  1
strokes_ogs.tif
102
RTVSPost2010PropOp54
 70
     1
102
RTVSPost2010Prop55
280
     0
102
RTVSPost2010PropOp55
 70
     1
102
RTVSPost2010Prop56
140
1.0
102
RTVSPost2010PropOp56
 70
     1
102
RTVSPost2010Prop57
140
1.0
102
RTVSPost2010PropOp57
 70
     1
  0
XRECORD
  5
562
102
{ACAD_REACTORS
330
561
102
}
330
561
100
AcDbXrecord
280
     1
102
RTVSPropertyOp0
 70
     1
102
RTVSPropertyOp1
 70
     1
102
RTVSPropertyOp2
 70
     1
102
RTVSPropertyOp3
 70
     1
102
RTVSPropertyOp4
 70
     1
102
RTVSPropertyOp5
 70
     1
102
RTVSPropertyOp6
 70
     1
102
RTVSPropertyOp7
 70
     1
102
RTVSPropertyOp8
 70
     1
102
RTVSPropertyOp9
 70
     1
102
RTVSPropertyOp10
 70
     1
102
RTVSPropertyOp11
 70
     1
102
RTVSPropertyOp12
 70
     1
102
RTVSPropertyOp13
 70
     1
102
RTVSPropertyOp14
 70
     1
102
RTVSPropertyOp15
 70
     1
102
RTVSPropertyOp16
 70
     1
102
RTVSPropertyOp17
 70
     1
102
RTVSPropertyOp18
 70
     1
102
RTVSPropertyOp19
 70
     1
102
RTVSPropertyOp20
 70
     1
102
RTVSPropertyOp21
 70
     1
102
RTVSPropertyOp22
 70
     1
102
RTVSPropertyOp23
 70
     1
102
RTVSPropertyOp24
 70
     1
102
RTVSPropertyOp25
 70
     1
102
RTVSPropertyOp26
 70
     1
102
RTVSPropertyOp27
 70
     1
102
RTVSPropertyOp28
 70
     1
102
RTVSPropertyOp29
 70
     1
102
RTVSPropertyOp30
 70
     1
102
RTVSPropertyOp31
 70
     1
102
RTVSPropertyOp32
 70
     1
102
RTVSPropertyOp33
 70
     1
102
RTVSPropertyOp34
 70
     1
102
RTVSPropertyOp35
 70
     1
102
RTVSPropertyOp36
 70
     1
102
RTVSPropertyOp37
 70
     1
102
RTVSPropertyOp38
 70
     1
102
RTVSPropertyOp39
 70
     1
102
RTVSPropertyOp40
 70
     1
102
RTVSPropertyOp41
 70
     1
102
RTVSPropertyOp42
 70
     1
102
RTVSPropertyOp43
 70
     1
102
RTVSPropertyOp44
 70
     1
102
RTVSPropertyOp45
 70
     1
102
RTVSPropertyOp46
 70
     1
102
RTVSPropertyOp47
 70
     1
102
RTVSPropertyOp48
 70
     1
102
RTVSPropertyOp49
 70
     1
102
RTVSPropertyOp50
 70
     1
102
RTVSPropertyOp51
 70
     0
102
RTVSPropertyOp52
 70
     0
102
RTVSPropertyOp53
 70
     1
102
RTVSPropertyOp54
 70
     1
102
RTVSPropertyOp55
 70
     1
102
RTVSPropertyOp56
 70
     1
102
RTVSPropertyOp57
 70
     1
102
RTVSPost2010Prop28
280
     0
102
RTVSPost2010PropOp28
 70
     1
102
RTVSPost2010Prop29
280
     1
102
RTVSPost2010PropOp29
 70
     1
102
RTVSPost2010Prop30
280
     1
102
RTVSPost2010PropOp30
 70
     1
102
RTVSPost2010Prop31
280
     0
102
RTVSPost2010PropOp31
 70
     1
102
RTVSPost2010Prop32
280
     0
102
RTVSPost2010PropOp32
 70
     1
102
RTVSPost2010Prop33
280
     0
102
RTVSPost2010PropOp33
 70
     1
102
RTVSPost2010Prop34
280
     0
102
RTVSPost2010PropOp34
 70
     1
102
RTVSPost2010Prop35
280
     0
102
RTVSPost2010PropOp35
 70
     1
102
RTVSPost2010Prop36
280
     0
102
RTVSPost2010PropOp36
 70
     1
102
RTVSPost2010Prop37
 90
       50
102
RTVSPost2010PropOp37
 70
     1
102
RTVSPost2010Prop38
140
0.0
102
RTVSPost2010PropOp38
 70
     1
102
RTVSPost2010Prop39
140
1.0
102
RTVSPost2010PropOp39
 70
     1
102
RTVSPost2010Prop40
 90
        0
102
RTVSPost2010PropOp40
 70
     1
102
RTVSPost2010Prop41ColorIndex
 90
       18
102
RTVSPost2010Prop41ColorRGB
 90
        0
102
RTVSPost2010PropOp41
 70
     1
102
RTVSPost2010Prop42
 90
       50
102
RTVSPost2010PropOp42
 70
     1
102
RTVSPost2010Prop43
 90
        3
102
RTVSPost2010PropOp43
 70
     1
102
RTVSPost2010Prop44ColorIndex
 90
        5
102
RTVSPost2010Prop44ColorRGB
 90
      255
102
RTVSPost2010PropOp44
 70
     1
102
RTVSPost2010Prop45
280
     0
102
RTVSPost2010PropOp45
 70
     1
102
RTVSPost2010Prop46
 90
       50
102
RTVSPost2010PropOp46
 70
     1
102
RTVSPost2010Prop47
 90
       50
102
RTVSPost2010PropOp47
 70
     1
102
RTVSPost2010Prop48
 90
       50
102
RTVSPost2010PropOp48
 70
     1
102
RTVSPost2010Prop49
280
     0
102
RTVSPost2010PropOp49
 70
     1
102
RTVSPost2010Prop50
 90
       50
102
RTVSPost2010PropOp50
 70
     1
102
RTVSPost2010Prop51ColorIndex
 90
      256
102
RTVSPost2010Prop51ColorRGB
 90
-16777216
102
RTVSPost2010PropOp51
 70
     0
102
RTVSPost2010Prop52
140
1.0
102
RTVSPost2010PropOp52
 70
     0
102
RTVSPost2010Prop53
 90
        2
102
RTVSPost2010PropOp53
 70
     1
102
RTVSPost2010Prop54
  1
strokes_ogs.tif
102
RTVSPost2010PropOp54
 70
     1
102
RTVSPost2010Prop55
280
     0
102
RTVSPost2010PropOp55
 70
     1
102
RTVSPost2010Prop56
140
1.0
102
RTVSPost2010PropOp56
 70
     1
102
RTVSPost2010Prop57
140
1.0
102
RTVSPost2010PropOp57
 70
     1
  0
XRECORD
  5
564
102
{ACAD_REACTORS
330
563
102
}
330
563
100
AcDbXrecord
280
     1
102
RTVSPropertyOp0
 70
     1
102
RTVSPropertyOp1
 70
     1
102
RTVSPropertyOp2
 70
     1
102
RTVSPropertyOp3
 70
     1
102
RTVSPropertyOp4
 70
     1
102
RTVSPropertyOp5
 70
     1
102
RTVSPropertyOp6
 70
     1
102
RTVSPropertyOp7
 70
     1
102
RTVSPropertyOp8
 70
     1
102
RTVSPropertyOp9
 70
     1
102
RTVSPropertyOp10
 70
     1
102
RTVSPropertyOp11
 70
     1
102
RTVSPropertyOp12
 70
     1
102
RTVSPropertyOp13
 70
     1
102
RTVSPropertyOp14
 70
     1
102
RTVSPropertyOp15
 70
     1
102
RTVSPropertyOp16
 70
     1
102
RTVSPropertyOp17
 70
     1
102
RTVSPropertyOp18
 70
     1
102
RTVSPropertyOp19
 70
     1
102
RTVSPropertyOp20
 70
     1
102
RTVSPropertyOp21
 70
     1
102
RTVSPropertyOp22
 70
     1
102
RTVSPropertyOp23
 70
     1
102
RTVSPropertyOp24
 70
     1
102
RTVSPropertyOp25
 70
     1
102
RTVSPropertyOp26
 70
     1
102
RTVSPropertyOp27
 70
     1
102
RTVSPropertyOp28
 70
     1
102
RTVSPropertyOp29
 70
     1
102
RTVSPropertyOp30
 70
     1
102
RTVSPropertyOp31
 70
     1
102
RTVSPropertyOp32
 70
     1
102
RTVSPropertyOp33
 70
     1
102
RTVSPropertyOp34
 70
     1
102
RTVSPropertyOp35
 70
     1
102
RTVSPropertyOp36
 70
     1
102
RTVSPropertyOp37
 70
     1
102
RTVSPropertyOp38
 70
     1
102
RTVSPropertyOp39
 70
     1
102
RTVSPropertyOp40
 70
     1
102
RTVSPropertyOp41
 70
     1
102
RTVSPropertyOp42
 70
     1
102
RTVSPropertyOp43
 70
     1
102
RTVSPropertyOp44
 70
     1
102
RTVSPropertyOp45
 70
     1
102
RTVSPropertyOp46
 70
     1
102
RTVSPropertyOp47
 70
     1
102
RTVSPropertyOp48
 70
     1
102
RTVSPropertyOp49
 70
     1
102
RTVSPropertyOp50
 70
     1
102
RTVSPropertyOp51
 70
     0
102
RTVSPropertyOp52
 70
     0
102
RTVSPropertyOp53
 70
     1
102
RTVSPropertyOp54
 70
     1
102
RTVSPropertyOp55
 70
     1
102
RTVSPropertyOp56
 70
     1
102
RTVSPropertyOp57
 70
     1
102
RTVSPost2010Prop28
280
     0
102
RTVSPost2010PropOp28
 70
     1
102
RTVSPost2010Prop29
280
     1
102
RTVSPost2010PropOp29
 70
     1
102
RTVSPost2010Prop30
280
     1
102
RTVSPost2010PropOp30
 70
     1
102
RTVSPost2010Prop31
280
     0
102
RTVSPost2010PropOp31
 70
     1
102
RTVSPost2010Prop32
280
     0
102
RTVSPost2010PropOp32
 70
     1
102
RTVSPost2010Prop33
280
     0
102
RTVSPost2010PropOp33
 70
     1
102
RTVSPost2010Prop34
280
     0
102
RTVSPost2010PropOp34
 70
     1
102
RTVSPost2010Prop35
280
     0
102
RTVSPost2010PropOp35
 70
     1
102
RTVSPost2010Prop36
280
     0
102
RTVSPost2010PropOp36
 70
     1
102
RTVSPost2010Prop37
 90
       50
102
RTVSPost2010PropOp37
 70
     1
102
RTVSPost2010Prop38
140
0.0
102
RTVSPost2010PropOp38
 70
     1
102
RTVSPost2010Prop39
140
1.0
102
RTVSPost2010PropOp39
 70
     1
102
RTVSPost2010Prop40
 90
        0
102
RTVSPost2010PropOp40
 70
     1
102
RTVSPost2010Prop41ColorIndex
 90
       18
102
RTVSPost2010Prop41ColorRGB
 90
        0
102
RTVSPost2010PropOp41
 70
     1
102
RTVSPost2010Prop42
 90
       50
102
RTVSPost2010PropOp42
 70
     1
102
RTVSPost2010Prop43
 90
        3
102
RTVSPost2010PropOp43
 70
     1
102
RTVSPost2010Prop44ColorIndex
 90
        5
102
RTVSPost2010Prop44ColorRGB
 90
      255
102
RTVSPost2010PropOp44
 70
     1
102
RTVSPost2010Prop45
280
     0
102
RTVSPost2010PropOp45
 70
     1
102
RTVSPost2010Prop46
 90
       50
102
RTVSPost2010PropOp46
 70
     1
102
RTVSPost2010Prop47
 90
       50
102
RTVSPost2010PropOp47
 70
     1
102
RTVSPost2010Prop48
 90
       50
102
RTVSPost2010PropOp48
 70
     1
102
RTVSPost2010Prop49
280
     0
102
RTVSPost2010PropOp49
 70
     1
102
RTVSPost2010Prop50
 90
       50
102
RTVSPost2010PropOp50
 70
     1
102
RTVSPost2010Prop51ColorIndex
 90
      256
102
RTVSPost2010Prop51ColorRGB
 90
-16777216
102
RTVSPost2010PropOp51
 70
     0
102
RTVSPost2010Prop52
140
1.0
102
RTVSPost2010PropOp52
 70
     0
102
RTVSPost2010Prop53
 90
        2
102
RTVSPost2010PropOp53
 70
     1
102
RTVSPost2010Prop54
  1
strokes_ogs.tif
102
RTVSPost2010PropOp54
 70
     1
102
RTVSPost2010Prop55
280
     0
102
RTVSPost2010PropOp55
 70
     1
102
RTVSPost2010Prop56
140
1.0
102
RTVSPost2010PropOp56
 70
     1
102
RTVSPost2010Prop57
140
1.0
102
RTVSPost2010PropOp57
 70
     1
  0
XRECORD
  5
554
102
{ACAD_REACTORS
330
553
102
}
330
553
100
AcDbXrecord
280
     1
102
RTVSPropertyOp0
 70
     1
102
RTVSPropertyOp1
 70
     1
102
RTVSPropertyOp2
 70
     1
102
RTVSPropertyOp3
 70
     1
102
RTVSPropertyOp4
 70
     1
102
RTVSPropertyOp5
 70
     1
102
RTVSPropertyOp6
 70
     1
102
RTVSPropertyOp7
 70
     1
102
RTVSPropertyOp8
 70
     1
102
RTVSPropertyOp9
 70
     1
102
RTVSPropertyOp10
 70
     1
102
RTVSPropertyOp11
 70
     1
102
RTVSPropertyOp12
 70
     1
102
RTVSPropertyOp13
 70
     1
102
RTVSPropertyOp14
 70
     1
102
RTVSPropertyOp15
 70
     1
102
RTVSPropertyOp16
 70
     1
102
RTVSPropertyOp17
 70
     1
102
RTVSPropertyOp18
 70
     1
102
RTVSPropertyOp19
 70
     1
102
RTVSPropertyOp20
 70
     1
102
RTVSPropertyOp21
 70
     1
102
RTVSPropertyOp22
 70
     1
102
RTVSPropertyOp23
 70
     1
102
RTVSPropertyOp24
 70
     1
102
RTVSPropertyOp25
 70
     1
102
RTVSPropertyOp26
 70
     1
102
RTVSPropertyOp27
 70
     1
102
RTVSPropertyOp28
 70
     1
102
RTVSPropertyOp29
 70
     1
102
RTVSPropertyOp30
 70
     1
102
RTVSPropertyOp31
 70
     1
102
RTVSPropertyOp32
 70
     1
102
RTVSPropertyOp33
 70
     1
102
RTVSPropertyOp34
 70
     1
102
RTVSPropertyOp35
 70
     1
102
RTVSPropertyOp36
 70
     1
102
RTVSPropertyOp37
 70
     1
102
RTVSPropertyOp38
 70
     1
102
RTVSPropertyOp39
 70
     1
102
RTVSPropertyOp40
 70
     1
102
RTVSPropertyOp41
 70
     1
102
RTVSPropertyOp42
 70
     1
102
RTVSPropertyOp43
 70
     1
102
RTVSPropertyOp44
 70
     1
102
RTVSPropertyOp45
 70
     1
102
RTVSPropertyOp46
 70
     1
102
RTVSPropertyOp47
 70
     1
102
RTVSPropertyOp48
 70
     1
102
RTVSPropertyOp49
 70
     1
102
RTVSPropertyOp50
 70
     1
102
RTVSPropertyOp51
 70
     0
102
RTVSPropertyOp52
 70
     0
102
RTVSPropertyOp53
 70
     1
102
RTVSPropertyOp54
 70
     1
102
RTVSPropertyOp55
 70
     1
102
RTVSPropertyOp56
 70
     1
102
RTVSPropertyOp57
 70
     1
102
RTVSPost2010Prop28
280
     0
102
RTVSPost2010PropOp28
 70
     1
102
RTVSPost2010Prop29
280
     1
102
RTVSPost2010PropOp29
 70
     1
102
RTVSPost2010Prop30
280
     1
102
RTVSPost2010PropOp30
 70
     1
102
RTVSPost2010Prop31
280
     0
102
RTVSPost2010PropOp31
 70
     1
102
RTVSPost2010Prop32
280
     0
102
RTVSPost2010PropOp32
 70
     1
102
RTVSPost2010Prop33
280
     0
102
RTVSPost2010PropOp33
 70
     1
102
RTVSPost2010Prop34
280
     0
102
RTVSPost2010PropOp34
 70
     1
102
RTVSPost2010Prop35
280
     0
102
RTVSPost2010PropOp35
 70
     1
102
RTVSPost2010Prop36
280
     0
102
RTVSPost2010PropOp36
 70
     1
102
RTVSPost2010Prop37
 90
       50
102
RTVSPost2010PropOp37
 70
     1
102
RTVSPost2010Prop38
140
0.0
102
RTVSPost2010PropOp38
 70
     1
102
RTVSPost2010Prop39
140
1.0
102
RTVSPost2010PropOp39
 70
     1
102
RTVSPost2010Prop40
 90
        0
102
RTVSPost2010PropOp40
 70
     1
102
RTVSPost2010Prop41ColorIndex
 90
       18
102
RTVSPost2010Prop41ColorRGB
 90
        0
102
RTVSPost2010PropOp41
 70
     1
102
RTVSPost2010Prop42
 90
       50
102
RTVSPost2010PropOp42
 70
     1
102
RTVSPost2010Prop43
 90
        3
102
RTVSPost2010PropOp43
 70
     1
102
RTVSPost2010Prop44ColorIndex
 90
        5
102
RTVSPost2010Prop44ColorRGB
 90
      255
102
RTVSPost2010PropOp44
 70
     1
102
RTVSPost2010Prop45
280
     0
102
RTVSPost2010PropOp45
 70
     1
102
RTVSPost2010Prop46
 90
       50
102
RTVSPost2010PropOp46
 70
     1
102
RTVSPost2010Prop47
 90
       50
102
RTVSPost2010PropOp47
 70
     1
102
RTVSPost2010Prop48
 90
       50
102
RTVSPost2010PropOp48
 70
     1
102
RTVSPost2010Prop49
280
     0
102
RTVSPost2010PropOp49
 70
     1
102
RTVSPost2010Prop50
 90
       50
102
RTVSPost2010PropOp50
 70
     1
102
RTVSPost2010Prop51ColorIndex
 90
      256
102
RTVSPost2010Prop51ColorRGB
 90
-16777216
102
RTVSPost2010PropOp51
 70
     0
102
RTVSPost2010Prop52
140
1.0
102
RTVSPost2010PropOp52
 70
     0
102
RTVSPost2010Prop53
 90
        2
102
RTVSPost2010PropOp53
 70
     1
102
RTVSPost2010Prop54
  1
strokes_ogs.tif
102
RTVSPost2010PropOp54
 70
     1
102
RTVSPost2010Prop55
280
     0
102
RTVSPost2010PropOp55
 70
     1
102
RTVSPost2010Prop56
140
1.0
102
RTVSPost2010PropOp56
 70
     1
102
RTVSPost2010Prop57
140
1.0
102
RTVSPost2010PropOp57
 70
     1
  0
XRECORD
  5
546
102
{ACAD_REACTORS
330
545
102
}
330
545
100
AcDbXrecord
280
     1
102
RTVSPropertyOp0
 70
     1
102
RTVSPropertyOp1
 70
     1
102
RTVSPropertyOp2
 70
     1
102
RTVSPropertyOp3
 70
     1
102
RTVSPropertyOp4
 70
     1
102
RTVSPropertyOp5
 70
     1
102
RTVSPropertyOp6
 70
     1
102
RTVSPropertyOp7
 70
     1
102
RTVSPropertyOp8
 70
     1
102
RTVSPropertyOp9
 70
     1
102
RTVSPropertyOp10
 70
     1
102
RTVSPropertyOp11
 70
     1
102
RTVSPropertyOp12
 70
     1
102
RTVSPropertyOp13
 70
     1
102
RTVSPropertyOp14
 70
     1
102
RTVSPropertyOp15
 70
     1
102
RTVSPropertyOp16
 70
     1
102
RTVSPropertyOp17
 70
     1
102
RTVSPropertyOp18
 70
     1
102
RTVSPropertyOp19
 70
     1
102
RTVSPropertyOp20
 70
     1
102
RTVSPropertyOp21
 70
     1
102
RTVSPropertyOp22
 70
     1
102
RTVSPropertyOp23
 70
     1
102
RTVSPropertyOp24
 70
     1
102
RTVSPropertyOp25
 70
     1
102
RTVSPropertyOp26
 70
     1
102
RTVSPropertyOp27
 70
     1
102
RTVSPropertyOp28
 70
     1
102
RTVSPropertyOp29
 70
     1
102
RTVSPropertyOp30
 70
     1
102
RTVSPropertyOp31
 70
     1
102
RTVSPropertyOp32
 70
     1
102
RTVSPropertyOp33
 70
     1
102
RTVSPropertyOp34
 70
     1
102
RTVSPropertyOp35
 70
     1
102
RTVSPropertyOp36
 70
     1
102
RTVSPropertyOp37
 70
     1
102
RTVSPropertyOp38
 70
     1
102
RTVSPropertyOp39
 70
     1
102
RTVSPropertyOp40
 70
     1
102
RTVSPropertyOp41
 70
     1
102
RTVSPropertyOp42
 70
     1
102
RTVSPropertyOp43
 70
     1
102
RTVSPropertyOp44
 70
     1
102
RTVSPropertyOp45
 70
     1
102
RTVSPropertyOp46
 70
     1
102
RTVSPropertyOp47
 70
     1
102
RTVSPropertyOp48
 70
     1
102
RTVSPropertyOp49
 70
     1
102
RTVSPropertyOp50
 70
     1
102
RTVSPropertyOp51
 70
     0
102
RTVSPropertyOp52
 70
     0
102
RTVSPropertyOp53
 70
     1
102
RTVSPropertyOp54
 70
     1
102
RTVSPropertyOp55
 70
     1
102
RTVSPropertyOp56
 70
     1
102
RTVSPropertyOp57
 70
     1
102
RTVSPost2010Prop28
280
     0
102
RTVSPost2010PropOp28
 70
     1
102
RTVSPost2010Prop29
280
     1
102
RTVSPost2010PropOp29
 70
     1
102
RTVSPost2010Prop30
280
     1
102
RTVSPost2010PropOp30
 70
     1
102
RTVSPost2010Prop31
280
     0
102
RTVSPost2010PropOp31
 70
     1
102
RTVSPost2010Prop32
280
     0
102
RTVSPost2010PropOp32
 70
     1
102
RTVSPost2010Prop33
280
     0
102
RTVSPost2010PropOp33
 70
     1
102
RTVSPost2010Prop34
280
     0
102
RTVSPost2010PropOp34
 70
     1
102
RTVSPost2010Prop35
280
     0
102
RTVSPost2010PropOp35
 70
     1
102
RTVSPost2010Prop36
280
     0
102
RTVSPost2010PropOp36
 70
     1
102
RTVSPost2010Prop37
 90
       50
102
RTVSPost2010PropOp37
 70
     1
102
RTVSPost2010Prop38
140
0.0
102
RTVSPost2010PropOp38
 70
     1
102
RTVSPost2010Prop39
140
1.0
102
RTVSPost2010PropOp39
 70
     1
102
RTVSPost2010Prop40
 90
        0
102
RTVSPost2010PropOp40
 70
     1
102
RTVSPost2010Prop41ColorIndex
 90
       18
102
RTVSPost2010Prop41ColorRGB
 90
        0
102
RTVSPost2010PropOp41
 70
     1
102
RTVSPost2010Prop42
 90
       50
102
RTVSPost2010PropOp42
 70
     1
102
RTVSPost2010Prop43
 90
        3
102
RTVSPost2010PropOp43
 70
     1
102
RTVSPost2010Prop44ColorIndex
 90
        5
102
RTVSPost2010Prop44ColorRGB
 90
      255
102
RTVSPost2010PropOp44
 70
     1
102
RTVSPost2010Prop45
280
     0
102
RTVSPost2010PropOp45
 70
     1
102
RTVSPost2010Prop46
 90
       50
102
RTVSPost2010PropOp46
 70
     1
102
RTVSPost2010Prop47
 90
       50
102
RTVSPost2010PropOp47
 70
     1
102
RTVSPost2010Prop48
 90
       50
102
RTVSPost2010PropOp48
 70
     1
102
RTVSPost2010Prop49
280
     0
102
RTVSPost2010PropOp49
 70
     1
102
RTVSPost2010Prop50
 90
       50
102
RTVSPost2010PropOp50
 70
     1
102
RTVSPost2010Prop51ColorIndex
 90
      256
102
RTVSPost2010Prop51ColorRGB
 90
-16777216
102
RTVSPost2010PropOp51
 70
     0
102
RTVSPost2010Prop52
140
1.0
102
RTVSPost2010PropOp52
 70
     0
102
RTVSPost2010Prop53
 90
        2
102
RTVSPost2010PropOp53
 70
     1
102
RTVSPost2010Prop54
  1
strokes_ogs.tif
102
RTVSPost2010PropOp54
 70
     1
102
RTVSPost2010Prop55
280
     0
102
RTVSPost2010PropOp55
 70
     1
102
RTVSPost2010Prop56
140
1.0
102
RTVSPost2010PropOp56
 70
     1
102
RTVSPost2010Prop57
140
1.0
102
RTVSPost2010PropOp57
 70
     1
  0
XRECORD
  5
566
102
{ACAD_REACTORS
330
565
102
}
330
565
100
AcDbXrecord
280
     1
102
RTVSPropertyOp0
 70
     1
102
RTVSPropertyOp1
 70
     1
102
RTVSPropertyOp2
 70
     1
102
RTVSPropertyOp3
 70
     1
102
RTVSPropertyOp4
 70
     1
102
RTVSPropertyOp5
 70
     1
102
RTVSPropertyOp6
 70
     1
102
RTVSPropertyOp7
 70
     1
102
RTVSPropertyOp8
 70
     1
102
RTVSPropertyOp9
 70
     1
102
RTVSPropertyOp10
 70
     1
102
RTVSPropertyOp11
 70
     1
102
RTVSPropertyOp12
 70
     1
102
RTVSPropertyOp13
 70
     1
102
RTVSPropertyOp14
 70
     1
102
RTVSPropertyOp15
 70
     1
102
RTVSPropertyOp16
 70
     1
102
RTVSPropertyOp17
 70
     1
102
RTVSPropertyOp18
 70
     1
102
RTVSPropertyOp19
 70
     1
102
RTVSPropertyOp20
 70
     1
102
RTVSPropertyOp21
 70
     1
102
RTVSPropertyOp22
 70
     1
102
RTVSPropertyOp23
 70
     1
102
RTVSPropertyOp24
 70
     1
102
RTVSPropertyOp25
 70
     1
102
RTVSPropertyOp26
 70
     1
102
RTVSPropertyOp27
 70
     1
102
RTVSPropertyOp28
 70
     1
102
RTVSPropertyOp29
 70
     1
102
RTVSPropertyOp30
 70
     1
102
RTVSPropertyOp31
 70
     1
102
RTVSPropertyOp32
 70
     1
102
RTVSPropertyOp33
 70
     1
102
RTVSPropertyOp34
 70
     1
102
RTVSPropertyOp35
 70
     1
102
RTVSPropertyOp36
 70
     1
102
RTVSPropertyOp37
 70
     1
102
RTVSPropertyOp38
 70
     1
102
RTVSPropertyOp39
 70
     1
102
RTVSPropertyOp40
 70
     1
102
RTVSPropertyOp41
 70
     1
102
RTVSPropertyOp42
 70
     1
102
RTVSPropertyOp43
 70
     1
102
RTVSPropertyOp44
 70
     1
102
RTVSPropertyOp45
 70
     1
102
RTVSPropertyOp46
 70
     1
102
RTVSPropertyOp47
 70
     1
102
RTVSPropertyOp48
 70
     1
102
RTVSPropertyOp49
 70
     1
102
RTVSPropertyOp50
 70
     1
102
RTVSPropertyOp51
 70
     0
102
RTVSPropertyOp52
 70
     0
102
RTVSPropertyOp53
 70
     1
102
RTVSPropertyOp54
 70
     1
102
RTVSPropertyOp55
 70
     1
102
RTVSPropertyOp56
 70
     1
102
RTVSPropertyOp57
 70
     1
102
RTVSPost2010Prop28
280
     0
102
RTVSPost2010PropOp28
 70
     1
102
RTVSPost2010Prop29
280
     1
102
RTVSPost2010PropOp29
 70
     1
102
RTVSPost2010Prop30
280
     1
102
RTVSPost2010PropOp30
 70
     1
102
RTVSPost2010Prop31
280
     0
102
RTVSPost2010PropOp31
 70
     1
102
RTVSPost2010Prop32
280
     0
102
RTVSPost2010PropOp32
 70
     1
102
RTVSPost2010Prop33
280
     0
102
RTVSPost2010PropOp33
 70
     1
102
RTVSPost2010Prop34
280
     0
102
RTVSPost2010PropOp34
 70
     1
102
RTVSPost2010Prop35
280
     0
102
RTVSPost2010PropOp35
 70
     1
102
RTVSPost2010Prop36
280
     0
102
RTVSPost2010PropOp36
 70
     1
102
RTVSPost2010Prop37
 90
       50
102
RTVSPost2010PropOp37
 70
     1
102
RTVSPost2010Prop38
140
0.0
102
RTVSPost2010PropOp38
 70
     1
102
RTVSPost2010Prop39
140
1.0
102
RTVSPost2010PropOp39
 70
     1
102
RTVSPost2010Prop40
 90
        0
102
RTVSPost2010PropOp40
 70
     1
102
RTVSPost2010Prop41ColorIndex
 90
       18
102
RTVSPost2010Prop41ColorRGB
 90
        0
102
RTVSPost2010PropOp41
 70
     1
102
RTVSPost2010Prop42
 90
       50
102
RTVSPost2010PropOp42
 70
     1
102
RTVSPost2010Prop43
 90
        3
102
RTVSPost2010PropOp43
 70
     1
102
RTVSPost2010Prop44ColorIndex
 90
        5
102
RTVSPost2010Prop44ColorRGB
 90
      255
102
RTVSPost2010PropOp44
 70
     1
102
RTVSPost2010Prop45
280
     0
102
RTVSPost2010PropOp45
 70
     1
102
RTVSPost2010Prop46
 90
       50
102
RTVSPost2010PropOp46
 70
     1
102
RTVSPost2010Prop47
 90
       50
102
RTVSPost2010PropOp47
 70
     1
102
RTVSPost2010Prop48
 90
       50
102
RTVSPost2010PropOp48
 70
     1
102
RTVSPost2010Prop49
280
     0
102
RTVSPost2010PropOp49
 70
     1
102
RTVSPost2010Prop50
 90
       50
102
RTVSPost2010PropOp50
 70
     1
102
RTVSPost2010Prop51ColorIndex
 90
      256
102
RTVSPost2010Prop51ColorRGB
 90
-16777216
102
RTVSPost2010PropOp51
 70
     0
102
RTVSPost2010Prop52
140
1.0
102
RTVSPost2010PropOp52
 70
     0
102
RTVSPost2010Prop53
 90
        2
102
RTVSPost2010PropOp53
 70
     1
102
RTVSPost2010Prop54
  1
strokes_ogs.tif
102
RTVSPost2010PropOp54
 70
     1
102
RTVSPost2010Prop55
280
     0
102
RTVSPost2010PropOp55
 70
     1
102
RTVSPost2010Prop56
140
1.0
102
RTVSPost2010PropOp56
 70
     1
102
RTVSPost2010Prop57
140
1.0
102
RTVSPost2010PropOp57
 70
     1
  0
ENDSEC
  0
SECTION
  2
THUMBNAILIMAGE
 90
    16364
310
28000000B4000000550000000100080000000000C43B000000000000000000000001000000010000FFFFFF000000FF0000FFFF0000FF0000FFFF0000FF000000FF00FF000000000080808000C0C0C0000000FF007F7FFF000000A5005252A50000007F003F3F7F0000004C0026264C000000260013132600003FFF007F9FFF
310
000029A5005267A500001F7F003F4F7F0000134C00262F4C000009260013172600007FFF007FBFFF000052A500527CA500003F7F003F5F7F0000264C0026394C0000132600131C260000BFFF007FDFFF00007CA5005291A500005F7F003F6F7F0000394C0026424C00001C26001321260000FFFF007FFFFF0000A5A50052A5
310
A500007F7F003F7F7F00004C4C00264C4C00002626001326260000FFBF007FFFDF0000A57C0052A59100007F5F003F7F6F00004C3900264C420000261C001326210000FF7F007FFFBF0000A5520052A57C00007F3F003F7F5F00004C2600264C39000026130013261C0000FF3F007FFF9F0000A5290052A56700007F1F003F
310
7F4F00004C1300264C2F00002609001326170000FF00007FFF7F0000A5000052A55200007F00003F7F3F00004C0000264C260000260000132613003FFF00009FFF7F0029A5000067A552001F7F00004F7F3F00134C00002F4C260009260000172613007FFF0000BFFF7F0052A500007CA552003F7F00005F7F3F00264C0000
310
394C2600132600001C261300BFFF0000DFFF7F007CA5000091A552005F7F00006F7F3F00394C0000424C26001C26000021261300FFFF0000FFFF7F00A5A50000A5A552007F7F00007F7F3F004C4C00004C4C26002626000026261300FFBF0000FFDF7F00A57C0000A59152007F5F00007F6F3F004C3900004C422600261C00
310
0026211300FF7F0000FFBF7F00A5520000A57C52007F3F00007F5F3F004C2600004C39260026130000261C1300FF3F0000FF9F7F00A5290000A56752007F1F00007F4F3F004C1300004C2F26002609000026171300FF000000FF7F7F00A5000000A55252007F0000007F3F3F004C0000004C2626002600000026131300FF00
310
3F00FF7F9F00A5002900A55267007F001F007F3F4F004C0013004C262F002600090026131700FF007F00FF7FBF00A5005200A5527C007F003F007F3F5F004C0026004C2639002600130026131C00FF00BF00FF7FDF00A5007C00A55291007F005F007F3F6F004C0039004C26420026001C0026132100FF00FF00FF7FFF00A5
310
00A500A552A5007F007F007F3F7F004C004C004C264C002600260026132600BF00FF00DF7FFF007C00A5009152A5005F007F006F3F7F0039004C0042264C001C002600211326007F00FF00BF7FFF005200A5007C52A5003F007F005F3F7F0026004C0039264C00130026001C1326003F00FF009F7FFF002900A5006752A500
310
1F007F004F3F7F0013004C002F264C000900260017132600000000002D2D2D005B5B5B0089898900B7B7B700B3B3B30000000000000000000000000000000000000000000000000000000000000000000000000000000000000000000000000000000000000000000000000000000000000000000000000000000000000000
310
00000000000000000000000000000000000000000000000000000000000000000000000000000000000000000000000000000000000000000000000000000000000000000000000000000000000000000000000000000000000000000000000000000000000000000000000000000000000000000000000000000000000000
310
00000000000000000000000000000000000000000000000000000000000000000000000000000000000000000000000000000000000000000000000000000000000000000000000000000000000000000000000000000000000000000000000000000000000000000000000000000000000000000000000000000000000000
310
00000000000000000000000000000000000000000000000000000000000000000000000000000000000000000000000000000000000000000000000000000000000000000000000000000000000000000000000000000000000000000000000000000000020202020202000000000000000000000000000000000000000000
310
00000000000000000000000000000000000000000000000000000000000000000000000000000000000000000000000000000000000000000000000000000000000000000000000000000000000000000000000000000000000000000000000000000000000000000000000000000000000000000000000000000000000000
310
00000000000000000000000000000000000000000000000000000202020202020000000000000000000000000000000000000000000000000000000000000000000000000000000000000000000000000000000000000000000000000000000000000000000000000000000000000000000000000000000000000000000000
310
00000000000000000000000000000000000000000000000000000000000000000000000000000000000001000000000000000000000000000000000000000000000000000100000000000000000000000000000000000000000000000000010000000000000001000000000000010000000000000000000000000000000000
310
00000000000000000000000000000000000000000000000000000000000000000000000000000000000000000000000000000000000000000000000000000000000000000000000000000000000000000000000000000000000000000003030103030303030303030303030301030303030303030303030303010303030000
310
00000000000000000000000000000000000000030303030303030303030303030303030303000000000000000000000000000000000000000000000000000000000000000000000000000000000000000000000000000000000000000000000000000000000000000000000000000000000000000000000000000000000000
310
00000000000000000000000000000000000000030001000003000300000000000003030300000000000000030003000100000300000000000000000000000000000000000000000003010000000000000001000000030303010300000000000000000000000000000000000000000000000000000000000000000000000000
310
00000000000000000000000000000000000000000000000000000000000000000000000000000000000000000000000000000000000000000000000000000000000000000000000003030103030303030000000000030301040303000000000003030303010303030000000000000000000000000000000000000000000303
310
03030303030303030303030303030303000000000000000000000000000000000000000000000000000000000000000000000000000000000000000000000000000000000000000000000000000000000000000000000000000000000000000000000000000000000000000000000000000000000000000000000000000300
310
01000000000000030303030000010400000303000000000000000100000300000000000000000000000000000000000000000000010003030000000001000000030300010000000000000000000000000000000000000000000000000000000000000000000000000000000000000000000000000000000000000000000000
310
00000000000000000000000000000000000000000000000000000000000000000000000000000000000000000000000000000303000000000000000300000003030301030303000003030300000000000000030300000000000000000000000000000000000000000000000303000303030100000003030300000000000000
310
00000000000000000000000000000000000000000000000000000000000000000000000000000000000000000000000000000000000000000000000000000000000000000000000000000000000000000000000000000000000000000000000000000000000000030303030303030303000003030000000100000003030000
310
00030303030303030303000000000000000000000000000000000000000000000003030300010303000101010303010000000000000000000000000000000000000000000000000000000000000000000000000000000000000000000000000000000000000000000000000000000000000000000000000000000000000000
310
00000000000000000000000000000000000000000000000000000000000303000000000003000003000000000001000000000003000000030000000000030300000000000000000000000000000000000000000000030303030303030303000003030300000000000000000000000000000000000000000000000000000000
310
00000000000000000000000000000000000000000000000000000000000000000000000000000000000000000000000000000000000000000000000000000000000000000000000000000003030303030303030300000000030003030000000000000100000000000003030000030000000003030303030303030000000000
310
00000000000000000000000303030303010303030300030303000000000000000000000000000000000000000000000000000000000000000000000000000000000000000000000000000000000000000000000000000000000000000000000000000000000000000000000000000000000000000000000000000000000000
310
00030301010101030101010101010101010101010101010101010101010101010101010101010101030101010101010100000000000000000000000000000003030303010301030301030003030300000000000000000000000000000000000000000000000000000000000000000000000000000000000000000000000000
310
00000000000000000000000000000000000000000000000000000000000000000000000000000000000000000000000000000000000003030303030303030300000300000300000000000001010101010100000000000003000300000003030303030303030000000000000000000000000000000303030300030303030003
310
00030303000000000000000000000000000000000000000000000000000000000000000000000000000000000000000000000000000000000000000000000000000000000000000000000000000000000000000000000000000000000000000000000000000000000000000303030303030303030000030000030003030303
310
03030301030303030303030000030003000000030303030303030300000000000000000000000000000003030303030303030303000003030300000000000000000000000000000000000000000000000000000000000000000000000000000000000000000000000000000000000000000000000000000000000000000000
310
00000000000000000000000000000000000000000000000000000000000000000000000000000000030303030300030303000000000100030103000000000000030303030003030303030000000000000000000000000000000000000000000303030303030303030000000303030300000000000000000000000000000000
310
00000000000000000000000000000000000000000000000000000000000000000000000000000000000000000000000000000000000000000000000000000000000000000000000000000000000000000000000000000000000000000003030003000300000000000303010303010000000000000000000003000300000303
310
00000000000000000000000000000000000000000003030303030303030100000003030303000000000000000000000000000000000000000000000000000000000000000000000000000000000000000000000000000000000000000000000000000000000000000000000000000000000000000000000000000000000000
310
00000000000000000000000000000000000000000300030003000000030303030100030103000000000001000000030003000003000000000000000000000000000000000000000000000303030300000100010000000303030300000000000000000000000000000000000000000000000000000000000000000000000000
310
00000000000000000000000000000000000000000000000000000000000000000000000000000000000000000000000000000000000000000000000000000000000000000000000000030003000300000003030000010000010303000003030303030000030300000300000000000000000000000000000000000000000003
310
03030303000000000100000003030303000000000000000000000000000000000000000000000000000000000000000000000000000000000000000000000000000000000000000000000000000000000000000000000000000000000000000000000000000000000000000000000000000000000000000000000000000101
310
01010101010101010101030303010101010101010101010101010101010103000000000000000000000000000003030303030303030301010101010101010101010101030300000000000000000000000000000000000000000000000000000000000000000000000000000000000000000000000000000000000000000000
310
00000000000000000000000000000000000000000000000000000000000000000000000000000000000000000000000000000000030003000300000303000303010003010303030300000100000303030300000300000000000000000000000000000300000000000003030303030000000001000000030303030000000000
310
00000000000000000000000000000000000000000000000000000000000000000000000000000000000000000000000000000000000000000000000000000000000000000000000000000000000000000000000000000000000000000000000000000000000000000003000300030001010101030101010301010101030000
310
01000003030303000003000000000000000000000000000103010101010101030303030301010101010101010303030300000000000000000000000000000000000000000000000000000000000000000000000000000000000000000000000000000000000000000000000000000000000000000000000000000000000000
310
00000000000000000000000000000000000000000000000000000000000000030003000300000303000003030303010301010101010101010103010300000300000000000000000000000000000303030303030303030101010101010101010101010101030000000000000000000000000000000000000000000000000000
310
00000000000000000000000000000000000000000000000000000000000000000000000000000000000000000000000000000000000000000000000000000000000000000000000000000000000000000000000003000300030000000303000003030001030303030000010000030300030000030000000000000000000000
310
00000003030303030303030303030300000000010000000303030300000000000000000000000000000000000000000000000000000000000000000000000000000000000000000000000000000000000000000000000000000000000000000000000000000000000000000000000000000000000000000000000000000000
310
00000000000000000000030000030003000003030303010003010300000303000100030303000300000300000000000000000000000000000000000000000000030303030000000001000000030303030000000000000000000000000000000000000000000000000000000000000000000000000000000000000000000000
310
00000000000000000000000000000000000000000000000000000000000000000000000000000000000000000000000000000000000000000000000000000003000003000300000000030301030301000000000303030303000300030000030000000000000000000000000000000000000000000003030303000000000100
310
00000303030300000000000000000000000000000000000000000000000000000000000000000000000000000000000000000000000000000000000000000000000000000000000000000000000000000000000000000000000000000000000000000000000000000000000000000000000000000300000300000303030300
310
03010300010000000000030303030300030000000300000000000000000000000000000000000000000000030303030000000001000000030303030000000000000000000000000000000000000000000000000000000000000000000000000000000000000000000000000000000000000000000000000000000000000000
310
00000000000000000000000000000000000000000000000000000000000000000000000000000000000003000000030003000000030303030301030303030300000003000300000003000000000000000000000000000000000000000000000000030303000000000100000003030300000000000000000000000000000000
310
00000000000000000000000000000000000000000000000000000000000000000000000000000000000000000000000000000000000000000000000000000000000000000000000000000000000000000000000000000000000000000000000300000000030003030000000303030103030300000003030003000000000300
310
00000000000000000000000000000000000000000000000303030000000001000000030303000000000000000000000000000000000000000000000000000000000000000000000000000000000000000000000000000000000000000000000000000000000000000000000000000000000000000000000000000000000000
310
00000000000000000000000000000000000000000003000000000003000003000003030301030303000003000003000000000003000000000000000000000000000000000000000000000000030303000000000100000003030300000000000000000000000000000000000000000000000000000000000000000000000000
310
00000000000000000000000000000000000000000000000000000000000000000000000000000000000000000000000000000000000000000000000000000000000000000000000000000003000000000003000003030303030103030303030000030000000000000300000000000000000000000000000000000000000000
310
00000003030000000001000101010404010000000000000000000000000000000000000000000000000000000000000000000000000000000000000000000000000000000000000000000000000000000000000000000000000000000000000000000000000000000000000000000000000000000000000000000000000000
310
00030000000000000303000000030301030303000000030000000000000003000000000000000000000000000000000000000000000000000303000000000100000003030300000000000000000000000000000000000000000000000000000000000000000000000000000000000000000000000000000000000000000000
310
00000000000000000000000000000000000000000000000000000000000000000000000000000000000000000000000000000000000003030303000000000003030303000100000303030300000000030303030300000000000000000000000000000000000000000000000000030300000000010000000303000000000000
310
00000000000000000000000000000000000000000000000000000000000000000000000000000000000000000000000000000000000000000000000000000000000000000000000000000000000000000000000000000000000000000000000000000000000000000000000000000003030303030303030303010303030303
310
03030303030000000000000000000000000000000000000000000000000000000000000303030303030303030303030000000000000000000000000000000000000000000000000000000000000000000000000000000000000000000000000000000000000000000000000000000000000000000000000000000000000000
310
00000000000000000000000000000000000000000000000000000000000000000000000000000000000000000000030103030000000000000000000000000000000000000000000000000000000000000000000000000000000000000303030300000000000000000000000000000000000000000000000000000000000000
310
00000000000000000000000000000000000000000000000000000000000000000000000000000000000000000000000000000000000000000000000000000000000000000000000000000000000000000000000000000000000000000000000000000000010000000000000000000000000000000000000000000000000000
310
00000000000000000000000000000000000000000100000000000000000000000000000000000000000000000000000000000000000000000000000000000000000000000000000000000000000000000000000000000000000000000000000000000000000000000000000000000000000000000000000000000000000000
310
00000000000000000000000000000000000000000000000000000000000000000000000000000000000000000000000000000000000000000000000000000000000000000000000000000000000000000000000000000000000000000000000000000000000000000000000000000000000000000000000000000000000000
310
00000000000000000000000000000000000000000000000000000000000000000000000000000000000000000000000000000000000000000000000000000000000000000000000000000000000000000000000000000000000000000000000000000000000000000000000000000000000000000000000000000000000000
310
00000000000000000000000000000000000000000000000000000000000000000000000000000000000000000000000000000000000000000000000000000000000000000000000000000000000000000000000000000000000000000000000000000000000000000000000000000000000000000000000000000000000000
310
00000000000000000000000000000000000000000000000000000000000000000000000000000000000000000000000000000000000000000000000000000000000000000000000000000000000000000000000000000000000000000000000000000000000000000000000000000000000000000000000000000000000000
310
00000000000000000000000000000000000000000000000000000000000000000000000000000000000000000000000000000000000000000000000000000000000000000000000000000000000000000000000000000000000000000000000000000000000000000000000000000000000000000000000000000000000000
310
00000000000000000000000000000000000000000000000000000000000000000000000000000000000000000000000000000000000000000000000000000000000000000000000000000000000000000000000000000000000000000000000000000000000000000000000000000000000000000000000000000000000000
310
00000000000000000000000000000000000000000000000000000000000000000000000000000000000000000000000000000000000000000000000000000000000000000000000000000000000000000000000000000000000000000000000000000000000000000000000000000000000000000000000000000000000000
310
00000000000000000000000000000000000000000000000000000000000000000000000000000000000000000000000000000000000000000000000000000000000000000000000000000000000000000000000000000000000000000000000000000000000000000000000000000000000000000000000000000000000000
310
00000000000000000000000000000000000000000000000000000000000000000000000000000000000000000000000000000000000000000000000000000000000000000000000000000000000000000000000000000000000000000000000000000000000000000000000000000000000000000000000000000000000000
310
00000000000000000000000000000000000000000000000000000000000000000000000000000000000000000000000000000000000000000000000000000000000000000000000000000000000000000000000000000000000000000000000000000000000000000000000000000000000000000000000000000000000000
310
00000000000000000000000000000000000000000000000000000000000000000000000000000000000000000000000000000000000000000000000000000000000000000000000000000000000000000000000000000000000000000000000000000000000000000000000000000000000000000000000000000000000000
310
00000000000000000000000000000000000000000000000000000000000000000000000000000000000000000000000000000000000000000000000000000000000000000000000000000000000000000000000000000000000000000000000000000000000000000000000000000000000000000000000000000000000000
310
00000000000000000000000000000000000000000000000000000000000000000000000000000000000000000000000000000000000000000000000000000000000000000000000000000000000000000000000000000000000000000000000000000000000000000000000000000000000000000003030303030000000000
310
00000000000000000000000000000000000000000000000000000000000000000000000000000000000000000000000000000000000000000000000000000000000000000000000000000000000000000000000000000000000000000000000000000000000000000000000000000000000000000000000000000000000000
310
00000000000000000000000000000000000000000000000000000000000000000000000000000000000000030003030300000000000000000000000000000000000000000000000000000000000000000000000000000000000000000000000000000000000000000000000000000000000000000000000000000000000000
310
00000000000000000000000000000000000000000000000000000000000000000000000000000000000000000000000000000000000000000000000000000000000000000000000000000000000000000000000000000000000000000000000003000303030000000000000000000000000000000000000000000000000000
310
00000000000000000000000000000000000000000000000000000000000000000000000000000000000000000000000000000000000000000000000000000000000000000000000000000000000000000000000000000000000000000000000000000000000000000000000000000000000000000000000000000000000000
310
00000000000000000000000000000000000000000000030003030300000000000000000000000000000000000000000000000000000000000000000000000000000000000000000000000000000000000000000000000000000000000000000000000000000000000000000000000000000000000000000000000000000000
310
00000000000000000000000000000000000000000000000000000000000000000000000000000000000000000000000000000000000000000000000000000000000000000000000000000003000303030000000000000000000000000000000000000000000000000000000000000000000000000000000000000000000000
310
00000000000000000000000000000000000000000000000000000000000000000000000000000000000000000000000000000000000000000000000000000000000000000000000000000000000000000000000000000000000000000000000000000000000000000000000000000000000000000000000000000000000000
310
00030003030300000000000000000000000000000000000000000000000000000000000000000000000000000000000000000000000000000000000000000000000000000000000000000000000000000000000000000000000000000000000000000000000000000000000000000000000000000000000000000000000000
310
00000000000000000000000000000000000000000000000000000000000000000000000000000000000000000000000000000000000003000303030000000000000000000000000000000000000000000000000000000000000000000000000000000000000000000000000000000000000000000000000000000000000000
310
00000000000000000000000000000000000000000000000000000000000000000000000000000000000000000000000000000000000000000000000000000000000000000000000000000000000000000000000000000000000000000000000000030303030303000000000300030303000000000000000000000003030303
310
03030000000000000000000000000000000000000000000000000000000000000000000000000000000000000000000000000000000000000000000000000000000000000000000000000000000000000000000000000000000000000000000000000000000000000000000000000000000000000000000000000000000000
310
00000000000000000000000000000000000000000000000300030300030000000003030303030100000000000001000000030003030003000000000000000000000000000000000000000000000000000000000000000000000000000000000000000000000000000000000000000000000000000000000000000000000000
310
00000000000000000000000000000000000000000000000000000000000000000000000000000000000000000000000000000000000000000000000000000000000000000000000000000000030103030103000303030303010303030303030303030103030303030303010300000000000000000000000000000000000000
310
00000000000000000000000000000000000000000000000000000000000000000000000000000000000000000000000000000000000000000000000000000000000000000000000000000000000000000000000000000000000000000000000000000000000000000000000000000000000000000000000000000000000000
310
00030303030303030303030303030103030103030303030301030303030303030303030000000000000000000000000000000000000000000000000000000000000000000000000000000000000000000000000000000000000000000000000000000000000000000000000000000000000000000000000000000000000000
310
00000000000000000000000000000000000000000000000000000000000000000000000000000000000000000000000000000000000003000003000000000000000000010000010000000000000100000000000303000003000000000000000000000000000000000000000000000000000000000000000000000000000000
310
00000000000000000000000000000000000000000000000000000000000000000000000000000000000000000000000000000000000000000000000000000000000000000000000000000000000000000000000000000000000000000000000000000000000000000000000303030303030303030303030301030301030303
310
03030301030303030303030303030000000000000000000000000000000000000000000000000000000000000000000000000000000000000000000000000000000000000000000000000000000000000000000000000000000000000000000000000000000000000000000000000000000000000000000000000000000000
310
00000000000000000000000000000000000000000000000000000303030303030303030000000000000000000000010000010000000000000100000000000000000303030303030303000000000000000000000000000000000000000000000000000000000000000000000000000000000000000000000000000000000000
310
00000000000000000000000000000000000000000000000000000000000000000000000000000000000000000000000000000000000000000000000000000000000000000000000000000000000000030303030303030303010101010101010101010101030303030301010101010101010101010101030303030303030300
310
00000000000000000000000000000000000000000000000000000000000000000000000000000000000000000000000000000000000000000000000000000000000000000000000000000000000000000000000000000000000000000000000000000000000000000000000000000000000000000000000000000000000000
310
00000000000303030303030303030000000000000000000000010303030303000000000100000000000000000303030303030303000000000000000000000000000000000000000000000000000000000000000000000000000000000000000000000000000000000000000000000000000000000000000000000000000000
310
00000000000000000000000000000000000000000000000000000000000000000000000000000000000000000000000000000000000000000000000303030303030303010101010101010101010101030301030301010101010101010101010101030303030303030300000000000000000000000000000000000000000000
310
00000000000000000000000000000000000000000000000000000000000000000000000000000000000000000000000000000000000000000000000000000000000000000000000000000000000000000000000000000000000000000000000000000000000000000000000000000000000000000000030300000000000000
310
00000000010303030303000000000100000000000000000303000000000000000000000000000000000000000000000000000000000000000000000000000000000000000000000000000000000000000000000000000000000000000000000000000000000000000000000000000000000000000000000000000000000000
310
00000000000000000000000000000000000000000000000000000000000000000000000000000000000000000303000000000000000000000001030303030300000000010000000000000000030300000000000000000000000000000000000000000000000000000000000000000000000000000000000000000000000000
310
00000000000000000000000000000000000000000000000000000000000000000000000000000000000000000000000000000000000000000000000000000000000000000000000000000000000000000000000000000000000000000000000000000300000100000000000100000100000100000000000101000000000001
310
00000300000000000000000000000000000000000000000000000000000000000000000000000000000000000000000000000000000000000000000000000000000000000000000000000000000000000000000000000000000000000000000000000000000000000000000000000000000000000000000000000000000000
310
00000000000000000000000000000000000000000000000003000001000000000001000001000001000000000001010000000000010000030000000000000000000000000000000000000000000000000000000000000000000000000000000000000000000000000000000000000000000000000000000000000000000000
310
00000000000000000000000000000000000000000000000000000000000000000000000000000000000000000000000000000000000000000000000000000000000000000000000000000000000303030103030303030103030103030303030303030101030303030301030303000000000000000000000000000000000000
310
00000000000000000000000000000000000000000000000000000000000000000000000000000000000000000000000000000000000000000000000000000000000000000000000000000000000000000000000000000000000000000000000000000000000000000000000000000000000000000000000000000000000000
310
00000003000301030303030301030301030303030303030303030303030303030300030000000000000000000000000000000000000000000000000000000000000000000000000000000000000000000000000000000000000000000000000000000000000000000000000000000000000000000000000000000000000000
310
00000000000000000000000000000000000000000000000000000000000000000000000000000000000000000000000000000000000000000301030101000303030103030303030303030303030303030303030303030103000000000000000000000000000000000000000000000000000000000000000000000000000000
310
00000000000000000000000000000000000000000000000000000000000000000000000000000000000000000000000000000000000000000000000000000000000000000000000000000000000000000000000000000000000000000000000000000000000000000000000000030003030003000000000000010000010000
310
00000000010000030003030300030000000000000000000000000000000000000000000000000000000000000000000000000000000000000000000000000000000000000000000000000000000000000000000000000000000000000000000000000000000000000000000000000000000000000000000000000000000000
310
00000000000000000000000000000000000000000000000000000000000000000000000303030303030000000000000000000000000000000000000000030303030303000000000000000000000000000000000000000000000000000000000000000000000000000000000000000000000000000000000000000000000000
310
00000000000000000000000000000000000000000000000000000000000000000000000000000000000000000000000000000000000000000000000000000000000000000000000000000000000000000000000000000000000000000000000000000000000000000000000000000000000000000000000000000000000000
310
00000000000000000000000000000000000000000000000000000000000000000000000000000000000000000000000000000000000000000000000000000000000000000000000000000000000000000000000000000000000000000000000000000000000000000000000000000000000000000000000000000000000000
310
00000000000000000000000000000000000000000000000000000000000000000000000000000000000000000000000000000000000000000000000000000000000000000000000000000000000000000000000000000000000000000000000000000000000000000000000000000000000000000000000000000000000000
310
00000000000000000000000000000000000000000000000000000000000000000000000000000000000000000000000000000000000000000000000000000000000000000000000000000000000000000000000000000000000000000000000000000000000000000000000000000000000000000000000000000000000000
310
00000000000000000000000000000000000000000000000000000000000000000000000000000000000000000000000000000000000000000000000000000000000000000000000000000000000000000000000000000000000000000000000000000000000000000000000000000000000000000000000000000000000000
310
00000000000000000000000000000000000000000000000000000000000000000000000000000000000000000000000000000000000000000000000000000000000000000000000000000000000000000000000000000000000000000000000000000000000000000000000000000000000000000000000000000000000000
310
00000000000000000000000000000000000000000000000000000000000000000000000000000000000000000000000000000000000000000000000000000000000000000000000000000000000000000000000000000000000000000000000000000000000000000000000000000000000000000000000000000000000000
310
00000000000000000000000000000000000000000000000000000000000000000000000000000000000000000000000000000000000000000000000000000000000000000000000000000000000000000000000000000000000000000000000000000000000000000000000000000000000000000000000000000000000000
310
00000000000000000000000000000000000000000000000000000000000000000000000000000000000000000000000000000000000000000000000000000000000000000000000000000000000000000000000000000000000000000000000000000000000000000000000000000000000000000000000000000000000000
310
00000000000000000000000000000000000000000000000000000000000000000000000000000000000000000000000000000000000000000000000000000000000000000000000000000000000000000000000000000000000000000000000000000000000000000000000000000000000000000000000000000000000000
310
00000000000000000000000000000000000000000000000000000000000000000000000000000000000000000000000000000000000000000000000000000000000000000000000000000000000000000000000000000000000000000000000000000000000000000000000000000000000000000000000000000000000000
310
00000000000000000000000000000000000000000000000000000000000000000000000000000000000000000000000000000000000000000000000000000000000000000000000000000000000000000000000000000000000000000000000000000000000000000000000000000000000000000000000000000000000000
310
00000000000000000000000000000000000000000000000000000000000000000000000000000000000000000000000000000000000000000000000000000000000000000000000000000000000000000000000000000000000000000000000000000000000000000000000000000000000000000000000000000000000000
310
00000000000000000000000000000000000000000000000000000000000000000000000000000000000000000000000000000000000000000000000000000000000000000000000000000000000000000000000000000000000000000000000000000000000000000000000000000000000000000000000000000000000000
310
00000000000000000000000000000000000000000000000000000000000000000000000000000000000000000000000000000000000000000000000000000000000000000000000000000000000000000000000000000000000000000000000000000000000000000000000000000000000000000000000000000000000000
310
00000000000000000000000000000000000000000000000000000000000000000000000000000000000000000000000000000000000000000000000000000000000000000000000000000000000000000000000000000000000000000000000000000000000000000000000000000000000000000000000000000000000000
310
00000000000000000000000000000000000000000000000000000000000000000000000000000000000000000000000000000000000000000000000000000000000000000000000000000000000000000000000000000000000000000000000000000000000000000000000000000000000000000000000000000000000000
310
00000000000000000000000000000000000000000000000000000000000000000000000000000000000000000000000000000000000000000000000000000000000000000000000000000000000000000000000000000000000000000000000000000000000000000000000000000000000000000000000000000000000000
310
000000000000000000000000000000000000000000000000000000000000000000000000000000000000000000000000000000000000000000000000000000000000000000000000000000000000000000000000000000000000000000000000000000000000000000000000
  0
ENDSEC
  0
EOF
