  0
SECTION
  2
HEADER
  9
$ACADVER
  1
AC1015
  9
$ACADMAINTVER
 70
     6
  9
$DWGCODEPAGE
  3
ANSI_932
  9
$INSBASE
 10
686.4219643228736
 20
765.0371808171417
 30
0.0
  9
$EXTMIN
 10
127.4508217412756
 20
290.2103910946394
 30
0.0
  9
$EXTMAX
 10
906.486267169002
 20
970.2779000322059
 30
0.0
  9
$LIMMIN
 10
0.0
 20
0.0
  9
$LIMMAX
 10
816.5000000000001
 20
565.0
  9
$ORTHOMODE
 70
     1
  9
$REGENMODE
 70
     1
  9
$FILLMODE
 70
     1
  9
$QTEXTMODE
 70
     0
  9
$MIRRTEXT
 70
     1
  9
$LTSCALE
 40
20.0
  9
$ATTMODE
 70
     1
  9
$TEXTSIZE
 40
7.5
  9
$TRACEWID
 40
0.05
  9
$TEXTSTYLE
  7
KANJI
  9
$CLAYER
  8
2
  9
$CELTYPE
  6
BYLAYER
  9
$CECOLOR
 62
   256
  9
$CELTSCALE
 40
1.0
  9
$DISPSILH
 70
     0
  9
$DIMSCALE
 40
2.5
  9
$DIMASZ
 40
2.0
  9
$DIMEXO
 40
0.5
  9
$DIMDLI
 40
0.0
  9
$DIMRND
 40
0.0
  9
$DIMDLE
 40
0.0
  9
$DIMEXE
 40
1.0
  9
$DIMTP
 40
0.0
  9
$DIMTM
 40
0.0
  9
$DIMTXT
 40
3.0
  9
$DIMCEN
 40
0.09
  9
$DIMTSZ
 40
0.0
  9
$DIMTOL
 70
     0
  9
$DIMLIM
 70
     0
  9
$DIMTIH
 70
     0
  9
$DIMTOH
 70
     0
  9
$DIMSE1
 70
     0
  9
$DIMSE2
 70
     0
  9
$DIMTAD
 70
     0
  9
$DIMZIN
 70
     8
  9
$DIMBLK
  1

  9
$DIMASO
 70
     0
  9
$DIMSHO
 70
     0
  9
$DIMPOST
  1

  9
$DIMAPOST
  1

  9
$DIMALT
 70
     0
  9
$DIMALTD
 70
     2
  9
$DIMALTF
 40
25.4
  9
$DIMLFAC
 40
1.0
  9
$DIMTOFL
 70
     1
  9
$DIMTVP
 40
1.0
  9
$DIMTIX
 70
     1
  9
$DIMSOXD
 70
     1
  9
$DIMSAH
 70
     0
  9
$DIMBLK1
  1

  9
$DIMBLK2
  1

  9
$DIMSTYLE
  2
STANDARD
  9
$DIMCLRD
 70
   256
  9
$DIMCLRE
 70
   256
  9
$DIMCLRT
 70
   256
  9
$DIMTFAC
 40
1.0
  9
$DIMGAP
 40
0.09
  9
$DIMJUST
 70
     0
  9
$DIMSD1
 70
     0
  9
$DIMSD2
 70
     0
  9
$DIMTOLJ
 70
     1
  9
$DIMTZIN
 70
     0
  9
$DIMALTZ
 70
     0
  9
$DIMALTTZ
 70
     0
  9
$DIMUPT
 70
     0
  9
$DIMDEC
 70
     1
  9
$DIMTDEC
 70
     4
  9
$DIMALTU
 70
     2
  9
$DIMALTTD
 70
     2
  9
$DIMTXSTY
  7
STANDARD
  9
$DIMAUNIT
 70
     0
  9
$DIMADEC
 70
     0
  9
$DIMALTRND
 40
0.0
  9
$DIMAZIN
 70
     0
  9
$DIMDSEP
 70
    46
  9
$DIMATFIT
 70
     3
  9
$DIMFRAC
 70
     0
  9
$DIMLDRBLK
  1

  9
$DIMLUNIT
 70
     2
  9
$DIMLWD
 70
    -2
  9
$DIMLWE
 70
    -2
  9
$DIMTMOVE
 70
     0
  9
$LUNITS
 70
     2
  9
$LUPREC
 70
     3
  9
$SKETCHINC
 40
0.1
  9
$FILLETRAD
 40
1.0
  9
$AUNITS
 70
     0
  9
$AUPREC
 70
     3
  9
$MENU
  1
C:\R13\WIN\SUPPORT\ACADFULL
  9
$ELEVATION
 40
0.0
  9
$PELEVATION
 40
0.0
  9
$THICKNESS
 40
0.0
  9
$LIMCHECK
 70
     0
  9
$CHAMFERA
 40
0.0
  9
$CHAMFERB
 40
0.0
  9
$CHAMFERC
 40
0.0
  9
$CHAMFERD
 40
0.0
  9
$SKPOLY
 70
     0
  9
$TDCREATE
 40
2457357.857836701
  9
$TDUCREATE
 40
2457357.482836701
  9
$TDUPDATE
 40
2457899.649897766
  9
$TDUUPDATE
 40
2457899.274897766
  9
$TDINDWG
 40
0.0055289699
  9
$TDUSRTIMER
 40
0.0055283912
  9
$USRTIMER
 70
     1
  9
$ANGBASE
 50
0.0
  9
$ANGDIR
 70
     0
  9
$PDMODE
 70
     0
  9
$PDSIZE
 40
0.0
  9
$PLINEWID
 40
0.0
  9
$SPLFRAME
 70
     0
  9
$SPLINETYPE
 70
     6
  9
$SPLINESEGS
 70
     8
  9
$HANDSEED
  5
289
  9
$SURFTAB1
 70
     6
  9
$SURFTAB2
 70
     6
  9
$SURFTYPE
 70
     6
  9
$SURFU
 70
     6
  9
$SURFV
 70
     6
  9
$UCSBASE
  2

  9
$UCSNAME
  2

  9
$UCSORG
 10
0.0
 20
0.0
 30
0.0
  9
$UCSXDIR
 10
1.0
 20
0.0
 30
0.0
  9
$UCSYDIR
 10
0.0
 20
1.0
 30
0.0
  9
$UCSORTHOREF
  2

  9
$UCSORTHOVIEW
 70
     0
  9
$UCSORGTOP
 10
0.0
 20
0.0
 30
0.0
  9
$UCSORGBOTTOM
 10
0.0
 20
0.0
 30
0.0
  9
$UCSORGLEFT
 10
0.0
 20
0.0
 30
0.0
  9
$UCSORGRIGHT
 10
0.0
 20
0.0
 30
0.0
  9
$UCSORGFRONT
 10
0.0
 20
0.0
 30
0.0
  9
$UCSORGBACK
 10
0.0
 20
0.0
 30
0.0
  9
$PUCSBASE
  2

  9
$PUCSNAME
  2

  9
$PUCSORG
 10
0.0
 20
0.0
 30
0.0
  9
$PUCSXDIR
 10
1.0
 20
0.0
 30
0.0
  9
$PUCSYDIR
 10
0.0
 20
1.0
 30
0.0
  9
$PUCSORTHOREF
  2

  9
$PUCSORTHOVIEW
 70
     0
  9
$PUCSORGTOP
 10
0.0
 20
0.0
 30
0.0
  9
$PUCSORGBOTTOM
 10
0.0
 20
0.0
 30
0.0
  9
$PUCSORGLEFT
 10
0.0
 20
0.0
 30
0.0
  9
$PUCSORGRIGHT
 10
0.0
 20
0.0
 30
0.0
  9
$PUCSORGFRONT
 10
0.0
 20
0.0
 30
0.0
  9
$PUCSORGBACK
 10
0.0
 20
0.0
 30
0.0
  9
$USERI1
 70
     0
  9
$USERI2
 70
     0
  9
$USERI3
 70
     0
  9
$USERI4
 70
     0
  9
$USERI5
 70
     0
  9
$USERR1
 40
0.0
  9
$USERR2
 40
0.0
  9
$USERR3
 40
0.0
  9
$USERR4
 40
2448925.372986111
  9
$USERR5
 40
0.04166667
  9
$WORLDVIEW
 70
     1
  9
$SHADEDGE
 70
     3
  9
$SHADEDIF
 70
    70
  9
$TILEMODE
 70
     1
  9
$MAXACTVP
 70
    16
  9
$PINSBASE
 10
0.0
 20
0.0
 30
0.0
  9
$PLIMCHECK
 70
     0
  9
$PEXTMIN
 10
1.000000000000000E+20
 20
1.000000000000000E+20
 30
1.000000000000000E+20
  9
$PEXTMAX
 10
-1.000000000000000E+20
 20
-1.000000000000000E+20
 30
-1.000000000000000E+20
  9
$PLIMMIN
 10
0.0
 20
0.0
  9
$PLIMMAX
 10
12.0
 20
9.0
  9
$UNITMODE
 70
     0
  9
$VISRETAIN
 70
     0
  9
$PLINEGEN
 70
     0
  9
$PSLTSCALE
 70
     0
  9
$TREEDEPTH
 70
  3020
  9
$CMLSTYLE
  2
STANDARD
  9
$CMLJUST
 70
     0
  9
$CMLSCALE
 40
1.0
  9
$PROXYGRAPHICS
 70
     1
  9
$MEASUREMENT
 70
     0
  9
$CELWEIGHT
370
    -1
  9
$ENDCAPS
280
     0
  9
$JOINSTYLE
280
     0
  9
$LWDISPLAY
290
     0
  9
$INSUNITS
 70
     0
  9
$HYPERLINKBASE
  1

  9
$STYLESHEET
  1
R14.ctb
  9
$XEDIT
290
     1
  9
$CEPSNTYPE
380
     0
  9
$PSTYLEMODE
290
     1
  9
$FINGERPRINTGUID
  2
{3ED457CE-4AD6-4606-8B41-B9E060CC2AC1}
  9
$VERSIONGUID
  2
{DDEF4D37-9D82-43D1-B110-3567CBD2DAAF}
  9
$EXTNAMES
290
     1
  9
$PSVPSCALE
 40
0.0
  9
$OLESTARTUP
290
     0
  0
ENDSEC
  0
SECTION
  2
CLASSES
  0
CLASS
  1
ACDBDICTIONARYWDFLT
  2
AcDbDictionaryWithDefault
  3
ObjectDBX Classes
 90
        0
280
     0
281
     0
  0
CLASS
  1
MATERIAL
  2
AcDbMaterial
  3
ObjectDBX Classes
 90
     1153
280
     0
281
     0
  0
CLASS
  1
SORTENTSTABLE
  2
AcDbSortentsTable
  3
ObjectDBX Classes
 90
        0
280
     0
281
     0
  0
CLASS
  1
SCALE
  2
AcDbScale
  3
ObjectDBX Classes
 90
     1153
280
     0
281
     0
  0
CLASS
  1
DICTIONARYVAR
  2
AcDbDictionaryVar
  3
ObjectDBX Classes
 90
        0
280
     0
281
     0
  0
CLASS
  1
VISUALSTYLE
  2
AcDbVisualStyle
  3
ObjectDBX Classes
 90
     4095
280
     0
281
     0
  0
CLASS
  1
TABLESTYLE
  2
AcDbTableStyle
  3
ObjectDBX Classes
 90
     4095
280
     0
281
     0
  0
CLASS
  1
MLEADERSTYLE
  2
AcDbMLeaderStyle
  3
ACDB_MLEADERSTYLE_CLASS
 90
     4095
280
     0
281
     0
  0
CLASS
  1
ACDBPLACEHOLDER
  2
AcDbPlaceHolder
  3
ObjectDBX Classes
 90
        0
280
     0
281
     0
  0
CLASS
  1
LAYOUT
  2
AcDbLayout
  3
ObjectDBX Classes
 90
        0
280
     0
281
     0
  0
ENDSEC
  0
SECTION
  2
TABLES
  0
TABLE
  2
VPORT
  5
2C
102
{ACAD_XDICTIONARY
360
24E
102
}
330
0
100
AcDbSymbolTable
 70
     1
  0
VPORT
  5
31
330
2C
100
AcDbSymbolTableRecord
100
AcDbViewportTableRecord
  2
*ACTIVE
 70
     0
 10
0.0
 20
0.0
 11
1.0
 21
1.0
 12
473.5093650580616
 22
533.1467525606766
 13
0.0
 23
0.0
 14
1.0
 24
1.0
 15
50.0
 25
50.0
 16
0.0
 26
0.0
 36
1.0
 17
0.0
 27
0.0
 37
0.0
 40
1528.231498565797
 41
1.787878787878788
 42
50.0
 43
0.0
 44
0.0
 50
0.0
 51
0.0
 71
     0
 72
  5000
 73
     1
 74
     0
 75
     0
 76
     0
 77
     0
 78
     0
281
     0
 65
     1
110
0.0
120
0.0
130
0.0
111
1.0
121
0.0
131
0.0
112
0.0
122
1.0
132
0.0
 79
     0
146
0.0
1001
ACAD_NAV_VCDISPLAY
1070
     3
  0
ENDTAB
  0
TABLE
  2
LTYPE
  5
F
330
0
100
AcDbSymbolTable
 70
     2
  0
LTYPE
  5
10
330
F
100
AcDbSymbolTableRecord
100
AcDbLinetypeTableRecord
  2
BYBLOCK
 70
     0
  3

 72
    65
 73
     0
 40
0.0
  0
LTYPE
  5
11
330
F
100
AcDbSymbolTableRecord
100
AcDbLinetypeTableRecord
  2
BYLAYER
 70
     0
  3

 72
    65
 73
     0
 40
0.0
  0
LTYPE
  5
E
330
F
100
AcDbSymbolTableRecord
100
AcDbLinetypeTableRecord
  2
CONTINUOUS
 70
     0
  3
Solid line
 72
    65
 73
     0
 40
0.0
  0
LTYPE
  5
60
330
F
100
AcDbSymbolTableRecord
100
AcDbLinetypeTableRecord
  2
CENTER
 70
     0
  3
____ _ ____ _ ____ _ ____ _ ____ _ ____ _ ____
 72
    65
 73
     4
 40
2.0
 49
1.25
 74
     0
 49
-0.25
 74
     0
 49
0.25
 74
     0
 49
-0.25
 74
     0
  0
ENDTAB
  0
TABLE
  2
LAYER
  5
2
102
{ACAD_XDICTIONARY
360
3
102
}
330
0
100
AcDbSymbolTable
 70
     7
  0
LAYER
  5
1F
102
{ACAD_XDICTIONARY
360
20
102
}
330
2
100
AcDbSymbolTableRecord
100
AcDbLayerTableRecord
  2
0
 70
     0
 62
     7
  6
CONTINUOUS
370
    -3
390
7
  0
LAYER
  5
1
102
{ACAD_XDICTIONARY
360
5
102
}
330
2
100
AcDbSymbolTableRecord
100
AcDbLayerTableRecord
  2
2
 70
     0
 62
     4
  6
CONTINUOUS
370
    -3
390
7
  0
LAYER
  5
59
102
{ACAD_XDICTIONARY
360
5A
102
}
330
2
100
AcDbSymbolTableRecord
100
AcDbLayerTableRecord
  2
4
 70
     0
 62
     3
  6
CONTINUOUS
370
    -3
390
7
  0
LAYER
  5
5D
102
{ACAD_XDICTIONARY
360
5E
102
}
330
2
100
AcDbSymbolTableRecord
100
AcDbLayerTableRecord
  2
L-CENTER
 70
     0
 62
     1
  6
CENTER
370
    -3
390
7
  0
LAYER
  5
AB
102
{ACAD_XDICTIONARY
360
AC
102
}
330
2
100
AcDbSymbolTableRecord
100
AcDbLayerTableRecord
  2
3
 70
     0
 62
     2
  6
CONTINUOUS
370
    -3
390
7
  0
ENDTAB
  0
TABLE
  2
STYLE
  5
13
330
0
100
AcDbSymbolTable
 70
     2
  0
STYLE
  5
17
330
13
100
AcDbSymbolTableRecord
100
AcDbTextStyleTableRecord
  2
STANDARD
 70
     0
 40
0.0
 41
1.0
 50
0.0
 71
     0
 42
4.5
  3
TXT
  4

  0
STYLE
  5
12
330
13
100
AcDbSymbolTableRecord
100
AcDbTextStyleTableRecord
  2
KANJI
 70
     0
 40
0.0
 41
1.0
 50
0.0
 71
     0
 42
7.5
  3
TXT
  4
BIGFONT
  0
ENDTAB
  0
TABLE
  2
VIEW
  5
2A
330
0
100
AcDbSymbolTable
 70
     0
  0
ENDTAB
  0
TABLE
  2
UCS
  5
2B
330
0
100
AcDbSymbolTable
 70
     0
  0
ENDTAB
  0
TABLE
  2
APPID
  5
D
330
0
100
AcDbSymbolTable
 70
     5
  0
APPID
  5
C
330
D
100
AcDbSymbolTableRecord
100
AcDbRegAppTableRecord
  2
ACAD
 70
     0
  0
APPID
  5
32
330
D
100
AcDbSymbolTableRecord
100
AcDbRegAppTableRecord
  2
ACAD_NAV_VCDISPLAY
 70
     0
  0
APPID
  5
25
330
D
100
AcDbSymbolTableRecord
100
AcDbRegAppTableRecord
  2
ACAD_PSEXT
 70
     0
  0
APPID
  5
244
330
D
100
AcDbSymbolTableRecord
100
AcDbRegAppTableRecord
  2
ACAD_MLEADERVER
 70
     0
  0
ENDTAB
  0
TABLE
  2
DIMSTYLE
  5
16
330
0
100
AcDbSymbolTable
 70
     1
100
AcDbDimStyleTable
  0
DIMSTYLE
105
15
330
16
100
AcDbSymbolTableRecord
100
AcDbDimStyleTableRecord
  2
STANDARD
 70
     0
178
     0
340
17
  0
ENDTAB
  0
TABLE
  2
BLOCK_RECORD
  5
1A
330
0
100
AcDbSymbolTable
 70
     0
  0
BLOCK_RECORD
  5
1B
102
{ACAD_XDICTIONARY
360
1C
102
}
330
1A
100
AcDbSymbolTableRecord
100
AcDbBlockTableRecord
  2
*MODEL_SPACE
340
23
  0
BLOCK_RECORD
  5
26
330
1A
100
AcDbSymbolTableRecord
100
AcDbBlockTableRecord
  2
*PAPER_SPACE
340
29
  0
ENDTAB
  0
ENDSEC
  0
SECTION
  2
BLOCKS
  0
BLOCK
  5
1E
330
1B
100
AcDbEntity
  8
0
100
AcDbBlockBegin
  2
*MODEL_SPACE
 70
     0
 10
0.0
 20
0.0
 30
0.0
  3
*MODEL_SPACE
  1

  0
ENDBLK
  5
22
330
1B
100
AcDbEntity
  8
0
100
AcDbBlockEnd
  0
BLOCK
  5
27
330
26
100
AcDbEntity
 67
     1
  8
0
100
AcDbBlockBegin
  2
*PAPER_SPACE
 70
     0
 10
0.0
 20
0.0
 30
0.0
  3
*PAPER_SPACE
  1

  0
ENDBLK
  5
28
330
26
100
AcDbEntity
 67
     1
  8
0
100
AcDbBlockEnd
  0
ENDSEC
  0
SECTION
  2
ENTITIES
  0
CIRCLE
  5
58
330
1B
100
AcDbEntity
  8
4
100
AcDbCircle
 10
293.4508217412756
 20
338.7407237940503
 30
0.0
 40
7.3500975
  0
LINE
  5
5C
330
1B
100
AcDbEntity
  8
L-CENTER
100
AcDbLine
 10
310.1965631210171
 20
338.7407237940503
 30
0.0
 11
276.7050803615341
 21
338.7407237940503
 31
0.0
  0
LINE
  5
61
330
1B
100
AcDbEntity
  8
4
100
AcDbLine
 10
293.4508217412756
 20
343.9361262940503
 30
0.0
 11
288.9515317412756
 21
341.3385137940503
 31
0.0
  0
LINE
  5
62
330
1B
100
AcDbEntity
  8
4
100
AcDbLine
 10
288.9515317412756
 20
336.1429337940502
 30
0.0
 11
293.4508217412756
 21
333.5453212940503
 31
0.0
  0
LINE
  5
63
330
1B
100
AcDbEntity
  8
4
100
AcDbLine
 10
288.9515317412756
 20
341.3385137940503
 30
0.0
 11
288.9515317412756
 21
336.1429337940502
 31
0.0
  0
LINE
  5
64
330
1B
100
AcDbEntity
  8
4
100
AcDbLine
 10
293.4508217412756
 20
421.7407237940503
 30
0.0
 11
280.4603442412756
 21
414.2407237940503
 31
0.0
  0
LINE
  5
65
330
1B
100
AcDbEntity
  8
4
100
AcDbLine
 10
280.4603442412756
 20
399.2407237940503
 30
0.0
 11
280.4603442412756
 21
414.2407237940503
 31
0.0
  0
LINE
  5
66
330
1B
100
AcDbEntity
  8
4
100
AcDbLine
 10
280.4603442412756
 20
399.2407237940503
 30
0.0
 11
293.4508217412756
 21
391.7407237940503
 31
0.0
  0
LINE
  5
67
330
1B
100
AcDbEntity
  8
4
100
AcDbLine
 10
297.9501117412756
 20
341.3385137940503
 30
0.0
 11
297.9501117412756
 21
336.1429337940502
 31
0.0
  0
LINE
  5
68
330
1B
100
AcDbEntity
  8
4
100
AcDbLine
 10
306.4410567412756
 20
399.2407237940503
 30
0.0
 11
306.4410567412756
 21
414.2407237940503
 31
0.0
  0
ARC
  5
69
330
1B
100
AcDbEntity
  8
4
100
AcDbCircle
 10
290.4508217412756
 20
549.8830587940503
 30
0.0
 40
3.0
100
AcDbArc
 50
270.0
 51
0.0
  0
LINE
  5
6A
330
1B
100
AcDbEntity
  8
4
100
AcDbLine
 10
320.4508217412756
 20
543.8830587940503
 30
0.0
 11
266.4508217412756
 21
543.8830587940503
 31
0.0
  0
LINE
  5
6B
330
1B
100
AcDbEntity
  8
4
100
AcDbLine
 10
269.4508217412756
 20
546.8830587940503
 30
0.0
 11
279.9508217412756
 21
546.8830587940503
 31
0.0
  0
LINE
  5
6C
330
1B
100
AcDbEntity
  8
4
100
AcDbLine
 10
279.9508217412756
 20
549.8830587940503
 30
0.0
 11
279.9508217412756
 21
546.8830587940503
 31
0.0
  0
LINE
  5
6D
330
1B
100
AcDbEntity
  8
4
100
AcDbLine
 10
282.9508217412756
 20
546.8830587940503
 30
0.0
 11
290.4508217412756
 21
546.8830587940503
 31
0.0
  0
LINE
  5
6E
330
1B
100
AcDbEntity
  8
4
100
AcDbLine
 10
272.4508217412756
 20
549.8830587940503
 30
0.0
 11
279.9508217412756
 21
549.8830587940503
 31
0.0
  0
ARC
  5
6F
330
1B
100
AcDbEntity
  8
4
100
AcDbCircle
 10
288.9508217412756
 20
551.3830587940503
 30
0.0
 40
1.5
100
AcDbArc
 50
270.0
 51
0.0
  0
LINE
  5
70
330
1B
100
AcDbEntity
  8
4
100
AcDbLine
 10
293.4508217412756
 20
549.8830587940503
 30
0.0
 11
293.4508217412756
 21
561.8830587940503
 31
0.0
  0
LINE
  5
71
330
1B
100
AcDbEntity
  8
4
100
AcDbLine
 10
290.4508217412756
 20
551.3830587940503
 30
0.0
 11
290.4508217412756
 21
560.3830587940503
 31
0.0
  0
LINE
  5
72
330
1B
100
AcDbEntity
  8
4
100
AcDbLine
 10
285.9508217412756
 20
561.8830587940503
 30
0.0
 11
285.9508217412756
 21
549.8830587940503
 31
0.0
  0
LINE
  5
73
330
1B
100
AcDbEntity
  8
4
100
AcDbLine
 10
285.9508217412756
 20
549.8830587940503
 30
0.0
 11
288.9508217412756
 21
549.8830587940503
 31
0.0
  0
LINE
  5
74
330
1B
100
AcDbEntity
  8
4
100
AcDbLine
 10
285.9508217412756
 20
561.8830587940503
 30
0.0
 11
288.9508217412756
 21
561.8830587940503
 31
0.0
  0
ARC
  5
75
330
1B
100
AcDbEntity
  8
4
100
AcDbCircle
 10
312.2008217412756
 20
552.1330587940503
 30
0.0
 40
5.250035
100
AcDbArc
 50
180.0
 51
61.69977899999819
  0
LINE
  5
76
330
1B
100
AcDbEntity
  8
4
100
AcDbLine
 10
314.6898367412757
 20
556.7556162940502
 30
0.0
 11
317.4508217412756
 21
561.8830587940503
 31
0.0
  0
LINE
  5
77
330
1B
100
AcDbEntity
  8
4
100
AcDbLine
 10
303.9508217412756
 20
554.3830587940503
 30
0.0
 11
303.9508217412756
 21
557.3830587940503
 31
0.0
  0
LINE
  5
78
330
1B
100
AcDbEntity
  8
4
100
AcDbLine
 10
296.4508217412756
 20
554.3830587940503
 30
0.0
 11
296.4508217412756
 21
557.3830587940503
 31
0.0
  0
LINE
  5
79
330
1B
100
AcDbEntity
  8
4
100
AcDbLine
 10
303.9508217412756
 20
554.3830587940503
 30
0.0
 11
296.4508217412756
 21
554.3830587940503
 31
0.0
  0
LINE
  5
7A
330
1B
100
AcDbEntity
  8
4
100
AcDbLine
 10
303.9508217412756
 20
557.3830587940503
 30
0.0
 11
296.4508217412756
 21
557.3830587940503
 31
0.0
  0
LINE
  5
7B
330
1B
100
AcDbEntity
  8
4
100
AcDbLine
 10
314.0435942412757
 20
561.8830587940503
 30
0.0
 11
306.9508217412756
 21
561.8830587940503
 31
0.0
  0
LINE
  5
7C
330
1B
100
AcDbEntity
  8
4
100
AcDbLine
 10
309.9508217412756
 20
552.1330587940503
 30
0.0
 11
306.9508217412756
 21
552.1330587940503
 31
0.0
  0
LINE
  5
7D
330
1B
100
AcDbEntity
  8
4
100
AcDbLine
 10
311.0999917412757
 20
556.4160162940503
 30
0.0
 11
313.7918867412757
 21
553.7241212940503
 31
0.0
  0
ARC
  5
7E
330
1B
100
AcDbEntity
  8
4
100
AcDbCircle
 10
312.2008217412756
 20
552.1330587940503
 30
0.0
 40
2.2500525
100
AcDbArc
 50
180.0
 51
44.99999999999795
  0
LINE
  5
7F
330
1B
100
AcDbEntity
  8
4
100
AcDbLine
 10
311.0999917412757
 20
556.4160162940503
 30
0.0
 11
314.0435942412757
 21
561.8830587940503
 31
0.0
  0
LINE
  5
80
330
1B
100
AcDbEntity
  8
4
100
AcDbLine
 10
463.4508217412756
 20
386.2407237940503
 30
0.0
 11
512.4508217412756
 21
386.2407237940503
 31
0.0
  0
LINE
  5
81
330
1B
100
AcDbEntity
  8
4
100
AcDbLine
 10
463.4508217412756
 20
409.2407237940503
 30
0.0
 11
512.4508217412756
 21
409.2407237940503
 31
0.0
  0
LINE
  5
82
330
1B
100
AcDbEntity
  8
4
100
AcDbLine
 10
513.4508217412756
 20
412.2407237940503
 30
0.0
 11
468.4508217412756
 21
412.2407237940503
 31
0.0
  0
LINE
  5
83
330
1B
100
AcDbEntity
  8
4
100
AcDbLine
 10
463.4508217412756
 20
410.2407237940503
 30
0.0
 11
463.4508217412756
 21
385.2407237940503
 31
0.0
  0
LINE
  5
84
330
1B
100
AcDbEntity
  8
4
100
AcDbLine
 10
453.4508217412756
 20
360.7407237940503
 30
0.0
 11
453.4508217412756
 21
434.7407237940503
 31
0.0
  0
LINE
  5
85
330
1B
100
AcDbEntity
  8
4
100
AcDbLine
 10
454.4508217412756
 20
423.7407237940503
 30
0.0
 11
454.4508217412756
 21
371.7407237940503
 31
0.0
  0
LINE
  5
86
330
1B
100
AcDbEntity
  8
4
100
AcDbLine
 10
446.4508217412756
 20
360.7407237940503
 30
0.0
 11
453.4508217412756
 21
360.7407237940503
 31
0.0
  0
ARC
  5
87
330
1B
100
AcDbEntity
  8
4
100
AcDbCircle
 10
446.4508217412756
 20
357.7407237940503
 30
0.0
 40
3.0
100
AcDbArc
 50
90.0
 51
180.0
  0
LINE
  5
88
330
1B
100
AcDbEntity
  8
4
100
AcDbLine
 10
453.4508217412756
 20
371.7407237940503
 30
0.0
 11
454.4508217412756
 21
371.7407237940503
 31
0.0
  0
LINE
  5
89
330
1B
100
AcDbEntity
  8
4
100
AcDbLine
 10
454.4508217412756
 20
385.2407237940503
 30
0.0
 11
463.4508217412756
 21
385.2407237940503
 31
0.0
  0
LINE
  5
8A
330
1B
100
AcDbEntity
  8
4
100
AcDbLine
 10
414.1102467412757
 20
425.0170912940503
 30
0.0
 11
443.4508217412756
 21
425.0170912940503
 31
0.0
  0
LINE
  5
8B
330
1B
100
AcDbEntity
  8
4
100
AcDbLine
 10
463.4508217412756
 20
410.2407237940503
 30
0.0
 11
454.4508217412756
 21
410.2407237940503
 31
0.0
  0
LINE
  5
8C
330
1B
100
AcDbEntity
  8
4
100
AcDbLine
 10
468.4508217412756
 20
412.2407237940503
 30
0.0
 11
468.4508217412756
 21
409.2407237940503
 31
0.0
  0
LINE
  5
8D
330
1B
100
AcDbEntity
  8
4
100
AcDbLine
 10
446.4508217412756
 20
434.7407237940503
 30
0.0
 11
453.4508217412756
 21
434.7407237940503
 31
0.0
  0
ARC
  5
8E
330
1B
100
AcDbEntity
  8
4
100
AcDbCircle
 10
446.4508217412756
 20
437.7407237940503
 30
0.0
 40
3.0
100
AcDbArc
 50
180.0
 51
270.0
  0
LINE
  5
8F
330
1B
100
AcDbEntity
  8
4
100
AcDbLine
 10
454.4508217412756
 20
423.7407237940503
 30
0.0
 11
453.4508217412756
 21
423.7407237940503
 31
0.0
  0
LINE
  5
90
330
1B
100
AcDbEntity
  8
4
100
AcDbLine
 10
512.4508217412756
 20
386.2407237940503
 30
0.0
 11
513.4508217412756
 21
387.2407237940503
 31
0.0
  0
LINE
  5
91
330
1B
100
AcDbEntity
  8
4
100
AcDbLine
 10
512.4508217412756
 20
409.2407237940503
 30
0.0
 11
512.4508217412756
 21
386.2407237940503
 31
0.0
  0
LINE
  5
92
330
1B
100
AcDbEntity
  8
4
100
AcDbLine
 10
513.4508217412756
 20
412.2407237940503
 30
0.0
 11
513.4508217412756
 21
387.2407237940503
 31
0.0
  0
LINE
  5
93
330
1B
100
AcDbEntity
  8
4
100
AcDbLine
 10
513.4508217412756
 20
408.2407237940503
 30
0.0
 11
512.4508217412756
 21
409.2407237940503
 31
0.0
  0
LINE
  5
94
330
1B
100
AcDbEntity
  8
4
100
AcDbLine
 10
280.9508217412756
 20
602.2407237940503
 30
0.0
 11
305.9508217412756
 21
602.2407237940503
 31
0.0
  0
LINE
  5
95
330
1B
100
AcDbEntity
  8
4
100
AcDbLine
 10
280.9508217412756
 20
604.2407237940503
 30
0.0
 11
305.9508217412756
 21
604.2407237940503
 31
0.0
  0
LINE
  5
96
330
1B
100
AcDbEntity
  8
4
100
AcDbLine
 10
280.9508217412756
 20
608.2407237940503
 30
0.0
 11
305.9508217412756
 21
608.2407237940503
 31
0.0
  0
LINE
  5
97
330
1B
100
AcDbEntity
  8
4
100
AcDbLine
 10
313.4508217412756
 20
600.7407237940503
 30
0.0
 11
273.4508217412756
 21
600.7407237940503
 31
0.0
  0
LINE
  5
98
330
1B
100
AcDbEntity
  8
4
100
AcDbLine
 10
320.4508217412756
 20
567.8830587940503
 30
0.0
 11
266.4508217412756
 21
567.8830587940503
 31
0.0
  0
LINE
  5
99
330
1B
100
AcDbEntity
  8
4
100
AcDbLine
 10
269.4508217412756
 20
564.8830587940503
 30
0.0
 11
272.4508217412756
 21
564.8830587940503
 31
0.0
  0
LINE
  5
9A
330
1B
100
AcDbEntity
  8
4
100
AcDbLine
 10
282.9508217412756
 20
564.8830587940503
 30
0.0
 11
290.4508217412756
 21
564.8830587940503
 31
0.0
  0
LINE
  5
9B
330
1B
100
AcDbEntity
  8
4
100
AcDbLine
 10
287.2008217412756
 20
604.2407237940503
 30
0.0
 11
287.2008217412756
 21
608.2407237940503
 31
0.0
  0
LINE
  5
9C
330
1B
100
AcDbEntity
  8
4
100
AcDbLine
 10
280.9508217412756
 20
602.2407237940503
 30
0.0
 11
280.9508217412756
 21
608.2407237940503
 31
0.0
  0
LINE
  5
9D
330
1B
100
AcDbEntity
  8
4
100
AcDbLine
 10
273.4508217412756
 20
600.7407237940503
 30
0.0
 11
273.4508217412756
 21
599.4548337940503
 31
0.0
  0
LINE
  5
9E
330
1B
100
AcDbEntity
  8
4
100
AcDbLine
 10
281.9508217412756
 20
600.7407237940503
 30
0.0
 11
281.9508217412756
 21
602.2407237940503
 31
0.0
  0
LINE
  5
9F
330
1B
100
AcDbEntity
  8
4
100
AcDbLine
 10
317.4508217412756
 20
564.8830587940503
 30
0.0
 11
306.9508217412756
 21
564.8830587940503
 31
0.0
  0
LINE
  5
A0
330
1B
100
AcDbEntity
  8
4
100
AcDbLine
 10
305.9508217412756
 20
608.2407237940503
 30
0.0
 11
305.9508217412756
 21
602.2407237940503
 31
0.0
  0
LINE
  5
A1
330
1B
100
AcDbEntity
  8
4
100
AcDbLine
 10
299.7008217412756
 20
604.2407237940503
 30
0.0
 11
299.7008217412756
 21
608.2407237940503
 31
0.0
  0
LINE
  5
A2
330
1B
100
AcDbEntity
  8
4
100
AcDbLine
 10
313.4508217412756
 20
599.4548337940503
 30
0.0
 11
313.4508217412756
 21
600.7407237940503
 31
0.0
  0
LINE
  5
A3
330
1B
100
AcDbEntity
  8
4
100
AcDbLine
 10
304.9508217412756
 20
600.7407237940503
 30
0.0
 11
304.9508217412756
 21
602.2407237940503
 31
0.0
  0
ARC
  5
A4
330
1B
100
AcDbEntity
  8
4
100
AcDbCircle
 10
429.0926667412757
 20
581.3757337940502
 30
0.0
 40
4.99994
100
AcDbArc
 50
9.411730000000011
 51
78.74548300000203
  0
LINE
  5
A5
330
1B
100
AcDbEntity
  8
L-CENTER
100
AcDbLine
 10
833.3976840579933
 20
307.7407237940503
 30
0.0
 11
833.3976840579933
 21
347.7407237940503
 31
0.0
  0
LINE
  5
A6
330
1B
100
AcDbEntity
  8
4
100
AcDbLine
 10
848.3976840579933
 20
337.7407237940503
 30
0.0
 11
848.3976840579933
 21
317.7407237940503
 31
0.0
  0
LINE
  5
A7
330
1B
100
AcDbEntity
  8
L-CENTER
100
AcDbLine
 10
693.3976840579933
 20
307.7407237940503
 30
0.0
 11
693.3976840579933
 21
347.7407237940503
 31
0.0
  0
LINE
  5
A8
330
1B
100
AcDbEntity
  8
4
100
AcDbLine
 10
678.3976840579933
 20
317.7407237940503
 30
0.0
 11
678.3976840579933
 21
337.7407237940503
 31
0.0
  0
LINE
  5
A9
330
1B
100
AcDbEntity
  8
L-CENTER
100
AcDbLine
 10
763.3976840579933
 20
613.6178437940503
 30
0.0
 11
763.3976840579933
 21
310.3900687940503
 31
0.0
  0
TEXT
  5
AA
330
1B
100
AcDbEntity
  8
3
100
AcDbText
 10
865.5782909900229
 20
290.2103910946394
 30
0.0
 40
7.437813850723454
  1
LD3-02
  7
KANJI
100
AcDbText
  0
LINE
  5
AE
330
1B
100
AcDbEntity
  8
4
100
AcDbLine
 10
848.3976840579933
 20
317.7407237940503
 30
0.0
 11
678.3976840579933
 21
317.7407237940503
 31
0.0
  0
LINE
  5
AF
330
1B
100
AcDbEntity
  8
4
100
AcDbLine
 10
680.8976840579933
 20
495.7407237940503
 30
0.0
 11
611.8976840579933
 21
495.7407237940503
 31
0.0
  0
LINE
  5
B0
330
1B
100
AcDbEntity
  8
4
100
AcDbLine
 10
610.8976840579933
 20
499.2407237940503
 30
0.0
 11
675.8976840579933
 21
499.2407237940503
 31
0.0
  0
LINE
  5
B1
330
1B
100
AcDbEntity
  8
4
100
AcDbLine
 10
680.8976840579933
 20
459.7407237940503
 30
0.0
 11
611.8976840579933
 21
459.7407237940503
 31
0.0
  0
LINE
  5
B2
330
1B
100
AcDbEntity
  8
L-CENTER
100
AcDbLine
 10
606.3726440579933
 20
477.7407237940503
 30
0.0
 11
839.0312642741881
 21
477.7407237940503
 31
0.0
  0
ARC
  5
B3
330
1B
100
AcDbEntity
  8
4
100
AcDbCircle
 10
-373.9502159420065
 20
467.7407237940503
 30
0.0
 40
1200.0000325
100
AcDbArc
 50
0.3103536482792206
 51
4.656735143476703
  0
LINE
  5
B4
330
1B
100
AcDbEntity
  8
4
100
AcDbLine
 10
720.8976840579933
 20
425.0170912940503
 30
0.0
 11
720.8976840579933
 21
599.7407237940503
 31
0.0
  0
ARC
  5
B5
330
1B
100
AcDbEntity
  8
4
100
AcDbCircle
 10
1913.397684057993
 20
467.7407237940503
 30
0.0
 40
1212.49999
100
AcDbArc
 50
174.795037
 51
185.205275
  0
LINE
  5
B6
330
1B
100
AcDbEntity
  8
4
100
AcDbLine
 10
705.8976840579933
 20
357.7407237940503
 30
0.0
 11
705.8976840579933
 21
577.7407237940503
 31
0.0
  0
LINE
  5
B7
330
1B
100
AcDbEntity
  8
4
100
AcDbLine
 10
707.8976840579933
 20
339.7407237940503
 30
0.0
 11
707.8976840579933
 21
595.7407237940503
 31
0.0
  0
LINE
  5
B8
330
1B
100
AcDbEntity
  8
4
100
AcDbLine
 10
805.8976840579933
 20
337.7407237940503
 30
0.0
 11
805.8976840579933
 21
599.7407237940503
 31
0.0
  0
LINE
  5
B9
330
1B
100
AcDbEntity
  8
4
100
AcDbLine
 10
807.8976840579933
 20
339.7407237940503
 30
0.0
 11
807.8976840579933
 21
595.7407237940503
 31
0.0
  0
LINE
  5
BA
330
1B
100
AcDbEntity
  8
4
100
AcDbLine
 10
818.9975390579932
 20
339.7407237940503
 30
0.0
 11
818.9975390579932
 21
595.7407237940503
 31
0.0
  0
LINE
  5
BB
330
1B
100
AcDbEntity
  8
4
100
AcDbLine
 10
820.9975390579932
 20
371.0676287940503
 30
0.0
 11
820.9975390579937
 21
564.4138187940503
 31
0.0
  0
LINE
  5
BC
330
1B
100
AcDbEntity
  8
L-CENTER
100
AcDbLine
 10
834.206973879732
 20
467.7407237940503
 30
0.0
 11
688.1408490579931
 21
467.7407237940503
 31
0.0
  0
LINE
  5
BD
330
1B
100
AcDbEntity
  8
L-CENTER
100
AcDbLine
 10
828.7990515579934
 20
487.7407237940503
 30
0.0
 11
689.4689740579931
 21
487.7407237940503
 31
0.0
  0
LINE
  5
BE
330
1B
100
AcDbEntity
  8
L-CENTER
100
AcDbLine
 10
685.7105115579932
 20
406.7407237940503
 30
0.0
 11
717.3312368394506
 21
406.7407237940503
 31
0.0
  0
LINE
  5
BF
330
1B
100
AcDbEntity
  8
4
100
AcDbLine
 10
698.5439240579933
 20
390.7407237940503
 30
0.0
 11
703.3451940579932
 21
390.7407237940503
 31
0.0
  0
LINE
  5
C0
330
1B
100
AcDbEntity
  8
L-CENTER
100
AcDbLine
 10
787.7455840579935
 20
397.7407237940503
 30
0.0
 11
704.0497840579935
 21
397.7407237940503
 31
0.0
  0
LINE
  5
C1
330
1B
100
AcDbEntity
  8
4
100
AcDbLine
 10
848.3976840579933
 20
337.7407237940503
 30
0.0
 11
678.3976840579933
 21
337.7407237940503
 31
0.0
  0
LINE
  5
C2
330
1B
100
AcDbEntity
  8
4
100
AcDbLine
 10
693.8976840579933
 20
437.7407237940503
 30
0.0
 11
693.8976840579933
 21
518.7407237940503
 31
0.0
  0
LINE
  5
C3
330
1B
100
AcDbEntity
  8
4
100
AcDbLine
 10
694.8976840579933
 20
428.7407237940503
 30
0.0
 11
694.8976840579933
 21
526.7407237940503
 31
0.0
  0
LINE
  5
C4
330
1B
100
AcDbEntity
  8
4
100
AcDbLine
 10
698.5439240579933
 20
390.7407237940503
 30
0.0
 11
698.5439240579933
 21
422.7407237940503
 31
0.0
  0
LINE
  5
C5
330
1B
100
AcDbEntity
  8
4
100
AcDbLine
 10
698.5439240579933
 20
392.7407237940503
 30
0.0
 11
698.5439240579933
 21
420.7407237940503
 31
0.0
  0
LINE
  5
C6
330
1B
100
AcDbEntity
  8
4
100
AcDbLine
 10
697.0439240579933
 20
391.7407237940503
 30
0.0
 11
697.0439240579933
 21
421.7407237940503
 31
0.0
  0
LINE
  5
C7
330
1B
100
AcDbEntity
  8
4
100
AcDbLine
 10
695.0439240579933
 20
391.7407237940503
 30
0.0
 11
695.0439240579933
 21
421.7407237940503
 31
0.0
  0
LINE
  5
C8
330
1B
100
AcDbEntity
  8
4
100
AcDbLine
 10
690.0439240579933
 20
391.7407237940503
 30
0.0
 11
690.0439240579933
 21
421.7407237940503
 31
0.0
  0
LINE
  5
C9
330
1B
100
AcDbEntity
  8
4
100
AcDbLine
 10
695.0439240579933
 20
399.2407237940503
 30
0.0
 11
690.0439240579933
 21
399.2407237940503
 31
0.0
  0
LINE
  5
CA
330
1B
100
AcDbEntity
  8
4
100
AcDbLine
 10
697.0439240579933
 20
391.7407237940503
 30
0.0
 11
690.0439240579933
 21
391.7407237940503
 31
0.0
  0
LINE
  5
CB
330
1B
100
AcDbEntity
  8
4
100
AcDbLine
 10
697.0439240579933
 20
392.7407237940503
 30
0.0
 11
698.5439240579933
 21
392.7407237940503
 31
0.0
  0
LINE
  5
CC
330
1B
100
AcDbEntity
  8
4
100
AcDbLine
 10
695.0439240579933
 20
414.2407237940503
 30
0.0
 11
690.0439240579933
 21
414.2407237940503
 31
0.0
  0
LINE
  5
CD
330
1B
100
AcDbEntity
  8
4
100
AcDbLine
 10
690.0439240579933
 20
421.7407237940503
 30
0.0
 11
697.0439240579933
 21
421.7407237940503
 31
0.0
  0
LINE
  5
CE
330
1B
100
AcDbEntity
  8
4
100
AcDbLine
 10
701.7331340579933
 20
422.7407237940503
 30
0.0
 11
698.5439240579933
 21
422.7407237940503
 31
0.0
  0
LINE
  5
CF
330
1B
100
AcDbEntity
  8
4
100
AcDbLine
 10
701.5251265579934
 20
428.7407237940503
 30
0.0
 11
694.8976840579933
 21
428.7407237940503
 31
0.0
  0
LINE
  5
D0
330
1B
100
AcDbEntity
  8
4
100
AcDbLine
 10
697.0439240579933
 20
420.7407237940503
 30
0.0
 11
698.5439240579933
 21
420.7407237940503
 31
0.0
  0
LINE
  5
D1
330
1B
100
AcDbEntity
  8
4
100
AcDbLine
 10
694.8976840579933
 20
437.7407237940503
 30
0.0
 11
693.8976840579933
 21
437.7407237940503
 31
0.0
  0
LINE
  5
D2
330
1B
100
AcDbEntity
  8
4
100
AcDbLine
 10
694.8976840579933
 20
456.7407237940503
 30
0.0
 11
693.8976840579933
 21
456.7407237940503
 31
0.0
  0
LINE
  5
D3
330
1B
100
AcDbEntity
  8
4
100
AcDbLine
 10
701.0466090579932
 20
448.7407237940503
 30
0.0
 11
694.8976840579933
 21
448.7407237940503
 31
0.0
  0
LINE
  5
D4
330
1B
100
AcDbEntity
  8
4
100
AcDbLine
 10
693.8976840579933
 20
517.7407237940504
 30
0.0
 11
694.8976840579933
 21
517.7407237940504
 31
0.0
  0
LINE
  5
D5
330
1B
100
AcDbEntity
  8
4
100
AcDbLine
 10
693.8976840579933
 20
518.7407237940503
 30
0.0
 11
694.8976840579933
 21
518.7407237940503
 31
0.0
  0
LINE
  5
D6
330
1B
100
AcDbEntity
  8
4
100
AcDbLine
 10
702.3339640579932
 20
526.7407237940503
 30
0.0
 11
694.8976840579933
 21
526.7407237940503
 31
0.0
  0
LINE
  5
D7
330
1B
100
AcDbEntity
  8
4
100
AcDbLine
 10
831.9975390579932
 20
526.7407237940503
 30
0.0
 11
831.9975390579932
 21
428.7407237940503
 31
0.0
  0
LINE
  5
D8
330
1B
100
AcDbEntity
  8
4
100
AcDbLine
 10
832.9975390579932
 20
518.7407237940503
 30
0.0
 11
832.9975390579932
 21
437.7407237940503
 31
0.0
  0
ARC
  5
D9
330
1B
100
AcDbEntity
  8
4
100
AcDbCircle
 10
-373.9502159420065
 20
467.7407237940503
 30
0.0
 40
1199.9999875
100
AcDbArc
 50
355.3432646815102
 51
359.6896463400817
  0
ARC
  5
DA
330
1B
100
AcDbEntity
  8
4
100
AcDbCircle
 10
745.8976840579933
 20
397.7407237940503
 30
0.0
 40
11.4999
100
AcDbArc
 50
107.7190909999996
 51
72.28090899999813
  0
LINE
  5
DB
330
1B
100
AcDbEntity
  8
L-CENTER
100
AcDbLine
 10
745.8976840579933
 20
355.8928237940503
 30
0.0
 11
745.8976840579933
 21
439.5886237940502
 31
0.0
  0
CIRCLE
  5
DC
330
1B
100
AcDbEntity
  8
4
100
AcDbCircle
 10
745.8976840579933
 20
397.7407237940503
 30
0.0
 40
37.0
  0
CIRCLE
  5
DD
330
1B
100
AcDbEntity
  8
4
100
AcDbCircle
 10
745.8976840579933
 20
397.7407237940503
 30
0.0
 40
26.0
  0
LINE
  5
DE
330
1B
100
AcDbEntity
  8
4
100
AcDbLine
 10
720.8976840579933
 20
337.7407237940503
 30
0.0
 11
720.8976840579933
 21
370.4643562940503
 31
0.0
  0
LINE
  5
DF
330
1B
100
AcDbEntity
  8
L-CENTER
100
AcDbLine
 10
723.3344515579936
 20
338.7407237940503
 30
0.0
 11
705.1843040579931
 21
338.7407237940503
 31
0.0
  0
LINE
  5
E0
330
1B
100
AcDbEntity
  8
4
100
AcDbLine
 10
720.8976840579933
 20
339.7407237940503
 30
0.0
 11
707.8976840579933
 21
339.7407237940503
 31
0.0
  0
LINE
  5
E1
330
1B
100
AcDbEntity
  8
4
100
AcDbLine
 10
707.8976840579933
 20
339.7407237940503
 30
0.0
 11
707.8976840579933
 21
337.7407237940503
 31
0.0
  0
LINE
  5
E2
330
1B
100
AcDbEntity
  8
4
100
AcDbLine
 10
717.8976840579933
 20
339.7407237940503
 30
0.0
 11
717.8976840579933
 21
337.7407237940503
 31
0.0
  0
LINE
  5
E3
330
1B
100
AcDbEntity
  8
4
100
AcDbLine
 10
707.8976840579933
 20
357.7407237940503
 30
0.0
 11
705.8976840579933
 21
357.7407237940503
 31
0.0
  0
LINE
  5
E4
330
1B
100
AcDbEntity
  8
4
100
AcDbLine
 10
749.3976840579933
 20
412.2407237940503
 30
0.0
 11
742.3976840579933
 21
412.2407237940503
 31
0.0
  0
LINE
  5
E5
330
1B
100
AcDbEntity
  8
4
100
AcDbLine
 10
749.3976840579933
 20
405.2407237940503
 30
0.0
 11
742.3976840579933
 21
405.2407237940503
 31
0.0
  0
LINE
  5
E6
330
1B
100
AcDbEntity
  8
4
100
AcDbLine
 10
742.3976840579933
 20
412.2407237940503
 30
0.0
 11
742.3976840579933
 21
405.2407237940503
 31
0.0
  0
LINE
  5
E7
330
1B
100
AcDbEntity
  8
4
100
AcDbLine
 10
749.3976840579933
 20
405.2407237940503
 30
0.0
 11
749.3976840579933
 21
412.2407237940503
 31
0.0
  0
LINE
  5
E8
330
1B
100
AcDbEntity
  8
4
100
AcDbLine
 10
818.9975390579932
 20
339.7407237940503
 30
0.0
 11
805.8976840579933
 21
339.7407237940503
 31
0.0
  0
LINE
  5
E9
330
1B
100
AcDbEntity
  8
4
100
AcDbLine
 10
831.9975390579932
 20
428.7407237940503
 30
0.0
 11
825.4157515579934
 21
428.7407237940503
 31
0.0
  0
LINE
  5
EA
330
1B
100
AcDbEntity
  8
4
100
AcDbLine
 10
831.9975390579932
 20
437.7407237940503
 30
0.0
 11
832.9975390579932
 21
437.7407237940503
 31
0.0
  0
LINE
  5
EB
330
1B
100
AcDbEntity
  8
4
100
AcDbLine
 10
680.8976840579933
 20
497.7407237940503
 30
0.0
 11
693.7978290579933
 21
497.7407237940503
 31
0.0
  0
LINE
  5
EC
330
1B
100
AcDbEntity
  8
4
100
AcDbLine
 10
693.7978290579933
 20
457.7407237940503
 30
0.0
 11
680.8976840579933
 21
457.7407237940503
 31
0.0
  0
LINE
  5
ED
330
1B
100
AcDbEntity
  8
4
100
AcDbLine
 10
825.8993940579933
 20
448.7407237940503
 30
0.0
 11
831.9975390579932
 21
448.7407237940503
 31
0.0
  0
LINE
  5
EE
330
1B
100
AcDbEntity
  8
4
100
AcDbLine
 10
831.9975390579932
 20
456.7407237940503
 30
0.0
 11
832.9975390579932
 21
456.7407237940503
 31
0.0
  0
LINE
  5
EF
330
1B
100
AcDbEntity
  8
4
100
AcDbLine
 10
680.8976840579933
 20
497.7407237940503
 30
0.0
 11
680.8976840579933
 21
457.7407237940503
 31
0.0
  0
LINE
  5
F0
330
1B
100
AcDbEntity
  8
4
100
AcDbLine
 10
675.8976840579933
 20
499.2407237940503
 30
0.0
 11
675.8976840579933
 21
495.7407237940503
 31
0.0
  0
LINE
  5
F1
330
1B
100
AcDbEntity
  8
4
100
AcDbLine
 10
832.9975390579932
 20
517.7407237940503
 30
0.0
 11
831.9975390579932
 21
517.7407237940503
 31
0.0
  0
LINE
  5
F2
330
1B
100
AcDbEntity
  8
4
100
AcDbLine
 10
824.5983690579935
 20
526.7407237940503
 30
0.0
 11
831.9975390579932
 21
526.7407237940503
 31
0.0
  0
LINE
  5
F3
330
1B
100
AcDbEntity
  8
4
100
AcDbLine
 10
832.9975390579932
 20
518.7407237940503
 30
0.0
 11
831.9975390579932
 21
518.7407237940503
 31
0.0
  0
LINE
  5
F4
330
1B
100
AcDbEntity
  8
4
100
AcDbLine
 10
720.8976840579933
 20
599.7407237940503
 30
0.0
 11
805.8976840579933
 21
599.7407237940503
 31
0.0
  0
LINE
  5
F5
330
1B
100
AcDbEntity
  8
4
100
AcDbLine
 10
783.3976840579933
 20
600.7407237940503
 30
0.0
 11
738.3976840579933
 21
600.7407237940503
 31
0.0
  0
LINE
  5
F6
330
1B
100
AcDbEntity
  8
4
100
AcDbLine
 10
705.8976840579933
 20
577.7407237940503
 30
0.0
 11
707.8976840579933
 21
577.7407237940503
 31
0.0
  0
LINE
  5
F7
330
1B
100
AcDbEntity
  8
4
100
AcDbLine
 10
707.8976840579933
 20
595.7407237940503
 30
0.0
 11
720.8976840579933
 21
595.7407237940503
 31
0.0
  0
LINE
  5
F8
330
1B
100
AcDbEntity
  8
4
100
AcDbLine
 10
738.3976840579933
 20
600.7407237940503
 30
0.0
 11
738.3976840579933
 21
599.7407237940503
 31
0.0
  0
LINE
  5
F9
330
1B
100
AcDbEntity
  8
4
100
AcDbLine
 10
773.6200965579935
 20
608.2407237940503
 30
0.0
 11
753.1752715579935
 21
608.2407237940503
 31
0.0
  0
LINE
  5
FA
330
1B
100
AcDbEntity
  8
4
100
AcDbLine
 10
775.8976840579933
 20
602.2407237940503
 30
0.0
 11
750.8976840579933
 21
602.2407237940503
 31
0.0
  0
LINE
  5
FB
330
1B
100
AcDbEntity
  8
4
100
AcDbLine
 10
775.8976840579933
 20
604.2407237940503
 30
0.0
 11
750.8976840579933
 21
604.2407237940503
 31
0.0
  0
LINE
  5
FC
330
1B
100
AcDbEntity
  8
4
100
AcDbLine
 10
753.1752715579935
 20
604.2407237940503
 30
0.0
 11
753.1752715579935
 21
608.2407237940503
 31
0.0
  0
LINE
  5
FD
330
1B
100
AcDbEntity
  8
4
100
AcDbLine
 10
750.8976840579933
 20
604.2407237940503
 30
0.0
 11
750.8976840579933
 21
602.2407237940503
 31
0.0
  0
LINE
  5
FE
330
1B
100
AcDbEntity
  8
4
100
AcDbLine
 10
751.8976840579933
 20
600.7407237940503
 30
0.0
 11
751.8976840579933
 21
602.2407237940503
 31
0.0
  0
LINE
  5
FF
330
1B
100
AcDbEntity
  8
4
100
AcDbLine
 10
773.6200965579935
 20
604.2407237940503
 30
0.0
 11
773.6200965579935
 21
608.2407237940503
 31
0.0
  0
LINE
  5
100
330
1B
100
AcDbEntity
  8
4
100
AcDbLine
 10
775.8976840579933
 20
602.2407237940503
 30
0.0
 11
775.8976840579933
 21
604.2407237940503
 31
0.0
  0
LINE
  5
101
330
1B
100
AcDbEntity
  8
4
100
AcDbLine
 10
774.8976840579933
 20
600.7407237940503
 30
0.0
 11
774.8976840579933
 21
602.2407237940503
 31
0.0
  0
LINE
  5
102
330
1B
100
AcDbEntity
  8
4
100
AcDbLine
 10
783.3976840579933
 20
599.7407237940503
 30
0.0
 11
783.3976840579933
 21
600.7407237940503
 31
0.0
  0
LINE
  5
103
330
1B
100
AcDbEntity
  8
L-CENTER
100
AcDbLine
 10
831.6799715579934
 20
571.6638187940503
 30
0.0
 11
790.9539859581394
 21
571.6638187940503
 31
0.0
  0
LINE
  5
104
330
1B
100
AcDbEntity
  8
4
100
AcDbLine
 10
818.9975390579932
 20
595.7407237940503
 30
0.0
 11
805.8976840579933
 21
595.7407237940503
 31
0.0
  0
LINE
  5
105
330
1B
100
AcDbEntity
  8
4
100
AcDbLine
 10
611.8976840579933
 20
495.7407237940503
 30
0.0
 11
611.8976840579933
 21
459.7407237940503
 31
0.0
  0
LINE
  5
106
330
1B
100
AcDbEntity
  8
4
100
AcDbLine
 10
610.8976840579933
 20
499.2407237940503
 30
0.0
 11
610.8976840579933
 21
460.7407237940503
 31
0.0
  0
LINE
  5
107
330
1B
100
AcDbEntity
  8
4
100
AcDbLine
 10
611.8976840579933
 20
459.7407237940503
 30
0.0
 11
610.8976840579933
 21
460.7407237940503
 31
0.0
  0
LINE
  5
108
330
1B
100
AcDbEntity
  8
4
100
AcDbLine
 10
610.8976840579933
 20
494.7407237940503
 30
0.0
 11
611.8976840579933
 21
495.7407237940503
 31
0.0
  0
LINE
  5
109
330
1B
100
AcDbEntity
  8
4
100
AcDbLine
 10
205.5302745226616
 20
944.6090628717595
 30
0.0
 11
194.2614612193981
 21
968.5552911411941
 31
0.0
  0
ARC
  5
10A
330
1B
100
AcDbEntity
  8
4
100
AcDbCircle
 10
293.4508217412792
 20
2022.725597632392
 30
0.0
 40
1201.5
100
AcDbArc
 50
264.7470881691037
 51
275.2529118308959
  0
LINE
  5
10B
330
1B
100
AcDbEntity
  8
4
100
AcDbLine
 10
204.8480403567639
 20
824.496989590117
 30
0.0
 11
194.2614612193981
 21
802.0005089232147
 31
0.0
  0
LINE
  5
10C
330
1B
100
AcDbEntity
  8
4
100
AcDbLine
 10
165.4508217412756
 20
929.7779000322046
 30
0.0
 11
421.4508217412758
 21
929.7779000322045
 31
0.0
  0
LINE
  5
10D
330
1B
100
AcDbEntity
  8
L-CENTER
100
AcDbLine
 10
137.4508217412756
 20
885.2779000322046
 30
0.0
 11
449.4508217412756
 21
885.2779000322043
 31
0.0
  0
LINE
  5
10E
330
1B
100
AcDbEntity
  8
L-CENTER
100
AcDbLine
 10
127.4508217412756
 20
867.7779000322046
 30
0.0
 11
524.1084616205819
 21
867.7779000322043
 31
0.0
  0
LINE
  5
10F
330
1B
100
AcDbEntity
  8
L-CENTER
100
AcDbLine
 10
168.4508217412756
 20
970.2779000322058
 30
0.0
 11
168.4508217412756
 21
940.2779000322045
 31
0.0
  0
LINE
  5
110
330
1B
100
AcDbEntity
  8
4
100
AcDbLine
 10
143.4508217412756
 20
844.7779000322045
 30
0.0
 11
143.4508217412756
 21
967.2779000322046
 31
0.0
  0
ARC
  5
111
330
1B
100
AcDbEntity
  8
4
100
AcDbCircle
 10
181.4508217412756
 20
827.7779000322046
 30
0.0
 40
2.0
100
AcDbArc
 50
0.0
 51
90.0
  0
ARC
  5
112
330
1B
100
AcDbEntity
  8
4
100
AcDbCircle
 10
167.4508217412756
 20
831.7779000322047
 30
0.0
 40
2.0
100
AcDbArc
 50
180.0
 51
270.0
  0
LINE
  5
113
330
1B
100
AcDbEntity
  8
L-CENTER
100
AcDbLine
 10
168.4508217412756
 20
800.2779000322031
 30
0.0
 11
168.4508217412756
 21
830.2779000322045
 31
0.0
  0
LINE
  5
114
330
1B
100
AcDbEntity
  8
4
100
AcDbLine
 10
143.4508217412756
 20
803.2779000322046
 30
0.0
 11
143.4508217412756
 21
830.7779000322042
 31
0.0
  0
LINE
  5
115
330
1B
100
AcDbEntity
  8
4
100
AcDbLine
 10
191.5470051127952
 20
800.2779000322043
 30
0.0
 11
146.4508217412756
 21
800.2779000322046
 31
0.0
  0
LINE
  5
116
330
1B
100
AcDbEntity
  8
L-CENTER
100
AcDbLine
 10
183.4508217412756
 20
815.2779000322045
 30
0.0
 11
153.4508217412756
 21
815.2779000322045
 31
0.0
  0
ARC
  5
117
330
1B
100
AcDbEntity
  8
4
100
AcDbCircle
 10
146.4508217412756
 20
803.2779000322046
 30
0.0
 40
3.0
100
AcDbArc
 50
180.0
 51
270.0
  0
ARC
  5
118
330
1B
100
AcDbEntity
  8
4
100
AcDbCircle
 10
191.5470051127952
 20
803.2779000322043
 30
0.0
 40
3.0
100
AcDbArc
 50
270.0
 51
334.7988763545256
  0
CIRCLE
  5
119
330
1B
100
AcDbEntity
  8
4
100
AcDbCircle
 10
168.4508217412756
 20
815.2779000322045
 30
0.0
 40
7.0
  0
LINE
  5
11A
330
1B
100
AcDbEntity
  8
4
100
AcDbLine
 10
183.4508217412756
 20
826.2715659203502
 30
0.0
 11
183.4508217412756
 21
827.7779000322046
 31
0.0
  0
LINE
  5
11B
330
1B
100
AcDbEntity
  8
4
100
AcDbLine
 10
133.4508217412756
 20
830.7779000322042
 30
0.0
 11
133.4508217412758
 21
904.7779000322042
 31
0.0
  0
LINE
  5
11C
330
1B
100
AcDbEntity
  8
4
100
AcDbLine
 10
145.4508217412756
 20
842.7779000322045
 30
0.0
 11
441.4508217412756
 21
842.7779000322064
 31
0.0
  0
LINE
  5
11D
330
1B
100
AcDbEntity
  8
4
100
AcDbLine
 10
165.7187709337106
 20
830.7779000322042
 30
0.0
 11
133.4508217412756
 21
830.7779000322042
 31
0.0
  0
ARC
  5
11E
330
1B
100
AcDbEntity
  8
4
100
AcDbCircle
 10
145.4508217412756
 20
844.7779000322045
 30
0.0
 40
2.0
100
AcDbArc
 50
180.0
 51
270.0
  0
LINE
  5
11F
330
1B
100
AcDbEntity
  8
4
100
AcDbLine
 10
167.4508217412756
 20
829.7779000322047
 30
0.0
 11
419.4508217412756
 21
829.7779000322026
 31
0.0
  0
LINE
  5
120
330
1B
100
AcDbEntity
  8
4
100
AcDbLine
 10
165.4508217412756
 20
840.7779000322046
 30
0.0
 11
165.4508217412756
 21
831.7779000322047
 31
0.0
  0
ARC
  5
121
330
1B
100
AcDbEntity
  8
4
100
AcDbCircle
 10
163.4508217412756
 20
840.7779000322046
 30
0.0
 40
2.0
100
AcDbArc
 50
0.0
 51
90.0
  0
LINE
  5
122
330
1B
100
AcDbEntity
  8
4
100
AcDbLine
 10
145.4508217412756
 20
927.7779000322046
 30
0.0
 11
441.4508217412756
 21
927.7779000322045
 31
0.0
  0
ARC
  5
123
330
1B
100
AcDbEntity
  8
4
100
AcDbCircle
 10
140.4508217412756
 20
907.7779000322042
 30
0.0
 40
3.0
100
AcDbArc
 50
270.0
 51
0.0
  0
LINE
  5
124
330
1B
100
AcDbEntity
  8
4
100
AcDbLine
 10
140.4508217412756
 20
904.7779000322042
 30
0.0
 11
133.4508217412758
 21
904.7779000322042
 31
0.0
  0
ARC
  5
125
330
1B
100
AcDbEntity
  8
4
100
AcDbCircle
 10
145.4508217412756
 20
925.7779000322046
 30
0.0
 40
2.0
100
AcDbArc
 50
90.0
 51
180.0
  0
LINE
  5
126
330
1B
100
AcDbEntity
  8
4
100
AcDbLine
 10
165.4508217412756
 20
927.7779000322045
 30
0.0
 11
165.4508217412756
 21
929.7779000322046
 31
0.0
  0
LINE
  5
127
330
1B
100
AcDbEntity
  8
L-CENTER
100
AcDbLine
 10
183.4508217412756
 20
955.2779000322045
 30
0.0
 11
153.4508217412756
 21
955.2779000322045
 31
0.0
  0
LINE
  5
128
330
1B
100
AcDbEntity
  8
4
100
AcDbLine
 10
191.5470051127952
 20
970.2779000322045
 30
0.0
 11
146.4508217412756
 21
970.2779000322046
 31
0.0
  0
ARC
  5
129
330
1B
100
AcDbEntity
  8
4
100
AcDbCircle
 10
146.4508217412756
 20
967.2779000322046
 30
0.0
 40
3.0
100
AcDbArc
 50
90.0
 51
180.0
  0
ARC
  5
12A
330
1B
100
AcDbEntity
  8
4
100
AcDbCircle
 10
168.4508217412756
 20
955.2779000322045
 30
0.0
 40
7.0
100
AcDbArc
 50
319.9947991151383
 51
257.6263748838114
  0
ARC
  5
12B
330
1B
100
AcDbEntity
  8
4
100
AcDbCircle
 10
191.5470051127952
 20
967.2779000322045
 30
0.0
 40
3.0
100
AcDbArc
 50
25.20112364547438
 51
90.0
  0
LINE
  5
12C
330
1B
100
AcDbEntity
  8
L-CENTER
100
AcDbLine
 10
418.4508217412758
 20
970.2779000322058
 30
0.0
 11
418.4508217412761
 21
940.2779000322045
 31
0.0
  0
LINE
  5
12D
330
1B
100
AcDbEntity
  8
4
100
AcDbLine
 10
386.1567040942168
 20
954.7779000322046
 30
0.0
 11
392.6401822631531
 21
968.5552911411941
 31
0.0
  0
LINE
  5
12E
330
1B
100
AcDbEntity
  8
4
100
AcDbLine
 10
443.4508217412756
 20
844.7779000322045
 30
0.0
 11
443.4508217412756
 21
967.2779000322045
 31
0.0
  0
LINE
  5
12F
330
1B
100
AcDbEntity
  8
4
100
AcDbLine
 10
320.4508217412758
 20
816.7779000322046
 30
0.0
 11
398.4508217412758
 21
816.7779000322046
 31
0.0
  0
LINE
  5
130
330
1B
100
AcDbEntity
  8
L-CENTER
100
AcDbLine
 10
293.4508217412756
 20
809.0205410474049
 30
0.0
 11
293.4508217412756
 21
960.7151025170648
 31
0.0
  0
LINE
  5
131
330
1B
100
AcDbEntity
  8
4
100
AcDbLine
 10
215.9786036028199
 20
816.7779000322045
 30
0.0
 11
313.9786036028199
 21
816.7779000322046
 31
0.0
  0
ARC
  5
132
330
1B
100
AcDbEntity
  8
4
100
AcDbCircle
 10
213.9786036028199
 20
821.8524084304042
 30
0.0
 40
2.0
100
AcDbArc
 50
0.0
 51
86.21376118415954
  0
LINE
  5
133
330
1B
100
AcDbEntity
  8
4
100
AcDbLine
 10
215.9786036028199
 20
816.7779000322046
 30
0.0
 11
215.9786036028199
 21
821.8524084304042
 31
0.0
  0
LINE
  5
134
330
1B
100
AcDbEntity
  8
4
100
AcDbLine
 10
224.9786036028199
 20
815.7779000322045
 30
0.0
 11
224.9786036028199
 21
816.7779000322045
 31
0.0
  0
LINE
  5
135
330
1B
100
AcDbEntity
  8
4
100
AcDbLine
 10
304.9786036028199
 20
815.7779000322045
 30
0.0
 11
304.9786036028199
 21
816.7779000322046
 31
0.0
  0
ARC
  5
136
330
1B
100
AcDbEntity
  8
4
100
AcDbCircle
 10
318.4508217412758
 20
819.4852849766032
 30
0.0
 40
2.0
100
AcDbArc
 50
0.0
 51
91.19027629627125
  0
ARC
  5
137
330
1B
100
AcDbEntity
  8
4
100
AcDbCircle
 10
293.4508217412792
 20
2022.725597632392
 30
0.0
 40
1201.5
100
AcDbArc
 50
271.0725568845769
 51
271.1902762962519
  0
LINE
  5
138
330
1B
100
AcDbEntity
  8
4
100
AcDbLine
 10
313.9786036028199
 20
816.7779000322046
 30
0.0
 11
313.9786036028199
 21
819.43645987522
 31
0.0
  0
LINE
  5
139
330
1B
100
AcDbEntity
  8
4
100
AcDbLine
 10
320.4508217412758
 20
816.7779000322046
 30
0.0
 11
320.4508217412758
 21
819.4852849766032
 31
0.0
  0
ARC
  5
13A
330
1B
100
AcDbEntity
  8
4
100
AcDbCircle
 10
315.9786036028199
 20
819.43645987522
 30
0.0
 40
2.0
100
AcDbArc
 50
91.0725568845876
 51
180.0
  0
LINE
  5
13B
330
1B
100
AcDbEntity
  8
4
100
AcDbLine
 10
328.4508217412758
 20
815.7779000322046
 30
0.0
 11
328.4508217412758
 21
816.7779000322046
 31
0.0
  0
ARC
  5
13C
330
1B
100
AcDbEntity
  8
4
100
AcDbCircle
 10
419.4508217412756
 20
831.7779000322042
 30
0.0
 40
2.0
100
AcDbArc
 50
270.0
 51
0.0
  0
ARC
  5
13D
330
1B
100
AcDbEntity
  8
4
100
AcDbCircle
 10
405.4508217412756
 20
827.7779000322038
 30
0.0
 40
2.0
100
AcDbArc
 50
90.0
 51
180.0
  0
LINE
  5
13E
330
1B
100
AcDbEntity
  8
L-CENTER
100
AcDbLine
 10
418.4508217412756
 20
800.2779000322031
 30
0.0
 11
418.4508217412758
 21
830.2779000322045
 31
0.0
  0
LINE
  5
13F
330
1B
100
AcDbEntity
  8
4
100
AcDbLine
 10
443.4508217412756
 20
803.2779000322046
 30
0.0
 11
443.4508217412756
 21
830.7779000322043
 31
0.0
  0
LINE
  5
140
330
1B
100
AcDbEntity
  8
L-CENTER
100
AcDbLine
 10
403.4508217412756
 20
815.2779000322045
 30
0.0
 11
433.4508217412756
 21
815.2779000322045
 31
0.0
  0
LINE
  5
141
330
1B
100
AcDbEntity
  8
4
100
AcDbLine
 10
395.354638369756
 20
800.2779000322043
 30
0.0
 11
440.4508217412756
 21
800.2779000322046
 31
0.0
  0
CIRCLE
  5
142
330
1B
100
AcDbEntity
  8
4
100
AcDbCircle
 10
418.4508217412756
 20
815.2779000322045
 30
0.0
 40
7.0
  0
ARC
  5
143
330
1B
100
AcDbEntity
  8
4
100
AcDbCircle
 10
395.354638369756
 20
803.2779000322043
 30
0.0
 40
3.0
100
AcDbArc
 50
205.2011236454744
 51
270.0
  0
ARC
  5
144
330
1B
100
AcDbEntity
  8
4
100
AcDbCircle
 10
400.4508217412758
 20
823.9915779266023
 30
0.0
 40
2.0
100
AcDbArc
 50
95.10075106685387
 51
180.0
  0
LINE
  5
145
330
1B
100
AcDbEntity
  8
4
100
AcDbLine
 10
386.1567040942166
 20
815.7779000322046
 30
0.0
 11
392.6401822631531
 21
802.0005089232147
 31
0.0
  0
LINE
  5
146
330
1B
100
AcDbEntity
  8
4
100
AcDbLine
 10
390.4508217412758
 20
815.7779000322046
 30
0.0
 11
390.4508217412758
 21
816.7779000322046
 31
0.0
  0
LINE
  5
147
330
1B
100
AcDbEntity
  8
4
100
AcDbLine
 10
403.4508217412756
 20
826.2715659203498
 30
0.0
 11
403.4508217412756
 21
827.7779000322038
 31
0.0
  0
LINE
  5
148
330
1B
100
AcDbEntity
  8
4
100
AcDbLine
 10
398.4508217412758
 20
816.7779000322046
 30
0.0
 11
398.4508217412758
 21
823.9915779266023
 31
0.0
  0
ARC
  5
149
330
1B
100
AcDbEntity
  8
4
100
AcDbCircle
 10
440.4508217412756
 20
803.2779000322046
 30
0.0
 40
3.0
100
AcDbArc
 50
270.0
 51
0.0
  0
LINE
  5
14A
330
1B
100
AcDbEntity
  8
4
100
AcDbLine
 10
453.4508217412756
 20
830.7779000322043
 30
0.0
 11
453.4508217412756
 21
904.7779000322043
 31
0.0
  0
ARC
  5
14B
330
1B
100
AcDbEntity
  8
4
100
AcDbCircle
 10
441.4508217412756
 20
844.7779000322045
 30
0.0
 40
2.0
100
AcDbArc
 50
270.0
 51
0.0
  0
LINE
  5
14C
330
1B
100
AcDbEntity
  8
4
100
AcDbLine
 10
453.4508217412756
 20
830.7779000322043
 30
0.0
 11
421.1828725488581
 21
830.7779000322045
 31
0.0
  0
ARC
  5
14D
330
1B
100
AcDbEntity
  8
4
100
AcDbCircle
 10
423.4508217412756
 20
840.7779000322043
 30
0.0
 40
2.0
100
AcDbArc
 50
90.0
 51
180.0
  0
LINE
  5
14E
330
1B
100
AcDbEntity
  8
4
100
AcDbLine
 10
421.4508217412756
 20
840.7779000322043
 30
0.0
 11
421.4508217412756
 21
831.7779000322042
 31
0.0
  0
LINE
  5
14F
330
1B
100
AcDbEntity
  8
4
100
AcDbLine
 10
453.4508217412761
 20
904.7779000322043
 30
0.0
 11
446.4508217412756
 21
904.7779000322043
 31
0.0
  0
ARC
  5
150
330
1B
100
AcDbEntity
  8
4
100
AcDbCircle
 10
446.4508217412756
 20
907.7779000322043
 30
0.0
 40
3.0
100
AcDbArc
 50
180.0
 51
270.0
  0
ARC
  5
151
330
1B
100
AcDbEntity
  8
4
100
AcDbCircle
 10
441.4508217412756
 20
925.7779000322045
 30
0.0
 40
2.0
100
AcDbArc
 50
0.0
 51
90.0
  0
LINE
  5
152
330
1B
100
AcDbEntity
  8
4
100
AcDbLine
 10
421.4508217412756
 20
927.7779000322043
 30
0.0
 11
421.4508217412756
 21
929.7779000322045
 31
0.0
  0
LINE
  5
153
330
1B
100
AcDbEntity
  8
4
100
AcDbLine
 10
395.354638369756
 20
970.2779000322045
 30
0.0
 11
440.4508217412756
 21
970.2779000322045
 31
0.0
  0
LINE
  5
154
330
1B
100
AcDbEntity
  8
L-CENTER
100
AcDbLine
 10
403.4508217412758
 20
955.2779000322045
 30
0.0
 11
433.4508217412758
 21
955.2779000322045
 31
0.0
  0
ARC
  5
155
330
1B
100
AcDbEntity
  8
4
100
AcDbCircle
 10
418.4508217412761
 20
955.2779000322045
 30
0.0
 40
7.0
100
AcDbArc
 50
282.3736251161828
 51
220.0052008848616
  0
ARC
  5
156
330
1B
100
AcDbEntity
  8
4
100
AcDbCircle
 10
395.354638369756
 20
967.2779000322045
 30
0.0
 40
3.0
100
AcDbArc
 50
90.0
 51
154.7988763545256
  0
ARC
  5
157
330
1B
100
AcDbEntity
  8
4
100
AcDbCircle
 10
440.4508217412756
 20
967.2779000322045
 30
0.0
 40
3.0
100
AcDbArc
 50
0.0
 51
90.0
  0
LINE
  5
158
330
1B
100
AcDbEntity
  8
4
100
AcDbLine
 10
328.4508217412758
 20
815.7779000322046
 30
0.0
 11
390.4508217412758
 21
815.7779000322046
 31
0.0
  0
LINE
  5
159
330
1B
100
AcDbEntity
  8
4
100
AcDbLine
 10
224.9786036028199
 20
815.7779000322045
 30
0.0
 11
304.9786036028199
 21
815.7779000322045
 31
0.0
  0
LINE
  5
15A
330
1B
100
AcDbEntity
  8
4
100
AcDbLine
 10
277.4508217412756
 20
905.2779000322045
 30
0.0
 11
309.4508217412758
 21
905.2779000322045
 31
0.0
  0
LINE
  5
15B
330
1B
100
AcDbEntity
  8
4
100
AcDbLine
 10
277.4508217412756
 20
905.2779000322045
 30
0.0
 11
273.4508217412756
 21
901.2779000322045
 31
0.0
  0
LINE
  5
15C
330
1B
100
AcDbEntity
  8
4
100
AcDbLine
 10
309.4508217412758
 20
905.2779000322045
 30
0.0
 11
313.4508217412758
 21
901.2779000322045
 31
0.0
  0
LINE
  5
15D
330
1B
100
AcDbEntity
  8
4
100
AcDbLine
 10
313.4508217412756
 20
864.2779000322045
 30
0.0
 11
313.4508217412758
 21
901.2779000322045
 31
0.0
  0
LINE
  5
15E
330
1B
100
AcDbEntity
  8
4
100
AcDbLine
 10
313.4508217412756
 20
864.2779000322045
 30
0.0
 11
309.4508217412756
 21
860.2779000322045
 31
0.0
  0
LINE
  5
15F
330
1B
100
AcDbEntity
  8
4
100
AcDbLine
 10
277.4508217412758
 20
860.2779000322045
 30
0.0
 11
309.4508217412756
 21
860.2779000322045
 31
0.0
  0
LINE
  5
160
330
1B
100
AcDbEntity
  8
4
100
AcDbLine
 10
277.4508217412758
 20
860.2779000322045
 30
0.0
 11
273.4508217412758
 21
864.2779000322045
 31
0.0
  0
LINE
  5
161
330
1B
100
AcDbEntity
  8
4
100
AcDbLine
 10
273.4508217412758
 20
864.2779000322045
 30
0.0
 11
273.4508217412756
 21
901.2779000322045
 31
0.0
  0
CIRCLE
  5
162
330
1B
100
AcDbEntity
  8
4
100
AcDbCircle
 10
293.4508217412756
 20
885.2779000322045
 30
0.0
 40
12.5
  0
LWPOLYLINE
  5
163
330
1B
100
AcDbEntity
  8
4
100
AcDbPolyline
 90
        6
 70
     1
 43
0.0
 10
305.9508217412756
 20
885.2779000322045
 10
299.7008217412756
 20
896.10321757951
 10
287.2008217412756
 20
896.10321757951
 10
280.9508217412756
 20
885.2779000322045
 10
287.2008217412756
 20
874.4525824848989
 10
299.7008217412756
 20
874.4525824848989
  0
ARC
  5
164
330
1B
100
AcDbEntity
  8
4
100
AcDbCircle
 10
293.4508217412761
 20
-253.6697975679876
 30
0.0
 40
1201.5
100
AcDbArc
 50
84.74708816910388
 51
86.82720155313596
  0
LINE
  5
165
330
1B
100
AcDbEntity
  8
4
100
AcDbLine
 10
421.4508217412756
 20
930.0779000322045
 30
0.0
 11
165.4508217412756
 21
930.0779000322045
 31
0.0
  0
LINE
  5
166
330
1B
100
AcDbEntity
  8
4
100
AcDbLine
 10
420.4508217412758
 20
940.7779000322043
 30
0.0
 11
166.4508217412756
 21
940.7779000322043
 31
0.0
  0
LINE
  5
167
330
1B
100
AcDbEntity
  8
4
100
AcDbLine
 10
215.9786036028197
 20
953.7779000322043
 30
0.0
 11
313.9786036028199
 21
953.7779000322043
 31
0.0
  0
LINE
  5
168
330
1B
100
AcDbEntity
  8
4
100
AcDbLine
 10
165.4508217412756
 20
939.7779000322043
 30
0.0
 11
165.4508217412756
 21
930.0779000322045
 31
0.0
  0
ARC
  5
169
330
1B
100
AcDbEntity
  8
4
100
AcDbCircle
 10
166.4508217412756
 20
939.7779000322043
 30
0.0
 40
1.0
100
AcDbArc
 50
90.0
 51
180.0
  0
LINE
  5
16A
330
1B
100
AcDbEntity
  8
4
100
AcDbLine
 10
183.4508217412756
 20
942.7842341440544
 30
0.0
 11
183.4508217412756
 21
940.7779000322043
 31
0.0
  0
ARC
  5
16B
330
1B
100
AcDbEntity
  8
4
100
AcDbCircle
 10
213.9786036028197
 20
947.2033916340004
 30
0.0
 40
2.0
100
AcDbArc
 50
273.7862388158275
 51
0.0
  0
LINE
  5
16C
330
1B
100
AcDbEntity
  8
4
100
AcDbLine
 10
215.9786036028197
 20
953.7779000322043
 30
0.0
 11
215.9786036028197
 21
947.2033916340004
 31
0.0
  0
LINE
  5
16D
330
1B
100
AcDbEntity
  8
4
100
AcDbLine
 10
224.9786036028197
 20
954.7779000322043
 30
0.0
 11
304.9786036028197
 21
954.7779000322043
 31
0.0
  0
LINE
  5
16E
330
1B
100
AcDbEntity
  8
L-CENTER
100
AcDbLine
 10
264.9786036028194
 20
723.7173871671364
 30
0.0
 11
264.9786036028199
 21
959.6379393211836
 31
0.0
  0
LINE
  5
16F
330
1B
100
AcDbEntity
  8
4
100
AcDbLine
 10
224.9786036028197
 20
953.7779000322041
 30
0.0
 11
224.9786036028197
 21
954.7779000322043
 31
0.0
  0
LINE
  5
170
330
1B
100
AcDbEntity
  8
4
100
AcDbLine
 10
304.9786036028197
 20
953.7779000322041
 30
0.0
 11
304.9786036028197
 21
954.7779000322043
 31
0.0
  0
LINE
  5
171
330
1B
100
AcDbEntity
  8
4
100
AcDbLine
 10
328.4508217412756
 20
954.7779000322041
 30
0.0
 11
390.4508217412758
 21
954.7779000322046
 31
0.0
  0
LINE
  5
172
330
1B
100
AcDbEntity
  8
4
100
AcDbLine
 10
320.4508217412758
 20
953.7779000322043
 30
0.0
 11
398.4508217412756
 21
953.7779000322043
 31
0.0
  0
ARC
  5
173
330
1B
100
AcDbEntity
  8
4
100
AcDbCircle
 10
316.9786036028197
 20
950.6003936601585
 30
0.0
 40
3.0
100
AcDbArc
 50
180.0
 51
268.8807568780739
  0
ARC
  5
174
330
1B
100
AcDbEntity
  8
4
100
AcDbCircle
 10
293.4508217412761
 20
-253.6697975679876
 30
0.0
 40
1201.5
100
AcDbArc
 50
88.85828998412633
 51
88.88075687807617
  0
LINE
  5
175
330
1B
100
AcDbEntity
  8
4
100
AcDbLine
 10
313.9786036028199
 20
953.7779000322043
 30
0.0
 11
313.9786036028199
 21
950.6003936601585
 31
0.0
  0
LINE
  5
176
330
1B
100
AcDbEntity
  8
4
100
AcDbLine
 10
320.4508217412758
 20
953.7779000322046
 30
0.0
 11
320.4508217412756
 21
950.5910753328967
 31
0.0
  0
ARC
  5
177
330
1B
100
AcDbEntity
  8
4
100
AcDbCircle
 10
317.4508217412756
 20
950.5910753328967
 30
0.0
 40
3.0
100
AcDbArc
 50
268.8582899841188
 51
0.0
  0
LINE
  5
178
330
1B
100
AcDbEntity
  8
4
100
AcDbLine
 10
328.4508217412758
 20
953.7779000322043
 30
0.0
 11
328.4508217412756
 21
954.7779000322041
 31
0.0
  0
LINE
  5
179
330
1B
100
AcDbEntity
  8
L-CENTER
100
AcDbLine
 10
359.4508217412756
 20
959.6779000322044
 30
0.0
 11
359.4508217412756
 21
810.4128312021195
 31
0.0
  0
ARC
  5
17A
330
1B
100
AcDbEntity
  8
4
100
AcDbCircle
 10
400.4508217412756
 20
945.0642221378018
 30
0.0
 40
2.0
100
AcDbArc
 50
180.0
 51
264.8992489331526
  0
LINE
  5
17B
330
1B
100
AcDbEntity
  8
4
100
AcDbLine
 10
390.4508217412756
 20
953.7779000322046
 30
0.0
 11
390.4508217412758
 21
954.7779000322046
 31
0.0
  0
LINE
  5
17C
330
1B
100
AcDbEntity
  8
4
100
AcDbLine
 10
398.4508217412756
 20
953.7779000322043
 30
0.0
 11
398.4508217412756
 21
945.0642221378018
 31
0.0
  0
LINE
  5
17D
330
1B
100
AcDbEntity
  8
4
100
AcDbLine
 10
403.4508217412756
 20
942.7842341440544
 30
0.0
 11
403.4508217412756
 21
940.7779000322043
 31
0.0
  0
LINE
  5
17E
330
1B
100
AcDbEntity
  8
4
100
AcDbLine
 10
421.4508217412758
 20
939.7779000322043
 30
0.0
 11
421.4508217412756
 21
930.0779000322045
 31
0.0
  0
ARC
  5
17F
330
1B
100
AcDbEntity
  8
4
100
AcDbCircle
 10
420.4508217412758
 20
939.7779000322043
 30
0.0
 40
1.0
100
AcDbArc
 50
0.0
 51
90.0
  0
LINE
  5
180
330
1B
100
AcDbEntity
  8
4
100
AcDbLine
 10
132.4510192412756
 20
893.7779000322045
 30
0.0
 11
132.4510192412756
 21
841.7779000322045
 31
0.0
  0
LINE
  5
181
330
1B
100
AcDbEntity
  8
4
100
AcDbLine
 10
132.4510192412756
 20
841.7779000322045
 30
0.0
 11
133.4510192412756
 21
841.7779000322045
 31
0.0
  0
LINE
  5
182
330
1B
100
AcDbEntity
  8
4
100
AcDbLine
 10
132.4510192412756
 20
893.7779000322045
 30
0.0
 11
133.4510192412756
 21
893.7779000322045
 31
0.0
  0
LINE
  5
183
330
1B
100
AcDbEntity
  8
4
100
AcDbLine
 10
454.4508217412756
 20
893.7779000322045
 30
0.0
 11
454.4508217412756
 21
841.7779000322045
 31
0.0
  0
LINE
  5
184
330
1B
100
AcDbEntity
  8
4
100
AcDbLine
 10
453.4508217412756
 20
841.7779000322045
 30
0.0
 11
454.4508217412756
 21
841.7779000322045
 31
0.0
  0
LINE
  5
185
330
1B
100
AcDbEntity
  8
4
100
AcDbLine
 10
454.4508217412756
 20
893.7779000322045
 30
0.0
 11
453.4508217412756
 21
893.7779000322045
 31
0.0
  0
LINE
  5
186
330
1B
100
AcDbEntity
  8
L-CENTER
100
AcDbLine
 10
413.4508217412756
 20
952.4008047854567
 30
0.0
 11
413.4508217412756
 21
912.1649470424576
 31
0.0
  0
LINE
  5
187
330
1B
100
AcDbEntity
  8
L-CENTER
100
AcDbLine
 10
353.4508217412756
 20
952.4008047854567
 30
0.0
 11
353.4508217412756
 21
912.1649470424576
 31
0.0
  0
ARC
  5
188
330
1B
100
AcDbEntity
  8
4
100
AcDbCircle
 10
293.4508217412761
 20
-253.6697975679876
 30
0.0
 40
1201.5
100
AcDbArc
 50
93.17279844686406
 51
95.25291183089617
  0
ARC
  5
189
330
1B
100
AcDbEntity
  8
4
100
AcDbCircle
 10
293.4508217412761
 20
-253.6697975679876
 30
0.0
 40
1201.5
100
AcDbArc
 50
87.44790840434078
 51
92.55209159565926
  0
LINE
  5
18A
330
1B
100
AcDbEntity
  8
4
100
AcDbLine
 10
513.4508217412756
 20
864.2779000322043
 30
0.0
 11
471.9508217412756
 21
864.2779000322043
 31
0.0
  0
LINE
  5
18B
330
1B
100
AcDbEntity
  8
4
100
AcDbLine
 10
513.4508217412756
 20
871.2779000322043
 30
0.0
 11
471.9508217412756
 21
871.2779000322043
 31
0.0
  0
LINE
  5
18C
330
1B
100
AcDbEntity
  8
4
100
AcDbLine
 10
512.4508217412756
 20
879.2779000322043
 30
0.0
 11
464.4508217412756
 21
879.2779000322043
 31
0.0
  0
LINE
  5
18D
330
1B
100
AcDbEntity
  8
4
100
AcDbLine
 10
512.4508217412756
 20
856.2779000322043
 30
0.0
 11
464.4508217412756
 21
856.2779000322043
 31
0.0
  0
ARC
  5
18E
330
1B
100
AcDbEntity
  8
4
100
AcDbCircle
 10
471.9508217412756
 20
867.7779000322043
 30
0.0
 40
3.5
100
AcDbArc
 50
90.0
 51
270.0
  0
LINE
  5
18F
330
1B
100
AcDbEntity
  8
4
100
AcDbLine
 10
463.4508217412756
 20
880.2779000322043
 30
0.0
 11
463.4508217412756
 21
855.2779000322043
 31
0.0
  0
ARC
  5
190
330
1B
100
AcDbEntity
  8
4
100
AcDbCircle
 10
464.4508217412756
 20
855.2779000322043
 30
0.0
 40
1.0
100
AcDbArc
 50
90.0
 51
180.0
  0
ARC
  5
191
330
1B
100
AcDbEntity
  8
4
100
AcDbCircle
 10
464.4508217412756
 20
880.2779000322043
 30
0.0
 40
1.0
100
AcDbArc
 50
180.0
 51
270.0
  0
LINE
  5
192
330
1B
100
AcDbEntity
  8
4
100
AcDbLine
 10
513.4508217412756
 20
878.2779000322043
 30
0.0
 11
513.4508217412756
 21
857.2779000322043
 31
0.0
  0
LINE
  5
193
330
1B
100
AcDbEntity
  8
4
100
AcDbLine
 10
512.4508217412756
 20
856.2779000322043
 30
0.0
 11
513.4508217412756
 21
857.2779000322043
 31
0.0
  0
LINE
  5
194
330
1B
100
AcDbEntity
  8
4
100
AcDbLine
 10
512.4508217412756
 20
864.2779000322043
 30
0.0
 11
512.4508217412756
 21
856.2779000322043
 31
0.0
  0
LINE
  5
195
330
1B
100
AcDbEntity
  8
4
100
AcDbLine
 10
512.4508217412756
 20
879.2779000322043
 30
0.0
 11
513.4508217412756
 21
878.2779000322043
 31
0.0
  0
LINE
  5
196
330
1B
100
AcDbEntity
  8
4
100
AcDbLine
 10
512.4508217412756
 20
879.2779000322043
 30
0.0
 11
512.4508217412756
 21
871.2779000322043
 31
0.0
  0
LINE
  5
197
330
1B
100
AcDbEntity
  8
4
100
AcDbLine
 10
463.4508217412756
 20
880.2779000322043
 30
0.0
 11
454.4508217412756
 21
880.2779000322045
 31
0.0
  0
LINE
  5
198
330
1B
100
AcDbEntity
  8
4
100
AcDbLine
 10
463.4508217412756
 20
855.2779000322043
 30
0.0
 11
454.4508217412756
 21
855.2779000322045
 31
0.0
  0
LINE
  5
199
330
1B
100
AcDbEntity
  8
4
100
AcDbLine
 10
269.9786036028195
 20
792.7779000322047
 30
0.0
 11
269.9786036028194
 21
732.7779000322048
 31
0.0
  0
LINE
  5
19A
330
1B
100
AcDbEntity
  8
4
100
AcDbLine
 10
259.9786036028195
 20
792.7779000322047
 30
0.0
 11
259.9786036028194
 21
732.7779000322048
 31
0.0
  0
LINE
  5
19B
330
1B
100
AcDbEntity
  8
4
100
AcDbLine
 10
282.9786036028195
 20
801.7779000322047
 30
0.0
 11
282.9786036028194
 21
733.7779000322048
 31
0.0
  0
LINE
  5
19C
330
1B
100
AcDbEntity
  8
4
100
AcDbLine
 10
246.9786036028195
 20
801.7779000322048
 30
0.0
 11
246.9786036028194
 21
733.7779000322048
 31
0.0
  0
LINE
  5
19D
330
1B
100
AcDbEntity
  8
4
100
AcDbLine
 10
244.9786036028195
 20
802.7779000322048
 30
0.0
 11
284.9786036028195
 21
802.7779000322047
 31
0.0
  0
ARC
  5
19E
330
1B
100
AcDbEntity
  8
4
100
AcDbCircle
 10
264.9786036028195
 20
792.7779000322046
 30
0.0
 40
5.0
100
AcDbArc
 50
0.0
 51
90.0
  0
ARC
  5
19F
330
1B
100
AcDbEntity
  8
4
100
AcDbCircle
 10
283.9786036028195
 20
801.7779000322046
 30
0.0
 40
1.0
100
AcDbArc
 50
90.0
 51
180.0
  0
LINE
  5
1A0
330
1B
100
AcDbEntity
  8
4
100
AcDbLine
 10
264.9786036028195
 20
797.7779000322047
 30
0.0
 11
264.9786036028195
 21
797.7779000322047
 31
0.0
  0
ARC
  5
1A1
330
1B
100
AcDbEntity
  8
4
100
AcDbCircle
 10
264.9786036028195
 20
792.7779000322046
 30
0.0
 40
5.0
100
AcDbArc
 50
90.0
 51
180.0
  0
ARC
  5
1A2
330
1B
100
AcDbEntity
  8
4
100
AcDbCircle
 10
245.9786036028195
 20
801.7779000322047
 30
0.0
 40
1.0
100
AcDbArc
 50
0.0
 51
90.0
  0
LINE
  5
1A3
330
1B
100
AcDbEntity
  8
4
100
AcDbLine
 10
247.9786036028194
 20
732.7779000322048
 30
0.0
 11
281.9786036028194
 21
732.7779000322048
 31
0.0
  0
LINE
  5
1A4
330
1B
100
AcDbEntity
  8
4
100
AcDbLine
 10
281.9786036028194
 20
732.7779000322048
 30
0.0
 11
282.9786036028194
 21
733.7779000322048
 31
0.0
  0
LINE
  5
1A5
330
1B
100
AcDbEntity
  8
4
100
AcDbLine
 10
269.9786036028194
 20
733.7779000322048
 30
0.0
 11
282.9786036028194
 21
733.7779000322048
 31
0.0
  0
LINE
  5
1A6
330
1B
100
AcDbEntity
  8
4
100
AcDbLine
 10
246.9786036028194
 20
733.7779000322048
 30
0.0
 11
259.9786036028194
 21
733.7779000322048
 31
0.0
  0
LINE
  5
1A7
330
1B
100
AcDbEntity
  8
4
100
AcDbLine
 10
246.9786036028194
 20
733.7779000322048
 30
0.0
 11
247.9786036028194
 21
732.7779000322048
 31
0.0
  0
LINE
  5
1A8
330
1B
100
AcDbEntity
  8
4
100
AcDbLine
 10
244.9786036028196
 20
815.7779000322049
 30
0.0
 11
244.9786036028195
 21
802.7779000322048
 31
0.0
  0
LINE
  5
1A9
330
1B
100
AcDbEntity
  8
4
100
AcDbLine
 10
284.9786036028196
 20
815.7779000322048
 30
0.0
 11
284.9786036028195
 21
802.7779000322047
 31
0.0
  0
LINE
  5
1AA
330
1B
100
AcDbEntity
  8
4
100
AcDbLine
 10
280.460440684509
 20
811.7779000322045
 30
0.0
 11
280.460440684509
 21
815.7779000322045
 31
0.0
  0
LINE
  5
1AB
330
1B
100
AcDbEntity
  8
4
100
AcDbLine
 10
306.4412027980422
 20
811.7779000322045
 30
0.0
 11
306.4412027980422
 21
816.7779000322045
 31
0.0
  0
LINE
  5
1AC
330
1B
100
AcDbEntity
  8
4
100
AcDbLine
 10
280.460440684509
 20
811.7779000322045
 30
0.0
 11
306.4412027980422
 21
811.7779000322045
 31
0.0
  0
LINE
  5
1AD
330
1B
100
AcDbEntity
  8
4
100
AcDbLine
 10
820.9975390579932
 20
564.4138187940503
 30
0.0
 11
820.9975390579932
 21
578.9138187940503
 31
0.0
  0
LINE
  5
1AE
330
1B
100
AcDbEntity
  8
4
100
AcDbLine
 10
820.9975390579932
 20
578.9138187940503
 30
0.0
 11
818.9975390579937
 21
578.9138187940503
 31
0.0
  0
LINE
  5
1AF
330
1B
100
AcDbEntity
  8
4
100
AcDbLine
 10
820.9975390579932
 20
564.4138187940503
 30
0.0
 11
818.9975390579937
 21
564.4138187940503
 31
0.0
  0
LINE
  5
1B0
330
1B
100
AcDbEntity
  8
4
100
AcDbLine
 10
828.9975390579932
 20
578.1638187940503
 30
0.0
 11
820.9975390579932
 21
578.1638187940503
 31
0.0
  0
LINE
  5
1B1
330
1B
100
AcDbEntity
  8
4
100
AcDbLine
 10
828.9975390579932
 20
565.1638187940503
 30
0.0
 11
820.9975390579932
 21
565.1638187940503
 31
0.0
  0
LINE
  5
1B2
330
1B
100
AcDbEntity
  8
4
100
AcDbLine
 10
828.9975390579932
 20
565.1638187940503
 30
0.0
 11
828.9975390579932
 21
578.1638187940503
 31
0.0
  0
LINE
  5
1B3
330
1B
100
AcDbEntity
  8
2
100
AcDbLine
 10
818.9975390579932
 20
571.6638187940503
 30
0.0
 11
820.9975390579932
 21
573.6638187940503
 31
0.0
  0
LINE
  5
1B4
330
1B
100
AcDbEntity
  8
2
100
AcDbLine
 10
818.9975390579932
 20
568.835391669304
 30
0.0
 11
820.9975390579932
 21
570.835391669304
 31
0.0
  0
LINE
  5
1B5
330
1B
100
AcDbEntity
  8
L-CENTER
100
AcDbLine
 10
831.6799715579934
 20
363.8176287940503
 30
0.0
 11
790.9539859581394
 21
363.8176287940503
 31
0.0
  0
LINE
  5
1B6
330
1B
100
AcDbEntity
  8
2
100
AcDbLine
 10
818.9975390579932
 20
363.8176287940503
 30
0.0
 11
820.9975390579932
 21
361.8176287940503
 31
0.0
  0
LINE
  5
1B7
330
1B
100
AcDbEntity
  8
4
100
AcDbLine
 10
828.9975390579932
 20
370.3176287940503
 30
0.0
 11
828.9975390579932
 21
357.3176287940503
 31
0.0
  0
LINE
  5
1B8
330
1B
100
AcDbEntity
  8
4
100
AcDbLine
 10
820.9975390579932
 20
371.0676287940503
 30
0.0
 11
820.9975390579932
 21
356.5676287940503
 31
0.0
  0
LINE
  5
1B9
330
1B
100
AcDbEntity
  8
2
100
AcDbLine
 10
818.9975390579932
 20
366.6460559187965
 30
0.0
 11
820.9975390579932
 21
364.6460559187965
 31
0.0
  0
LINE
  5
1BA
330
1B
100
AcDbEntity
  8
4
100
AcDbLine
 10
820.9975390579932
 20
371.0676287940503
 30
0.0
 11
818.9975390579937
 21
371.0676287940503
 31
0.0
  0
LINE
  5
1BB
330
1B
100
AcDbEntity
  8
4
100
AcDbLine
 10
828.9975390579932
 20
370.3176287940503
 30
0.0
 11
820.9975390579932
 21
370.3176287940502
 31
0.0
  0
LINE
  5
1BC
330
1B
100
AcDbEntity
  8
4
100
AcDbLine
 10
820.9975390579932
 20
356.5676287940503
 30
0.0
 11
818.9975390579937
 21
356.5676287940503
 31
0.0
  0
LINE
  5
1BD
330
1B
100
AcDbEntity
  8
4
100
AcDbLine
 10
828.9975390579932
 20
357.3176287940503
 30
0.0
 11
820.9975390579932
 21
357.3176287940503
 31
0.0
  0
LINE
  5
1BE
330
1B
100
AcDbEntity
  8
2
100
AcDbLine
 10
820.9975390579932
 20
467.7407237940503
 30
0.0
 11
822.9975390579932
 21
469.7407237940503
 31
0.0
  0
LINE
  5
1BF
330
1B
100
AcDbEntity
  8
4
100
AcDbLine
 10
830.9975390579932
 20
461.2407237940503
 30
0.0
 11
830.9975390579932
 21
474.2407237940503
 31
0.0
  0
LINE
  5
1C0
330
1B
100
AcDbEntity
  8
4
100
AcDbLine
 10
822.9975390579932
 20
460.4907237940503
 30
0.0
 11
822.9975390579932
 21
474.9907237940503
 31
0.0
  0
LINE
  5
1C1
330
1B
100
AcDbEntity
  8
2
100
AcDbLine
 10
820.9975390579932
 20
464.9122966693041
 30
0.0
 11
822.9975390579932
 21
466.9122966693041
 31
0.0
  0
LINE
  5
1C2
330
1B
100
AcDbEntity
  8
4
100
AcDbLine
 10
822.9975390579932
 20
460.4907237940503
 30
0.0
 11
820.9975390579937
 21
460.4907237940502
 31
0.0
  0
LINE
  5
1C3
330
1B
100
AcDbEntity
  8
4
100
AcDbLine
 10
830.9975390579932
 20
461.2407237940503
 30
0.0
 11
822.9975390579932
 21
461.2407237940503
 31
0.0
  0
LINE
  5
1C4
330
1B
100
AcDbEntity
  8
4
100
AcDbLine
 10
822.9975390579932
 20
474.9907237940503
 30
0.0
 11
820.9975390579937
 21
474.9907237940503
 31
0.0
  0
LINE
  5
1C5
330
1B
100
AcDbEntity
  8
4
100
AcDbLine
 10
830.9975390579932
 20
474.2407237940503
 30
0.0
 11
822.9975390579932
 21
474.2407237940503
 31
0.0
  0
LINE
  5
1C6
330
1B
100
AcDbEntity
  8
4
100
AcDbLine
 10
359.9508217412756
 20
950.7779000322042
 30
0.0
 11
346.9508217412756
 21
950.7779000322042
 31
0.0
  0
LINE
  5
1C7
330
1B
100
AcDbEntity
  8
4
100
AcDbLine
 10
360.7008217412756
 20
942.7779000322042
 30
0.0
 11
346.2008217412756
 21
942.7779000322042
 31
0.0
  0
LINE
  5
1C8
330
1B
100
AcDbEntity
  8
4
100
AcDbLine
 10
346.2008217412756
 20
942.7779000322042
 30
0.0
 11
346.2008217412756
 21
940.7779000322045
 31
0.0
  0
LINE
  5
1C9
330
1B
100
AcDbEntity
  8
4
100
AcDbLine
 10
346.9508217412756
 20
950.7779000322042
 30
0.0
 11
346.9508217412756
 21
942.7779000322042
 31
0.0
  0
LINE
  5
1CA
330
1B
100
AcDbEntity
  8
4
100
AcDbLine
 10
359.9508217412756
 20
950.7779000322042
 30
0.0
 11
359.9508217412754
 21
942.7779000322042
 31
0.0
  0
LINE
  5
1CB
330
1B
100
AcDbEntity
  8
4
100
AcDbLine
 10
360.7008217412756
 20
942.7779000322042
 30
0.0
 11
360.7008217412756
 21
940.7779000322045
 31
0.0
  0
LINE
  5
1CC
330
1B
100
AcDbEntity
  8
4
100
AcDbLine
 10
419.9508217412756
 20
950.7779000322042
 30
0.0
 11
406.9508217412756
 21
950.7779000322042
 31
0.0
  0
LINE
  5
1CD
330
1B
100
AcDbEntity
  8
4
100
AcDbLine
 10
420.7008217412756
 20
942.7779000322042
 30
0.0
 11
406.2008217412756
 21
942.7779000322042
 31
0.0
  0
LINE
  5
1CE
330
1B
100
AcDbEntity
  8
4
100
AcDbLine
 10
406.2008217412756
 20
942.7779000322042
 30
0.0
 11
406.2008217412756
 21
940.7779000322045
 31
0.0
  0
LINE
  5
1CF
330
1B
100
AcDbEntity
  8
4
100
AcDbLine
 10
406.9508217412756
 20
950.7779000322042
 30
0.0
 11
406.9508217412756
 21
942.7779000322042
 31
0.0
  0
LINE
  5
1D0
330
1B
100
AcDbEntity
  8
4
100
AcDbLine
 10
420.7008217412756
 20
942.7779000322042
 30
0.0
 11
420.7008217412756
 21
940.7779000322045
 31
0.0
  0
LINE
  5
1D1
330
1B
100
AcDbEntity
  8
4
100
AcDbLine
 10
419.9508217412756
 20
950.7779000322042
 30
0.0
 11
419.9508217412754
 21
942.7779000322042
 31
0.0
  0
LINE
  5
1D2
330
1B
100
AcDbEntity
  8
4
100
AcDbLine
 10
226.9508217412756
 20
950.7779000322042
 30
0.0
 11
239.9508217412756
 21
950.7779000322042
 31
0.0
  0
LINE
  5
1D3
330
1B
100
AcDbEntity
  8
4
100
AcDbLine
 10
226.2008217412756
 20
942.7779000322042
 30
0.0
 11
240.7008217412756
 21
942.7779000322042
 31
0.0
  0
LINE
  5
1D4
330
1B
100
AcDbEntity
  8
4
100
AcDbLine
 10
240.7008217412756
 20
942.7779000322042
 30
0.0
 11
240.7008217412756
 21
940.7779000322045
 31
0.0
  0
LINE
  5
1D5
330
1B
100
AcDbEntity
  8
4
100
AcDbLine
 10
239.9508217412756
 20
950.7779000322042
 30
0.0
 11
239.9508217412756
 21
942.7779000322042
 31
0.0
  0
LINE
  5
1D6
330
1B
100
AcDbEntity
  8
4
100
AcDbLine
 10
226.2008217412756
 20
942.7779000322042
 30
0.0
 11
226.2008217412756
 21
940.7779000322045
 31
0.0
  0
LINE
  5
1D7
330
1B
100
AcDbEntity
  8
4
100
AcDbLine
 10
226.9508217412756
 20
950.7779000322042
 30
0.0
 11
226.9508217412758
 21
942.7779000322042
 31
0.0
  0
LINE
  5
1D8
330
1B
100
AcDbEntity
  8
L-CENTER
100
AcDbLine
 10
233.4508217412756
 20
952.4008047854567
 30
0.0
 11
233.4508217412756
 21
912.1649470424576
 31
0.0
  0
LINE
  5
1D9
330
1B
100
AcDbEntity
  8
4
100
AcDbLine
 10
166.2008217412756
 20
942.7779000322042
 30
0.0
 11
180.7008217412756
 21
942.7779000322042
 31
0.0
  0
LINE
  5
1DA
330
1B
100
AcDbEntity
  8
4
100
AcDbLine
 10
166.9508217412756
 20
950.7779000322042
 30
0.0
 11
179.9508217412756
 21
950.7779000322042
 31
0.0
  0
LINE
  5
1DB
330
1B
100
AcDbEntity
  8
4
100
AcDbLine
 10
179.9508217412756
 20
950.7779000322042
 30
0.0
 11
179.9508217412756
 21
942.7779000322042
 31
0.0
  0
LINE
  5
1DC
330
1B
100
AcDbEntity
  8
4
100
AcDbLine
 10
180.7008217412756
 20
942.7779000322042
 30
0.0
 11
180.7008217412756
 21
940.7779000322045
 31
0.0
  0
LINE
  5
1DD
330
1B
100
AcDbEntity
  8
4
100
AcDbLine
 10
166.9508217412756
 20
950.7779000322042
 30
0.0
 11
166.9508217412758
 21
942.7779000322042
 31
0.0
  0
LINE
  5
1DE
330
1B
100
AcDbEntity
  8
4
100
AcDbLine
 10
166.2008217412756
 20
942.7779000322042
 30
0.0
 11
166.2008217412756
 21
940.7779000322045
 31
0.0
  0
LINE
  5
1DF
330
1B
100
AcDbEntity
  8
L-CENTER
100
AcDbLine
 10
173.4508217412756
 20
952.4008047854567
 30
0.0
 11
173.4508217412756
 21
912.1649470424576
 31
0.0
  0
CIRCLE
  5
1E0
330
1B
100
AcDbEntity
  8
2
100
AcDbCircle
 10
293.4508217412756
 20
338.7407237940503
 30
0.0
 40
6.3500975
  0
LINE
  5
1E1
330
1B
100
AcDbEntity
  8
4
100
AcDbLine
 10
297.9501117412756
 20
336.1429337940502
 30
0.0
 11
293.4508217412756
 21
333.5453212940503
 31
0.0
  0
LINE
  5
1E2
330
1B
100
AcDbEntity
  8
4
100
AcDbLine
 10
293.4508217412756
 20
343.9361262940503
 30
0.0
 11
297.9501117412756
 21
341.3385137940503
 31
0.0
  0
CIRCLE
  5
1E3
330
1B
100
AcDbEntity
  8
4
100
AcDbCircle
 10
293.4508217412756
 20
406.7407237940503
 30
0.0
 40
15.0
  0
CIRCLE
  5
1E4
330
1B
100
AcDbEntity
  8
4
100
AcDbCircle
 10
293.4508217412756
 20
406.7407237940503
 30
0.0
 40
16.0
  0
LINE
  5
1E5
330
1B
100
AcDbEntity
  8
L-CENTER
100
AcDbLine
 10
315.7287134967125
 20
406.7407237940503
 30
0.0
 11
271.1729299858387
 21
406.7407237940503
 31
0.0
  0
LINE
  5
1E6
330
1B
100
AcDbEntity
  8
4
100
AcDbLine
 10
306.4410567412756
 20
414.2407237940503
 30
0.0
 11
293.4508217412756
 21
421.7407237940503
 31
0.0
  0
LINE
  5
1E7
330
1B
100
AcDbEntity
  8
4
100
AcDbLine
 10
293.4508217412756
 20
391.7407237940503
 30
0.0
 11
306.4410567412756
 21
399.2407237940503
 31
0.0
  0
CIRCLE
  5
1E8
330
1B
100
AcDbEntity
  8
4
100
AcDbCircle
 10
264.9788967412755
 20
477.7407237940503
 30
0.0
 40
40.0
  0
CIRCLE
  5
1E9
330
1B
100
AcDbEntity
  8
4
100
AcDbCircle
 10
264.9788967412755
 20
477.7407237940503
 30
0.0
 40
49.0
  0
LINE
  5
1EA
330
1B
100
AcDbEntity
  8
L-CENTER
100
AcDbLine
 10
264.9788967412755
 20
533.4797387940503
 30
0.0
 11
264.9788967412755
 21
422.0017087940503
 31
0.0
  0
LINE
  5
1EB
330
1B
100
AcDbEntity
  8
L-CENTER
100
AcDbLine
 10
359.4508217412756
 20
533.5925821321009
 30
0.0
 11
359.4508217412756
 21
441.8888654559996
 31
0.0
  0
CIRCLE
  5
1EC
330
1B
100
AcDbEntity
  8
4
100
AcDbCircle
 10
359.4508217412756
 20
487.7407237940503
 30
0.0
 40
31.0
  0
CIRCLE
  5
1ED
330
1B
100
AcDbEntity
  8
4
100
AcDbCircle
 10
359.4508217412756
 20
487.7407237940503
 30
0.0
 40
39.0
  0
ARC
  5
1EE
330
1B
100
AcDbEntity
  8
4
100
AcDbCircle
 10
293.4505767412757
 20
814.7407237940503
 30
0.0
 40
400.0000375
100
AcDbArc
 50
271.965836
 51
284.866045
  0
LINE
  5
1EF
330
1B
100
AcDbEntity
  8
4
100
AcDbLine
 10
376.6451567412757
 20
370.4643562940503
 30
0.0
 11
443.4508217412756
 21
370.4643562940503
 31
0.0
  0
LINE
  5
1F0
330
1B
100
AcDbEntity
  8
4
100
AcDbLine
 10
373.4508217412756
 20
337.7407237940503
 30
0.0
 11
443.4508217412756
 21
337.7407237940503
 31
0.0
  0
LINE
  5
1F1
330
1B
100
AcDbEntity
  8
L-CENTER
100
AcDbLine
 10
405.3026800793261
 20
487.7407237940503
 30
0.0
 11
313.5989634032251
 21
487.7407237940503
 31
0.0
  0
LINE
  5
1F2
330
1B
100
AcDbEntity
  8
4
100
AcDbLine
 10
269.4508217412756
 20
564.8830587940503
 30
0.0
 11
269.4508217412756
 21
546.8830587940503
 31
0.0
  0
LINE
  5
1F3
330
1B
100
AcDbEntity
  8
4
100
AcDbLine
 10
266.4508217412756
 20
543.8830587940503
 30
0.0
 11
266.4508217412756
 21
567.8830587940503
 31
0.0
  0
LINE
  5
1F4
330
1B
100
AcDbEntity
  8
4
100
AcDbLine
 10
282.9508217412756
 20
564.8830587940503
 30
0.0
 11
282.9508217412756
 21
546.8830587940503
 31
0.0
  0
LINE
  5
1F5
330
1B
100
AcDbEntity
  8
4
100
AcDbLine
 10
272.4508217412756
 20
564.8830587940503
 30
0.0
 11
272.4508217412756
 21
549.8830587940503
 31
0.0
  0
LINE
  5
1F6
330
1B
100
AcDbEntity
  8
4
100
AcDbLine
 10
320.4508217412756
 20
567.8830587940503
 30
0.0
 11
320.4508217412756
 21
543.8830587940503
 31
0.0
  0
ARC
  5
1F7
330
1B
100
AcDbEntity
  8
4
100
AcDbCircle
 10
290.4508217412756
 20
561.8830587940503
 30
0.0
 40
3.0
100
AcDbArc
 50
0.0
 51
90.0
  0
ARC
  5
1F8
330
1B
100
AcDbEntity
  8
4
100
AcDbCircle
 10
288.9508217412756
 20
560.3830587940503
 30
0.0
 40
1.5
100
AcDbArc
 50
0.0
 51
90.0
  0
LINE
  5
1F9
330
1B
100
AcDbEntity
  8
4
100
AcDbLine
 10
317.4508217412756
 20
561.8830587940503
 30
0.0
 11
317.4508217412756
 21
564.8830587940503
 31
0.0
  0
LINE
  5
1FA
330
1B
100
AcDbEntity
  8
4
100
AcDbLine
 10
306.9508217412756
 20
564.8830587940503
 30
0.0
 11
306.9508217412756
 21
561.8830587940503
 31
0.0
  0
ARC
  5
1FB
330
1B
100
AcDbEntity
  8
4
100
AcDbCircle
 10
-256.5491782587244
 20
467.7087412940502
 30
0.0
 40
699.999955
100
AcDbArc
 50
0.0026179999598473
 51
9.413001000000031
  0
ARC
  5
1FC
330
1B
100
AcDbEntity
  8
4
100
AcDbCircle
 10
157.8089767412755
 20
581.3757337940502
 30
0.0
 40
4.9999875
100
AcDbArc
 50
101.2546859999973
 51
170.5884409999999
  0
ARC
  5
1FD
330
1B
100
AcDbEntity
  8
4
100
AcDbCircle
 10
140.4510192412756
 20
437.7407237940503
 30
0.0
 40
3.0
100
AcDbArc
 50
270.0
 51
0.0
  0
LINE
  5
1FE
330
1B
100
AcDbEntity
  8
4
100
AcDbLine
 10
132.4510192412756
 20
423.7407237940503
 30
0.0
 11
133.4510192412756
 21
423.7407237940503
 31
0.0
  0
LINE
  5
1FF
330
1B
100
AcDbEntity
  8
4
100
AcDbLine
 10
133.4510192412756
 20
434.7407237940503
 30
0.0
 11
140.4510192412756
 21
434.7407237940503
 31
0.0
  0
LINE
  5
200
330
1B
100
AcDbEntity
  8
4
100
AcDbLine
 10
143.4510192412756
 20
425.0170912940503
 30
0.0
 11
172.7913967412755
 21
425.0170912940503
 31
0.0
  0
ARC
  5
201
330
1B
100
AcDbEntity
  8
4
100
AcDbCircle
 10
140.4510192412756
 20
357.7407237940503
 30
0.0
 40
3.0
100
AcDbArc
 50
0.0
 51
90.0
  0
LINE
  5
202
330
1B
100
AcDbEntity
  8
4
100
AcDbLine
 10
132.4510192412756
 20
371.7407237940503
 30
0.0
 11
133.4510192412756
 21
371.7407237940503
 31
0.0
  0
LINE
  5
203
330
1B
100
AcDbEntity
  8
4
100
AcDbLine
 10
133.4510192412756
 20
360.7407237940503
 30
0.0
 11
140.4510192412756
 21
360.7407237940503
 31
0.0
  0
LINE
  5
204
330
1B
100
AcDbEntity
  8
4
100
AcDbLine
 10
132.4510192412756
 20
423.7407237940503
 30
0.0
 11
132.4510192412756
 21
371.7407237940503
 31
0.0
  0
LINE
  5
205
330
1B
100
AcDbEntity
  8
4
100
AcDbLine
 10
133.4510192412756
 20
434.7407237940503
 30
0.0
 11
133.4510192412756
 21
360.7407237940503
 31
0.0
  0
LINE
  5
206
330
1B
100
AcDbEntity
  8
4
100
AcDbLine
 10
143.4510192412756
 20
467.7407237940503
 30
0.0
 11
143.4510192412756
 21
337.7407237940503
 31
0.0
  0
ARC
  5
207
330
1B
100
AcDbEntity
  8
4
100
AcDbCircle
 10
843.4508217412756
 20
467.7087412940502
 30
0.0
 40
699.999995
100
AcDbArc
 50
170.587364
 51
179.9976619998332
  0
ARC
  5
208
330
1B
100
AcDbEntity
  8
4
100
AcDbCircle
 10
293.4508217412756
 20
467.7407237940503
 30
0.0
 40
127.999985
100
AcDbArc
 50
276.230032
 51
263.770755
  0
CIRCLE
  5
209
330
1B
100
AcDbEntity
  8
4
100
AcDbCircle
 10
293.4508217412756
 20
467.7407237940503
 30
0.0
 40
110.0
  0
LINE
  5
20A
330
1B
100
AcDbEntity
  8
L-CENTER
100
AcDbLine
 10
518.7789467412756
 20
397.7407237940503
 30
0.0
 11
127.889651697147
 21
397.7407237940503
 31
0.0
  0
LINE
  5
20B
330
1B
100
AcDbEntity
  8
4
100
AcDbLine
 10
143.4510192412756
 20
370.4643562940503
 30
0.0
 11
210.2564867412755
 21
370.4643562940503
 31
0.0
  0
LINE
  5
20C
330
1B
100
AcDbEntity
  8
4
100
AcDbLine
 10
143.4510192412756
 20
337.7407237940503
 30
0.0
 11
213.4508217412756
 21
337.7407237940503
 31
0.0
  0
ARC
  5
20D
330
1B
100
AcDbEntity
  8
4
100
AcDbCircle
 10
293.4505767412757
 20
814.7407237940503
 30
0.0
 40
400.00008
100
AcDbArc
 50
255.134998
 51
268.0352
  0
ARC
  5
20E
330
1B
100
AcDbEntity
  8
4
100
AcDbCircle
 10
293.4508217412756
 20
-100.2590937059498
 30
0.0
 40
699.9999425
100
AcDbArc
 50
78.745476
 51
101.254605
  0
ARC
  5
20F
330
1B
100
AcDbEntity
  8
4
100
AcDbCircle
 10
293.4508217412756
 20
140.7409062940503
 30
0.0
 40
399.9999825
100
AcDbArc
 50
76.93573899999998
 51
103.06433
  0
LINE
  5
210
330
1B
100
AcDbEntity
  8
L-CENTER
100
AcDbLine
 10
449.5755092412755
 20
467.7407237940503
 30
0.0
 11
137.3261342412757
 21
467.7407237940503
 31
0.0
  0
LINE
  5
211
330
1B
100
AcDbEntity
  8
L-CENTER
100
AcDbLine
 10
320.7179117412754
 20
477.7407237940503
 30
0.0
 11
209.2398817412757
 21
477.7407237940503
 31
0.0
  0
LINE
  5
212
330
1B
100
AcDbEntity
  8
4
100
AcDbLine
 10
373.4508217412756
 20
322.7407237940503
 30
0.0
 11
213.4508217412756
 21
322.7407237940503
 31
0.0
  0
LINE
  5
213
330
1B
100
AcDbEntity
  8
4
100
AcDbLine
 10
373.4508217412756
 20
317.7407237940503
 30
0.0
 11
443.4508217412756
 21
317.7407237940503
 31
0.0
  0
LINE
  5
214
330
1B
100
AcDbEntity
  8
4
100
AcDbLine
 10
143.4510192412756
 20
317.7407237940503
 30
0.0
 11
213.4508217412756
 21
317.7407237940503
 31
0.0
  0
LINE
  5
215
330
1B
100
AcDbEntity
  8
4
100
AcDbLine
 10
443.4508217412756
 20
467.7407237940503
 30
0.0
 11
443.4508217412756
 21
317.7407237940503
 31
0.0
  0
LINE
  5
216
330
1B
100
AcDbEntity
  8
L-CENTER
100
AcDbLine
 10
293.4508217412756
 20
613.4544412940503
 30
0.0
 11
293.4508217412756
 21
315.3496562940503
 31
0.0
  0
LINE
  5
217
330
1B
100
AcDbEntity
  8
4
100
AcDbLine
 10
143.4510192412756
 20
337.7407237940503
 30
0.0
 11
143.4510192412756
 21
317.7407237940503
 31
0.0
  0
LINE
  5
218
330
1B
100
AcDbEntity
  8
4
100
AcDbLine
 10
193.4508217412756
 20
337.7407237940503
 30
0.0
 11
193.4508217412756
 21
317.7407237940503
 31
0.0
  0
LINE
  5
219
330
1B
100
AcDbEntity
  8
L-CENTER
100
AcDbLine
 10
168.4508217412756
 20
347.7407237940503
 30
0.0
 11
168.4508217412756
 21
307.7407237940503
 31
0.0
  0
ARC
  5
21A
330
1B
100
AcDbEntity
  8
4
100
AcDbCircle
 10
293.4508217412756
 20
338.7407237940503
 30
0.0
 40
14.0
100
AcDbArc
 50
172.7952019999999
 51
7.204798000000081
  0
LINE
  5
21B
330
1B
100
AcDbEntity
  8
4
100
AcDbLine
 10
213.4508217412756
 20
337.7407237940503
 30
0.0
 11
213.4508217412756
 21
317.7407237940503
 31
0.0
  0
LINE
  5
21C
330
1B
100
AcDbEntity
  8
4
100
AcDbLine
 10
373.4508217412756
 20
337.7407237940503
 30
0.0
 11
373.4508217412756
 21
317.7407237940503
 31
0.0
  0
LINE
  5
21D
330
1B
100
AcDbEntity
  8
4
100
AcDbLine
 10
393.4508217412756
 20
337.7407237940503
 30
0.0
 11
393.4508217412756
 21
317.7407237940503
 31
0.0
  0
LINE
  5
21E
330
1B
100
AcDbEntity
  8
L-CENTER
100
AcDbLine
 10
418.4508217412756
 20
347.7407237940503
 30
0.0
 11
418.4508217412756
 21
307.7407237940503
 31
0.0
  0
ARC
  5
21F
330
1B
100
AcDbEntity
  8
4
100
AcDbCircle
 10
264.9788967412755
 20
477.7407237940503
 30
0.0
 40
17.999945
100
AcDbArc
 50
106.127670836246
 51
73.87228000000023
  0
LINE
  5
220
330
1B
100
AcDbEntity
  8
4
100
AcDbLine
 10
269.9788967412755
 20
499.2407237940503
 30
0.0
 11
259.9788967412755
 21
499.2407237940503
 31
0.0
  0
LINE
  5
221
330
1B
100
AcDbEntity
  8
4
100
AcDbLine
 10
269.9788967412755
 20
491.2407237940503
 30
0.0
 11
259.9788967412755
 21
491.2407237940503
 31
0.0
  0
LINE
  5
222
330
1B
100
AcDbEntity
  8
4
100
AcDbLine
 10
259.9788967412755
 20
491.2407237940503
 30
0.0
 11
259.9788967412755
 21
499.2407237940503
 31
0.0
  0
LINE
  5
223
330
1B
100
AcDbEntity
  8
4
100
AcDbLine
 10
269.9788967412755
 20
499.2407237940503
 30
0.0
 11
269.9788967412755
 21
491.2407237940503
 31
0.0
  0
ENDSEC
  0
SECTION
  2
OBJECTS
  0
DICTIONARY
  5
9
330
0
100
AcDbDictionary
281
     1
  3
ACAD_COLOR
350
2F
  3
ACAD_GROUP
350
2D
  3
ACAD_LAYOUT
350
24
  3
ACAD_MATERIAL
350
B
  3
ACAD_MLEADERSTYLE
350
227
  3
ACAD_MLINESTYLE
350
19
  3
ACAD_PLOTSETTINGS
350
2E
  3
ACAD_PLOTSTYLENAME
350
8
  3
ACAD_SCALELIST
350
34
  3
ACAD_TABLESTYLE
350
226
  3
ACAD_VISUALSTYLE
350
30
  3
ACDBHEADERROUNDTRIPXREC
350
24A
  3
AcDbVariableDictionary
350
224
  3
DWGPROPS
350
24D
  0
DICTIONARY
  5
24E
330
2C
100
AcDbDictionary
280
     1
281
     1
  3
ACAD_XREC_ROUNDTRIP
360
24F
  0
DICTIONARY
  5
3
330
2
100
AcDbDictionary
280
     1
281
     1
  3
ACAD_LAYERSTATES
360
4
  0
DICTIONARY
  5
20
330
1F
100
AcDbDictionary
280
     1
281
     1
  3
ADSK_XREC_LAYER_RECONCILED
360
21
  0
DICTIONARY
  5
5
330
1
100
AcDbDictionary
280
     1
281
     1
  3
ADSK_XREC_LAYER_RECONCILED
360
6
  0
DICTIONARY
  5
5A
330
59
100
AcDbDictionary
280
     1
281
     1
  3
ADSK_XREC_LAYER_RECONCILED
360
5B
  0
DICTIONARY
  5
5E
330
5D
100
AcDbDictionary
280
     1
281
     1
  3
ADSK_XREC_LAYER_RECONCILED
360
5F
  0
DICTIONARY
  5
AC
330
AB
100
AcDbDictionary
280
     1
281
     1
  3
ADSK_XREC_LAYER_RECONCILED
360
AD
  0
DICTIONARY
  5
1C
330
1B
100
AcDbDictionary
280
     1
281
     1
  3
ACAD_SORTENTS
360
1D
  0
DICTIONARY
  5
2F
102
{ACAD_REACTORS
330
9
102
}
330
9
100
AcDbDictionary
281
     1
  0
DICTIONARY
  5
2D
102
{ACAD_REACTORS
330
9
102
}
330
9
100
AcDbDictionary
281
     1
  0
DICTIONARY
  5
24
102
{ACAD_REACTORS
330
9
102
}
330
9
100
AcDbDictionary
281
     1
  3
Model
350
23
  3
ﾚｲｱｳﾄ1
350
29
  0
DICTIONARY
  5
B
102
{ACAD_REACTORS
330
9
102
}
330
9
100
AcDbDictionary
281
     1
  3
ByBlock
350
57
  3
ByLayer
350
14
  3
Global
350
A
  0
DICTIONARY
  5
227
102
{ACAD_REACTORS
330
9
102
}
330
9
100
AcDbDictionary
281
     1
  3
Standard
350
243
  0
DICTIONARY
  5
19
102
{ACAD_REACTORS
330
9
102
}
330
9
100
AcDbDictionary
281
     1
  3
STANDARD
350
18
  0
DICTIONARY
  5
2E
102
{ACAD_REACTORS
330
9
102
}
330
9
100
AcDbDictionary
281
     1
  0
ACDBDICTIONARYWDFLT
  5
8
102
{ACAD_REACTORS
330
9
102
}
330
9
100
AcDbDictionary
281
     1
  3
Normal
350
7
100
AcDbDictionaryWithDefault
340
7
  0
DICTIONARY
  5
34
102
{ACAD_REACTORS
330
9
102
}
330
9
100
AcDbDictionary
281
     1
  3
*A1
350
56
  0
DICTIONARY
  5
226
102
{ACAD_REACTORS
330
9
102
}
330
9
100
AcDbDictionary
281
     1
  3
Standard
350
242
  0
DICTIONARY
  5
30
102
{ACAD_REACTORS
330
9
102
}
330
9
100
AcDbDictionary
281
     1
  3
2dWireframe
350
22E
  3
Basic
350
231
  3
Brighten
350
235
  3
ColorChange
350
239
  3
Conceptual
350
233
  3
Dim
350
234
  3
EdgeColorOff
350
23C
  3
Facepattern
350
238
  3
Flat
350
22A
  3
FlatWithEdges
350
22B
  3
Gouraud
350
22C
  3
GouraudWithEdges
350
22D
  3
Hidden
350
230
  3
JitterOff
350
23A
  3
Linepattern
350
237
  3
OverhangOff
350
23B
  3
Realistic
350
232
  3
Shaded
350
241
  3
Shaded with edges
350
240
  3
Shades of Gray
350
23D
  3
Sketchy
350
23E
  3
Thicken
350
236
  3
Wireframe
350
22F
  3
X-Ray
350
23F
  0
DICTIONARY
  5
24A
102
{ACAD_REACTORS
330
9
102
}
330
9
100
AcDbDictionary
281
     1
  3
COLORDICT
350
24B
  3
MATERIALDICT
350
24C
  0
DICTIONARY
  5
224
102
{ACAD_REACTORS
330
9
102
}
330
9
100
AcDbDictionary
281
     1
  3
CANNOSCALE
350
225
  3
CMLEADERSTYLE
350
246
  3
CTABLESTYLE
350
245
  3
DIMASSOC
350
247
  3
HIDETEXT
350
248
  3
MSLTSCALE
350
250
  3
XCLIPFRAME
350
249
  0
XRECORD
  5
24D
102
{ACAD_REACTORS
330
9
102
}
330
9
100
AcDbXrecord
280
     1
  1
DWGPROPS COOKIE
  2

  3

  4

  6

  7

  8
sg-d04
  9

300
=
301
=
302
=
303
=
304
=
305
=
306
=
307
=
308
=
309
=
 40
0.0
 41
2457357.482836701
 42
2457899.274897766
  1

 90
        0
  0
XRECORD
  5
24F
102
{ACAD_REACTORS
330
24E
102
}
330
24E
100
AcDbXrecord
280
     1
102
VTR_0.000_0.000_1.000_1.000_GRIDDISPLAY
 70
     3
102
VTR_0.000_0.000_1.000_1.000_GRIDMAJOR
 70
     5
102
VTR_0.000_0.000_1.000_1.000_DEFAULTLIGHTING
280
     1
102
VTR_0.000_0.000_1.000_1.000_DEFAULTLIGHTINGTYPE
 70
     1
102
VTR_0.000_0.000_1.000_1.000_BRIGHTNESS
141
0.0
102
VTR_0.000_0.000_1.000_1.000_CONTRAST
142
0.0
  0
DICTIONARY
  5
4
102
{ACAD_REACTORS
330
3
102
}
330
3
100
AcDbDictionary
281
     1
  0
XRECORD
  5
21
102
{ACAD_REACTORS
330
20
102
}
330
20
100
AcDbXrecord
280
     1
290
     1
  0
XRECORD
  5
6
102
{ACAD_REACTORS
330
5
102
}
330
5
100
AcDbXrecord
280
     1
290
     1
  0
XRECORD
  5
5B
102
{ACAD_REACTORS
330
5A
102
}
330
5A
100
AcDbXrecord
280
     1
290
     1
  0
XRECORD
  5
5F
102
{ACAD_REACTORS
330
5E
102
}
330
5E
100
AcDbXrecord
280
     1
290
     1
  0
XRECORD
  5
AD
102
{ACAD_REACTORS
330
AC
102
}
330
AC
100
AcDbXrecord
280
     1
290
     1
  0
SORTENTSTABLE
  5
1D
102
{ACAD_REACTORS
330
1C
102
}
330
1C
100
AcDbSortentsTable
330
1B
  0
LAYOUT
  5
23
102
{ACAD_REACTORS
330
24
102
}
330
24
100
AcDbPlotSettings
  1

  2
Bullzip PDF Printer.pc3
  4
A3
  6

 40
0.2
 41
0.0
 42
0.0
 43
0.0
 44
420.2
 45
297.1
 46
25.0
 47
12.0
 48
49.99999992083326
 49
0.0
140
1004.999997733333
141
681.2499984104165
142
1.0
143
2.5
 70
 11936
 72
     1
 73
     0
 74
     4
  7
monochrome.ctb
 75
     0
147
0.4
148
-49.99999992083326
149
0.0
100
AcDbLayout
  1
Model
 70
     0
 71
     0
 10
0.0
 20
0.0
 11
12.0
 21
9.0
 12
0.0
 22
0.0
 32
0.0
 14
127.4508217412756
 24
290.2103910946394
 34
0.0
 15
906.486267169002
 25
970.2779000322059
 35
0.0
146
0.0
 13
0.0
 23
0.0
 33
0.0
 16
1.0
 26
0.0
 36
0.0
 17
0.0
 27
1.0
 37
0.0
 76
     0
330
1B
331
31
1001
ACAD_PSEXT
1000
Bullzip PDF Printer.pc3
1000
Bullzip PDF Printer
1000
BULLZIP
1000
Bullzip PDF Printer 10.1.0.1871
1070
     0
  0
LAYOUT
  5
29
102
{ACAD_REACTORS
330
24
102
}
330
24
100
AcDbPlotSettings
  1

  2
SR-LP8300F
  4

  6

 40
0.0
 41
0.0
 42
0.0
 43
0.0
 44
0.0
 45
0.0
 46
0.0
 47
0.0
 48
0.0
 49
0.0
140
0.0
141
0.0
142
1.0
143
1.0
 70
   688
 72
     0
 73
     0
 74
     5
  7
monochrome.ctb
 75
    16
147
1.0
148
0.0
149
0.0
100
AcDbLayout
  1
ﾚｲｱｳﾄ1
 70
     0
 71
     1
 10
0.0
 20
0.0
 11
12.0
 21
9.0
 12
0.0
 22
0.0
 32
0.0
 14
1.000000000000000E+20
 24
1.000000000000000E+20
 34
1.000000000000000E+20
 15
-1.000000000000000E+20
 25
-1.000000000000000E+20
 35
-1.000000000000000E+20
146
0.0
 13
0.0
 23
0.0
 33
0.0
 16
1.0
 26
0.0
 36
0.0
 17
0.0
 27
1.0
 37
0.0
 76
     0
330
26
  0
MATERIAL
  5
57
102
{ACAD_REACTORS
330
B
102
}
102
{ACAD_XDICTIONARY
360
255
102
}
330
B
100
AcDbMaterial
  1
ByBlock
 72
     0
 73
     2
 43
0.0208333333333333
 43
0.0
 43
0.0
 43
0.0
 43
0.0
 43
0.0208333333333333
 43
0.0
 43
0.0
 43
0.0
 43
0.0
 43
1.0
 43
0.0
 43
0.0
 43
0.0
 43
0.0
 43
1.0
 77
     0
 78
     2
 47
0.0208333333333333
 47
0.0
 47
0.0
 47
0.0
 47
0.0
 47
0.0208333333333333
 47
0.0
 47
0.0
 47
0.0
 47
0.0
 47
1.0
 47
0.0
 47
0.0
 47
0.0
 47
0.0
 47
1.0
171
     0
172
     2
 49
0.0208333333333333
 49
0.0
 49
0.0
 49
0.0
 49
0.0
 49
0.0208333333333333
 49
0.0
 49
0.0
 49
0.0
 49
0.0
 49
1.0
 49
0.0
 49
0.0
 49
0.0
 49
0.0
 49
1.0
175
     0
176
     2
142
0.0208333333333333
142
0.0
142
0.0
142
0.0
142
0.0
142
0.0208333333333333
142
0.0
142
0.0
142
0.0
142
0.0
142
1.0
142
0.0
142
0.0
142
0.0
142
0.0
142
1.0
179
     0
270
     2
144
0.0208333333333333
144
0.0
144
0.0
144
0.0
144
0.0
144
0.0208333333333333
144
0.0
144
0.0
144
0.0
144
0.0
144
1.0
144
0.0
144
0.0
144
0.0
144
0.0
144
1.0
274
     2
147
0.0208333333333333
147
0.0
147
0.0
147
0.0
147
0.0
147
0.0208333333333333
147
0.0
147
0.0
147
0.0
147
0.0
147
1.0
147
0.0
147
0.0
147
0.0
147
0.0
147
1.0
  0
MATERIAL
  5
14
102
{ACAD_REACTORS
330
B
102
}
102
{ACAD_XDICTIONARY
360
251
102
}
330
B
100
AcDbMaterial
  1
ByLayer
 72
     0
 73
     2
 43
0.0208333333333333
 43
0.0
 43
0.0
 43
0.0
 43
0.0
 43
0.0208333333333333
 43
0.0
 43
0.0
 43
0.0
 43
0.0
 43
1.0
 43
0.0
 43
0.0
 43
0.0
 43
0.0
 43
1.0
 77
     0
 78
     2
 47
0.0208333333333333
 47
0.0
 47
0.0
 47
0.0
 47
0.0
 47
0.0208333333333333
 47
0.0
 47
0.0
 47
0.0
 47
0.0
 47
1.0
 47
0.0
 47
0.0
 47
0.0
 47
0.0
 47
1.0
171
     0
172
     2
 49
0.0208333333333333
 49
0.0
 49
0.0
 49
0.0
 49
0.0
 49
0.0208333333333333
 49
0.0
 49
0.0
 49
0.0
 49
0.0
 49
1.0
 49
0.0
 49
0.0
 49
0.0
 49
0.0
 49
1.0
175
     0
176
     2
142
0.0208333333333333
142
0.0
142
0.0
142
0.0
142
0.0
142
0.0208333333333333
142
0.0
142
0.0
142
0.0
142
0.0
142
1.0
142
0.0
142
0.0
142
0.0
142
0.0
142
1.0
179
     0
270
     2
144
0.0208333333333333
144
0.0
144
0.0
144
0.0
144
0.0
144
0.0208333333333333
144
0.0
144
0.0
144
0.0
144
0.0
144
1.0
144
0.0
144
0.0
144
0.0
144
0.0
144
1.0
274
     2
147
0.0208333333333333
147
0.0
147
0.0
147
0.0
147
0.0
147
0.0208333333333333
147
0.0
147
0.0
147
0.0
147
0.0
147
1.0
147
0.0
147
0.0
147
0.0
147
0.0
147
1.0
  0
MATERIAL
  5
A
102
{ACAD_REACTORS
330
B
102
}
102
{ACAD_XDICTIONARY
360
253
102
}
330
B
100
AcDbMaterial
  1
Global
 72
     0
 73
     2
 43
0.0208333333333333
 43
0.0
 43
0.0
 43
0.0
 43
0.0
 43
0.0208333333333333
 43
0.0
 43
0.0
 43
0.0
 43
0.0
 43
1.0
 43
0.0
 43
0.0
 43
0.0
 43
0.0
 43
1.0
 77
     0
 78
     2
 47
0.0208333333333333
 47
0.0
 47
0.0
 47
0.0
 47
0.0
 47
0.0208333333333333
 47
0.0
 47
0.0
 47
0.0
 47
0.0
 47
1.0
 47
0.0
 47
0.0
 47
0.0
 47
0.0
 47
1.0
171
     0
172
     2
 49
0.0208333333333333
 49
0.0
 49
0.0
 49
0.0
 49
0.0
 49
0.0208333333333333
 49
0.0
 49
0.0
 49
0.0
 49
0.0
 49
1.0
 49
0.0
 49
0.0
 49
0.0
 49
0.0
 49
1.0
175
     0
176
     2
142
0.0208333333333333
142
0.0
142
0.0
142
0.0
142
0.0
142
0.0208333333333333
142
0.0
142
0.0
142
0.0
142
0.0
142
1.0
142
0.0
142
0.0
142
0.0
142
0.0
142
1.0
179
     0
270
     2
144
0.0208333333333333
144
0.0
144
0.0
144
0.0
144
0.0
144
0.0208333333333333
144
0.0
144
0.0
144
0.0
144
0.0
144
1.0
144
0.0
144
0.0
144
0.0
144
0.0
144
1.0
274
     2
147
0.0208333333333333
147
0.0
147
0.0
147
0.0
147
0.0
147
0.0208333333333333
147
0.0
147
0.0
147
0.0
147
0.0
147
1.0
147
0.0
147
0.0
147
0.0
147
0.0
147
1.0
1001
ACAD
1070
    -1
1070
     3
1070
     0
1000

1071
        0
  0
MLEADERSTYLE
  5
243
102
{ACAD_REACTORS
330
227
102
}
102
{ACAD_XDICTIONARY
360
287
102
}
330
227
100
AcDbMLeaderStyle
170
     2
171
     1
172
     0
 90
        2
 40
0.0
 41
0.0
173
     1
 91
-1056964608
340
11
 92
       -2
290
     1
 42
0.09
291
     1
 43
0.36
  3
Standard
341
0
 44
0.18
300

342
12
174
     1
178
     6
175
     1
176
     0
 93
-1056964608
 45
0.18
292
     0
297
     0
 46
0.18
343
0
 94
-1056964608
 47
1.0
 49
1.0
140
1.0
293
     1
141
0.0
294
     1
177
     0
142
1.0
295
     0
296
     0
143
0.125
1001
ACAD_MLEADERVER
1070
     2
  0
MLINESTYLE
  5
18
102
{ACAD_REACTORS
330
19
102
}
330
19
100
AcDbMlineStyle
  2
STANDARD
 70
     0
  3

 62
     0
 51
90.0
 52
90.0
 71
     2
 49
0.5
 62
   256
  6
BYLAYER
 49
-0.5
 62
   256
  6
BYLAYER
  0
ACDBPLACEHOLDER
  5
7
102
{ACAD_REACTORS
330
8
102
}
330
8
  0
SCALE
  5
56
102
{ACAD_REACTORS
330
34
102
}
330
34
100
AcDbScale
 70
     0
300
1:1
140
1.0
141
1.0
290
     1
  0
TABLESTYLE
  5
242
102
{ACAD_REACTORS
330
226
102
}
330
226
100
AcDbTableStyle
  3
Standard
 70
     0
 71
     0
 40
0.06
 41
0.06
280
     0
281
     0
  7
STANDARD
140
0.18
170
     2
 62
     0
 63
   257
283
     0
274
    -2
284
     1
 64
     0
275
    -2
285
     1
 65
     0
276
    -2
286
     1
 66
     0
277
    -2
287
     1
 67
     0
278
    -2
288
     1
 68
     0
279
    -2
289
     1
 69
     0
  7
STANDARD
140
0.25
170
     5
 62
     0
 63
   257
283
     0
274
    -2
284
     1
 64
     0
275
    -2
285
     1
 65
     0
276
    -2
286
     1
 66
     0
277
    -2
287
     1
 67
     0
278
    -2
288
     1
 68
     0
279
    -2
289
     1
 69
     0
  7
STANDARD
140
0.18
170
     5
 62
     0
 63
   257
283
     0
274
    -2
284
     1
 64
     0
275
    -2
285
     1
 65
     0
276
    -2
286
     1
 66
     0
277
    -2
287
     1
 67
     0
278
    -2
288
     1
 68
     0
279
    -2
289
     1
 69
     0
  0
VISUALSTYLE
  5
22E
102
{ACAD_REACTORS
330
30
102
}
102
{ACAD_XDICTIONARY
360
25F
102
}
330
30
100
AcDbVisualStyle
  2
2dWireframe
 70
     4
 71
     0
 72
     2
 73
     0
 90
        0
 40
0.6
 41
30.0
 62
     5
 63
     7
 74
     1
 91
        4
 64
     7
 65
   257
 75
     1
175
     1
 42
1.0
 92
        0
 66
   257
 43
1.0
 76
     1
 77
     6
 78
     2
 67
     7
 79
     5
170
     0
171
     0
290
     0
174
     0
 93
        1
 44
0.0
173
     0
291
     0
 45
0.0
1001
ACAD
1000
AcDbSavedByObjectVersion
1070
     0
  0
VISUALSTYLE
  5
231
102
{ACAD_REACTORS
330
30
102
}
102
{ACAD_XDICTIONARY
360
265
102
}
330
30
100
AcDbVisualStyle
  2
Basic
 70
     7
 71
     1
 72
     0
 73
     1
 90
        0
 40
0.6
 41
30.0
 62
     5
 63
     7
 74
     0
 91
        4
 64
     7
 65
   257
 75
     1
175
     1
 42
1.0
 92
        8
 66
     7
 43
1.0
 76
     1
 77
     6
 78
     2
 67
     7
 79
     5
170
     0
171
     0
290
     0
174
     0
 93
        1
 44
0.0
173
     0
291
     1
 45
0.0
1001
ACAD
1000
AcDbSavedByObjectVersion
1070
     0
  0
VISUALSTYLE
  5
235
102
{ACAD_REACTORS
330
30
102
}
102
{ACAD_XDICTIONARY
360
26D
102
}
330
30
100
AcDbVisualStyle
  2
Brighten
 70
    12
 71
     2
 72
     2
 73
     0
 90
        0
 40
0.6
 41
30.0
 62
     5
 63
     7
 74
     1
 91
        4
 64
     7
 65
   257
 75
     1
175
     1
 42
1.0
 92
        8
 66
     7
 43
1.0
 76
     1
 77
     6
 78
     2
 67
     7
 79
     5
170
     0
171
     0
290
     0
174
     0
 93
        1
 44
50.0
173
     0
291
     1
 45
0.0
1001
ACAD
1000
AcDbSavedByObjectVersion
1070
     0
  0
VISUALSTYLE
  5
239
102
{ACAD_REACTORS
330
30
102
}
102
{ACAD_XDICTIONARY
360
275
102
}
330
30
100
AcDbVisualStyle
  2
ColorChange
 70
    16
 71
     2
 72
     2
 73
     3
 90
        0
 40
0.6
 41
30.0
 62
     5
 63
     8
 74
     1
 91
        4
 64
     7
 65
   257
 75
     1
175
     1
 42
1.0
 92
        8
 66
     8
 43
1.0
 76
     1
 77
     6
 78
     2
 67
     7
 79
     5
170
     0
171
     0
290
     0
174
     0
 93
        1
 44
0.0
173
     0
291
     1
 45
0.0
1001
ACAD
1000
AcDbSavedByObjectVersion
1070
     0
  0
VISUALSTYLE
  5
233
102
{ACAD_REACTORS
330
30
102
}
102
{ACAD_XDICTIONARY
360
269
102
}
330
30
100
AcDbVisualStyle
  2
Conceptual
 70
     9
 71
     3
 72
     2
 73
     0
 90
        0
 40
0.6
 41
30.0
 62
     5
 63
     7
 74
     2
 91
        2
 64
     7
 65
   257
 75
     1
175
     1
 42
40.0
 92
        8
 66
     7
 43
1.0
 76
     1
 77
     6
 78
     2
 67
     7
 79
     3
170
     0
171
     0
290
     0
174
     0
 93
        1
 44
0.0
173
     0
291
     0
 45
0.0
1001
ACAD
1000
AcDbSavedByObjectVersion
1070
     0
  0
VISUALSTYLE
  5
234
102
{ACAD_REACTORS
330
30
102
}
102
{ACAD_XDICTIONARY
360
26B
102
}
330
30
100
AcDbVisualStyle
  2
Dim
 70
    11
 71
     2
 72
     2
 73
     0
 90
        0
 40
0.6
 41
30.0
 62
     5
 63
     7
 74
     1
 91
        4
 64
     7
 65
   257
 75
     1
175
     1
 42
1.0
 92
        8
 66
     7
 43
1.0
 76
     1
 77
     6
 78
     2
 67
     7
 79
     5
170
     0
171
     0
290
     0
174
     0
 93
        1
 44
-50.0
173
     0
291
     1
 45
0.0
1001
ACAD
1000
AcDbSavedByObjectVersion
1070
     0
  0
VISUALSTYLE
  5
23C
102
{ACAD_REACTORS
330
30
102
}
102
{ACAD_XDICTIONARY
360
27B
102
}
330
30
100
AcDbVisualStyle
  2
EdgeColorOff
 70
    22
 71
     2
 72
     2
 73
     0
 90
        0
 40
0.6
 41
30.0
 62
     5
 63
     7
 74
     1
 91
        4
 64
     7
 65
   257
 75
     1
175
     1
 42
1.0
 92
        8
 66
     7
 43
1.0
 76
     1
 77
     6
 78
     2
 67
     7
 79
     5
170
     0
171
     0
290
     0
174
     0
 93
        1
 44
0.0
173
     0
291
     1
 45
0.0
1001
ACAD
1000
AcDbSavedByObjectVersion
1070
     0
  0
VISUALSTYLE
  5
238
102
{ACAD_REACTORS
330
30
102
}
102
{ACAD_XDICTIONARY
360
273
102
}
330
30
100
AcDbVisualStyle
  2
Facepattern
 70
    15
 71
     2
 72
     2
 73
     0
 90
        0
 40
0.6
 41
30.0
 62
     5
 63
     7
 74
     1
 91
        4
 64
     7
 65
   257
 75
     1
175
     1
 42
1.0
 92
        8
 66
     7
 43
1.0
 76
     1
 77
     6
 78
     2
 67
     7
 79
     5
170
     0
171
     0
290
     0
174
     0
 93
        1
 44
0.0
173
     0
291
     1
 45
0.0
1001
ACAD
1000
AcDbSavedByObjectVersion
1070
     0
  0
VISUALSTYLE
  5
22A
102
{ACAD_REACTORS
330
30
102
}
102
{ACAD_XDICTIONARY
360
257
102
}
330
30
100
AcDbVisualStyle
  2
Flat
 70
     0
 71
     2
 72
     1
 73
     1
 90
        2
 40
0.6
 41
30.0
 62
     5
 63
     7
 74
     0
 91
        4
 64
     7
 65
   257
 75
     1
175
     1
 42
1.0
 92
        8
 66
     7
 43
1.0
 76
     1
 77
     6
 78
     2
 67
     7
 79
     5
170
     0
171
     0
290
     0
174
     0
 93
       13
 44
0.0
173
     0
291
     1
 45
0.0
1001
ACAD
1000
AcDbSavedByObjectVersion
1070
     0
  0
VISUALSTYLE
  5
22B
102
{ACAD_REACTORS
330
30
102
}
102
{ACAD_XDICTIONARY
360
259
102
}
330
30
100
AcDbVisualStyle
  2
FlatWithEdges
 70
     1
 71
     2
 72
     1
 73
     1
 90
        2
 40
0.6
 41
30.0
 62
     5
 63
     7
 74
     1
 91
        4
 64
     7
 65
   257
 75
     1
175
     1
 42
1.0
 92
        0
 66
   257
 43
1.0
 76
     1
 77
     6
 78
     2
 67
     7
 79
     5
170
     0
171
     0
290
     0
174
     0
 93
       13
 44
0.0
173
     0
291
     1
 45
0.0
1001
ACAD
1000
AcDbSavedByObjectVersion
1070
     0
  0
VISUALSTYLE
  5
22C
102
{ACAD_REACTORS
330
30
102
}
102
{ACAD_XDICTIONARY
360
25B
102
}
330
30
100
AcDbVisualStyle
  2
Gouraud
 70
     2
 71
     2
 72
     2
 73
     1
 90
        2
 40
0.6
 41
30.0
 62
     5
 63
     7
 74
     0
 91
        4
 64
     7
 65
   257
 75
     1
175
     1
 42
1.0
 92
        0
 66
     7
 43
1.0
 76
     1
 77
     6
 78
     2
 67
     7
 79
     5
170
     0
171
     0
290
     0
174
     0
 93
       13
 44
0.0
173
     0
291
     1
 45
0.0
1001
ACAD
1000
AcDbSavedByObjectVersion
1070
     0
  0
VISUALSTYLE
  5
22D
102
{ACAD_REACTORS
330
30
102
}
102
{ACAD_XDICTIONARY
360
25D
102
}
330
30
100
AcDbVisualStyle
  2
GouraudWithEdges
 70
     3
 71
     2
 72
     2
 73
     1
 90
        2
 40
0.6
 41
30.0
 62
     5
 63
     7
 74
     1
 91
        4
 64
     7
 65
   257
 75
     1
175
     1
 42
1.0
 92
        0
 66
   257
 43
1.0
 76
     1
 77
     6
 78
     2
 67
     7
 79
     5
170
     0
171
     0
290
     0
174
     0
 93
       13
 44
0.0
173
     0
291
     1
 45
0.0
1001
ACAD
1000
AcDbSavedByObjectVersion
1070
     0
  0
VISUALSTYLE
  5
230
102
{ACAD_REACTORS
330
30
102
}
102
{ACAD_XDICTIONARY
360
263
102
}
330
30
100
AcDbVisualStyle
  2
Hidden
 70
     6
 71
     1
 72
     2
 73
     2
 90
        0
 40
0.6
 41
30.0
 62
     5
 63
     7
 74
     2
 91
        2
 64
     7
 65
   257
 75
     2
175
     1
 42
40.0
 92
        0
 66
   257
 43
1.0
 76
     1
 77
     6
 78
     2
 67
     7
 79
     3
170
     0
171
     0
290
     0
174
     0
 93
        1
 44
0.0
173
     0
291
     0
 45
0.0
1001
ACAD
1000
AcDbSavedByObjectVersion
1070
     0
  0
VISUALSTYLE
  5
23A
102
{ACAD_REACTORS
330
30
102
}
102
{ACAD_XDICTIONARY
360
277
102
}
330
30
100
AcDbVisualStyle
  2
JitterOff
 70
    20
 71
     2
 72
     2
 73
     0
 90
        0
 40
0.6
 41
30.0
 62
     5
 63
     7
 74
     1
 91
        4
 64
     7
 65
   257
 75
     1
175
     1
 42
1.0
 92
       10
 66
     7
 43
1.0
 76
     1
 77
     6
 78
     2
 67
     7
 79
     5
170
     0
171
     0
290
     0
174
     0
 93
        1
 44
0.0
173
     0
291
     1
 45
0.0
1001
ACAD
1000
AcDbSavedByObjectVersion
1070
     0
  0
VISUALSTYLE
  5
237
102
{ACAD_REACTORS
330
30
102
}
102
{ACAD_XDICTIONARY
360
271
102
}
330
30
100
AcDbVisualStyle
  2
Linepattern
 70
    14
 71
     2
 72
     2
 73
     0
 90
        0
 40
0.6
 41
30.0
 62
     5
 63
     7
 74
     1
 91
        4
 64
     7
 65
   257
 75
     7
175
     7
 42
1.0
 92
        8
 66
     7
 43
1.0
 76
     1
 77
     6
 78
     2
 67
     7
 79
     5
170
     0
171
     0
290
     0
174
     0
 93
        1
 44
0.0
173
     0
291
     1
 45
0.0
1001
ACAD
1000
AcDbSavedByObjectVersion
1070
     0
  0
VISUALSTYLE
  5
23B
102
{ACAD_REACTORS
330
30
102
}
102
{ACAD_XDICTIONARY
360
279
102
}
330
30
100
AcDbVisualStyle
  2
OverhangOff
 70
    21
 71
     2
 72
     2
 73
     0
 90
        0
 40
0.6
 41
30.0
 62
     5
 63
     7
 74
     1
 91
        4
 64
     7
 65
   257
 75
     1
175
     1
 42
1.0
 92
        9
 66
     7
 43
1.0
 76
     1
 77
     6
 78
     2
 67
     7
 79
     5
170
     0
171
     0
290
     0
174
     0
 93
        1
 44
0.0
173
     0
291
     1
 45
0.0
1001
ACAD
1000
AcDbSavedByObjectVersion
1070
     0
  0
VISUALSTYLE
  5
232
102
{ACAD_REACTORS
330
30
102
}
102
{ACAD_XDICTIONARY
360
267
102
}
330
30
100
AcDbVisualStyle
  2
Realistic
 70
     8
 71
     2
 72
     3
 73
     0
 90
        2
 40
0.6
 41
30.0
 62
     5
 63
     7
 74
     0
 91
        0
 64
     7
 65
   257
 75
     1
175
     1
 42
1.0
 92
        8
 66
   257
 43
1.0
 76
     1
 77
     6
 78
     2
 67
     7
 79
     3
170
     0
171
     0
290
     0
174
     0
 93
       13
 44
0.0
173
     0
291
     0
 45
0.0
1001
ACAD
1000
AcDbSavedByObjectVersion
1070
     0
  0
VISUALSTYLE
  5
241
102
{ACAD_REACTORS
330
30
102
}
102
{ACAD_XDICTIONARY
360
285
102
}
330
30
100
AcDbVisualStyle
  2
Shaded
 70
    27
 71
     2
 72
     2
 73
     1
 90
        2
 40
0.6
 41
30.0
 62
     5
 63
     7
 74
     0
 91
        4
 64
     7
 65
   257
 75
     1
175
     1
 42
1.0
 92
        8
 66
   257
 43
1.0
 76
     1
 77
     6
 78
     2
 67
   251
 79
     3
170
     0
171
     0
290
     0
174
     0
 93
        5
 44
0.0
173
     0
291
     0
 45
0.0
1001
ACAD
1000
AcDbSavedByObjectVersion
1070
     0
  0
VISUALSTYLE
  5
240
102
{ACAD_REACTORS
330
30
102
}
102
{ACAD_XDICTIONARY
360
283
102
}
330
30
100
AcDbVisualStyle
  2
Shaded with edges
 70
    26
 71
     2
 72
     2
 73
     1
 90
        2
 40
0.6
 41
30.0
 62
     5
 63
     7
 74
     1
 91
       10
 64
     7
 65
   257
 75
     2
175
     1
 42
1.0
 92
        8
 66
   257
 43
1.0
 76
     1
 77
     6
 78
     2
 67
     7
 79
     3
170
     0
171
     0
290
     0
174
     0
 93
        5
 44
0.0
173
     0
291
     0
 45
0.0
1001
ACAD
1000
AcDbSavedByObjectVersion
1070
     0
  0
VISUALSTYLE
  5
23D
102
{ACAD_REACTORS
330
30
102
}
102
{ACAD_XDICTIONARY
360
27D
102
}
330
30
100
AcDbVisualStyle
  2
Shades of Gray
 70
    23
 71
     2
 72
     2
 73
     3
 90
        0
 40
0.6
 41
30.0
 62
     5
 63
     7
 74
     2
 91
        2
 64
     7
 65
     7
 75
     1
175
     1
 42
40.0
 92
        8
 66
     7
 43
1.0
 76
     1
 77
     6
 78
     2
 67
     7
 79
     3
170
     0
171
     0
290
     0
174
     0
 93
        1
 44
0.0
173
     0
291
     0
 45
0.0
1001
ACAD
1000
AcDbSavedByObjectVersion
1070
     0
  0
VISUALSTYLE
  5
23E
102
{ACAD_REACTORS
330
30
102
}
102
{ACAD_XDICTIONARY
360
27F
102
}
330
30
100
AcDbVisualStyle
  2
Sketchy
 70
    24
 71
     1
 72
     2
 73
     2
 90
        0
 40
0.6
 41
30.0
 62
     5
 63
     7
 74
     2
 91
        2
 64
     7
 65
     7
 75
     1
175
     1
 42
40.0
 92
       11
 66
     7
 43
1.0
 76
     1
 77
     6
 78
     2
 67
     7
 79
     6
170
     0
171
     0
290
     0
174
     0
 93
        1
 44
0.0
173
     0
291
     0
 45
0.0
1001
ACAD
1000
AcDbSavedByObjectVersion
1070
     0
  0
VISUALSTYLE
  5
236
102
{ACAD_REACTORS
330
30
102
}
102
{ACAD_XDICTIONARY
360
26F
102
}
330
30
100
AcDbVisualStyle
  2
Thicken
 70
    13
 71
     2
 72
     2
 73
     0
 90
        0
 40
0.6
 41
30.0
 62
     5
 63
     7
 74
     1
 91
        4
 64
     7
 65
   257
 75
     1
175
     1
 42
1.0
 92
       12
 66
     7
 43
1.0
 76
     1
 77
     6
 78
     2
 67
     7
 79
     5
170
     0
171
     0
290
     0
174
     0
 93
        1
 44
0.0
173
     0
291
     1
 45
0.0
1001
ACAD
1000
AcDbSavedByObjectVersion
1070
     0
  0
VISUALSTYLE
  5
22F
102
{ACAD_REACTORS
330
30
102
}
102
{ACAD_XDICTIONARY
360
261
102
}
330
30
100
AcDbVisualStyle
  2
Wireframe
 70
     5
 71
     0
 72
     2
 73
     0
 90
        0
 40
0.6
 41
30.0
 62
     5
 63
     7
 74
     1
 91
        4
 64
     7
 65
   257
 75
     1
175
     1
 42
1.0
 92
        0
 66
   257
 43
1.0
 76
     1
 77
     6
 78
     2
 67
     7
 79
     5
170
     0
171
     0
290
     0
174
     0
 93
        1
 44
0.0
173
     0
291
     0
 45
0.0
1001
ACAD
1000
AcDbSavedByObjectVersion
1070
     0
  0
VISUALSTYLE
  5
23F
102
{ACAD_REACTORS
330
30
102
}
102
{ACAD_XDICTIONARY
360
281
102
}
330
30
100
AcDbVisualStyle
  2
X-Ray
 70
    25
 71
     2
 72
     2
 73
     1
 90
        1
 40
0.5
 41
30.0
 62
     5
 63
     7
 74
     1
 91
        0
 64
     7
 65
   257
 75
     1
175
     1
 42
1.0
 92
        8
 66
     7
 43
1.0
 76
     1
 77
     6
 78
     2
 67
     7
 79
     3
170
     0
171
     0
290
     0
174
     0
 93
       13
 44
0.0
173
     0
291
     0
 45
0.0
1001
ACAD
1000
AcDbSavedByObjectVersion
1070
     0
  0
XRECORD
  5
24B
102
{ACAD_REACTORS
330
24A
102
}
330
24A
100
AcDbXrecord
280
     1
340
2F
  0
XRECORD
  5
24C
102
{ACAD_REACTORS
330
24A
102
}
330
24A
100
AcDbXrecord
280
     1
340
B
  0
DICTIONARYVAR
  5
225
102
{ACAD_REACTORS
330
224
102
}
330
224
100
DictionaryVariables
280
     0
  1
1:1
  0
DICTIONARYVAR
  5
246
102
{ACAD_REACTORS
330
224
102
}
330
224
100
DictionaryVariables
280
     0
  1
Standard
  0
DICTIONARYVAR
  5
245
102
{ACAD_REACTORS
330
224
102
}
330
224
100
DictionaryVariables
280
     0
  1
Standard
  0
DICTIONARYVAR
  5
247
102
{ACAD_REACTORS
330
224
102
}
330
224
100
DictionaryVariables
280
     0
  1
0
  0
DICTIONARYVAR
  5
248
102
{ACAD_REACTORS
330
224
102
}
330
224
100
DictionaryVariables
280
     0
  1
0
  0
DICTIONARYVAR
  5
250
102
{ACAD_REACTORS
330
224
102
}
330
224
100
DictionaryVariables
280
     0
  1
1
  0
DICTIONARYVAR
  5
249
102
{ACAD_REACTORS
330
224
102
}
330
224
100
DictionaryVariables
280
     0
  1
0
  0
DICTIONARY
  5
255
330
57
100
AcDbDictionary
280
     1
281
     1
  3
ACAD_XREC_ROUNDTRIP
360
256
  0
DICTIONARY
  5
251
330
14
100
AcDbDictionary
280
     1
281
     1
  3
ACAD_XREC_ROUNDTRIP
360
252
  0
DICTIONARY
  5
253
330
A
100
AcDbDictionary
280
     1
281
     1
  3
ACAD_XREC_ROUNDTRIP
360
254
  0
DICTIONARY
  5
287
330
243
100
AcDbDictionary
280
     1
281
     1
  3
ACAD_XREC_ROUNDTRIP
360
288
  0
DICTIONARY
  5
25F
330
22E
100
AcDbDictionary
280
     1
281
     1
  3
ACAD_XREC_ROUNDTRIP
360
260
  0
DICTIONARY
  5
265
330
231
100
AcDbDictionary
280
     1
281
     1
  3
ACAD_XREC_ROUNDTRIP
360
266
  0
DICTIONARY
  5
26D
330
235
100
AcDbDictionary
280
     1
281
     1
  3
ACAD_XREC_ROUNDTRIP
360
26E
  0
DICTIONARY
  5
275
330
239
100
AcDbDictionary
280
     1
281
     1
  3
ACAD_XREC_ROUNDTRIP
360
276
  0
DICTIONARY
  5
269
330
233
100
AcDbDictionary
280
     1
281
     1
  3
ACAD_XREC_ROUNDTRIP
360
26A
  0
DICTIONARY
  5
26B
330
234
100
AcDbDictionary
280
     1
281
     1
  3
ACAD_XREC_ROUNDTRIP
360
26C
  0
DICTIONARY
  5
27B
330
23C
100
AcDbDictionary
280
     1
281
     1
  3
ACAD_XREC_ROUNDTRIP
360
27C
  0
DICTIONARY
  5
273
330
238
100
AcDbDictionary
280
     1
281
     1
  3
ACAD_XREC_ROUNDTRIP
360
274
  0
DICTIONARY
  5
257
330
22A
100
AcDbDictionary
280
     1
281
     1
  3
ACAD_XREC_ROUNDTRIP
360
258
  0
DICTIONARY
  5
259
330
22B
100
AcDbDictionary
280
     1
281
     1
  3
ACAD_XREC_ROUNDTRIP
360
25A
  0
DICTIONARY
  5
25B
330
22C
100
AcDbDictionary
280
     1
281
     1
  3
ACAD_XREC_ROUNDTRIP
360
25C
  0
DICTIONARY
  5
25D
330
22D
100
AcDbDictionary
280
     1
281
     1
  3
ACAD_XREC_ROUNDTRIP
360
25E
  0
DICTIONARY
  5
263
330
230
100
AcDbDictionary
280
     1
281
     1
  3
ACAD_XREC_ROUNDTRIP
360
264
  0
DICTIONARY
  5
277
330
23A
100
AcDbDictionary
280
     1
281
     1
  3
ACAD_XREC_ROUNDTRIP
360
278
  0
DICTIONARY
  5
271
330
237
100
AcDbDictionary
280
     1
281
     1
  3
ACAD_XREC_ROUNDTRIP
360
272
  0
DICTIONARY
  5
279
330
23B
100
AcDbDictionary
280
     1
281
     1
  3
ACAD_XREC_ROUNDTRIP
360
27A
  0
DICTIONARY
  5
267
330
232
100
AcDbDictionary
280
     1
281
     1
  3
ACAD_XREC_ROUNDTRIP
360
268
  0
DICTIONARY
  5
285
330
241
100
AcDbDictionary
280
     1
281
     1
  3
ACAD_XREC_ROUNDTRIP
360
286
  0
DICTIONARY
  5
283
330
240
100
AcDbDictionary
280
     1
281
     1
  3
ACAD_XREC_ROUNDTRIP
360
284
  0
DICTIONARY
  5
27D
330
23D
100
AcDbDictionary
280
     1
281
     1
  3
ACAD_XREC_ROUNDTRIP
360
27E
  0
DICTIONARY
  5
27F
330
23E
100
AcDbDictionary
280
     1
281
     1
  3
ACAD_XREC_ROUNDTRIP
360
280
  0
DICTIONARY
  5
26F
330
236
100
AcDbDictionary
280
     1
281
     1
  3
ACAD_XREC_ROUNDTRIP
360
270
  0
DICTIONARY
  5
261
330
22F
100
AcDbDictionary
280
     1
281
     1
  3
ACAD_XREC_ROUNDTRIP
360
262
  0
DICTIONARY
  5
281
330
23F
100
AcDbDictionary
280
     1
281
     1
  3
ACAD_XREC_ROUNDTRIP
360
282
  0
XRECORD
  5
256
102
{ACAD_REACTORS
330
255
102
}
330
255
100
AcDbXrecord
280
     1
102
MATERIAL
148
0.0
149
0.0
149
0.0
 93
        0
 94
      127
282
     0
 72
     0
 77
     0
171
     0
175
     0
179
     0
273
     0
  0
XRECORD
  5
252
102
{ACAD_REACTORS
330
251
102
}
330
251
100
AcDbXrecord
280
     1
102
MATERIAL
148
0.0
149
0.0
149
0.0
 93
        0
 94
      127
282
     0
 72
     0
 77
     0
171
     0
175
     0
179
     0
273
     0
  0
XRECORD
  5
254
102
{ACAD_REACTORS
330
253
102
}
330
253
100
AcDbXrecord
280
     1
102
MATERIAL
148
0.0
149
0.0
149
0.0
 93
        0
 94
      127
282
     0
 72
     0
 77
     0
171
     0
175
     0
179
     0
273
     0
  0
XRECORD
  5
288
102
{ACAD_REACTORS
330
287
102
}
330
287
100
AcDbXrecord
280
     1
102
ACAD_ROUNDTRIP_2010_MLEADER_STYLE
  0
XRECORD
  5
260
102
{ACAD_REACTORS
330
25F
102
}
330
25F
100
AcDbXrecord
280
     1
102
RTVSPropertyOp0
 70
     1
102
RTVSPropertyOp1
 70
     1
102
RTVSPropertyOp2
 70
     1
102
RTVSPropertyOp3
 70
     1
102
RTVSPropertyOp4
 70
     1
102
RTVSPropertyOp5
 70
     1
102
RTVSPropertyOp6
 70
     1
102
RTVSPropertyOp7
 70
     1
102
RTVSPropertyOp8
 70
     1
102
RTVSPropertyOp9
 70
     1
102
RTVSPropertyOp10
 70
     1
102
RTVSPropertyOp11
 70
     1
102
RTVSPropertyOp12
 70
     1
102
RTVSPropertyOp13
 70
     1
102
RTVSPropertyOp14
 70
     1
102
RTVSPropertyOp15
 70
     1
102
RTVSPropertyOp16
 70
     1
102
RTVSPropertyOp17
 70
     1
102
RTVSPropertyOp18
 70
     1
102
RTVSPropertyOp19
 70
     1
102
RTVSPropertyOp20
 70
     1
102
RTVSPropertyOp21
 70
     1
102
RTVSPropertyOp22
 70
     1
102
RTVSPropertyOp23
 70
     1
102
RTVSPropertyOp24
 70
     1
102
RTVSPropertyOp25
 70
     1
102
RTVSPropertyOp26
 70
     1
102
RTVSPropertyOp27
 70
     1
102
RTVSPropertyOp28
 70
     1
102
RTVSPropertyOp29
 70
     1
102
RTVSPropertyOp30
 70
     1
102
RTVSPropertyOp31
 70
     1
102
RTVSPropertyOp32
 70
     1
102
RTVSPropertyOp33
 70
     1
102
RTVSPropertyOp34
 70
     1
102
RTVSPropertyOp35
 70
     1
102
RTVSPropertyOp36
 70
     1
102
RTVSPropertyOp37
 70
     1
102
RTVSPropertyOp38
 70
     1
102
RTVSPropertyOp39
 70
     1
102
RTVSPropertyOp40
 70
     1
102
RTVSPropertyOp41
 70
     1
102
RTVSPropertyOp42
 70
     1
102
RTVSPropertyOp43
 70
     1
102
RTVSPropertyOp44
 70
     1
102
RTVSPropertyOp45
 70
     1
102
RTVSPropertyOp46
 70
     1
102
RTVSPropertyOp47
 70
     1
102
RTVSPropertyOp48
 70
     1
102
RTVSPropertyOp49
 70
     1
102
RTVSPropertyOp50
 70
     1
102
RTVSPropertyOp51
 70
     0
102
RTVSPropertyOp52
 70
     0
102
RTVSPropertyOp53
 70
     1
102
RTVSPropertyOp54
 70
     1
102
RTVSPropertyOp55
 70
     1
102
RTVSPropertyOp56
 70
     1
102
RTVSPropertyOp57
 70
     1
102
RTVSPost2010Prop28
280
     1
102
RTVSPost2010PropOp28
 70
     1
102
RTVSPost2010Prop29
280
     1
102
RTVSPost2010PropOp29
 70
     1
102
RTVSPost2010Prop30
280
     0
102
RTVSPost2010PropOp30
 70
     1
102
RTVSPost2010Prop31
280
     0
102
RTVSPost2010PropOp31
 70
     1
102
RTVSPost2010Prop32
280
     0
102
RTVSPost2010PropOp32
 70
     1
102
RTVSPost2010Prop33
280
     0
102
RTVSPost2010PropOp33
 70
     1
102
RTVSPost2010Prop34
280
     0
102
RTVSPost2010PropOp34
 70
     1
102
RTVSPost2010Prop35
280
     0
102
RTVSPost2010PropOp35
 70
     1
102
RTVSPost2010Prop36
280
     0
102
RTVSPost2010PropOp36
 70
     1
102
RTVSPost2010Prop37
 90
       50
102
RTVSPost2010PropOp37
 70
     1
102
RTVSPost2010Prop38
140
0.0
102
RTVSPost2010PropOp38
 70
     1
102
RTVSPost2010Prop39
140
1.0
102
RTVSPost2010PropOp39
 70
     1
102
RTVSPost2010Prop40
 90
        0
102
RTVSPost2010PropOp40
 70
     1
102
RTVSPost2010Prop41ColorIndex
 90
       18
102
RTVSPost2010Prop41ColorRGB
 90
        0
102
RTVSPost2010PropOp41
 70
     1
102
RTVSPost2010Prop42
 90
       50
102
RTVSPost2010PropOp42
 70
     1
102
RTVSPost2010Prop43
 90
        3
102
RTVSPost2010PropOp43
 70
     1
102
RTVSPost2010Prop44ColorIndex
 90
        5
102
RTVSPost2010Prop44ColorRGB
 90
      255
102
RTVSPost2010PropOp44
 70
     1
102
RTVSPost2010Prop45
280
     0
102
RTVSPost2010PropOp45
 70
     1
102
RTVSPost2010Prop46
 90
       50
102
RTVSPost2010PropOp46
 70
     1
102
RTVSPost2010Prop47
 90
       50
102
RTVSPost2010PropOp47
 70
     1
102
RTVSPost2010Prop48
 90
       50
102
RTVSPost2010PropOp48
 70
     1
102
RTVSPost2010Prop49
280
     0
102
RTVSPost2010PropOp49
 70
     1
102
RTVSPost2010Prop50
 90
       50
102
RTVSPost2010PropOp50
 70
     1
102
RTVSPost2010Prop51ColorIndex
 90
      256
102
RTVSPost2010Prop51ColorRGB
 90
-16777216
102
RTVSPost2010PropOp51
 70
     0
102
RTVSPost2010Prop52
140
1.0
102
RTVSPost2010PropOp52
 70
     0
102
RTVSPost2010Prop53
 90
        2
102
RTVSPost2010PropOp53
 70
     1
102
RTVSPost2010Prop54
  1
strokes_ogs.tif
102
RTVSPost2010PropOp54
 70
     1
102
RTVSPost2010Prop55
280
     0
102
RTVSPost2010PropOp55
 70
     1
102
RTVSPost2010Prop56
140
1.0
102
RTVSPost2010PropOp56
 70
     1
102
RTVSPost2010Prop57
140
1.0
102
RTVSPost2010PropOp57
 70
     1
  0
XRECORD
  5
266
102
{ACAD_REACTORS
330
265
102
}
330
265
100
AcDbXrecord
280
     1
102
RTVSPropertyOp0
 70
     1
102
RTVSPropertyOp1
 70
     1
102
RTVSPropertyOp2
 70
     1
102
RTVSPropertyOp3
 70
     1
102
RTVSPropertyOp4
 70
     1
102
RTVSPropertyOp5
 70
     1
102
RTVSPropertyOp6
 70
     1
102
RTVSPropertyOp7
 70
     1
102
RTVSPropertyOp8
 70
     1
102
RTVSPropertyOp9
 70
     1
102
RTVSPropertyOp10
 70
     1
102
RTVSPropertyOp11
 70
     1
102
RTVSPropertyOp12
 70
     1
102
RTVSPropertyOp13
 70
     1
102
RTVSPropertyOp14
 70
     1
102
RTVSPropertyOp15
 70
     1
102
RTVSPropertyOp16
 70
     1
102
RTVSPropertyOp17
 70
     1
102
RTVSPropertyOp18
 70
     1
102
RTVSPropertyOp19
 70
     1
102
RTVSPropertyOp20
 70
     1
102
RTVSPropertyOp21
 70
     1
102
RTVSPropertyOp22
 70
     1
102
RTVSPropertyOp23
 70
     1
102
RTVSPropertyOp24
 70
     1
102
RTVSPropertyOp25
 70
     1
102
RTVSPropertyOp26
 70
     1
102
RTVSPropertyOp27
 70
     1
102
RTVSPropertyOp28
 70
     1
102
RTVSPropertyOp29
 70
     1
102
RTVSPropertyOp30
 70
     1
102
RTVSPropertyOp31
 70
     1
102
RTVSPropertyOp32
 70
     1
102
RTVSPropertyOp33
 70
     1
102
RTVSPropertyOp34
 70
     1
102
RTVSPropertyOp35
 70
     1
102
RTVSPropertyOp36
 70
     1
102
RTVSPropertyOp37
 70
     1
102
RTVSPropertyOp38
 70
     1
102
RTVSPropertyOp39
 70
     1
102
RTVSPropertyOp40
 70
     1
102
RTVSPropertyOp41
 70
     1
102
RTVSPropertyOp42
 70
     1
102
RTVSPropertyOp43
 70
     1
102
RTVSPropertyOp44
 70
     1
102
RTVSPropertyOp45
 70
     1
102
RTVSPropertyOp46
 70
     1
102
RTVSPropertyOp47
 70
     1
102
RTVSPropertyOp48
 70
     1
102
RTVSPropertyOp49
 70
     1
102
RTVSPropertyOp50
 70
     1
102
RTVSPropertyOp51
 70
     0
102
RTVSPropertyOp52
 70
     0
102
RTVSPropertyOp53
 70
     1
102
RTVSPropertyOp54
 70
     1
102
RTVSPropertyOp55
 70
     1
102
RTVSPropertyOp56
 70
     1
102
RTVSPropertyOp57
 70
     1
102
RTVSPost2010Prop28
280
     0
102
RTVSPost2010PropOp28
 70
     1
102
RTVSPost2010Prop29
280
     1
102
RTVSPost2010PropOp29
 70
     1
102
RTVSPost2010Prop30
280
     1
102
RTVSPost2010PropOp30
 70
     1
102
RTVSPost2010Prop31
280
     0
102
RTVSPost2010PropOp31
 70
     1
102
RTVSPost2010Prop32
280
     0
102
RTVSPost2010PropOp32
 70
     1
102
RTVSPost2010Prop33
280
     0
102
RTVSPost2010PropOp33
 70
     1
102
RTVSPost2010Prop34
280
     0
102
RTVSPost2010PropOp34
 70
     1
102
RTVSPost2010Prop35
280
     0
102
RTVSPost2010PropOp35
 70
     1
102
RTVSPost2010Prop36
280
     0
102
RTVSPost2010PropOp36
 70
     1
102
RTVSPost2010Prop37
 90
       50
102
RTVSPost2010PropOp37
 70
     1
102
RTVSPost2010Prop38
140
0.0
102
RTVSPost2010PropOp38
 70
     1
102
RTVSPost2010Prop39
140
1.0
102
RTVSPost2010PropOp39
 70
     1
102
RTVSPost2010Prop40
 90
        0
102
RTVSPost2010PropOp40
 70
     1
102
RTVSPost2010Prop41ColorIndex
 90
       18
102
RTVSPost2010Prop41ColorRGB
 90
        0
102
RTVSPost2010PropOp41
 70
     1
102
RTVSPost2010Prop42
 90
       50
102
RTVSPost2010PropOp42
 70
     1
102
RTVSPost2010Prop43
 90
        3
102
RTVSPost2010PropOp43
 70
     1
102
RTVSPost2010Prop44ColorIndex
 90
        5
102
RTVSPost2010Prop44ColorRGB
 90
      255
102
RTVSPost2010PropOp44
 70
     1
102
RTVSPost2010Prop45
280
     0
102
RTVSPost2010PropOp45
 70
     1
102
RTVSPost2010Prop46
 90
       50
102
RTVSPost2010PropOp46
 70
     1
102
RTVSPost2010Prop47
 90
       50
102
RTVSPost2010PropOp47
 70
     1
102
RTVSPost2010Prop48
 90
       50
102
RTVSPost2010PropOp48
 70
     1
102
RTVSPost2010Prop49
280
     0
102
RTVSPost2010PropOp49
 70
     1
102
RTVSPost2010Prop50
 90
       50
102
RTVSPost2010PropOp50
 70
     1
102
RTVSPost2010Prop51ColorIndex
 90
      256
102
RTVSPost2010Prop51ColorRGB
 90
-16777216
102
RTVSPost2010PropOp51
 70
     0
102
RTVSPost2010Prop52
140
1.0
102
RTVSPost2010PropOp52
 70
     0
102
RTVSPost2010Prop53
 90
        2
102
RTVSPost2010PropOp53
 70
     1
102
RTVSPost2010Prop54
  1
strokes_ogs.tif
102
RTVSPost2010PropOp54
 70
     1
102
RTVSPost2010Prop55
280
     0
102
RTVSPost2010PropOp55
 70
     1
102
RTVSPost2010Prop56
140
1.0
102
RTVSPost2010PropOp56
 70
     1
102
RTVSPost2010Prop57
140
1.0
102
RTVSPost2010PropOp57
 70
     1
  0
XRECORD
  5
26E
102
{ACAD_REACTORS
330
26D
102
}
330
26D
100
AcDbXrecord
280
     1
102
RTVSPropertyOp0
 70
     1
102
RTVSPropertyOp1
 70
     1
102
RTVSPropertyOp2
 70
     1
102
RTVSPropertyOp3
 70
     1
102
RTVSPropertyOp4
 70
     1
102
RTVSPropertyOp5
 70
     1
102
RTVSPropertyOp6
 70
     1
102
RTVSPropertyOp7
 70
     1
102
RTVSPropertyOp8
 70
     1
102
RTVSPropertyOp9
 70
     1
102
RTVSPropertyOp10
 70
     1
102
RTVSPropertyOp11
 70
     1
102
RTVSPropertyOp12
 70
     1
102
RTVSPropertyOp13
 70
     1
102
RTVSPropertyOp14
 70
     1
102
RTVSPropertyOp15
 70
     1
102
RTVSPropertyOp16
 70
     1
102
RTVSPropertyOp17
 70
     1
102
RTVSPropertyOp18
 70
     1
102
RTVSPropertyOp19
 70
     1
102
RTVSPropertyOp20
 70
     1
102
RTVSPropertyOp21
 70
     1
102
RTVSPropertyOp22
 70
     1
102
RTVSPropertyOp23
 70
     1
102
RTVSPropertyOp24
 70
     1
102
RTVSPropertyOp25
 70
     1
102
RTVSPropertyOp26
 70
     1
102
RTVSPropertyOp27
 70
     1
102
RTVSPropertyOp28
 70
     1
102
RTVSPropertyOp29
 70
     1
102
RTVSPropertyOp30
 70
     1
102
RTVSPropertyOp31
 70
     1
102
RTVSPropertyOp32
 70
     1
102
RTVSPropertyOp33
 70
     1
102
RTVSPropertyOp34
 70
     1
102
RTVSPropertyOp35
 70
     1
102
RTVSPropertyOp36
 70
     1
102
RTVSPropertyOp37
 70
     1
102
RTVSPropertyOp38
 70
     1
102
RTVSPropertyOp39
 70
     1
102
RTVSPropertyOp40
 70
     1
102
RTVSPropertyOp41
 70
     1
102
RTVSPropertyOp42
 70
     1
102
RTVSPropertyOp43
 70
     1
102
RTVSPropertyOp44
 70
     1
102
RTVSPropertyOp45
 70
     1
102
RTVSPropertyOp46
 70
     1
102
RTVSPropertyOp47
 70
     1
102
RTVSPropertyOp48
 70
     1
102
RTVSPropertyOp49
 70
     1
102
RTVSPropertyOp50
 70
     1
102
RTVSPropertyOp51
 70
     0
102
RTVSPropertyOp52
 70
     0
102
RTVSPropertyOp53
 70
     1
102
RTVSPropertyOp54
 70
     1
102
RTVSPropertyOp55
 70
     1
102
RTVSPropertyOp56
 70
     1
102
RTVSPropertyOp57
 70
     1
102
RTVSPost2010Prop28
280
     0
102
RTVSPost2010PropOp28
 70
     1
102
RTVSPost2010Prop29
280
     1
102
RTVSPost2010PropOp29
 70
     1
102
RTVSPost2010Prop30
280
     1
102
RTVSPost2010PropOp30
 70
     1
102
RTVSPost2010Prop31
280
     0
102
RTVSPost2010PropOp31
 70
     1
102
RTVSPost2010Prop32
280
     0
102
RTVSPost2010PropOp32
 70
     1
102
RTVSPost2010Prop33
280
     0
102
RTVSPost2010PropOp33
 70
     1
102
RTVSPost2010Prop34
280
     0
102
RTVSPost2010PropOp34
 70
     1
102
RTVSPost2010Prop35
280
     0
102
RTVSPost2010PropOp35
 70
     1
102
RTVSPost2010Prop36
280
     0
102
RTVSPost2010PropOp36
 70
     1
102
RTVSPost2010Prop37
 90
       50
102
RTVSPost2010PropOp37
 70
     1
102
RTVSPost2010Prop38
140
0.0
102
RTVSPost2010PropOp38
 70
     1
102
RTVSPost2010Prop39
140
1.0
102
RTVSPost2010PropOp39
 70
     1
102
RTVSPost2010Prop40
 90
        0
102
RTVSPost2010PropOp40
 70
     1
102
RTVSPost2010Prop41ColorIndex
 90
       18
102
RTVSPost2010Prop41ColorRGB
 90
        0
102
RTVSPost2010PropOp41
 70
     1
102
RTVSPost2010Prop42
 90
       50
102
RTVSPost2010PropOp42
 70
     1
102
RTVSPost2010Prop43
 90
        3
102
RTVSPost2010PropOp43
 70
     1
102
RTVSPost2010Prop44ColorIndex
 90
        5
102
RTVSPost2010Prop44ColorRGB
 90
      255
102
RTVSPost2010PropOp44
 70
     1
102
RTVSPost2010Prop45
280
     0
102
RTVSPost2010PropOp45
 70
     1
102
RTVSPost2010Prop46
 90
       50
102
RTVSPost2010PropOp46
 70
     1
102
RTVSPost2010Prop47
 90
       50
102
RTVSPost2010PropOp47
 70
     1
102
RTVSPost2010Prop48
 90
       50
102
RTVSPost2010PropOp48
 70
     1
102
RTVSPost2010Prop49
280
     0
102
RTVSPost2010PropOp49
 70
     1
102
RTVSPost2010Prop50
 90
       50
102
RTVSPost2010PropOp50
 70
     1
102
RTVSPost2010Prop51ColorIndex
 90
      256
102
RTVSPost2010Prop51ColorRGB
 90
-16777216
102
RTVSPost2010PropOp51
 70
     0
102
RTVSPost2010Prop52
140
1.0
102
RTVSPost2010PropOp52
 70
     0
102
RTVSPost2010Prop53
 90
        2
102
RTVSPost2010PropOp53
 70
     1
102
RTVSPost2010Prop54
  1
strokes_ogs.tif
102
RTVSPost2010PropOp54
 70
     1
102
RTVSPost2010Prop55
280
     0
102
RTVSPost2010PropOp55
 70
     1
102
RTVSPost2010Prop56
140
1.0
102
RTVSPost2010PropOp56
 70
     1
102
RTVSPost2010Prop57
140
1.0
102
RTVSPost2010PropOp57
 70
     1
  0
XRECORD
  5
276
102
{ACAD_REACTORS
330
275
102
}
330
275
100
AcDbXrecord
280
     1
102
RTVSPropertyOp0
 70
     1
102
RTVSPropertyOp1
 70
     1
102
RTVSPropertyOp2
 70
     1
102
RTVSPropertyOp3
 70
     1
102
RTVSPropertyOp4
 70
     1
102
RTVSPropertyOp5
 70
     1
102
RTVSPropertyOp6
 70
     1
102
RTVSPropertyOp7
 70
     1
102
RTVSPropertyOp8
 70
     1
102
RTVSPropertyOp9
 70
     1
102
RTVSPropertyOp10
 70
     1
102
RTVSPropertyOp11
 70
     1
102
RTVSPropertyOp12
 70
     1
102
RTVSPropertyOp13
 70
     1
102
RTVSPropertyOp14
 70
     1
102
RTVSPropertyOp15
 70
     1
102
RTVSPropertyOp16
 70
     1
102
RTVSPropertyOp17
 70
     1
102
RTVSPropertyOp18
 70
     1
102
RTVSPropertyOp19
 70
     1
102
RTVSPropertyOp20
 70
     1
102
RTVSPropertyOp21
 70
     1
102
RTVSPropertyOp22
 70
     1
102
RTVSPropertyOp23
 70
     1
102
RTVSPropertyOp24
 70
     1
102
RTVSPropertyOp25
 70
     1
102
RTVSPropertyOp26
 70
     1
102
RTVSPropertyOp27
 70
     1
102
RTVSPropertyOp28
 70
     1
102
RTVSPropertyOp29
 70
     1
102
RTVSPropertyOp30
 70
     1
102
RTVSPropertyOp31
 70
     1
102
RTVSPropertyOp32
 70
     1
102
RTVSPropertyOp33
 70
     1
102
RTVSPropertyOp34
 70
     1
102
RTVSPropertyOp35
 70
     1
102
RTVSPropertyOp36
 70
     1
102
RTVSPropertyOp37
 70
     1
102
RTVSPropertyOp38
 70
     1
102
RTVSPropertyOp39
 70
     1
102
RTVSPropertyOp40
 70
     1
102
RTVSPropertyOp41
 70
     1
102
RTVSPropertyOp42
 70
     1
102
RTVSPropertyOp43
 70
     1
102
RTVSPropertyOp44
 70
     1
102
RTVSPropertyOp45
 70
     1
102
RTVSPropertyOp46
 70
     1
102
RTVSPropertyOp47
 70
     1
102
RTVSPropertyOp48
 70
     1
102
RTVSPropertyOp49
 70
     1
102
RTVSPropertyOp50
 70
     1
102
RTVSPropertyOp51
 70
     0
102
RTVSPropertyOp52
 70
     0
102
RTVSPropertyOp53
 70
     1
102
RTVSPropertyOp54
 70
     1
102
RTVSPropertyOp55
 70
     1
102
RTVSPropertyOp56
 70
     1
102
RTVSPropertyOp57
 70
     1
102
RTVSPost2010Prop28
280
     0
102
RTVSPost2010PropOp28
 70
     1
102
RTVSPost2010Prop29
280
     1
102
RTVSPost2010PropOp29
 70
     1
102
RTVSPost2010Prop30
280
     1
102
RTVSPost2010PropOp30
 70
     1
102
RTVSPost2010Prop31
280
     0
102
RTVSPost2010PropOp31
 70
     1
102
RTVSPost2010Prop32
280
     0
102
RTVSPost2010PropOp32
 70
     1
102
RTVSPost2010Prop33
280
     0
102
RTVSPost2010PropOp33
 70
     1
102
RTVSPost2010Prop34
280
     0
102
RTVSPost2010PropOp34
 70
     1
102
RTVSPost2010Prop35
280
     0
102
RTVSPost2010PropOp35
 70
     1
102
RTVSPost2010Prop36
280
     0
102
RTVSPost2010PropOp36
 70
     1
102
RTVSPost2010Prop37
 90
       50
102
RTVSPost2010PropOp37
 70
     1
102
RTVSPost2010Prop38
140
0.0
102
RTVSPost2010PropOp38
 70
     1
102
RTVSPost2010Prop39
140
1.0
102
RTVSPost2010PropOp39
 70
     1
102
RTVSPost2010Prop40
 90
        0
102
RTVSPost2010PropOp40
 70
     1
102
RTVSPost2010Prop41ColorIndex
 90
       18
102
RTVSPost2010Prop41ColorRGB
 90
        0
102
RTVSPost2010PropOp41
 70
     1
102
RTVSPost2010Prop42
 90
       50
102
RTVSPost2010PropOp42
 70
     1
102
RTVSPost2010Prop43
 90
        3
102
RTVSPost2010PropOp43
 70
     1
102
RTVSPost2010Prop44ColorIndex
 90
        5
102
RTVSPost2010Prop44ColorRGB
 90
      255
102
RTVSPost2010PropOp44
 70
     1
102
RTVSPost2010Prop45
280
     0
102
RTVSPost2010PropOp45
 70
     1
102
RTVSPost2010Prop46
 90
       50
102
RTVSPost2010PropOp46
 70
     1
102
RTVSPost2010Prop47
 90
       50
102
RTVSPost2010PropOp47
 70
     1
102
RTVSPost2010Prop48
 90
       50
102
RTVSPost2010PropOp48
 70
     1
102
RTVSPost2010Prop49
280
     0
102
RTVSPost2010PropOp49
 70
     1
102
RTVSPost2010Prop50
 90
       50
102
RTVSPost2010PropOp50
 70
     1
102
RTVSPost2010Prop51ColorIndex
 90
      256
102
RTVSPost2010Prop51ColorRGB
 90
-16777216
102
RTVSPost2010PropOp51
 70
     0
102
RTVSPost2010Prop52
140
1.0
102
RTVSPost2010PropOp52
 70
     0
102
RTVSPost2010Prop53
 90
        2
102
RTVSPost2010PropOp53
 70
     1
102
RTVSPost2010Prop54
  1
strokes_ogs.tif
102
RTVSPost2010PropOp54
 70
     1
102
RTVSPost2010Prop55
280
     0
102
RTVSPost2010PropOp55
 70
     1
102
RTVSPost2010Prop56
140
1.0
102
RTVSPost2010PropOp56
 70
     1
102
RTVSPost2010Prop57
140
1.0
102
RTVSPost2010PropOp57
 70
     1
  0
XRECORD
  5
26A
102
{ACAD_REACTORS
330
269
102
}
330
269
100
AcDbXrecord
280
     1
102
RTVSPropertyOp0
 70
     1
102
RTVSPropertyOp1
 70
     1
102
RTVSPropertyOp2
 70
     1
102
RTVSPropertyOp3
 70
     1
102
RTVSPropertyOp4
 70
     1
102
RTVSPropertyOp5
 70
     1
102
RTVSPropertyOp6
 70
     1
102
RTVSPropertyOp7
 70
     1
102
RTVSPropertyOp8
 70
     1
102
RTVSPropertyOp9
 70
     1
102
RTVSPropertyOp10
 70
     1
102
RTVSPropertyOp11
 70
     1
102
RTVSPropertyOp12
 70
     1
102
RTVSPropertyOp13
 70
     1
102
RTVSPropertyOp14
 70
     1
102
RTVSPropertyOp15
 70
     1
102
RTVSPropertyOp16
 70
     1
102
RTVSPropertyOp17
 70
     1
102
RTVSPropertyOp18
 70
     1
102
RTVSPropertyOp19
 70
     1
102
RTVSPropertyOp20
 70
     1
102
RTVSPropertyOp21
 70
     1
102
RTVSPropertyOp22
 70
     1
102
RTVSPropertyOp23
 70
     1
102
RTVSPropertyOp24
 70
     1
102
RTVSPropertyOp25
 70
     1
102
RTVSPropertyOp26
 70
     1
102
RTVSPropertyOp27
 70
     1
102
RTVSPropertyOp28
 70
     1
102
RTVSPropertyOp29
 70
     1
102
RTVSPropertyOp30
 70
     1
102
RTVSPropertyOp31
 70
     1
102
RTVSPropertyOp32
 70
     1
102
RTVSPropertyOp33
 70
     1
102
RTVSPropertyOp34
 70
     1
102
RTVSPropertyOp35
 70
     1
102
RTVSPropertyOp36
 70
     1
102
RTVSPropertyOp37
 70
     1
102
RTVSPropertyOp38
 70
     1
102
RTVSPropertyOp39
 70
     1
102
RTVSPropertyOp40
 70
     1
102
RTVSPropertyOp41
 70
     1
102
RTVSPropertyOp42
 70
     1
102
RTVSPropertyOp43
 70
     1
102
RTVSPropertyOp44
 70
     1
102
RTVSPropertyOp45
 70
     1
102
RTVSPropertyOp46
 70
     1
102
RTVSPropertyOp47
 70
     1
102
RTVSPropertyOp48
 70
     1
102
RTVSPropertyOp49
 70
     1
102
RTVSPropertyOp50
 70
     1
102
RTVSPropertyOp51
 70
     0
102
RTVSPropertyOp52
 70
     0
102
RTVSPropertyOp53
 70
     1
102
RTVSPropertyOp54
 70
     1
102
RTVSPropertyOp55
 70
     1
102
RTVSPropertyOp56
 70
     1
102
RTVSPropertyOp57
 70
     1
102
RTVSPost2010Prop28
280
     0
102
RTVSPost2010PropOp28
 70
     1
102
RTVSPost2010Prop29
280
     1
102
RTVSPost2010PropOp29
 70
     1
102
RTVSPost2010Prop30
280
     1
102
RTVSPost2010PropOp30
 70
     1
102
RTVSPost2010Prop31
280
     0
102
RTVSPost2010PropOp31
 70
     1
102
RTVSPost2010Prop32
280
     0
102
RTVSPost2010PropOp32
 70
     1
102
RTVSPost2010Prop33
280
     0
102
RTVSPost2010PropOp33
 70
     1
102
RTVSPost2010Prop34
280
     0
102
RTVSPost2010PropOp34
 70
     1
102
RTVSPost2010Prop35
280
     0
102
RTVSPost2010PropOp35
 70
     1
102
RTVSPost2010Prop36
280
     0
102
RTVSPost2010PropOp36
 70
     1
102
RTVSPost2010Prop37
 90
       50
102
RTVSPost2010PropOp37
 70
     1
102
RTVSPost2010Prop38
140
0.0
102
RTVSPost2010PropOp38
 70
     1
102
RTVSPost2010Prop39
140
1.0
102
RTVSPost2010PropOp39
 70
     1
102
RTVSPost2010Prop40
 90
        0
102
RTVSPost2010PropOp40
 70
     1
102
RTVSPost2010Prop41ColorIndex
 90
       18
102
RTVSPost2010Prop41ColorRGB
 90
        0
102
RTVSPost2010PropOp41
 70
     1
102
RTVSPost2010Prop42
 90
       50
102
RTVSPost2010PropOp42
 70
     1
102
RTVSPost2010Prop43
 90
        3
102
RTVSPost2010PropOp43
 70
     1
102
RTVSPost2010Prop44ColorIndex
 90
        5
102
RTVSPost2010Prop44ColorRGB
 90
      255
102
RTVSPost2010PropOp44
 70
     1
102
RTVSPost2010Prop45
280
     0
102
RTVSPost2010PropOp45
 70
     1
102
RTVSPost2010Prop46
 90
       50
102
RTVSPost2010PropOp46
 70
     1
102
RTVSPost2010Prop47
 90
       50
102
RTVSPost2010PropOp47
 70
     1
102
RTVSPost2010Prop48
 90
       50
102
RTVSPost2010PropOp48
 70
     1
102
RTVSPost2010Prop49
280
     0
102
RTVSPost2010PropOp49
 70
     1
102
RTVSPost2010Prop50
 90
       50
102
RTVSPost2010PropOp50
 70
     1
102
RTVSPost2010Prop51ColorIndex
 90
      256
102
RTVSPost2010Prop51ColorRGB
 90
-16777216
102
RTVSPost2010PropOp51
 70
     0
102
RTVSPost2010Prop52
140
1.0
102
RTVSPost2010PropOp52
 70
     0
102
RTVSPost2010Prop53
 90
        2
102
RTVSPost2010PropOp53
 70
     1
102
RTVSPost2010Prop54
  1
strokes_ogs.tif
102
RTVSPost2010PropOp54
 70
     1
102
RTVSPost2010Prop55
280
     0
102
RTVSPost2010PropOp55
 70
     1
102
RTVSPost2010Prop56
140
1.0
102
RTVSPost2010PropOp56
 70
     1
102
RTVSPost2010Prop57
140
1.0
102
RTVSPost2010PropOp57
 70
     1
  0
XRECORD
  5
26C
102
{ACAD_REACTORS
330
26B
102
}
330
26B
100
AcDbXrecord
280
     1
102
RTVSPropertyOp0
 70
     1
102
RTVSPropertyOp1
 70
     1
102
RTVSPropertyOp2
 70
     1
102
RTVSPropertyOp3
 70
     1
102
RTVSPropertyOp4
 70
     1
102
RTVSPropertyOp5
 70
     1
102
RTVSPropertyOp6
 70
     1
102
RTVSPropertyOp7
 70
     1
102
RTVSPropertyOp8
 70
     1
102
RTVSPropertyOp9
 70
     1
102
RTVSPropertyOp10
 70
     1
102
RTVSPropertyOp11
 70
     1
102
RTVSPropertyOp12
 70
     1
102
RTVSPropertyOp13
 70
     1
102
RTVSPropertyOp14
 70
     1
102
RTVSPropertyOp15
 70
     1
102
RTVSPropertyOp16
 70
     1
102
RTVSPropertyOp17
 70
     1
102
RTVSPropertyOp18
 70
     1
102
RTVSPropertyOp19
 70
     1
102
RTVSPropertyOp20
 70
     1
102
RTVSPropertyOp21
 70
     1
102
RTVSPropertyOp22
 70
     1
102
RTVSPropertyOp23
 70
     1
102
RTVSPropertyOp24
 70
     1
102
RTVSPropertyOp25
 70
     1
102
RTVSPropertyOp26
 70
     1
102
RTVSPropertyOp27
 70
     1
102
RTVSPropertyOp28
 70
     1
102
RTVSPropertyOp29
 70
     1
102
RTVSPropertyOp30
 70
     1
102
RTVSPropertyOp31
 70
     1
102
RTVSPropertyOp32
 70
     1
102
RTVSPropertyOp33
 70
     1
102
RTVSPropertyOp34
 70
     1
102
RTVSPropertyOp35
 70
     1
102
RTVSPropertyOp36
 70
     1
102
RTVSPropertyOp37
 70
     1
102
RTVSPropertyOp38
 70
     1
102
RTVSPropertyOp39
 70
     1
102
RTVSPropertyOp40
 70
     1
102
RTVSPropertyOp41
 70
     1
102
RTVSPropertyOp42
 70
     1
102
RTVSPropertyOp43
 70
     1
102
RTVSPropertyOp44
 70
     1
102
RTVSPropertyOp45
 70
     1
102
RTVSPropertyOp46
 70
     1
102
RTVSPropertyOp47
 70
     1
102
RTVSPropertyOp48
 70
     1
102
RTVSPropertyOp49
 70
     1
102
RTVSPropertyOp50
 70
     1
102
RTVSPropertyOp51
 70
     0
102
RTVSPropertyOp52
 70
     0
102
RTVSPropertyOp53
 70
     1
102
RTVSPropertyOp54
 70
     1
102
RTVSPropertyOp55
 70
     1
102
RTVSPropertyOp56
 70
     1
102
RTVSPropertyOp57
 70
     1
102
RTVSPost2010Prop28
280
     0
102
RTVSPost2010PropOp28
 70
     1
102
RTVSPost2010Prop29
280
     1
102
RTVSPost2010PropOp29
 70
     1
102
RTVSPost2010Prop30
280
     1
102
RTVSPost2010PropOp30
 70
     1
102
RTVSPost2010Prop31
280
     0
102
RTVSPost2010PropOp31
 70
     1
102
RTVSPost2010Prop32
280
     0
102
RTVSPost2010PropOp32
 70
     1
102
RTVSPost2010Prop33
280
     0
102
RTVSPost2010PropOp33
 70
     1
102
RTVSPost2010Prop34
280
     0
102
RTVSPost2010PropOp34
 70
     1
102
RTVSPost2010Prop35
280
     0
102
RTVSPost2010PropOp35
 70
     1
102
RTVSPost2010Prop36
280
     0
102
RTVSPost2010PropOp36
 70
     1
102
RTVSPost2010Prop37
 90
       50
102
RTVSPost2010PropOp37
 70
     1
102
RTVSPost2010Prop38
140
0.0
102
RTVSPost2010PropOp38
 70
     1
102
RTVSPost2010Prop39
140
1.0
102
RTVSPost2010PropOp39
 70
     1
102
RTVSPost2010Prop40
 90
        0
102
RTVSPost2010PropOp40
 70
     1
102
RTVSPost2010Prop41ColorIndex
 90
       18
102
RTVSPost2010Prop41ColorRGB
 90
        0
102
RTVSPost2010PropOp41
 70
     1
102
RTVSPost2010Prop42
 90
       50
102
RTVSPost2010PropOp42
 70
     1
102
RTVSPost2010Prop43
 90
        3
102
RTVSPost2010PropOp43
 70
     1
102
RTVSPost2010Prop44ColorIndex
 90
        5
102
RTVSPost2010Prop44ColorRGB
 90
      255
102
RTVSPost2010PropOp44
 70
     1
102
RTVSPost2010Prop45
280
     0
102
RTVSPost2010PropOp45
 70
     1
102
RTVSPost2010Prop46
 90
       50
102
RTVSPost2010PropOp46
 70
     1
102
RTVSPost2010Prop47
 90
       50
102
RTVSPost2010PropOp47
 70
     1
102
RTVSPost2010Prop48
 90
       50
102
RTVSPost2010PropOp48
 70
     1
102
RTVSPost2010Prop49
280
     0
102
RTVSPost2010PropOp49
 70
     1
102
RTVSPost2010Prop50
 90
       50
102
RTVSPost2010PropOp50
 70
     1
102
RTVSPost2010Prop51ColorIndex
 90
      256
102
RTVSPost2010Prop51ColorRGB
 90
-16777216
102
RTVSPost2010PropOp51
 70
     0
102
RTVSPost2010Prop52
140
1.0
102
RTVSPost2010PropOp52
 70
     0
102
RTVSPost2010Prop53
 90
        2
102
RTVSPost2010PropOp53
 70
     1
102
RTVSPost2010Prop54
  1
strokes_ogs.tif
102
RTVSPost2010PropOp54
 70
     1
102
RTVSPost2010Prop55
280
     0
102
RTVSPost2010PropOp55
 70
     1
102
RTVSPost2010Prop56
140
1.0
102
RTVSPost2010PropOp56
 70
     1
102
RTVSPost2010Prop57
140
1.0
102
RTVSPost2010PropOp57
 70
     1
  0
XRECORD
  5
27C
102
{ACAD_REACTORS
330
27B
102
}
330
27B
100
AcDbXrecord
280
     1
102
RTVSPropertyOp0
 70
     0
102
RTVSPropertyOp1
 70
     0
102
RTVSPropertyOp2
 70
     0
102
RTVSPropertyOp3
 70
     0
102
RTVSPropertyOp4
 70
     0
102
RTVSPropertyOp5
 70
     0
102
RTVSPropertyOp6
 70
     0
102
RTVSPropertyOp7
 70
     0
102
RTVSPropertyOp8
 70
     0
102
RTVSPropertyOp9
 70
     0
102
RTVSPropertyOp10
 70
     0
102
RTVSPropertyOp11
 70
     0
102
RTVSPropertyOp12
 70
     0
102
RTVSPropertyOp13
 70
     0
102
RTVSPropertyOp14
 70
     0
102
RTVSPropertyOp15
 70
     0
102
RTVSPropertyOp16
 70
     0
102
RTVSPropertyOp17
 70
     0
102
RTVSPropertyOp18
 70
     0
102
RTVSPropertyOp19
 70
     0
102
RTVSPropertyOp20
 70
     0
102
RTVSPropertyOp21
 70
     0
102
RTVSPropertyOp22
 70
     0
102
RTVSPropertyOp23
 70
     0
102
RTVSPropertyOp24
 70
     0
102
RTVSPropertyOp25
 70
     0
102
RTVSPropertyOp26
 70
     0
102
RTVSPropertyOp27
 70
     0
102
RTVSPropertyOp28
 70
     1
102
RTVSPropertyOp29
 70
     1
102
RTVSPropertyOp30
 70
     1
102
RTVSPropertyOp31
 70
     1
102
RTVSPropertyOp32
 70
     1
102
RTVSPropertyOp33
 70
     1
102
RTVSPropertyOp34
 70
     1
102
RTVSPropertyOp35
 70
     1
102
RTVSPropertyOp36
 70
     1
102
RTVSPropertyOp37
 70
     1
102
RTVSPropertyOp38
 70
     1
102
RTVSPropertyOp39
 70
     1
102
RTVSPropertyOp40
 70
     1
102
RTVSPropertyOp41
 70
     1
102
RTVSPropertyOp42
 70
     1
102
RTVSPropertyOp43
 70
     1
102
RTVSPropertyOp44
 70
     1
102
RTVSPropertyOp45
 70
     1
102
RTVSPropertyOp46
 70
     1
102
RTVSPropertyOp47
 70
     1
102
RTVSPropertyOp48
 70
     1
102
RTVSPropertyOp49
 70
     1
102
RTVSPropertyOp50
 70
     1
102
RTVSPropertyOp51
 70
     0
102
RTVSPropertyOp52
 70
     0
102
RTVSPropertyOp53
 70
     1
102
RTVSPropertyOp54
 70
     1
102
RTVSPropertyOp55
 70
     1
102
RTVSPropertyOp56
 70
     1
102
RTVSPropertyOp57
 70
     1
102
RTVSPost2010Prop28
280
     0
102
RTVSPost2010PropOp28
 70
     1
102
RTVSPost2010Prop29
280
     1
102
RTVSPost2010PropOp29
 70
     1
102
RTVSPost2010Prop30
280
     1
102
RTVSPost2010PropOp30
 70
     1
102
RTVSPost2010Prop31
280
     0
102
RTVSPost2010PropOp31
 70
     1
102
RTVSPost2010Prop32
280
     0
102
RTVSPost2010PropOp32
 70
     1
102
RTVSPost2010Prop33
280
     0
102
RTVSPost2010PropOp33
 70
     1
102
RTVSPost2010Prop34
280
     0
102
RTVSPost2010PropOp34
 70
     1
102
RTVSPost2010Prop35
280
     0
102
RTVSPost2010PropOp35
 70
     1
102
RTVSPost2010Prop36
280
     0
102
RTVSPost2010PropOp36
 70
     1
102
RTVSPost2010Prop37
 90
       50
102
RTVSPost2010PropOp37
 70
     1
102
RTVSPost2010Prop38
140
0.0
102
RTVSPost2010PropOp38
 70
     1
102
RTVSPost2010Prop39
140
1.0
102
RTVSPost2010PropOp39
 70
     1
102
RTVSPost2010Prop40
 90
        0
102
RTVSPost2010PropOp40
 70
     1
102
RTVSPost2010Prop41ColorIndex
 90
       18
102
RTVSPost2010Prop41ColorRGB
 90
        0
102
RTVSPost2010PropOp41
 70
     1
102
RTVSPost2010Prop42
 90
       50
102
RTVSPost2010PropOp42
 70
     1
102
RTVSPost2010Prop43
 90
        3
102
RTVSPost2010PropOp43
 70
     1
102
RTVSPost2010Prop44ColorIndex
 90
        5
102
RTVSPost2010Prop44ColorRGB
 90
      255
102
RTVSPost2010PropOp44
 70
     1
102
RTVSPost2010Prop45
280
     0
102
RTVSPost2010PropOp45
 70
     1
102
RTVSPost2010Prop46
 90
       50
102
RTVSPost2010PropOp46
 70
     1
102
RTVSPost2010Prop47
 90
       50
102
RTVSPost2010PropOp47
 70
     1
102
RTVSPost2010Prop48
 90
       50
102
RTVSPost2010PropOp48
 70
     1
102
RTVSPost2010Prop49
280
     0
102
RTVSPost2010PropOp49
 70
     1
102
RTVSPost2010Prop50
 90
       50
102
RTVSPost2010PropOp50
 70
     1
102
RTVSPost2010Prop51ColorIndex
 90
      256
102
RTVSPost2010Prop51ColorRGB
 90
-16777216
102
RTVSPost2010PropOp51
 70
     0
102
RTVSPost2010Prop52
140
1.0
102
RTVSPost2010PropOp52
 70
     0
102
RTVSPost2010Prop53
 90
        2
102
RTVSPost2010PropOp53
 70
     1
102
RTVSPost2010Prop54
  1
strokes_ogs.tif
102
RTVSPost2010PropOp54
 70
     1
102
RTVSPost2010Prop55
280
     0
102
RTVSPost2010PropOp55
 70
     1
102
RTVSPost2010Prop56
140
1.0
102
RTVSPost2010PropOp56
 70
     1
102
RTVSPost2010Prop57
140
1.0
102
RTVSPost2010PropOp57
 70
     1
  0
XRECORD
  5
274
102
{ACAD_REACTORS
330
273
102
}
330
273
100
AcDbXrecord
280
     1
102
RTVSPropertyOp0
 70
     1
102
RTVSPropertyOp1
 70
     1
102
RTVSPropertyOp2
 70
     1
102
RTVSPropertyOp3
 70
     1
102
RTVSPropertyOp4
 70
     1
102
RTVSPropertyOp5
 70
     1
102
RTVSPropertyOp6
 70
     1
102
RTVSPropertyOp7
 70
     1
102
RTVSPropertyOp8
 70
     1
102
RTVSPropertyOp9
 70
     1
102
RTVSPropertyOp10
 70
     1
102
RTVSPropertyOp11
 70
     1
102
RTVSPropertyOp12
 70
     1
102
RTVSPropertyOp13
 70
     1
102
RTVSPropertyOp14
 70
     1
102
RTVSPropertyOp15
 70
     1
102
RTVSPropertyOp16
 70
     1
102
RTVSPropertyOp17
 70
     1
102
RTVSPropertyOp18
 70
     1
102
RTVSPropertyOp19
 70
     1
102
RTVSPropertyOp20
 70
     1
102
RTVSPropertyOp21
 70
     1
102
RTVSPropertyOp22
 70
     1
102
RTVSPropertyOp23
 70
     1
102
RTVSPropertyOp24
 70
     1
102
RTVSPropertyOp25
 70
     1
102
RTVSPropertyOp26
 70
     1
102
RTVSPropertyOp27
 70
     1
102
RTVSPropertyOp28
 70
     1
102
RTVSPropertyOp29
 70
     1
102
RTVSPropertyOp30
 70
     1
102
RTVSPropertyOp31
 70
     1
102
RTVSPropertyOp32
 70
     1
102
RTVSPropertyOp33
 70
     1
102
RTVSPropertyOp34
 70
     1
102
RTVSPropertyOp35
 70
     1
102
RTVSPropertyOp36
 70
     1
102
RTVSPropertyOp37
 70
     1
102
RTVSPropertyOp38
 70
     1
102
RTVSPropertyOp39
 70
     1
102
RTVSPropertyOp40
 70
     1
102
RTVSPropertyOp41
 70
     1
102
RTVSPropertyOp42
 70
     1
102
RTVSPropertyOp43
 70
     1
102
RTVSPropertyOp44
 70
     1
102
RTVSPropertyOp45
 70
     1
102
RTVSPropertyOp46
 70
     1
102
RTVSPropertyOp47
 70
     1
102
RTVSPropertyOp48
 70
     1
102
RTVSPropertyOp49
 70
     1
102
RTVSPropertyOp50
 70
     1
102
RTVSPropertyOp51
 70
     0
102
RTVSPropertyOp52
 70
     0
102
RTVSPropertyOp53
 70
     1
102
RTVSPropertyOp54
 70
     1
102
RTVSPropertyOp55
 70
     1
102
RTVSPropertyOp56
 70
     1
102
RTVSPropertyOp57
 70
     1
102
RTVSPost2010Prop28
280
     0
102
RTVSPost2010PropOp28
 70
     1
102
RTVSPost2010Prop29
280
     1
102
RTVSPost2010PropOp29
 70
     1
102
RTVSPost2010Prop30
280
     1
102
RTVSPost2010PropOp30
 70
     1
102
RTVSPost2010Prop31
280
     0
102
RTVSPost2010PropOp31
 70
     1
102
RTVSPost2010Prop32
280
     0
102
RTVSPost2010PropOp32
 70
     1
102
RTVSPost2010Prop33
280
     0
102
RTVSPost2010PropOp33
 70
     1
102
RTVSPost2010Prop34
280
     0
102
RTVSPost2010PropOp34
 70
     1
102
RTVSPost2010Prop35
280
     0
102
RTVSPost2010PropOp35
 70
     1
102
RTVSPost2010Prop36
280
     0
102
RTVSPost2010PropOp36
 70
     1
102
RTVSPost2010Prop37
 90
       50
102
RTVSPost2010PropOp37
 70
     1
102
RTVSPost2010Prop38
140
0.0
102
RTVSPost2010PropOp38
 70
     1
102
RTVSPost2010Prop39
140
1.0
102
RTVSPost2010PropOp39
 70
     1
102
RTVSPost2010Prop40
 90
        0
102
RTVSPost2010PropOp40
 70
     1
102
RTVSPost2010Prop41ColorIndex
 90
       18
102
RTVSPost2010Prop41ColorRGB
 90
        0
102
RTVSPost2010PropOp41
 70
     1
102
RTVSPost2010Prop42
 90
       50
102
RTVSPost2010PropOp42
 70
     1
102
RTVSPost2010Prop43
 90
        3
102
RTVSPost2010PropOp43
 70
     1
102
RTVSPost2010Prop44ColorIndex
 90
        5
102
RTVSPost2010Prop44ColorRGB
 90
      255
102
RTVSPost2010PropOp44
 70
     1
102
RTVSPost2010Prop45
280
     0
102
RTVSPost2010PropOp45
 70
     1
102
RTVSPost2010Prop46
 90
       50
102
RTVSPost2010PropOp46
 70
     1
102
RTVSPost2010Prop47
 90
       50
102
RTVSPost2010PropOp47
 70
     1
102
RTVSPost2010Prop48
 90
       50
102
RTVSPost2010PropOp48
 70
     1
102
RTVSPost2010Prop49
280
     0
102
RTVSPost2010PropOp49
 70
     1
102
RTVSPost2010Prop50
 90
       50
102
RTVSPost2010PropOp50
 70
     1
102
RTVSPost2010Prop51ColorIndex
 90
      256
102
RTVSPost2010Prop51ColorRGB
 90
-16777216
102
RTVSPost2010PropOp51
 70
     0
102
RTVSPost2010Prop52
140
1.0
102
RTVSPost2010PropOp52
 70
     0
102
RTVSPost2010Prop53
 90
        2
102
RTVSPost2010PropOp53
 70
     1
102
RTVSPost2010Prop54
  1
strokes_ogs.tif
102
RTVSPost2010PropOp54
 70
     1
102
RTVSPost2010Prop55
280
     0
102
RTVSPost2010PropOp55
 70
     1
102
RTVSPost2010Prop56
140
1.0
102
RTVSPost2010PropOp56
 70
     1
102
RTVSPost2010Prop57
140
1.0
102
RTVSPost2010PropOp57
 70
     1
  0
XRECORD
  5
258
102
{ACAD_REACTORS
330
257
102
}
330
257
100
AcDbXrecord
280
     1
102
RTVSPropertyOp0
 70
     1
102
RTVSPropertyOp1
 70
     1
102
RTVSPropertyOp2
 70
     1
102
RTVSPropertyOp3
 70
     1
102
RTVSPropertyOp4
 70
     1
102
RTVSPropertyOp5
 70
     1
102
RTVSPropertyOp6
 70
     1
102
RTVSPropertyOp7
 70
     1
102
RTVSPropertyOp8
 70
     1
102
RTVSPropertyOp9
 70
     1
102
RTVSPropertyOp10
 70
     1
102
RTVSPropertyOp11
 70
     1
102
RTVSPropertyOp12
 70
     1
102
RTVSPropertyOp13
 70
     1
102
RTVSPropertyOp14
 70
     1
102
RTVSPropertyOp15
 70
     1
102
RTVSPropertyOp16
 70
     1
102
RTVSPropertyOp17
 70
     1
102
RTVSPropertyOp18
 70
     1
102
RTVSPropertyOp19
 70
     1
102
RTVSPropertyOp20
 70
     1
102
RTVSPropertyOp21
 70
     1
102
RTVSPropertyOp22
 70
     1
102
RTVSPropertyOp23
 70
     1
102
RTVSPropertyOp24
 70
     1
102
RTVSPropertyOp25
 70
     1
102
RTVSPropertyOp26
 70
     1
102
RTVSPropertyOp27
 70
     1
102
RTVSPropertyOp28
 70
     1
102
RTVSPropertyOp29
 70
     1
102
RTVSPropertyOp30
 70
     1
102
RTVSPropertyOp31
 70
     1
102
RTVSPropertyOp32
 70
     1
102
RTVSPropertyOp33
 70
     1
102
RTVSPropertyOp34
 70
     1
102
RTVSPropertyOp35
 70
     1
102
RTVSPropertyOp36
 70
     1
102
RTVSPropertyOp37
 70
     1
102
RTVSPropertyOp38
 70
     1
102
RTVSPropertyOp39
 70
     1
102
RTVSPropertyOp40
 70
     1
102
RTVSPropertyOp41
 70
     1
102
RTVSPropertyOp42
 70
     1
102
RTVSPropertyOp43
 70
     1
102
RTVSPropertyOp44
 70
     1
102
RTVSPropertyOp45
 70
     1
102
RTVSPropertyOp46
 70
     1
102
RTVSPropertyOp47
 70
     1
102
RTVSPropertyOp48
 70
     1
102
RTVSPropertyOp49
 70
     1
102
RTVSPropertyOp50
 70
     1
102
RTVSPropertyOp51
 70
     0
102
RTVSPropertyOp52
 70
     0
102
RTVSPropertyOp53
 70
     1
102
RTVSPropertyOp54
 70
     1
102
RTVSPropertyOp55
 70
     1
102
RTVSPropertyOp56
 70
     1
102
RTVSPropertyOp57
 70
     1
102
RTVSPost2010Prop28
280
     0
102
RTVSPost2010PropOp28
 70
     1
102
RTVSPost2010Prop29
280
     1
102
RTVSPost2010PropOp29
 70
     1
102
RTVSPost2010Prop30
280
     1
102
RTVSPost2010PropOp30
 70
     1
102
RTVSPost2010Prop31
280
     0
102
RTVSPost2010PropOp31
 70
     1
102
RTVSPost2010Prop32
280
     0
102
RTVSPost2010PropOp32
 70
     1
102
RTVSPost2010Prop33
280
     0
102
RTVSPost2010PropOp33
 70
     1
102
RTVSPost2010Prop34
280
     0
102
RTVSPost2010PropOp34
 70
     1
102
RTVSPost2010Prop35
280
     0
102
RTVSPost2010PropOp35
 70
     1
102
RTVSPost2010Prop36
280
     0
102
RTVSPost2010PropOp36
 70
     1
102
RTVSPost2010Prop37
 90
       50
102
RTVSPost2010PropOp37
 70
     1
102
RTVSPost2010Prop38
140
0.0
102
RTVSPost2010PropOp38
 70
     1
102
RTVSPost2010Prop39
140
1.0
102
RTVSPost2010PropOp39
 70
     1
102
RTVSPost2010Prop40
 90
        0
102
RTVSPost2010PropOp40
 70
     1
102
RTVSPost2010Prop41ColorIndex
 90
       18
102
RTVSPost2010Prop41ColorRGB
 90
        0
102
RTVSPost2010PropOp41
 70
     1
102
RTVSPost2010Prop42
 90
       50
102
RTVSPost2010PropOp42
 70
     1
102
RTVSPost2010Prop43
 90
        3
102
RTVSPost2010PropOp43
 70
     1
102
RTVSPost2010Prop44ColorIndex
 90
        5
102
RTVSPost2010Prop44ColorRGB
 90
      255
102
RTVSPost2010PropOp44
 70
     1
102
RTVSPost2010Prop45
280
     0
102
RTVSPost2010PropOp45
 70
     1
102
RTVSPost2010Prop46
 90
       50
102
RTVSPost2010PropOp46
 70
     1
102
RTVSPost2010Prop47
 90
       50
102
RTVSPost2010PropOp47
 70
     1
102
RTVSPost2010Prop48
 90
       50
102
RTVSPost2010PropOp48
 70
     1
102
RTVSPost2010Prop49
280
     0
102
RTVSPost2010PropOp49
 70
     1
102
RTVSPost2010Prop50
 90
       50
102
RTVSPost2010PropOp50
 70
     1
102
RTVSPost2010Prop51ColorIndex
 90
      256
102
RTVSPost2010Prop51ColorRGB
 90
-16777216
102
RTVSPost2010PropOp51
 70
     0
102
RTVSPost2010Prop52
140
1.0
102
RTVSPost2010PropOp52
 70
     0
102
RTVSPost2010Prop53
 90
        2
102
RTVSPost2010PropOp53
 70
     1
102
RTVSPost2010Prop54
  1
strokes_ogs.tif
102
RTVSPost2010PropOp54
 70
     1
102
RTVSPost2010Prop55
280
     0
102
RTVSPost2010PropOp55
 70
     1
102
RTVSPost2010Prop56
140
1.0
102
RTVSPost2010PropOp56
 70
     1
102
RTVSPost2010Prop57
140
1.0
102
RTVSPost2010PropOp57
 70
     1
  0
XRECORD
  5
25A
102
{ACAD_REACTORS
330
259
102
}
330
259
100
AcDbXrecord
280
     1
102
RTVSPropertyOp0
 70
     1
102
RTVSPropertyOp1
 70
     1
102
RTVSPropertyOp2
 70
     1
102
RTVSPropertyOp3
 70
     1
102
RTVSPropertyOp4
 70
     1
102
RTVSPropertyOp5
 70
     1
102
RTVSPropertyOp6
 70
     1
102
RTVSPropertyOp7
 70
     1
102
RTVSPropertyOp8
 70
     1
102
RTVSPropertyOp9
 70
     1
102
RTVSPropertyOp10
 70
     1
102
RTVSPropertyOp11
 70
     1
102
RTVSPropertyOp12
 70
     1
102
RTVSPropertyOp13
 70
     1
102
RTVSPropertyOp14
 70
     1
102
RTVSPropertyOp15
 70
     1
102
RTVSPropertyOp16
 70
     1
102
RTVSPropertyOp17
 70
     1
102
RTVSPropertyOp18
 70
     1
102
RTVSPropertyOp19
 70
     1
102
RTVSPropertyOp20
 70
     1
102
RTVSPropertyOp21
 70
     1
102
RTVSPropertyOp22
 70
     1
102
RTVSPropertyOp23
 70
     1
102
RTVSPropertyOp24
 70
     1
102
RTVSPropertyOp25
 70
     1
102
RTVSPropertyOp26
 70
     1
102
RTVSPropertyOp27
 70
     1
102
RTVSPropertyOp28
 70
     1
102
RTVSPropertyOp29
 70
     1
102
RTVSPropertyOp30
 70
     1
102
RTVSPropertyOp31
 70
     1
102
RTVSPropertyOp32
 70
     1
102
RTVSPropertyOp33
 70
     1
102
RTVSPropertyOp34
 70
     1
102
RTVSPropertyOp35
 70
     1
102
RTVSPropertyOp36
 70
     1
102
RTVSPropertyOp37
 70
     1
102
RTVSPropertyOp38
 70
     1
102
RTVSPropertyOp39
 70
     1
102
RTVSPropertyOp40
 70
     1
102
RTVSPropertyOp41
 70
     1
102
RTVSPropertyOp42
 70
     1
102
RTVSPropertyOp43
 70
     1
102
RTVSPropertyOp44
 70
     1
102
RTVSPropertyOp45
 70
     1
102
RTVSPropertyOp46
 70
     1
102
RTVSPropertyOp47
 70
     1
102
RTVSPropertyOp48
 70
     1
102
RTVSPropertyOp49
 70
     1
102
RTVSPropertyOp50
 70
     1
102
RTVSPropertyOp51
 70
     0
102
RTVSPropertyOp52
 70
     0
102
RTVSPropertyOp53
 70
     1
102
RTVSPropertyOp54
 70
     1
102
RTVSPropertyOp55
 70
     1
102
RTVSPropertyOp56
 70
     1
102
RTVSPropertyOp57
 70
     1
102
RTVSPost2010Prop28
280
     0
102
RTVSPost2010PropOp28
 70
     1
102
RTVSPost2010Prop29
280
     1
102
RTVSPost2010PropOp29
 70
     1
102
RTVSPost2010Prop30
280
     1
102
RTVSPost2010PropOp30
 70
     1
102
RTVSPost2010Prop31
280
     0
102
RTVSPost2010PropOp31
 70
     1
102
RTVSPost2010Prop32
280
     0
102
RTVSPost2010PropOp32
 70
     1
102
RTVSPost2010Prop33
280
     0
102
RTVSPost2010PropOp33
 70
     1
102
RTVSPost2010Prop34
280
     0
102
RTVSPost2010PropOp34
 70
     1
102
RTVSPost2010Prop35
280
     0
102
RTVSPost2010PropOp35
 70
     1
102
RTVSPost2010Prop36
280
     0
102
RTVSPost2010PropOp36
 70
     1
102
RTVSPost2010Prop37
 90
       50
102
RTVSPost2010PropOp37
 70
     1
102
RTVSPost2010Prop38
140
0.0
102
RTVSPost2010PropOp38
 70
     1
102
RTVSPost2010Prop39
140
1.0
102
RTVSPost2010PropOp39
 70
     1
102
RTVSPost2010Prop40
 90
        0
102
RTVSPost2010PropOp40
 70
     1
102
RTVSPost2010Prop41ColorIndex
 90
       18
102
RTVSPost2010Prop41ColorRGB
 90
        0
102
RTVSPost2010PropOp41
 70
     1
102
RTVSPost2010Prop42
 90
       50
102
RTVSPost2010PropOp42
 70
     1
102
RTVSPost2010Prop43
 90
        3
102
RTVSPost2010PropOp43
 70
     1
102
RTVSPost2010Prop44ColorIndex
 90
        5
102
RTVSPost2010Prop44ColorRGB
 90
      255
102
RTVSPost2010PropOp44
 70
     1
102
RTVSPost2010Prop45
280
     0
102
RTVSPost2010PropOp45
 70
     1
102
RTVSPost2010Prop46
 90
       50
102
RTVSPost2010PropOp46
 70
     1
102
RTVSPost2010Prop47
 90
       50
102
RTVSPost2010PropOp47
 70
     1
102
RTVSPost2010Prop48
 90
       50
102
RTVSPost2010PropOp48
 70
     1
102
RTVSPost2010Prop49
280
     0
102
RTVSPost2010PropOp49
 70
     1
102
RTVSPost2010Prop50
 90
       50
102
RTVSPost2010PropOp50
 70
     1
102
RTVSPost2010Prop51ColorIndex
 90
      256
102
RTVSPost2010Prop51ColorRGB
 90
-16777216
102
RTVSPost2010PropOp51
 70
     0
102
RTVSPost2010Prop52
140
1.0
102
RTVSPost2010PropOp52
 70
     0
102
RTVSPost2010Prop53
 90
        2
102
RTVSPost2010PropOp53
 70
     1
102
RTVSPost2010Prop54
  1
strokes_ogs.tif
102
RTVSPost2010PropOp54
 70
     1
102
RTVSPost2010Prop55
280
     0
102
RTVSPost2010PropOp55
 70
     1
102
RTVSPost2010Prop56
140
1.0
102
RTVSPost2010PropOp56
 70
     1
102
RTVSPost2010Prop57
140
1.0
102
RTVSPost2010PropOp57
 70
     1
  0
XRECORD
  5
25C
102
{ACAD_REACTORS
330
25B
102
}
330
25B
100
AcDbXrecord
280
     1
102
RTVSPropertyOp0
 70
     1
102
RTVSPropertyOp1
 70
     1
102
RTVSPropertyOp2
 70
     1
102
RTVSPropertyOp3
 70
     1
102
RTVSPropertyOp4
 70
     1
102
RTVSPropertyOp5
 70
     1
102
RTVSPropertyOp6
 70
     1
102
RTVSPropertyOp7
 70
     1
102
RTVSPropertyOp8
 70
     1
102
RTVSPropertyOp9
 70
     1
102
RTVSPropertyOp10
 70
     1
102
RTVSPropertyOp11
 70
     1
102
RTVSPropertyOp12
 70
     1
102
RTVSPropertyOp13
 70
     1
102
RTVSPropertyOp14
 70
     1
102
RTVSPropertyOp15
 70
     1
102
RTVSPropertyOp16
 70
     1
102
RTVSPropertyOp17
 70
     1
102
RTVSPropertyOp18
 70
     1
102
RTVSPropertyOp19
 70
     1
102
RTVSPropertyOp20
 70
     1
102
RTVSPropertyOp21
 70
     1
102
RTVSPropertyOp22
 70
     1
102
RTVSPropertyOp23
 70
     1
102
RTVSPropertyOp24
 70
     1
102
RTVSPropertyOp25
 70
     1
102
RTVSPropertyOp26
 70
     1
102
RTVSPropertyOp27
 70
     1
102
RTVSPropertyOp28
 70
     1
102
RTVSPropertyOp29
 70
     1
102
RTVSPropertyOp30
 70
     1
102
RTVSPropertyOp31
 70
     1
102
RTVSPropertyOp32
 70
     1
102
RTVSPropertyOp33
 70
     1
102
RTVSPropertyOp34
 70
     1
102
RTVSPropertyOp35
 70
     1
102
RTVSPropertyOp36
 70
     1
102
RTVSPropertyOp37
 70
     1
102
RTVSPropertyOp38
 70
     1
102
RTVSPropertyOp39
 70
     1
102
RTVSPropertyOp40
 70
     1
102
RTVSPropertyOp41
 70
     1
102
RTVSPropertyOp42
 70
     1
102
RTVSPropertyOp43
 70
     1
102
RTVSPropertyOp44
 70
     1
102
RTVSPropertyOp45
 70
     1
102
RTVSPropertyOp46
 70
     1
102
RTVSPropertyOp47
 70
     1
102
RTVSPropertyOp48
 70
     1
102
RTVSPropertyOp49
 70
     1
102
RTVSPropertyOp50
 70
     1
102
RTVSPropertyOp51
 70
     0
102
RTVSPropertyOp52
 70
     0
102
RTVSPropertyOp53
 70
     1
102
RTVSPropertyOp54
 70
     1
102
RTVSPropertyOp55
 70
     1
102
RTVSPropertyOp56
 70
     1
102
RTVSPropertyOp57
 70
     1
102
RTVSPost2010Prop28
280
     0
102
RTVSPost2010PropOp28
 70
     1
102
RTVSPost2010Prop29
280
     1
102
RTVSPost2010PropOp29
 70
     1
102
RTVSPost2010Prop30
280
     1
102
RTVSPost2010PropOp30
 70
     1
102
RTVSPost2010Prop31
280
     0
102
RTVSPost2010PropOp31
 70
     1
102
RTVSPost2010Prop32
280
     0
102
RTVSPost2010PropOp32
 70
     1
102
RTVSPost2010Prop33
280
     0
102
RTVSPost2010PropOp33
 70
     1
102
RTVSPost2010Prop34
280
     0
102
RTVSPost2010PropOp34
 70
     1
102
RTVSPost2010Prop35
280
     0
102
RTVSPost2010PropOp35
 70
     1
102
RTVSPost2010Prop36
280
     0
102
RTVSPost2010PropOp36
 70
     1
102
RTVSPost2010Prop37
 90
       50
102
RTVSPost2010PropOp37
 70
     1
102
RTVSPost2010Prop38
140
0.0
102
RTVSPost2010PropOp38
 70
     1
102
RTVSPost2010Prop39
140
1.0
102
RTVSPost2010PropOp39
 70
     1
102
RTVSPost2010Prop40
 90
        0
102
RTVSPost2010PropOp40
 70
     1
102
RTVSPost2010Prop41ColorIndex
 90
       18
102
RTVSPost2010Prop41ColorRGB
 90
        0
102
RTVSPost2010PropOp41
 70
     1
102
RTVSPost2010Prop42
 90
       50
102
RTVSPost2010PropOp42
 70
     1
102
RTVSPost2010Prop43
 90
        3
102
RTVSPost2010PropOp43
 70
     1
102
RTVSPost2010Prop44ColorIndex
 90
        5
102
RTVSPost2010Prop44ColorRGB
 90
      255
102
RTVSPost2010PropOp44
 70
     1
102
RTVSPost2010Prop45
280
     0
102
RTVSPost2010PropOp45
 70
     1
102
RTVSPost2010Prop46
 90
       50
102
RTVSPost2010PropOp46
 70
     1
102
RTVSPost2010Prop47
 90
       50
102
RTVSPost2010PropOp47
 70
     1
102
RTVSPost2010Prop48
 90
       50
102
RTVSPost2010PropOp48
 70
     1
102
RTVSPost2010Prop49
280
     0
102
RTVSPost2010PropOp49
 70
     1
102
RTVSPost2010Prop50
 90
       50
102
RTVSPost2010PropOp50
 70
     1
102
RTVSPost2010Prop51ColorIndex
 90
      256
102
RTVSPost2010Prop51ColorRGB
 90
-16777216
102
RTVSPost2010PropOp51
 70
     0
102
RTVSPost2010Prop52
140
1.0
102
RTVSPost2010PropOp52
 70
     0
102
RTVSPost2010Prop53
 90
        2
102
RTVSPost2010PropOp53
 70
     1
102
RTVSPost2010Prop54
  1
strokes_ogs.tif
102
RTVSPost2010PropOp54
 70
     1
102
RTVSPost2010Prop55
280
     0
102
RTVSPost2010PropOp55
 70
     1
102
RTVSPost2010Prop56
140
1.0
102
RTVSPost2010PropOp56
 70
     1
102
RTVSPost2010Prop57
140
1.0
102
RTVSPost2010PropOp57
 70
     1
  0
XRECORD
  5
25E
102
{ACAD_REACTORS
330
25D
102
}
330
25D
100
AcDbXrecord
280
     1
102
RTVSPropertyOp0
 70
     1
102
RTVSPropertyOp1
 70
     1
102
RTVSPropertyOp2
 70
     1
102
RTVSPropertyOp3
 70
     1
102
RTVSPropertyOp4
 70
     1
102
RTVSPropertyOp5
 70
     1
102
RTVSPropertyOp6
 70
     1
102
RTVSPropertyOp7
 70
     1
102
RTVSPropertyOp8
 70
     1
102
RTVSPropertyOp9
 70
     1
102
RTVSPropertyOp10
 70
     1
102
RTVSPropertyOp11
 70
     1
102
RTVSPropertyOp12
 70
     1
102
RTVSPropertyOp13
 70
     1
102
RTVSPropertyOp14
 70
     1
102
RTVSPropertyOp15
 70
     1
102
RTVSPropertyOp16
 70
     1
102
RTVSPropertyOp17
 70
     1
102
RTVSPropertyOp18
 70
     1
102
RTVSPropertyOp19
 70
     1
102
RTVSPropertyOp20
 70
     1
102
RTVSPropertyOp21
 70
     1
102
RTVSPropertyOp22
 70
     1
102
RTVSPropertyOp23
 70
     1
102
RTVSPropertyOp24
 70
     1
102
RTVSPropertyOp25
 70
     1
102
RTVSPropertyOp26
 70
     1
102
RTVSPropertyOp27
 70
     1
102
RTVSPropertyOp28
 70
     1
102
RTVSPropertyOp29
 70
     1
102
RTVSPropertyOp30
 70
     1
102
RTVSPropertyOp31
 70
     1
102
RTVSPropertyOp32
 70
     1
102
RTVSPropertyOp33
 70
     1
102
RTVSPropertyOp34
 70
     1
102
RTVSPropertyOp35
 70
     1
102
RTVSPropertyOp36
 70
     1
102
RTVSPropertyOp37
 70
     1
102
RTVSPropertyOp38
 70
     1
102
RTVSPropertyOp39
 70
     1
102
RTVSPropertyOp40
 70
     1
102
RTVSPropertyOp41
 70
     1
102
RTVSPropertyOp42
 70
     1
102
RTVSPropertyOp43
 70
     1
102
RTVSPropertyOp44
 70
     1
102
RTVSPropertyOp45
 70
     1
102
RTVSPropertyOp46
 70
     1
102
RTVSPropertyOp47
 70
     1
102
RTVSPropertyOp48
 70
     1
102
RTVSPropertyOp49
 70
     1
102
RTVSPropertyOp50
 70
     1
102
RTVSPropertyOp51
 70
     0
102
RTVSPropertyOp52
 70
     0
102
RTVSPropertyOp53
 70
     1
102
RTVSPropertyOp54
 70
     1
102
RTVSPropertyOp55
 70
     1
102
RTVSPropertyOp56
 70
     1
102
RTVSPropertyOp57
 70
     1
102
RTVSPost2010Prop28
280
     0
102
RTVSPost2010PropOp28
 70
     1
102
RTVSPost2010Prop29
280
     1
102
RTVSPost2010PropOp29
 70
     1
102
RTVSPost2010Prop30
280
     1
102
RTVSPost2010PropOp30
 70
     1
102
RTVSPost2010Prop31
280
     0
102
RTVSPost2010PropOp31
 70
     1
102
RTVSPost2010Prop32
280
     0
102
RTVSPost2010PropOp32
 70
     1
102
RTVSPost2010Prop33
280
     0
102
RTVSPost2010PropOp33
 70
     1
102
RTVSPost2010Prop34
280
     0
102
RTVSPost2010PropOp34
 70
     1
102
RTVSPost2010Prop35
280
     0
102
RTVSPost2010PropOp35
 70
     1
102
RTVSPost2010Prop36
280
     0
102
RTVSPost2010PropOp36
 70
     1
102
RTVSPost2010Prop37
 90
       50
102
RTVSPost2010PropOp37
 70
     1
102
RTVSPost2010Prop38
140
0.0
102
RTVSPost2010PropOp38
 70
     1
102
RTVSPost2010Prop39
140
1.0
102
RTVSPost2010PropOp39
 70
     1
102
RTVSPost2010Prop40
 90
        0
102
RTVSPost2010PropOp40
 70
     1
102
RTVSPost2010Prop41ColorIndex
 90
       18
102
RTVSPost2010Prop41ColorRGB
 90
        0
102
RTVSPost2010PropOp41
 70
     1
102
RTVSPost2010Prop42
 90
       50
102
RTVSPost2010PropOp42
 70
     1
102
RTVSPost2010Prop43
 90
        3
102
RTVSPost2010PropOp43
 70
     1
102
RTVSPost2010Prop44ColorIndex
 90
        5
102
RTVSPost2010Prop44ColorRGB
 90
      255
102
RTVSPost2010PropOp44
 70
     1
102
RTVSPost2010Prop45
280
     0
102
RTVSPost2010PropOp45
 70
     1
102
RTVSPost2010Prop46
 90
       50
102
RTVSPost2010PropOp46
 70
     1
102
RTVSPost2010Prop47
 90
       50
102
RTVSPost2010PropOp47
 70
     1
102
RTVSPost2010Prop48
 90
       50
102
RTVSPost2010PropOp48
 70
     1
102
RTVSPost2010Prop49
280
     0
102
RTVSPost2010PropOp49
 70
     1
102
RTVSPost2010Prop50
 90
       50
102
RTVSPost2010PropOp50
 70
     1
102
RTVSPost2010Prop51ColorIndex
 90
      256
102
RTVSPost2010Prop51ColorRGB
 90
-16777216
102
RTVSPost2010PropOp51
 70
     0
102
RTVSPost2010Prop52
140
1.0
102
RTVSPost2010PropOp52
 70
     0
102
RTVSPost2010Prop53
 90
        2
102
RTVSPost2010PropOp53
 70
     1
102
RTVSPost2010Prop54
  1
strokes_ogs.tif
102
RTVSPost2010PropOp54
 70
     1
102
RTVSPost2010Prop55
280
     0
102
RTVSPost2010PropOp55
 70
     1
102
RTVSPost2010Prop56
140
1.0
102
RTVSPost2010PropOp56
 70
     1
102
RTVSPost2010Prop57
140
1.0
102
RTVSPost2010PropOp57
 70
     1
  0
XRECORD
  5
264
102
{ACAD_REACTORS
330
263
102
}
330
263
100
AcDbXrecord
280
     1
102
RTVSPropertyOp0
 70
     1
102
RTVSPropertyOp1
 70
     1
102
RTVSPropertyOp2
 70
     1
102
RTVSPropertyOp3
 70
     1
102
RTVSPropertyOp4
 70
     1
102
RTVSPropertyOp5
 70
     1
102
RTVSPropertyOp6
 70
     1
102
RTVSPropertyOp7
 70
     1
102
RTVSPropertyOp8
 70
     1
102
RTVSPropertyOp9
 70
     1
102
RTVSPropertyOp10
 70
     1
102
RTVSPropertyOp11
 70
     1
102
RTVSPropertyOp12
 70
     1
102
RTVSPropertyOp13
 70
     1
102
RTVSPropertyOp14
 70
     1
102
RTVSPropertyOp15
 70
     1
102
RTVSPropertyOp16
 70
     1
102
RTVSPropertyOp17
 70
     1
102
RTVSPropertyOp18
 70
     1
102
RTVSPropertyOp19
 70
     1
102
RTVSPropertyOp20
 70
     1
102
RTVSPropertyOp21
 70
     1
102
RTVSPropertyOp22
 70
     1
102
RTVSPropertyOp23
 70
     1
102
RTVSPropertyOp24
 70
     1
102
RTVSPropertyOp25
 70
     1
102
RTVSPropertyOp26
 70
     1
102
RTVSPropertyOp27
 70
     1
102
RTVSPropertyOp28
 70
     1
102
RTVSPropertyOp29
 70
     1
102
RTVSPropertyOp30
 70
     1
102
RTVSPropertyOp31
 70
     1
102
RTVSPropertyOp32
 70
     1
102
RTVSPropertyOp33
 70
     1
102
RTVSPropertyOp34
 70
     1
102
RTVSPropertyOp35
 70
     1
102
RTVSPropertyOp36
 70
     1
102
RTVSPropertyOp37
 70
     1
102
RTVSPropertyOp38
 70
     1
102
RTVSPropertyOp39
 70
     1
102
RTVSPropertyOp40
 70
     1
102
RTVSPropertyOp41
 70
     1
102
RTVSPropertyOp42
 70
     1
102
RTVSPropertyOp43
 70
     1
102
RTVSPropertyOp44
 70
     1
102
RTVSPropertyOp45
 70
     1
102
RTVSPropertyOp46
 70
     1
102
RTVSPropertyOp47
 70
     1
102
RTVSPropertyOp48
 70
     1
102
RTVSPropertyOp49
 70
     1
102
RTVSPropertyOp50
 70
     1
102
RTVSPropertyOp51
 70
     0
102
RTVSPropertyOp52
 70
     0
102
RTVSPropertyOp53
 70
     1
102
RTVSPropertyOp54
 70
     1
102
RTVSPropertyOp55
 70
     1
102
RTVSPropertyOp56
 70
     1
102
RTVSPropertyOp57
 70
     1
102
RTVSPost2010Prop28
280
     0
102
RTVSPost2010PropOp28
 70
     1
102
RTVSPost2010Prop29
280
     1
102
RTVSPost2010PropOp29
 70
     1
102
RTVSPost2010Prop30
280
     1
102
RTVSPost2010PropOp30
 70
     1
102
RTVSPost2010Prop31
280
     0
102
RTVSPost2010PropOp31
 70
     1
102
RTVSPost2010Prop32
280
     0
102
RTVSPost2010PropOp32
 70
     1
102
RTVSPost2010Prop33
280
     0
102
RTVSPost2010PropOp33
 70
     1
102
RTVSPost2010Prop34
280
     0
102
RTVSPost2010PropOp34
 70
     1
102
RTVSPost2010Prop35
280
     0
102
RTVSPost2010PropOp35
 70
     1
102
RTVSPost2010Prop36
280
     0
102
RTVSPost2010PropOp36
 70
     1
102
RTVSPost2010Prop37
 90
       50
102
RTVSPost2010PropOp37
 70
     1
102
RTVSPost2010Prop38
140
0.0
102
RTVSPost2010PropOp38
 70
     1
102
RTVSPost2010Prop39
140
1.0
102
RTVSPost2010PropOp39
 70
     1
102
RTVSPost2010Prop40
 90
        0
102
RTVSPost2010PropOp40
 70
     1
102
RTVSPost2010Prop41ColorIndex
 90
       18
102
RTVSPost2010Prop41ColorRGB
 90
        0
102
RTVSPost2010PropOp41
 70
     1
102
RTVSPost2010Prop42
 90
       50
102
RTVSPost2010PropOp42
 70
     1
102
RTVSPost2010Prop43
 90
        3
102
RTVSPost2010PropOp43
 70
     1
102
RTVSPost2010Prop44ColorIndex
 90
        5
102
RTVSPost2010Prop44ColorRGB
 90
      255
102
RTVSPost2010PropOp44
 70
     1
102
RTVSPost2010Prop45
280
     0
102
RTVSPost2010PropOp45
 70
     1
102
RTVSPost2010Prop46
 90
       50
102
RTVSPost2010PropOp46
 70
     1
102
RTVSPost2010Prop47
 90
       50
102
RTVSPost2010PropOp47
 70
     1
102
RTVSPost2010Prop48
 90
       50
102
RTVSPost2010PropOp48
 70
     1
102
RTVSPost2010Prop49
280
     0
102
RTVSPost2010PropOp49
 70
     1
102
RTVSPost2010Prop50
 90
       50
102
RTVSPost2010PropOp50
 70
     1
102
RTVSPost2010Prop51ColorIndex
 90
      256
102
RTVSPost2010Prop51ColorRGB
 90
-16777216
102
RTVSPost2010PropOp51
 70
     0
102
RTVSPost2010Prop52
140
1.0
102
RTVSPost2010PropOp52
 70
     0
102
RTVSPost2010Prop53
 90
        2
102
RTVSPost2010PropOp53
 70
     1
102
RTVSPost2010Prop54
  1
strokes_ogs.tif
102
RTVSPost2010PropOp54
 70
     1
102
RTVSPost2010Prop55
280
     0
102
RTVSPost2010PropOp55
 70
     1
102
RTVSPost2010Prop56
140
1.0
102
RTVSPost2010PropOp56
 70
     1
102
RTVSPost2010Prop57
140
1.0
102
RTVSPost2010PropOp57
 70
     1
  0
XRECORD
  5
278
102
{ACAD_REACTORS
330
277
102
}
330
277
100
AcDbXrecord
280
     1
102
RTVSPropertyOp0
 70
     0
102
RTVSPropertyOp1
 70
     0
102
RTVSPropertyOp2
 70
     0
102
RTVSPropertyOp3
 70
     0
102
RTVSPropertyOp4
 70
     0
102
RTVSPropertyOp5
 70
     0
102
RTVSPropertyOp6
 70
     0
102
RTVSPropertyOp7
 70
     0
102
RTVSPropertyOp8
 70
     0
102
RTVSPropertyOp9
 70
     0
102
RTVSPropertyOp10
 70
     0
102
RTVSPropertyOp11
 70
     0
102
RTVSPropertyOp12
 70
     0
102
RTVSPropertyOp13
 70
     0
102
RTVSPropertyOp14
 70
     0
102
RTVSPropertyOp15
 70
     0
102
RTVSPropertyOp16
 70
     0
102
RTVSPropertyOp17
 70
     0
102
RTVSPropertyOp18
 70
     0
102
RTVSPropertyOp19
 70
     0
102
RTVSPropertyOp20
 70
     0
102
RTVSPropertyOp21
 70
     0
102
RTVSPropertyOp22
 70
     0
102
RTVSPropertyOp23
 70
     0
102
RTVSPropertyOp24
 70
     0
102
RTVSPropertyOp25
 70
     0
102
RTVSPropertyOp26
 70
     0
102
RTVSPropertyOp27
 70
     0
102
RTVSPropertyOp28
 70
     1
102
RTVSPropertyOp29
 70
     1
102
RTVSPropertyOp30
 70
     1
102
RTVSPropertyOp31
 70
     1
102
RTVSPropertyOp32
 70
     1
102
RTVSPropertyOp33
 70
     1
102
RTVSPropertyOp34
 70
     1
102
RTVSPropertyOp35
 70
     1
102
RTVSPropertyOp36
 70
     1
102
RTVSPropertyOp37
 70
     1
102
RTVSPropertyOp38
 70
     1
102
RTVSPropertyOp39
 70
     1
102
RTVSPropertyOp40
 70
     1
102
RTVSPropertyOp41
 70
     1
102
RTVSPropertyOp42
 70
     1
102
RTVSPropertyOp43
 70
     1
102
RTVSPropertyOp44
 70
     1
102
RTVSPropertyOp45
 70
     1
102
RTVSPropertyOp46
 70
     1
102
RTVSPropertyOp47
 70
     1
102
RTVSPropertyOp48
 70
     1
102
RTVSPropertyOp49
 70
     1
102
RTVSPropertyOp50
 70
     1
102
RTVSPropertyOp51
 70
     0
102
RTVSPropertyOp52
 70
     0
102
RTVSPropertyOp53
 70
     1
102
RTVSPropertyOp54
 70
     1
102
RTVSPropertyOp55
 70
     1
102
RTVSPropertyOp56
 70
     1
102
RTVSPropertyOp57
 70
     1
102
RTVSPost2010Prop28
280
     0
102
RTVSPost2010PropOp28
 70
     1
102
RTVSPost2010Prop29
280
     1
102
RTVSPost2010PropOp29
 70
     1
102
RTVSPost2010Prop30
280
     1
102
RTVSPost2010PropOp30
 70
     1
102
RTVSPost2010Prop31
280
     0
102
RTVSPost2010PropOp31
 70
     1
102
RTVSPost2010Prop32
280
     0
102
RTVSPost2010PropOp32
 70
     1
102
RTVSPost2010Prop33
280
     0
102
RTVSPost2010PropOp33
 70
     1
102
RTVSPost2010Prop34
280
     0
102
RTVSPost2010PropOp34
 70
     1
102
RTVSPost2010Prop35
280
     0
102
RTVSPost2010PropOp35
 70
     1
102
RTVSPost2010Prop36
280
     0
102
RTVSPost2010PropOp36
 70
     1
102
RTVSPost2010Prop37
 90
       50
102
RTVSPost2010PropOp37
 70
     1
102
RTVSPost2010Prop38
140
0.0
102
RTVSPost2010PropOp38
 70
     1
102
RTVSPost2010Prop39
140
1.0
102
RTVSPost2010PropOp39
 70
     1
102
RTVSPost2010Prop40
 90
        0
102
RTVSPost2010PropOp40
 70
     1
102
RTVSPost2010Prop41ColorIndex
 90
       18
102
RTVSPost2010Prop41ColorRGB
 90
        0
102
RTVSPost2010PropOp41
 70
     1
102
RTVSPost2010Prop42
 90
       50
102
RTVSPost2010PropOp42
 70
     1
102
RTVSPost2010Prop43
 90
        3
102
RTVSPost2010PropOp43
 70
     1
102
RTVSPost2010Prop44ColorIndex
 90
        5
102
RTVSPost2010Prop44ColorRGB
 90
      255
102
RTVSPost2010PropOp44
 70
     1
102
RTVSPost2010Prop45
280
     0
102
RTVSPost2010PropOp45
 70
     1
102
RTVSPost2010Prop46
 90
       50
102
RTVSPost2010PropOp46
 70
     1
102
RTVSPost2010Prop47
 90
       50
102
RTVSPost2010PropOp47
 70
     1
102
RTVSPost2010Prop48
 90
       50
102
RTVSPost2010PropOp48
 70
     1
102
RTVSPost2010Prop49
280
     0
102
RTVSPost2010PropOp49
 70
     1
102
RTVSPost2010Prop50
 90
       50
102
RTVSPost2010PropOp50
 70
     1
102
RTVSPost2010Prop51ColorIndex
 90
      256
102
RTVSPost2010Prop51ColorRGB
 90
-16777216
102
RTVSPost2010PropOp51
 70
     0
102
RTVSPost2010Prop52
140
1.0
102
RTVSPost2010PropOp52
 70
     0
102
RTVSPost2010Prop53
 90
        2
102
RTVSPost2010PropOp53
 70
     1
102
RTVSPost2010Prop54
  1
strokes_ogs.tif
102
RTVSPost2010PropOp54
 70
     1
102
RTVSPost2010Prop55
280
     0
102
RTVSPost2010PropOp55
 70
     1
102
RTVSPost2010Prop56
140
1.0
102
RTVSPost2010PropOp56
 70
     1
102
RTVSPost2010Prop57
140
1.0
102
RTVSPost2010PropOp57
 70
     1
  0
XRECORD
  5
272
102
{ACAD_REACTORS
330
271
102
}
330
271
100
AcDbXrecord
280
     1
102
RTVSPropertyOp0
 70
     1
102
RTVSPropertyOp1
 70
     1
102
RTVSPropertyOp2
 70
     1
102
RTVSPropertyOp3
 70
     1
102
RTVSPropertyOp4
 70
     1
102
RTVSPropertyOp5
 70
     1
102
RTVSPropertyOp6
 70
     1
102
RTVSPropertyOp7
 70
     1
102
RTVSPropertyOp8
 70
     1
102
RTVSPropertyOp9
 70
     1
102
RTVSPropertyOp10
 70
     1
102
RTVSPropertyOp11
 70
     1
102
RTVSPropertyOp12
 70
     1
102
RTVSPropertyOp13
 70
     1
102
RTVSPropertyOp14
 70
     1
102
RTVSPropertyOp15
 70
     1
102
RTVSPropertyOp16
 70
     1
102
RTVSPropertyOp17
 70
     1
102
RTVSPropertyOp18
 70
     1
102
RTVSPropertyOp19
 70
     1
102
RTVSPropertyOp20
 70
     1
102
RTVSPropertyOp21
 70
     1
102
RTVSPropertyOp22
 70
     1
102
RTVSPropertyOp23
 70
     1
102
RTVSPropertyOp24
 70
     1
102
RTVSPropertyOp25
 70
     1
102
RTVSPropertyOp26
 70
     1
102
RTVSPropertyOp27
 70
     1
102
RTVSPropertyOp28
 70
     1
102
RTVSPropertyOp29
 70
     1
102
RTVSPropertyOp30
 70
     1
102
RTVSPropertyOp31
 70
     1
102
RTVSPropertyOp32
 70
     1
102
RTVSPropertyOp33
 70
     1
102
RTVSPropertyOp34
 70
     1
102
RTVSPropertyOp35
 70
     1
102
RTVSPropertyOp36
 70
     1
102
RTVSPropertyOp37
 70
     1
102
RTVSPropertyOp38
 70
     1
102
RTVSPropertyOp39
 70
     1
102
RTVSPropertyOp40
 70
     1
102
RTVSPropertyOp41
 70
     1
102
RTVSPropertyOp42
 70
     1
102
RTVSPropertyOp43
 70
     1
102
RTVSPropertyOp44
 70
     1
102
RTVSPropertyOp45
 70
     1
102
RTVSPropertyOp46
 70
     1
102
RTVSPropertyOp47
 70
     1
102
RTVSPropertyOp48
 70
     1
102
RTVSPropertyOp49
 70
     1
102
RTVSPropertyOp50
 70
     1
102
RTVSPropertyOp51
 70
     0
102
RTVSPropertyOp52
 70
     0
102
RTVSPropertyOp53
 70
     1
102
RTVSPropertyOp54
 70
     1
102
RTVSPropertyOp55
 70
     1
102
RTVSPropertyOp56
 70
     1
102
RTVSPropertyOp57
 70
     1
102
RTVSPost2010Prop28
280
     0
102
RTVSPost2010PropOp28
 70
     1
102
RTVSPost2010Prop29
280
     1
102
RTVSPost2010PropOp29
 70
     1
102
RTVSPost2010Prop30
280
     1
102
RTVSPost2010PropOp30
 70
     1
102
RTVSPost2010Prop31
280
     0
102
RTVSPost2010PropOp31
 70
     1
102
RTVSPost2010Prop32
280
     0
102
RTVSPost2010PropOp32
 70
     1
102
RTVSPost2010Prop33
280
     0
102
RTVSPost2010PropOp33
 70
     1
102
RTVSPost2010Prop34
280
     0
102
RTVSPost2010PropOp34
 70
     1
102
RTVSPost2010Prop35
280
     0
102
RTVSPost2010PropOp35
 70
     1
102
RTVSPost2010Prop36
280
     0
102
RTVSPost2010PropOp36
 70
     1
102
RTVSPost2010Prop37
 90
       50
102
RTVSPost2010PropOp37
 70
     1
102
RTVSPost2010Prop38
140
0.0
102
RTVSPost2010PropOp38
 70
     1
102
RTVSPost2010Prop39
140
1.0
102
RTVSPost2010PropOp39
 70
     1
102
RTVSPost2010Prop40
 90
        0
102
RTVSPost2010PropOp40
 70
     1
102
RTVSPost2010Prop41ColorIndex
 90
       18
102
RTVSPost2010Prop41ColorRGB
 90
        0
102
RTVSPost2010PropOp41
 70
     1
102
RTVSPost2010Prop42
 90
       50
102
RTVSPost2010PropOp42
 70
     1
102
RTVSPost2010Prop43
 90
        3
102
RTVSPost2010PropOp43
 70
     1
102
RTVSPost2010Prop44ColorIndex
 90
        5
102
RTVSPost2010Prop44ColorRGB
 90
      255
102
RTVSPost2010PropOp44
 70
     1
102
RTVSPost2010Prop45
280
     0
102
RTVSPost2010PropOp45
 70
     1
102
RTVSPost2010Prop46
 90
       50
102
RTVSPost2010PropOp46
 70
     1
102
RTVSPost2010Prop47
 90
       50
102
RTVSPost2010PropOp47
 70
     1
102
RTVSPost2010Prop48
 90
       50
102
RTVSPost2010PropOp48
 70
     1
102
RTVSPost2010Prop49
280
     0
102
RTVSPost2010PropOp49
 70
     1
102
RTVSPost2010Prop50
 90
       50
102
RTVSPost2010PropOp50
 70
     1
102
RTVSPost2010Prop51ColorIndex
 90
      256
102
RTVSPost2010Prop51ColorRGB
 90
-16777216
102
RTVSPost2010PropOp51
 70
     0
102
RTVSPost2010Prop52
140
1.0
102
RTVSPost2010PropOp52
 70
     0
102
RTVSPost2010Prop53
 90
        2
102
RTVSPost2010PropOp53
 70
     1
102
RTVSPost2010Prop54
  1
strokes_ogs.tif
102
RTVSPost2010PropOp54
 70
     1
102
RTVSPost2010Prop55
280
     0
102
RTVSPost2010PropOp55
 70
     1
102
RTVSPost2010Prop56
140
1.0
102
RTVSPost2010PropOp56
 70
     1
102
RTVSPost2010Prop57
140
1.0
102
RTVSPost2010PropOp57
 70
     1
  0
XRECORD
  5
27A
102
{ACAD_REACTORS
330
279
102
}
330
279
100
AcDbXrecord
280
     1
102
RTVSPropertyOp0
 70
     0
102
RTVSPropertyOp1
 70
     0
102
RTVSPropertyOp2
 70
     0
102
RTVSPropertyOp3
 70
     0
102
RTVSPropertyOp4
 70
     0
102
RTVSPropertyOp5
 70
     0
102
RTVSPropertyOp6
 70
     0
102
RTVSPropertyOp7
 70
     0
102
RTVSPropertyOp8
 70
     0
102
RTVSPropertyOp9
 70
     0
102
RTVSPropertyOp10
 70
     0
102
RTVSPropertyOp11
 70
     0
102
RTVSPropertyOp12
 70
     0
102
RTVSPropertyOp13
 70
     0
102
RTVSPropertyOp14
 70
     0
102
RTVSPropertyOp15
 70
     0
102
RTVSPropertyOp16
 70
     0
102
RTVSPropertyOp17
 70
     0
102
RTVSPropertyOp18
 70
     0
102
RTVSPropertyOp19
 70
     0
102
RTVSPropertyOp20
 70
     0
102
RTVSPropertyOp21
 70
     0
102
RTVSPropertyOp22
 70
     0
102
RTVSPropertyOp23
 70
     0
102
RTVSPropertyOp24
 70
     0
102
RTVSPropertyOp25
 70
     0
102
RTVSPropertyOp26
 70
     0
102
RTVSPropertyOp27
 70
     0
102
RTVSPropertyOp28
 70
     1
102
RTVSPropertyOp29
 70
     1
102
RTVSPropertyOp30
 70
     1
102
RTVSPropertyOp31
 70
     1
102
RTVSPropertyOp32
 70
     1
102
RTVSPropertyOp33
 70
     1
102
RTVSPropertyOp34
 70
     1
102
RTVSPropertyOp35
 70
     1
102
RTVSPropertyOp36
 70
     1
102
RTVSPropertyOp37
 70
     1
102
RTVSPropertyOp38
 70
     1
102
RTVSPropertyOp39
 70
     1
102
RTVSPropertyOp40
 70
     1
102
RTVSPropertyOp41
 70
     1
102
RTVSPropertyOp42
 70
     1
102
RTVSPropertyOp43
 70
     1
102
RTVSPropertyOp44
 70
     1
102
RTVSPropertyOp45
 70
     1
102
RTVSPropertyOp46
 70
     1
102
RTVSPropertyOp47
 70
     1
102
RTVSPropertyOp48
 70
     1
102
RTVSPropertyOp49
 70
     1
102
RTVSPropertyOp50
 70
     1
102
RTVSPropertyOp51
 70
     0
102
RTVSPropertyOp52
 70
     0
102
RTVSPropertyOp53
 70
     1
102
RTVSPropertyOp54
 70
     1
102
RTVSPropertyOp55
 70
     1
102
RTVSPropertyOp56
 70
     1
102
RTVSPropertyOp57
 70
     1
102
RTVSPost2010Prop28
280
     0
102
RTVSPost2010PropOp28
 70
     1
102
RTVSPost2010Prop29
280
     1
102
RTVSPost2010PropOp29
 70
     1
102
RTVSPost2010Prop30
280
     1
102
RTVSPost2010PropOp30
 70
     1
102
RTVSPost2010Prop31
280
     0
102
RTVSPost2010PropOp31
 70
     1
102
RTVSPost2010Prop32
280
     0
102
RTVSPost2010PropOp32
 70
     1
102
RTVSPost2010Prop33
280
     0
102
RTVSPost2010PropOp33
 70
     1
102
RTVSPost2010Prop34
280
     0
102
RTVSPost2010PropOp34
 70
     1
102
RTVSPost2010Prop35
280
     0
102
RTVSPost2010PropOp35
 70
     1
102
RTVSPost2010Prop36
280
     0
102
RTVSPost2010PropOp36
 70
     1
102
RTVSPost2010Prop37
 90
       50
102
RTVSPost2010PropOp37
 70
     1
102
RTVSPost2010Prop38
140
0.0
102
RTVSPost2010PropOp38
 70
     1
102
RTVSPost2010Prop39
140
1.0
102
RTVSPost2010PropOp39
 70
     1
102
RTVSPost2010Prop40
 90
        0
102
RTVSPost2010PropOp40
 70
     1
102
RTVSPost2010Prop41ColorIndex
 90
       18
102
RTVSPost2010Prop41ColorRGB
 90
        0
102
RTVSPost2010PropOp41
 70
     1
102
RTVSPost2010Prop42
 90
       50
102
RTVSPost2010PropOp42
 70
     1
102
RTVSPost2010Prop43
 90
        3
102
RTVSPost2010PropOp43
 70
     1
102
RTVSPost2010Prop44ColorIndex
 90
        5
102
RTVSPost2010Prop44ColorRGB
 90
      255
102
RTVSPost2010PropOp44
 70
     1
102
RTVSPost2010Prop45
280
     0
102
RTVSPost2010PropOp45
 70
     1
102
RTVSPost2010Prop46
 90
       50
102
RTVSPost2010PropOp46
 70
     1
102
RTVSPost2010Prop47
 90
       50
102
RTVSPost2010PropOp47
 70
     1
102
RTVSPost2010Prop48
 90
       50
102
RTVSPost2010PropOp48
 70
     1
102
RTVSPost2010Prop49
280
     0
102
RTVSPost2010PropOp49
 70
     1
102
RTVSPost2010Prop50
 90
       50
102
RTVSPost2010PropOp50
 70
     1
102
RTVSPost2010Prop51ColorIndex
 90
      256
102
RTVSPost2010Prop51ColorRGB
 90
-16777216
102
RTVSPost2010PropOp51
 70
     0
102
RTVSPost2010Prop52
140
1.0
102
RTVSPost2010PropOp52
 70
     0
102
RTVSPost2010Prop53
 90
        2
102
RTVSPost2010PropOp53
 70
     1
102
RTVSPost2010Prop54
  1
strokes_ogs.tif
102
RTVSPost2010PropOp54
 70
     1
102
RTVSPost2010Prop55
280
     0
102
RTVSPost2010PropOp55
 70
     1
102
RTVSPost2010Prop56
140
1.0
102
RTVSPost2010PropOp56
 70
     1
102
RTVSPost2010Prop57
140
1.0
102
RTVSPost2010PropOp57
 70
     1
  0
XRECORD
  5
268
102
{ACAD_REACTORS
330
267
102
}
330
267
100
AcDbXrecord
280
     1
102
RTVSPropertyOp0
 70
     1
102
RTVSPropertyOp1
 70
     1
102
RTVSPropertyOp2
 70
     1
102
RTVSPropertyOp3
 70
     1
102
RTVSPropertyOp4
 70
     1
102
RTVSPropertyOp5
 70
     1
102
RTVSPropertyOp6
 70
     1
102
RTVSPropertyOp7
 70
     1
102
RTVSPropertyOp8
 70
     1
102
RTVSPropertyOp9
 70
     1
102
RTVSPropertyOp10
 70
     1
102
RTVSPropertyOp11
 70
     1
102
RTVSPropertyOp12
 70
     1
102
RTVSPropertyOp13
 70
     1
102
RTVSPropertyOp14
 70
     1
102
RTVSPropertyOp15
 70
     1
102
RTVSPropertyOp16
 70
     1
102
RTVSPropertyOp17
 70
     1
102
RTVSPropertyOp18
 70
     1
102
RTVSPropertyOp19
 70
     1
102
RTVSPropertyOp20
 70
     1
102
RTVSPropertyOp21
 70
     1
102
RTVSPropertyOp22
 70
     1
102
RTVSPropertyOp23
 70
     1
102
RTVSPropertyOp24
 70
     1
102
RTVSPropertyOp25
 70
     1
102
RTVSPropertyOp26
 70
     1
102
RTVSPropertyOp27
 70
     1
102
RTVSPropertyOp28
 70
     1
102
RTVSPropertyOp29
 70
     1
102
RTVSPropertyOp30
 70
     1
102
RTVSPropertyOp31
 70
     1
102
RTVSPropertyOp32
 70
     1
102
RTVSPropertyOp33
 70
     1
102
RTVSPropertyOp34
 70
     1
102
RTVSPropertyOp35
 70
     1
102
RTVSPropertyOp36
 70
     1
102
RTVSPropertyOp37
 70
     1
102
RTVSPropertyOp38
 70
     1
102
RTVSPropertyOp39
 70
     1
102
RTVSPropertyOp40
 70
     1
102
RTVSPropertyOp41
 70
     1
102
RTVSPropertyOp42
 70
     1
102
RTVSPropertyOp43
 70
     1
102
RTVSPropertyOp44
 70
     1
102
RTVSPropertyOp45
 70
     1
102
RTVSPropertyOp46
 70
     1
102
RTVSPropertyOp47
 70
     1
102
RTVSPropertyOp48
 70
     1
102
RTVSPropertyOp49
 70
     1
102
RTVSPropertyOp50
 70
     1
102
RTVSPropertyOp51
 70
     0
102
RTVSPropertyOp52
 70
     0
102
RTVSPropertyOp53
 70
     1
102
RTVSPropertyOp54
 70
     1
102
RTVSPropertyOp55
 70
     1
102
RTVSPropertyOp56
 70
     1
102
RTVSPropertyOp57
 70
     1
102
RTVSPost2010Prop28
280
     0
102
RTVSPost2010PropOp28
 70
     1
102
RTVSPost2010Prop29
280
     1
102
RTVSPost2010PropOp29
 70
     1
102
RTVSPost2010Prop30
280
     1
102
RTVSPost2010PropOp30
 70
     1
102
RTVSPost2010Prop31
280
     0
102
RTVSPost2010PropOp31
 70
     1
102
RTVSPost2010Prop32
280
     0
102
RTVSPost2010PropOp32
 70
     1
102
RTVSPost2010Prop33
280
     0
102
RTVSPost2010PropOp33
 70
     1
102
RTVSPost2010Prop34
280
     0
102
RTVSPost2010PropOp34
 70
     1
102
RTVSPost2010Prop35
280
     0
102
RTVSPost2010PropOp35
 70
     1
102
RTVSPost2010Prop36
280
     0
102
RTVSPost2010PropOp36
 70
     1
102
RTVSPost2010Prop37
 90
       50
102
RTVSPost2010PropOp37
 70
     1
102
RTVSPost2010Prop38
140
0.0
102
RTVSPost2010PropOp38
 70
     1
102
RTVSPost2010Prop39
140
1.0
102
RTVSPost2010PropOp39
 70
     1
102
RTVSPost2010Prop40
 90
        0
102
RTVSPost2010PropOp40
 70
     1
102
RTVSPost2010Prop41ColorIndex
 90
       18
102
RTVSPost2010Prop41ColorRGB
 90
        0
102
RTVSPost2010PropOp41
 70
     1
102
RTVSPost2010Prop42
 90
       50
102
RTVSPost2010PropOp42
 70
     1
102
RTVSPost2010Prop43
 90
        3
102
RTVSPost2010PropOp43
 70
     1
102
RTVSPost2010Prop44ColorIndex
 90
        5
102
RTVSPost2010Prop44ColorRGB
 90
      255
102
RTVSPost2010PropOp44
 70
     1
102
RTVSPost2010Prop45
280
     0
102
RTVSPost2010PropOp45
 70
     1
102
RTVSPost2010Prop46
 90
       50
102
RTVSPost2010PropOp46
 70
     1
102
RTVSPost2010Prop47
 90
       50
102
RTVSPost2010PropOp47
 70
     1
102
RTVSPost2010Prop48
 90
       50
102
RTVSPost2010PropOp48
 70
     1
102
RTVSPost2010Prop49
280
     0
102
RTVSPost2010PropOp49
 70
     1
102
RTVSPost2010Prop50
 90
       50
102
RTVSPost2010PropOp50
 70
     1
102
RTVSPost2010Prop51ColorIndex
 90
      256
102
RTVSPost2010Prop51ColorRGB
 90
-16777216
102
RTVSPost2010PropOp51
 70
     0
102
RTVSPost2010Prop52
140
1.0
102
RTVSPost2010PropOp52
 70
     0
102
RTVSPost2010Prop53
 90
        2
102
RTVSPost2010PropOp53
 70
     1
102
RTVSPost2010Prop54
  1
strokes_ogs.tif
102
RTVSPost2010PropOp54
 70
     1
102
RTVSPost2010Prop55
280
     0
102
RTVSPost2010PropOp55
 70
     1
102
RTVSPost2010Prop56
140
1.0
102
RTVSPost2010PropOp56
 70
     1
102
RTVSPost2010Prop57
140
1.0
102
RTVSPost2010PropOp57
 70
     1
  0
XRECORD
  5
286
102
{ACAD_REACTORS
330
285
102
}
330
285
100
AcDbXrecord
280
     1
102
RTVSPropertyOp0
 70
     1
102
RTVSPropertyOp1
 70
     1
102
RTVSPropertyOp2
 70
     1
102
RTVSPropertyOp3
 70
     1
102
RTVSPropertyOp4
 70
     1
102
RTVSPropertyOp5
 70
     1
102
RTVSPropertyOp6
 70
     1
102
RTVSPropertyOp7
 70
     1
102
RTVSPropertyOp8
 70
     1
102
RTVSPropertyOp9
 70
     1
102
RTVSPropertyOp10
 70
     1
102
RTVSPropertyOp11
 70
     1
102
RTVSPropertyOp12
 70
     1
102
RTVSPropertyOp13
 70
     1
102
RTVSPropertyOp14
 70
     1
102
RTVSPropertyOp15
 70
     1
102
RTVSPropertyOp16
 70
     1
102
RTVSPropertyOp17
 70
     1
102
RTVSPropertyOp18
 70
     1
102
RTVSPropertyOp19
 70
     1
102
RTVSPropertyOp20
 70
     1
102
RTVSPropertyOp21
 70
     1
102
RTVSPropertyOp22
 70
     1
102
RTVSPropertyOp23
 70
     1
102
RTVSPropertyOp24
 70
     1
102
RTVSPropertyOp25
 70
     1
102
RTVSPropertyOp26
 70
     1
102
RTVSPropertyOp27
 70
     1
102
RTVSPropertyOp28
 70
     1
102
RTVSPropertyOp29
 70
     1
102
RTVSPropertyOp30
 70
     1
102
RTVSPropertyOp31
 70
     1
102
RTVSPropertyOp32
 70
     1
102
RTVSPropertyOp33
 70
     1
102
RTVSPropertyOp34
 70
     1
102
RTVSPropertyOp35
 70
     1
102
RTVSPropertyOp36
 70
     1
102
RTVSPropertyOp37
 70
     1
102
RTVSPropertyOp38
 70
     1
102
RTVSPropertyOp39
 70
     1
102
RTVSPropertyOp40
 70
     1
102
RTVSPropertyOp41
 70
     1
102
RTVSPropertyOp42
 70
     1
102
RTVSPropertyOp43
 70
     1
102
RTVSPropertyOp44
 70
     1
102
RTVSPropertyOp45
 70
     1
102
RTVSPropertyOp46
 70
     1
102
RTVSPropertyOp47
 70
     1
102
RTVSPropertyOp48
 70
     1
102
RTVSPropertyOp49
 70
     1
102
RTVSPropertyOp50
 70
     1
102
RTVSPropertyOp51
 70
     0
102
RTVSPropertyOp52
 70
     0
102
RTVSPropertyOp53
 70
     1
102
RTVSPropertyOp54
 70
     1
102
RTVSPropertyOp55
 70
     1
102
RTVSPropertyOp56
 70
     1
102
RTVSPropertyOp57
 70
     1
102
RTVSPost2010Prop28
280
     0
102
RTVSPost2010PropOp28
 70
     1
102
RTVSPost2010Prop29
280
     1
102
RTVSPost2010PropOp29
 70
     1
102
RTVSPost2010Prop30
280
     1
102
RTVSPost2010PropOp30
 70
     1
102
RTVSPost2010Prop31
280
     0
102
RTVSPost2010PropOp31
 70
     1
102
RTVSPost2010Prop32
280
     0
102
RTVSPost2010PropOp32
 70
     1
102
RTVSPost2010Prop33
280
     0
102
RTVSPost2010PropOp33
 70
     1
102
RTVSPost2010Prop34
280
     0
102
RTVSPost2010PropOp34
 70
     1
102
RTVSPost2010Prop35
280
     0
102
RTVSPost2010PropOp35
 70
     1
102
RTVSPost2010Prop36
280
     0
102
RTVSPost2010PropOp36
 70
     1
102
RTVSPost2010Prop37
 90
       50
102
RTVSPost2010PropOp37
 70
     1
102
RTVSPost2010Prop38
140
0.0
102
RTVSPost2010PropOp38
 70
     1
102
RTVSPost2010Prop39
140
1.0
102
RTVSPost2010PropOp39
 70
     1
102
RTVSPost2010Prop40
 90
        0
102
RTVSPost2010PropOp40
 70
     1
102
RTVSPost2010Prop41ColorIndex
 90
       18
102
RTVSPost2010Prop41ColorRGB
 90
        0
102
RTVSPost2010PropOp41
 70
     1
102
RTVSPost2010Prop42
 90
       50
102
RTVSPost2010PropOp42
 70
     1
102
RTVSPost2010Prop43
 90
        3
102
RTVSPost2010PropOp43
 70
     1
102
RTVSPost2010Prop44ColorIndex
 90
        5
102
RTVSPost2010Prop44ColorRGB
 90
      255
102
RTVSPost2010PropOp44
 70
     1
102
RTVSPost2010Prop45
280
     0
102
RTVSPost2010PropOp45
 70
     1
102
RTVSPost2010Prop46
 90
       50
102
RTVSPost2010PropOp46
 70
     1
102
RTVSPost2010Prop47
 90
       50
102
RTVSPost2010PropOp47
 70
     1
102
RTVSPost2010Prop48
 90
       50
102
RTVSPost2010PropOp48
 70
     1
102
RTVSPost2010Prop49
280
     0
102
RTVSPost2010PropOp49
 70
     1
102
RTVSPost2010Prop50
 90
       50
102
RTVSPost2010PropOp50
 70
     1
102
RTVSPost2010Prop51ColorIndex
 90
      256
102
RTVSPost2010Prop51ColorRGB
 90
-16777216
102
RTVSPost2010PropOp51
 70
     0
102
RTVSPost2010Prop52
140
1.0
102
RTVSPost2010PropOp52
 70
     0
102
RTVSPost2010Prop53
 90
        2
102
RTVSPost2010PropOp53
 70
     1
102
RTVSPost2010Prop54
  1
strokes_ogs.tif
102
RTVSPost2010PropOp54
 70
     1
102
RTVSPost2010Prop55
280
     0
102
RTVSPost2010PropOp55
 70
     1
102
RTVSPost2010Prop56
140
1.0
102
RTVSPost2010PropOp56
 70
     1
102
RTVSPost2010Prop57
140
1.0
102
RTVSPost2010PropOp57
 70
     1
  0
XRECORD
  5
284
102
{ACAD_REACTORS
330
283
102
}
330
283
100
AcDbXrecord
280
     1
102
RTVSPropertyOp0
 70
     1
102
RTVSPropertyOp1
 70
     1
102
RTVSPropertyOp2
 70
     1
102
RTVSPropertyOp3
 70
     1
102
RTVSPropertyOp4
 70
     1
102
RTVSPropertyOp5
 70
     1
102
RTVSPropertyOp6
 70
     1
102
RTVSPropertyOp7
 70
     1
102
RTVSPropertyOp8
 70
     1
102
RTVSPropertyOp9
 70
     1
102
RTVSPropertyOp10
 70
     1
102
RTVSPropertyOp11
 70
     1
102
RTVSPropertyOp12
 70
     1
102
RTVSPropertyOp13
 70
     1
102
RTVSPropertyOp14
 70
     1
102
RTVSPropertyOp15
 70
     1
102
RTVSPropertyOp16
 70
     1
102
RTVSPropertyOp17
 70
     1
102
RTVSPropertyOp18
 70
     1
102
RTVSPropertyOp19
 70
     1
102
RTVSPropertyOp20
 70
     1
102
RTVSPropertyOp21
 70
     1
102
RTVSPropertyOp22
 70
     1
102
RTVSPropertyOp23
 70
     1
102
RTVSPropertyOp24
 70
     1
102
RTVSPropertyOp25
 70
     1
102
RTVSPropertyOp26
 70
     1
102
RTVSPropertyOp27
 70
     1
102
RTVSPropertyOp28
 70
     1
102
RTVSPropertyOp29
 70
     1
102
RTVSPropertyOp30
 70
     1
102
RTVSPropertyOp31
 70
     1
102
RTVSPropertyOp32
 70
     1
102
RTVSPropertyOp33
 70
     1
102
RTVSPropertyOp34
 70
     1
102
RTVSPropertyOp35
 70
     1
102
RTVSPropertyOp36
 70
     1
102
RTVSPropertyOp37
 70
     1
102
RTVSPropertyOp38
 70
     1
102
RTVSPropertyOp39
 70
     1
102
RTVSPropertyOp40
 70
     1
102
RTVSPropertyOp41
 70
     1
102
RTVSPropertyOp42
 70
     1
102
RTVSPropertyOp43
 70
     1
102
RTVSPropertyOp44
 70
     1
102
RTVSPropertyOp45
 70
     1
102
RTVSPropertyOp46
 70
     1
102
RTVSPropertyOp47
 70
     1
102
RTVSPropertyOp48
 70
     1
102
RTVSPropertyOp49
 70
     1
102
RTVSPropertyOp50
 70
     1
102
RTVSPropertyOp51
 70
     0
102
RTVSPropertyOp52
 70
     0
102
RTVSPropertyOp53
 70
     1
102
RTVSPropertyOp54
 70
     1
102
RTVSPropertyOp55
 70
     1
102
RTVSPropertyOp56
 70
     1
102
RTVSPropertyOp57
 70
     1
102
RTVSPost2010Prop28
280
     0
102
RTVSPost2010PropOp28
 70
     1
102
RTVSPost2010Prop29
280
     1
102
RTVSPost2010PropOp29
 70
     1
102
RTVSPost2010Prop30
280
     1
102
RTVSPost2010PropOp30
 70
     1
102
RTVSPost2010Prop31
280
     0
102
RTVSPost2010PropOp31
 70
     1
102
RTVSPost2010Prop32
280
     0
102
RTVSPost2010PropOp32
 70
     1
102
RTVSPost2010Prop33
280
     0
102
RTVSPost2010PropOp33
 70
     1
102
RTVSPost2010Prop34
280
     0
102
RTVSPost2010PropOp34
 70
     1
102
RTVSPost2010Prop35
280
     0
102
RTVSPost2010PropOp35
 70
     1
102
RTVSPost2010Prop36
280
     0
102
RTVSPost2010PropOp36
 70
     1
102
RTVSPost2010Prop37
 90
       50
102
RTVSPost2010PropOp37
 70
     1
102
RTVSPost2010Prop38
140
0.0
102
RTVSPost2010PropOp38
 70
     1
102
RTVSPost2010Prop39
140
1.0
102
RTVSPost2010PropOp39
 70
     1
102
RTVSPost2010Prop40
 90
        0
102
RTVSPost2010PropOp40
 70
     1
102
RTVSPost2010Prop41ColorIndex
 90
       18
102
RTVSPost2010Prop41ColorRGB
 90
        0
102
RTVSPost2010PropOp41
 70
     1
102
RTVSPost2010Prop42
 90
       50
102
RTVSPost2010PropOp42
 70
     1
102
RTVSPost2010Prop43
 90
        3
102
RTVSPost2010PropOp43
 70
     1
102
RTVSPost2010Prop44ColorIndex
 90
        5
102
RTVSPost2010Prop44ColorRGB
 90
      255
102
RTVSPost2010PropOp44
 70
     1
102
RTVSPost2010Prop45
280
     0
102
RTVSPost2010PropOp45
 70
     1
102
RTVSPost2010Prop46
 90
       50
102
RTVSPost2010PropOp46
 70
     1
102
RTVSPost2010Prop47
 90
       50
102
RTVSPost2010PropOp47
 70
     1
102
RTVSPost2010Prop48
 90
       50
102
RTVSPost2010PropOp48
 70
     1
102
RTVSPost2010Prop49
280
     0
102
RTVSPost2010PropOp49
 70
     1
102
RTVSPost2010Prop50
 90
       50
102
RTVSPost2010PropOp50
 70
     1
102
RTVSPost2010Prop51ColorIndex
 90
      256
102
RTVSPost2010Prop51ColorRGB
 90
-16777216
102
RTVSPost2010PropOp51
 70
     0
102
RTVSPost2010Prop52
140
1.0
102
RTVSPost2010PropOp52
 70
     0
102
RTVSPost2010Prop53
 90
        2
102
RTVSPost2010PropOp53
 70
     1
102
RTVSPost2010Prop54
  1
strokes_ogs.tif
102
RTVSPost2010PropOp54
 70
     1
102
RTVSPost2010Prop55
280
     0
102
RTVSPost2010PropOp55
 70
     1
102
RTVSPost2010Prop56
140
1.0
102
RTVSPost2010PropOp56
 70
     1
102
RTVSPost2010Prop57
140
1.0
102
RTVSPost2010PropOp57
 70
     1
  0
XRECORD
  5
27E
102
{ACAD_REACTORS
330
27D
102
}
330
27D
100
AcDbXrecord
280
     1
102
RTVSPropertyOp0
 70
     1
102
RTVSPropertyOp1
 70
     1
102
RTVSPropertyOp2
 70
     1
102
RTVSPropertyOp3
 70
     1
102
RTVSPropertyOp4
 70
     1
102
RTVSPropertyOp5
 70
     1
102
RTVSPropertyOp6
 70
     1
102
RTVSPropertyOp7
 70
     1
102
RTVSPropertyOp8
 70
     1
102
RTVSPropertyOp9
 70
     1
102
RTVSPropertyOp10
 70
     1
102
RTVSPropertyOp11
 70
     1
102
RTVSPropertyOp12
 70
     1
102
RTVSPropertyOp13
 70
     1
102
RTVSPropertyOp14
 70
     1
102
RTVSPropertyOp15
 70
     1
102
RTVSPropertyOp16
 70
     1
102
RTVSPropertyOp17
 70
     1
102
RTVSPropertyOp18
 70
     1
102
RTVSPropertyOp19
 70
     1
102
RTVSPropertyOp20
 70
     1
102
RTVSPropertyOp21
 70
     1
102
RTVSPropertyOp22
 70
     1
102
RTVSPropertyOp23
 70
     1
102
RTVSPropertyOp24
 70
     1
102
RTVSPropertyOp25
 70
     1
102
RTVSPropertyOp26
 70
     1
102
RTVSPropertyOp27
 70
     1
102
RTVSPropertyOp28
 70
     1
102
RTVSPropertyOp29
 70
     1
102
RTVSPropertyOp30
 70
     1
102
RTVSPropertyOp31
 70
     1
102
RTVSPropertyOp32
 70
     1
102
RTVSPropertyOp33
 70
     1
102
RTVSPropertyOp34
 70
     1
102
RTVSPropertyOp35
 70
     1
102
RTVSPropertyOp36
 70
     1
102
RTVSPropertyOp37
 70
     1
102
RTVSPropertyOp38
 70
     1
102
RTVSPropertyOp39
 70
     1
102
RTVSPropertyOp40
 70
     1
102
RTVSPropertyOp41
 70
     1
102
RTVSPropertyOp42
 70
     1
102
RTVSPropertyOp43
 70
     1
102
RTVSPropertyOp44
 70
     1
102
RTVSPropertyOp45
 70
     1
102
RTVSPropertyOp46
 70
     1
102
RTVSPropertyOp47
 70
     1
102
RTVSPropertyOp48
 70
     1
102
RTVSPropertyOp49
 70
     1
102
RTVSPropertyOp50
 70
     1
102
RTVSPropertyOp51
 70
     0
102
RTVSPropertyOp52
 70
     0
102
RTVSPropertyOp53
 70
     1
102
RTVSPropertyOp54
 70
     1
102
RTVSPropertyOp55
 70
     1
102
RTVSPropertyOp56
 70
     1
102
RTVSPropertyOp57
 70
     1
102
RTVSPost2010Prop28
280
     0
102
RTVSPost2010PropOp28
 70
     1
102
RTVSPost2010Prop29
280
     1
102
RTVSPost2010PropOp29
 70
     1
102
RTVSPost2010Prop30
280
     1
102
RTVSPost2010PropOp30
 70
     1
102
RTVSPost2010Prop31
280
     0
102
RTVSPost2010PropOp31
 70
     1
102
RTVSPost2010Prop32
280
     0
102
RTVSPost2010PropOp32
 70
     1
102
RTVSPost2010Prop33
280
     0
102
RTVSPost2010PropOp33
 70
     1
102
RTVSPost2010Prop34
280
     0
102
RTVSPost2010PropOp34
 70
     1
102
RTVSPost2010Prop35
280
     0
102
RTVSPost2010PropOp35
 70
     1
102
RTVSPost2010Prop36
280
     0
102
RTVSPost2010PropOp36
 70
     1
102
RTVSPost2010Prop37
 90
       50
102
RTVSPost2010PropOp37
 70
     1
102
RTVSPost2010Prop38
140
0.0
102
RTVSPost2010PropOp38
 70
     1
102
RTVSPost2010Prop39
140
1.0
102
RTVSPost2010PropOp39
 70
     1
102
RTVSPost2010Prop40
 90
        0
102
RTVSPost2010PropOp40
 70
     1
102
RTVSPost2010Prop41ColorIndex
 90
       18
102
RTVSPost2010Prop41ColorRGB
 90
        0
102
RTVSPost2010PropOp41
 70
     1
102
RTVSPost2010Prop42
 90
       50
102
RTVSPost2010PropOp42
 70
     1
102
RTVSPost2010Prop43
 90
        3
102
RTVSPost2010PropOp43
 70
     1
102
RTVSPost2010Prop44ColorIndex
 90
        5
102
RTVSPost2010Prop44ColorRGB
 90
      255
102
RTVSPost2010PropOp44
 70
     1
102
RTVSPost2010Prop45
280
     0
102
RTVSPost2010PropOp45
 70
     1
102
RTVSPost2010Prop46
 90
       50
102
RTVSPost2010PropOp46
 70
     1
102
RTVSPost2010Prop47
 90
       50
102
RTVSPost2010PropOp47
 70
     1
102
RTVSPost2010Prop48
 90
       50
102
RTVSPost2010PropOp48
 70
     1
102
RTVSPost2010Prop49
280
     0
102
RTVSPost2010PropOp49
 70
     1
102
RTVSPost2010Prop50
 90
       50
102
RTVSPost2010PropOp50
 70
     1
102
RTVSPost2010Prop51ColorIndex
 90
      256
102
RTVSPost2010Prop51ColorRGB
 90
-16777216
102
RTVSPost2010PropOp51
 70
     0
102
RTVSPost2010Prop52
140
1.0
102
RTVSPost2010PropOp52
 70
     0
102
RTVSPost2010Prop53
 90
        2
102
RTVSPost2010PropOp53
 70
     1
102
RTVSPost2010Prop54
  1
strokes_ogs.tif
102
RTVSPost2010PropOp54
 70
     1
102
RTVSPost2010Prop55
280
     0
102
RTVSPost2010PropOp55
 70
     1
102
RTVSPost2010Prop56
140
1.0
102
RTVSPost2010PropOp56
 70
     1
102
RTVSPost2010Prop57
140
1.0
102
RTVSPost2010PropOp57
 70
     1
  0
XRECORD
  5
280
102
{ACAD_REACTORS
330
27F
102
}
330
27F
100
AcDbXrecord
280
     1
102
RTVSPropertyOp0
 70
     1
102
RTVSPropertyOp1
 70
     1
102
RTVSPropertyOp2
 70
     1
102
RTVSPropertyOp3
 70
     1
102
RTVSPropertyOp4
 70
     1
102
RTVSPropertyOp5
 70
     1
102
RTVSPropertyOp6
 70
     1
102
RTVSPropertyOp7
 70
     1
102
RTVSPropertyOp8
 70
     1
102
RTVSPropertyOp9
 70
     1
102
RTVSPropertyOp10
 70
     1
102
RTVSPropertyOp11
 70
     1
102
RTVSPropertyOp12
 70
     1
102
RTVSPropertyOp13
 70
     1
102
RTVSPropertyOp14
 70
     1
102
RTVSPropertyOp15
 70
     1
102
RTVSPropertyOp16
 70
     1
102
RTVSPropertyOp17
 70
     1
102
RTVSPropertyOp18
 70
     1
102
RTVSPropertyOp19
 70
     1
102
RTVSPropertyOp20
 70
     1
102
RTVSPropertyOp21
 70
     1
102
RTVSPropertyOp22
 70
     1
102
RTVSPropertyOp23
 70
     1
102
RTVSPropertyOp24
 70
     1
102
RTVSPropertyOp25
 70
     1
102
RTVSPropertyOp26
 70
     1
102
RTVSPropertyOp27
 70
     1
102
RTVSPropertyOp28
 70
     1
102
RTVSPropertyOp29
 70
     1
102
RTVSPropertyOp30
 70
     1
102
RTVSPropertyOp31
 70
     1
102
RTVSPropertyOp32
 70
     1
102
RTVSPropertyOp33
 70
     1
102
RTVSPropertyOp34
 70
     1
102
RTVSPropertyOp35
 70
     1
102
RTVSPropertyOp36
 70
     1
102
RTVSPropertyOp37
 70
     1
102
RTVSPropertyOp38
 70
     1
102
RTVSPropertyOp39
 70
     1
102
RTVSPropertyOp40
 70
     1
102
RTVSPropertyOp41
 70
     1
102
RTVSPropertyOp42
 70
     1
102
RTVSPropertyOp43
 70
     1
102
RTVSPropertyOp44
 70
     1
102
RTVSPropertyOp45
 70
     1
102
RTVSPropertyOp46
 70
     1
102
RTVSPropertyOp47
 70
     1
102
RTVSPropertyOp48
 70
     1
102
RTVSPropertyOp49
 70
     1
102
RTVSPropertyOp50
 70
     1
102
RTVSPropertyOp51
 70
     0
102
RTVSPropertyOp52
 70
     0
102
RTVSPropertyOp53
 70
     1
102
RTVSPropertyOp54
 70
     1
102
RTVSPropertyOp55
 70
     1
102
RTVSPropertyOp56
 70
     1
102
RTVSPropertyOp57
 70
     1
102
RTVSPost2010Prop28
280
     0
102
RTVSPost2010PropOp28
 70
     1
102
RTVSPost2010Prop29
280
     1
102
RTVSPost2010PropOp29
 70
     1
102
RTVSPost2010Prop30
280
     1
102
RTVSPost2010PropOp30
 70
     1
102
RTVSPost2010Prop31
280
     0
102
RTVSPost2010PropOp31
 70
     1
102
RTVSPost2010Prop32
280
     0
102
RTVSPost2010PropOp32
 70
     1
102
RTVSPost2010Prop33
280
     0
102
RTVSPost2010PropOp33
 70
     1
102
RTVSPost2010Prop34
280
     0
102
RTVSPost2010PropOp34
 70
     1
102
RTVSPost2010Prop35
280
     0
102
RTVSPost2010PropOp35
 70
     1
102
RTVSPost2010Prop36
280
     0
102
RTVSPost2010PropOp36
 70
     1
102
RTVSPost2010Prop37
 90
       50
102
RTVSPost2010PropOp37
 70
     1
102
RTVSPost2010Prop38
140
0.0
102
RTVSPost2010PropOp38
 70
     1
102
RTVSPost2010Prop39
140
1.0
102
RTVSPost2010PropOp39
 70
     1
102
RTVSPost2010Prop40
 90
        0
102
RTVSPost2010PropOp40
 70
     1
102
RTVSPost2010Prop41ColorIndex
 90
       18
102
RTVSPost2010Prop41ColorRGB
 90
        0
102
RTVSPost2010PropOp41
 70
     1
102
RTVSPost2010Prop42
 90
       50
102
RTVSPost2010PropOp42
 70
     1
102
RTVSPost2010Prop43
 90
        3
102
RTVSPost2010PropOp43
 70
     1
102
RTVSPost2010Prop44ColorIndex
 90
        5
102
RTVSPost2010Prop44ColorRGB
 90
      255
102
RTVSPost2010PropOp44
 70
     1
102
RTVSPost2010Prop45
280
     0
102
RTVSPost2010PropOp45
 70
     1
102
RTVSPost2010Prop46
 90
       50
102
RTVSPost2010PropOp46
 70
     1
102
RTVSPost2010Prop47
 90
       50
102
RTVSPost2010PropOp47
 70
     1
102
RTVSPost2010Prop48
 90
       50
102
RTVSPost2010PropOp48
 70
     1
102
RTVSPost2010Prop49
280
     0
102
RTVSPost2010PropOp49
 70
     1
102
RTVSPost2010Prop50
 90
       50
102
RTVSPost2010PropOp50
 70
     1
102
RTVSPost2010Prop51ColorIndex
 90
      256
102
RTVSPost2010Prop51ColorRGB
 90
-16777216
102
RTVSPost2010PropOp51
 70
     0
102
RTVSPost2010Prop52
140
1.0
102
RTVSPost2010PropOp52
 70
     0
102
RTVSPost2010Prop53
 90
        2
102
RTVSPost2010PropOp53
 70
     1
102
RTVSPost2010Prop54
  1
strokes_ogs.tif
102
RTVSPost2010PropOp54
 70
     1
102
RTVSPost2010Prop55
280
     0
102
RTVSPost2010PropOp55
 70
     1
102
RTVSPost2010Prop56
140
1.0
102
RTVSPost2010PropOp56
 70
     1
102
RTVSPost2010Prop57
140
1.0
102
RTVSPost2010PropOp57
 70
     1
  0
XRECORD
  5
270
102
{ACAD_REACTORS
330
26F
102
}
330
26F
100
AcDbXrecord
280
     1
102
RTVSPropertyOp0
 70
     1
102
RTVSPropertyOp1
 70
     1
102
RTVSPropertyOp2
 70
     1
102
RTVSPropertyOp3
 70
     1
102
RTVSPropertyOp4
 70
     1
102
RTVSPropertyOp5
 70
     1
102
RTVSPropertyOp6
 70
     1
102
RTVSPropertyOp7
 70
     1
102
RTVSPropertyOp8
 70
     1
102
RTVSPropertyOp9
 70
     1
102
RTVSPropertyOp10
 70
     1
102
RTVSPropertyOp11
 70
     1
102
RTVSPropertyOp12
 70
     1
102
RTVSPropertyOp13
 70
     1
102
RTVSPropertyOp14
 70
     1
102
RTVSPropertyOp15
 70
     1
102
RTVSPropertyOp16
 70
     1
102
RTVSPropertyOp17
 70
     1
102
RTVSPropertyOp18
 70
     1
102
RTVSPropertyOp19
 70
     1
102
RTVSPropertyOp20
 70
     1
102
RTVSPropertyOp21
 70
     1
102
RTVSPropertyOp22
 70
     1
102
RTVSPropertyOp23
 70
     1
102
RTVSPropertyOp24
 70
     1
102
RTVSPropertyOp25
 70
     1
102
RTVSPropertyOp26
 70
     1
102
RTVSPropertyOp27
 70
     1
102
RTVSPropertyOp28
 70
     1
102
RTVSPropertyOp29
 70
     1
102
RTVSPropertyOp30
 70
     1
102
RTVSPropertyOp31
 70
     1
102
RTVSPropertyOp32
 70
     1
102
RTVSPropertyOp33
 70
     1
102
RTVSPropertyOp34
 70
     1
102
RTVSPropertyOp35
 70
     1
102
RTVSPropertyOp36
 70
     1
102
RTVSPropertyOp37
 70
     1
102
RTVSPropertyOp38
 70
     1
102
RTVSPropertyOp39
 70
     1
102
RTVSPropertyOp40
 70
     1
102
RTVSPropertyOp41
 70
     1
102
RTVSPropertyOp42
 70
     1
102
RTVSPropertyOp43
 70
     1
102
RTVSPropertyOp44
 70
     1
102
RTVSPropertyOp45
 70
     1
102
RTVSPropertyOp46
 70
     1
102
RTVSPropertyOp47
 70
     1
102
RTVSPropertyOp48
 70
     1
102
RTVSPropertyOp49
 70
     1
102
RTVSPropertyOp50
 70
     1
102
RTVSPropertyOp51
 70
     0
102
RTVSPropertyOp52
 70
     0
102
RTVSPropertyOp53
 70
     1
102
RTVSPropertyOp54
 70
     1
102
RTVSPropertyOp55
 70
     1
102
RTVSPropertyOp56
 70
     1
102
RTVSPropertyOp57
 70
     1
102
RTVSPost2010Prop28
280
     0
102
RTVSPost2010PropOp28
 70
     1
102
RTVSPost2010Prop29
280
     1
102
RTVSPost2010PropOp29
 70
     1
102
RTVSPost2010Prop30
280
     1
102
RTVSPost2010PropOp30
 70
     1
102
RTVSPost2010Prop31
280
     0
102
RTVSPost2010PropOp31
 70
     1
102
RTVSPost2010Prop32
280
     0
102
RTVSPost2010PropOp32
 70
     1
102
RTVSPost2010Prop33
280
     0
102
RTVSPost2010PropOp33
 70
     1
102
RTVSPost2010Prop34
280
     0
102
RTVSPost2010PropOp34
 70
     1
102
RTVSPost2010Prop35
280
     0
102
RTVSPost2010PropOp35
 70
     1
102
RTVSPost2010Prop36
280
     0
102
RTVSPost2010PropOp36
 70
     1
102
RTVSPost2010Prop37
 90
       50
102
RTVSPost2010PropOp37
 70
     1
102
RTVSPost2010Prop38
140
0.0
102
RTVSPost2010PropOp38
 70
     1
102
RTVSPost2010Prop39
140
1.0
102
RTVSPost2010PropOp39
 70
     1
102
RTVSPost2010Prop40
 90
        0
102
RTVSPost2010PropOp40
 70
     1
102
RTVSPost2010Prop41ColorIndex
 90
       18
102
RTVSPost2010Prop41ColorRGB
 90
        0
102
RTVSPost2010PropOp41
 70
     1
102
RTVSPost2010Prop42
 90
       50
102
RTVSPost2010PropOp42
 70
     1
102
RTVSPost2010Prop43
 90
        3
102
RTVSPost2010PropOp43
 70
     1
102
RTVSPost2010Prop44ColorIndex
 90
        5
102
RTVSPost2010Prop44ColorRGB
 90
      255
102
RTVSPost2010PropOp44
 70
     1
102
RTVSPost2010Prop45
280
     0
102
RTVSPost2010PropOp45
 70
     1
102
RTVSPost2010Prop46
 90
       50
102
RTVSPost2010PropOp46
 70
     1
102
RTVSPost2010Prop47
 90
       50
102
RTVSPost2010PropOp47
 70
     1
102
RTVSPost2010Prop48
 90
       50
102
RTVSPost2010PropOp48
 70
     1
102
RTVSPost2010Prop49
280
     0
102
RTVSPost2010PropOp49
 70
     1
102
RTVSPost2010Prop50
 90
       50
102
RTVSPost2010PropOp50
 70
     1
102
RTVSPost2010Prop51ColorIndex
 90
      256
102
RTVSPost2010Prop51ColorRGB
 90
-16777216
102
RTVSPost2010PropOp51
 70
     0
102
RTVSPost2010Prop52
140
1.0
102
RTVSPost2010PropOp52
 70
     0
102
RTVSPost2010Prop53
 90
        2
102
RTVSPost2010PropOp53
 70
     1
102
RTVSPost2010Prop54
  1
strokes_ogs.tif
102
RTVSPost2010PropOp54
 70
     1
102
RTVSPost2010Prop55
280
     0
102
RTVSPost2010PropOp55
 70
     1
102
RTVSPost2010Prop56
140
1.0
102
RTVSPost2010PropOp56
 70
     1
102
RTVSPost2010Prop57
140
1.0
102
RTVSPost2010PropOp57
 70
     1
  0
XRECORD
  5
262
102
{ACAD_REACTORS
330
261
102
}
330
261
100
AcDbXrecord
280
     1
102
RTVSPropertyOp0
 70
     1
102
RTVSPropertyOp1
 70
     1
102
RTVSPropertyOp2
 70
     1
102
RTVSPropertyOp3
 70
     1
102
RTVSPropertyOp4
 70
     1
102
RTVSPropertyOp5
 70
     1
102
RTVSPropertyOp6
 70
     1
102
RTVSPropertyOp7
 70
     1
102
RTVSPropertyOp8
 70
     1
102
RTVSPropertyOp9
 70
     1
102
RTVSPropertyOp10
 70
     1
102
RTVSPropertyOp11
 70
     1
102
RTVSPropertyOp12
 70
     1
102
RTVSPropertyOp13
 70
     1
102
RTVSPropertyOp14
 70
     1
102
RTVSPropertyOp15
 70
     1
102
RTVSPropertyOp16
 70
     1
102
RTVSPropertyOp17
 70
     1
102
RTVSPropertyOp18
 70
     1
102
RTVSPropertyOp19
 70
     1
102
RTVSPropertyOp20
 70
     1
102
RTVSPropertyOp21
 70
     1
102
RTVSPropertyOp22
 70
     1
102
RTVSPropertyOp23
 70
     1
102
RTVSPropertyOp24
 70
     1
102
RTVSPropertyOp25
 70
     1
102
RTVSPropertyOp26
 70
     1
102
RTVSPropertyOp27
 70
     1
102
RTVSPropertyOp28
 70
     1
102
RTVSPropertyOp29
 70
     1
102
RTVSPropertyOp30
 70
     1
102
RTVSPropertyOp31
 70
     1
102
RTVSPropertyOp32
 70
     1
102
RTVSPropertyOp33
 70
     1
102
RTVSPropertyOp34
 70
     1
102
RTVSPropertyOp35
 70
     1
102
RTVSPropertyOp36
 70
     1
102
RTVSPropertyOp37
 70
     1
102
RTVSPropertyOp38
 70
     1
102
RTVSPropertyOp39
 70
     1
102
RTVSPropertyOp40
 70
     1
102
RTVSPropertyOp41
 70
     1
102
RTVSPropertyOp42
 70
     1
102
RTVSPropertyOp43
 70
     1
102
RTVSPropertyOp44
 70
     1
102
RTVSPropertyOp45
 70
     1
102
RTVSPropertyOp46
 70
     1
102
RTVSPropertyOp47
 70
     1
102
RTVSPropertyOp48
 70
     1
102
RTVSPropertyOp49
 70
     1
102
RTVSPropertyOp50
 70
     1
102
RTVSPropertyOp51
 70
     0
102
RTVSPropertyOp52
 70
     0
102
RTVSPropertyOp53
 70
     1
102
RTVSPropertyOp54
 70
     1
102
RTVSPropertyOp55
 70
     1
102
RTVSPropertyOp56
 70
     1
102
RTVSPropertyOp57
 70
     1
102
RTVSPost2010Prop28
280
     0
102
RTVSPost2010PropOp28
 70
     1
102
RTVSPost2010Prop29
280
     1
102
RTVSPost2010PropOp29
 70
     1
102
RTVSPost2010Prop30
280
     1
102
RTVSPost2010PropOp30
 70
     1
102
RTVSPost2010Prop31
280
     0
102
RTVSPost2010PropOp31
 70
     1
102
RTVSPost2010Prop32
280
     0
102
RTVSPost2010PropOp32
 70
     1
102
RTVSPost2010Prop33
280
     0
102
RTVSPost2010PropOp33
 70
     1
102
RTVSPost2010Prop34
280
     0
102
RTVSPost2010PropOp34
 70
     1
102
RTVSPost2010Prop35
280
     0
102
RTVSPost2010PropOp35
 70
     1
102
RTVSPost2010Prop36
280
     0
102
RTVSPost2010PropOp36
 70
     1
102
RTVSPost2010Prop37
 90
       50
102
RTVSPost2010PropOp37
 70
     1
102
RTVSPost2010Prop38
140
0.0
102
RTVSPost2010PropOp38
 70
     1
102
RTVSPost2010Prop39
140
1.0
102
RTVSPost2010PropOp39
 70
     1
102
RTVSPost2010Prop40
 90
        0
102
RTVSPost2010PropOp40
 70
     1
102
RTVSPost2010Prop41ColorIndex
 90
       18
102
RTVSPost2010Prop41ColorRGB
 90
        0
102
RTVSPost2010PropOp41
 70
     1
102
RTVSPost2010Prop42
 90
       50
102
RTVSPost2010PropOp42
 70
     1
102
RTVSPost2010Prop43
 90
        3
102
RTVSPost2010PropOp43
 70
     1
102
RTVSPost2010Prop44ColorIndex
 90
        5
102
RTVSPost2010Prop44ColorRGB
 90
      255
102
RTVSPost2010PropOp44
 70
     1
102
RTVSPost2010Prop45
280
     0
102
RTVSPost2010PropOp45
 70
     1
102
RTVSPost2010Prop46
 90
       50
102
RTVSPost2010PropOp46
 70
     1
102
RTVSPost2010Prop47
 90
       50
102
RTVSPost2010PropOp47
 70
     1
102
RTVSPost2010Prop48
 90
       50
102
RTVSPost2010PropOp48
 70
     1
102
RTVSPost2010Prop49
280
     0
102
RTVSPost2010PropOp49
 70
     1
102
RTVSPost2010Prop50
 90
       50
102
RTVSPost2010PropOp50
 70
     1
102
RTVSPost2010Prop51ColorIndex
 90
      256
102
RTVSPost2010Prop51ColorRGB
 90
-16777216
102
RTVSPost2010PropOp51
 70
     0
102
RTVSPost2010Prop52
140
1.0
102
RTVSPost2010PropOp52
 70
     0
102
RTVSPost2010Prop53
 90
        2
102
RTVSPost2010PropOp53
 70
     1
102
RTVSPost2010Prop54
  1
strokes_ogs.tif
102
RTVSPost2010PropOp54
 70
     1
102
RTVSPost2010Prop55
280
     0
102
RTVSPost2010PropOp55
 70
     1
102
RTVSPost2010Prop56
140
1.0
102
RTVSPost2010PropOp56
 70
     1
102
RTVSPost2010Prop57
140
1.0
102
RTVSPost2010PropOp57
 70
     1
  0
XRECORD
  5
282
102
{ACAD_REACTORS
330
281
102
}
330
281
100
AcDbXrecord
280
     1
102
RTVSPropertyOp0
 70
     1
102
RTVSPropertyOp1
 70
     1
102
RTVSPropertyOp2
 70
     1
102
RTVSPropertyOp3
 70
     1
102
RTVSPropertyOp4
 70
     1
102
RTVSPropertyOp5
 70
     1
102
RTVSPropertyOp6
 70
     1
102
RTVSPropertyOp7
 70
     1
102
RTVSPropertyOp8
 70
     1
102
RTVSPropertyOp9
 70
     1
102
RTVSPropertyOp10
 70
     1
102
RTVSPropertyOp11
 70
     1
102
RTVSPropertyOp12
 70
     1
102
RTVSPropertyOp13
 70
     1
102
RTVSPropertyOp14
 70
     1
102
RTVSPropertyOp15
 70
     1
102
RTVSPropertyOp16
 70
     1
102
RTVSPropertyOp17
 70
     1
102
RTVSPropertyOp18
 70
     1
102
RTVSPropertyOp19
 70
     1
102
RTVSPropertyOp20
 70
     1
102
RTVSPropertyOp21
 70
     1
102
RTVSPropertyOp22
 70
     1
102
RTVSPropertyOp23
 70
     1
102
RTVSPropertyOp24
 70
     1
102
RTVSPropertyOp25
 70
     1
102
RTVSPropertyOp26
 70
     1
102
RTVSPropertyOp27
 70
     1
102
RTVSPropertyOp28
 70
     1
102
RTVSPropertyOp29
 70
     1
102
RTVSPropertyOp30
 70
     1
102
RTVSPropertyOp31
 70
     1
102
RTVSPropertyOp32
 70
     1
102
RTVSPropertyOp33
 70
     1
102
RTVSPropertyOp34
 70
     1
102
RTVSPropertyOp35
 70
     1
102
RTVSPropertyOp36
 70
     1
102
RTVSPropertyOp37
 70
     1
102
RTVSPropertyOp38
 70
     1
102
RTVSPropertyOp39
 70
     1
102
RTVSPropertyOp40
 70
     1
102
RTVSPropertyOp41
 70
     1
102
RTVSPropertyOp42
 70
     1
102
RTVSPropertyOp43
 70
     1
102
RTVSPropertyOp44
 70
     1
102
RTVSPropertyOp45
 70
     1
102
RTVSPropertyOp46
 70
     1
102
RTVSPropertyOp47
 70
     1
102
RTVSPropertyOp48
 70
     1
102
RTVSPropertyOp49
 70
     1
102
RTVSPropertyOp50
 70
     1
102
RTVSPropertyOp51
 70
     0
102
RTVSPropertyOp52
 70
     0
102
RTVSPropertyOp53
 70
     1
102
RTVSPropertyOp54
 70
     1
102
RTVSPropertyOp55
 70
     1
102
RTVSPropertyOp56
 70
     1
102
RTVSPropertyOp57
 70
     1
102
RTVSPost2010Prop28
280
     0
102
RTVSPost2010PropOp28
 70
     1
102
RTVSPost2010Prop29
280
     1
102
RTVSPost2010PropOp29
 70
     1
102
RTVSPost2010Prop30
280
     1
102
RTVSPost2010PropOp30
 70
     1
102
RTVSPost2010Prop31
280
     0
102
RTVSPost2010PropOp31
 70
     1
102
RTVSPost2010Prop32
280
     0
102
RTVSPost2010PropOp32
 70
     1
102
RTVSPost2010Prop33
280
     0
102
RTVSPost2010PropOp33
 70
     1
102
RTVSPost2010Prop34
280
     0
102
RTVSPost2010PropOp34
 70
     1
102
RTVSPost2010Prop35
280
     0
102
RTVSPost2010PropOp35
 70
     1
102
RTVSPost2010Prop36
280
     0
102
RTVSPost2010PropOp36
 70
     1
102
RTVSPost2010Prop37
 90
       50
102
RTVSPost2010PropOp37
 70
     1
102
RTVSPost2010Prop38
140
0.0
102
RTVSPost2010PropOp38
 70
     1
102
RTVSPost2010Prop39
140
1.0
102
RTVSPost2010PropOp39
 70
     1
102
RTVSPost2010Prop40
 90
        0
102
RTVSPost2010PropOp40
 70
     1
102
RTVSPost2010Prop41ColorIndex
 90
       18
102
RTVSPost2010Prop41ColorRGB
 90
        0
102
RTVSPost2010PropOp41
 70
     1
102
RTVSPost2010Prop42
 90
       50
102
RTVSPost2010PropOp42
 70
     1
102
RTVSPost2010Prop43
 90
        3
102
RTVSPost2010PropOp43
 70
     1
102
RTVSPost2010Prop44ColorIndex
 90
        5
102
RTVSPost2010Prop44ColorRGB
 90
      255
102
RTVSPost2010PropOp44
 70
     1
102
RTVSPost2010Prop45
280
     0
102
RTVSPost2010PropOp45
 70
     1
102
RTVSPost2010Prop46
 90
       50
102
RTVSPost2010PropOp46
 70
     1
102
RTVSPost2010Prop47
 90
       50
102
RTVSPost2010PropOp47
 70
     1
102
RTVSPost2010Prop48
 90
       50
102
RTVSPost2010PropOp48
 70
     1
102
RTVSPost2010Prop49
280
     0
102
RTVSPost2010PropOp49
 70
     1
102
RTVSPost2010Prop50
 90
       50
102
RTVSPost2010PropOp50
 70
     1
102
RTVSPost2010Prop51ColorIndex
 90
      256
102
RTVSPost2010Prop51ColorRGB
 90
-16777216
102
RTVSPost2010PropOp51
 70
     0
102
RTVSPost2010Prop52
140
1.0
102
RTVSPost2010PropOp52
 70
     0
102
RTVSPost2010Prop53
 90
        2
102
RTVSPost2010PropOp53
 70
     1
102
RTVSPost2010Prop54
  1
strokes_ogs.tif
102
RTVSPost2010PropOp54
 70
     1
102
RTVSPost2010Prop55
280
     0
102
RTVSPost2010PropOp55
 70
     1
102
RTVSPost2010Prop56
140
1.0
102
RTVSPost2010PropOp56
 70
     1
102
RTVSPost2010Prop57
140
1.0
102
RTVSPost2010PropOp57
 70
     1
  0
ENDSEC
  0
EOF
