  0
SECTION
  2
HEADER
  9
$ACADVER
  1
AC1015
  9
$ACADMAINTVER
 70
     6
  9
$DWGCODEPAGE
  3
ANSI_932
  9
$INSBASE
 10
1048.669689372691
 20
470.0348555911914
 30
0.0
  9
$EXTMIN
 10
61.89009759786745
 20
5.423132832727219
 30
0.0
  9
$EXTMAX
 10
723.1952548984993
 20
510.118037972157
 30
0.0
  9
$LIMMIN
 10
0.0
 20
0.0
  9
$LIMMAX
 10
816.5000000000001
 20
565.0
  9
$ORTHOMODE
 70
     0
  9
$REGENMODE
 70
     1
  9
$FILLMODE
 70
     1
  9
$QTEXTMODE
 70
     0
  9
$MIRRTEXT
 70
     1
  9
$LTSCALE
 40
5.0
  9
$ATTMODE
 70
     1
  9
$TEXTSIZE
 40
6.0
  9
$TRACEWID
 40
0.05
  9
$TEXTSTYLE
  7
KANJI
  9
$CLAYER
  8
2
  9
$CELTYPE
  6
BYLAYER
  9
$CECOLOR
 62
   256
  9
$CELTSCALE
 40
1.0
  9
$DISPSILH
 70
     0
  9
$DIMSCALE
 40
2.0
  9
$DIMASZ
 40
2.0
  9
$DIMEXO
 40
0.5
  9
$DIMDLI
 40
0.0
  9
$DIMRND
 40
0.0
  9
$DIMDLE
 40
0.0
  9
$DIMEXE
 40
1.0
  9
$DIMTP
 40
0.0
  9
$DIMTM
 40
0.0
  9
$DIMTXT
 40
3.0
  9
$DIMCEN
 40
0.09
  9
$DIMTSZ
 40
0.0
  9
$DIMTOL
 70
     0
  9
$DIMLIM
 70
     0
  9
$DIMTIH
 70
     0
  9
$DIMTOH
 70
     0
  9
$DIMSE1
 70
     0
  9
$DIMSE2
 70
     0
  9
$DIMTAD
 70
     0
  9
$DIMZIN
 70
     8
  9
$DIMBLK
  1

  9
$DIMASO
 70
     0
  9
$DIMSHO
 70
     0
  9
$DIMPOST
  1

  9
$DIMAPOST
  1

  9
$DIMALT
 70
     0
  9
$DIMALTD
 70
     2
  9
$DIMALTF
 40
25.4
  9
$DIMLFAC
 40
1.0
  9
$DIMTOFL
 70
     1
  9
$DIMTVP
 40
1.0
  9
$DIMTIX
 70
     1
  9
$DIMSOXD
 70
     1
  9
$DIMSAH
 70
     0
  9
$DIMBLK1
  1

  9
$DIMBLK2
  1

  9
$DIMSTYLE
  2
STANDARD
  9
$DIMCLRD
 70
   256
  9
$DIMCLRE
 70
   256
  9
$DIMCLRT
 70
     2
  9
$DIMTFAC
 40
1.0
  9
$DIMGAP
 40
0.09
  9
$DIMJUST
 70
     0
  9
$DIMSD1
 70
     0
  9
$DIMSD2
 70
     0
  9
$DIMTOLJ
 70
     1
  9
$DIMTZIN
 70
     0
  9
$DIMALTZ
 70
     0
  9
$DIMALTTZ
 70
     0
  9
$DIMUPT
 70
     0
  9
$DIMDEC
 70
     1
  9
$DIMTDEC
 70
     4
  9
$DIMALTU
 70
     2
  9
$DIMALTTD
 70
     2
  9
$DIMTXSTY
  7
STANDARD
  9
$DIMAUNIT
 70
     0
  9
$DIMADEC
 70
     0
  9
$DIMALTRND
 40
0.0
  9
$DIMAZIN
 70
     0
  9
$DIMDSEP
 70
    46
  9
$DIMATFIT
 70
     3
  9
$DIMFRAC
 70
     0
  9
$DIMLDRBLK
  1

  9
$DIMLUNIT
 70
     2
  9
$DIMLWD
 70
    -2
  9
$DIMLWE
 70
    -2
  9
$DIMTMOVE
 70
     0
  9
$LUNITS
 70
     2
  9
$LUPREC
 70
     3
  9
$SKETCHINC
 40
0.1
  9
$FILLETRAD
 40
1.0
  9
$AUNITS
 70
     0
  9
$AUPREC
 70
     3
  9
$MENU
  1
C:\R13\WIN\SUPPORT\ACADFULL
  9
$ELEVATION
 40
0.0
  9
$PELEVATION
 40
0.0
  9
$THICKNESS
 40
0.0
  9
$LIMCHECK
 70
     0
  9
$CHAMFERA
 40
0.0
  9
$CHAMFERB
 40
0.0
  9
$CHAMFERC
 40
0.0
  9
$CHAMFERD
 40
0.0
  9
$SKPOLY
 70
     0
  9
$TDCREATE
 40
2449813.131805555
  9
$TDUCREATE
 40
2449812.756805555
  9
$TDUPDATE
 40
2457906.391498345
  9
$TDUUPDATE
 40
2457906.016498345
  9
$TDINDWG
 40
1.3375188657
  9
$TDUSRTIMER
 40
1.3375177778
  9
$USRTIMER
 70
     1
  9
$ANGBASE
 50
0.0
  9
$ANGDIR
 70
     0
  9
$PDMODE
 70
     0
  9
$PDSIZE
 40
0.0
  9
$PLINEWID
 40
0.0
  9
$SPLFRAME
 70
     0
  9
$SPLINETYPE
 70
     6
  9
$SPLINESEGS
 70
     8
  9
$HANDSEED
  5
571
  9
$SURFTAB1
 70
     6
  9
$SURFTAB2
 70
     6
  9
$SURFTYPE
 70
     6
  9
$SURFU
 70
     6
  9
$SURFV
 70
     6
  9
$UCSBASE
  2

  9
$UCSNAME
  2

  9
$UCSORG
 10
0.0
 20
0.0
 30
0.0
  9
$UCSXDIR
 10
1.0
 20
0.0
 30
0.0
  9
$UCSYDIR
 10
0.0
 20
1.0
 30
0.0
  9
$UCSORTHOREF
  2

  9
$UCSORTHOVIEW
 70
     0
  9
$UCSORGTOP
 10
0.0
 20
0.0
 30
0.0
  9
$UCSORGBOTTOM
 10
0.0
 20
0.0
 30
0.0
  9
$UCSORGLEFT
 10
0.0
 20
0.0
 30
0.0
  9
$UCSORGRIGHT
 10
0.0
 20
0.0
 30
0.0
  9
$UCSORGFRONT
 10
0.0
 20
0.0
 30
0.0
  9
$UCSORGBACK
 10
0.0
 20
0.0
 30
0.0
  9
$PUCSBASE
  2

  9
$PUCSNAME
  2

  9
$PUCSORG
 10
0.0
 20
0.0
 30
0.0
  9
$PUCSXDIR
 10
1.0
 20
0.0
 30
0.0
  9
$PUCSYDIR
 10
0.0
 20
1.0
 30
0.0
  9
$PUCSORTHOREF
  2

  9
$PUCSORTHOVIEW
 70
     0
  9
$PUCSORGTOP
 10
0.0
 20
0.0
 30
0.0
  9
$PUCSORGBOTTOM
 10
0.0
 20
0.0
 30
0.0
  9
$PUCSORGLEFT
 10
0.0
 20
0.0
 30
0.0
  9
$PUCSORGRIGHT
 10
0.0
 20
0.0
 30
0.0
  9
$PUCSORGFRONT
 10
0.0
 20
0.0
 30
0.0
  9
$PUCSORGBACK
 10
0.0
 20
0.0
 30
0.0
  9
$USERI1
 70
     0
  9
$USERI2
 70
     0
  9
$USERI3
 70
     0
  9
$USERI4
 70
     0
  9
$USERI5
 70
     0
  9
$USERR1
 40
0.0
  9
$USERR2
 40
0.0
  9
$USERR3
 40
0.0
  9
$USERR4
 40
2448925.372986111
  9
$USERR5
 40
0.04166667
  9
$WORLDVIEW
 70
     1
  9
$SHADEDGE
 70
     3
  9
$SHADEDIF
 70
    70
  9
$TILEMODE
 70
     1
  9
$MAXACTVP
 70
    16
  9
$PINSBASE
 10
0.0
 20
0.0
 30
0.0
  9
$PLIMCHECK
 70
     0
  9
$PEXTMIN
 10
1.000000000000000E+20
 20
1.000000000000000E+20
 30
1.000000000000000E+20
  9
$PEXTMAX
 10
-1.000000000000000E+20
 20
-1.000000000000000E+20
 30
-1.000000000000000E+20
  9
$PLIMMIN
 10
0.0
 20
0.0
  9
$PLIMMAX
 10
12.0
 20
9.0
  9
$UNITMODE
 70
     0
  9
$VISRETAIN
 70
     0
  9
$PLINEGEN
 70
     0
  9
$PSLTSCALE
 70
     0
  9
$TREEDEPTH
 70
  3020
  9
$CMLSTYLE
  2
STANDARD
  9
$CMLJUST
 70
     0
  9
$CMLSCALE
 40
1.0
  9
$PROXYGRAPHICS
 70
     1
  9
$MEASUREMENT
 70
     0
  9
$CELWEIGHT
370
    -1
  9
$ENDCAPS
280
     0
  9
$JOINSTYLE
280
     0
  9
$LWDISPLAY
290
     0
  9
$INSUNITS
 70
     0
  9
$HYPERLINKBASE
  1

  9
$STYLESHEET
  1
R14.ctb
  9
$XEDIT
290
     1
  9
$CEPSNTYPE
380
     0
  9
$PSTYLEMODE
290
     1
  9
$FINGERPRINTGUID
  2
{6C78344F-8850-415C-8417-AE82C6E72585}
  9
$VERSIONGUID
  2
{302A2CC8-8ACE-41AA-B348-7F69A3940F03}
  9
$EXTNAMES
290
     1
  9
$PSVPSCALE
 40
0.0
  9
$OLESTARTUP
290
     0
  0
ENDSEC
  0
SECTION
  2
CLASSES
  0
CLASS
  1
ACDBDICTIONARYWDFLT
  2
AcDbDictionaryWithDefault
  3
ObjectDBX Classes
 90
        0
280
     0
281
     0
  0
CLASS
  1
MATERIAL
  2
AcDbMaterial
  3
ObjectDBX Classes
 90
     1153
280
     0
281
     0
  0
CLASS
  1
SORTENTSTABLE
  2
AcDbSortentsTable
  3
ObjectDBX Classes
 90
        0
280
     0
281
     0
  0
CLASS
  1
SCALE
  2
AcDbScale
  3
ObjectDBX Classes
 90
     1153
280
     0
281
     0
  0
CLASS
  1
DICTIONARYVAR
  2
AcDbDictionaryVar
  3
ObjectDBX Classes
 90
        0
280
     0
281
     0
  0
CLASS
  1
VISUALSTYLE
  2
AcDbVisualStyle
  3
ObjectDBX Classes
 90
     4095
280
     0
281
     0
  0
CLASS
  1
MLEADERSTYLE
  2
AcDbMLeaderStyle
  3
ACDB_MLEADERSTYLE_CLASS
 90
     4095
280
     0
281
     0
  0
CLASS
  1
TABLESTYLE
  2
AcDbTableStyle
  3
ObjectDBX Classes
 90
     4095
280
     0
281
     0
  0
CLASS
  1
ACDBPLACEHOLDER
  2
AcDbPlaceHolder
  3
ObjectDBX Classes
 90
        0
280
     0
281
     0
  0
CLASS
  1
LAYOUT
  2
AcDbLayout
  3
ObjectDBX Classes
 90
        0
280
     0
281
     0
  0
ENDSEC
  0
SECTION
  2
TABLES
  0
TABLE
  2
VPORT
  5
25
102
{ACAD_XDICTIONARY
360
536
102
}
330
0
100
AcDbSymbolTable
 70
     2
  0
VPORT
  5
2B
330
25
100
AcDbSymbolTableRecord
100
AcDbViewportTableRecord
  2
*ACTIVE
 70
     0
 10
0.0
 20
0.0
 11
1.0
 21
1.0
 12
671.6608001392339
 22
284.3736950056722
 13
0.0
 23
0.0
 14
1.0
 24
1.0
 15
50.0
 25
50.0
 16
0.0
 26
0.0
 36
1.0
 17
0.0
 27
0.0
 37
0.0
 40
742.2793668274245
 41
2.174107142857143
 42
50.0
 43
0.0
 44
0.0
 50
0.0
 51
0.0
 71
     0
 72
  5000
 73
     1
 74
     0
 75
     0
 76
     0
 77
     0
 78
     0
281
     0
 65
     1
110
0.0
120
0.0
130
0.0
111
1.0
121
0.0
131
0.0
112
0.0
122
1.0
132
0.0
 79
     0
146
0.0
  0
ENDTAB
  0
TABLE
  2
LTYPE
  5
9
330
0
100
AcDbSymbolTable
 70
     2
  0
LTYPE
  5
A
330
9
100
AcDbSymbolTableRecord
100
AcDbLinetypeTableRecord
  2
BYBLOCK
 70
     0
  3

 72
    65
 73
     0
 40
0.0
  0
LTYPE
  5
B
330
9
100
AcDbSymbolTableRecord
100
AcDbLinetypeTableRecord
  2
BYLAYER
 70
     0
  3

 72
    65
 73
     0
 40
0.0
  0
LTYPE
  5
8
330
9
100
AcDbSymbolTableRecord
100
AcDbLinetypeTableRecord
  2
CONTINUOUS
 70
     0
  3
Solid line
 72
    65
 73
     0
 40
0.0
  0
LTYPE
  5
7E
330
9
100
AcDbSymbolTableRecord
100
AcDbLinetypeTableRecord
  2
CENTER
 70
     0
  3
____ _ ____ _ ____ _ ____ _ ____ _ ____ _ ____
 72
    65
 73
     4
 40
2.0
 49
1.25
 74
     0
 49
-0.25
 74
     0
 49
0.25
 74
     0
 49
-0.25
 74
     0
  0
ENDTAB
  0
TABLE
  2
LAYER
  5
2
330
0
100
AcDbSymbolTable
 70
     9
  0
LAYER
  5
19
330
2
100
AcDbSymbolTableRecord
100
AcDbLayerTableRecord
  2
0
 70
     0
 62
     7
  6
CONTINUOUS
370
    -3
390
3
  0
LAYER
  5
37F
330
2
100
AcDbSymbolTableRecord
100
AcDbLayerTableRecord
  2
1
 70
     0
 62
     9
  6
CONTINUOUS
370
    -3
390
3
  0
LAYER
  5
1
330
2
100
AcDbSymbolTableRecord
100
AcDbLayerTableRecord
  2
2
 70
     0
 62
     4
  6
CONTINUOUS
370
    -3
390
3
  0
LAYER
  5
80
330
2
100
AcDbSymbolTableRecord
100
AcDbLayerTableRecord
  2
4
 70
     0
 62
     3
  6
CONTINUOUS
370
    -3
390
3
  0
LAYER
  5
7D
330
2
100
AcDbSymbolTableRecord
100
AcDbLayerTableRecord
  2
L-CENTER
 70
     0
 62
     1
  6
CENTER
370
    -3
390
3
  0
LAYER
  5
74
330
2
100
AcDbSymbolTableRecord
100
AcDbLayerTableRecord
  2
3
 70
     0
 62
     2
  6
CONTINUOUS
370
    -3
390
3
  0
LAYER
  5
377
102
{ACAD_XDICTIONARY
360
378
102
}
330
2
100
AcDbSymbolTableRecord
100
AcDbLayerTableRecord
  2
5
 70
     0
 62
     6
  6
CONTINUOUS
370
    -3
390
3
  0
LAYER
  5
4BD
330
2
100
AcDbSymbolTableRecord
100
AcDbLayerTableRecord
  2
Defpoints
 70
     0
 62
     7
  6
CONTINUOUS
290
     0
370
    -3
390
3
  0
ENDTAB
  0
TABLE
  2
STYLE
  5
D
330
0
100
AcDbSymbolTable
 70
     2
  0
STYLE
  5
11
330
D
100
AcDbSymbolTableRecord
100
AcDbTextStyleTableRecord
  2
STANDARD
 70
     0
 40
0.0
 41
1.0
 50
0.0
 71
     0
 42
3.6
  3
TXT
  4

  0
STYLE
  5
C
330
D
100
AcDbSymbolTableRecord
100
AcDbTextStyleTableRecord
  2
KANJI
 70
     0
 40
0.0
 41
1.0
 50
0.0
 71
     0
 42
6.0
  3
TXT
  4
BIGFONT
  0
ENDTAB
  0
TABLE
  2
VIEW
  5
23
330
0
100
AcDbSymbolTable
 70
     0
  0
ENDTAB
  0
TABLE
  2
UCS
  5
24
330
0
100
AcDbSymbolTable
 70
     0
  0
ENDTAB
  0
TABLE
  2
APPID
  5
1E
330
0
100
AcDbSymbolTable
 70
     4
  0
APPID
  5
2A
330
1E
100
AcDbSymbolTableRecord
100
AcDbRegAppTableRecord
  2
ACAD
 70
     0
  0
APPID
  5
1D
330
1E
100
AcDbSymbolTableRecord
100
AcDbRegAppTableRecord
  2
ACAD_PSEXT
 70
     0
  0
APPID
  5
4B6
330
1E
100
AcDbSymbolTableRecord
100
AcDbRegAppTableRecord
  2
ACAD_MLEADERVER
 70
     0
  0
ENDTAB
  0
TABLE
  2
DIMSTYLE
  5
10
330
0
100
AcDbSymbolTable
 70
     1
100
AcDbDimStyleTable
  0
DIMSTYLE
105
F
330
10
100
AcDbSymbolTableRecord
100
AcDbDimStyleTableRecord
  2
STANDARD
 70
     0
178
     0
340
11
  0
ENDTAB
  0
TABLE
  2
BLOCK_RECORD
  5
14
330
0
100
AcDbSymbolTable
 70
     0
  0
BLOCK_RECORD
  5
15
102
{ACAD_XDICTIONARY
360
16
102
}
330
14
100
AcDbSymbolTableRecord
100
AcDbBlockTableRecord
  2
*MODEL_SPACE
340
1B
  0
BLOCK_RECORD
  5
1F
330
14
100
AcDbSymbolTableRecord
100
AcDbBlockTableRecord
  2
*PAPER_SPACE
340
22
  0
ENDTAB
  0
ENDSEC
  0
SECTION
  2
BLOCKS
  0
BLOCK
  5
18
330
15
100
AcDbEntity
  8
0
100
AcDbBlockBegin
  2
*MODEL_SPACE
 70
     0
 10
0.0
 20
0.0
 30
0.0
  3
*MODEL_SPACE
  1

  0
ENDBLK
  5
1A
330
15
100
AcDbEntity
  8
0
100
AcDbBlockEnd
  0
BLOCK
  5
20
330
1F
100
AcDbEntity
 67
     1
  8
0
100
AcDbBlockBegin
  2
*PAPER_SPACE
 70
     0
 10
0.0
 20
0.0
 30
0.0
  3
*PAPER_SPACE
  1

  0
ENDBLK
  5
21
330
1F
100
AcDbEntity
 67
     1
  8
0
100
AcDbBlockEnd
  0
ENDSEC
  0
SECTION
  2
ENTITIES
  0
TEXT
  5
73
330
15
100
AcDbEntity
  8
3
100
AcDbText
 10
399.082903834395
 20
13.74166992153425
 30
0.0
 40
6.0
  1
LD1-01
  7
KANJI
 72
     1
 11
413.582903834395
 21
13.74166992153425
 31
0.0
100
AcDbText
  0
LINE
  5
7C
330
15
100
AcDbEntity
  8
L-CENTER
 48
2.0
100
AcDbLine
 10
356.4254428944796
 20
61.42313233272722
 30
0.0
 11
98.74012294828219
 21
61.42313233272728
 31
0.0
  0
CIRCLE
  5
83
330
15
100
AcDbEntity
  8
4
100
AcDbCircle
 10
225.1977813020336
 20
104.4229498327272
 30
0.0
 40
31.0000005
  0
LINE
  5
84
330
15
100
AcDbEntity
  8
L-CENTER
 48
2.0
100
AcDbLine
 10
225.1977813020336
 20
58.48108633272727
 30
0.0
 11
225.1977813020336
 21
150.3648133327272
 31
0.0
  0
LINE
  5
85
330
15
100
AcDbEntity
  8
4
100
AcDbLine
 10
141.3987858020337
 20
43.92313333272722
 30
0.0
 11
141.3987858020337
 21
78.92313283272722
 31
0.0
  0
LINE
  5
86
330
15
100
AcDbEntity
  8
L-CENTER
 48
2.0
100
AcDbLine
 10
247.3987848020337
 20
11.78223133272724
 30
0.0
 11
247.3987848020337
 21
207.4369228327272
 31
0.0
  0
LINE
  5
87
330
15
100
AcDbEntity
  8
4
100
AcDbLine
 10
353.3986623020336
 20
78.92313283272722
 30
0.0
 11
353.3986623020336
 21
43.92313333272722
 31
0.0
  0
LINE
  5
88
330
15
100
AcDbEntity
  8
4
100
AcDbLine
 10
142.3987848020337
 20
87.42313333272722
 30
0.0
 11
142.3987848020337
 21
35.42313283272722
 31
0.0
  0
LINE
  5
89
330
15
100
AcDbEntity
  8
4
100
AcDbLine
 10
352.3986633020337
 20
87.42313333272722
 30
0.0
 11
352.3986633020337
 21
35.42313283272722
 31
0.0
  0
CIRCLE
  5
8A
330
15
100
AcDbEntity
  8
4
100
AcDbCircle
 10
247.3987848020337
 20
105.4229503327272
 30
0.0
 40
88.000122
  0
ARC
  5
8B
330
15
100
AcDbEntity
  8
4
100
AcDbCircle
 10
225.1977813020336
 20
104.4229498327272
 30
0.0
 40
40.9999995
100
AcDbArc
 50
36.99768600000014
 51
341.269636
  0
ARC
  5
8C
330
15
100
AcDbEntity
  8
4
100
AcDbCircle
 10
287.3986638020336
 20
60.42313333272722
 30
0.0
 40
13.9999995
100
AcDbArc
 50
322.6073129999997
 51
300.6606509999998
  0
LINE
  5
8D
330
15
100
AcDbEntity
  8
L-CENTER
 48
2.0
100
AcDbLine
 10
287.3986638020336
 20
145.2007238582726
 30
0.0
 11
287.3986638020336
 21
41.36707900909596
 31
0.0
  0
ARC
  5
8E
330
15
100
AcDbEntity
  8
4
100
AcDbCircle
 10
247.3987848020337
 20
105.4229503327272
 30
0.0
 40
74.000001
100
AcDbArc
 50
279.2445250000001
 51
260.756243
  0
ARC
  5
8F
330
15
100
AcDbEntity
  8
4
100
AcDbCircle
 10
183.3987858020336
 20
27.42313333272722
 30
0.0
 40
1.9999995
100
AcDbArc
 50
0.0
 51
90.0
  0
LINE
  5
90
330
15
100
AcDbEntity
  8
4
100
AcDbLine
 10
196.3987848020337
 20
29.42313283272722
 30
0.0
 11
152.3987853020336
 21
29.42313283272722
 31
0.0
  0
LINE
  5
91
330
15
100
AcDbEntity
  8
4
100
AcDbLine
 10
198.3987858020336
 20
11.42313283272722
 30
0.0
 11
152.3987853020336
 21
11.42313283272722
 31
0.0
  0
LINE
  5
92
330
15
100
AcDbEntity
  8
4
100
AcDbLine
 10
152.3987853020336
 20
32.42313283272722
 30
0.0
 11
152.3987853020336
 21
11.42313283272722
 31
0.0
  0
LINE
  5
93
330
15
100
AcDbEntity
  8
4
100
AcDbLine
 10
149.3987853020336
 20
35.42313283272722
 30
0.0
 11
142.3987848020337
 21
35.42313283272722
 31
0.0
  0
ARC
  5
94
330
15
100
AcDbEntity
  8
4
100
AcDbCircle
 10
149.3987853020336
 20
32.42313283272722
 30
0.0
 40
3.0
100
AcDbArc
 50
0.0
 51
90.0
  0
LINE
  5
95
330
15
100
AcDbEntity
  8
4
100
AcDbLine
 10
185.3987853020336
 20
27.42313333272722
 30
0.0
 11
185.3987853020336
 21
11.42313283272722
 31
0.0
  0
LINE
  5
96
330
15
100
AcDbEntity
  8
L-CENTER
 48
2.0
100
AcDbLine
 10
167.3987853020336
 20
5.423132832727219
 30
0.0
 11
167.3987853020336
 21
35.42313283272722
 31
0.0
  0
LINE
  5
97
330
15
100
AcDbEntity
  8
4
100
AcDbLine
 10
142.3987848020337
 20
44.80988233272723
 30
0.0
 11
183.6019713020336
 21
44.80988233272723
 31
0.0
  0
LINE
  5
98
330
15
100
AcDbEntity
  8
4
100
AcDbLine
 10
141.3987858020337
 20
43.92313333272722
 30
0.0
 11
142.3987848020337
 21
43.92313333272722
 31
0.0
  0
LINE
  5
99
330
15
100
AcDbEntity
  8
4
100
AcDbLine
 10
247.3987848020337
 20
15.42313333272722
 30
0.0
 11
292.3986633020337
 21
15.42313333272722
 31
0.0
  0
LINE
  5
9A
330
15
100
AcDbEntity
  8
L-CENTER
 48
2.0
100
AcDbLine
 10
270.0925013031411
 20
60.42313333272722
 30
0.0
 11
304.7048263009261
 21
60.42313333272722
 31
0.0
  0
LINE
  5
9B
330
15
100
AcDbEntity
  8
4
100
AcDbLine
 10
276.5734683020336
 20
54.1731178327272
 30
0.0
 11
287.3986638020336
 21
47.9231173327272
 31
0.0
  0
LINE
  5
9C
330
15
100
AcDbEntity
  8
4
100
AcDbLine
 10
287.3986638020336
 20
72.92313283272722
 30
0.0
 11
276.5734683020336
 21
66.67313233272722
 31
0.0
  0
CIRCLE
  5
9D
330
15
100
AcDbEntity
  8
4
100
AcDbCircle
 10
287.3986638020336
 20
60.42313333272722
 30
0.0
 40
12.4999995
  0
LINE
  5
9E
330
15
100
AcDbEntity
  8
4
100
AcDbLine
 10
247.3987848020337
 20
15.42313333272722
 30
0.0
 11
202.3987848020337
 21
15.42313333272722
 31
0.0
  0
ARC
  5
9F
330
15
100
AcDbEntity
  8
4
100
AcDbCircle
 10
247.3987848020337
 20
305.4227053327272
 30
0.0
 40
250.0000005
100
AcDbArc
 50
255.987293
 51
276.0782669999999
  0
LINE
  5
A0
330
15
100
AcDbEntity
  8
4
100
AcDbLine
 10
198.3987858020336
 20
27.42313333272722
 30
0.0
 11
198.3987858020336
 21
11.42313283272722
 31
0.0
  0
ARC
  5
A1
330
15
100
AcDbEntity
  8
4
100
AcDbCircle
 10
202.3987848020337
 20
11.42313283272722
 30
0.0
 40
4.0000005
100
AcDbArc
 50
90.0
 51
180.0002149984452
  0
ARC
  5
A2
330
15
100
AcDbEntity
  8
4
100
AcDbCircle
 10
196.3987848020337
 20
27.42313333272722
 30
0.0
 40
1.9999995
100
AcDbArc
 50
0.0
 51
90.0
  0
ARC
  5
A3
330
15
100
AcDbEntity
  8
4
100
AcDbCircle
 10
258.9649023020337
 20
34.35819133272724
 30
0.0
 40
2.0000025
100
AcDbArc
 50
207.1642409999989
 51
279.2442830000011
  0
LINE
  5
A4
330
15
100
AcDbEntity
  8
L-CENTER
 48
2.0
100
AcDbLine
 10
235.3256342101848
 20
28.42313233272722
 30
0.0
 11
259.4719353938825
 21
28.42313233272722
 31
0.0
  0
LINE
  5
A5
330
15
100
AcDbEntity
  8
2
100
AcDbLine
 10
247.3987848020337
 20
32.21829733272722
 30
0.0
 11
244.1118888020336
 21
30.32065183272721
 31
0.0
  0
LINE
  5
A6
330
15
100
AcDbEntity
  8
2
100
AcDbLine
 10
244.1118888020336
 20
26.52564133272722
 30
0.0
 11
247.3987848020337
 21
24.62807683272723
 31
0.0
  0
CIRCLE
  5
A7
330
15
100
AcDbEntity
  8
2
100
AcDbCircle
 10
247.3987848020337
 20
28.42313233272722
 30
0.0
 40
4.949999999999999
  0
CIRCLE
  5
A8
330
15
100
AcDbEntity
  8
4
100
AcDbCircle
 10
247.3987848020337
 20
28.42313233272722
 30
0.0
 40
5.449999999999999
  0
ARC
  5
A9
330
15
100
AcDbEntity
  8
4
100
AcDbCircle
 10
247.3987848020337
 20
28.42313233272722
 30
0.0
 40
10.999998
100
AcDbArc
 50
27.16426199999951
 51
152.8362710000003
  0
LINE
  5
AA
330
15
100
AcDbEntity
  8
2
100
AcDbLine
 10
244.1118888020336
 20
30.32065183272721
 30
0.0
 11
244.1118888020336
 21
26.52564133272722
 31
0.0
  0
ARC
  5
AB
330
15
100
AcDbEntity
  8
4
100
AcDbCircle
 10
235.8326688020337
 20
34.35819133272724
 30
0.0
 40
2.0000025
100
AcDbArc
 50
260.7561409999972
 51
332.8367199999998
  0
LINE
  5
AC
330
15
100
AcDbEntity
  8
2
100
AcDbLine
 10
247.3987848020337
 20
32.21829733272722
 30
0.0
 11
250.6856823020338
 21
30.32065183272721
 31
0.0
  0
LINE
  5
AD
330
15
100
AcDbEntity
  8
2
100
AcDbLine
 10
250.6856823020338
 20
30.32065183272721
 30
0.0
 11
250.6856823020338
 21
26.52564133272722
 31
0.0
  0
LINE
  5
AE
330
15
100
AcDbEntity
  8
2
100
AcDbLine
 10
250.6856823020338
 20
26.52564133272722
 30
0.0
 11
247.3987848020337
 21
24.62807683272723
 31
0.0
  0
LINE
  5
AF
330
15
100
AcDbEntity
  8
4
100
AcDbLine
 10
276.5734683020336
 20
54.1731178327272
 30
0.0
 11
276.5734683020336
 21
66.67313233272722
 31
0.0
  0
LINE
  5
B0
330
15
100
AcDbEntity
  8
4
100
AcDbLine
 10
296.3986638020336
 20
11.42313283272722
 30
0.0
 11
342.3986628020338
 21
11.42313283272722
 31
0.0
  0
LINE
  5
B1
330
15
100
AcDbEntity
  8
4
100
AcDbLine
 10
298.3986633020337
 20
29.42313283272722
 30
0.0
 11
342.3986628020338
 21
29.42313283272722
 31
0.0
  0
LINE
  5
B2
330
15
100
AcDbEntity
  8
4
100
AcDbLine
 10
311.1955383020337
 20
44.80988233272723
 30
0.0
 11
352.3986633020337
 21
44.80988233272723
 31
0.0
  0
LINE
  5
B3
330
15
100
AcDbEntity
  8
4
100
AcDbLine
 10
296.3986638020336
 20
27.42313333272722
 30
0.0
 11
296.3986638020336
 21
11.42313283272722
 31
0.0
  0
ARC
  5
B4
330
15
100
AcDbEntity
  8
4
100
AcDbCircle
 10
292.3986633020337
 20
11.42313283272722
 30
0.0
 40
4.0000005
100
AcDbArc
 50
0.0
 51
90.0
  0
ARC
  5
B5
330
15
100
AcDbEntity
  8
4
100
AcDbCircle
 10
298.3986633020337
 20
27.42313333272722
 30
0.0
 40
1.9999995
100
AcDbArc
 50
90.0
 51
180.0004300002808
  0
LINE
  5
B6
330
15
100
AcDbEntity
  8
4
100
AcDbLine
 10
309.3986628020338
 20
27.42313333272722
 30
0.0
 11
309.3986628020338
 21
11.42313283272722
 31
0.0
  0
LINE
  5
B7
330
15
100
AcDbEntity
  8
L-CENTER
 48
2.0
100
AcDbLine
 10
327.3986628020338
 20
5.423132832727219
 30
0.0
 11
327.3986628020338
 21
35.42313283272722
 31
0.0
  0
ARC
  5
B8
330
15
100
AcDbEntity
  8
4
100
AcDbCircle
 10
311.3986623020336
 20
27.42313333272722
 30
0.0
 40
1.9999995
100
AcDbArc
 50
90.0
 51
180.0004300002808
  0
LINE
  5
B9
330
15
100
AcDbEntity
  8
4
100
AcDbLine
 10
298.2241038020337
 20
54.17313283272722
 30
0.0
 11
298.2241038020337
 21
66.67313233272722
 31
0.0
  0
LINE
  5
BA
330
15
100
AcDbEntity
  8
4
100
AcDbLine
 10
287.3986638020336
 20
47.9231173327272
 30
0.0
 11
298.2241038020337
 21
54.17313283272722
 31
0.0
  0
LINE
  5
BB
330
15
100
AcDbEntity
  8
4
100
AcDbLine
 10
298.2241038020337
 20
66.67313233272722
 30
0.0
 11
287.3986638020336
 21
72.92313283272722
 31
0.0
  0
ARC
  5
BC
330
15
100
AcDbEntity
  8
4
100
AcDbCircle
 10
247.3987848020337
 20
305.4227053327272
 30
0.0
 40
250.000002
100
AcDbArc
 50
282.467937
 51
284.013583
  0
LINE
  5
BD
330
15
100
AcDbEntity
  8
4
100
AcDbLine
 10
342.3986628020338
 20
32.42313283272722
 30
0.0
 11
342.3986628020338
 21
11.42313283272722
 31
0.0
  0
LINE
  5
BE
330
15
100
AcDbEntity
  8
4
100
AcDbLine
 10
345.3986628020338
 20
35.42313283272722
 30
0.0
 11
352.3986633020337
 21
35.42313283272722
 31
0.0
  0
ARC
  5
BF
330
15
100
AcDbEntity
  8
4
100
AcDbCircle
 10
345.3986628020338
 20
32.42313283272722
 30
0.0
 40
3.0
100
AcDbArc
 50
90.0
 51
180.0002860014283
  0
LINE
  5
C2
330
15
100
AcDbEntity
  8
4
100
AcDbLine
 10
352.3986633020337
 20
43.92313333272722
 30
0.0
 11
353.3986623020336
 21
43.92313333272722
 31
0.0
  0
LINE
  5
C5
330
15
100
AcDbEntity
  8
L-CENTER
 48
2.0
100
AcDbLine
 10
179.2559178020337
 20
104.4229498327272
 30
0.0
 11
271.1396448020336
 21
104.4229498327272
 31
0.0
  0
ARC
  5
C6
330
15
100
AcDbEntity
  8
4
100
AcDbCircle
 10
247.3987848020337
 20
-154.5768961672728
 30
0.0
 40
350.0000895000001
100
AcDbArc
 50
76.19737
 51
103.802864
  0
LINE
  5
C7
330
15
100
AcDbEntity
  8
L-CENTER
 48
2.0
100
AcDbLine
 10
149.3228718885076
 20
105.4229503327272
 30
0.0
 11
345.4746977155597
 21
105.4229503327272
 31
0.0
  0
ARC
  5
C8
330
15
100
AcDbEntity
  8
4
100
AcDbCircle
 10
502.3989063020337
 20
105.4229503327272
 30
0.0
 40
350.000001
100
AcDbArc
 50
167.310181
 51
180.0002399984903
  0
LINE
  5
C9
330
15
100
AcDbEntity
  8
4
100
AcDbLine
 10
161.0534793020337
 20
78.03638383272721
 30
0.0
 11
142.3987848020337
 21
78.03638383272721
 31
0.0
  0
LINE
  5
CA
330
15
100
AcDbEntity
  8
4
100
AcDbLine
 10
152.3987853020336
 20
90.42313333272722
 30
0.0
 11
152.3987853020336
 21
105.4229503327272
 31
0.0
  0
LINE
  5
CB
330
15
100
AcDbEntity
  8
4
100
AcDbLine
 10
149.3987853020336
 20
87.42313333272722
 30
0.0
 11
142.3987848020337
 21
87.42313333272722
 31
0.0
  0
LINE
  5
CC
330
15
100
AcDbEntity
  8
4
100
AcDbLine
 10
142.3987848020337
 20
78.92313283272722
 30
0.0
 11
141.3987858020337
 21
78.92313283272722
 31
0.0
  0
ARC
  5
CD
330
15
100
AcDbEntity
  8
4
100
AcDbCircle
 10
149.3987853020336
 20
90.42313333272722
 30
0.0
 40
3.0
100
AcDbArc
 50
270.0005919999992
 51
0.0
  0
ARC
  5
CE
330
15
100
AcDbEntity
  8
4
100
AcDbCircle
 10
161.0534793020337
 20
80.03638333272721
 30
0.0
 40
2.000004
100
AcDbArc
 50
270.0004300000007
 51
16.38396399999996
  0
ARC
  5
CF
330
15
100
AcDbEntity
  8
4
100
AcDbCircle
 10
164.8509948020336
 20
181.4317393327273
 30
0.0
 40
4.000014
100
AcDbArc
 50
103.8027940000003
 51
167.3106040000002
  0
CIRCLE
  5
D0
330
15
100
AcDbEntity
  8
4
100
AcDbCircle
 10
287.3986638020336
 20
114.4229503327272
 30
0.0
 40
17.5000005
  0
LINE
  5
D1
330
15
100
AcDbEntity
  8
L-CENTER
 48
2.0
100
AcDbLine
 10
318.176437327579
 20
114.4229503327272
 30
0.0
 11
256.6208902764882
 21
114.4229503327272
 31
0.0
  0
ARC
  5
D2
330
15
100
AcDbEntity
  8
4
100
AcDbCircle
 10
247.3987848020337
 20
-94.57686766727278
 30
0.0
 40
250.0000935
100
AcDbArc
 50
75.98684300000004
 51
104.013173
  0
ARC
  5
D3
330
15
100
AcDbEntity
  8
4
100
AcDbCircle
 10
287.3986638020336
 20
114.4229503327272
 30
0.0
 40
26.0000295
100
AcDbArc
 50
233.0439809999998
 51
145.2228439999999
  0
ARC
  5
D4
330
15
100
AcDbEntity
  8
4
100
AcDbCircle
 10
268.7614098020337
 20
89.65120633272721
 30
0.0
 40
4.9999995
100
AcDbArc
 50
53.04368199999967
 51
161.2694500000001
  0
ARC
  5
D5
330
15
100
AcDbEntity
  8
4
100
AcDbCircle
 10
261.9361398020336
 20
132.1050793327272
 30
0.0
 40
5.000004000000001
100
AcDbArc
 50
216.9988670000001
 51
325.2241360000003
  0
LINE
  5
D6
330
15
100
AcDbEntity
  8
4
100
AcDbLine
 10
261.3987858020336
 20
196.4229493327272
 30
0.0
 11
233.3987853020336
 21
196.4229493327272
 31
0.0
  0
LINE
  5
D7
330
15
100
AcDbEntity
  8
4
100
AcDbLine
 10
262.3987848020337
 20
159.4229503327272
 30
0.0
 11
232.3987848020337
 21
159.4229503327272
 31
0.0
  0
LINE
  5
D8
330
15
100
AcDbEntity
  8
4
100
AcDbLine
 10
262.3987848020337
 20
174.4229503327272
 30
0.0
 11
232.3987848020337
 21
174.4229503327272
 31
0.0
  0
LINE
  5
D9
330
15
100
AcDbEntity
  8
4
100
AcDbLine
 10
233.3987853020336
 20
171.9229498327272
 30
0.0
 11
235.3987848020337
 21
171.9229498327272
 31
0.0
  0
LINE
  5
DA
330
15
100
AcDbEntity
  8
4
100
AcDbLine
 10
233.3987853020336
 20
161.9229493327272
 30
0.0
 11
240.3987858020336
 21
161.9229493327272
 31
0.0
  0
LINE
  5
DB
330
15
100
AcDbEntity
  8
4
100
AcDbLine
 10
230.3987853020336
 20
161.4229498327272
 30
0.0
 11
230.3987853020336
 21
172.4229493327272
 31
0.0
  0
ARC
  5
DC
330
15
100
AcDbEntity
  8
4
100
AcDbCircle
 10
232.3987848020337
 20
161.4229498327272
 30
0.0
 40
1.9999995
100
AcDbArc
 50
180.0
 51
270.0004580000016
  0
LINE
  5
DD
330
15
100
AcDbEntity
  8
4
100
AcDbLine
 10
233.3987853020336
 20
161.9229493327272
 30
0.0
 11
233.3987853020336
 21
171.9229498327272
 31
0.0
  0
ARC
  5
DE
330
15
100
AcDbEntity
  8
4
100
AcDbCircle
 10
232.3987848020337
 20
172.4229493327272
 30
0.0
 40
1.9999995
100
AcDbArc
 50
90.0
 51
180.0
  0
LINE
  5
DF
330
15
100
AcDbEntity
  8
4
100
AcDbLine
 10
233.3987853020336
 20
196.4229493327272
 30
0.0
 11
233.3987853020336
 21
195.1429213327273
 31
0.0
  0
LINE
  5
E0
330
15
100
AcDbEntity
  8
4
100
AcDbLine
 10
259.3987848020337
 20
171.9229498327272
 30
0.0
 11
257.3987853020336
 21
169.9229503327272
 31
0.0
  0
LINE
  5
E1
330
15
100
AcDbEntity
  8
4
100
AcDbLine
 10
259.3987848020337
 20
169.9229503327272
 30
0.0
 11
257.3987853020336
 21
169.9229503327272
 31
0.0
  0
ARC
  5
E2
330
15
100
AcDbEntity
  8
4
100
AcDbCircle
 10
246.3987858020336
 20
168.9229498327272
 30
0.0
 40
1.0000005
100
AcDbArc
 50
0.0
 51
90.0
  0
ARC
  5
E3
330
15
100
AcDbEntity
  8
4
100
AcDbCircle
 10
246.3987858020336
 20
164.9229493327272
 30
0.0
 40
1.0000005
100
AcDbArc
 50
270.0009170000012
 51
0.0
  0
LINE
  5
E4
330
15
100
AcDbEntity
  8
4
100
AcDbLine
 10
242.3987853020336
 20
171.9229498327272
 30
0.0
 11
247.3987848020337
 21
171.9229498327272
 31
0.0
  0
LINE
  5
E5
330
15
100
AcDbEntity
  8
4
100
AcDbLine
 10
242.3987853020336
 20
161.9229493327272
 30
0.0
 11
247.3987848020337
 21
161.9229493327272
 31
0.0
  0
LINE
  5
E6
330
15
100
AcDbEntity
  8
4
100
AcDbLine
 10
235.3987848020337
 20
163.9229503327272
 30
0.0
 11
235.3987848020337
 21
171.9229498327272
 31
0.0
  0
LINE
  5
E7
330
15
100
AcDbEntity
  8
4
100
AcDbLine
 10
242.3987853020336
 20
171.9229498327272
 30
0.0
 11
242.3987853020336
 21
161.9229493327272
 31
0.0
  0
LINE
  5
E8
330
15
100
AcDbEntity
  8
4
100
AcDbLine
 10
240.3987858020336
 20
161.9229493327272
 30
0.0
 11
240.3987858020336
 21
163.9229503327272
 31
0.0
  0
LINE
  5
E9
330
15
100
AcDbEntity
  8
4
100
AcDbLine
 10
235.3987848020337
 20
163.9229503327272
 30
0.0
 11
240.3987858020336
 21
163.9229503327272
 31
0.0
  0
LINE
  5
EA
330
15
100
AcDbEntity
  8
4
100
AcDbLine
 10
244.3987848020337
 20
169.9229503327272
 30
0.0
 11
246.3987858020336
 21
169.9229503327272
 31
0.0
  0
LINE
  5
EB
330
15
100
AcDbEntity
  8
4
100
AcDbLine
 10
244.3987848020337
 20
163.9229503327272
 30
0.0
 11
246.3987858020336
 21
163.9229503327272
 31
0.0
  0
LINE
  5
EC
330
15
100
AcDbEntity
  8
4
100
AcDbLine
 10
244.3987848020337
 20
163.9229503327272
 30
0.0
 11
244.3987848020337
 21
169.9229503327272
 31
0.0
  0
ARC
  5
ED
330
15
100
AcDbEntity
  8
4
100
AcDbCircle
 10
247.3987848020337
 20
169.9229503327272
 30
0.0
 40
1.9999995
100
AcDbArc
 50
0.0
 51
90.0
  0
LINE
  5
EE
330
15
100
AcDbEntity
  8
4
100
AcDbLine
 10
254.3987853020336
 20
167.9229493327272
 30
0.0
 11
251.3987853020336
 21
167.9229493327272
 31
0.0
  0
LINE
  5
EF
330
15
100
AcDbEntity
  8
4
100
AcDbLine
 10
254.3987853020336
 20
165.9229498327272
 30
0.0
 11
251.3987853020336
 21
165.9229498327272
 31
0.0
  0
ARC
  5
F0
330
15
100
AcDbEntity
  8
4
100
AcDbCircle
 10
247.3987848020337
 20
163.9229503327272
 30
0.0
 40
1.9999995
100
AcDbArc
 50
270.0004580000016
 51
0.0
  0
LINE
  5
F1
330
15
100
AcDbEntity
  8
4
100
AcDbLine
 10
249.3987858020336
 20
163.9229503327272
 30
0.0
 11
249.3987858020336
 21
169.9229503327272
 31
0.0
  0
LINE
  5
F2
330
15
100
AcDbEntity
  8
4
100
AcDbLine
 10
247.3987848020337
 20
164.9229493327272
 30
0.0
 11
247.3987848020337
 21
168.9229498327272
 31
0.0
  0
LINE
  5
F3
330
15
100
AcDbEntity
  8
4
100
AcDbLine
 10
251.3987853020336
 20
167.9229493327272
 30
0.0
 11
251.3987853020336
 21
165.9229498327272
 31
0.0
  0
LINE
  5
F4
330
15
100
AcDbEntity
  8
4
100
AcDbLine
 10
254.3987853020336
 20
167.9229493327272
 30
0.0
 11
254.3987853020336
 21
165.9229498327272
 31
0.0
  0
LINE
  5
F5
330
15
100
AcDbEntity
  8
4
100
AcDbLine
 10
264.3987858020336
 20
172.4229493327272
 30
0.0
 11
264.3987858020336
 21
161.4229498327272
 31
0.0
  0
ARC
  5
F6
330
15
100
AcDbEntity
  8
4
100
AcDbCircle
 10
262.3987848020337
 20
161.4229498327272
 30
0.0
 40
1.9999995
100
AcDbArc
 50
270.0004580000016
 51
0.0
  0
LINE
  5
F7
330
15
100
AcDbEntity
  8
4
100
AcDbLine
 10
261.3987858020336
 20
171.9229498327272
 30
0.0
 11
261.3987858020336
 21
161.9229493327272
 31
0.0
  0
LINE
  5
F8
330
15
100
AcDbEntity
  8
4
100
AcDbLine
 10
261.3987858020336
 20
161.9229493327272
 30
0.0
 11
259.3987848020337
 21
161.9229493327272
 31
0.0
  0
LINE
  5
F9
330
15
100
AcDbEntity
  8
4
100
AcDbLine
 10
259.3987848020337
 20
169.9229503327272
 30
0.0
 11
259.3987848020337
 21
161.9229493327272
 31
0.0
  0
ARC
  5
FA
330
15
100
AcDbEntity
  8
4
100
AcDbCircle
 10
262.3987848020337
 20
172.4229493327272
 30
0.0
 40
1.9999995
100
AcDbArc
 50
0.0
 51
90.0
  0
LINE
  5
FB
330
15
100
AcDbEntity
  8
4
100
AcDbLine
 10
261.3987858020336
 20
171.9229498327272
 30
0.0
 11
259.3987848020337
 21
171.9229498327272
 31
0.0
  0
LINE
  5
FC
330
15
100
AcDbEntity
  8
4
100
AcDbLine
 10
234.8987853020336
 20
197.9229493327272
 30
0.0
 11
259.8987858020336
 21
197.9229493327272
 31
0.0
  0
LINE
  5
FD
330
15
100
AcDbEntity
  8
4
100
AcDbLine
 10
234.8987853020336
 20
199.9229503327272
 30
0.0
 11
259.8987858020336
 21
199.9229503327272
 31
0.0
  0
LINE
  5
FE
330
15
100
AcDbEntity
  8
4
100
AcDbLine
 10
234.8987853020336
 20
203.9231938327272
 30
0.0
 11
259.8987858020336
 21
203.9231938327272
 31
0.0
  0
LINE
  5
FF
330
15
100
AcDbEntity
  8
4
100
AcDbLine
 10
235.8987858020336
 20
196.4229493327272
 30
0.0
 11
258.8987853020336
 21
196.4229493327272
 31
0.0
  0
LINE
  5
100
330
15
100
AcDbEntity
  8
4
100
AcDbLine
 10
235.8987858020336
 20
196.4229493327272
 30
0.0
 11
235.8987858020336
 21
197.9229493327272
 31
0.0
  0
LINE
  5
101
330
15
100
AcDbEntity
  8
4
100
AcDbLine
 10
234.8987853020336
 20
197.9229493327272
 30
0.0
 11
234.8987853020336
 21
203.9231938327272
 31
0.0
  0
LINE
  5
102
330
15
100
AcDbEntity
  8
4
100
AcDbLine
 10
241.1487858020336
 20
199.9229503327272
 30
0.0
 11
241.1487858020336
 21
203.9231938327272
 31
0.0
  0
LINE
  5
103
330
15
100
AcDbEntity
  8
4
100
AcDbLine
 10
253.6487853020336
 20
199.9229503327272
 30
0.0
 11
253.6487853020336
 21
203.9231938327272
 31
0.0
  0
LINE
  5
104
330
15
100
AcDbEntity
  8
4
100
AcDbLine
 10
258.8987853020336
 20
196.4229493327272
 30
0.0
 11
258.8987853020336
 21
197.9229493327272
 31
0.0
  0
LINE
  5
105
330
15
100
AcDbEntity
  8
4
100
AcDbLine
 10
261.3987858020336
 20
196.4229493327272
 30
0.0
 11
261.3987858020336
 21
195.1429213327273
 31
0.0
  0
LINE
  5
106
330
15
100
AcDbEntity
  8
4
100
AcDbLine
 10
259.8987858020336
 20
197.9229493327272
 30
0.0
 11
259.8987858020336
 21
203.9231938327272
 31
0.0
  0
ARC
  5
107
330
15
100
AcDbEntity
  8
4
100
AcDbCircle
 10
-7.601473197966357
 20
105.4229503327272
 30
0.0
 40
349.999926
100
AcDbArc
 50
0.0
 51
12.690107
  0
ARC
  5
108
330
15
100
AcDbEntity
  8
4
100
AcDbCircle
 10
333.7438773020336
 20
80.03638333272721
 30
0.0
 40
1.9999575
100
AcDbArc
 50
163.6157039999997
 51
270.0
  0
LINE
  5
109
330
15
100
AcDbEntity
  8
4
100
AcDbLine
 10
342.3986628020338
 20
90.42313333272722
 30
0.0
 11
342.3986628020338
 21
105.4229503327272
 31
0.0
  0
LINE
  5
10A
330
15
100
AcDbEntity
  8
4
100
AcDbLine
 10
345.3986628020338
 20
87.42313333272722
 30
0.0
 11
352.3986633020337
 21
87.42313333272722
 31
0.0
  0
LINE
  5
10B
330
15
100
AcDbEntity
  8
4
100
AcDbLine
 10
333.7438773020336
 20
78.03638383272721
 30
0.0
 11
352.3986633020337
 21
78.03638383272721
 31
0.0
  0
ARC
  5
10C
330
15
100
AcDbEntity
  8
4
100
AcDbCircle
 10
345.3986628020338
 20
90.42313333272722
 30
0.0
 40
3.0
100
AcDbArc
 50
180.0002860014283
 51
270.0
  0
LINE
  5
10D
330
15
100
AcDbEntity
  8
4
100
AcDbLine
 10
353.3986623020336
 20
78.92313283272722
 30
0.0
 11
352.3986633020337
 21
78.92313283272722
 31
0.0
  0
ARC
  5
10E
330
15
100
AcDbEntity
  8
4
100
AcDbCircle
 10
329.9465148020337
 20
181.4317393327273
 30
0.0
 40
4.0000395
100
AcDbArc
 50
12.68925200000004
 51
76.19699699999836
  0
CIRCLE
  5
10F
330
15
100
AcDbEntity
  8
4
100
AcDbCircle
 10
537.8949205727531
 20
61.42313233272722
 30
0.0
 40
17.5000005
  0
LINE
  5
110
330
15
100
AcDbEntity
  8
4
100
AcDbLine
 10
495.8949205727531
 20
135.4229503327272
 30
0.0
 11
495.8949205727531
 21
73.42294933272723
 31
0.0
  0
CIRCLE
  5
111
330
15
100
AcDbEntity
  8
4
100
AcDbCircle
 10
537.8949205727531
 20
61.42313233272722
 30
0.0
 40
25.9999995
  0
ARC
  5
112
330
15
100
AcDbEntity
  8
4
100
AcDbCircle
 10
1503.894919072754
 20
105.4229503327272
 30
0.0
 40
999.9999315
100
AcDbArc
 50
175.756499
 51
184.244025
  0
LINE
  5
113
330
15
100
AcDbEntity
  8
4
100
AcDbLine
 10
578.8949200727532
 20
36.42313333272722
 30
0.0
 11
578.8949200727532
 21
194.4229498327272
 31
0.0
  0
LINE
  5
114
330
15
100
AcDbEntity
  8
4
100
AcDbLine
 10
580.894921072753
 20
31.52414533272724
 30
0.0
 11
580.894921072753
 21
193.4229493327272
 31
0.0
  0
LINE
  5
115
330
15
100
AcDbEntity
  8
4
100
AcDbLine
 10
507.8949205727531
 20
29.42313283272722
 30
0.0
 11
507.8949205727531
 21
192.4229503327272
 31
0.0
  0
LINE
  5
116
330
15
100
AcDbEntity
  8
4
100
AcDbLine
 10
599.8949200727532
 20
145.4229493327272
 30
0.0
 11
599.8949200727532
 21
41.42294983272723
 31
0.0
  0
LINE
  5
117
330
15
100
AcDbEntity
  8
4
100
AcDbLine
 10
588.8949205727531
 20
29.42313283272722
 30
0.0
 11
588.8949205727531
 21
192.4229503327272
 31
0.0
  0
LINE
  5
118
330
15
100
AcDbEntity
  8
4
100
AcDbLine
 10
496.894921072753
 20
145.4229493327272
 30
0.0
 11
496.8948580727531
 21
46.42313233272722
 31
0.0
  0
ARC
  5
119
330
15
100
AcDbEntity
  8
4
100
AcDbCircle
 10
-407.1050779272468
 20
105.4229503327272
 30
0.0
 40
1000.0001175
100
AcDbArc
 50
356.2397832284685
 51
359.7135199424214
  0
LINE
  5
11A
330
15
100
AcDbEntity
  8
4
100
AcDbLine
 10
600.8949205727531
 20
135.4229503327272
 30
0.0
 11
600.8949205727531
 21
73.42294933272723
 31
0.0
  0
LINE
  5
11B
330
15
100
AcDbEntity
  8
L-CENTER
 48
2.0
100
AcDbLine
 10
537.8949205727531
 20
31.33867753658893
 30
0.0
 11
537.8949205727531
 21
91.50758712886551
 31
0.0
  0
LINE
  5
11C
330
15
100
AcDbEntity
  8
L-CENTER
 48
2.0
100
AcDbLine
 10
548.3949205727531
 20
6.553549332727243
 30
0.0
 11
548.3949205727531
 21
207.4369228327272
 31
0.0
  0
LINE
  5
11D
330
15
100
AcDbEntity
  8
4
100
AcDbLine
 10
618.394921072753
 20
11.42313283272722
 30
0.0
 11
478.3949200727532
 21
11.42313283272722
 31
0.0
  0
ARC
  5
11E
330
15
100
AcDbEntity
  8
4
100
AcDbCircle
 10
585.8949205727531
 20
36.42313333272722
 30
0.0
 40
7.000000499999999
100
AcDbArc
 50
180.0002460009165
 51
270.0
  0
LINE
  5
11F
330
15
100
AcDbEntity
  8
4
100
AcDbLine
 10
480.394921072753
 20
29.42313283272722
 30
0.0
 11
510.8949205727531
 21
29.42313283272722
 31
0.0
  0
LINE
  5
124
330
15
100
AcDbEntity
  8
4
100
AcDbLine
 10
478.3949200727532
 20
27.42313333272722
 30
0.0
 11
478.3949200727532
 21
11.42313283272722
 31
0.0
  0
ARC
  5
125
330
15
100
AcDbEntity
  8
4
100
AcDbCircle
 10
480.394921072753
 20
27.42313333272722
 30
0.0
 40
1.9999995
100
AcDbArc
 50
90.0
 51
180.0004300002808
  0
LINE
  5
126
330
15
100
AcDbEntity
  8
L-CENTER
 48
2.0
100
AcDbLine
 10
493.3949200727532
 20
35.42313283272722
 30
0.0
 11
493.3949200727532
 21
5.423132832727219
 31
0.0
  0
LINE
  5
128
330
15
100
AcDbEntity
  8
L-CENTER
 48
2.0
100
AcDbLine
 10
507.8104657766148
 20
61.42313233272722
 30
0.0
 11
567.9793753688914
 21
61.42313233272722
 31
0.0
  0
LINE
  5
129
330
15
100
AcDbEntity
  8
4
100
AcDbLine
 10
517.894921072753
 20
36.42313333272722
 30
0.0
 11
517.894921072753
 21
44.80988233272723
 31
0.0
  0
ARC
  5
12A
330
15
100
AcDbEntity
  8
4
100
AcDbCircle
 10
510.8949205727531
 20
36.42313333272722
 30
0.0
 40
7.000000499999999
100
AcDbArc
 50
270.0
 51
0.0
  0
LINE
  5
12B
330
15
100
AcDbEntity
  8
4
100
AcDbLine
 10
507.8949205727531
 20
31.42310233272724
 30
0.0
 11
506.6366200727532
 21
31.42310233272724
 31
0.0
  0
LINE
  5
12C
330
15
100
AcDbEntity
  8
4
100
AcDbLine
 10
488.394859072753
 20
47.92313233272722
 30
0.0
 11
488.394859072753
 21
72.92313283272722
 31
0.0
  0
LINE
  5
12D
330
15
100
AcDbEntity
  8
4
100
AcDbLine
 10
493.3948600727531
 20
47.92313233272722
 30
0.0
 11
493.3948600727531
 21
72.92313283272722
 31
0.0
  0
LINE
  5
12E
330
15
100
AcDbEntity
  8
4
100
AcDbLine
 10
495.3948595727531
 20
47.92313233272722
 30
0.0
 11
495.3948595727531
 21
72.92313283272722
 31
0.0
  0
LINE
  5
12F
330
15
100
AcDbEntity
  8
4
100
AcDbLine
 10
488.394859072753
 20
47.92313233272722
 30
0.0
 11
495.3948595727531
 21
47.92313233272722
 31
0.0
  0
LINE
  5
130
330
15
100
AcDbEntity
  8
4
100
AcDbLine
 10
493.3948600727531
 20
54.17314783272724
 30
0.0
 11
488.394859072753
 21
54.17314783272724
 31
0.0
  0
LINE
  5
131
330
15
100
AcDbEntity
  8
4
100
AcDbLine
 10
496.8948595727531
 20
46.42313233272722
 30
0.0
 11
505.636864072753
 21
46.42313233272722
 31
0.0
  0
LINE
  5
132
330
15
100
AcDbEntity
  8
4
100
AcDbLine
 10
496.8948595727531
 20
48.92313283272722
 30
0.0
 11
495.3948595727531
 21
48.92313283272722
 31
0.0
  0
LINE
  5
133
330
15
100
AcDbEntity
  8
L-CENTER
 48
2.0
100
AcDbLine
 10
486.8858260727532
 20
60.42313333272722
 30
0.0
 11
509.9904033732412
 21
60.42313333272722
 31
0.0
  0
LINE
  5
134
330
15
100
AcDbEntity
  8
4
100
AcDbLine
 10
495.3948595727531
 20
72.92313283272722
 30
0.0
 11
488.394859072753
 21
72.92313283272722
 31
0.0
  0
LINE
  5
135
330
15
100
AcDbEntity
  8
4
100
AcDbLine
 10
493.3948600727531
 20
66.67313233272722
 30
0.0
 11
488.394859072753
 21
66.67313233272722
 31
0.0
  0
LINE
  5
136
330
15
100
AcDbEntity
  8
4
100
AcDbLine
 10
495.8949205727531
 20
73.42294933272723
 30
0.0
 11
496.8948745727532
 21
73.42294933272723
 31
0.0
  0
LINE
  5
137
330
15
100
AcDbEntity
  8
4
100
AcDbLine
 10
496.8948595727531
 20
71.92313233272722
 30
0.0
 11
495.3948595727531
 21
71.92313233272722
 31
0.0
  0
LINE
  5
13C
330
15
100
AcDbEntity
  8
L-CENTER
 48
2.0
100
AcDbLine
 10
603.394921072753
 20
35.42313283272722
 30
0.0
 11
603.394921072753
 21
5.423132832727219
 31
0.0
  0
LINE
  5
13D
330
15
100
AcDbEntity
  8
4
100
AcDbLine
 10
585.8949205727531
 20
29.42313283272722
 30
0.0
 11
616.3949200727532
 21
29.42313283272722
 31
0.0
  0
LINE
  5
13E
330
15
100
AcDbEntity
  8
4
100
AcDbLine
 10
597.8949205727531
 20
11.42313283272722
 30
0.0
 11
597.8949205727531
 21
29.42313283272722
 31
0.0
  0
ARC
  5
13F
330
15
100
AcDbEntity
  8
4
100
AcDbCircle
 10
583.356835072753
 20
20.79692833272725
 30
0.0
 40
2.371338
100
AcDbArc
 50
293.5512900000008
 51
36.97253199999825
  0
ARC
  5
140
330
15
100
AcDbEntity
  8
4
100
AcDbCircle
 10
583.356835072753
 20
20.79692833272725
 30
0.0
 40
2.371338
100
AcDbArc
 50
293.5512900000008
 51
36.97253199999825
  0
ARC
  5
141
330
15
100
AcDbEntity
  8
4
100
AcDbCircle
 10
581.4630355727531
 20
13.59693133272725
 30
0.0
 40
2.371338
100
AcDbArc
 50
293.5513120000041
 51
36.972532000001
  0
ARC
  5
142
330
15
100
AcDbEntity
  8
4
100
AcDbCircle
 10
581.4630355727531
 20
13.59693133272725
 30
0.0
 40
2.371338
100
AcDbArc
 50
293.5513120000041
 51
36.972532000001
  0
ARC
  5
143
330
15
100
AcDbEntity
  8
4
100
AcDbCircle
 10
585.252097072753
 20
16.44933283272724
 30
0.0
 40
2.371338
100
AcDbArc
 50
113.5512990000009
 51
216.972550999997
  0
ARC
  5
144
330
15
100
AcDbEntity
  8
4
100
AcDbCircle
 10
585.252097072753
 20
16.44933283272724
 30
0.0
 40
2.371338
100
AcDbArc
 50
113.5512990000009
 51
216.972550999997
  0
ARC
  5
145
330
15
100
AcDbEntity
  8
4
100
AcDbCircle
 10
585.2508775727531
 20
27.99692533272724
 30
0.0
 40
2.371338
100
AcDbArc
 50
293.5512900000003
 51
36.97253199999825
  0
ARC
  5
146
330
15
100
AcDbEntity
  8
4
100
AcDbCircle
 10
585.2508775727531
 20
27.99692533272724
 30
0.0
 40
2.371338
100
AcDbArc
 50
293.5512900000003
 51
36.97253199999825
  0
ARC
  5
147
330
15
100
AcDbEntity
  8
4
100
AcDbCircle
 10
587.1461410727532
 20
23.64932983272723
 30
0.0
 40
2.371338
100
AcDbArc
 50
113.5512990000009
 51
216.972550999997
  0
ARC
  5
148
330
15
100
AcDbEntity
  8
4
100
AcDbCircle
 10
587.1461410727532
 20
23.64932983272723
 30
0.0
 40
2.371338
100
AcDbArc
 50
113.5512990000009
 51
216.972550999997
  0
LINE
  5
149
330
15
100
AcDbEntity
  8
4
100
AcDbLine
 10
608.8949200727532
 20
11.42313283272722
 30
0.0
 11
608.8949200727532
 21
29.42313283272722
 31
0.0
  0
LINE
  5
14A
330
15
100
AcDbEntity
  8
4
100
AcDbLine
 10
618.394921072753
 20
27.42313333272722
 30
0.0
 11
618.394921072753
 21
11.42313283272722
 31
0.0
  0
ARC
  5
14B
330
15
100
AcDbEntity
  8
4
100
AcDbCircle
 10
616.3949200727532
 20
27.42313333272722
 30
0.0
 40
1.9999995
100
AcDbArc
 50
0.0
 51
90.0
  0
LINE
  5
14C
330
15
100
AcDbEntity
  8
4
100
AcDbLine
 10
599.8949200727532
 20
41.42294983272723
 30
0.0
 11
590.8449385727531
 21
41.42294983272723
 31
0.0
  0
LINE
  5
14D
330
15
100
AcDbEntity
  8
4
100
AcDbLine
 10
599.8949200727532
 20
69.42295033272723
 30
0.0
 11
592.2468295727531
 21
69.42295033272723
 31
0.0
  0
LINE
  5
14E
330
15
100
AcDbEntity
  8
4
100
AcDbLine
 10
600.8949205727531
 20
73.42294933272723
 30
0.0
 11
599.894966572753
 21
73.42294933272723
 31
0.0
  0
LINE
  5
14F
330
15
100
AcDbEntity
  8
4
100
AcDbLine
 10
578.8949200727532
 20
193.4229493327272
 30
0.0
 11
580.894921072753
 21
193.4229493327272
 31
0.0
  0
LINE
  5
150
330
15
100
AcDbEntity
  8
4
100
AcDbLine
 10
587.8949200727532
 20
193.4229493327272
 30
0.0
 11
578.8949200727532
 21
193.4229493327272
 31
0.0
  0
LINE
  5
151
330
15
100
AcDbEntity
  8
L-CENTER
 48
2.0
100
AcDbLine
 10
663.2682265727531
 20
104.4229498327272
 30
0.0
 11
493.2524820779283
 21
104.4229498327272
 31
0.0
  0
LINE
  5
152
330
15
100
AcDbEntity
  8
4
100
AcDbLine
 10
517.894921072753
 20
78.03638383272721
 30
0.0
 11
517.894921072753
 21
194.4229498327272
 31
0.0
  0
LINE
  5
153
330
15
100
AcDbEntity
  8
4
100
AcDbLine
 10
496.8948595727531
 20
74.42313283272722
 30
0.0
 11
504.3756325727531
 21
74.42313283272722
 31
0.0
  0
LINE
  5
154
330
15
100
AcDbEntity
  8
4
100
AcDbLine
 10
504.0394510727531
 20
88.42313233272722
 30
0.0
 11
496.894921072753
 21
88.42313233272722
 31
0.0
  0
LINE
  5
155
330
15
100
AcDbEntity
  8
4
100
AcDbLine
 10
495.8949205727531
 20
96.92294983272723
 30
0.0
 11
496.894921072753
 21
96.92294983272723
 31
0.0
  0
LINE
  5
156
330
15
100
AcDbEntity
  8
4
100
AcDbLine
 10
495.8949205727531
 20
131.9229493327272
 30
0.0
 11
496.894921072753
 21
131.9229493327272
 31
0.0
  0
LINE
  5
157
330
15
100
AcDbEntity
  8
4
100
AcDbLine
 10
504.5077135727531
 20
140.4229498327272
 30
0.0
 11
496.894921072753
 21
140.4229498327272
 31
0.0
  0
LINE
  5
158
330
15
100
AcDbEntity
  8
4
100
AcDbLine
 10
495.8949205727531
 20
135.4229503327272
 30
0.0
 11
496.894921072753
 21
135.4229503327272
 31
0.0
  0
LINE
  5
159
330
15
100
AcDbEntity
  8
4
100
AcDbLine
 10
577.894921072753
 20
195.4229503327272
 30
0.0
 11
518.8949200727532
 21
195.4229503327272
 31
0.0
  0
LINE
  5
15A
330
15
100
AcDbEntity
  8
4
100
AcDbLine
 10
504.6952135727531
 20
145.4229493327272
 30
0.0
 11
496.894921072753
 21
145.4229493327272
 31
0.0
  0
ARC
  5
15B
330
15
100
AcDbEntity
  8
4
100
AcDbCircle
 10
518.8949200727532
 20
194.4229498327272
 30
0.0
 40
1.0000005
100
AcDbArc
 50
90.0
 51
180.0
  0
LINE
  5
15C
330
15
100
AcDbEntity
  8
4
100
AcDbLine
 10
507.8949205727531
 20
179.4229498327272
 30
0.0
 11
506.6366200727532
 21
179.4229498327272
 31
0.0
  0
LINE
  5
15D
330
15
100
AcDbEntity
  8
4
100
AcDbLine
 10
508.894921072753
 20
193.4229493327272
 30
0.0
 11
517.894921072753
 21
193.4229493327272
 31
0.0
  0
ARC
  5
15E
330
15
100
AcDbEntity
  8
4
100
AcDbCircle
 10
508.894921072753
 20
192.4229503327272
 30
0.0
 40
1.0000005
100
AcDbArc
 50
90.0
 51
180.0
  0
LINE
  5
15F
330
15
100
AcDbEntity
  8
4
100
AcDbLine
 10
562.3949200727532
 20
196.4229493327272
 30
0.0
 11
534.394921072753
 21
196.4229493327272
 31
0.0
  0
LINE
  5
160
330
15
100
AcDbEntity
  8
4
100
AcDbLine
 10
534.394921072753
 20
196.4229493327272
 30
0.0
 11
562.3949200727532
 21
196.4229493327272
 31
0.0
  0
LINE
  5
161
330
15
100
AcDbEntity
  8
4
100
AcDbLine
 10
559.894921072753
 20
196.4229493327272
 30
0.0
 11
536.8949200727532
 21
196.4229493327272
 31
0.0
  0
LINE
  5
162
330
15
100
AcDbEntity
  8
4
100
AcDbLine
 10
560.8949200727532
 20
197.9229493327272
 30
0.0
 11
535.894921072753
 21
197.9229493327272
 31
0.0
  0
LINE
  5
163
330
15
100
AcDbEntity
  8
4
100
AcDbLine
 10
560.8949200727532
 20
199.9229503327272
 30
0.0
 11
535.894921072753
 21
199.9229503327272
 31
0.0
  0
LINE
  5
164
330
15
100
AcDbEntity
  8
4
100
AcDbLine
 10
559.2201160727532
 20
203.9231938327272
 30
0.0
 11
537.569480572753
 21
203.9231938327272
 31
0.0
  0
LINE
  5
165
330
15
100
AcDbEntity
  8
4
100
AcDbLine
 10
534.394921072753
 20
195.4229503327272
 30
0.0
 11
534.394921072753
 21
196.4229493327272
 31
0.0
  0
LINE
  5
166
330
15
100
AcDbEntity
  8
4
100
AcDbLine
 10
536.8949200727532
 20
196.4229493327272
 30
0.0
 11
536.8949200727532
 21
197.9229493327272
 31
0.0
  0
LINE
  5
167
330
15
100
AcDbEntity
  8
4
100
AcDbLine
 10
535.894921072753
 20
197.9229493327272
 30
0.0
 11
535.894921072753
 21
199.9229503327272
 31
0.0
  0
LINE
  5
168
330
15
100
AcDbEntity
  8
4
100
AcDbLine
 10
537.569480572753
 20
199.9229503327272
 30
0.0
 11
537.569480572753
 21
203.9231938327272
 31
0.0
  0
LINE
  5
169
330
15
100
AcDbEntity
  8
4
100
AcDbLine
 10
562.3949200727532
 20
195.4229503327272
 30
0.0
 11
562.3949200727532
 21
196.4229493327272
 31
0.0
  0
ARC
  5
16A
330
15
100
AcDbEntity
  8
4
100
AcDbCircle
 10
577.894921072753
 20
194.4229498327272
 30
0.0
 40
1.0000005
100
AcDbArc
 50
0.0
 51
90.0
  0
LINE
  5
16B
330
15
100
AcDbEntity
  8
4
100
AcDbLine
 10
559.894921072753
 20
196.4229493327272
 30
0.0
 11
559.894921072753
 21
197.9229493327272
 31
0.0
  0
LINE
  5
16C
330
15
100
AcDbEntity
  8
4
100
AcDbLine
 10
559.2201160727532
 20
199.9229503327272
 30
0.0
 11
559.2201160727532
 21
203.9231938327272
 31
0.0
  0
LINE
  5
16D
330
15
100
AcDbEntity
  8
4
100
AcDbLine
 10
560.8949200727532
 20
197.9229493327272
 30
0.0
 11
560.8949200727532
 21
199.9229503327272
 31
0.0
  0
ARC
  5
16E
330
15
100
AcDbEntity
  8
4
100
AcDbCircle
 10
-407.1050779272468
 20
105.4229503327272
 30
0.0
 40
999.9999645
100
AcDbArc
 50
0.2864801014104185
 51
3.760217347672117
  0
LINE
  5
16F
330
15
100
AcDbEntity
  8
4
100
AcDbLine
 10
609.8949205727531
 20
90.42295033272723
 30
0.0
 11
658.894921072753
 21
90.42295033272723
 31
0.0
  0
LINE
  5
170
330
15
100
AcDbEntity
  8
4
100
AcDbLine
 10
609.8949205727531
 20
118.4229493327272
 30
0.0
 11
658.894921072753
 21
118.4229493327272
 31
0.0
  0
LINE
  5
171
330
15
100
AcDbEntity
  8
4
100
AcDbLine
 10
659.8949200727532
 20
121.4229493327272
 30
0.0
 11
614.8949200727532
 21
121.4229493327272
 31
0.0
  0
LINE
  5
172
330
15
100
AcDbEntity
  8
4
100
AcDbLine
 10
609.8949205727531
 20
119.4229498327272
 30
0.0
 11
609.8949205727531
 21
89.42294983272723
 31
0.0
  0
LINE
  5
173
330
15
100
AcDbEntity
  8
4
100
AcDbLine
 10
600.8949205727531
 20
89.42294983272723
 30
0.0
 11
609.8949205727531
 21
89.42294983272723
 31
0.0
  0
LINE
  5
174
330
15
100
AcDbEntity
  8
4
100
AcDbLine
 10
592.7503885727531
 20
88.42313233272722
 30
0.0
 11
599.8949200727532
 21
88.42313233272722
 31
0.0
  0
LINE
  5
175
330
15
100
AcDbEntity
  8
4
100
AcDbLine
 10
600.8949205727531
 20
96.92294983272723
 30
0.0
 11
599.8949200727532
 21
96.92294983272723
 31
0.0
  0
LINE
  5
176
330
15
100
AcDbEntity
  8
4
100
AcDbLine
 10
600.8949205727531
 20
119.4229498327272
 30
0.0
 11
609.8949205727531
 21
119.4229498327272
 31
0.0
  0
LINE
  5
177
330
15
100
AcDbEntity
  8
4
100
AcDbLine
 10
592.2821275727531
 20
140.4229498327272
 30
0.0
 11
599.8949200727532
 21
140.4229498327272
 31
0.0
  0
LINE
  5
178
330
15
100
AcDbEntity
  8
4
100
AcDbLine
 10
600.8949205727531
 20
131.9229493327272
 30
0.0
 11
599.8949200727532
 21
131.9229493327272
 31
0.0
  0
LINE
  5
179
330
15
100
AcDbEntity
  8
4
100
AcDbLine
 10
600.8949205727531
 20
135.4229503327272
 30
0.0
 11
599.8949200727532
 21
135.4229503327272
 31
0.0
  0
LINE
  5
17A
330
15
100
AcDbEntity
  8
4
100
AcDbLine
 10
614.8949200727532
 20
121.4229493327272
 30
0.0
 11
614.8949200727532
 21
118.4229493327272
 31
0.0
  0
LINE
  5
17B
330
15
100
AcDbEntity
  8
4
100
AcDbLine
 10
658.894921072753
 20
118.4229493327272
 30
0.0
 11
658.894921072753
 21
90.42295033272723
 31
0.0
  0
LINE
  5
17C
330
15
100
AcDbEntity
  8
4
100
AcDbLine
 10
659.8949200727532
 20
121.4229493327272
 30
0.0
 11
659.8949200727532
 21
91.42294933272723
 31
0.0
  0
LINE
  5
17D
330
15
100
AcDbEntity
  8
4
100
AcDbLine
 10
658.894921072753
 20
90.42295033272723
 30
0.0
 11
659.8949200727532
 21
91.42294933272723
 31
0.0
  0
LINE
  5
17E
330
15
100
AcDbEntity
  8
4
100
AcDbLine
 10
659.8949200727532
 20
117.4229503327272
 30
0.0
 11
658.894921072753
 21
118.4229493327272
 31
0.0
  0
LINE
  5
17F
330
15
100
AcDbEntity
  8
4
100
AcDbLine
 10
592.0946275727531
 20
145.4229493327272
 30
0.0
 11
599.8949200727532
 21
145.4229493327272
 31
0.0
  0
ARC
  5
180
330
15
100
AcDbEntity
  8
4
100
AcDbCircle
 10
587.8949200727532
 20
192.4229503327272
 30
0.0
 40
1.0000005
100
AcDbArc
 50
0.0
 51
90.0
  0
LINE
  5
203
330
15
100
AcDbEntity
  8
L-CENTER
 48
2.0
100
AcDbLine
 10
137.3987848020336
 20
392.321392434945
 30
0.0
 11
356.4254428944796
 21
392.321392434945
 31
0.0
  0
LINE
  5
204
330
15
100
AcDbEntity
  8
4
100
AcDbLine
 10
342.3987848020334
 20
325.321392434945
 30
0.0
 11
342.3987848020337
 21
459.321392434945
 31
0.0
  0
LINE
  5
205
330
15
100
AcDbEntity
  8
4
100
AcDbLine
 10
352.3987848020334
 20
355.821392434945
 30
0.0
 11
352.3987848020334
 21
407.821392434945
 31
0.0
  0
LINE
  5
206
330
15
100
AcDbEntity
  8
4
100
AcDbLine
 10
152.3987848020337
 20
325.321392434945
 30
0.0
 11
152.3987848020337
 21
459.321392434945
 31
0.0
  0
LINE
  5
207
330
15
100
AcDbEntity
  8
4
100
AcDbLine
 10
142.3987848020336
 20
355.8213924349449
 30
0.0
 11
142.3987848020336
 21
407.8213924349449
 31
0.0
  0
LINE
  5
208
330
15
100
AcDbEntity
  8
L-CENTER
 48
2.0
100
AcDbLine
 10
247.3987848020337
 20
335.821392434945
 30
0.0
 11
247.3987848020337
 21
446.6753746817731
 31
0.0
  0
LINE
  5
209
330
15
100
AcDbEntity
  8
4
100
AcDbLine
 10
183.9127848020338
 20
340.821392434945
 30
0.0
 11
313.9127848020336
 21
340.821392434945
 31
0.0
  0
LINE
  5
20A
330
15
100
AcDbEntity
  8
4
100
AcDbLine
 10
183.227828967082
 20
322.321392434945
 30
0.0
 11
155.3987848020337
 21
322.321392434945
 31
0.0
  0
ARC
  5
20B
330
15
100
AcDbEntity
  8
4
100
AcDbCircle
 10
163.3987848020337
 20
355.8213924349451
 30
0.0
 40
4.0
100
AcDbArc
 50
180.0
 51
270.0
  0
LINE
  5
20C
330
15
100
AcDbEntity
  8
L-CENTER
 48
2.0
100
AcDbLine
 10
177.3987848020337
 20
337.321392434945
 30
0.0
 11
157.3987848020338
 21
337.321392434945
 31
0.0
  0
ARC
  5
20D
330
15
100
AcDbEntity
  8
4
100
AcDbCircle
 10
155.3987848020337
 20
325.321392434945
 30
0.0
 40
3.0
100
AcDbArc
 50
180.0
 51
270.0
  0
LINE
  5
20E
330
15
100
AcDbEntity
  8
4
100
AcDbLine
 10
149.3987848020336
 20
355.8213924349449
 30
0.0
 11
142.3987848020336
 21
355.8213924349449
 31
0.0
  0
LINE
  5
20F
330
15
100
AcDbEntity
  8
4
100
AcDbLine
 10
159.3987848020337
 20
358.821392434945
 30
0.0
 11
159.3987848020337
 21
355.8213924349451
 31
0.0
  0
ARC
  5
210
330
15
100
AcDbEntity
  8
4
100
AcDbCircle
 10
149.3987848020336
 20
352.8213924349449
 30
0.0
 40
3.0
100
AcDbArc
 50
0.0
 51
90.0
  0
ARC
  5
211
330
15
100
AcDbEntity
  8
4
100
AcDbCircle
 10
153.3987848020336
 20
362.821392434945
 30
0.0
 40
1.0
100
AcDbArc
 50
180.0
 51
270.0
  0
ARC
  5
212
330
15
100
AcDbEntity
  8
4
100
AcDbCircle
 10
156.3987848020337
 20
358.821392434945
 30
0.0
 40
3.0
100
AcDbArc
 50
0.0
 51
90.0
  0
LINE
  5
213
330
15
100
AcDbEntity
  8
4
100
AcDbLine
 10
153.3987848020336
 20
361.821392434945
 30
0.0
 11
341.3987848020337
 21
361.821392434945
 31
0.0
  0
LINE
  5
214
330
15
100
AcDbEntity
  8
4
100
AcDbLine
 10
183.9127848020338
 20
340.821392434945
 30
0.0
 11
183.9127848020338
 21
346.2834410669732
 31
0.0
  0
LINE
  5
215
330
15
100
AcDbEntity
  8
L-CENTER
 48
2.0
100
AcDbLine
 10
167.3987848020338
 20
327.3213924349441
 30
0.0
 11
167.3987848020337
 21
347.321392434945
 31
0.0
  0
CIRCLE
  5
216
330
15
100
AcDbEntity
  8
4
100
AcDbCircle
 10
167.3987848020337
 20
337.321392434945
 30
0.0
 40
5.5
  0
LINE
  5
217
330
15
100
AcDbEntity
  8
4
100
AcDbLine
 10
191.4873923969704
 20
340.821392434945
 30
0.0
 11
186.0774654230503
 21
324.3835373988034
 31
0.0
  0
ARC
  5
218
330
15
100
AcDbEntity
  8
4
100
AcDbCircle
 10
183.227828967082
 20
325.321392434945
 30
0.0
 40
3.0
100
AcDbArc
 50
270.0
 51
341.7829048021748
  0
ARC
  5
219
330
15
100
AcDbEntity
  8
4
100
AcDbCircle
 10
247.3987848020334
 20
1348.07963381478
 30
0.0
 40
1001.0
100
AcDbArc
 50
265.7604804306142
 51
266.2030310082794
  0
LINE
  5
21A
330
15
100
AcDbEntity
  8
4
100
AcDbLine
 10
163.3987848020337
 20
351.8213924349451
 30
0.0
 11
331.3987848020337
 21
351.8213924349451
 31
0.0
  0
LINE
  5
21B
330
15
100
AcDbEntity
  8
4
100
AcDbLine
 10
173.3987848020337
 20
349.8186458962894
 30
0.0
 11
173.3987848020337
 21
350.8213924349451
 31
0.0
  0
ARC
  5
21C
330
15
100
AcDbEntity
  8
4
100
AcDbCircle
 10
172.3987848020337
 20
350.8213924349451
 30
0.0
 40
1.0
100
AcDbArc
 50
0.0
 51
90.0
  0
ARC
  5
21D
330
15
100
AcDbEntity
  8
4
100
AcDbCircle
 10
180.9127848020338
 20
346.2834410669732
 30
0.0
 40
3.0
100
AcDbArc
 50
0.0
 51
86.20303100827913
  0
ARC
  5
21E
330
15
100
AcDbEntity
  8
4
100
AcDbCircle
 10
247.3987848020334
 20
1348.07963381478
 30
0.0
 40
1001.0
100
AcDbArc
 50
273.970167183595
 51
274.2395195693858
  0
LINE
  5
21F
330
15
100
AcDbEntity
  8
4
100
AcDbLine
 10
339.3987848020334
 20
322.321392434945
 30
0.0
 11
311.5697406369853
 21
322.321392434945
 31
0.0
  0
LINE
  5
220
330
15
100
AcDbEntity
  8
L-CENTER
 48
2.0
100
AcDbLine
 10
317.3987848020337
 20
337.321392434945
 30
0.0
 11
337.3987848020337
 21
337.321392434945
 31
0.0
  0
LINE
  5
221
330
15
100
AcDbEntity
  8
4
100
AcDbLine
 10
313.9127848020336
 20
340.821392434945
 30
0.0
 11
313.9127848020336
 21
346.4889969755566
 31
0.0
  0
LINE
  5
222
330
15
100
AcDbEntity
  8
4
100
AcDbLine
 10
303.3101772070969
 20
340.821392434945
 30
0.0
 11
308.7201041810168
 21
324.3835373988036
 31
0.0
  0
ARC
  5
223
330
15
100
AcDbEntity
  8
4
100
AcDbCircle
 10
311.5697406369853
 20
325.321392434945
 30
0.0
 40
3.0
100
AcDbArc
 50
198.2170951978252
 51
270.0
  0
ARC
  5
224
330
15
100
AcDbEntity
  8
4
100
AcDbCircle
 10
316.9127848020336
 20
346.4889969755566
 30
0.0
 40
3.0
100
AcDbArc
 50
93.97016718359183
 51
180.0
  0
LINE
  5
225
330
15
100
AcDbEntity
  8
L-CENTER
 48
2.0
100
AcDbLine
 10
327.3987848020337
 20
327.3213924349441
 30
0.0
 11
327.3987848020339
 21
347.321392434945
 31
0.0
  0
CIRCLE
  5
226
330
15
100
AcDbEntity
  8
4
100
AcDbCircle
 10
327.3987848020339
 20
337.321392434945
 30
0.0
 40
5.5
  0
ARC
  5
227
330
15
100
AcDbEntity
  8
4
100
AcDbCircle
 10
339.3987848020334
 20
325.321392434945
 30
0.0
 40
3.0
100
AcDbArc
 50
270.0
 51
0.0
  0
ARC
  5
228
330
15
100
AcDbEntity
  8
4
100
AcDbCircle
 10
338.3987848020337
 20
358.821392434945
 30
0.0
 40
3.0
100
AcDbArc
 50
90.0
 51
180.0
  0
LINE
  5
229
330
15
100
AcDbEntity
  8
4
100
AcDbLine
 10
335.3987848020337
 20
358.821392434945
 30
0.0
 11
335.3987848020337
 21
355.8213924349451
 31
0.0
  0
ARC
  5
22A
330
15
100
AcDbEntity
  8
4
100
AcDbCircle
 10
322.3987848020334
 20
350.8213924349451
 30
0.0
 40
1.0
100
AcDbArc
 50
90.0
 51
180.0
  0
LINE
  5
22B
330
15
100
AcDbEntity
  8
4
100
AcDbLine
 10
321.3987848020334
 20
349.8186458962894
 30
0.0
 11
321.3987848020334
 21
350.8213924349451
 31
0.0
  0
ARC
  5
22C
330
15
100
AcDbEntity
  8
4
100
AcDbCircle
 10
331.3987848020337
 20
355.8213924349451
 30
0.0
 40
4.0
100
AcDbArc
 50
270.0
 51
0.0
  0
ARC
  5
22D
330
15
100
AcDbEntity
  8
4
100
AcDbCircle
 10
345.3987848020334
 20
352.821392434945
 30
0.0
 40
3.0
100
AcDbArc
 50
90.0
 51
180.0
  0
LINE
  5
22E
330
15
100
AcDbEntity
  8
4
100
AcDbLine
 10
352.3987848020337
 20
355.821392434945
 30
0.0
 11
345.3987848020334
 21
355.821392434945
 31
0.0
  0
ARC
  5
22F
330
15
100
AcDbEntity
  8
4
100
AcDbCircle
 10
341.3987848020337
 20
362.821392434945
 30
0.0
 40
1.0
100
AcDbArc
 50
270.0
 51
0.0
  0
ARC
  5
230
330
15
100
AcDbEntity
  8
4
100
AcDbCircle
 10
341.3987848020334
 20
362.821392434945
 30
0.0
 40
1.0
100
AcDbArc
 50
270.0
 51
0.0
  0
LINE
  5
231
330
15
100
AcDbEntity
  8
4
100
AcDbLine
 10
159.3987848020336
 20
424.821392434945
 30
0.0
 11
335.3987848020337
 21
424.821392434945
 31
0.0
  0
LINE
  5
232
330
15
100
AcDbEntity
  8
4
100
AcDbLine
 10
183.227828967082
 20
462.321392434945
 30
0.0
 11
155.3987848020337
 21
462.321392434945
 31
0.0
  0
LINE
  5
233
330
15
100
AcDbEntity
  8
L-CENTER
 48
2.0
100
AcDbLine
 10
177.3987848020337
 20
447.3213924349452
 30
0.0
 11
157.3987848020338
 21
447.3213924349452
 31
0.0
  0
LINE
  5
234
330
15
100
AcDbEntity
  8
4
100
AcDbLine
 10
149.3987848020336
 20
407.8213924349449
 30
0.0
 11
142.3987848020336
 21
407.8213924349449
 31
0.0
  0
ARC
  5
235
330
15
100
AcDbEntity
  8
4
100
AcDbCircle
 10
149.3987848020336
 20
410.8213924349449
 30
0.0
 40
3.0
100
AcDbArc
 50
270.0
 51
0.0
  0
ARC
  5
236
330
15
100
AcDbEntity
  8
4
100
AcDbCircle
 10
153.3987848020336
 20
421.821392434945
 30
0.0
 40
1.0
100
AcDbArc
 50
90.0
 51
180.0
  0
LINE
  5
237
330
15
100
AcDbEntity
  8
4
100
AcDbLine
 10
159.3987848020337
 20
423.821392434945
 30
0.0
 11
159.3987848020337
 21
424.821392434945
 31
0.0
  0
LINE
  5
238
330
15
100
AcDbEntity
  8
4
100
AcDbLine
 10
153.3987848020336
 20
422.821392434945
 30
0.0
 11
341.3987848020334
 21
422.8213924349492
 31
0.0
  0
ARC
  5
239
330
15
100
AcDbEntity
  8
4
100
AcDbCircle
 10
158.3987848020337
 20
423.8213924349451
 30
0.0
 40
1.0
100
AcDbArc
 50
270.0
 51
0.0
  0
ARC
  5
23A
330
15
100
AcDbEntity
  8
4
100
AcDbCircle
 10
155.3987848020337
 20
459.321392434945
 30
0.0
 40
3.0
100
AcDbArc
 50
90.0
 51
180.0
  0
LINE
  5
23B
330
15
100
AcDbEntity
  8
4
100
AcDbLine
 10
186.0774654230503
 20
460.2592474710864
 30
0.0
 11
191.4873923969707
 21
443.8213924349441
 31
0.0
  0
LINE
  5
23C
330
15
100
AcDbEntity
  8
L-CENTER
 48
2.0
100
AcDbLine
 10
167.3987848020338
 20
457.3213924349461
 30
0.0
 11
167.3987848020337
 21
437.3213924349452
 31
0.0
  0
CIRCLE
  5
23D
330
15
100
AcDbEntity
  8
4
100
AcDbCircle
 10
167.3987848020337
 20
447.3213924349452
 30
0.0
 40
5.5
  0
ARC
  5
23E
330
15
100
AcDbEntity
  8
4
100
AcDbCircle
 10
183.227828967082
 20
459.321392434945
 30
0.0
 40
3.0
100
AcDbArc
 50
18.21709519782523
 51
90.0
  0
ARC
  5
23F
330
15
100
AcDbEntity
  8
4
100
AcDbCircle
 10
345.3987848020334
 20
410.821392434945
 30
0.0
 40
3.0
100
AcDbArc
 50
180.0
 51
270.0
  0
LINE
  5
240
330
15
100
AcDbEntity
  8
4
100
AcDbLine
 10
352.3987848020337
 20
407.821392434945
 30
0.0
 11
345.3987848020334
 21
407.821392434945
 31
0.0
  0
LINE
  5
241
330
15
100
AcDbEntity
  8
4
100
AcDbLine
 10
339.3987848020337
 20
462.321392434945
 30
0.0
 11
311.5697406369853
 21
462.321392434945
 31
0.0
  0
LINE
  5
242
330
15
100
AcDbEntity
  8
L-CENTER
 48
2.0
100
AcDbLine
 10
317.3987848020337
 20
447.3213924349452
 30
0.0
 11
337.3987848020337
 21
447.3213924349452
 31
0.0
  0
LINE
  5
243
330
15
100
AcDbEntity
  8
4
100
AcDbLine
 10
308.7201041810168
 20
460.2592474710866
 30
0.0
 11
303.6392911311472
 21
444.821392434944
 31
0.0
  0
ARC
  5
244
330
15
100
AcDbEntity
  8
4
100
AcDbCircle
 10
311.5697406369853
 20
459.321392434945
 30
0.0
 40
3.0
100
AcDbArc
 50
90.0
 51
161.7829048021748
  0
LINE
  5
245
330
15
100
AcDbEntity
  8
L-CENTER
 48
2.0
100
AcDbLine
 10
327.3987848020337
 20
457.3213924349461
 30
0.0
 11
327.3987848020339
 21
437.3213924349452
 31
0.0
  0
ARC
  5
246
330
15
100
AcDbEntity
  8
4
100
AcDbCircle
 10
336.3987848020337
 20
423.821392434945
 30
0.0
 40
1.0
100
AcDbArc
 50
180.0
 51
270.0
  0
LINE
  5
247
330
15
100
AcDbEntity
  8
4
100
AcDbLine
 10
335.3987848020337
 20
423.821392434945
 30
0.0
 11
335.3987848020337
 21
424.821392434945
 31
0.0
  0
ARC
  5
248
330
15
100
AcDbEntity
  8
4
100
AcDbCircle
 10
341.3987848020334
 20
421.821392434945
 30
0.0
 40
1.0
100
AcDbArc
 50
0.0
 51
90.0
  0
CIRCLE
  5
249
330
15
100
AcDbEntity
  8
4
100
AcDbCircle
 10
327.3987848020339
 20
447.3213924349452
 30
0.0
 40
5.5
  0
ARC
  5
24A
330
15
100
AcDbEntity
  8
4
100
AcDbCircle
 10
339.3987848020337
 20
459.321392434945
 30
0.0
 40
3.0
100
AcDbArc
 50
0.0
 51
90.0
  0
LINE
  5
24B
330
15
100
AcDbEntity
  8
4
100
AcDbLine
 10
321.3987848020334
 20
349.8186458962894
 30
0.0
 11
173.398784802033
 21
349.8186458962894
 31
0.0
  0
LINE
  5
24C
330
15
100
AcDbEntity
  8
4
100
AcDbLine
 10
236.8987848020337
 20
406.321392434945
 30
0.0
 11
257.8987848020337
 21
406.321392434945
 31
0.0
  0
LINE
  5
24D
330
15
100
AcDbEntity
  8
4
100
AcDbLine
 10
236.8987848020337
 20
406.321392434945
 30
0.0
 11
233.3987848020337
 21
402.821392434945
 31
0.0
  0
LINE
  5
24E
330
15
100
AcDbEntity
  8
4
100
AcDbLine
 10
233.3987848020337
 20
381.821392434945
 30
0.0
 11
233.3987848020337
 21
402.821392434945
 31
0.0
  0
LINE
  5
24F
330
15
100
AcDbEntity
  8
4
100
AcDbLine
 10
236.8987848020337
 20
378.321392434945
 30
0.0
 11
257.8987848020337
 21
378.321392434945
 31
0.0
  0
LINE
  5
250
330
15
100
AcDbEntity
  8
4
100
AcDbLine
 10
233.3987848020337
 20
381.821392434945
 30
0.0
 11
236.8987848020337
 21
378.321392434945
 31
0.0
  0
LINE
  5
251
330
15
100
AcDbEntity
  8
4
100
AcDbLine
 10
257.8987848020337
 20
378.321392434945
 30
0.0
 11
261.3987848020337
 21
381.821392434945
 31
0.0
  0
LINE
  5
252
330
15
100
AcDbEntity
  8
4
100
AcDbLine
 10
261.3987848020337
 20
381.821392434945
 30
0.0
 11
261.3987848020337
 21
402.821392434945
 31
0.0
  0
LINE
  5
253
330
15
100
AcDbEntity
  8
4
100
AcDbLine
 10
261.3987848020337
 20
402.821392434945
 30
0.0
 11
257.8987848020337
 21
406.321392434945
 31
0.0
  0
LINE
  5
254
330
15
100
AcDbEntity
  8
4
100
AcDbLine
 10
160.1197529639899
 20
432.8213924349438
 30
0.0
 11
334.4513477328929
 21
432.8213924349453
 31
0.0
  0
LINE
  5
255
330
15
100
AcDbEntity
  8
4
100
AcDbLine
 10
159.1197529639898
 20
425.121392434944
 30
0.0
 11
335.4513477328929
 21
425.1213924349457
 31
0.0
  0
LINE
  5
256
330
15
100
AcDbEntity
  8
4
100
AcDbLine
 10
159.1197529639899
 20
431.8213924349438
 30
0.0
 11
159.1197529639899
 21
425.121392434944
 31
0.0
  0
ARC
  5
257
330
15
100
AcDbEntity
  8
4
100
AcDbCircle
 10
160.11975296399
 20
431.821392434944
 30
0.0
 40
1.0
100
AcDbArc
 50
90.0
 51
180.0
  0
LINE
  5
258
330
15
100
AcDbEntity
  8
4
100
AcDbLine
 10
335.4513477328927
 20
431.821392434944
 30
0.0
 11
335.4513477328929
 21
425.1213924349441
 31
0.0
  0
LINE
  5
259
330
15
100
AcDbEntity
  8
4
100
AcDbLine
 10
270.4127848020338
 20
444.8213924349441
 30
0.0
 11
305.4127848020338
 21
444.821392434944
 31
0.0
  0
LINE
  5
25A
330
15
100
AcDbEntity
  8
4
100
AcDbLine
 10
183.9127848020338
 20
443.821392434944
 30
0.0
 11
313.9127848020338
 21
443.821392434944
 31
0.0
  0
ARC
  5
25B
330
15
100
AcDbEntity
  8
4
100
AcDbCircle
 10
247.3987848020337
 20
-563.4368489448906
 30
0.0
 40
1000.0
100
AcDbArc
 50
85.75623314519632
 51
87.37780280711955
  0
LINE
  5
25C
330
15
100
AcDbEntity
  8
4
100
AcDbLine
 10
193.9127848020338
 20
444.821392434944
 30
0.0
 11
255.9127848020338
 21
444.821392434944
 31
0.0
  0
LINE
  5
25D
330
15
100
AcDbEntity
  8
4
100
AcDbLine
 10
183.9127848020336
 20
443.8213924349441
 30
0.0
 11
183.9127848020338
 21
438.359343802916
 31
0.0
  0
ARC
  5
25E
330
15
100
AcDbEntity
  8
4
100
AcDbCircle
 10
247.3987848020337
 20
-563.4368489448906
 30
0.0
 40
1001.0
100
AcDbArc
 50
93.7969689917206
 51
94.23951956938579
  0
ARC
  5
25F
330
15
100
AcDbEntity
  8
4
100
AcDbCircle
 10
172.3987848020337
 20
433.821392434944
 30
0.0
 40
1.0
100
AcDbArc
 50
270.0
 51
0.0
  0
LINE
  5
260
330
15
100
AcDbEntity
  8
4
100
AcDbLine
 10
173.3987848020337
 20
434.8241389735998
 30
0.0
 11
173.3987848020337
 21
433.821392434944
 31
0.0
  0
ARC
  5
261
330
15
100
AcDbEntity
  8
4
100
AcDbCircle
 10
180.9127848020338
 20
438.359343802916
 30
0.0
 40
3.0
100
AcDbArc
 50
273.7969689917252
 51
0.0
  0
LINE
  5
262
330
15
100
AcDbEntity
  8
4
100
AcDbLine
 10
193.9127848020338
 20
443.821392434944
 30
0.0
 11
193.9127848020338
 21
444.821392434944
 31
0.0
  0
LINE
  5
263
330
15
100
AcDbEntity
  8
4
100
AcDbLine
 10
255.9127848020338
 20
443.821392434944
 30
0.0
 11
255.9127848020338
 21
444.821392434944
 31
0.0
  0
LINE
  5
264
330
15
100
AcDbEntity
  8
4
100
AcDbLine
 10
270.4127848020338
 20
443.8213924349441
 30
0.0
 11
270.4127848020338
 21
444.821392434944
 31
0.0
  0
LINE
  5
265
330
15
100
AcDbEntity
  8
4
100
AcDbLine
 10
305.4127848020338
 20
443.8213924349441
 30
0.0
 11
305.4127848020338
 21
444.821392434944
 31
0.0
  0
LINE
  5
266
330
15
100
AcDbEntity
  8
4
100
AcDbLine
 10
313.9127848020338
 20
443.821392434944
 30
0.0
 11
313.9127848020338
 21
438.1537878943324
 31
0.0
  0
ARC
  5
267
330
15
100
AcDbEntity
  8
4
100
AcDbCircle
 10
247.3987848020337
 20
-563.4368489448906
 30
0.0
 40
1001.0
100
AcDbArc
 50
85.76048043061421
 51
86.02983281640505
  0
ARC
  5
268
330
15
100
AcDbEntity
  8
4
100
AcDbCircle
 10
316.9127848020338
 20
438.1537878943324
 30
0.0
 40
3.0
100
AcDbArc
 50
180.0
 51
266.0298328164038
  0
LINE
  5
269
330
15
100
AcDbEntity
  8
4
100
AcDbLine
 10
321.3987848020337
 20
434.8241389735998
 30
0.0
 11
321.3987848020337
 21
433.8213924349442
 31
0.0
  0
ARC
  5
26A
330
15
100
AcDbEntity
  8
4
100
AcDbCircle
 10
322.3987848020337
 20
433.8213924349442
 30
0.0
 40
1.0
100
AcDbArc
 50
180.0
 51
270.0
  0
ARC
  5
26B
330
15
100
AcDbEntity
  8
4
100
AcDbCircle
 10
334.4513477328929
 20
431.821392434944
 30
0.0
 40
1.0
100
AcDbArc
 50
0.0
 51
90.0
  0
LINE
  5
26C
330
15
100
AcDbEntity
  8
L-CENTER
 48
2.0
100
AcDbLine
 10
224.9127848020338
 20
510.118037972157
 30
0.0
 11
224.9127848020338
 21
335.451516309397
 31
0.0
  0
LINE
  5
26D
330
15
100
AcDbEntity
  8
L-CENTER
 48
2.0
100
AcDbLine
 10
287.9127848020338
 20
448.8213924349442
 30
0.0
 11
287.9127848020338
 21
328.9193340806221
 31
0.0
  0
LINE
  5
26E
330
15
100
AcDbEntity
  8
L-CENTER
 48
2.0
100
AcDbLine
 10
97.74012294828219
 20
381.821392434945
 30
0.0
 11
356.4254428944796
 21
381.821392434945
 31
0.0
  0
CIRCLE
  5
26F
330
15
100
AcDbEntity
  8
4
100
AcDbCircle
 10
247.3987848020337
 20
392.321392434945
 30
0.0
 40
12.5
  0
LWPOLYLINE
  5
270
330
15
100
AcDbEntity
  8
4
100
AcDbPolyline
 90
        6
 70
     1
 43
0.0
 10
259.8987848020337
 20
392.321392434945
 10
253.6487848020337
 20
403.1467099822505
 10
241.1487848020337
 20
403.1467099822505
 10
234.8987848020337
 20
392.321392434945
 10
241.1487848020337
 20
381.4960748876395
 10
253.6487848020337
 20
381.4960748876395
  0
LINE
  5
271
330
15
100
AcDbEntity
  8
4
100
AcDbLine
 10
141.3987858020337
 20
364.3213934349449
 30
0.0
 11
141.3987858020337
 21
399.3213929349449
 31
0.0
  0
LINE
  5
272
330
15
100
AcDbEntity
  8
4
100
AcDbLine
 10
141.3987858020337
 20
364.3213934349449
 30
0.0
 11
142.3987848020337
 21
364.3213934349449
 31
0.0
  0
LINE
  5
273
330
15
100
AcDbEntity
  8
4
100
AcDbLine
 10
142.3987848020337
 20
399.3213929349449
 30
0.0
 11
141.3987858020337
 21
399.3213929349449
 31
0.0
  0
LINE
  5
274
330
15
100
AcDbEntity
  8
4
100
AcDbLine
 10
353.3986623020336
 20
399.3213929349449
 30
0.0
 11
353.3986623020336
 21
364.3213934349449
 31
0.0
  0
LINE
  5
275
330
15
100
AcDbEntity
  8
4
100
AcDbLine
 10
352.3986633020337
 20
364.3213934349449
 30
0.0
 11
353.3986623020336
 21
364.3213934349449
 31
0.0
  0
LINE
  5
276
330
15
100
AcDbEntity
  8
4
100
AcDbLine
 10
353.3986623020336
 20
399.3213929349449
 30
0.0
 11
352.3986633020337
 21
399.3213929349449
 31
0.0
  0
LINE
  5
286
330
15
100
AcDbEntity
  8
4
100
AcDbLine
 10
270.4127848020338
 20
339.8213924349459
 30
0.0
 11
305.4127848020338
 21
339.821392434946
 31
0.0
  0
LINE
  5
287
330
15
100
AcDbEntity
  8
4
100
AcDbLine
 10
193.9127848020338
 20
339.821392434946
 30
0.0
 11
255.9127848020338
 21
339.821392434946
 31
0.0
  0
LINE
  5
288
330
15
100
AcDbEntity
  8
4
100
AcDbLine
 10
193.9127848020338
 20
340.821392434946
 30
0.0
 11
193.9127848020338
 21
339.821392434946
 31
0.0
  0
LINE
  5
289
330
15
100
AcDbEntity
  8
4
100
AcDbLine
 10
255.9127848020338
 20
340.821392434946
 30
0.0
 11
255.9127848020338
 21
339.821392434946
 31
0.0
  0
LINE
  5
28A
330
15
100
AcDbEntity
  8
4
100
AcDbLine
 10
270.4127848020338
 20
340.8213924349459
 30
0.0
 11
270.4127848020338
 21
339.821392434946
 31
0.0
  0
LINE
  5
28B
330
15
100
AcDbEntity
  8
4
100
AcDbLine
 10
305.4127848020338
 20
340.8213924349459
 30
0.0
 11
305.4127848020338
 21
339.821392434946
 31
0.0
  0
LINE
  5
28C
330
15
100
AcDbEntity
  8
4
100
AcDbLine
 10
210.9127848020338
 20
502.8213924349445
 30
0.0
 11
221.4127848020338
 21
502.8213924349448
 31
0.0
  0
LINE
  5
28D
330
15
100
AcDbEntity
  8
4
100
AcDbLine
 10
211.9127848020338
 20
503.8213924349448
 30
0.0
 11
237.9127848020338
 21
503.8213924349448
 31
0.0
  0
LINE
  5
28E
330
15
100
AcDbEntity
  8
4
100
AcDbLine
 10
209.9127848020333
 20
453.8213924349448
 30
0.0
 11
239.9127848020338
 21
453.8213924349448
 31
0.0
  0
LINE
  5
28F
330
15
100
AcDbEntity
  8
4
  6
Continuous
100
AcDbLine
 10
221.4127848020338
 20
462.3213924349448
 30
0.0
 11
221.4127848020338
 21
503.8213924349445
 31
0.0
  0
LINE
  5
290
330
15
100
AcDbEntity
  8
4
  6
Continuous
100
AcDbLine
 10
228.4127848020338
 20
462.3213924349448
 30
0.0
 11
228.4127848020338
 21
503.8213924349445
 31
0.0
  0
LINE
  5
291
330
15
100
AcDbEntity
  8
4
  6
Continuous
100
AcDbLine
 10
238.9127848020338
 20
454.3213924349448
 30
0.0
 11
238.9127848020338
 21
502.8213924349448
 31
0.0
  0
ARC
  5
292
330
15
100
AcDbEntity
  8
4
100
AcDbCircle
 10
224.9127848020338
 20
462.3213924349449
 30
0.0
 40
3.5
100
AcDbArc
 50
270.0
 51
0.0
  0
ARC
  5
293
330
15
100
AcDbEntity
  8
4
100
AcDbCircle
 10
224.9127848020338
 20
462.3213924349449
 30
0.0
 40
3.5
100
AcDbArc
 50
180.0
 51
270.0
  0
ARC
  5
294
330
15
100
AcDbEntity
  8
4
100
AcDbCircle
 10
239.4127848020338
 20
454.3213924349449
 30
0.0
 40
0.5
100
AcDbArc
 50
180.0
 51
270.0
  0
LINE
  5
295
330
15
100
AcDbEntity
  8
4
100
AcDbLine
 10
224.9127848020338
 20
458.8213924349448
 30
0.0
 11
224.9127848020338
 21
458.8213924349448
 31
0.0
  0
LINE
  5
296
330
15
100
AcDbEntity
  8
4
100
AcDbLine
 10
228.4127848020338
 20
502.8213924349448
 30
0.0
 11
238.9127848020338
 21
502.8213924349448
 31
0.0
  0
LINE
  5
297
330
15
100
AcDbEntity
  8
4
100
AcDbLine
 10
238.9127848020338
 20
502.8213924349448
 30
0.0
 11
237.9127848020338
 21
503.8213924349448
 31
0.0
  0
LINE
  5
298
330
15
100
AcDbEntity
  8
4
  6
Continuous
100
AcDbLine
 10
210.9127848020338
 20
454.3213924349448
 30
0.0
 11
210.9127848020338
 21
502.8213924349448
 31
0.0
  0
ARC
  5
299
330
15
100
AcDbEntity
  8
4
100
AcDbCircle
 10
210.4127848020338
 20
454.3213924349449
 30
0.0
 40
0.5
100
AcDbArc
 50
270.0
 51
0.0
  0
LINE
  5
29A
330
15
100
AcDbEntity
  8
4
100
AcDbLine
 10
211.9127848020338
 20
503.8213924349448
 30
0.0
 11
210.9127848020338
 21
502.8213924349448
 31
0.0
  0
LINE
  5
29B
330
15
100
AcDbEntity
  8
4
  6
Continuous
100
AcDbLine
 10
209.9127848020336
 20
444.8213924349441
 30
0.0
 11
209.9127848020333
 21
453.8213924349448
 31
0.0
  0
LINE
  5
29C
330
15
100
AcDbEntity
  8
4
  6
Continuous
100
AcDbLine
 10
239.9127848020338
 20
444.8213924349441
 30
0.0
 11
239.9127848020338
 21
453.8213924349448
 31
0.0
  0
LINE
  5
29D
330
15
100
AcDbEntity
  8
4
100
AcDbLine
 10
298.7381023493393
 20
332.321392434945
 30
0.0
 11
277.0874672547283
 21
332.321392434945
 31
0.0
  0
LINE
  5
29E
330
15
100
AcDbEntity
  8
4
100
AcDbLine
 10
300.4127848020338
 20
337.321392434945
 30
0.0
 11
275.4127848020338
 21
337.321392434945
 31
0.0
  0
LINE
  5
29F
330
15
100
AcDbEntity
  8
4
100
AcDbLine
 10
300.4127848020338
 20
339.321392434945
 30
0.0
 11
275.4127848020338
 21
339.321392434945
 31
0.0
  0
LWPOLYLINE
  5
2A0
330
15
100
AcDbEntity
  8
4
100
AcDbPolyline
 90
        2
 70
     0
 43
0.0
 10
277.0874672547283
 20
337.321392434945
 10
277.0874672547283
 20
332.321392434945
  0
LINE
  5
2A1
330
15
100
AcDbEntity
  8
4
100
AcDbLine
 10
276.4127848020338
 20
339.321392434945
 30
0.0
 11
276.4127848020338
 21
339.8213924349459
 31
0.0
  0
LINE
  5
2A2
330
15
100
AcDbEntity
  8
4
100
AcDbLine
 10
275.4127848020338
 20
337.3213924349452
 30
0.0
 11
275.4127848020338
 21
339.321392434945
 31
0.0
  0
LWPOLYLINE
  5
2A3
330
15
100
AcDbEntity
  8
4
100
AcDbPolyline
 90
        2
 70
     0
 43
0.0
 10
298.7381023493393
 20
332.321392434945
 10
298.7381023493393
 20
337.321392434945
  0
LINE
  5
2A4
330
15
100
AcDbEntity
  8
4
100
AcDbLine
 10
299.4127848020338
 20
339.321392434945
 30
0.0
 11
299.4127848020338
 21
339.821392434946
 31
0.0
  0
LINE
  5
2A5
330
15
100
AcDbEntity
  8
4
100
AcDbLine
 10
300.4127848020338
 20
337.321392434945
 30
0.0
 11
300.4127848020338
 21
339.321392434945
 31
0.0
  0
LINE
  5
2A6
330
15
100
AcDbEntity
  8
L-CENTER
 48
2.0
100
AcDbLine
 10
328.8987848020337
 20
441.6010007803443
 30
0.0
 11
328.8987848020337
 21
417.7016061820251
 31
0.0
  0
LINE
  5
2A7
330
15
100
AcDbEntity
  8
L-CENTER
 48
2.0
100
AcDbLine
 10
288.1487848020337
 20
441.6010007803443
 30
0.0
 11
288.1487848020337
 21
417.7016061820249
 31
0.0
  0
ARC
  5
2A8
330
15
100
AcDbEntity
  8
4
100
AcDbCircle
 10
247.3987848020337
 20
-563.4368489448906
 30
0.0
 40
1000.0
100
AcDbArc
 50
87.95123931690581
 51
92.04876068309419
  0
LINE
  5
2A9
330
15
100
AcDbEntity
  8
L-CENTER
 48
2.0
100
AcDbLine
 10
165.8987848020333
 20
441.6010007803436
 30
0.0
 11
165.8987848020337
 21
417.7016061820239
 31
0.0
  0
LINE
  5
2AA
330
15
100
AcDbEntity
  8
4
100
AcDbLine
 10
212.4222874939297
 20
432.8213924349445
 30
0.0
 11
200.8752821101372
 21
432.8213924349443
 31
0.0
  0
LINE
  5
2AB
330
15
100
AcDbEntity
  8
L-CENTER
 48
2.0
100
AcDbLine
 10
206.6487848020334
 20
441.6010007803443
 30
0.0
 11
206.6487848020337
 21
417.7016061820243
 31
0.0
  0
ARC
  5
2AC
330
15
100
AcDbEntity
  8
4
100
AcDbCircle
 10
247.3987848020337
 20
-563.4368489448906
 30
0.0
 40
1000.0
100
AcDbArc
 50
92.62219719288044
 51
94.24376685480368
  0
LINE
  5
2AD
330
15
100
AcDbEntity
  8
L-CENTER
 48
2.0
100
AcDbLine
 10
598.3584908921428
 20
176.004020741159
 30
0.0
 11
573.7751343198331
 21
176.004020741159
 31
0.0
  0
LINE
  5
2AE
330
15
100
AcDbEntity
  8
L-CENTER
 48
2.0
100
AcDbLine
 10
598.3584908921428
 20
105.4229503327272
 30
0.0
 11
573.7751343198331
 21
105.4229503327272
 31
0.0
  0
LINE
  5
2AF
330
15
100
AcDbEntity
  8
L-CENTER
 48
2.0
100
AcDbLine
 10
598.3584908921428
 20
34.84187992429548
 30
0.0
 11
573.7751343198331
 21
34.84187992429548
 31
0.0
  0
LINE
  5
2B0
330
15
100
AcDbEntity
  8
4
100
AcDbLine
 10
590.3949205727531
 20
170.254020741159
 30
0.0
 11
590.3949205727531
 21
181.754020741159
 31
0.0
  0
LINE
  5
2B1
330
15
100
AcDbEntity
  8
4
100
AcDbLine
 10
596.3949205727531
 20
171.004020741159
 30
0.0
 11
596.3949205727531
 21
181.004020741159
 31
0.0
  0
LINE
  5
2B2
330
15
100
AcDbEntity
  8
4
100
AcDbLine
 10
596.3949205727531
 20
181.004020741159
 30
0.0
 11
590.3949205727529
 21
181.004020741159
 31
0.0
  0
LINE
  5
2B3
330
15
100
AcDbEntity
  8
4
100
AcDbLine
 10
596.3949205727531
 20
171.004020741159
 30
0.0
 11
590.3949205727529
 21
171.0040207411589
 31
0.0
  0
LINE
  5
2B4
330
15
100
AcDbEntity
  8
4
100
AcDbLine
 10
590.3949205727531
 20
181.754020741159
 30
0.0
 11
588.8949205727531
 21
181.7540207411589
 31
0.0
  0
LINE
  5
2B5
330
15
100
AcDbEntity
  8
4
100
AcDbLine
 10
590.3949205727531
 20
170.254020741159
 30
0.0
 11
588.8949205727531
 21
170.254020741159
 31
0.0
  0
LINE
  5
2B6
330
15
100
AcDbEntity
  8
2
100
AcDbLine
 10
588.8949205727531
 20
176.004020741159
 30
0.0
 11
590.3949205727531
 21
177.504020741159
 31
0.0
  0
LINE
  5
2B7
330
15
100
AcDbEntity
  8
2
100
AcDbLine
 10
588.8949205727531
 20
173.8827003975994
 30
0.0
 11
590.3949205727531
 21
175.3827003975994
 31
0.0
  0
LINE
  5
2B8
330
15
100
AcDbEntity
  8
4
100
AcDbLine
 10
596.3949205727531
 20
110.4229503327272
 30
0.0
 11
590.3949205727529
 21
110.4229503327272
 31
0.0
  0
LINE
  5
2B9
330
15
100
AcDbEntity
  8
4
100
AcDbLine
 10
596.3949205727531
 20
100.4229503327272
 30
0.0
 11
590.3949205727529
 21
100.4229503327272
 31
0.0
  0
LINE
  5
2BA
330
15
100
AcDbEntity
  8
4
100
AcDbLine
 10
590.3949205727531
 20
99.67295033272723
 30
0.0
 11
590.3949205727531
 21
111.1729503327272
 31
0.0
  0
LINE
  5
2BB
330
15
100
AcDbEntity
  8
2
100
AcDbLine
 10
588.8949205727531
 20
105.4229503327272
 30
0.0
 11
590.3949205727531
 21
106.9229503327272
 31
0.0
  0
LINE
  5
2BC
330
15
100
AcDbEntity
  8
2
100
AcDbLine
 10
588.8949205727531
 20
103.3016299891676
 30
0.0
 11
590.3949205727531
 21
104.8016299891676
 31
0.0
  0
LINE
  5
2BD
330
15
100
AcDbEntity
  8
4
100
AcDbLine
 10
590.3949205727531
 20
99.67295033272723
 30
0.0
 11
588.8949205727531
 21
99.67295033272728
 31
0.0
  0
LINE
  5
2BE
330
15
100
AcDbEntity
  8
4
100
AcDbLine
 10
590.3949205727531
 20
111.1729503327272
 30
0.0
 11
588.8949205727531
 21
111.1729503327272
 31
0.0
  0
LINE
  5
2BF
330
15
100
AcDbEntity
  8
4
100
AcDbLine
 10
596.3949205727531
 20
100.4229503327272
 30
0.0
 11
596.3949205727531
 21
110.4229503327272
 31
0.0
  0
LINE
  5
2C0
330
15
100
AcDbEntity
  8
4
100
AcDbLine
 10
596.3949205727531
 20
29.84187992429548
 30
0.0
 11
590.3949205727529
 21
29.84187992429543
 31
0.0
  0
LINE
  5
2C1
330
15
100
AcDbEntity
  8
4
100
AcDbLine
 10
596.3949205727531
 20
39.84187992429548
 30
0.0
 11
590.3949205727529
 21
39.84187992429548
 31
0.0
  0
LINE
  5
2C2
330
15
100
AcDbEntity
  8
4
100
AcDbLine
 10
590.3949205727531
 20
29.42313283272722
 30
0.0
 11
590.3949205727531
 21
40.59187992429548
 31
0.0
  0
LINE
  5
2C3
330
15
100
AcDbEntity
  8
4
100
AcDbLine
 10
590.3949205727531
 20
40.59187992429548
 30
0.0
 11
588.8949205727531
 21
40.59187992429543
 31
0.0
  0
LINE
  5
2C4
330
15
100
AcDbEntity
  8
2
100
AcDbLine
 10
588.8949205727531
 20
32.72055958073588
 30
0.0
 11
590.3949205727531
 21
34.22055958073588
 31
0.0
  0
LINE
  5
2C5
330
15
100
AcDbEntity
  8
2
100
AcDbLine
 10
588.8949205727531
 20
34.84187992429548
 30
0.0
 11
590.3949205727531
 21
36.34187992429548
 31
0.0
  0
LINE
  5
2C6
330
15
100
AcDbEntity
  8
4
100
AcDbLine
 10
596.3949205727531
 20
29.84187992429548
 30
0.0
 11
596.3949205727531
 21
39.84187992429548
 31
0.0
  0
LINE
  5
2C7
330
15
100
AcDbEntity
  8
4
100
AcDbLine
 10
201.6487848020337
 20
440.3213924349442
 30
0.0
 11
201.6487848020337
 21
434.3213924349441
 31
0.0
  0
LINE
  5
2C8
330
15
100
AcDbEntity
  8
4
100
AcDbLine
 10
200.8987848020337
 20
434.3213924349442
 30
0.0
 11
200.8987848020337
 21
432.8213924349442
 31
0.0
  0
LINE
  5
2C9
330
15
100
AcDbEntity
  8
4
100
AcDbLine
 10
212.3987848020337
 20
434.3213924349442
 30
0.0
 11
200.8987848020337
 21
434.3213924349442
 31
0.0
  0
LINE
  5
2CA
330
15
100
AcDbEntity
  8
4
100
AcDbLine
 10
211.6487848020337
 20
440.3213924349442
 30
0.0
 11
201.6487848020337
 21
440.3213924349442
 31
0.0
  0
LINE
  5
2CB
330
15
100
AcDbEntity
  8
4
100
AcDbLine
 10
211.6487848020337
 20
440.3213924349442
 30
0.0
 11
211.6487848020337
 21
434.3213924349441
 31
0.0
  0
LINE
  5
2CC
330
15
100
AcDbEntity
  8
4
100
AcDbLine
 10
212.3987848020337
 20
434.3213924349442
 30
0.0
 11
212.3987848020334
 21
432.8213924349442
 31
0.0
  0
LINE
  5
2CD
330
15
100
AcDbEntity
  8
4
100
AcDbLine
 10
160.8987848020334
 20
440.3213924349438
 30
0.0
 11
160.8987848020334
 21
434.3213924349437
 31
0.0
  0
LINE
  5
2CE
330
15
100
AcDbEntity
  8
4
100
AcDbLine
 10
170.8987848020334
 20
440.3213924349438
 30
0.0
 11
170.8987848020337
 21
434.3213924349437
 31
0.0
  0
LINE
  5
2CF
330
15
100
AcDbEntity
  8
4
100
AcDbLine
 10
171.6487848020334
 20
434.3213924349438
 30
0.0
 11
160.1487848020334
 21
434.3213924349438
 31
0.0
  0
LINE
  5
2D0
330
15
100
AcDbEntity
  8
4
100
AcDbLine
 10
171.6722874939297
 20
432.8213924349442
 30
0.0
 11
160.1252821101372
 21
432.821392434944
 31
0.0
  0
LINE
  5
2D1
330
15
100
AcDbEntity
  8
4
100
AcDbLine
 10
160.1487848020334
 20
434.3213924349438
 30
0.0
 11
160.1487848020337
 21
432.8213924349438
 31
0.0
  0
LINE
  5
2D2
330
15
100
AcDbEntity
  8
4
100
AcDbLine
 10
171.6487848020334
 20
434.3213924349438
 30
0.0
 11
171.6487848020334
 21
432.8213924349438
 31
0.0
  0
LINE
  5
2D3
330
15
100
AcDbEntity
  8
4
100
AcDbLine
 10
170.8987848020334
 20
440.3213924349438
 30
0.0
 11
160.8987848020334
 21
440.3213924349438
 31
0.0
  0
LINE
  5
2D4
330
15
100
AcDbEntity
  8
4
100
AcDbLine
 10
283.1487848020337
 20
440.3213924349448
 30
0.0
 11
283.1487848020337
 21
434.3213924349446
 31
0.0
  0
LINE
  5
2D5
330
15
100
AcDbEntity
  8
4
100
AcDbLine
 10
293.1487848020337
 20
440.3213924349448
 30
0.0
 11
293.1487848020337
 21
434.3213924349446
 31
0.0
  0
LINE
  5
2D6
330
15
100
AcDbEntity
  8
4
100
AcDbLine
 10
293.8987848020337
 20
434.3213924349448
 30
0.0
 11
282.3987848020337
 21
434.3213924349448
 31
0.0
  0
LINE
  5
2D7
330
15
100
AcDbEntity
  8
4
100
AcDbLine
 10
293.92228749393
 20
432.8213924349451
 30
0.0
 11
282.3752821101374
 21
432.8213924349449
 31
0.0
  0
LINE
  5
2D8
330
15
100
AcDbEntity
  8
4
100
AcDbLine
 10
282.3987848020337
 20
434.3213924349448
 30
0.0
 11
282.3987848020337
 21
432.8213924349448
 31
0.0
  0
LINE
  5
2D9
330
15
100
AcDbEntity
  8
4
100
AcDbLine
 10
293.8987848020337
 20
434.3213924349448
 30
0.0
 11
293.8987848020337
 21
432.8213924349448
 31
0.0
  0
LINE
  5
2DA
330
15
100
AcDbEntity
  8
4
100
AcDbLine
 10
293.1487848020337
 20
440.3213924349448
 30
0.0
 11
283.1487848020337
 21
440.3213924349448
 31
0.0
  0
LINE
  5
2DB
330
15
100
AcDbEntity
  8
4
100
AcDbLine
 10
333.8987848020337
 20
440.3213924349451
 30
0.0
 11
333.8987848020339
 21
434.321392434945
 31
0.0
  0
LINE
  5
2DC
330
15
100
AcDbEntity
  8
4
100
AcDbLine
 10
323.8987848020337
 20
440.3213924349451
 30
0.0
 11
323.8987848020337
 21
434.321392434945
 31
0.0
  0
LINE
  5
2DD
330
15
100
AcDbEntity
  8
4
100
AcDbLine
 10
334.67228749393
 20
432.8213924349454
 30
0.0
 11
323.1252821101374
 21
432.8213924349452
 31
0.0
  0
LINE
  5
2DE
330
15
100
AcDbEntity
  8
4
100
AcDbLine
 10
334.6487848020337
 20
434.3213924349451
 30
0.0
 11
323.1487848020337
 21
434.3213924349451
 31
0.0
  0
LINE
  5
2DF
330
15
100
AcDbEntity
  8
4
100
AcDbLine
 10
323.1487848020337
 20
434.3213924349451
 30
0.0
 11
323.1487848020339
 21
432.8213924349451
 31
0.0
  0
LINE
  5
2E0
330
15
100
AcDbEntity
  8
4
100
AcDbLine
 10
334.6487848020337
 20
434.3213924349451
 30
0.0
 11
334.6487848020337
 21
432.8213924349451
 31
0.0
  0
LINE
  5
2E1
330
15
100
AcDbEntity
  8
4
100
AcDbLine
 10
333.8987848020337
 20
440.3213924349451
 30
0.0
 11
323.8987848020337
 21
440.3213924349451
 31
0.0
  0
ARC
  5
463
330
15
100
AcDbEntity
  8
4
100
AcDbCircle
 10
73.40671359786734
 20
61.42313233272728
 30
0.0
 40
6.999998
100
AcDbArc
 50
110.9248386869613
 51
69.07515800000361
  0
ARC
  5
464
330
15
100
AcDbEntity
  8
4
100
AcDbCircle
 10
703.6486879241197
 20
104.4229498327272
 30
0.0
 40
14.000004
100
AcDbArc
 50
104.4775079591588
 51
75.52249599999591
  0
LINE
  5
47D
330
15
100
AcDbEntity
  8
4
100
AcDbLine
 10
700.1486879241197
 20
121.4229498327272
 30
0.0
 11
707.1486879241197
 21
121.4229498327272
 31
0.0
  0
LINE
  5
47E
330
15
100
AcDbEntity
  8
4
100
AcDbLine
 10
707.1486879241197
 20
114.4229498327272
 30
0.0
 11
700.1486879241197
 21
114.4229498327272
 31
0.0
  0
LINE
  5
480
330
15
100
AcDbEntity
  8
L-CENTER
 48
2.0
100
AcDbLine
 10
703.6486879241197
 20
123.9695168071071
 30
0.0
 11
703.6486879241197
 21
84.87638285834737
 31
0.0
  0
LINE
  5
481
330
15
100
AcDbEntity
  8
4
100
AcDbLine
 10
700.1486879241197
 20
121.4229498327272
 30
0.0
 11
700.1486879241197
 21
114.4229498327272
 31
0.0
  0
LINE
  5
482
330
15
100
AcDbEntity
  8
4
100
AcDbLine
 10
707.1486879241197
 20
121.4229498327272
 30
0.0
 11
707.1486879241197
 21
114.4229498327272
 31
0.0
  0
LINE
  5
483
330
15
100
AcDbEntity
  8
4
100
AcDbLine
 10
75.90671359786734
 20
70.42313233272728
 30
0.0
 11
75.90671359786734
 21
65.42313233272728
 31
0.0
  0
LINE
  5
484
330
15
100
AcDbEntity
  8
4
100
AcDbLine
 10
70.90671359786734
 20
70.42313233272728
 30
0.0
 11
70.90671359786734
 21
65.42313233272728
 31
0.0
  0
LINE
  5
485
330
15
100
AcDbEntity
  8
4
100
AcDbLine
 10
75.90671359786734
 20
65.42313233272728
 30
0.0
 11
70.90671359786734
 21
65.42313233272728
 31
0.0
  0
LINE
  5
486
330
15
100
AcDbEntity
  8
4
100
AcDbLine
 10
70.90671359786734
 20
70.42313233272728
 30
0.0
 11
75.90671359786734
 21
70.42313233272728
 31
0.0
  0
LINE
  5
488
330
15
100
AcDbEntity
  8
L-CENTER
 48
2.0
100
AcDbLine
 10
73.40671359786734
 20
49.90651633272734
 30
0.0
 11
73.40671359786734
 21
72.93974833272716
 31
0.0
  0
LINE
  5
489
330
15
100
AcDbEntity
  8
L-CENTER
 48
2.0
100
AcDbLine
 10
684.1021209497394
 20
104.4229498327272
 30
0.0
 11
723.1952548984993
 21
104.4229498327272
 31
0.0
  0
LINE
  5
48A
330
15
100
AcDbEntity
  8
L-CENTER
 48
2.0
100
AcDbLine
 10
61.89009759786745
 20
61.42313233272728
 30
0.0
 11
84.92332959786722
 21
61.42313233272728
 31
0.0
  0
LINE
  5
4EA
330
15
100
AcDbEntity
  8
4
100
AcDbLine
 10
131.3847848020336
 20
388.8213924349449
 30
0.0
 11
102.3847848020336
 21
388.8213924349449
 31
0.0
  0
LINE
  5
4EB
330
15
100
AcDbEntity
  8
4
100
AcDbLine
 10
126.3847848020336
 20
384.3213924349449
 30
0.0
 11
101.8847848020336
 21
384.3213924349449
 31
0.0
  0
LINE
  5
4EC
330
15
100
AcDbEntity
  8
4
100
AcDbLine
 10
126.3847848020336
 20
379.3213924349449
 30
0.0
 11
101.8847848020336
 21
379.3213924349449
 31
0.0
  0
LINE
  5
4ED
330
15
100
AcDbEntity
  8
4
100
AcDbLine
 10
131.3847848020336
 20
374.8213924349449
 30
0.0
 11
102.3847848020336
 21
374.8213924349449
 31
0.0
  0
ARC
  5
4EE
330
15
100
AcDbEntity
  8
4
100
AcDbCircle
 10
126.3847848020336
 20
381.8213924349449
 30
0.0
 40
2.5
100
AcDbArc
 50
270.0
 51
90.0
  0
LINE
  5
4EF
330
15
100
AcDbEntity
  8
4
100
AcDbLine
 10
131.8847848020336
 20
389.3213924349449
 30
0.0
 11
131.8847848020336
 21
374.3213924349449
 31
0.0
  0
ARC
  5
4F0
330
15
100
AcDbEntity
  8
4
100
AcDbCircle
 10
131.3847848020336
 20
374.3213924349449
 30
0.0
 40
0.5
100
AcDbArc
 50
0.0
 51
90.0
  0
ARC
  5
4F1
330
15
100
AcDbEntity
  8
4
100
AcDbCircle
 10
131.3847848020336
 20
389.3213924349449
 30
0.0
 40
0.5
100
AcDbArc
 50
270.0
 51
0.0
  0
LINE
  5
4F2
330
15
100
AcDbEntity
  8
4
100
AcDbLine
 10
101.8847848020336
 20
388.3213924349449
 30
0.0
 11
101.8847848020336
 21
375.3213924349449
 31
0.0
  0
LINE
  5
4F3
330
15
100
AcDbEntity
  8
4
100
AcDbLine
 10
101.8847848020336
 20
375.3213924349449
 30
0.0
 11
102.3847848020336
 21
374.8213924349449
 31
0.0
  0
LINE
  5
4F4
330
15
100
AcDbEntity
  8
4
100
AcDbLine
 10
102.3847848020336
 20
379.3213924349449
 30
0.0
 11
102.3847848020336
 21
374.8213924349449
 31
0.0
  0
LINE
  5
4F5
330
15
100
AcDbEntity
  8
4
100
AcDbLine
 10
101.8847848020336
 20
388.3213924349449
 30
0.0
 11
102.3847848020336
 21
388.8213924349449
 31
0.0
  0
LINE
  5
4F6
330
15
100
AcDbEntity
  8
4
100
AcDbLine
 10
102.3847848020336
 20
388.8213924349449
 30
0.0
 11
102.3847848020336
 21
384.3213924349449
 31
0.0
  0
LINE
  5
4F7
330
15
100
AcDbEntity
  8
4
100
AcDbLine
 10
141.3989073020338
 20
389.321392434945
 30
0.0
 11
131.8847848020336
 21
389.321392434945
 31
0.0
  0
LINE
  5
4F8
330
15
100
AcDbEntity
  8
4
100
AcDbLine
 10
141.3989073020338
 20
374.321392434945
 30
0.0
 11
131.8847848020336
 21
374.321392434945
 31
0.0
  0
LINE
  5
4FA
330
15
100
AcDbEntity
  8
4
100
AcDbLine
 10
132.3989073020338
 20
68.42313283272722
 30
0.0
 11
102.8989068020336
 21
68.42313283272722
 31
0.0
  0
LINE
  5
4FB
330
15
100
AcDbEntity
  8
4
100
AcDbLine
 10
102.3989073020338
 20
70.42313233272722
 30
0.0
 11
129.3989073020338
 21
70.42313233272722
 31
0.0
  0
LINE
  5
4FC
330
15
100
AcDbEntity
  8
4
100
AcDbLine
 10
132.3989073020338
 20
54.42313333272722
 30
0.0
 11
102.8989068020336
 21
54.42313333272722
 31
0.0
  0
LINE
  5
4FD
330
15
100
AcDbEntity
  8
4
100
AcDbLine
 10
141.3989073020338
 20
68.92313233272722
 30
0.0
 11
132.3989073020338
 21
68.92313233272722
 31
0.0
  0
LINE
  5
4FE
330
15
100
AcDbEntity
  8
4
100
AcDbLine
 10
141.3989073020338
 20
53.92313233272722
 30
0.0
 11
132.3989073020338
 21
53.92313233272722
 31
0.0
  0
LINE
  5
4FF
330
15
100
AcDbEntity
  8
4
100
AcDbLine
 10
132.3989073020338
 20
68.92313233272722
 30
0.0
 11
132.3989073020338
 21
53.92313233272722
 31
0.0
  0
LINE
  5
500
330
15
100
AcDbEntity
  8
4
100
AcDbLine
 10
129.3989073020338
 20
70.42313233272722
 30
0.0
 11
129.3989073020338
 21
68.42313283272722
 31
0.0
  0
LINE
  5
501
330
15
100
AcDbEntity
  8
4
100
AcDbLine
 10
102.3989073020338
 20
70.42313233272722
 30
0.0
 11
102.3989073020338
 21
54.92313283272722
 31
0.0
  0
LINE
  5
502
330
15
100
AcDbEntity
  8
4
100
AcDbLine
 10
102.8989068020336
 20
68.42313283272722
 30
0.0
 11
102.8989068020336
 21
54.42313333272722
 31
0.0
  0
LINE
  5
503
330
15
100
AcDbEntity
  8
4
100
AcDbLine
 10
102.8989068020336
 20
54.42313333272722
 30
0.0
 11
102.3989073020338
 21
54.92313283272722
 31
0.0
  0
LINE
  5
504
330
15
100
AcDbEntity
  8
4
100
AcDbLine
 10
102.3989073020338
 20
67.92313333272722
 30
0.0
 11
102.8989068020336
 21
68.42313283272722
 31
0.0
  0
ENDSEC
  0
SECTION
  2
OBJECTS
  0
DICTIONARY
  5
5
330
0
100
AcDbDictionary
281
     1
  3
ACAD_COLOR
350
28
  3
ACAD_GROUP
350
26
  3
ACAD_LAYOUT
350
1C
  3
ACAD_MATERIAL
350
7
  3
ACAD_MLEADERSTYLE
350
49A
  3
ACAD_MLINESTYLE
350
13
  3
ACAD_PLOTSETTINGS
350
27
  3
ACAD_PLOTSTYLENAME
350
4
  3
ACAD_SCALELIST
350
2D
  3
ACAD_TABLESTYLE
350
499
  3
ACAD_VISUALSTYLE
350
29
  3
ACDBHEADERROUNDTRIPXREC
350
532
  3
AcDbVariableDictionary
350
497
  3
DWGPROPS
350
535
  0
DICTIONARY
  5
536
330
25
100
AcDbDictionary
280
     1
281
     1
  3
ACAD_XREC_ROUNDTRIP
360
537
  0
DICTIONARY
  5
378
330
377
100
AcDbDictionary
280
     1
281
     1
  3
ADSK_XREC_LAYER_RECONCILED
360
379
  0
DICTIONARY
  5
16
330
15
100
AcDbDictionary
280
     1
281
     1
  3
ACAD_SORTENTS
360
17
  0
DICTIONARY
  5
28
102
{ACAD_REACTORS
330
5
102
}
330
5
100
AcDbDictionary
281
     1
  0
DICTIONARY
  5
26
102
{ACAD_REACTORS
330
5
102
}
330
5
100
AcDbDictionary
281
     1
  0
DICTIONARY
  5
1C
102
{ACAD_REACTORS
330
5
102
}
330
5
100
AcDbDictionary
281
     1
  3
Model
350
1B
  3
ﾚｲｱｳﾄ1
350
22
  0
DICTIONARY
  5
7
102
{ACAD_REACTORS
330
5
102
}
330
5
100
AcDbDictionary
281
     1
  3
ByBlock
350
70
  3
ByLayer
350
E
  3
Global
350
6
  0
DICTIONARY
  5
49A
102
{ACAD_REACTORS
330
5
102
}
330
5
100
AcDbDictionary
281
     1
  3
Standard
350
4B5
  0
DICTIONARY
  5
13
102
{ACAD_REACTORS
330
5
102
}
330
5
100
AcDbDictionary
281
     1
  3
STANDARD
350
12
  0
DICTIONARY
  5
27
102
{ACAD_REACTORS
330
5
102
}
330
5
100
AcDbDictionary
281
     1
  0
ACDBDICTIONARYWDFLT
  5
4
102
{ACAD_REACTORS
330
5
102
}
330
5
100
AcDbDictionary
281
     1
  3
Normal
350
3
100
AcDbDictionaryWithDefault
340
3
  0
DICTIONARY
  5
2D
102
{ACAD_REACTORS
330
5
102
}
330
5
100
AcDbDictionary
281
     1
  3
*A1
350
4F
  3
*A10
350
58
  3
*A11
350
59
  3
*A12
350
5A
  3
*A13
350
5B
  3
*A14
350
5C
  3
*A15
350
5D
  3
*A16
350
5E
  3
*A17
350
5F
  3
*A18
350
60
  3
*A19
350
61
  3
*A2
350
50
  3
*A20
350
62
  3
*A21
350
63
  3
*A22
350
64
  3
*A23
350
65
  3
*A24
350
66
  3
*A25
350
67
  3
*A26
350
68
  3
*A27
350
69
  3
*A28
350
6A
  3
*A29
350
6B
  3
*A3
350
51
  3
*A30
350
6C
  3
*A31
350
6D
  3
*A32
350
6E
  3
*A33
350
6F
  3
*A4
350
52
  3
*A5
350
53
  3
*A6
350
54
  3
*A7
350
55
  3
*A8
350
56
  3
*A9
350
57
  0
DICTIONARY
  5
499
102
{ACAD_REACTORS
330
5
102
}
330
5
100
AcDbDictionary
281
     1
  3
Standard
350
52E
  0
DICTIONARY
  5
29
102
{ACAD_REACTORS
330
5
102
}
330
5
100
AcDbDictionary
281
     1
  3
2dWireframe
350
4A1
  3
Basic
350
4A4
  3
Brighten
350
4A8
  3
ColorChange
350
4AC
  3
Conceptual
350
4A6
  3
Dim
350
4A7
  3
EdgeColorOff
350
4AF
  3
Facepattern
350
4AB
  3
Flat
350
49D
  3
FlatWithEdges
350
49E
  3
Gouraud
350
49F
  3
GouraudWithEdges
350
4A0
  3
Hidden
350
4A3
  3
JitterOff
350
4AD
  3
Linepattern
350
4AA
  3
OverhangOff
350
4AE
  3
Realistic
350
4A5
  3
Shaded
350
4B4
  3
Shaded with edges
350
4B3
  3
Shades of Gray
350
4B0
  3
Sketchy
350
4B1
  3
Thicken
350
4A9
  3
Wireframe
350
4A2
  3
X-Ray
350
4B2
  0
DICTIONARY
  5
532
102
{ACAD_REACTORS
330
5
102
}
330
5
100
AcDbDictionary
281
     1
  3
COLORDICT
350
533
  3
MATERIALDICT
350
534
  0
DICTIONARY
  5
497
102
{ACAD_REACTORS
330
5
102
}
330
5
100
AcDbDictionary
281
     1
  3
CANNOSCALE
350
498
  3
CMLEADERSTYLE
350
4B7
  3
CTABLESTYLE
350
52F
  3
DIMASSOC
350
530
  3
HIDETEXT
350
531
  3
MSLTSCALE
350
538
  0
XRECORD
  5
535
102
{ACAD_REACTORS
330
5
102
}
330
5
100
AcDbXrecord
280
     1
  1
DWGPROPS COOKIE
  2

  3

  4

  6

  7

  8
sg-d04
  9

300
=
301
=
302
=
303
=
304
=
305
=
306
=
307
=
308
=
309
=
 40
0.0
 41
2449812.756805555
 42
2457906.016498345
  1

 90
        0
  0
XRECORD
  5
537
102
{ACAD_REACTORS
330
536
102
}
330
536
100
AcDbXrecord
280
     1
102
VTR_0.000_0.000_1.000_1.000_VISUALSTYLE
340
4A1
102
VTR_0.000_0.000_1.000_1.000_GRIDDISPLAY
 70
     3
102
VTR_0.000_0.000_1.000_1.000_GRIDMAJOR
 70
     5
102
VTR_0.000_0.000_1.000_1.000_DEFAULTLIGHTING
280
     1
102
VTR_0.000_0.000_1.000_1.000_DEFAULTLIGHTINGTYPE
 70
     1
102
VTR_0.000_0.000_1.000_1.000_BRIGHTNESS
141
0.0
102
VTR_0.000_0.000_1.000_1.000_CONTRAST
142
0.0
  0
XRECORD
  5
379
102
{ACAD_REACTORS
330
378
102
}
330
378
100
AcDbXrecord
280
     1
290
     1
  0
SORTENTSTABLE
  5
17
102
{ACAD_REACTORS
330
16
102
}
330
16
100
AcDbSortentsTable
330
15
331
0
  5
81
331
83
  5
84
331
84
  5
85
331
85
  5
86
331
86
  5
87
331
87
  5
88
331
88
  5
89
331
89
  5
8A
331
8A
  5
8B
331
8B
  5
8C
331
8C
  5
8D
331
8D
  5
8E
331
8E
  5
8F
331
8F
  5
90
331
90
  5
91
331
91
  5
92
331
92
  5
93
331
93
  5
94
331
94
  5
95
331
95
  5
96
331
96
  5
97
331
97
  5
98
331
98
  5
99
331
99
  5
9A
331
9A
  5
9B
331
9B
  5
9C
331
9C
  5
9D
331
9D
  5
9E
331
9E
  5
9F
331
9F
  5
A0
331
A0
  5
A1
331
A1
  5
A2
331
A2
  5
A3
331
A3
  5
A4
331
A4
  5
A5
331
A5
  5
A6
331
A6
  5
A7
331
A7
  5
A8
331
A8
  5
A9
331
A9
  5
AA
331
AA
  5
AB
331
AB
  5
AC
331
AC
  5
AD
331
AD
  5
AE
331
AE
  5
AF
331
AF
  5
B0
331
B0
  5
B1
331
B1
  5
B2
331
B2
  5
B3
331
B3
  5
B4
331
B4
  5
B5
331
B5
  5
B6
331
B6
  5
B7
331
B7
  5
B8
331
B8
  5
B9
331
B9
  5
BA
331
BA
  5
BB
331
BB
  5
BC
331
BC
  5
BD
331
BD
  5
BE
331
BE
  5
BF
331
BF
  5
C0
331
C2
  5
C3
331
C5
  5
C6
331
C6
  5
C7
331
C7
  5
C8
331
C8
  5
C9
331
C9
  5
CA
331
CA
  5
CB
331
CB
  5
CC
331
CC
  5
CD
331
CD
  5
CE
331
CE
  5
CF
331
CF
  5
D0
331
D0
  5
D1
331
D1
  5
D2
331
D2
  5
D3
331
D3
  5
D4
331
D4
  5
D5
331
D5
  5
D6
331
D6
  5
D7
331
D7
  5
D8
331
D8
  5
D9
331
D9
  5
DA
331
DA
  5
DB
331
DB
  5
DC
331
DC
  5
DD
331
DD
  5
DE
331
DE
  5
DF
331
DF
  5
E0
331
E0
  5
E1
331
E1
  5
E2
331
E2
  5
E3
331
E3
  5
E4
331
E4
  5
E5
331
E5
  5
E6
331
E6
  5
E7
331
E7
  5
E8
331
E8
  5
E9
331
E9
  5
EA
331
EA
  5
EB
331
EB
  5
EC
331
EC
  5
ED
331
ED
  5
EE
331
EE
  5
EF
331
EF
  5
F0
331
F0
  5
F1
331
F1
  5
F2
331
F2
  5
F3
331
F3
  5
F4
331
F4
  5
F5
331
F5
  5
F6
331
F6
  5
F7
331
F7
  5
F8
331
F8
  5
F9
331
F9
  5
FA
331
FA
  5
FB
331
FB
  5
FC
331
FC
  5
FD
331
FD
  5
FE
331
FE
  5
FF
331
FF
  5
100
331
100
  5
101
331
101
  5
102
331
102
  5
103
331
103
  5
104
331
104
  5
105
331
105
  5
106
331
106
  5
107
331
107
  5
108
331
108
  5
109
331
109
  5
10A
331
10A
  5
10B
331
10B
  5
10C
331
10C
  5
10D
331
10D
  5
10E
331
10E
  5
10F
331
10F
  5
110
331
110
  5
111
331
111
  5
112
331
112
  5
113
331
113
  5
114
331
114
  5
115
331
115
  5
116
331
116
  5
117
331
117
  5
118
331
118
  5
119
331
119
  5
11A
331
11A
  5
11B
331
11B
  5
11C
331
11C
  5
11D
331
11D
  5
11E
331
11E
  5
11F
331
11F
  5
120
331
124
  5
125
331
125
  5
126
331
126
  5
127
331
128
  5
129
331
129
  5
12A
331
12A
  5
12B
331
12B
  5
12C
331
12C
  5
12D
331
12D
  5
12E
331
12E
  5
12F
331
12F
  5
130
331
130
  5
131
331
131
  5
132
331
132
  5
133
331
133
  5
134
331
134
  5
135
331
135
  5
136
331
136
  5
137
331
137
  5
138
331
13C
  5
13D
331
13D
  5
13E
331
13E
  5
13F
331
13F
  5
140
331
140
  5
141
331
141
  5
142
331
142
  5
143
331
143
  5
144
331
144
  5
145
331
145
  5
146
331
146
  5
147
331
147
  5
148
331
148
  5
149
331
149
  5
14A
331
14A
  5
14B
331
14B
  5
14C
331
14C
  5
14D
331
14D
  5
14E
331
14E
  5
14F
331
14F
  5
150
331
150
  5
151
331
151
  5
152
331
152
  5
153
331
153
  5
154
331
154
  5
155
331
155
  5
156
331
156
  5
157
331
157
  5
158
331
158
  5
159
331
159
  5
15A
331
15A
  5
15B
331
15B
  5
15C
331
15C
  5
15D
331
15D
  5
15E
331
15E
  5
15F
331
15F
  5
160
331
160
  5
161
331
161
  5
162
331
162
  5
163
331
163
  5
164
331
164
  5
165
331
165
  5
166
331
166
  5
167
331
167
  5
168
331
168
  5
169
331
169
  5
16A
331
16A
  5
16B
331
16B
  5
16C
331
16C
  5
16D
331
16D
  5
16E
331
16E
  5
16F
331
16F
  5
170
331
170
  5
171
331
171
  5
172
331
172
  5
173
331
173
  5
174
331
174
  5
175
331
175
  5
176
331
176
  5
177
331
177
  5
178
331
178
  5
179
331
179
  5
17A
331
17A
  5
17B
331
17B
  5
17C
331
17C
  5
17D
331
17D
  5
17E
331
17E
  5
17F
331
17F
  5
180
331
180
  5
181
331
203
  5
204
331
204
  5
205
331
205
  5
206
331
206
  5
207
331
207
  5
208
331
208
  5
209
331
209
  5
20A
331
20A
  5
20B
331
20B
  5
20C
331
20C
  5
20D
331
20D
  5
20E
331
20E
  5
20F
331
20F
  5
210
331
210
  5
211
331
211
  5
212
331
212
  5
213
331
213
  5
214
331
214
  5
215
331
215
  5
216
331
216
  5
217
331
217
  5
218
331
218
  5
219
331
219
  5
21A
331
21A
  5
21B
331
21B
  5
21C
331
21C
  5
21D
331
21D
  5
21E
331
21E
  5
21F
331
21F
  5
220
331
220
  5
221
331
221
  5
222
331
222
  5
223
331
223
  5
224
331
224
  5
225
331
225
  5
226
331
226
  5
227
331
227
  5
228
331
228
  5
229
331
229
  5
22A
331
22A
  5
22B
331
22B
  5
22C
331
22C
  5
22D
331
22D
  5
22E
331
22E
  5
22F
331
22F
  5
230
331
230
  5
231
331
231
  5
232
331
232
  5
233
331
233
  5
234
331
234
  5
235
331
235
  5
236
331
236
  5
237
331
237
  5
238
331
238
  5
239
331
239
  5
23A
331
23A
  5
23B
331
23B
  5
23C
331
23C
  5
23D
331
23D
  5
23E
331
23E
  5
23F
331
23F
  5
240
331
240
  5
241
331
241
  5
242
331
242
  5
243
331
243
  5
244
331
244
  5
245
331
245
  5
246
331
246
  5
247
331
247
  5
248
331
248
  5
249
331
249
  5
24A
331
24A
  5
24B
331
24B
  5
24C
331
24C
  5
24D
331
24D
  5
24E
331
24E
  5
24F
331
24F
  5
250
331
250
  5
251
331
251
  5
252
331
252
  5
253
331
253
  5
254
331
254
  5
255
331
255
  5
256
331
256
  5
257
331
257
  5
258
331
258
  5
259
331
259
  5
25A
331
25A
  5
25B
331
25B
  5
25C
331
25C
  5
25D
331
25D
  5
25E
331
25E
  5
25F
331
25F
  5
260
331
260
  5
261
331
261
  5
262
331
262
  5
263
331
263
  5
264
331
264
  5
265
331
265
  5
266
331
266
  5
267
331
267
  5
268
331
268
  5
269
331
269
  5
26A
331
26A
  5
26B
331
26B
  5
26C
331
26C
  5
26D
331
26D
  5
26E
331
26E
  5
26F
331
26F
  5
270
331
270
  5
271
331
271
  5
272
331
272
  5
273
331
273
  5
274
331
274
  5
275
331
275
  5
276
331
276
  5
277
331
286
  5
287
331
287
  5
288
331
288
  5
289
331
289
  5
28A
331
28A
  5
28B
331
28B
  5
28C
331
28C
  5
28D
331
28D
  5
28E
331
28E
  5
28F
331
28F
  5
290
331
290
  5
291
331
291
  5
292
331
292
  5
293
331
293
  5
294
331
294
  5
295
331
295
  5
296
331
296
  5
297
331
297
  5
298
331
298
  5
299
331
299
  5
29A
331
29A
  5
29B
331
29B
  5
29C
331
29C
  5
29D
331
29D
  5
29E
331
29E
  5
29F
331
29F
  5
2A0
331
2A0
  5
2A1
331
2A1
  5
2A2
331
2A2
  5
2A3
331
2A3
  5
2A4
331
2A4
  5
2A5
331
2A5
  5
2A6
331
2A6
  5
2A7
331
2A7
  5
2A8
331
2A8
  5
2A9
331
2A9
  5
2AA
331
2AA
  5
2AB
331
2AB
  5
2AC
331
2AC
  5
2AD
331
2AD
  5
2AE
331
2AE
  5
2AF
331
2AF
  5
2B0
331
2B0
  5
2B1
331
2B1
  5
2B2
331
2B2
  5
2B3
331
2B3
  5
2B4
331
2B4
  5
2B5
331
2B5
  5
2B6
331
2B6
  5
2B7
331
2B7
  5
2B8
331
2B8
  5
2B9
331
2B9
  5
2BA
331
2BA
  5
2BB
331
2BB
  5
2BC
331
2BC
  5
2BD
331
2BD
  5
2BE
331
2BE
  5
2BF
331
2BF
  5
2C0
331
2C0
  5
2C1
331
2C1
  5
2C2
331
2C2
  5
2C3
331
2C3
  5
2C4
331
2C4
  5
2C5
331
2C5
  5
2C6
331
2C6
  5
2C7
331
2C7
  5
2C8
331
2C8
  5
2C9
331
2C9
  5
2CA
331
2CA
  5
2CB
331
2CB
  5
2CC
331
2CC
  5
2CD
331
2CD
  5
2CE
331
2CE
  5
2CF
331
2CF
  5
2D0
331
2D0
  5
2D1
331
2D1
  5
2D2
331
2D2
  5
2D3
331
2D3
  5
2D4
331
2D4
  5
2D5
331
2D5
  5
2D6
331
2D6
  5
2D7
331
2D7
  5
2D8
331
2D8
  5
2D9
331
2D9
  5
2DA
331
2DA
  5
2DB
331
2DB
  5
2DC
331
2DC
  5
2DD
331
2DD
  5
2DE
331
2DE
  5
2DF
331
2DF
  5
2E0
331
2E0
  5
2E1
331
2E1
  5
2E4
331
463
  5
464
331
464
  5
465
331
47D
  5
47E
331
47E
  5
47F
331
480
  5
481
331
481
  5
482
331
482
  5
483
331
483
  5
484
331
484
  5
485
331
485
  5
486
331
486
  5
487
331
488
  5
489
331
489
  5
48A
331
48A
  5
48B
331
4EA
  5
4EB
331
4EB
  5
4EC
331
4EC
  5
4ED
331
4ED
  5
4EE
331
4EE
  5
4EF
331
4EF
  5
4F0
331
4F0
  5
4F1
331
4F1
  5
4F2
331
4F2
  5
4F3
331
4F3
  5
4F4
331
4F4
  5
4F5
331
4F5
  5
4F6
331
4F6
  5
4F7
331
4F7
  5
4F8
331
4F8
  5
4FA
331
4FA
  5
4FB
331
4FB
  5
4FC
331
4FC
  5
4FD
331
4FD
  5
4FE
331
4FE
  5
4FF
331
4FF
  5
500
331
500
  5
503
331
501
  5
504
331
502
  5
506
331
503
  5
507
331
504
  5
508
  0
LAYOUT
  5
1B
102
{ACAD_REACTORS
330
1C
102
}
330
1C
100
AcDbPlotSettings
  1

  2
Bullzip PDF Printer.pc3
  4
A3
  6

 40
0.2
 41
0.0
 42
0.0
 43
0.0
 44
420.2
 45
297.1
 46
25.0
 47
12.0
 48
39.99999990666663
 49
0.0
140
803.9999981566667
141
544.9999987283333
142
1.0
143
2.0
 70
 11936
 72
     1
 73
     0
 74
     4
  7
monochrome.ctb
 75
     0
147
1.0
148
-39.99999990666663
149
0.0
100
AcDbLayout
  1
Model
 70
     0
 71
     0
 10
0.0
 20
0.0
 11
12.0
 21
9.0
 12
0.0
 22
0.0
 32
0.0
 14
61.89009759786745
 24
5.423132832727219
 34
0.0
 15
723.1952548984993
 25
510.118037972157
 35
0.0
146
0.0
 13
0.0
 23
0.0
 33
0.0
 16
1.0
 26
0.0
 36
0.0
 17
0.0
 27
1.0
 37
0.0
 76
     0
330
15
331
2B
1001
ACAD_PSEXT
1000
Bullzip PDF Printer.pc3
1000
Bullzip PDF Printer
1000
BULLZIP
1000
Bullzip PDF Printer 10.1.0.1871
1070
     0
  0
LAYOUT
  5
22
102
{ACAD_REACTORS
330
1C
102
}
330
1C
100
AcDbPlotSettings
  1

  2
SR-LP8300F
  4

  6

 40
0.0
 41
0.0
 42
0.0
 43
0.0
 44
0.0
 45
0.0
 46
0.0
 47
0.0
 48
0.0
 49
0.0
140
0.0
141
0.0
142
1.0
143
1.0
 70
   688
 72
     0
 73
     0
 74
     5
  7
monochrome.ctb
 75
    16
147
1.0
148
0.0
149
0.0
100
AcDbLayout
  1
ﾚｲｱｳﾄ1
 70
     0
 71
     1
 10
0.0
 20
0.0
 11
12.0
 21
9.0
 12
0.0
 22
0.0
 32
0.0
 14
1.000000000000000E+20
 24
1.000000000000000E+20
 34
1.000000000000000E+20
 15
-1.000000000000000E+20
 25
-1.000000000000000E+20
 35
-1.000000000000000E+20
146
0.0
 13
0.0
 23
0.0
 33
0.0
 16
1.0
 26
0.0
 36
0.0
 17
0.0
 27
1.0
 37
0.0
 76
     0
330
1F
  0
MATERIAL
  5
70
102
{ACAD_REACTORS
330
7
102
}
102
{ACAD_XDICTIONARY
360
53D
102
}
330
7
100
AcDbMaterial
  1
ByBlock
  0
MATERIAL
  5
E
102
{ACAD_REACTORS
330
7
102
}
102
{ACAD_XDICTIONARY
360
539
102
}
330
7
100
AcDbMaterial
  1
ByLayer
  0
MATERIAL
  5
6
102
{ACAD_REACTORS
330
7
102
}
102
{ACAD_XDICTIONARY
360
53B
102
}
330
7
100
AcDbMaterial
  1
Global
  0
MLEADERSTYLE
  5
4B5
102
{ACAD_REACTORS
330
49A
102
}
102
{ACAD_XDICTIONARY
360
56F
102
}
330
49A
100
AcDbMLeaderStyle
170
     2
171
     1
172
     0
 90
        2
 40
0.0
 41
0.0
173
     1
 91
-1056964608
340
B
 92
       -2
290
     1
 42
0.09
291
     1
 43
0.36
  3
Standard
341
0
 44
0.18
300

342
C
174
     1
178
     6
175
     1
176
     0
 93
-1056964608
 45
0.18
292
     0
297
     0
 46
0.18
343
0
 94
-1056964608
 47
1.0
 49
1.0
140
1.0
293
     1
141
0.0
294
     1
177
     0
142
1.0
295
     0
296
     0
143
0.125
1001
ACAD_MLEADERVER
1070
     2
  0
MLINESTYLE
  5
12
102
{ACAD_REACTORS
330
13
102
}
330
13
100
AcDbMlineStyle
  2
STANDARD
 70
     0
  3

 62
     0
 51
90.0
 52
90.0
 71
     2
 49
0.5
 62
   256
  6
BYLAYER
 49
-0.5
 62
   256
  6
BYLAYER
  0
ACDBPLACEHOLDER
  5
3
102
{ACAD_REACTORS
330
4
102
}
330
4
  0
SCALE
  5
4F
102
{ACAD_REACTORS
330
2D
102
}
330
2D
100
AcDbScale
 70
     0
300
1:1
140
1.0
141
1.0
290
     1
  0
SCALE
  5
58
102
{ACAD_REACTORS
330
2D
102
}
330
2D
100
AcDbScale
 70
     0
300
1:40
140
1.0
141
40.0
290
     0
  0
SCALE
  5
59
102
{ACAD_REACTORS
330
2D
102
}
330
2D
100
AcDbScale
 70
     0
300
1:50
140
1.0
141
50.0
290
     0
  0
SCALE
  5
5A
102
{ACAD_REACTORS
330
2D
102
}
330
2D
100
AcDbScale
 70
     0
300
1:100
140
1.0
141
100.0
290
     0
  0
SCALE
  5
5B
102
{ACAD_REACTORS
330
2D
102
}
330
2D
100
AcDbScale
 70
     0
300
2:1
140
2.0
141
1.0
290
     0
  0
SCALE
  5
5C
102
{ACAD_REACTORS
330
2D
102
}
330
2D
100
AcDbScale
 70
     0
300
4:1
140
4.0
141
1.0
290
     0
  0
SCALE
  5
5D
102
{ACAD_REACTORS
330
2D
102
}
330
2D
100
AcDbScale
 70
     0
300
8:1
140
8.0
141
1.0
290
     0
  0
SCALE
  5
5E
102
{ACAD_REACTORS
330
2D
102
}
330
2D
100
AcDbScale
 70
     0
300
10:1
140
10.0
141
1.0
290
     0
  0
SCALE
  5
5F
102
{ACAD_REACTORS
330
2D
102
}
330
2D
100
AcDbScale
 70
     0
300
100:1
140
100.0
141
1.0
290
     0
  0
SCALE
  5
60
102
{ACAD_REACTORS
330
2D
102
}
330
2D
100
AcDbScale
 70
     0
300
1/128" = 1'-0"
140
0.0078125
141
12.0
290
     0
  0
SCALE
  5
61
102
{ACAD_REACTORS
330
2D
102
}
330
2D
100
AcDbScale
 70
     0
300
1/64" = 1'-0"
140
0.015625
141
12.0
290
     0
  0
SCALE
  5
50
102
{ACAD_REACTORS
330
2D
102
}
330
2D
100
AcDbScale
 70
     0
300
1:2
140
1.0
141
2.0
290
     0
  0
SCALE
  5
62
102
{ACAD_REACTORS
330
2D
102
}
330
2D
100
AcDbScale
 70
     0
300
1/32" = 1'-0"
140
0.03125
141
12.0
290
     0
  0
SCALE
  5
63
102
{ACAD_REACTORS
330
2D
102
}
330
2D
100
AcDbScale
 70
     0
300
1/16" = 1'-0"
140
0.0625
141
12.0
290
     0
  0
SCALE
  5
64
102
{ACAD_REACTORS
330
2D
102
}
330
2D
100
AcDbScale
 70
     0
300
3/32" = 1'-0"
140
0.09375
141
12.0
290
     0
  0
SCALE
  5
65
102
{ACAD_REACTORS
330
2D
102
}
330
2D
100
AcDbScale
 70
     0
300
1/8" = 1'-0"
140
0.125
141
12.0
290
     0
  0
SCALE
  5
66
102
{ACAD_REACTORS
330
2D
102
}
330
2D
100
AcDbScale
 70
     0
300
3/16" = 1'-0"
140
0.1875
141
12.0
290
     0
  0
SCALE
  5
67
102
{ACAD_REACTORS
330
2D
102
}
330
2D
100
AcDbScale
 70
     0
300
1/4" = 1'-0"
140
0.25
141
12.0
290
     0
  0
SCALE
  5
68
102
{ACAD_REACTORS
330
2D
102
}
330
2D
100
AcDbScale
 70
     0
300
3/8" = 1'-0"
140
0.375
141
12.0
290
     0
  0
SCALE
  5
69
102
{ACAD_REACTORS
330
2D
102
}
330
2D
100
AcDbScale
 70
     0
300
1/2" = 1'-0"
140
0.5
141
12.0
290
     0
  0
SCALE
  5
6A
102
{ACAD_REACTORS
330
2D
102
}
330
2D
100
AcDbScale
 70
     0
300
3/4" = 1'-0"
140
0.75
141
12.0
290
     0
  0
SCALE
  5
6B
102
{ACAD_REACTORS
330
2D
102
}
330
2D
100
AcDbScale
 70
     0
300
1" = 1'-0"
140
1.0
141
12.0
290
     0
  0
SCALE
  5
51
102
{ACAD_REACTORS
330
2D
102
}
330
2D
100
AcDbScale
 70
     0
300
1:4
140
1.0
141
4.0
290
     0
  0
SCALE
  5
6C
102
{ACAD_REACTORS
330
2D
102
}
330
2D
100
AcDbScale
 70
     0
300
1-1/2" = 1'-0"
140
1.5
141
12.0
290
     0
  0
SCALE
  5
6D
102
{ACAD_REACTORS
330
2D
102
}
330
2D
100
AcDbScale
 70
     0
300
3" = 1'-0"
140
3.0
141
12.0
290
     0
  0
SCALE
  5
6E
102
{ACAD_REACTORS
330
2D
102
}
330
2D
100
AcDbScale
 70
     0
300
6" = 1'-0"
140
6.0
141
12.0
290
     0
  0
SCALE
  5
6F
102
{ACAD_REACTORS
330
2D
102
}
330
2D
100
AcDbScale
 70
     0
300
1'-0" = 1'-0"
140
12.0
141
12.0
290
     0
  0
SCALE
  5
52
102
{ACAD_REACTORS
330
2D
102
}
330
2D
100
AcDbScale
 70
     0
300
1:5
140
1.0
141
5.0
290
     0
  0
SCALE
  5
53
102
{ACAD_REACTORS
330
2D
102
}
330
2D
100
AcDbScale
 70
     0
300
1:8
140
1.0
141
8.0
290
     0
  0
SCALE
  5
54
102
{ACAD_REACTORS
330
2D
102
}
330
2D
100
AcDbScale
 70
     0
300
1:10
140
1.0
141
10.0
290
     0
  0
SCALE
  5
55
102
{ACAD_REACTORS
330
2D
102
}
330
2D
100
AcDbScale
 70
     0
300
1:16
140
1.0
141
16.0
290
     0
  0
SCALE
  5
56
102
{ACAD_REACTORS
330
2D
102
}
330
2D
100
AcDbScale
 70
     0
300
1:20
140
1.0
141
20.0
290
     0
  0
SCALE
  5
57
102
{ACAD_REACTORS
330
2D
102
}
330
2D
100
AcDbScale
 70
     0
300
1:30
140
1.0
141
30.0
290
     0
  0
TABLESTYLE
  5
52E
102
{ACAD_REACTORS
330
499
102
}
330
499
100
AcDbTableStyle
  3
Standard
 70
     0
 71
     0
 40
0.06
 41
0.06
280
     0
281
     0
  7
STANDARD
140
0.18
170
     2
 62
     0
 63
   257
283
     0
274
    -2
284
     1
 64
     0
275
    -2
285
     1
 65
     0
276
    -2
286
     1
 66
     0
277
    -2
287
     1
 67
     0
278
    -2
288
     1
 68
     0
279
    -2
289
     1
 69
     0
  7
STANDARD
140
0.25
170
     5
 62
     0
 63
   257
283
     0
274
    -2
284
     1
 64
     0
275
    -2
285
     1
 65
     0
276
    -2
286
     1
 66
     0
277
    -2
287
     1
 67
     0
278
    -2
288
     1
 68
     0
279
    -2
289
     1
 69
     0
  7
STANDARD
140
0.18
170
     5
 62
     0
 63
   257
283
     0
274
    -2
284
     1
 64
     0
275
    -2
285
     1
 65
     0
276
    -2
286
     1
 66
     0
277
    -2
287
     1
 67
     0
278
    -2
288
     1
 68
     0
279
    -2
289
     1
 69
     0
  0
VISUALSTYLE
  5
4A1
102
{ACAD_REACTORS
330
29
102
}
102
{ACAD_XDICTIONARY
360
547
102
}
330
29
100
AcDbVisualStyle
  2
2dWireframe
 70
     4
 71
     0
 72
     2
 73
     0
 90
        0
 40
0.6
 41
30.0
 62
     5
 63
     7
 74
     1
 91
        4
 64
     7
 65
   257
 75
     1
175
     1
 42
1.0
 92
        0
 66
   257
 43
1.0
 76
     1
 77
     6
 78
     2
 67
     7
 79
     5
170
     0
171
     0
290
     0
174
     0
 93
        1
 44
0.0
173
     0
291
     0
 45
0.0
1001
ACAD
1000
AcDbSavedByObjectVersion
1070
     0
  0
VISUALSTYLE
  5
4A4
102
{ACAD_REACTORS
330
29
102
}
102
{ACAD_XDICTIONARY
360
54D
102
}
330
29
100
AcDbVisualStyle
  2
Basic
 70
     7
 71
     1
 72
     0
 73
     1
 90
        0
 40
0.6
 41
30.0
 62
     5
 63
     7
 74
     0
 91
        4
 64
     7
 65
   257
 75
     1
175
     1
 42
1.0
 92
        8
 66
     7
 43
1.0
 76
     1
 77
     6
 78
     2
 67
     7
 79
     5
170
     0
171
     0
290
     0
174
     0
 93
        1
 44
0.0
173
     0
291
     1
 45
0.0
1001
ACAD
1000
AcDbSavedByObjectVersion
1070
     0
  0
VISUALSTYLE
  5
4A8
102
{ACAD_REACTORS
330
29
102
}
102
{ACAD_XDICTIONARY
360
555
102
}
330
29
100
AcDbVisualStyle
  2
Brighten
 70
    12
 71
     2
 72
     2
 73
     0
 90
        0
 40
0.6
 41
30.0
 62
     5
 63
     7
 74
     1
 91
        4
 64
     7
 65
   257
 75
     1
175
     1
 42
1.0
 92
        8
 66
     7
 43
1.0
 76
     1
 77
     6
 78
     2
 67
     7
 79
     5
170
     0
171
     0
290
     0
174
     0
 93
        1
 44
50.0
173
     0
291
     1
 45
0.0
1001
ACAD
1000
AcDbSavedByObjectVersion
1070
     0
  0
VISUALSTYLE
  5
4AC
102
{ACAD_REACTORS
330
29
102
}
102
{ACAD_XDICTIONARY
360
55D
102
}
330
29
100
AcDbVisualStyle
  2
ColorChange
 70
    16
 71
     2
 72
     2
 73
     3
 90
        0
 40
0.6
 41
30.0
 62
     5
 63
     8
 74
     1
 91
        4
 64
     7
 65
   257
 75
     1
175
     1
 42
1.0
 92
        8
 66
     8
 43
1.0
 76
     1
 77
     6
 78
     2
 67
     7
 79
     5
170
     0
171
     0
290
     0
174
     0
 93
        1
 44
0.0
173
     0
291
     1
 45
0.0
1001
ACAD
1000
AcDbSavedByObjectVersion
1070
     0
  0
VISUALSTYLE
  5
4A6
102
{ACAD_REACTORS
330
29
102
}
102
{ACAD_XDICTIONARY
360
551
102
}
330
29
100
AcDbVisualStyle
  2
Conceptual
 70
     9
 71
     3
 72
     2
 73
     0
 90
        0
 40
0.6
 41
30.0
 62
     5
 63
     7
 74
     2
 91
        2
 64
     7
 65
   257
 75
     1
175
     1
 42
40.0
 92
        8
 66
     7
 43
1.0
 76
     1
 77
     6
 78
     2
 67
     7
 79
     3
170
     0
171
     0
290
     0
174
     0
 93
        1
 44
0.0
173
     0
291
     0
 45
0.0
1001
ACAD
1000
AcDbSavedByObjectVersion
1070
     0
  0
VISUALSTYLE
  5
4A7
102
{ACAD_REACTORS
330
29
102
}
102
{ACAD_XDICTIONARY
360
553
102
}
330
29
100
AcDbVisualStyle
  2
Dim
 70
    11
 71
     2
 72
     2
 73
     0
 90
        0
 40
0.6
 41
30.0
 62
     5
 63
     7
 74
     1
 91
        4
 64
     7
 65
   257
 75
     1
175
     1
 42
1.0
 92
        8
 66
     7
 43
1.0
 76
     1
 77
     6
 78
     2
 67
     7
 79
     5
170
     0
171
     0
290
     0
174
     0
 93
        1
 44
-50.0
173
     0
291
     1
 45
0.0
1001
ACAD
1000
AcDbSavedByObjectVersion
1070
     0
  0
VISUALSTYLE
  5
4AF
102
{ACAD_REACTORS
330
29
102
}
102
{ACAD_XDICTIONARY
360
563
102
}
330
29
100
AcDbVisualStyle
  2
EdgeColorOff
 70
    22
 71
     2
 72
     2
 73
     0
 90
        0
 40
0.6
 41
30.0
 62
     5
 63
     7
 74
     1
 91
        4
 64
     7
 65
   257
 75
     1
175
     1
 42
1.0
 92
        8
 66
     7
 43
1.0
 76
     1
 77
     6
 78
     2
 67
     7
 79
     5
170
     0
171
     0
290
     0
174
     0
 93
        1
 44
0.0
173
     0
291
     1
 45
0.0
1001
ACAD
1000
AcDbSavedByObjectVersion
1070
     0
  0
VISUALSTYLE
  5
4AB
102
{ACAD_REACTORS
330
29
102
}
102
{ACAD_XDICTIONARY
360
55B
102
}
330
29
100
AcDbVisualStyle
  2
Facepattern
 70
    15
 71
     2
 72
     2
 73
     0
 90
        0
 40
0.6
 41
30.0
 62
     5
 63
     7
 74
     1
 91
        4
 64
     7
 65
   257
 75
     1
175
     1
 42
1.0
 92
        8
 66
     7
 43
1.0
 76
     1
 77
     6
 78
     2
 67
     7
 79
     5
170
     0
171
     0
290
     0
174
     0
 93
        1
 44
0.0
173
     0
291
     1
 45
0.0
1001
ACAD
1000
AcDbSavedByObjectVersion
1070
     0
  0
VISUALSTYLE
  5
49D
102
{ACAD_REACTORS
330
29
102
}
102
{ACAD_XDICTIONARY
360
53F
102
}
330
29
100
AcDbVisualStyle
  2
Flat
 70
     0
 71
     2
 72
     1
 73
     1
 90
        2
 40
0.6
 41
30.0
 62
     5
 63
     7
 74
     0
 91
        4
 64
     7
 65
   257
 75
     1
175
     1
 42
1.0
 92
        8
 66
     7
 43
1.0
 76
     1
 77
     6
 78
     2
 67
     7
 79
     5
170
     0
171
     0
290
     0
174
     0
 93
       13
 44
0.0
173
     0
291
     1
 45
0.0
1001
ACAD
1000
AcDbSavedByObjectVersion
1070
     0
  0
VISUALSTYLE
  5
49E
102
{ACAD_REACTORS
330
29
102
}
102
{ACAD_XDICTIONARY
360
541
102
}
330
29
100
AcDbVisualStyle
  2
FlatWithEdges
 70
     1
 71
     2
 72
     1
 73
     1
 90
        2
 40
0.6
 41
30.0
 62
     5
 63
     7
 74
     1
 91
        4
 64
     7
 65
   257
 75
     1
175
     1
 42
1.0
 92
        0
 66
   257
 43
1.0
 76
     1
 77
     6
 78
     2
 67
     7
 79
     5
170
     0
171
     0
290
     0
174
     0
 93
       13
 44
0.0
173
     0
291
     1
 45
0.0
1001
ACAD
1000
AcDbSavedByObjectVersion
1070
     0
  0
VISUALSTYLE
  5
49F
102
{ACAD_REACTORS
330
29
102
}
102
{ACAD_XDICTIONARY
360
543
102
}
330
29
100
AcDbVisualStyle
  2
Gouraud
 70
     2
 71
     2
 72
     2
 73
     1
 90
        2
 40
0.6
 41
30.0
 62
     5
 63
     7
 74
     0
 91
        4
 64
     7
 65
   257
 75
     1
175
     1
 42
1.0
 92
        0
 66
     7
 43
1.0
 76
     1
 77
     6
 78
     2
 67
     7
 79
     5
170
     0
171
     0
290
     0
174
     0
 93
       13
 44
0.0
173
     0
291
     1
 45
0.0
1001
ACAD
1000
AcDbSavedByObjectVersion
1070
     0
  0
VISUALSTYLE
  5
4A0
102
{ACAD_REACTORS
330
29
102
}
102
{ACAD_XDICTIONARY
360
545
102
}
330
29
100
AcDbVisualStyle
  2
GouraudWithEdges
 70
     3
 71
     2
 72
     2
 73
     1
 90
        2
 40
0.6
 41
30.0
 62
     5
 63
     7
 74
     1
 91
        4
 64
     7
 65
   257
 75
     1
175
     1
 42
1.0
 92
        0
 66
   257
 43
1.0
 76
     1
 77
     6
 78
     2
 67
     7
 79
     5
170
     0
171
     0
290
     0
174
     0
 93
       13
 44
0.0
173
     0
291
     1
 45
0.0
1001
ACAD
1000
AcDbSavedByObjectVersion
1070
     0
  0
VISUALSTYLE
  5
4A3
102
{ACAD_REACTORS
330
29
102
}
102
{ACAD_XDICTIONARY
360
54B
102
}
330
29
100
AcDbVisualStyle
  2
Hidden
 70
     6
 71
     1
 72
     2
 73
     2
 90
        0
 40
0.6
 41
30.0
 62
     5
 63
     7
 74
     2
 91
        2
 64
     7
 65
   257
 75
     2
175
     1
 42
40.0
 92
        0
 66
   257
 43
1.0
 76
     1
 77
     6
 78
     2
 67
     7
 79
     3
170
     0
171
     0
290
     0
174
     0
 93
        1
 44
0.0
173
     0
291
     0
 45
0.0
1001
ACAD
1000
AcDbSavedByObjectVersion
1070
     0
  0
VISUALSTYLE
  5
4AD
102
{ACAD_REACTORS
330
29
102
}
102
{ACAD_XDICTIONARY
360
55F
102
}
330
29
100
AcDbVisualStyle
  2
JitterOff
 70
    20
 71
     2
 72
     2
 73
     0
 90
        0
 40
0.6
 41
30.0
 62
     5
 63
     7
 74
     1
 91
        4
 64
     7
 65
   257
 75
     1
175
     1
 42
1.0
 92
       10
 66
     7
 43
1.0
 76
     1
 77
     6
 78
     2
 67
     7
 79
     5
170
     0
171
     0
290
     0
174
     0
 93
        1
 44
0.0
173
     0
291
     1
 45
0.0
1001
ACAD
1000
AcDbSavedByObjectVersion
1070
     0
  0
VISUALSTYLE
  5
4AA
102
{ACAD_REACTORS
330
29
102
}
102
{ACAD_XDICTIONARY
360
559
102
}
330
29
100
AcDbVisualStyle
  2
Linepattern
 70
    14
 71
     2
 72
     2
 73
     0
 90
        0
 40
0.6
 41
30.0
 62
     5
 63
     7
 74
     1
 91
        4
 64
     7
 65
   257
 75
     7
175
     7
 42
1.0
 92
        8
 66
     7
 43
1.0
 76
     1
 77
     6
 78
     2
 67
     7
 79
     5
170
     0
171
     0
290
     0
174
     0
 93
        1
 44
0.0
173
     0
291
     1
 45
0.0
1001
ACAD
1000
AcDbSavedByObjectVersion
1070
     0
  0
VISUALSTYLE
  5
4AE
102
{ACAD_REACTORS
330
29
102
}
102
{ACAD_XDICTIONARY
360
561
102
}
330
29
100
AcDbVisualStyle
  2
OverhangOff
 70
    21
 71
     2
 72
     2
 73
     0
 90
        0
 40
0.6
 41
30.0
 62
     5
 63
     7
 74
     1
 91
        4
 64
     7
 65
   257
 75
     1
175
     1
 42
1.0
 92
        9
 66
     7
 43
1.0
 76
     1
 77
     6
 78
     2
 67
     7
 79
     5
170
     0
171
     0
290
     0
174
     0
 93
        1
 44
0.0
173
     0
291
     1
 45
0.0
1001
ACAD
1000
AcDbSavedByObjectVersion
1070
     0
  0
VISUALSTYLE
  5
4A5
102
{ACAD_REACTORS
330
29
102
}
102
{ACAD_XDICTIONARY
360
54F
102
}
330
29
100
AcDbVisualStyle
  2
Realistic
 70
     8
 71
     2
 72
     3
 73
     0
 90
        2
 40
0.6
 41
30.0
 62
     5
 63
     7
 74
     0
 91
        0
 64
     7
 65
   257
 75
     1
175
     1
 42
1.0
 92
        8
 66
   257
 43
1.0
 76
     1
 77
     6
 78
     2
 67
     7
 79
     3
170
     0
171
     0
290
     0
174
     0
 93
       13
 44
0.0
173
     0
291
     0
 45
0.0
1001
ACAD
1000
AcDbSavedByObjectVersion
1070
     0
  0
VISUALSTYLE
  5
4B4
102
{ACAD_REACTORS
330
29
102
}
102
{ACAD_XDICTIONARY
360
56D
102
}
330
29
100
AcDbVisualStyle
  2
Shaded
 70
    27
 71
     2
 72
     2
 73
     1
 90
        2
 40
0.6
 41
30.0
 62
     5
 63
     7
 74
     0
 91
        4
 64
     7
 65
   257
 75
     1
175
     1
 42
1.0
 92
        8
 66
   257
 43
1.0
 76
     1
 77
     6
 78
     2
 67
   251
 79
     3
170
     0
171
     0
290
     0
174
     0
 93
        5
 44
0.0
173
     0
291
     0
 45
0.0
1001
ACAD
1000
AcDbSavedByObjectVersion
1070
     0
  0
VISUALSTYLE
  5
4B3
102
{ACAD_REACTORS
330
29
102
}
102
{ACAD_XDICTIONARY
360
56B
102
}
330
29
100
AcDbVisualStyle
  2
Shaded with edges
 70
    26
 71
     2
 72
     2
 73
     1
 90
        2
 40
0.6
 41
30.0
 62
     5
 63
     7
 74
     1
 91
       10
 64
     7
 65
   257
 75
     2
175
     1
 42
1.0
 92
        8
 66
   257
 43
1.0
 76
     1
 77
     6
 78
     2
 67
     7
 79
     3
170
     0
171
     0
290
     0
174
     0
 93
        5
 44
0.0
173
     0
291
     0
 45
0.0
1001
ACAD
1000
AcDbSavedByObjectVersion
1070
     0
  0
VISUALSTYLE
  5
4B0
102
{ACAD_REACTORS
330
29
102
}
102
{ACAD_XDICTIONARY
360
565
102
}
330
29
100
AcDbVisualStyle
  2
Shades of Gray
 70
    23
 71
     2
 72
     2
 73
     3
 90
        0
 40
0.6
 41
30.0
 62
     5
 63
     7
 74
     2
 91
        2
 64
     7
 65
     7
 75
     1
175
     1
 42
40.0
 92
        8
 66
     7
 43
1.0
 76
     1
 77
     6
 78
     2
 67
     7
 79
     3
170
     0
171
     0
290
     0
174
     0
 93
        1
 44
0.0
173
     0
291
     0
 45
0.0
1001
ACAD
1000
AcDbSavedByObjectVersion
1070
     0
  0
VISUALSTYLE
  5
4B1
102
{ACAD_REACTORS
330
29
102
}
102
{ACAD_XDICTIONARY
360
567
102
}
330
29
100
AcDbVisualStyle
  2
Sketchy
 70
    24
 71
     1
 72
     2
 73
     2
 90
        0
 40
0.6
 41
30.0
 62
     5
 63
     7
 74
     2
 91
        2
 64
     7
 65
     7
 75
     1
175
     1
 42
40.0
 92
       11
 66
     7
 43
1.0
 76
     1
 77
     6
 78
     2
 67
     7
 79
     6
170
     0
171
     0
290
     0
174
     0
 93
        1
 44
0.0
173
     0
291
     0
 45
0.0
1001
ACAD
1000
AcDbSavedByObjectVersion
1070
     0
  0
VISUALSTYLE
  5
4A9
102
{ACAD_REACTORS
330
29
102
}
102
{ACAD_XDICTIONARY
360
557
102
}
330
29
100
AcDbVisualStyle
  2
Thicken
 70
    13
 71
     2
 72
     2
 73
     0
 90
        0
 40
0.6
 41
30.0
 62
     5
 63
     7
 74
     1
 91
        4
 64
     7
 65
   257
 75
     1
175
     1
 42
1.0
 92
       12
 66
     7
 43
1.0
 76
     1
 77
     6
 78
     2
 67
     7
 79
     5
170
     0
171
     0
290
     0
174
     0
 93
        1
 44
0.0
173
     0
291
     1
 45
0.0
1001
ACAD
1000
AcDbSavedByObjectVersion
1070
     0
  0
VISUALSTYLE
  5
4A2
102
{ACAD_REACTORS
330
29
102
}
102
{ACAD_XDICTIONARY
360
549
102
}
330
29
100
AcDbVisualStyle
  2
Wireframe
 70
     5
 71
     0
 72
     2
 73
     0
 90
        0
 40
0.6
 41
30.0
 62
     5
 63
     7
 74
     1
 91
        4
 64
     7
 65
   257
 75
     1
175
     1
 42
1.0
 92
        0
 66
   257
 43
1.0
 76
     1
 77
     6
 78
     2
 67
     7
 79
     5
170
     0
171
     0
290
     0
174
     0
 93
        1
 44
0.0
173
     0
291
     0
 45
0.0
1001
ACAD
1000
AcDbSavedByObjectVersion
1070
     0
  0
VISUALSTYLE
  5
4B2
102
{ACAD_REACTORS
330
29
102
}
102
{ACAD_XDICTIONARY
360
569
102
}
330
29
100
AcDbVisualStyle
  2
X-Ray
 70
    25
 71
     2
 72
     2
 73
     1
 90
        1
 40
0.5
 41
30.0
 62
     5
 63
     7
 74
     1
 91
        0
 64
     7
 65
   257
 75
     1
175
     1
 42
1.0
 92
        8
 66
     7
 43
1.0
 76
     1
 77
     6
 78
     2
 67
     7
 79
     3
170
     0
171
     0
290
     0
174
     0
 93
       13
 44
0.0
173
     0
291
     0
 45
0.0
1001
ACAD
1000
AcDbSavedByObjectVersion
1070
     0
  0
XRECORD
  5
533
102
{ACAD_REACTORS
330
532
102
}
330
532
100
AcDbXrecord
280
     1
340
28
  0
XRECORD
  5
534
102
{ACAD_REACTORS
330
532
102
}
330
532
100
AcDbXrecord
280
     1
340
7
  0
DICTIONARYVAR
  5
498
102
{ACAD_REACTORS
330
497
102
}
330
497
100
DictionaryVariables
280
     0
  1
1:1
  0
DICTIONARYVAR
  5
4B7
102
{ACAD_REACTORS
330
497
102
}
330
497
100
DictionaryVariables
280
     0
  1
Standard
  0
DICTIONARYVAR
  5
52F
102
{ACAD_REACTORS
330
497
102
}
330
497
100
DictionaryVariables
280
     0
  1
Standard
  0
DICTIONARYVAR
  5
530
102
{ACAD_REACTORS
330
497
102
}
330
497
100
DictionaryVariables
280
     0
  1
0
  0
DICTIONARYVAR
  5
531
102
{ACAD_REACTORS
330
497
102
}
330
497
100
DictionaryVariables
280
     0
  1
1
  0
DICTIONARYVAR
  5
538
102
{ACAD_REACTORS
330
497
102
}
330
497
100
DictionaryVariables
280
     0
  1
1
  0
DICTIONARY
  5
53D
330
70
100
AcDbDictionary
280
     1
281
     1
  3
ACAD_XREC_ROUNDTRIP
360
53E
  0
DICTIONARY
  5
539
330
E
100
AcDbDictionary
280
     1
281
     1
  3
ACAD_XREC_ROUNDTRIP
360
53A
  0
DICTIONARY
  5
53B
330
6
100
AcDbDictionary
280
     1
281
     1
  3
ACAD_XREC_ROUNDTRIP
360
53C
  0
DICTIONARY
  5
56F
330
4B5
100
AcDbDictionary
280
     1
281
     1
  3
ACAD_XREC_ROUNDTRIP
360
570
  0
DICTIONARY
  5
547
330
4A1
100
AcDbDictionary
280
     1
281
     1
  3
ACAD_XREC_ROUNDTRIP
360
548
  0
DICTIONARY
  5
54D
330
4A4
100
AcDbDictionary
280
     1
281
     1
  3
ACAD_XREC_ROUNDTRIP
360
54E
  0
DICTIONARY
  5
555
330
4A8
100
AcDbDictionary
280
     1
281
     1
  3
ACAD_XREC_ROUNDTRIP
360
556
  0
DICTIONARY
  5
55D
330
4AC
100
AcDbDictionary
280
     1
281
     1
  3
ACAD_XREC_ROUNDTRIP
360
55E
  0
DICTIONARY
  5
551
330
4A6
100
AcDbDictionary
280
     1
281
     1
  3
ACAD_XREC_ROUNDTRIP
360
552
  0
DICTIONARY
  5
553
330
4A7
100
AcDbDictionary
280
     1
281
     1
  3
ACAD_XREC_ROUNDTRIP
360
554
  0
DICTIONARY
  5
563
330
4AF
100
AcDbDictionary
280
     1
281
     1
  3
ACAD_XREC_ROUNDTRIP
360
564
  0
DICTIONARY
  5
55B
330
4AB
100
AcDbDictionary
280
     1
281
     1
  3
ACAD_XREC_ROUNDTRIP
360
55C
  0
DICTIONARY
  5
53F
330
49D
100
AcDbDictionary
280
     1
281
     1
  3
ACAD_XREC_ROUNDTRIP
360
540
  0
DICTIONARY
  5
541
330
49E
100
AcDbDictionary
280
     1
281
     1
  3
ACAD_XREC_ROUNDTRIP
360
542
  0
DICTIONARY
  5
543
330
49F
100
AcDbDictionary
280
     1
281
     1
  3
ACAD_XREC_ROUNDTRIP
360
544
  0
DICTIONARY
  5
545
330
4A0
100
AcDbDictionary
280
     1
281
     1
  3
ACAD_XREC_ROUNDTRIP
360
546
  0
DICTIONARY
  5
54B
330
4A3
100
AcDbDictionary
280
     1
281
     1
  3
ACAD_XREC_ROUNDTRIP
360
54C
  0
DICTIONARY
  5
55F
330
4AD
100
AcDbDictionary
280
     1
281
     1
  3
ACAD_XREC_ROUNDTRIP
360
560
  0
DICTIONARY
  5
559
330
4AA
100
AcDbDictionary
280
     1
281
     1
  3
ACAD_XREC_ROUNDTRIP
360
55A
  0
DICTIONARY
  5
561
330
4AE
100
AcDbDictionary
280
     1
281
     1
  3
ACAD_XREC_ROUNDTRIP
360
562
  0
DICTIONARY
  5
54F
330
4A5
100
AcDbDictionary
280
     1
281
     1
  3
ACAD_XREC_ROUNDTRIP
360
550
  0
DICTIONARY
  5
56D
330
4B4
100
AcDbDictionary
280
     1
281
     1
  3
ACAD_XREC_ROUNDTRIP
360
56E
  0
DICTIONARY
  5
56B
330
4B3
100
AcDbDictionary
280
     1
281
     1
  3
ACAD_XREC_ROUNDTRIP
360
56C
  0
DICTIONARY
  5
565
330
4B0
100
AcDbDictionary
280
     1
281
     1
  3
ACAD_XREC_ROUNDTRIP
360
566
  0
DICTIONARY
  5
567
330
4B1
100
AcDbDictionary
280
     1
281
     1
  3
ACAD_XREC_ROUNDTRIP
360
568
  0
DICTIONARY
  5
557
330
4A9
100
AcDbDictionary
280
     1
281
     1
  3
ACAD_XREC_ROUNDTRIP
360
558
  0
DICTIONARY
  5
549
330
4A2
100
AcDbDictionary
280
     1
281
     1
  3
ACAD_XREC_ROUNDTRIP
360
54A
  0
DICTIONARY
  5
569
330
4B2
100
AcDbDictionary
280
     1
281
     1
  3
ACAD_XREC_ROUNDTRIP
360
56A
  0
XRECORD
  5
53E
102
{ACAD_REACTORS
330
53D
102
}
330
53D
100
AcDbXrecord
280
     1
102
MATERIAL
148
0.0
149
0.0
149
0.0
 93
        0
 94
      127
282
     0
 72
     1
 77
     1
171
     1
175
     1
179
     1
273
     0
  0
XRECORD
  5
53A
102
{ACAD_REACTORS
330
539
102
}
330
539
100
AcDbXrecord
280
     1
102
MATERIAL
148
0.0
149
0.0
149
0.0
 93
        0
 94
      127
282
     0
 72
     1
 77
     1
171
     1
175
     1
179
     1
273
     0
  0
XRECORD
  5
53C
102
{ACAD_REACTORS
330
53B
102
}
330
53B
100
AcDbXrecord
280
     1
102
MATERIAL
148
0.0
149
0.0
149
0.0
 93
        0
 94
      127
282
     0
 72
     1
 77
     1
171
     1
175
     1
179
     1
273
     0
  0
XRECORD
  5
570
102
{ACAD_REACTORS
330
56F
102
}
330
56F
100
AcDbXrecord
280
     1
102
ACAD_ROUNDTRIP_2010_MLEADER_STYLE
  0
XRECORD
  5
548
102
{ACAD_REACTORS
330
547
102
}
330
547
100
AcDbXrecord
280
     1
102
RTVSPropertyOp0
 70
     1
102
RTVSPropertyOp1
 70
     1
102
RTVSPropertyOp2
 70
     1
102
RTVSPropertyOp3
 70
     1
102
RTVSPropertyOp4
 70
     1
102
RTVSPropertyOp5
 70
     1
102
RTVSPropertyOp6
 70
     1
102
RTVSPropertyOp7
 70
     1
102
RTVSPropertyOp8
 70
     1
102
RTVSPropertyOp9
 70
     1
102
RTVSPropertyOp10
 70
     1
102
RTVSPropertyOp11
 70
     1
102
RTVSPropertyOp12
 70
     1
102
RTVSPropertyOp13
 70
     1
102
RTVSPropertyOp14
 70
     1
102
RTVSPropertyOp15
 70
     1
102
RTVSPropertyOp16
 70
     1
102
RTVSPropertyOp17
 70
     1
102
RTVSPropertyOp18
 70
     1
102
RTVSPropertyOp19
 70
     1
102
RTVSPropertyOp20
 70
     1
102
RTVSPropertyOp21
 70
     1
102
RTVSPropertyOp22
 70
     1
102
RTVSPropertyOp23
 70
     1
102
RTVSPropertyOp24
 70
     1
102
RTVSPropertyOp25
 70
     1
102
RTVSPropertyOp26
 70
     1
102
RTVSPropertyOp27
 70
     1
102
RTVSPropertyOp28
 70
     1
102
RTVSPropertyOp29
 70
     1
102
RTVSPropertyOp30
 70
     1
102
RTVSPropertyOp31
 70
     1
102
RTVSPropertyOp32
 70
     1
102
RTVSPropertyOp33
 70
     1
102
RTVSPropertyOp34
 70
     1
102
RTVSPropertyOp35
 70
     1
102
RTVSPropertyOp36
 70
     1
102
RTVSPropertyOp37
 70
     1
102
RTVSPropertyOp38
 70
     1
102
RTVSPropertyOp39
 70
     1
102
RTVSPropertyOp40
 70
     1
102
RTVSPropertyOp41
 70
     1
102
RTVSPropertyOp42
 70
     1
102
RTVSPropertyOp43
 70
     1
102
RTVSPropertyOp44
 70
     1
102
RTVSPropertyOp45
 70
     1
102
RTVSPropertyOp46
 70
     1
102
RTVSPropertyOp47
 70
     1
102
RTVSPropertyOp48
 70
     1
102
RTVSPropertyOp49
 70
     1
102
RTVSPropertyOp50
 70
     1
102
RTVSPropertyOp51
 70
     0
102
RTVSPropertyOp52
 70
     0
102
RTVSPropertyOp53
 70
     1
102
RTVSPropertyOp54
 70
     1
102
RTVSPropertyOp55
 70
     1
102
RTVSPropertyOp56
 70
     1
102
RTVSPropertyOp57
 70
     1
102
RTVSPost2010Prop28
280
     1
102
RTVSPost2010PropOp28
 70
     1
102
RTVSPost2010Prop29
280
     1
102
RTVSPost2010PropOp29
 70
     1
102
RTVSPost2010Prop30
280
     0
102
RTVSPost2010PropOp30
 70
     1
102
RTVSPost2010Prop31
280
     0
102
RTVSPost2010PropOp31
 70
     1
102
RTVSPost2010Prop32
280
     0
102
RTVSPost2010PropOp32
 70
     1
102
RTVSPost2010Prop33
280
     0
102
RTVSPost2010PropOp33
 70
     1
102
RTVSPost2010Prop34
280
     0
102
RTVSPost2010PropOp34
 70
     1
102
RTVSPost2010Prop35
280
     0
102
RTVSPost2010PropOp35
 70
     1
102
RTVSPost2010Prop36
280
     0
102
RTVSPost2010PropOp36
 70
     1
102
RTVSPost2010Prop37
 90
       50
102
RTVSPost2010PropOp37
 70
     1
102
RTVSPost2010Prop38
140
0.0
102
RTVSPost2010PropOp38
 70
     1
102
RTVSPost2010Prop39
140
1.0
102
RTVSPost2010PropOp39
 70
     1
102
RTVSPost2010Prop40
 90
        0
102
RTVSPost2010PropOp40
 70
     1
102
RTVSPost2010Prop41ColorIndex
 90
       18
102
RTVSPost2010Prop41ColorRGB
 90
        0
102
RTVSPost2010PropOp41
 70
     1
102
RTVSPost2010Prop42
 90
       50
102
RTVSPost2010PropOp42
 70
     1
102
RTVSPost2010Prop43
 90
        3
102
RTVSPost2010PropOp43
 70
     1
102
RTVSPost2010Prop44ColorIndex
 90
        5
102
RTVSPost2010Prop44ColorRGB
 90
      255
102
RTVSPost2010PropOp44
 70
     1
102
RTVSPost2010Prop45
280
     0
102
RTVSPost2010PropOp45
 70
     1
102
RTVSPost2010Prop46
 90
       50
102
RTVSPost2010PropOp46
 70
     1
102
RTVSPost2010Prop47
 90
       50
102
RTVSPost2010PropOp47
 70
     1
102
RTVSPost2010Prop48
 90
       50
102
RTVSPost2010PropOp48
 70
     1
102
RTVSPost2010Prop49
280
     0
102
RTVSPost2010PropOp49
 70
     1
102
RTVSPost2010Prop50
 90
       50
102
RTVSPost2010PropOp50
 70
     1
102
RTVSPost2010Prop51ColorIndex
 90
      256
102
RTVSPost2010Prop51ColorRGB
 90
-16777216
102
RTVSPost2010PropOp51
 70
     0
102
RTVSPost2010Prop52
140
1.0
102
RTVSPost2010PropOp52
 70
     0
102
RTVSPost2010Prop53
 90
        2
102
RTVSPost2010PropOp53
 70
     1
102
RTVSPost2010Prop54
  1
strokes_ogs.tif
102
RTVSPost2010PropOp54
 70
     1
102
RTVSPost2010Prop55
280
     0
102
RTVSPost2010PropOp55
 70
     1
102
RTVSPost2010Prop56
140
1.0
102
RTVSPost2010PropOp56
 70
     1
102
RTVSPost2010Prop57
140
1.0
102
RTVSPost2010PropOp57
 70
     1
  0
XRECORD
  5
54E
102
{ACAD_REACTORS
330
54D
102
}
330
54D
100
AcDbXrecord
280
     1
102
RTVSPropertyOp0
 70
     1
102
RTVSPropertyOp1
 70
     1
102
RTVSPropertyOp2
 70
     1
102
RTVSPropertyOp3
 70
     1
102
RTVSPropertyOp4
 70
     1
102
RTVSPropertyOp5
 70
     1
102
RTVSPropertyOp6
 70
     1
102
RTVSPropertyOp7
 70
     1
102
RTVSPropertyOp8
 70
     1
102
RTVSPropertyOp9
 70
     1
102
RTVSPropertyOp10
 70
     1
102
RTVSPropertyOp11
 70
     1
102
RTVSPropertyOp12
 70
     1
102
RTVSPropertyOp13
 70
     1
102
RTVSPropertyOp14
 70
     1
102
RTVSPropertyOp15
 70
     1
102
RTVSPropertyOp16
 70
     1
102
RTVSPropertyOp17
 70
     1
102
RTVSPropertyOp18
 70
     1
102
RTVSPropertyOp19
 70
     1
102
RTVSPropertyOp20
 70
     1
102
RTVSPropertyOp21
 70
     1
102
RTVSPropertyOp22
 70
     1
102
RTVSPropertyOp23
 70
     1
102
RTVSPropertyOp24
 70
     1
102
RTVSPropertyOp25
 70
     1
102
RTVSPropertyOp26
 70
     1
102
RTVSPropertyOp27
 70
     1
102
RTVSPropertyOp28
 70
     1
102
RTVSPropertyOp29
 70
     1
102
RTVSPropertyOp30
 70
     1
102
RTVSPropertyOp31
 70
     1
102
RTVSPropertyOp32
 70
     1
102
RTVSPropertyOp33
 70
     1
102
RTVSPropertyOp34
 70
     1
102
RTVSPropertyOp35
 70
     1
102
RTVSPropertyOp36
 70
     1
102
RTVSPropertyOp37
 70
     1
102
RTVSPropertyOp38
 70
     1
102
RTVSPropertyOp39
 70
     1
102
RTVSPropertyOp40
 70
     1
102
RTVSPropertyOp41
 70
     1
102
RTVSPropertyOp42
 70
     1
102
RTVSPropertyOp43
 70
     1
102
RTVSPropertyOp44
 70
     1
102
RTVSPropertyOp45
 70
     1
102
RTVSPropertyOp46
 70
     1
102
RTVSPropertyOp47
 70
     1
102
RTVSPropertyOp48
 70
     1
102
RTVSPropertyOp49
 70
     1
102
RTVSPropertyOp50
 70
     1
102
RTVSPropertyOp51
 70
     0
102
RTVSPropertyOp52
 70
     0
102
RTVSPropertyOp53
 70
     1
102
RTVSPropertyOp54
 70
     1
102
RTVSPropertyOp55
 70
     1
102
RTVSPropertyOp56
 70
     1
102
RTVSPropertyOp57
 70
     1
102
RTVSPost2010Prop28
280
     0
102
RTVSPost2010PropOp28
 70
     1
102
RTVSPost2010Prop29
280
     1
102
RTVSPost2010PropOp29
 70
     1
102
RTVSPost2010Prop30
280
     1
102
RTVSPost2010PropOp30
 70
     1
102
RTVSPost2010Prop31
280
     0
102
RTVSPost2010PropOp31
 70
     1
102
RTVSPost2010Prop32
280
     0
102
RTVSPost2010PropOp32
 70
     1
102
RTVSPost2010Prop33
280
     0
102
RTVSPost2010PropOp33
 70
     1
102
RTVSPost2010Prop34
280
     0
102
RTVSPost2010PropOp34
 70
     1
102
RTVSPost2010Prop35
280
     0
102
RTVSPost2010PropOp35
 70
     1
102
RTVSPost2010Prop36
280
     0
102
RTVSPost2010PropOp36
 70
     1
102
RTVSPost2010Prop37
 90
       50
102
RTVSPost2010PropOp37
 70
     1
102
RTVSPost2010Prop38
140
0.0
102
RTVSPost2010PropOp38
 70
     1
102
RTVSPost2010Prop39
140
1.0
102
RTVSPost2010PropOp39
 70
     1
102
RTVSPost2010Prop40
 90
        0
102
RTVSPost2010PropOp40
 70
     1
102
RTVSPost2010Prop41ColorIndex
 90
       18
102
RTVSPost2010Prop41ColorRGB
 90
        0
102
RTVSPost2010PropOp41
 70
     1
102
RTVSPost2010Prop42
 90
       50
102
RTVSPost2010PropOp42
 70
     1
102
RTVSPost2010Prop43
 90
        3
102
RTVSPost2010PropOp43
 70
     1
102
RTVSPost2010Prop44ColorIndex
 90
        5
102
RTVSPost2010Prop44ColorRGB
 90
      255
102
RTVSPost2010PropOp44
 70
     1
102
RTVSPost2010Prop45
280
     0
102
RTVSPost2010PropOp45
 70
     1
102
RTVSPost2010Prop46
 90
       50
102
RTVSPost2010PropOp46
 70
     1
102
RTVSPost2010Prop47
 90
       50
102
RTVSPost2010PropOp47
 70
     1
102
RTVSPost2010Prop48
 90
       50
102
RTVSPost2010PropOp48
 70
     1
102
RTVSPost2010Prop49
280
     0
102
RTVSPost2010PropOp49
 70
     1
102
RTVSPost2010Prop50
 90
       50
102
RTVSPost2010PropOp50
 70
     1
102
RTVSPost2010Prop51ColorIndex
 90
      256
102
RTVSPost2010Prop51ColorRGB
 90
-16777216
102
RTVSPost2010PropOp51
 70
     0
102
RTVSPost2010Prop52
140
1.0
102
RTVSPost2010PropOp52
 70
     0
102
RTVSPost2010Prop53
 90
        2
102
RTVSPost2010PropOp53
 70
     1
102
RTVSPost2010Prop54
  1
strokes_ogs.tif
102
RTVSPost2010PropOp54
 70
     1
102
RTVSPost2010Prop55
280
     0
102
RTVSPost2010PropOp55
 70
     1
102
RTVSPost2010Prop56
140
1.0
102
RTVSPost2010PropOp56
 70
     1
102
RTVSPost2010Prop57
140
1.0
102
RTVSPost2010PropOp57
 70
     1
  0
XRECORD
  5
556
102
{ACAD_REACTORS
330
555
102
}
330
555
100
AcDbXrecord
280
     1
102
RTVSPropertyOp0
 70
     1
102
RTVSPropertyOp1
 70
     1
102
RTVSPropertyOp2
 70
     1
102
RTVSPropertyOp3
 70
     1
102
RTVSPropertyOp4
 70
     1
102
RTVSPropertyOp5
 70
     1
102
RTVSPropertyOp6
 70
     1
102
RTVSPropertyOp7
 70
     1
102
RTVSPropertyOp8
 70
     1
102
RTVSPropertyOp9
 70
     1
102
RTVSPropertyOp10
 70
     1
102
RTVSPropertyOp11
 70
     1
102
RTVSPropertyOp12
 70
     1
102
RTVSPropertyOp13
 70
     1
102
RTVSPropertyOp14
 70
     1
102
RTVSPropertyOp15
 70
     1
102
RTVSPropertyOp16
 70
     1
102
RTVSPropertyOp17
 70
     1
102
RTVSPropertyOp18
 70
     1
102
RTVSPropertyOp19
 70
     1
102
RTVSPropertyOp20
 70
     1
102
RTVSPropertyOp21
 70
     1
102
RTVSPropertyOp22
 70
     1
102
RTVSPropertyOp23
 70
     1
102
RTVSPropertyOp24
 70
     1
102
RTVSPropertyOp25
 70
     1
102
RTVSPropertyOp26
 70
     1
102
RTVSPropertyOp27
 70
     1
102
RTVSPropertyOp28
 70
     1
102
RTVSPropertyOp29
 70
     1
102
RTVSPropertyOp30
 70
     1
102
RTVSPropertyOp31
 70
     1
102
RTVSPropertyOp32
 70
     1
102
RTVSPropertyOp33
 70
     1
102
RTVSPropertyOp34
 70
     1
102
RTVSPropertyOp35
 70
     1
102
RTVSPropertyOp36
 70
     1
102
RTVSPropertyOp37
 70
     1
102
RTVSPropertyOp38
 70
     1
102
RTVSPropertyOp39
 70
     1
102
RTVSPropertyOp40
 70
     1
102
RTVSPropertyOp41
 70
     1
102
RTVSPropertyOp42
 70
     1
102
RTVSPropertyOp43
 70
     1
102
RTVSPropertyOp44
 70
     1
102
RTVSPropertyOp45
 70
     1
102
RTVSPropertyOp46
 70
     1
102
RTVSPropertyOp47
 70
     1
102
RTVSPropertyOp48
 70
     1
102
RTVSPropertyOp49
 70
     1
102
RTVSPropertyOp50
 70
     1
102
RTVSPropertyOp51
 70
     0
102
RTVSPropertyOp52
 70
     0
102
RTVSPropertyOp53
 70
     1
102
RTVSPropertyOp54
 70
     1
102
RTVSPropertyOp55
 70
     1
102
RTVSPropertyOp56
 70
     1
102
RTVSPropertyOp57
 70
     1
102
RTVSPost2010Prop28
280
     0
102
RTVSPost2010PropOp28
 70
     1
102
RTVSPost2010Prop29
280
     1
102
RTVSPost2010PropOp29
 70
     1
102
RTVSPost2010Prop30
280
     1
102
RTVSPost2010PropOp30
 70
     1
102
RTVSPost2010Prop31
280
     0
102
RTVSPost2010PropOp31
 70
     1
102
RTVSPost2010Prop32
280
     0
102
RTVSPost2010PropOp32
 70
     1
102
RTVSPost2010Prop33
280
     0
102
RTVSPost2010PropOp33
 70
     1
102
RTVSPost2010Prop34
280
     0
102
RTVSPost2010PropOp34
 70
     1
102
RTVSPost2010Prop35
280
     0
102
RTVSPost2010PropOp35
 70
     1
102
RTVSPost2010Prop36
280
     0
102
RTVSPost2010PropOp36
 70
     1
102
RTVSPost2010Prop37
 90
       50
102
RTVSPost2010PropOp37
 70
     1
102
RTVSPost2010Prop38
140
0.0
102
RTVSPost2010PropOp38
 70
     1
102
RTVSPost2010Prop39
140
1.0
102
RTVSPost2010PropOp39
 70
     1
102
RTVSPost2010Prop40
 90
        0
102
RTVSPost2010PropOp40
 70
     1
102
RTVSPost2010Prop41ColorIndex
 90
       18
102
RTVSPost2010Prop41ColorRGB
 90
        0
102
RTVSPost2010PropOp41
 70
     1
102
RTVSPost2010Prop42
 90
       50
102
RTVSPost2010PropOp42
 70
     1
102
RTVSPost2010Prop43
 90
        3
102
RTVSPost2010PropOp43
 70
     1
102
RTVSPost2010Prop44ColorIndex
 90
        5
102
RTVSPost2010Prop44ColorRGB
 90
      255
102
RTVSPost2010PropOp44
 70
     1
102
RTVSPost2010Prop45
280
     0
102
RTVSPost2010PropOp45
 70
     1
102
RTVSPost2010Prop46
 90
       50
102
RTVSPost2010PropOp46
 70
     1
102
RTVSPost2010Prop47
 90
       50
102
RTVSPost2010PropOp47
 70
     1
102
RTVSPost2010Prop48
 90
       50
102
RTVSPost2010PropOp48
 70
     1
102
RTVSPost2010Prop49
280
     0
102
RTVSPost2010PropOp49
 70
     1
102
RTVSPost2010Prop50
 90
       50
102
RTVSPost2010PropOp50
 70
     1
102
RTVSPost2010Prop51ColorIndex
 90
      256
102
RTVSPost2010Prop51ColorRGB
 90
-16777216
102
RTVSPost2010PropOp51
 70
     0
102
RTVSPost2010Prop52
140
1.0
102
RTVSPost2010PropOp52
 70
     0
102
RTVSPost2010Prop53
 90
        2
102
RTVSPost2010PropOp53
 70
     1
102
RTVSPost2010Prop54
  1
strokes_ogs.tif
102
RTVSPost2010PropOp54
 70
     1
102
RTVSPost2010Prop55
280
     0
102
RTVSPost2010PropOp55
 70
     1
102
RTVSPost2010Prop56
140
1.0
102
RTVSPost2010PropOp56
 70
     1
102
RTVSPost2010Prop57
140
1.0
102
RTVSPost2010PropOp57
 70
     1
  0
XRECORD
  5
55E
102
{ACAD_REACTORS
330
55D
102
}
330
55D
100
AcDbXrecord
280
     1
102
RTVSPropertyOp0
 70
     1
102
RTVSPropertyOp1
 70
     1
102
RTVSPropertyOp2
 70
     1
102
RTVSPropertyOp3
 70
     1
102
RTVSPropertyOp4
 70
     1
102
RTVSPropertyOp5
 70
     1
102
RTVSPropertyOp6
 70
     1
102
RTVSPropertyOp7
 70
     1
102
RTVSPropertyOp8
 70
     1
102
RTVSPropertyOp9
 70
     1
102
RTVSPropertyOp10
 70
     1
102
RTVSPropertyOp11
 70
     1
102
RTVSPropertyOp12
 70
     1
102
RTVSPropertyOp13
 70
     1
102
RTVSPropertyOp14
 70
     1
102
RTVSPropertyOp15
 70
     1
102
RTVSPropertyOp16
 70
     1
102
RTVSPropertyOp17
 70
     1
102
RTVSPropertyOp18
 70
     1
102
RTVSPropertyOp19
 70
     1
102
RTVSPropertyOp20
 70
     1
102
RTVSPropertyOp21
 70
     1
102
RTVSPropertyOp22
 70
     1
102
RTVSPropertyOp23
 70
     1
102
RTVSPropertyOp24
 70
     1
102
RTVSPropertyOp25
 70
     1
102
RTVSPropertyOp26
 70
     1
102
RTVSPropertyOp27
 70
     1
102
RTVSPropertyOp28
 70
     1
102
RTVSPropertyOp29
 70
     1
102
RTVSPropertyOp30
 70
     1
102
RTVSPropertyOp31
 70
     1
102
RTVSPropertyOp32
 70
     1
102
RTVSPropertyOp33
 70
     1
102
RTVSPropertyOp34
 70
     1
102
RTVSPropertyOp35
 70
     1
102
RTVSPropertyOp36
 70
     1
102
RTVSPropertyOp37
 70
     1
102
RTVSPropertyOp38
 70
     1
102
RTVSPropertyOp39
 70
     1
102
RTVSPropertyOp40
 70
     1
102
RTVSPropertyOp41
 70
     1
102
RTVSPropertyOp42
 70
     1
102
RTVSPropertyOp43
 70
     1
102
RTVSPropertyOp44
 70
     1
102
RTVSPropertyOp45
 70
     1
102
RTVSPropertyOp46
 70
     1
102
RTVSPropertyOp47
 70
     1
102
RTVSPropertyOp48
 70
     1
102
RTVSPropertyOp49
 70
     1
102
RTVSPropertyOp50
 70
     1
102
RTVSPropertyOp51
 70
     0
102
RTVSPropertyOp52
 70
     0
102
RTVSPropertyOp53
 70
     1
102
RTVSPropertyOp54
 70
     1
102
RTVSPropertyOp55
 70
     1
102
RTVSPropertyOp56
 70
     1
102
RTVSPropertyOp57
 70
     1
102
RTVSPost2010Prop28
280
     0
102
RTVSPost2010PropOp28
 70
     1
102
RTVSPost2010Prop29
280
     1
102
RTVSPost2010PropOp29
 70
     1
102
RTVSPost2010Prop30
280
     1
102
RTVSPost2010PropOp30
 70
     1
102
RTVSPost2010Prop31
280
     0
102
RTVSPost2010PropOp31
 70
     1
102
RTVSPost2010Prop32
280
     0
102
RTVSPost2010PropOp32
 70
     1
102
RTVSPost2010Prop33
280
     0
102
RTVSPost2010PropOp33
 70
     1
102
RTVSPost2010Prop34
280
     0
102
RTVSPost2010PropOp34
 70
     1
102
RTVSPost2010Prop35
280
     0
102
RTVSPost2010PropOp35
 70
     1
102
RTVSPost2010Prop36
280
     0
102
RTVSPost2010PropOp36
 70
     1
102
RTVSPost2010Prop37
 90
       50
102
RTVSPost2010PropOp37
 70
     1
102
RTVSPost2010Prop38
140
0.0
102
RTVSPost2010PropOp38
 70
     1
102
RTVSPost2010Prop39
140
1.0
102
RTVSPost2010PropOp39
 70
     1
102
RTVSPost2010Prop40
 90
        0
102
RTVSPost2010PropOp40
 70
     1
102
RTVSPost2010Prop41ColorIndex
 90
       18
102
RTVSPost2010Prop41ColorRGB
 90
        0
102
RTVSPost2010PropOp41
 70
     1
102
RTVSPost2010Prop42
 90
       50
102
RTVSPost2010PropOp42
 70
     1
102
RTVSPost2010Prop43
 90
        3
102
RTVSPost2010PropOp43
 70
     1
102
RTVSPost2010Prop44ColorIndex
 90
        5
102
RTVSPost2010Prop44ColorRGB
 90
      255
102
RTVSPost2010PropOp44
 70
     1
102
RTVSPost2010Prop45
280
     0
102
RTVSPost2010PropOp45
 70
     1
102
RTVSPost2010Prop46
 90
       50
102
RTVSPost2010PropOp46
 70
     1
102
RTVSPost2010Prop47
 90
       50
102
RTVSPost2010PropOp47
 70
     1
102
RTVSPost2010Prop48
 90
       50
102
RTVSPost2010PropOp48
 70
     1
102
RTVSPost2010Prop49
280
     0
102
RTVSPost2010PropOp49
 70
     1
102
RTVSPost2010Prop50
 90
       50
102
RTVSPost2010PropOp50
 70
     1
102
RTVSPost2010Prop51ColorIndex
 90
      256
102
RTVSPost2010Prop51ColorRGB
 90
-16777216
102
RTVSPost2010PropOp51
 70
     0
102
RTVSPost2010Prop52
140
1.0
102
RTVSPost2010PropOp52
 70
     0
102
RTVSPost2010Prop53
 90
        2
102
RTVSPost2010PropOp53
 70
     1
102
RTVSPost2010Prop54
  1
strokes_ogs.tif
102
RTVSPost2010PropOp54
 70
     1
102
RTVSPost2010Prop55
280
     0
102
RTVSPost2010PropOp55
 70
     1
102
RTVSPost2010Prop56
140
1.0
102
RTVSPost2010PropOp56
 70
     1
102
RTVSPost2010Prop57
140
1.0
102
RTVSPost2010PropOp57
 70
     1
  0
XRECORD
  5
552
102
{ACAD_REACTORS
330
551
102
}
330
551
100
AcDbXrecord
280
     1
102
RTVSPropertyOp0
 70
     1
102
RTVSPropertyOp1
 70
     1
102
RTVSPropertyOp2
 70
     1
102
RTVSPropertyOp3
 70
     1
102
RTVSPropertyOp4
 70
     1
102
RTVSPropertyOp5
 70
     1
102
RTVSPropertyOp6
 70
     1
102
RTVSPropertyOp7
 70
     1
102
RTVSPropertyOp8
 70
     1
102
RTVSPropertyOp9
 70
     1
102
RTVSPropertyOp10
 70
     1
102
RTVSPropertyOp11
 70
     1
102
RTVSPropertyOp12
 70
     1
102
RTVSPropertyOp13
 70
     1
102
RTVSPropertyOp14
 70
     1
102
RTVSPropertyOp15
 70
     1
102
RTVSPropertyOp16
 70
     1
102
RTVSPropertyOp17
 70
     1
102
RTVSPropertyOp18
 70
     1
102
RTVSPropertyOp19
 70
     1
102
RTVSPropertyOp20
 70
     1
102
RTVSPropertyOp21
 70
     1
102
RTVSPropertyOp22
 70
     1
102
RTVSPropertyOp23
 70
     1
102
RTVSPropertyOp24
 70
     1
102
RTVSPropertyOp25
 70
     1
102
RTVSPropertyOp26
 70
     1
102
RTVSPropertyOp27
 70
     1
102
RTVSPropertyOp28
 70
     1
102
RTVSPropertyOp29
 70
     1
102
RTVSPropertyOp30
 70
     1
102
RTVSPropertyOp31
 70
     1
102
RTVSPropertyOp32
 70
     1
102
RTVSPropertyOp33
 70
     1
102
RTVSPropertyOp34
 70
     1
102
RTVSPropertyOp35
 70
     1
102
RTVSPropertyOp36
 70
     1
102
RTVSPropertyOp37
 70
     1
102
RTVSPropertyOp38
 70
     1
102
RTVSPropertyOp39
 70
     1
102
RTVSPropertyOp40
 70
     1
102
RTVSPropertyOp41
 70
     1
102
RTVSPropertyOp42
 70
     1
102
RTVSPropertyOp43
 70
     1
102
RTVSPropertyOp44
 70
     1
102
RTVSPropertyOp45
 70
     1
102
RTVSPropertyOp46
 70
     1
102
RTVSPropertyOp47
 70
     1
102
RTVSPropertyOp48
 70
     1
102
RTVSPropertyOp49
 70
     1
102
RTVSPropertyOp50
 70
     1
102
RTVSPropertyOp51
 70
     0
102
RTVSPropertyOp52
 70
     0
102
RTVSPropertyOp53
 70
     1
102
RTVSPropertyOp54
 70
     1
102
RTVSPropertyOp55
 70
     1
102
RTVSPropertyOp56
 70
     1
102
RTVSPropertyOp57
 70
     1
102
RTVSPost2010Prop28
280
     0
102
RTVSPost2010PropOp28
 70
     1
102
RTVSPost2010Prop29
280
     1
102
RTVSPost2010PropOp29
 70
     1
102
RTVSPost2010Prop30
280
     1
102
RTVSPost2010PropOp30
 70
     1
102
RTVSPost2010Prop31
280
     0
102
RTVSPost2010PropOp31
 70
     1
102
RTVSPost2010Prop32
280
     0
102
RTVSPost2010PropOp32
 70
     1
102
RTVSPost2010Prop33
280
     0
102
RTVSPost2010PropOp33
 70
     1
102
RTVSPost2010Prop34
280
     0
102
RTVSPost2010PropOp34
 70
     1
102
RTVSPost2010Prop35
280
     0
102
RTVSPost2010PropOp35
 70
     1
102
RTVSPost2010Prop36
280
     0
102
RTVSPost2010PropOp36
 70
     1
102
RTVSPost2010Prop37
 90
       50
102
RTVSPost2010PropOp37
 70
     1
102
RTVSPost2010Prop38
140
0.0
102
RTVSPost2010PropOp38
 70
     1
102
RTVSPost2010Prop39
140
1.0
102
RTVSPost2010PropOp39
 70
     1
102
RTVSPost2010Prop40
 90
        0
102
RTVSPost2010PropOp40
 70
     1
102
RTVSPost2010Prop41ColorIndex
 90
       18
102
RTVSPost2010Prop41ColorRGB
 90
        0
102
RTVSPost2010PropOp41
 70
     1
102
RTVSPost2010Prop42
 90
       50
102
RTVSPost2010PropOp42
 70
     1
102
RTVSPost2010Prop43
 90
        3
102
RTVSPost2010PropOp43
 70
     1
102
RTVSPost2010Prop44ColorIndex
 90
        5
102
RTVSPost2010Prop44ColorRGB
 90
      255
102
RTVSPost2010PropOp44
 70
     1
102
RTVSPost2010Prop45
280
     0
102
RTVSPost2010PropOp45
 70
     1
102
RTVSPost2010Prop46
 90
       50
102
RTVSPost2010PropOp46
 70
     1
102
RTVSPost2010Prop47
 90
       50
102
RTVSPost2010PropOp47
 70
     1
102
RTVSPost2010Prop48
 90
       50
102
RTVSPost2010PropOp48
 70
     1
102
RTVSPost2010Prop49
280
     0
102
RTVSPost2010PropOp49
 70
     1
102
RTVSPost2010Prop50
 90
       50
102
RTVSPost2010PropOp50
 70
     1
102
RTVSPost2010Prop51ColorIndex
 90
      256
102
RTVSPost2010Prop51ColorRGB
 90
-16777216
102
RTVSPost2010PropOp51
 70
     0
102
RTVSPost2010Prop52
140
1.0
102
RTVSPost2010PropOp52
 70
     0
102
RTVSPost2010Prop53
 90
        2
102
RTVSPost2010PropOp53
 70
     1
102
RTVSPost2010Prop54
  1
strokes_ogs.tif
102
RTVSPost2010PropOp54
 70
     1
102
RTVSPost2010Prop55
280
     0
102
RTVSPost2010PropOp55
 70
     1
102
RTVSPost2010Prop56
140
1.0
102
RTVSPost2010PropOp56
 70
     1
102
RTVSPost2010Prop57
140
1.0
102
RTVSPost2010PropOp57
 70
     1
  0
XRECORD
  5
554
102
{ACAD_REACTORS
330
553
102
}
330
553
100
AcDbXrecord
280
     1
102
RTVSPropertyOp0
 70
     1
102
RTVSPropertyOp1
 70
     1
102
RTVSPropertyOp2
 70
     1
102
RTVSPropertyOp3
 70
     1
102
RTVSPropertyOp4
 70
     1
102
RTVSPropertyOp5
 70
     1
102
RTVSPropertyOp6
 70
     1
102
RTVSPropertyOp7
 70
     1
102
RTVSPropertyOp8
 70
     1
102
RTVSPropertyOp9
 70
     1
102
RTVSPropertyOp10
 70
     1
102
RTVSPropertyOp11
 70
     1
102
RTVSPropertyOp12
 70
     1
102
RTVSPropertyOp13
 70
     1
102
RTVSPropertyOp14
 70
     1
102
RTVSPropertyOp15
 70
     1
102
RTVSPropertyOp16
 70
     1
102
RTVSPropertyOp17
 70
     1
102
RTVSPropertyOp18
 70
     1
102
RTVSPropertyOp19
 70
     1
102
RTVSPropertyOp20
 70
     1
102
RTVSPropertyOp21
 70
     1
102
RTVSPropertyOp22
 70
     1
102
RTVSPropertyOp23
 70
     1
102
RTVSPropertyOp24
 70
     1
102
RTVSPropertyOp25
 70
     1
102
RTVSPropertyOp26
 70
     1
102
RTVSPropertyOp27
 70
     1
102
RTVSPropertyOp28
 70
     1
102
RTVSPropertyOp29
 70
     1
102
RTVSPropertyOp30
 70
     1
102
RTVSPropertyOp31
 70
     1
102
RTVSPropertyOp32
 70
     1
102
RTVSPropertyOp33
 70
     1
102
RTVSPropertyOp34
 70
     1
102
RTVSPropertyOp35
 70
     1
102
RTVSPropertyOp36
 70
     1
102
RTVSPropertyOp37
 70
     1
102
RTVSPropertyOp38
 70
     1
102
RTVSPropertyOp39
 70
     1
102
RTVSPropertyOp40
 70
     1
102
RTVSPropertyOp41
 70
     1
102
RTVSPropertyOp42
 70
     1
102
RTVSPropertyOp43
 70
     1
102
RTVSPropertyOp44
 70
     1
102
RTVSPropertyOp45
 70
     1
102
RTVSPropertyOp46
 70
     1
102
RTVSPropertyOp47
 70
     1
102
RTVSPropertyOp48
 70
     1
102
RTVSPropertyOp49
 70
     1
102
RTVSPropertyOp50
 70
     1
102
RTVSPropertyOp51
 70
     0
102
RTVSPropertyOp52
 70
     0
102
RTVSPropertyOp53
 70
     1
102
RTVSPropertyOp54
 70
     1
102
RTVSPropertyOp55
 70
     1
102
RTVSPropertyOp56
 70
     1
102
RTVSPropertyOp57
 70
     1
102
RTVSPost2010Prop28
280
     0
102
RTVSPost2010PropOp28
 70
     1
102
RTVSPost2010Prop29
280
     1
102
RTVSPost2010PropOp29
 70
     1
102
RTVSPost2010Prop30
280
     1
102
RTVSPost2010PropOp30
 70
     1
102
RTVSPost2010Prop31
280
     0
102
RTVSPost2010PropOp31
 70
     1
102
RTVSPost2010Prop32
280
     0
102
RTVSPost2010PropOp32
 70
     1
102
RTVSPost2010Prop33
280
     0
102
RTVSPost2010PropOp33
 70
     1
102
RTVSPost2010Prop34
280
     0
102
RTVSPost2010PropOp34
 70
     1
102
RTVSPost2010Prop35
280
     0
102
RTVSPost2010PropOp35
 70
     1
102
RTVSPost2010Prop36
280
     0
102
RTVSPost2010PropOp36
 70
     1
102
RTVSPost2010Prop37
 90
       50
102
RTVSPost2010PropOp37
 70
     1
102
RTVSPost2010Prop38
140
0.0
102
RTVSPost2010PropOp38
 70
     1
102
RTVSPost2010Prop39
140
1.0
102
RTVSPost2010PropOp39
 70
     1
102
RTVSPost2010Prop40
 90
        0
102
RTVSPost2010PropOp40
 70
     1
102
RTVSPost2010Prop41ColorIndex
 90
       18
102
RTVSPost2010Prop41ColorRGB
 90
        0
102
RTVSPost2010PropOp41
 70
     1
102
RTVSPost2010Prop42
 90
       50
102
RTVSPost2010PropOp42
 70
     1
102
RTVSPost2010Prop43
 90
        3
102
RTVSPost2010PropOp43
 70
     1
102
RTVSPost2010Prop44ColorIndex
 90
        5
102
RTVSPost2010Prop44ColorRGB
 90
      255
102
RTVSPost2010PropOp44
 70
     1
102
RTVSPost2010Prop45
280
     0
102
RTVSPost2010PropOp45
 70
     1
102
RTVSPost2010Prop46
 90
       50
102
RTVSPost2010PropOp46
 70
     1
102
RTVSPost2010Prop47
 90
       50
102
RTVSPost2010PropOp47
 70
     1
102
RTVSPost2010Prop48
 90
       50
102
RTVSPost2010PropOp48
 70
     1
102
RTVSPost2010Prop49
280
     0
102
RTVSPost2010PropOp49
 70
     1
102
RTVSPost2010Prop50
 90
       50
102
RTVSPost2010PropOp50
 70
     1
102
RTVSPost2010Prop51ColorIndex
 90
      256
102
RTVSPost2010Prop51ColorRGB
 90
-16777216
102
RTVSPost2010PropOp51
 70
     0
102
RTVSPost2010Prop52
140
1.0
102
RTVSPost2010PropOp52
 70
     0
102
RTVSPost2010Prop53
 90
        2
102
RTVSPost2010PropOp53
 70
     1
102
RTVSPost2010Prop54
  1
strokes_ogs.tif
102
RTVSPost2010PropOp54
 70
     1
102
RTVSPost2010Prop55
280
     0
102
RTVSPost2010PropOp55
 70
     1
102
RTVSPost2010Prop56
140
1.0
102
RTVSPost2010PropOp56
 70
     1
102
RTVSPost2010Prop57
140
1.0
102
RTVSPost2010PropOp57
 70
     1
  0
XRECORD
  5
564
102
{ACAD_REACTORS
330
563
102
}
330
563
100
AcDbXrecord
280
     1
102
RTVSPropertyOp0
 70
     0
102
RTVSPropertyOp1
 70
     0
102
RTVSPropertyOp2
 70
     0
102
RTVSPropertyOp3
 70
     0
102
RTVSPropertyOp4
 70
     0
102
RTVSPropertyOp5
 70
     0
102
RTVSPropertyOp6
 70
     0
102
RTVSPropertyOp7
 70
     0
102
RTVSPropertyOp8
 70
     0
102
RTVSPropertyOp9
 70
     0
102
RTVSPropertyOp10
 70
     0
102
RTVSPropertyOp11
 70
     0
102
RTVSPropertyOp12
 70
     0
102
RTVSPropertyOp13
 70
     0
102
RTVSPropertyOp14
 70
     0
102
RTVSPropertyOp15
 70
     0
102
RTVSPropertyOp16
 70
     0
102
RTVSPropertyOp17
 70
     0
102
RTVSPropertyOp18
 70
     0
102
RTVSPropertyOp19
 70
     0
102
RTVSPropertyOp20
 70
     0
102
RTVSPropertyOp21
 70
     0
102
RTVSPropertyOp22
 70
     0
102
RTVSPropertyOp23
 70
     0
102
RTVSPropertyOp24
 70
     0
102
RTVSPropertyOp25
 70
     0
102
RTVSPropertyOp26
 70
     0
102
RTVSPropertyOp27
 70
     0
102
RTVSPropertyOp28
 70
     1
102
RTVSPropertyOp29
 70
     1
102
RTVSPropertyOp30
 70
     1
102
RTVSPropertyOp31
 70
     1
102
RTVSPropertyOp32
 70
     1
102
RTVSPropertyOp33
 70
     1
102
RTVSPropertyOp34
 70
     1
102
RTVSPropertyOp35
 70
     1
102
RTVSPropertyOp36
 70
     1
102
RTVSPropertyOp37
 70
     1
102
RTVSPropertyOp38
 70
     1
102
RTVSPropertyOp39
 70
     1
102
RTVSPropertyOp40
 70
     1
102
RTVSPropertyOp41
 70
     1
102
RTVSPropertyOp42
 70
     1
102
RTVSPropertyOp43
 70
     1
102
RTVSPropertyOp44
 70
     1
102
RTVSPropertyOp45
 70
     1
102
RTVSPropertyOp46
 70
     1
102
RTVSPropertyOp47
 70
     1
102
RTVSPropertyOp48
 70
     1
102
RTVSPropertyOp49
 70
     1
102
RTVSPropertyOp50
 70
     1
102
RTVSPropertyOp51
 70
     0
102
RTVSPropertyOp52
 70
     0
102
RTVSPropertyOp53
 70
     1
102
RTVSPropertyOp54
 70
     1
102
RTVSPropertyOp55
 70
     1
102
RTVSPropertyOp56
 70
     1
102
RTVSPropertyOp57
 70
     1
102
RTVSPost2010Prop28
280
     0
102
RTVSPost2010PropOp28
 70
     1
102
RTVSPost2010Prop29
280
     1
102
RTVSPost2010PropOp29
 70
     1
102
RTVSPost2010Prop30
280
     1
102
RTVSPost2010PropOp30
 70
     1
102
RTVSPost2010Prop31
280
     0
102
RTVSPost2010PropOp31
 70
     1
102
RTVSPost2010Prop32
280
     0
102
RTVSPost2010PropOp32
 70
     1
102
RTVSPost2010Prop33
280
     0
102
RTVSPost2010PropOp33
 70
     1
102
RTVSPost2010Prop34
280
     0
102
RTVSPost2010PropOp34
 70
     1
102
RTVSPost2010Prop35
280
     0
102
RTVSPost2010PropOp35
 70
     1
102
RTVSPost2010Prop36
280
     0
102
RTVSPost2010PropOp36
 70
     1
102
RTVSPost2010Prop37
 90
       50
102
RTVSPost2010PropOp37
 70
     1
102
RTVSPost2010Prop38
140
0.0
102
RTVSPost2010PropOp38
 70
     1
102
RTVSPost2010Prop39
140
1.0
102
RTVSPost2010PropOp39
 70
     1
102
RTVSPost2010Prop40
 90
        0
102
RTVSPost2010PropOp40
 70
     1
102
RTVSPost2010Prop41ColorIndex
 90
       18
102
RTVSPost2010Prop41ColorRGB
 90
        0
102
RTVSPost2010PropOp41
 70
     1
102
RTVSPost2010Prop42
 90
       50
102
RTVSPost2010PropOp42
 70
     1
102
RTVSPost2010Prop43
 90
        3
102
RTVSPost2010PropOp43
 70
     1
102
RTVSPost2010Prop44ColorIndex
 90
        5
102
RTVSPost2010Prop44ColorRGB
 90
      255
102
RTVSPost2010PropOp44
 70
     1
102
RTVSPost2010Prop45
280
     0
102
RTVSPost2010PropOp45
 70
     1
102
RTVSPost2010Prop46
 90
       50
102
RTVSPost2010PropOp46
 70
     1
102
RTVSPost2010Prop47
 90
       50
102
RTVSPost2010PropOp47
 70
     1
102
RTVSPost2010Prop48
 90
       50
102
RTVSPost2010PropOp48
 70
     1
102
RTVSPost2010Prop49
280
     0
102
RTVSPost2010PropOp49
 70
     1
102
RTVSPost2010Prop50
 90
       50
102
RTVSPost2010PropOp50
 70
     1
102
RTVSPost2010Prop51ColorIndex
 90
      256
102
RTVSPost2010Prop51ColorRGB
 90
-16777216
102
RTVSPost2010PropOp51
 70
     0
102
RTVSPost2010Prop52
140
1.0
102
RTVSPost2010PropOp52
 70
     0
102
RTVSPost2010Prop53
 90
        2
102
RTVSPost2010PropOp53
 70
     1
102
RTVSPost2010Prop54
  1
strokes_ogs.tif
102
RTVSPost2010PropOp54
 70
     1
102
RTVSPost2010Prop55
280
     0
102
RTVSPost2010PropOp55
 70
     1
102
RTVSPost2010Prop56
140
1.0
102
RTVSPost2010PropOp56
 70
     1
102
RTVSPost2010Prop57
140
1.0
102
RTVSPost2010PropOp57
 70
     1
  0
XRECORD
  5
55C
102
{ACAD_REACTORS
330
55B
102
}
330
55B
100
AcDbXrecord
280
     1
102
RTVSPropertyOp0
 70
     1
102
RTVSPropertyOp1
 70
     1
102
RTVSPropertyOp2
 70
     1
102
RTVSPropertyOp3
 70
     1
102
RTVSPropertyOp4
 70
     1
102
RTVSPropertyOp5
 70
     1
102
RTVSPropertyOp6
 70
     1
102
RTVSPropertyOp7
 70
     1
102
RTVSPropertyOp8
 70
     1
102
RTVSPropertyOp9
 70
     1
102
RTVSPropertyOp10
 70
     1
102
RTVSPropertyOp11
 70
     1
102
RTVSPropertyOp12
 70
     1
102
RTVSPropertyOp13
 70
     1
102
RTVSPropertyOp14
 70
     1
102
RTVSPropertyOp15
 70
     1
102
RTVSPropertyOp16
 70
     1
102
RTVSPropertyOp17
 70
     1
102
RTVSPropertyOp18
 70
     1
102
RTVSPropertyOp19
 70
     1
102
RTVSPropertyOp20
 70
     1
102
RTVSPropertyOp21
 70
     1
102
RTVSPropertyOp22
 70
     1
102
RTVSPropertyOp23
 70
     1
102
RTVSPropertyOp24
 70
     1
102
RTVSPropertyOp25
 70
     1
102
RTVSPropertyOp26
 70
     1
102
RTVSPropertyOp27
 70
     1
102
RTVSPropertyOp28
 70
     1
102
RTVSPropertyOp29
 70
     1
102
RTVSPropertyOp30
 70
     1
102
RTVSPropertyOp31
 70
     1
102
RTVSPropertyOp32
 70
     1
102
RTVSPropertyOp33
 70
     1
102
RTVSPropertyOp34
 70
     1
102
RTVSPropertyOp35
 70
     1
102
RTVSPropertyOp36
 70
     1
102
RTVSPropertyOp37
 70
     1
102
RTVSPropertyOp38
 70
     1
102
RTVSPropertyOp39
 70
     1
102
RTVSPropertyOp40
 70
     1
102
RTVSPropertyOp41
 70
     1
102
RTVSPropertyOp42
 70
     1
102
RTVSPropertyOp43
 70
     1
102
RTVSPropertyOp44
 70
     1
102
RTVSPropertyOp45
 70
     1
102
RTVSPropertyOp46
 70
     1
102
RTVSPropertyOp47
 70
     1
102
RTVSPropertyOp48
 70
     1
102
RTVSPropertyOp49
 70
     1
102
RTVSPropertyOp50
 70
     1
102
RTVSPropertyOp51
 70
     0
102
RTVSPropertyOp52
 70
     0
102
RTVSPropertyOp53
 70
     1
102
RTVSPropertyOp54
 70
     1
102
RTVSPropertyOp55
 70
     1
102
RTVSPropertyOp56
 70
     1
102
RTVSPropertyOp57
 70
     1
102
RTVSPost2010Prop28
280
     0
102
RTVSPost2010PropOp28
 70
     1
102
RTVSPost2010Prop29
280
     1
102
RTVSPost2010PropOp29
 70
     1
102
RTVSPost2010Prop30
280
     1
102
RTVSPost2010PropOp30
 70
     1
102
RTVSPost2010Prop31
280
     0
102
RTVSPost2010PropOp31
 70
     1
102
RTVSPost2010Prop32
280
     0
102
RTVSPost2010PropOp32
 70
     1
102
RTVSPost2010Prop33
280
     0
102
RTVSPost2010PropOp33
 70
     1
102
RTVSPost2010Prop34
280
     0
102
RTVSPost2010PropOp34
 70
     1
102
RTVSPost2010Prop35
280
     0
102
RTVSPost2010PropOp35
 70
     1
102
RTVSPost2010Prop36
280
     0
102
RTVSPost2010PropOp36
 70
     1
102
RTVSPost2010Prop37
 90
       50
102
RTVSPost2010PropOp37
 70
     1
102
RTVSPost2010Prop38
140
0.0
102
RTVSPost2010PropOp38
 70
     1
102
RTVSPost2010Prop39
140
1.0
102
RTVSPost2010PropOp39
 70
     1
102
RTVSPost2010Prop40
 90
        0
102
RTVSPost2010PropOp40
 70
     1
102
RTVSPost2010Prop41ColorIndex
 90
       18
102
RTVSPost2010Prop41ColorRGB
 90
        0
102
RTVSPost2010PropOp41
 70
     1
102
RTVSPost2010Prop42
 90
       50
102
RTVSPost2010PropOp42
 70
     1
102
RTVSPost2010Prop43
 90
        3
102
RTVSPost2010PropOp43
 70
     1
102
RTVSPost2010Prop44ColorIndex
 90
        5
102
RTVSPost2010Prop44ColorRGB
 90
      255
102
RTVSPost2010PropOp44
 70
     1
102
RTVSPost2010Prop45
280
     0
102
RTVSPost2010PropOp45
 70
     1
102
RTVSPost2010Prop46
 90
       50
102
RTVSPost2010PropOp46
 70
     1
102
RTVSPost2010Prop47
 90
       50
102
RTVSPost2010PropOp47
 70
     1
102
RTVSPost2010Prop48
 90
       50
102
RTVSPost2010PropOp48
 70
     1
102
RTVSPost2010Prop49
280
     0
102
RTVSPost2010PropOp49
 70
     1
102
RTVSPost2010Prop50
 90
       50
102
RTVSPost2010PropOp50
 70
     1
102
RTVSPost2010Prop51ColorIndex
 90
      256
102
RTVSPost2010Prop51ColorRGB
 90
-16777216
102
RTVSPost2010PropOp51
 70
     0
102
RTVSPost2010Prop52
140
1.0
102
RTVSPost2010PropOp52
 70
     0
102
RTVSPost2010Prop53
 90
        2
102
RTVSPost2010PropOp53
 70
     1
102
RTVSPost2010Prop54
  1
strokes_ogs.tif
102
RTVSPost2010PropOp54
 70
     1
102
RTVSPost2010Prop55
280
     0
102
RTVSPost2010PropOp55
 70
     1
102
RTVSPost2010Prop56
140
1.0
102
RTVSPost2010PropOp56
 70
     1
102
RTVSPost2010Prop57
140
1.0
102
RTVSPost2010PropOp57
 70
     1
  0
XRECORD
  5
540
102
{ACAD_REACTORS
330
53F
102
}
330
53F
100
AcDbXrecord
280
     1
102
RTVSPropertyOp0
 70
     1
102
RTVSPropertyOp1
 70
     1
102
RTVSPropertyOp2
 70
     1
102
RTVSPropertyOp3
 70
     1
102
RTVSPropertyOp4
 70
     1
102
RTVSPropertyOp5
 70
     1
102
RTVSPropertyOp6
 70
     1
102
RTVSPropertyOp7
 70
     1
102
RTVSPropertyOp8
 70
     1
102
RTVSPropertyOp9
 70
     1
102
RTVSPropertyOp10
 70
     1
102
RTVSPropertyOp11
 70
     1
102
RTVSPropertyOp12
 70
     1
102
RTVSPropertyOp13
 70
     1
102
RTVSPropertyOp14
 70
     1
102
RTVSPropertyOp15
 70
     1
102
RTVSPropertyOp16
 70
     1
102
RTVSPropertyOp17
 70
     1
102
RTVSPropertyOp18
 70
     1
102
RTVSPropertyOp19
 70
     1
102
RTVSPropertyOp20
 70
     1
102
RTVSPropertyOp21
 70
     1
102
RTVSPropertyOp22
 70
     1
102
RTVSPropertyOp23
 70
     1
102
RTVSPropertyOp24
 70
     1
102
RTVSPropertyOp25
 70
     1
102
RTVSPropertyOp26
 70
     1
102
RTVSPropertyOp27
 70
     1
102
RTVSPropertyOp28
 70
     1
102
RTVSPropertyOp29
 70
     1
102
RTVSPropertyOp30
 70
     1
102
RTVSPropertyOp31
 70
     1
102
RTVSPropertyOp32
 70
     1
102
RTVSPropertyOp33
 70
     1
102
RTVSPropertyOp34
 70
     1
102
RTVSPropertyOp35
 70
     1
102
RTVSPropertyOp36
 70
     1
102
RTVSPropertyOp37
 70
     1
102
RTVSPropertyOp38
 70
     1
102
RTVSPropertyOp39
 70
     1
102
RTVSPropertyOp40
 70
     1
102
RTVSPropertyOp41
 70
     1
102
RTVSPropertyOp42
 70
     1
102
RTVSPropertyOp43
 70
     1
102
RTVSPropertyOp44
 70
     1
102
RTVSPropertyOp45
 70
     1
102
RTVSPropertyOp46
 70
     1
102
RTVSPropertyOp47
 70
     1
102
RTVSPropertyOp48
 70
     1
102
RTVSPropertyOp49
 70
     1
102
RTVSPropertyOp50
 70
     1
102
RTVSPropertyOp51
 70
     0
102
RTVSPropertyOp52
 70
     0
102
RTVSPropertyOp53
 70
     1
102
RTVSPropertyOp54
 70
     1
102
RTVSPropertyOp55
 70
     1
102
RTVSPropertyOp56
 70
     1
102
RTVSPropertyOp57
 70
     1
102
RTVSPost2010Prop28
280
     0
102
RTVSPost2010PropOp28
 70
     1
102
RTVSPost2010Prop29
280
     1
102
RTVSPost2010PropOp29
 70
     1
102
RTVSPost2010Prop30
280
     1
102
RTVSPost2010PropOp30
 70
     1
102
RTVSPost2010Prop31
280
     0
102
RTVSPost2010PropOp31
 70
     1
102
RTVSPost2010Prop32
280
     0
102
RTVSPost2010PropOp32
 70
     1
102
RTVSPost2010Prop33
280
     0
102
RTVSPost2010PropOp33
 70
     1
102
RTVSPost2010Prop34
280
     0
102
RTVSPost2010PropOp34
 70
     1
102
RTVSPost2010Prop35
280
     0
102
RTVSPost2010PropOp35
 70
     1
102
RTVSPost2010Prop36
280
     0
102
RTVSPost2010PropOp36
 70
     1
102
RTVSPost2010Prop37
 90
       50
102
RTVSPost2010PropOp37
 70
     1
102
RTVSPost2010Prop38
140
0.0
102
RTVSPost2010PropOp38
 70
     1
102
RTVSPost2010Prop39
140
1.0
102
RTVSPost2010PropOp39
 70
     1
102
RTVSPost2010Prop40
 90
        0
102
RTVSPost2010PropOp40
 70
     1
102
RTVSPost2010Prop41ColorIndex
 90
       18
102
RTVSPost2010Prop41ColorRGB
 90
        0
102
RTVSPost2010PropOp41
 70
     1
102
RTVSPost2010Prop42
 90
       50
102
RTVSPost2010PropOp42
 70
     1
102
RTVSPost2010Prop43
 90
        3
102
RTVSPost2010PropOp43
 70
     1
102
RTVSPost2010Prop44ColorIndex
 90
        5
102
RTVSPost2010Prop44ColorRGB
 90
      255
102
RTVSPost2010PropOp44
 70
     1
102
RTVSPost2010Prop45
280
     0
102
RTVSPost2010PropOp45
 70
     1
102
RTVSPost2010Prop46
 90
       50
102
RTVSPost2010PropOp46
 70
     1
102
RTVSPost2010Prop47
 90
       50
102
RTVSPost2010PropOp47
 70
     1
102
RTVSPost2010Prop48
 90
       50
102
RTVSPost2010PropOp48
 70
     1
102
RTVSPost2010Prop49
280
     0
102
RTVSPost2010PropOp49
 70
     1
102
RTVSPost2010Prop50
 90
       50
102
RTVSPost2010PropOp50
 70
     1
102
RTVSPost2010Prop51ColorIndex
 90
      256
102
RTVSPost2010Prop51ColorRGB
 90
-16777216
102
RTVSPost2010PropOp51
 70
     0
102
RTVSPost2010Prop52
140
1.0
102
RTVSPost2010PropOp52
 70
     0
102
RTVSPost2010Prop53
 90
        2
102
RTVSPost2010PropOp53
 70
     1
102
RTVSPost2010Prop54
  1
strokes_ogs.tif
102
RTVSPost2010PropOp54
 70
     1
102
RTVSPost2010Prop55
280
     0
102
RTVSPost2010PropOp55
 70
     1
102
RTVSPost2010Prop56
140
1.0
102
RTVSPost2010PropOp56
 70
     1
102
RTVSPost2010Prop57
140
1.0
102
RTVSPost2010PropOp57
 70
     1
  0
XRECORD
  5
542
102
{ACAD_REACTORS
330
541
102
}
330
541
100
AcDbXrecord
280
     1
102
RTVSPropertyOp0
 70
     1
102
RTVSPropertyOp1
 70
     1
102
RTVSPropertyOp2
 70
     1
102
RTVSPropertyOp3
 70
     1
102
RTVSPropertyOp4
 70
     1
102
RTVSPropertyOp5
 70
     1
102
RTVSPropertyOp6
 70
     1
102
RTVSPropertyOp7
 70
     1
102
RTVSPropertyOp8
 70
     1
102
RTVSPropertyOp9
 70
     1
102
RTVSPropertyOp10
 70
     1
102
RTVSPropertyOp11
 70
     1
102
RTVSPropertyOp12
 70
     1
102
RTVSPropertyOp13
 70
     1
102
RTVSPropertyOp14
 70
     1
102
RTVSPropertyOp15
 70
     1
102
RTVSPropertyOp16
 70
     1
102
RTVSPropertyOp17
 70
     1
102
RTVSPropertyOp18
 70
     1
102
RTVSPropertyOp19
 70
     1
102
RTVSPropertyOp20
 70
     1
102
RTVSPropertyOp21
 70
     1
102
RTVSPropertyOp22
 70
     1
102
RTVSPropertyOp23
 70
     1
102
RTVSPropertyOp24
 70
     1
102
RTVSPropertyOp25
 70
     1
102
RTVSPropertyOp26
 70
     1
102
RTVSPropertyOp27
 70
     1
102
RTVSPropertyOp28
 70
     1
102
RTVSPropertyOp29
 70
     1
102
RTVSPropertyOp30
 70
     1
102
RTVSPropertyOp31
 70
     1
102
RTVSPropertyOp32
 70
     1
102
RTVSPropertyOp33
 70
     1
102
RTVSPropertyOp34
 70
     1
102
RTVSPropertyOp35
 70
     1
102
RTVSPropertyOp36
 70
     1
102
RTVSPropertyOp37
 70
     1
102
RTVSPropertyOp38
 70
     1
102
RTVSPropertyOp39
 70
     1
102
RTVSPropertyOp40
 70
     1
102
RTVSPropertyOp41
 70
     1
102
RTVSPropertyOp42
 70
     1
102
RTVSPropertyOp43
 70
     1
102
RTVSPropertyOp44
 70
     1
102
RTVSPropertyOp45
 70
     1
102
RTVSPropertyOp46
 70
     1
102
RTVSPropertyOp47
 70
     1
102
RTVSPropertyOp48
 70
     1
102
RTVSPropertyOp49
 70
     1
102
RTVSPropertyOp50
 70
     1
102
RTVSPropertyOp51
 70
     0
102
RTVSPropertyOp52
 70
     0
102
RTVSPropertyOp53
 70
     1
102
RTVSPropertyOp54
 70
     1
102
RTVSPropertyOp55
 70
     1
102
RTVSPropertyOp56
 70
     1
102
RTVSPropertyOp57
 70
     1
102
RTVSPost2010Prop28
280
     0
102
RTVSPost2010PropOp28
 70
     1
102
RTVSPost2010Prop29
280
     1
102
RTVSPost2010PropOp29
 70
     1
102
RTVSPost2010Prop30
280
     1
102
RTVSPost2010PropOp30
 70
     1
102
RTVSPost2010Prop31
280
     0
102
RTVSPost2010PropOp31
 70
     1
102
RTVSPost2010Prop32
280
     0
102
RTVSPost2010PropOp32
 70
     1
102
RTVSPost2010Prop33
280
     0
102
RTVSPost2010PropOp33
 70
     1
102
RTVSPost2010Prop34
280
     0
102
RTVSPost2010PropOp34
 70
     1
102
RTVSPost2010Prop35
280
     0
102
RTVSPost2010PropOp35
 70
     1
102
RTVSPost2010Prop36
280
     0
102
RTVSPost2010PropOp36
 70
     1
102
RTVSPost2010Prop37
 90
       50
102
RTVSPost2010PropOp37
 70
     1
102
RTVSPost2010Prop38
140
0.0
102
RTVSPost2010PropOp38
 70
     1
102
RTVSPost2010Prop39
140
1.0
102
RTVSPost2010PropOp39
 70
     1
102
RTVSPost2010Prop40
 90
        0
102
RTVSPost2010PropOp40
 70
     1
102
RTVSPost2010Prop41ColorIndex
 90
       18
102
RTVSPost2010Prop41ColorRGB
 90
        0
102
RTVSPost2010PropOp41
 70
     1
102
RTVSPost2010Prop42
 90
       50
102
RTVSPost2010PropOp42
 70
     1
102
RTVSPost2010Prop43
 90
        3
102
RTVSPost2010PropOp43
 70
     1
102
RTVSPost2010Prop44ColorIndex
 90
        5
102
RTVSPost2010Prop44ColorRGB
 90
      255
102
RTVSPost2010PropOp44
 70
     1
102
RTVSPost2010Prop45
280
     0
102
RTVSPost2010PropOp45
 70
     1
102
RTVSPost2010Prop46
 90
       50
102
RTVSPost2010PropOp46
 70
     1
102
RTVSPost2010Prop47
 90
       50
102
RTVSPost2010PropOp47
 70
     1
102
RTVSPost2010Prop48
 90
       50
102
RTVSPost2010PropOp48
 70
     1
102
RTVSPost2010Prop49
280
     0
102
RTVSPost2010PropOp49
 70
     1
102
RTVSPost2010Prop50
 90
       50
102
RTVSPost2010PropOp50
 70
     1
102
RTVSPost2010Prop51ColorIndex
 90
      256
102
RTVSPost2010Prop51ColorRGB
 90
-16777216
102
RTVSPost2010PropOp51
 70
     0
102
RTVSPost2010Prop52
140
1.0
102
RTVSPost2010PropOp52
 70
     0
102
RTVSPost2010Prop53
 90
        2
102
RTVSPost2010PropOp53
 70
     1
102
RTVSPost2010Prop54
  1
strokes_ogs.tif
102
RTVSPost2010PropOp54
 70
     1
102
RTVSPost2010Prop55
280
     0
102
RTVSPost2010PropOp55
 70
     1
102
RTVSPost2010Prop56
140
1.0
102
RTVSPost2010PropOp56
 70
     1
102
RTVSPost2010Prop57
140
1.0
102
RTVSPost2010PropOp57
 70
     1
  0
XRECORD
  5
544
102
{ACAD_REACTORS
330
543
102
}
330
543
100
AcDbXrecord
280
     1
102
RTVSPropertyOp0
 70
     1
102
RTVSPropertyOp1
 70
     1
102
RTVSPropertyOp2
 70
     1
102
RTVSPropertyOp3
 70
     1
102
RTVSPropertyOp4
 70
     1
102
RTVSPropertyOp5
 70
     1
102
RTVSPropertyOp6
 70
     1
102
RTVSPropertyOp7
 70
     1
102
RTVSPropertyOp8
 70
     1
102
RTVSPropertyOp9
 70
     1
102
RTVSPropertyOp10
 70
     1
102
RTVSPropertyOp11
 70
     1
102
RTVSPropertyOp12
 70
     1
102
RTVSPropertyOp13
 70
     1
102
RTVSPropertyOp14
 70
     1
102
RTVSPropertyOp15
 70
     1
102
RTVSPropertyOp16
 70
     1
102
RTVSPropertyOp17
 70
     1
102
RTVSPropertyOp18
 70
     1
102
RTVSPropertyOp19
 70
     1
102
RTVSPropertyOp20
 70
     1
102
RTVSPropertyOp21
 70
     1
102
RTVSPropertyOp22
 70
     1
102
RTVSPropertyOp23
 70
     1
102
RTVSPropertyOp24
 70
     1
102
RTVSPropertyOp25
 70
     1
102
RTVSPropertyOp26
 70
     1
102
RTVSPropertyOp27
 70
     1
102
RTVSPropertyOp28
 70
     1
102
RTVSPropertyOp29
 70
     1
102
RTVSPropertyOp30
 70
     1
102
RTVSPropertyOp31
 70
     1
102
RTVSPropertyOp32
 70
     1
102
RTVSPropertyOp33
 70
     1
102
RTVSPropertyOp34
 70
     1
102
RTVSPropertyOp35
 70
     1
102
RTVSPropertyOp36
 70
     1
102
RTVSPropertyOp37
 70
     1
102
RTVSPropertyOp38
 70
     1
102
RTVSPropertyOp39
 70
     1
102
RTVSPropertyOp40
 70
     1
102
RTVSPropertyOp41
 70
     1
102
RTVSPropertyOp42
 70
     1
102
RTVSPropertyOp43
 70
     1
102
RTVSPropertyOp44
 70
     1
102
RTVSPropertyOp45
 70
     1
102
RTVSPropertyOp46
 70
     1
102
RTVSPropertyOp47
 70
     1
102
RTVSPropertyOp48
 70
     1
102
RTVSPropertyOp49
 70
     1
102
RTVSPropertyOp50
 70
     1
102
RTVSPropertyOp51
 70
     0
102
RTVSPropertyOp52
 70
     0
102
RTVSPropertyOp53
 70
     1
102
RTVSPropertyOp54
 70
     1
102
RTVSPropertyOp55
 70
     1
102
RTVSPropertyOp56
 70
     1
102
RTVSPropertyOp57
 70
     1
102
RTVSPost2010Prop28
280
     0
102
RTVSPost2010PropOp28
 70
     1
102
RTVSPost2010Prop29
280
     1
102
RTVSPost2010PropOp29
 70
     1
102
RTVSPost2010Prop30
280
     1
102
RTVSPost2010PropOp30
 70
     1
102
RTVSPost2010Prop31
280
     0
102
RTVSPost2010PropOp31
 70
     1
102
RTVSPost2010Prop32
280
     0
102
RTVSPost2010PropOp32
 70
     1
102
RTVSPost2010Prop33
280
     0
102
RTVSPost2010PropOp33
 70
     1
102
RTVSPost2010Prop34
280
     0
102
RTVSPost2010PropOp34
 70
     1
102
RTVSPost2010Prop35
280
     0
102
RTVSPost2010PropOp35
 70
     1
102
RTVSPost2010Prop36
280
     0
102
RTVSPost2010PropOp36
 70
     1
102
RTVSPost2010Prop37
 90
       50
102
RTVSPost2010PropOp37
 70
     1
102
RTVSPost2010Prop38
140
0.0
102
RTVSPost2010PropOp38
 70
     1
102
RTVSPost2010Prop39
140
1.0
102
RTVSPost2010PropOp39
 70
     1
102
RTVSPost2010Prop40
 90
        0
102
RTVSPost2010PropOp40
 70
     1
102
RTVSPost2010Prop41ColorIndex
 90
       18
102
RTVSPost2010Prop41ColorRGB
 90
        0
102
RTVSPost2010PropOp41
 70
     1
102
RTVSPost2010Prop42
 90
       50
102
RTVSPost2010PropOp42
 70
     1
102
RTVSPost2010Prop43
 90
        3
102
RTVSPost2010PropOp43
 70
     1
102
RTVSPost2010Prop44ColorIndex
 90
        5
102
RTVSPost2010Prop44ColorRGB
 90
      255
102
RTVSPost2010PropOp44
 70
     1
102
RTVSPost2010Prop45
280
     0
102
RTVSPost2010PropOp45
 70
     1
102
RTVSPost2010Prop46
 90
       50
102
RTVSPost2010PropOp46
 70
     1
102
RTVSPost2010Prop47
 90
       50
102
RTVSPost2010PropOp47
 70
     1
102
RTVSPost2010Prop48
 90
       50
102
RTVSPost2010PropOp48
 70
     1
102
RTVSPost2010Prop49
280
     0
102
RTVSPost2010PropOp49
 70
     1
102
RTVSPost2010Prop50
 90
       50
102
RTVSPost2010PropOp50
 70
     1
102
RTVSPost2010Prop51ColorIndex
 90
      256
102
RTVSPost2010Prop51ColorRGB
 90
-16777216
102
RTVSPost2010PropOp51
 70
     0
102
RTVSPost2010Prop52
140
1.0
102
RTVSPost2010PropOp52
 70
     0
102
RTVSPost2010Prop53
 90
        2
102
RTVSPost2010PropOp53
 70
     1
102
RTVSPost2010Prop54
  1
strokes_ogs.tif
102
RTVSPost2010PropOp54
 70
     1
102
RTVSPost2010Prop55
280
     0
102
RTVSPost2010PropOp55
 70
     1
102
RTVSPost2010Prop56
140
1.0
102
RTVSPost2010PropOp56
 70
     1
102
RTVSPost2010Prop57
140
1.0
102
RTVSPost2010PropOp57
 70
     1
  0
XRECORD
  5
546
102
{ACAD_REACTORS
330
545
102
}
330
545
100
AcDbXrecord
280
     1
102
RTVSPropertyOp0
 70
     1
102
RTVSPropertyOp1
 70
     1
102
RTVSPropertyOp2
 70
     1
102
RTVSPropertyOp3
 70
     1
102
RTVSPropertyOp4
 70
     1
102
RTVSPropertyOp5
 70
     1
102
RTVSPropertyOp6
 70
     1
102
RTVSPropertyOp7
 70
     1
102
RTVSPropertyOp8
 70
     1
102
RTVSPropertyOp9
 70
     1
102
RTVSPropertyOp10
 70
     1
102
RTVSPropertyOp11
 70
     1
102
RTVSPropertyOp12
 70
     1
102
RTVSPropertyOp13
 70
     1
102
RTVSPropertyOp14
 70
     1
102
RTVSPropertyOp15
 70
     1
102
RTVSPropertyOp16
 70
     1
102
RTVSPropertyOp17
 70
     1
102
RTVSPropertyOp18
 70
     1
102
RTVSPropertyOp19
 70
     1
102
RTVSPropertyOp20
 70
     1
102
RTVSPropertyOp21
 70
     1
102
RTVSPropertyOp22
 70
     1
102
RTVSPropertyOp23
 70
     1
102
RTVSPropertyOp24
 70
     1
102
RTVSPropertyOp25
 70
     1
102
RTVSPropertyOp26
 70
     1
102
RTVSPropertyOp27
 70
     1
102
RTVSPropertyOp28
 70
     1
102
RTVSPropertyOp29
 70
     1
102
RTVSPropertyOp30
 70
     1
102
RTVSPropertyOp31
 70
     1
102
RTVSPropertyOp32
 70
     1
102
RTVSPropertyOp33
 70
     1
102
RTVSPropertyOp34
 70
     1
102
RTVSPropertyOp35
 70
     1
102
RTVSPropertyOp36
 70
     1
102
RTVSPropertyOp37
 70
     1
102
RTVSPropertyOp38
 70
     1
102
RTVSPropertyOp39
 70
     1
102
RTVSPropertyOp40
 70
     1
102
RTVSPropertyOp41
 70
     1
102
RTVSPropertyOp42
 70
     1
102
RTVSPropertyOp43
 70
     1
102
RTVSPropertyOp44
 70
     1
102
RTVSPropertyOp45
 70
     1
102
RTVSPropertyOp46
 70
     1
102
RTVSPropertyOp47
 70
     1
102
RTVSPropertyOp48
 70
     1
102
RTVSPropertyOp49
 70
     1
102
RTVSPropertyOp50
 70
     1
102
RTVSPropertyOp51
 70
     0
102
RTVSPropertyOp52
 70
     0
102
RTVSPropertyOp53
 70
     1
102
RTVSPropertyOp54
 70
     1
102
RTVSPropertyOp55
 70
     1
102
RTVSPropertyOp56
 70
     1
102
RTVSPropertyOp57
 70
     1
102
RTVSPost2010Prop28
280
     0
102
RTVSPost2010PropOp28
 70
     1
102
RTVSPost2010Prop29
280
     1
102
RTVSPost2010PropOp29
 70
     1
102
RTVSPost2010Prop30
280
     1
102
RTVSPost2010PropOp30
 70
     1
102
RTVSPost2010Prop31
280
     0
102
RTVSPost2010PropOp31
 70
     1
102
RTVSPost2010Prop32
280
     0
102
RTVSPost2010PropOp32
 70
     1
102
RTVSPost2010Prop33
280
     0
102
RTVSPost2010PropOp33
 70
     1
102
RTVSPost2010Prop34
280
     0
102
RTVSPost2010PropOp34
 70
     1
102
RTVSPost2010Prop35
280
     0
102
RTVSPost2010PropOp35
 70
     1
102
RTVSPost2010Prop36
280
     0
102
RTVSPost2010PropOp36
 70
     1
102
RTVSPost2010Prop37
 90
       50
102
RTVSPost2010PropOp37
 70
     1
102
RTVSPost2010Prop38
140
0.0
102
RTVSPost2010PropOp38
 70
     1
102
RTVSPost2010Prop39
140
1.0
102
RTVSPost2010PropOp39
 70
     1
102
RTVSPost2010Prop40
 90
        0
102
RTVSPost2010PropOp40
 70
     1
102
RTVSPost2010Prop41ColorIndex
 90
       18
102
RTVSPost2010Prop41ColorRGB
 90
        0
102
RTVSPost2010PropOp41
 70
     1
102
RTVSPost2010Prop42
 90
       50
102
RTVSPost2010PropOp42
 70
     1
102
RTVSPost2010Prop43
 90
        3
102
RTVSPost2010PropOp43
 70
     1
102
RTVSPost2010Prop44ColorIndex
 90
        5
102
RTVSPost2010Prop44ColorRGB
 90
      255
102
RTVSPost2010PropOp44
 70
     1
102
RTVSPost2010Prop45
280
     0
102
RTVSPost2010PropOp45
 70
     1
102
RTVSPost2010Prop46
 90
       50
102
RTVSPost2010PropOp46
 70
     1
102
RTVSPost2010Prop47
 90
       50
102
RTVSPost2010PropOp47
 70
     1
102
RTVSPost2010Prop48
 90
       50
102
RTVSPost2010PropOp48
 70
     1
102
RTVSPost2010Prop49
280
     0
102
RTVSPost2010PropOp49
 70
     1
102
RTVSPost2010Prop50
 90
       50
102
RTVSPost2010PropOp50
 70
     1
102
RTVSPost2010Prop51ColorIndex
 90
      256
102
RTVSPost2010Prop51ColorRGB
 90
-16777216
102
RTVSPost2010PropOp51
 70
     0
102
RTVSPost2010Prop52
140
1.0
102
RTVSPost2010PropOp52
 70
     0
102
RTVSPost2010Prop53
 90
        2
102
RTVSPost2010PropOp53
 70
     1
102
RTVSPost2010Prop54
  1
strokes_ogs.tif
102
RTVSPost2010PropOp54
 70
     1
102
RTVSPost2010Prop55
280
     0
102
RTVSPost2010PropOp55
 70
     1
102
RTVSPost2010Prop56
140
1.0
102
RTVSPost2010PropOp56
 70
     1
102
RTVSPost2010Prop57
140
1.0
102
RTVSPost2010PropOp57
 70
     1
  0
XRECORD
  5
54C
102
{ACAD_REACTORS
330
54B
102
}
330
54B
100
AcDbXrecord
280
     1
102
RTVSPropertyOp0
 70
     1
102
RTVSPropertyOp1
 70
     1
102
RTVSPropertyOp2
 70
     1
102
RTVSPropertyOp3
 70
     1
102
RTVSPropertyOp4
 70
     1
102
RTVSPropertyOp5
 70
     1
102
RTVSPropertyOp6
 70
     1
102
RTVSPropertyOp7
 70
     1
102
RTVSPropertyOp8
 70
     1
102
RTVSPropertyOp9
 70
     1
102
RTVSPropertyOp10
 70
     1
102
RTVSPropertyOp11
 70
     1
102
RTVSPropertyOp12
 70
     1
102
RTVSPropertyOp13
 70
     1
102
RTVSPropertyOp14
 70
     1
102
RTVSPropertyOp15
 70
     1
102
RTVSPropertyOp16
 70
     1
102
RTVSPropertyOp17
 70
     1
102
RTVSPropertyOp18
 70
     1
102
RTVSPropertyOp19
 70
     1
102
RTVSPropertyOp20
 70
     1
102
RTVSPropertyOp21
 70
     1
102
RTVSPropertyOp22
 70
     1
102
RTVSPropertyOp23
 70
     1
102
RTVSPropertyOp24
 70
     1
102
RTVSPropertyOp25
 70
     1
102
RTVSPropertyOp26
 70
     1
102
RTVSPropertyOp27
 70
     1
102
RTVSPropertyOp28
 70
     1
102
RTVSPropertyOp29
 70
     1
102
RTVSPropertyOp30
 70
     1
102
RTVSPropertyOp31
 70
     1
102
RTVSPropertyOp32
 70
     1
102
RTVSPropertyOp33
 70
     1
102
RTVSPropertyOp34
 70
     1
102
RTVSPropertyOp35
 70
     1
102
RTVSPropertyOp36
 70
     1
102
RTVSPropertyOp37
 70
     1
102
RTVSPropertyOp38
 70
     1
102
RTVSPropertyOp39
 70
     1
102
RTVSPropertyOp40
 70
     1
102
RTVSPropertyOp41
 70
     1
102
RTVSPropertyOp42
 70
     1
102
RTVSPropertyOp43
 70
     1
102
RTVSPropertyOp44
 70
     1
102
RTVSPropertyOp45
 70
     1
102
RTVSPropertyOp46
 70
     1
102
RTVSPropertyOp47
 70
     1
102
RTVSPropertyOp48
 70
     1
102
RTVSPropertyOp49
 70
     1
102
RTVSPropertyOp50
 70
     1
102
RTVSPropertyOp51
 70
     0
102
RTVSPropertyOp52
 70
     0
102
RTVSPropertyOp53
 70
     1
102
RTVSPropertyOp54
 70
     1
102
RTVSPropertyOp55
 70
     1
102
RTVSPropertyOp56
 70
     1
102
RTVSPropertyOp57
 70
     1
102
RTVSPost2010Prop28
280
     0
102
RTVSPost2010PropOp28
 70
     1
102
RTVSPost2010Prop29
280
     1
102
RTVSPost2010PropOp29
 70
     1
102
RTVSPost2010Prop30
280
     1
102
RTVSPost2010PropOp30
 70
     1
102
RTVSPost2010Prop31
280
     0
102
RTVSPost2010PropOp31
 70
     1
102
RTVSPost2010Prop32
280
     0
102
RTVSPost2010PropOp32
 70
     1
102
RTVSPost2010Prop33
280
     0
102
RTVSPost2010PropOp33
 70
     1
102
RTVSPost2010Prop34
280
     0
102
RTVSPost2010PropOp34
 70
     1
102
RTVSPost2010Prop35
280
     0
102
RTVSPost2010PropOp35
 70
     1
102
RTVSPost2010Prop36
280
     0
102
RTVSPost2010PropOp36
 70
     1
102
RTVSPost2010Prop37
 90
       50
102
RTVSPost2010PropOp37
 70
     1
102
RTVSPost2010Prop38
140
0.0
102
RTVSPost2010PropOp38
 70
     1
102
RTVSPost2010Prop39
140
1.0
102
RTVSPost2010PropOp39
 70
     1
102
RTVSPost2010Prop40
 90
        0
102
RTVSPost2010PropOp40
 70
     1
102
RTVSPost2010Prop41ColorIndex
 90
       18
102
RTVSPost2010Prop41ColorRGB
 90
        0
102
RTVSPost2010PropOp41
 70
     1
102
RTVSPost2010Prop42
 90
       50
102
RTVSPost2010PropOp42
 70
     1
102
RTVSPost2010Prop43
 90
        3
102
RTVSPost2010PropOp43
 70
     1
102
RTVSPost2010Prop44ColorIndex
 90
        5
102
RTVSPost2010Prop44ColorRGB
 90
      255
102
RTVSPost2010PropOp44
 70
     1
102
RTVSPost2010Prop45
280
     0
102
RTVSPost2010PropOp45
 70
     1
102
RTVSPost2010Prop46
 90
       50
102
RTVSPost2010PropOp46
 70
     1
102
RTVSPost2010Prop47
 90
       50
102
RTVSPost2010PropOp47
 70
     1
102
RTVSPost2010Prop48
 90
       50
102
RTVSPost2010PropOp48
 70
     1
102
RTVSPost2010Prop49
280
     0
102
RTVSPost2010PropOp49
 70
     1
102
RTVSPost2010Prop50
 90
       50
102
RTVSPost2010PropOp50
 70
     1
102
RTVSPost2010Prop51ColorIndex
 90
      256
102
RTVSPost2010Prop51ColorRGB
 90
-16777216
102
RTVSPost2010PropOp51
 70
     0
102
RTVSPost2010Prop52
140
1.0
102
RTVSPost2010PropOp52
 70
     0
102
RTVSPost2010Prop53
 90
        2
102
RTVSPost2010PropOp53
 70
     1
102
RTVSPost2010Prop54
  1
strokes_ogs.tif
102
RTVSPost2010PropOp54
 70
     1
102
RTVSPost2010Prop55
280
     0
102
RTVSPost2010PropOp55
 70
     1
102
RTVSPost2010Prop56
140
1.0
102
RTVSPost2010PropOp56
 70
     1
102
RTVSPost2010Prop57
140
1.0
102
RTVSPost2010PropOp57
 70
     1
  0
XRECORD
  5
560
102
{ACAD_REACTORS
330
55F
102
}
330
55F
100
AcDbXrecord
280
     1
102
RTVSPropertyOp0
 70
     0
102
RTVSPropertyOp1
 70
     0
102
RTVSPropertyOp2
 70
     0
102
RTVSPropertyOp3
 70
     0
102
RTVSPropertyOp4
 70
     0
102
RTVSPropertyOp5
 70
     0
102
RTVSPropertyOp6
 70
     0
102
RTVSPropertyOp7
 70
     0
102
RTVSPropertyOp8
 70
     0
102
RTVSPropertyOp9
 70
     0
102
RTVSPropertyOp10
 70
     0
102
RTVSPropertyOp11
 70
     0
102
RTVSPropertyOp12
 70
     0
102
RTVSPropertyOp13
 70
     0
102
RTVSPropertyOp14
 70
     0
102
RTVSPropertyOp15
 70
     0
102
RTVSPropertyOp16
 70
     0
102
RTVSPropertyOp17
 70
     0
102
RTVSPropertyOp18
 70
     0
102
RTVSPropertyOp19
 70
     0
102
RTVSPropertyOp20
 70
     0
102
RTVSPropertyOp21
 70
     0
102
RTVSPropertyOp22
 70
     0
102
RTVSPropertyOp23
 70
     0
102
RTVSPropertyOp24
 70
     0
102
RTVSPropertyOp25
 70
     0
102
RTVSPropertyOp26
 70
     0
102
RTVSPropertyOp27
 70
     0
102
RTVSPropertyOp28
 70
     1
102
RTVSPropertyOp29
 70
     1
102
RTVSPropertyOp30
 70
     1
102
RTVSPropertyOp31
 70
     1
102
RTVSPropertyOp32
 70
     1
102
RTVSPropertyOp33
 70
     1
102
RTVSPropertyOp34
 70
     1
102
RTVSPropertyOp35
 70
     1
102
RTVSPropertyOp36
 70
     1
102
RTVSPropertyOp37
 70
     1
102
RTVSPropertyOp38
 70
     1
102
RTVSPropertyOp39
 70
     1
102
RTVSPropertyOp40
 70
     1
102
RTVSPropertyOp41
 70
     1
102
RTVSPropertyOp42
 70
     1
102
RTVSPropertyOp43
 70
     1
102
RTVSPropertyOp44
 70
     1
102
RTVSPropertyOp45
 70
     1
102
RTVSPropertyOp46
 70
     1
102
RTVSPropertyOp47
 70
     1
102
RTVSPropertyOp48
 70
     1
102
RTVSPropertyOp49
 70
     1
102
RTVSPropertyOp50
 70
     1
102
RTVSPropertyOp51
 70
     0
102
RTVSPropertyOp52
 70
     0
102
RTVSPropertyOp53
 70
     1
102
RTVSPropertyOp54
 70
     1
102
RTVSPropertyOp55
 70
     1
102
RTVSPropertyOp56
 70
     1
102
RTVSPropertyOp57
 70
     1
102
RTVSPost2010Prop28
280
     0
102
RTVSPost2010PropOp28
 70
     1
102
RTVSPost2010Prop29
280
     1
102
RTVSPost2010PropOp29
 70
     1
102
RTVSPost2010Prop30
280
     1
102
RTVSPost2010PropOp30
 70
     1
102
RTVSPost2010Prop31
280
     0
102
RTVSPost2010PropOp31
 70
     1
102
RTVSPost2010Prop32
280
     0
102
RTVSPost2010PropOp32
 70
     1
102
RTVSPost2010Prop33
280
     0
102
RTVSPost2010PropOp33
 70
     1
102
RTVSPost2010Prop34
280
     0
102
RTVSPost2010PropOp34
 70
     1
102
RTVSPost2010Prop35
280
     0
102
RTVSPost2010PropOp35
 70
     1
102
RTVSPost2010Prop36
280
     0
102
RTVSPost2010PropOp36
 70
     1
102
RTVSPost2010Prop37
 90
       50
102
RTVSPost2010PropOp37
 70
     1
102
RTVSPost2010Prop38
140
0.0
102
RTVSPost2010PropOp38
 70
     1
102
RTVSPost2010Prop39
140
1.0
102
RTVSPost2010PropOp39
 70
     1
102
RTVSPost2010Prop40
 90
        0
102
RTVSPost2010PropOp40
 70
     1
102
RTVSPost2010Prop41ColorIndex
 90
       18
102
RTVSPost2010Prop41ColorRGB
 90
        0
102
RTVSPost2010PropOp41
 70
     1
102
RTVSPost2010Prop42
 90
       50
102
RTVSPost2010PropOp42
 70
     1
102
RTVSPost2010Prop43
 90
        3
102
RTVSPost2010PropOp43
 70
     1
102
RTVSPost2010Prop44ColorIndex
 90
        5
102
RTVSPost2010Prop44ColorRGB
 90
      255
102
RTVSPost2010PropOp44
 70
     1
102
RTVSPost2010Prop45
280
     0
102
RTVSPost2010PropOp45
 70
     1
102
RTVSPost2010Prop46
 90
       50
102
RTVSPost2010PropOp46
 70
     1
102
RTVSPost2010Prop47
 90
       50
102
RTVSPost2010PropOp47
 70
     1
102
RTVSPost2010Prop48
 90
       50
102
RTVSPost2010PropOp48
 70
     1
102
RTVSPost2010Prop49
280
     0
102
RTVSPost2010PropOp49
 70
     1
102
RTVSPost2010Prop50
 90
       50
102
RTVSPost2010PropOp50
 70
     1
102
RTVSPost2010Prop51ColorIndex
 90
      256
102
RTVSPost2010Prop51ColorRGB
 90
-16777216
102
RTVSPost2010PropOp51
 70
     0
102
RTVSPost2010Prop52
140
1.0
102
RTVSPost2010PropOp52
 70
     0
102
RTVSPost2010Prop53
 90
        2
102
RTVSPost2010PropOp53
 70
     1
102
RTVSPost2010Prop54
  1
strokes_ogs.tif
102
RTVSPost2010PropOp54
 70
     1
102
RTVSPost2010Prop55
280
     0
102
RTVSPost2010PropOp55
 70
     1
102
RTVSPost2010Prop56
140
1.0
102
RTVSPost2010PropOp56
 70
     1
102
RTVSPost2010Prop57
140
1.0
102
RTVSPost2010PropOp57
 70
     1
  0
XRECORD
  5
55A
102
{ACAD_REACTORS
330
559
102
}
330
559
100
AcDbXrecord
280
     1
102
RTVSPropertyOp0
 70
     1
102
RTVSPropertyOp1
 70
     1
102
RTVSPropertyOp2
 70
     1
102
RTVSPropertyOp3
 70
     1
102
RTVSPropertyOp4
 70
     1
102
RTVSPropertyOp5
 70
     1
102
RTVSPropertyOp6
 70
     1
102
RTVSPropertyOp7
 70
     1
102
RTVSPropertyOp8
 70
     1
102
RTVSPropertyOp9
 70
     1
102
RTVSPropertyOp10
 70
     1
102
RTVSPropertyOp11
 70
     1
102
RTVSPropertyOp12
 70
     1
102
RTVSPropertyOp13
 70
     1
102
RTVSPropertyOp14
 70
     1
102
RTVSPropertyOp15
 70
     1
102
RTVSPropertyOp16
 70
     1
102
RTVSPropertyOp17
 70
     1
102
RTVSPropertyOp18
 70
     1
102
RTVSPropertyOp19
 70
     1
102
RTVSPropertyOp20
 70
     1
102
RTVSPropertyOp21
 70
     1
102
RTVSPropertyOp22
 70
     1
102
RTVSPropertyOp23
 70
     1
102
RTVSPropertyOp24
 70
     1
102
RTVSPropertyOp25
 70
     1
102
RTVSPropertyOp26
 70
     1
102
RTVSPropertyOp27
 70
     1
102
RTVSPropertyOp28
 70
     1
102
RTVSPropertyOp29
 70
     1
102
RTVSPropertyOp30
 70
     1
102
RTVSPropertyOp31
 70
     1
102
RTVSPropertyOp32
 70
     1
102
RTVSPropertyOp33
 70
     1
102
RTVSPropertyOp34
 70
     1
102
RTVSPropertyOp35
 70
     1
102
RTVSPropertyOp36
 70
     1
102
RTVSPropertyOp37
 70
     1
102
RTVSPropertyOp38
 70
     1
102
RTVSPropertyOp39
 70
     1
102
RTVSPropertyOp40
 70
     1
102
RTVSPropertyOp41
 70
     1
102
RTVSPropertyOp42
 70
     1
102
RTVSPropertyOp43
 70
     1
102
RTVSPropertyOp44
 70
     1
102
RTVSPropertyOp45
 70
     1
102
RTVSPropertyOp46
 70
     1
102
RTVSPropertyOp47
 70
     1
102
RTVSPropertyOp48
 70
     1
102
RTVSPropertyOp49
 70
     1
102
RTVSPropertyOp50
 70
     1
102
RTVSPropertyOp51
 70
     0
102
RTVSPropertyOp52
 70
     0
102
RTVSPropertyOp53
 70
     1
102
RTVSPropertyOp54
 70
     1
102
RTVSPropertyOp55
 70
     1
102
RTVSPropertyOp56
 70
     1
102
RTVSPropertyOp57
 70
     1
102
RTVSPost2010Prop28
280
     0
102
RTVSPost2010PropOp28
 70
     1
102
RTVSPost2010Prop29
280
     1
102
RTVSPost2010PropOp29
 70
     1
102
RTVSPost2010Prop30
280
     1
102
RTVSPost2010PropOp30
 70
     1
102
RTVSPost2010Prop31
280
     0
102
RTVSPost2010PropOp31
 70
     1
102
RTVSPost2010Prop32
280
     0
102
RTVSPost2010PropOp32
 70
     1
102
RTVSPost2010Prop33
280
     0
102
RTVSPost2010PropOp33
 70
     1
102
RTVSPost2010Prop34
280
     0
102
RTVSPost2010PropOp34
 70
     1
102
RTVSPost2010Prop35
280
     0
102
RTVSPost2010PropOp35
 70
     1
102
RTVSPost2010Prop36
280
     0
102
RTVSPost2010PropOp36
 70
     1
102
RTVSPost2010Prop37
 90
       50
102
RTVSPost2010PropOp37
 70
     1
102
RTVSPost2010Prop38
140
0.0
102
RTVSPost2010PropOp38
 70
     1
102
RTVSPost2010Prop39
140
1.0
102
RTVSPost2010PropOp39
 70
     1
102
RTVSPost2010Prop40
 90
        0
102
RTVSPost2010PropOp40
 70
     1
102
RTVSPost2010Prop41ColorIndex
 90
       18
102
RTVSPost2010Prop41ColorRGB
 90
        0
102
RTVSPost2010PropOp41
 70
     1
102
RTVSPost2010Prop42
 90
       50
102
RTVSPost2010PropOp42
 70
     1
102
RTVSPost2010Prop43
 90
        3
102
RTVSPost2010PropOp43
 70
     1
102
RTVSPost2010Prop44ColorIndex
 90
        5
102
RTVSPost2010Prop44ColorRGB
 90
      255
102
RTVSPost2010PropOp44
 70
     1
102
RTVSPost2010Prop45
280
     0
102
RTVSPost2010PropOp45
 70
     1
102
RTVSPost2010Prop46
 90
       50
102
RTVSPost2010PropOp46
 70
     1
102
RTVSPost2010Prop47
 90
       50
102
RTVSPost2010PropOp47
 70
     1
102
RTVSPost2010Prop48
 90
       50
102
RTVSPost2010PropOp48
 70
     1
102
RTVSPost2010Prop49
280
     0
102
RTVSPost2010PropOp49
 70
     1
102
RTVSPost2010Prop50
 90
       50
102
RTVSPost2010PropOp50
 70
     1
102
RTVSPost2010Prop51ColorIndex
 90
      256
102
RTVSPost2010Prop51ColorRGB
 90
-16777216
102
RTVSPost2010PropOp51
 70
     0
102
RTVSPost2010Prop52
140
1.0
102
RTVSPost2010PropOp52
 70
     0
102
RTVSPost2010Prop53
 90
        2
102
RTVSPost2010PropOp53
 70
     1
102
RTVSPost2010Prop54
  1
strokes_ogs.tif
102
RTVSPost2010PropOp54
 70
     1
102
RTVSPost2010Prop55
280
     0
102
RTVSPost2010PropOp55
 70
     1
102
RTVSPost2010Prop56
140
1.0
102
RTVSPost2010PropOp56
 70
     1
102
RTVSPost2010Prop57
140
1.0
102
RTVSPost2010PropOp57
 70
     1
  0
XRECORD
  5
562
102
{ACAD_REACTORS
330
561
102
}
330
561
100
AcDbXrecord
280
     1
102
RTVSPropertyOp0
 70
     0
102
RTVSPropertyOp1
 70
     0
102
RTVSPropertyOp2
 70
     0
102
RTVSPropertyOp3
 70
     0
102
RTVSPropertyOp4
 70
     0
102
RTVSPropertyOp5
 70
     0
102
RTVSPropertyOp6
 70
     0
102
RTVSPropertyOp7
 70
     0
102
RTVSPropertyOp8
 70
     0
102
RTVSPropertyOp9
 70
     0
102
RTVSPropertyOp10
 70
     0
102
RTVSPropertyOp11
 70
     0
102
RTVSPropertyOp12
 70
     0
102
RTVSPropertyOp13
 70
     0
102
RTVSPropertyOp14
 70
     0
102
RTVSPropertyOp15
 70
     0
102
RTVSPropertyOp16
 70
     0
102
RTVSPropertyOp17
 70
     0
102
RTVSPropertyOp18
 70
     0
102
RTVSPropertyOp19
 70
     0
102
RTVSPropertyOp20
 70
     0
102
RTVSPropertyOp21
 70
     0
102
RTVSPropertyOp22
 70
     0
102
RTVSPropertyOp23
 70
     0
102
RTVSPropertyOp24
 70
     0
102
RTVSPropertyOp25
 70
     0
102
RTVSPropertyOp26
 70
     0
102
RTVSPropertyOp27
 70
     0
102
RTVSPropertyOp28
 70
     1
102
RTVSPropertyOp29
 70
     1
102
RTVSPropertyOp30
 70
     1
102
RTVSPropertyOp31
 70
     1
102
RTVSPropertyOp32
 70
     1
102
RTVSPropertyOp33
 70
     1
102
RTVSPropertyOp34
 70
     1
102
RTVSPropertyOp35
 70
     1
102
RTVSPropertyOp36
 70
     1
102
RTVSPropertyOp37
 70
     1
102
RTVSPropertyOp38
 70
     1
102
RTVSPropertyOp39
 70
     1
102
RTVSPropertyOp40
 70
     1
102
RTVSPropertyOp41
 70
     1
102
RTVSPropertyOp42
 70
     1
102
RTVSPropertyOp43
 70
     1
102
RTVSPropertyOp44
 70
     1
102
RTVSPropertyOp45
 70
     1
102
RTVSPropertyOp46
 70
     1
102
RTVSPropertyOp47
 70
     1
102
RTVSPropertyOp48
 70
     1
102
RTVSPropertyOp49
 70
     1
102
RTVSPropertyOp50
 70
     1
102
RTVSPropertyOp51
 70
     0
102
RTVSPropertyOp52
 70
     0
102
RTVSPropertyOp53
 70
     1
102
RTVSPropertyOp54
 70
     1
102
RTVSPropertyOp55
 70
     1
102
RTVSPropertyOp56
 70
     1
102
RTVSPropertyOp57
 70
     1
102
RTVSPost2010Prop28
280
     0
102
RTVSPost2010PropOp28
 70
     1
102
RTVSPost2010Prop29
280
     1
102
RTVSPost2010PropOp29
 70
     1
102
RTVSPost2010Prop30
280
     1
102
RTVSPost2010PropOp30
 70
     1
102
RTVSPost2010Prop31
280
     0
102
RTVSPost2010PropOp31
 70
     1
102
RTVSPost2010Prop32
280
     0
102
RTVSPost2010PropOp32
 70
     1
102
RTVSPost2010Prop33
280
     0
102
RTVSPost2010PropOp33
 70
     1
102
RTVSPost2010Prop34
280
     0
102
RTVSPost2010PropOp34
 70
     1
102
RTVSPost2010Prop35
280
     0
102
RTVSPost2010PropOp35
 70
     1
102
RTVSPost2010Prop36
280
     0
102
RTVSPost2010PropOp36
 70
     1
102
RTVSPost2010Prop37
 90
       50
102
RTVSPost2010PropOp37
 70
     1
102
RTVSPost2010Prop38
140
0.0
102
RTVSPost2010PropOp38
 70
     1
102
RTVSPost2010Prop39
140
1.0
102
RTVSPost2010PropOp39
 70
     1
102
RTVSPost2010Prop40
 90
        0
102
RTVSPost2010PropOp40
 70
     1
102
RTVSPost2010Prop41ColorIndex
 90
       18
102
RTVSPost2010Prop41ColorRGB
 90
        0
102
RTVSPost2010PropOp41
 70
     1
102
RTVSPost2010Prop42
 90
       50
102
RTVSPost2010PropOp42
 70
     1
102
RTVSPost2010Prop43
 90
        3
102
RTVSPost2010PropOp43
 70
     1
102
RTVSPost2010Prop44ColorIndex
 90
        5
102
RTVSPost2010Prop44ColorRGB
 90
      255
102
RTVSPost2010PropOp44
 70
     1
102
RTVSPost2010Prop45
280
     0
102
RTVSPost2010PropOp45
 70
     1
102
RTVSPost2010Prop46
 90
       50
102
RTVSPost2010PropOp46
 70
     1
102
RTVSPost2010Prop47
 90
       50
102
RTVSPost2010PropOp47
 70
     1
102
RTVSPost2010Prop48
 90
       50
102
RTVSPost2010PropOp48
 70
     1
102
RTVSPost2010Prop49
280
     0
102
RTVSPost2010PropOp49
 70
     1
102
RTVSPost2010Prop50
 90
       50
102
RTVSPost2010PropOp50
 70
     1
102
RTVSPost2010Prop51ColorIndex
 90
      256
102
RTVSPost2010Prop51ColorRGB
 90
-16777216
102
RTVSPost2010PropOp51
 70
     0
102
RTVSPost2010Prop52
140
1.0
102
RTVSPost2010PropOp52
 70
     0
102
RTVSPost2010Prop53
 90
        2
102
RTVSPost2010PropOp53
 70
     1
102
RTVSPost2010Prop54
  1
strokes_ogs.tif
102
RTVSPost2010PropOp54
 70
     1
102
RTVSPost2010Prop55
280
     0
102
RTVSPost2010PropOp55
 70
     1
102
RTVSPost2010Prop56
140
1.0
102
RTVSPost2010PropOp56
 70
     1
102
RTVSPost2010Prop57
140
1.0
102
RTVSPost2010PropOp57
 70
     1
  0
XRECORD
  5
550
102
{ACAD_REACTORS
330
54F
102
}
330
54F
100
AcDbXrecord
280
     1
102
RTVSPropertyOp0
 70
     1
102
RTVSPropertyOp1
 70
     1
102
RTVSPropertyOp2
 70
     1
102
RTVSPropertyOp3
 70
     1
102
RTVSPropertyOp4
 70
     1
102
RTVSPropertyOp5
 70
     1
102
RTVSPropertyOp6
 70
     1
102
RTVSPropertyOp7
 70
     1
102
RTVSPropertyOp8
 70
     1
102
RTVSPropertyOp9
 70
     1
102
RTVSPropertyOp10
 70
     1
102
RTVSPropertyOp11
 70
     1
102
RTVSPropertyOp12
 70
     1
102
RTVSPropertyOp13
 70
     1
102
RTVSPropertyOp14
 70
     1
102
RTVSPropertyOp15
 70
     1
102
RTVSPropertyOp16
 70
     1
102
RTVSPropertyOp17
 70
     1
102
RTVSPropertyOp18
 70
     1
102
RTVSPropertyOp19
 70
     1
102
RTVSPropertyOp20
 70
     1
102
RTVSPropertyOp21
 70
     1
102
RTVSPropertyOp22
 70
     1
102
RTVSPropertyOp23
 70
     1
102
RTVSPropertyOp24
 70
     1
102
RTVSPropertyOp25
 70
     1
102
RTVSPropertyOp26
 70
     1
102
RTVSPropertyOp27
 70
     1
102
RTVSPropertyOp28
 70
     1
102
RTVSPropertyOp29
 70
     1
102
RTVSPropertyOp30
 70
     1
102
RTVSPropertyOp31
 70
     1
102
RTVSPropertyOp32
 70
     1
102
RTVSPropertyOp33
 70
     1
102
RTVSPropertyOp34
 70
     1
102
RTVSPropertyOp35
 70
     1
102
RTVSPropertyOp36
 70
     1
102
RTVSPropertyOp37
 70
     1
102
RTVSPropertyOp38
 70
     1
102
RTVSPropertyOp39
 70
     1
102
RTVSPropertyOp40
 70
     1
102
RTVSPropertyOp41
 70
     1
102
RTVSPropertyOp42
 70
     1
102
RTVSPropertyOp43
 70
     1
102
RTVSPropertyOp44
 70
     1
102
RTVSPropertyOp45
 70
     1
102
RTVSPropertyOp46
 70
     1
102
RTVSPropertyOp47
 70
     1
102
RTVSPropertyOp48
 70
     1
102
RTVSPropertyOp49
 70
     1
102
RTVSPropertyOp50
 70
     1
102
RTVSPropertyOp51
 70
     0
102
RTVSPropertyOp52
 70
     0
102
RTVSPropertyOp53
 70
     1
102
RTVSPropertyOp54
 70
     1
102
RTVSPropertyOp55
 70
     1
102
RTVSPropertyOp56
 70
     1
102
RTVSPropertyOp57
 70
     1
102
RTVSPost2010Prop28
280
     0
102
RTVSPost2010PropOp28
 70
     1
102
RTVSPost2010Prop29
280
     1
102
RTVSPost2010PropOp29
 70
     1
102
RTVSPost2010Prop30
280
     1
102
RTVSPost2010PropOp30
 70
     1
102
RTVSPost2010Prop31
280
     0
102
RTVSPost2010PropOp31
 70
     1
102
RTVSPost2010Prop32
280
     0
102
RTVSPost2010PropOp32
 70
     1
102
RTVSPost2010Prop33
280
     0
102
RTVSPost2010PropOp33
 70
     1
102
RTVSPost2010Prop34
280
     0
102
RTVSPost2010PropOp34
 70
     1
102
RTVSPost2010Prop35
280
     0
102
RTVSPost2010PropOp35
 70
     1
102
RTVSPost2010Prop36
280
     0
102
RTVSPost2010PropOp36
 70
     1
102
RTVSPost2010Prop37
 90
       50
102
RTVSPost2010PropOp37
 70
     1
102
RTVSPost2010Prop38
140
0.0
102
RTVSPost2010PropOp38
 70
     1
102
RTVSPost2010Prop39
140
1.0
102
RTVSPost2010PropOp39
 70
     1
102
RTVSPost2010Prop40
 90
        0
102
RTVSPost2010PropOp40
 70
     1
102
RTVSPost2010Prop41ColorIndex
 90
       18
102
RTVSPost2010Prop41ColorRGB
 90
        0
102
RTVSPost2010PropOp41
 70
     1
102
RTVSPost2010Prop42
 90
       50
102
RTVSPost2010PropOp42
 70
     1
102
RTVSPost2010Prop43
 90
        3
102
RTVSPost2010PropOp43
 70
     1
102
RTVSPost2010Prop44ColorIndex
 90
        5
102
RTVSPost2010Prop44ColorRGB
 90
      255
102
RTVSPost2010PropOp44
 70
     1
102
RTVSPost2010Prop45
280
     0
102
RTVSPost2010PropOp45
 70
     1
102
RTVSPost2010Prop46
 90
       50
102
RTVSPost2010PropOp46
 70
     1
102
RTVSPost2010Prop47
 90
       50
102
RTVSPost2010PropOp47
 70
     1
102
RTVSPost2010Prop48
 90
       50
102
RTVSPost2010PropOp48
 70
     1
102
RTVSPost2010Prop49
280
     0
102
RTVSPost2010PropOp49
 70
     1
102
RTVSPost2010Prop50
 90
       50
102
RTVSPost2010PropOp50
 70
     1
102
RTVSPost2010Prop51ColorIndex
 90
      256
102
RTVSPost2010Prop51ColorRGB
 90
-16777216
102
RTVSPost2010PropOp51
 70
     0
102
RTVSPost2010Prop52
140
1.0
102
RTVSPost2010PropOp52
 70
     0
102
RTVSPost2010Prop53
 90
        2
102
RTVSPost2010PropOp53
 70
     1
102
RTVSPost2010Prop54
  1
strokes_ogs.tif
102
RTVSPost2010PropOp54
 70
     1
102
RTVSPost2010Prop55
280
     0
102
RTVSPost2010PropOp55
 70
     1
102
RTVSPost2010Prop56
140
1.0
102
RTVSPost2010PropOp56
 70
     1
102
RTVSPost2010Prop57
140
1.0
102
RTVSPost2010PropOp57
 70
     1
  0
XRECORD
  5
56E
102
{ACAD_REACTORS
330
56D
102
}
330
56D
100
AcDbXrecord
280
     1
102
RTVSPropertyOp0
 70
     1
102
RTVSPropertyOp1
 70
     1
102
RTVSPropertyOp2
 70
     1
102
RTVSPropertyOp3
 70
     1
102
RTVSPropertyOp4
 70
     1
102
RTVSPropertyOp5
 70
     1
102
RTVSPropertyOp6
 70
     1
102
RTVSPropertyOp7
 70
     1
102
RTVSPropertyOp8
 70
     1
102
RTVSPropertyOp9
 70
     1
102
RTVSPropertyOp10
 70
     1
102
RTVSPropertyOp11
 70
     1
102
RTVSPropertyOp12
 70
     1
102
RTVSPropertyOp13
 70
     1
102
RTVSPropertyOp14
 70
     1
102
RTVSPropertyOp15
 70
     1
102
RTVSPropertyOp16
 70
     1
102
RTVSPropertyOp17
 70
     1
102
RTVSPropertyOp18
 70
     1
102
RTVSPropertyOp19
 70
     1
102
RTVSPropertyOp20
 70
     1
102
RTVSPropertyOp21
 70
     1
102
RTVSPropertyOp22
 70
     1
102
RTVSPropertyOp23
 70
     1
102
RTVSPropertyOp24
 70
     1
102
RTVSPropertyOp25
 70
     1
102
RTVSPropertyOp26
 70
     1
102
RTVSPropertyOp27
 70
     1
102
RTVSPropertyOp28
 70
     1
102
RTVSPropertyOp29
 70
     1
102
RTVSPropertyOp30
 70
     1
102
RTVSPropertyOp31
 70
     1
102
RTVSPropertyOp32
 70
     1
102
RTVSPropertyOp33
 70
     1
102
RTVSPropertyOp34
 70
     1
102
RTVSPropertyOp35
 70
     1
102
RTVSPropertyOp36
 70
     1
102
RTVSPropertyOp37
 70
     1
102
RTVSPropertyOp38
 70
     1
102
RTVSPropertyOp39
 70
     1
102
RTVSPropertyOp40
 70
     1
102
RTVSPropertyOp41
 70
     1
102
RTVSPropertyOp42
 70
     1
102
RTVSPropertyOp43
 70
     1
102
RTVSPropertyOp44
 70
     1
102
RTVSPropertyOp45
 70
     1
102
RTVSPropertyOp46
 70
     1
102
RTVSPropertyOp47
 70
     1
102
RTVSPropertyOp48
 70
     1
102
RTVSPropertyOp49
 70
     1
102
RTVSPropertyOp50
 70
     1
102
RTVSPropertyOp51
 70
     0
102
RTVSPropertyOp52
 70
     0
102
RTVSPropertyOp53
 70
     1
102
RTVSPropertyOp54
 70
     1
102
RTVSPropertyOp55
 70
     1
102
RTVSPropertyOp56
 70
     1
102
RTVSPropertyOp57
 70
     1
102
RTVSPost2010Prop28
280
     0
102
RTVSPost2010PropOp28
 70
     1
102
RTVSPost2010Prop29
280
     1
102
RTVSPost2010PropOp29
 70
     1
102
RTVSPost2010Prop30
280
     1
102
RTVSPost2010PropOp30
 70
     1
102
RTVSPost2010Prop31
280
     0
102
RTVSPost2010PropOp31
 70
     1
102
RTVSPost2010Prop32
280
     0
102
RTVSPost2010PropOp32
 70
     1
102
RTVSPost2010Prop33
280
     0
102
RTVSPost2010PropOp33
 70
     1
102
RTVSPost2010Prop34
280
     0
102
RTVSPost2010PropOp34
 70
     1
102
RTVSPost2010Prop35
280
     0
102
RTVSPost2010PropOp35
 70
     1
102
RTVSPost2010Prop36
280
     0
102
RTVSPost2010PropOp36
 70
     1
102
RTVSPost2010Prop37
 90
       50
102
RTVSPost2010PropOp37
 70
     1
102
RTVSPost2010Prop38
140
0.0
102
RTVSPost2010PropOp38
 70
     1
102
RTVSPost2010Prop39
140
1.0
102
RTVSPost2010PropOp39
 70
     1
102
RTVSPost2010Prop40
 90
        0
102
RTVSPost2010PropOp40
 70
     1
102
RTVSPost2010Prop41ColorIndex
 90
       18
102
RTVSPost2010Prop41ColorRGB
 90
        0
102
RTVSPost2010PropOp41
 70
     1
102
RTVSPost2010Prop42
 90
       50
102
RTVSPost2010PropOp42
 70
     1
102
RTVSPost2010Prop43
 90
        3
102
RTVSPost2010PropOp43
 70
     1
102
RTVSPost2010Prop44ColorIndex
 90
        5
102
RTVSPost2010Prop44ColorRGB
 90
      255
102
RTVSPost2010PropOp44
 70
     1
102
RTVSPost2010Prop45
280
     0
102
RTVSPost2010PropOp45
 70
     1
102
RTVSPost2010Prop46
 90
       50
102
RTVSPost2010PropOp46
 70
     1
102
RTVSPost2010Prop47
 90
       50
102
RTVSPost2010PropOp47
 70
     1
102
RTVSPost2010Prop48
 90
       50
102
RTVSPost2010PropOp48
 70
     1
102
RTVSPost2010Prop49
280
     0
102
RTVSPost2010PropOp49
 70
     1
102
RTVSPost2010Prop50
 90
       50
102
RTVSPost2010PropOp50
 70
     1
102
RTVSPost2010Prop51ColorIndex
 90
      256
102
RTVSPost2010Prop51ColorRGB
 90
-16777216
102
RTVSPost2010PropOp51
 70
     0
102
RTVSPost2010Prop52
140
1.0
102
RTVSPost2010PropOp52
 70
     0
102
RTVSPost2010Prop53
 90
        2
102
RTVSPost2010PropOp53
 70
     1
102
RTVSPost2010Prop54
  1
strokes_ogs.tif
102
RTVSPost2010PropOp54
 70
     1
102
RTVSPost2010Prop55
280
     0
102
RTVSPost2010PropOp55
 70
     1
102
RTVSPost2010Prop56
140
1.0
102
RTVSPost2010PropOp56
 70
     1
102
RTVSPost2010Prop57
140
1.0
102
RTVSPost2010PropOp57
 70
     1
  0
XRECORD
  5
56C
102
{ACAD_REACTORS
330
56B
102
}
330
56B
100
AcDbXrecord
280
     1
102
RTVSPropertyOp0
 70
     1
102
RTVSPropertyOp1
 70
     1
102
RTVSPropertyOp2
 70
     1
102
RTVSPropertyOp3
 70
     1
102
RTVSPropertyOp4
 70
     1
102
RTVSPropertyOp5
 70
     1
102
RTVSPropertyOp6
 70
     1
102
RTVSPropertyOp7
 70
     1
102
RTVSPropertyOp8
 70
     1
102
RTVSPropertyOp9
 70
     1
102
RTVSPropertyOp10
 70
     1
102
RTVSPropertyOp11
 70
     1
102
RTVSPropertyOp12
 70
     1
102
RTVSPropertyOp13
 70
     1
102
RTVSPropertyOp14
 70
     1
102
RTVSPropertyOp15
 70
     1
102
RTVSPropertyOp16
 70
     1
102
RTVSPropertyOp17
 70
     1
102
RTVSPropertyOp18
 70
     1
102
RTVSPropertyOp19
 70
     1
102
RTVSPropertyOp20
 70
     1
102
RTVSPropertyOp21
 70
     1
102
RTVSPropertyOp22
 70
     1
102
RTVSPropertyOp23
 70
     1
102
RTVSPropertyOp24
 70
     1
102
RTVSPropertyOp25
 70
     1
102
RTVSPropertyOp26
 70
     1
102
RTVSPropertyOp27
 70
     1
102
RTVSPropertyOp28
 70
     1
102
RTVSPropertyOp29
 70
     1
102
RTVSPropertyOp30
 70
     1
102
RTVSPropertyOp31
 70
     1
102
RTVSPropertyOp32
 70
     1
102
RTVSPropertyOp33
 70
     1
102
RTVSPropertyOp34
 70
     1
102
RTVSPropertyOp35
 70
     1
102
RTVSPropertyOp36
 70
     1
102
RTVSPropertyOp37
 70
     1
102
RTVSPropertyOp38
 70
     1
102
RTVSPropertyOp39
 70
     1
102
RTVSPropertyOp40
 70
     1
102
RTVSPropertyOp41
 70
     1
102
RTVSPropertyOp42
 70
     1
102
RTVSPropertyOp43
 70
     1
102
RTVSPropertyOp44
 70
     1
102
RTVSPropertyOp45
 70
     1
102
RTVSPropertyOp46
 70
     1
102
RTVSPropertyOp47
 70
     1
102
RTVSPropertyOp48
 70
     1
102
RTVSPropertyOp49
 70
     1
102
RTVSPropertyOp50
 70
     1
102
RTVSPropertyOp51
 70
     0
102
RTVSPropertyOp52
 70
     0
102
RTVSPropertyOp53
 70
     1
102
RTVSPropertyOp54
 70
     1
102
RTVSPropertyOp55
 70
     1
102
RTVSPropertyOp56
 70
     1
102
RTVSPropertyOp57
 70
     1
102
RTVSPost2010Prop28
280
     0
102
RTVSPost2010PropOp28
 70
     1
102
RTVSPost2010Prop29
280
     1
102
RTVSPost2010PropOp29
 70
     1
102
RTVSPost2010Prop30
280
     1
102
RTVSPost2010PropOp30
 70
     1
102
RTVSPost2010Prop31
280
     0
102
RTVSPost2010PropOp31
 70
     1
102
RTVSPost2010Prop32
280
     0
102
RTVSPost2010PropOp32
 70
     1
102
RTVSPost2010Prop33
280
     0
102
RTVSPost2010PropOp33
 70
     1
102
RTVSPost2010Prop34
280
     0
102
RTVSPost2010PropOp34
 70
     1
102
RTVSPost2010Prop35
280
     0
102
RTVSPost2010PropOp35
 70
     1
102
RTVSPost2010Prop36
280
     0
102
RTVSPost2010PropOp36
 70
     1
102
RTVSPost2010Prop37
 90
       50
102
RTVSPost2010PropOp37
 70
     1
102
RTVSPost2010Prop38
140
0.0
102
RTVSPost2010PropOp38
 70
     1
102
RTVSPost2010Prop39
140
1.0
102
RTVSPost2010PropOp39
 70
     1
102
RTVSPost2010Prop40
 90
        0
102
RTVSPost2010PropOp40
 70
     1
102
RTVSPost2010Prop41ColorIndex
 90
       18
102
RTVSPost2010Prop41ColorRGB
 90
        0
102
RTVSPost2010PropOp41
 70
     1
102
RTVSPost2010Prop42
 90
       50
102
RTVSPost2010PropOp42
 70
     1
102
RTVSPost2010Prop43
 90
        3
102
RTVSPost2010PropOp43
 70
     1
102
RTVSPost2010Prop44ColorIndex
 90
        5
102
RTVSPost2010Prop44ColorRGB
 90
      255
102
RTVSPost2010PropOp44
 70
     1
102
RTVSPost2010Prop45
280
     0
102
RTVSPost2010PropOp45
 70
     1
102
RTVSPost2010Prop46
 90
       50
102
RTVSPost2010PropOp46
 70
     1
102
RTVSPost2010Prop47
 90
       50
102
RTVSPost2010PropOp47
 70
     1
102
RTVSPost2010Prop48
 90
       50
102
RTVSPost2010PropOp48
 70
     1
102
RTVSPost2010Prop49
280
     0
102
RTVSPost2010PropOp49
 70
     1
102
RTVSPost2010Prop50
 90
       50
102
RTVSPost2010PropOp50
 70
     1
102
RTVSPost2010Prop51ColorIndex
 90
      256
102
RTVSPost2010Prop51ColorRGB
 90
-16777216
102
RTVSPost2010PropOp51
 70
     0
102
RTVSPost2010Prop52
140
1.0
102
RTVSPost2010PropOp52
 70
     0
102
RTVSPost2010Prop53
 90
        2
102
RTVSPost2010PropOp53
 70
     1
102
RTVSPost2010Prop54
  1
strokes_ogs.tif
102
RTVSPost2010PropOp54
 70
     1
102
RTVSPost2010Prop55
280
     0
102
RTVSPost2010PropOp55
 70
     1
102
RTVSPost2010Prop56
140
1.0
102
RTVSPost2010PropOp56
 70
     1
102
RTVSPost2010Prop57
140
1.0
102
RTVSPost2010PropOp57
 70
     1
  0
XRECORD
  5
566
102
{ACAD_REACTORS
330
565
102
}
330
565
100
AcDbXrecord
280
     1
102
RTVSPropertyOp0
 70
     1
102
RTVSPropertyOp1
 70
     1
102
RTVSPropertyOp2
 70
     1
102
RTVSPropertyOp3
 70
     1
102
RTVSPropertyOp4
 70
     1
102
RTVSPropertyOp5
 70
     1
102
RTVSPropertyOp6
 70
     1
102
RTVSPropertyOp7
 70
     1
102
RTVSPropertyOp8
 70
     1
102
RTVSPropertyOp9
 70
     1
102
RTVSPropertyOp10
 70
     1
102
RTVSPropertyOp11
 70
     1
102
RTVSPropertyOp12
 70
     1
102
RTVSPropertyOp13
 70
     1
102
RTVSPropertyOp14
 70
     1
102
RTVSPropertyOp15
 70
     1
102
RTVSPropertyOp16
 70
     1
102
RTVSPropertyOp17
 70
     1
102
RTVSPropertyOp18
 70
     1
102
RTVSPropertyOp19
 70
     1
102
RTVSPropertyOp20
 70
     1
102
RTVSPropertyOp21
 70
     1
102
RTVSPropertyOp22
 70
     1
102
RTVSPropertyOp23
 70
     1
102
RTVSPropertyOp24
 70
     1
102
RTVSPropertyOp25
 70
     1
102
RTVSPropertyOp26
 70
     1
102
RTVSPropertyOp27
 70
     1
102
RTVSPropertyOp28
 70
     1
102
RTVSPropertyOp29
 70
     1
102
RTVSPropertyOp30
 70
     1
102
RTVSPropertyOp31
 70
     1
102
RTVSPropertyOp32
 70
     1
102
RTVSPropertyOp33
 70
     1
102
RTVSPropertyOp34
 70
     1
102
RTVSPropertyOp35
 70
     1
102
RTVSPropertyOp36
 70
     1
102
RTVSPropertyOp37
 70
     1
102
RTVSPropertyOp38
 70
     1
102
RTVSPropertyOp39
 70
     1
102
RTVSPropertyOp40
 70
     1
102
RTVSPropertyOp41
 70
     1
102
RTVSPropertyOp42
 70
     1
102
RTVSPropertyOp43
 70
     1
102
RTVSPropertyOp44
 70
     1
102
RTVSPropertyOp45
 70
     1
102
RTVSPropertyOp46
 70
     1
102
RTVSPropertyOp47
 70
     1
102
RTVSPropertyOp48
 70
     1
102
RTVSPropertyOp49
 70
     1
102
RTVSPropertyOp50
 70
     1
102
RTVSPropertyOp51
 70
     0
102
RTVSPropertyOp52
 70
     0
102
RTVSPropertyOp53
 70
     1
102
RTVSPropertyOp54
 70
     1
102
RTVSPropertyOp55
 70
     1
102
RTVSPropertyOp56
 70
     1
102
RTVSPropertyOp57
 70
     1
102
RTVSPost2010Prop28
280
     0
102
RTVSPost2010PropOp28
 70
     1
102
RTVSPost2010Prop29
280
     1
102
RTVSPost2010PropOp29
 70
     1
102
RTVSPost2010Prop30
280
     1
102
RTVSPost2010PropOp30
 70
     1
102
RTVSPost2010Prop31
280
     0
102
RTVSPost2010PropOp31
 70
     1
102
RTVSPost2010Prop32
280
     0
102
RTVSPost2010PropOp32
 70
     1
102
RTVSPost2010Prop33
280
     0
102
RTVSPost2010PropOp33
 70
     1
102
RTVSPost2010Prop34
280
     0
102
RTVSPost2010PropOp34
 70
     1
102
RTVSPost2010Prop35
280
     0
102
RTVSPost2010PropOp35
 70
     1
102
RTVSPost2010Prop36
280
     0
102
RTVSPost2010PropOp36
 70
     1
102
RTVSPost2010Prop37
 90
       50
102
RTVSPost2010PropOp37
 70
     1
102
RTVSPost2010Prop38
140
0.0
102
RTVSPost2010PropOp38
 70
     1
102
RTVSPost2010Prop39
140
1.0
102
RTVSPost2010PropOp39
 70
     1
102
RTVSPost2010Prop40
 90
        0
102
RTVSPost2010PropOp40
 70
     1
102
RTVSPost2010Prop41ColorIndex
 90
       18
102
RTVSPost2010Prop41ColorRGB
 90
        0
102
RTVSPost2010PropOp41
 70
     1
102
RTVSPost2010Prop42
 90
       50
102
RTVSPost2010PropOp42
 70
     1
102
RTVSPost2010Prop43
 90
        3
102
RTVSPost2010PropOp43
 70
     1
102
RTVSPost2010Prop44ColorIndex
 90
        5
102
RTVSPost2010Prop44ColorRGB
 90
      255
102
RTVSPost2010PropOp44
 70
     1
102
RTVSPost2010Prop45
280
     0
102
RTVSPost2010PropOp45
 70
     1
102
RTVSPost2010Prop46
 90
       50
102
RTVSPost2010PropOp46
 70
     1
102
RTVSPost2010Prop47
 90
       50
102
RTVSPost2010PropOp47
 70
     1
102
RTVSPost2010Prop48
 90
       50
102
RTVSPost2010PropOp48
 70
     1
102
RTVSPost2010Prop49
280
     0
102
RTVSPost2010PropOp49
 70
     1
102
RTVSPost2010Prop50
 90
       50
102
RTVSPost2010PropOp50
 70
     1
102
RTVSPost2010Prop51ColorIndex
 90
      256
102
RTVSPost2010Prop51ColorRGB
 90
-16777216
102
RTVSPost2010PropOp51
 70
     0
102
RTVSPost2010Prop52
140
1.0
102
RTVSPost2010PropOp52
 70
     0
102
RTVSPost2010Prop53
 90
        2
102
RTVSPost2010PropOp53
 70
     1
102
RTVSPost2010Prop54
  1
strokes_ogs.tif
102
RTVSPost2010PropOp54
 70
     1
102
RTVSPost2010Prop55
280
     0
102
RTVSPost2010PropOp55
 70
     1
102
RTVSPost2010Prop56
140
1.0
102
RTVSPost2010PropOp56
 70
     1
102
RTVSPost2010Prop57
140
1.0
102
RTVSPost2010PropOp57
 70
     1
  0
XRECORD
  5
568
102
{ACAD_REACTORS
330
567
102
}
330
567
100
AcDbXrecord
280
     1
102
RTVSPropertyOp0
 70
     1
102
RTVSPropertyOp1
 70
     1
102
RTVSPropertyOp2
 70
     1
102
RTVSPropertyOp3
 70
     1
102
RTVSPropertyOp4
 70
     1
102
RTVSPropertyOp5
 70
     1
102
RTVSPropertyOp6
 70
     1
102
RTVSPropertyOp7
 70
     1
102
RTVSPropertyOp8
 70
     1
102
RTVSPropertyOp9
 70
     1
102
RTVSPropertyOp10
 70
     1
102
RTVSPropertyOp11
 70
     1
102
RTVSPropertyOp12
 70
     1
102
RTVSPropertyOp13
 70
     1
102
RTVSPropertyOp14
 70
     1
102
RTVSPropertyOp15
 70
     1
102
RTVSPropertyOp16
 70
     1
102
RTVSPropertyOp17
 70
     1
102
RTVSPropertyOp18
 70
     1
102
RTVSPropertyOp19
 70
     1
102
RTVSPropertyOp20
 70
     1
102
RTVSPropertyOp21
 70
     1
102
RTVSPropertyOp22
 70
     1
102
RTVSPropertyOp23
 70
     1
102
RTVSPropertyOp24
 70
     1
102
RTVSPropertyOp25
 70
     1
102
RTVSPropertyOp26
 70
     1
102
RTVSPropertyOp27
 70
     1
102
RTVSPropertyOp28
 70
     1
102
RTVSPropertyOp29
 70
     1
102
RTVSPropertyOp30
 70
     1
102
RTVSPropertyOp31
 70
     1
102
RTVSPropertyOp32
 70
     1
102
RTVSPropertyOp33
 70
     1
102
RTVSPropertyOp34
 70
     1
102
RTVSPropertyOp35
 70
     1
102
RTVSPropertyOp36
 70
     1
102
RTVSPropertyOp37
 70
     1
102
RTVSPropertyOp38
 70
     1
102
RTVSPropertyOp39
 70
     1
102
RTVSPropertyOp40
 70
     1
102
RTVSPropertyOp41
 70
     1
102
RTVSPropertyOp42
 70
     1
102
RTVSPropertyOp43
 70
     1
102
RTVSPropertyOp44
 70
     1
102
RTVSPropertyOp45
 70
     1
102
RTVSPropertyOp46
 70
     1
102
RTVSPropertyOp47
 70
     1
102
RTVSPropertyOp48
 70
     1
102
RTVSPropertyOp49
 70
     1
102
RTVSPropertyOp50
 70
     1
102
RTVSPropertyOp51
 70
     0
102
RTVSPropertyOp52
 70
     0
102
RTVSPropertyOp53
 70
     1
102
RTVSPropertyOp54
 70
     1
102
RTVSPropertyOp55
 70
     1
102
RTVSPropertyOp56
 70
     1
102
RTVSPropertyOp57
 70
     1
102
RTVSPost2010Prop28
280
     0
102
RTVSPost2010PropOp28
 70
     1
102
RTVSPost2010Prop29
280
     1
102
RTVSPost2010PropOp29
 70
     1
102
RTVSPost2010Prop30
280
     1
102
RTVSPost2010PropOp30
 70
     1
102
RTVSPost2010Prop31
280
     0
102
RTVSPost2010PropOp31
 70
     1
102
RTVSPost2010Prop32
280
     0
102
RTVSPost2010PropOp32
 70
     1
102
RTVSPost2010Prop33
280
     0
102
RTVSPost2010PropOp33
 70
     1
102
RTVSPost2010Prop34
280
     0
102
RTVSPost2010PropOp34
 70
     1
102
RTVSPost2010Prop35
280
     0
102
RTVSPost2010PropOp35
 70
     1
102
RTVSPost2010Prop36
280
     0
102
RTVSPost2010PropOp36
 70
     1
102
RTVSPost2010Prop37
 90
       50
102
RTVSPost2010PropOp37
 70
     1
102
RTVSPost2010Prop38
140
0.0
102
RTVSPost2010PropOp38
 70
     1
102
RTVSPost2010Prop39
140
1.0
102
RTVSPost2010PropOp39
 70
     1
102
RTVSPost2010Prop40
 90
        0
102
RTVSPost2010PropOp40
 70
     1
102
RTVSPost2010Prop41ColorIndex
 90
       18
102
RTVSPost2010Prop41ColorRGB
 90
        0
102
RTVSPost2010PropOp41
 70
     1
102
RTVSPost2010Prop42
 90
       50
102
RTVSPost2010PropOp42
 70
     1
102
RTVSPost2010Prop43
 90
        3
102
RTVSPost2010PropOp43
 70
     1
102
RTVSPost2010Prop44ColorIndex
 90
        5
102
RTVSPost2010Prop44ColorRGB
 90
      255
102
RTVSPost2010PropOp44
 70
     1
102
RTVSPost2010Prop45
280
     0
102
RTVSPost2010PropOp45
 70
     1
102
RTVSPost2010Prop46
 90
       50
102
RTVSPost2010PropOp46
 70
     1
102
RTVSPost2010Prop47
 90
       50
102
RTVSPost2010PropOp47
 70
     1
102
RTVSPost2010Prop48
 90
       50
102
RTVSPost2010PropOp48
 70
     1
102
RTVSPost2010Prop49
280
     0
102
RTVSPost2010PropOp49
 70
     1
102
RTVSPost2010Prop50
 90
       50
102
RTVSPost2010PropOp50
 70
     1
102
RTVSPost2010Prop51ColorIndex
 90
      256
102
RTVSPost2010Prop51ColorRGB
 90
-16777216
102
RTVSPost2010PropOp51
 70
     0
102
RTVSPost2010Prop52
140
1.0
102
RTVSPost2010PropOp52
 70
     0
102
RTVSPost2010Prop53
 90
        2
102
RTVSPost2010PropOp53
 70
     1
102
RTVSPost2010Prop54
  1
strokes_ogs.tif
102
RTVSPost2010PropOp54
 70
     1
102
RTVSPost2010Prop55
280
     0
102
RTVSPost2010PropOp55
 70
     1
102
RTVSPost2010Prop56
140
1.0
102
RTVSPost2010PropOp56
 70
     1
102
RTVSPost2010Prop57
140
1.0
102
RTVSPost2010PropOp57
 70
     1
  0
XRECORD
  5
558
102
{ACAD_REACTORS
330
557
102
}
330
557
100
AcDbXrecord
280
     1
102
RTVSPropertyOp0
 70
     1
102
RTVSPropertyOp1
 70
     1
102
RTVSPropertyOp2
 70
     1
102
RTVSPropertyOp3
 70
     1
102
RTVSPropertyOp4
 70
     1
102
RTVSPropertyOp5
 70
     1
102
RTVSPropertyOp6
 70
     1
102
RTVSPropertyOp7
 70
     1
102
RTVSPropertyOp8
 70
     1
102
RTVSPropertyOp9
 70
     1
102
RTVSPropertyOp10
 70
     1
102
RTVSPropertyOp11
 70
     1
102
RTVSPropertyOp12
 70
     1
102
RTVSPropertyOp13
 70
     1
102
RTVSPropertyOp14
 70
     1
102
RTVSPropertyOp15
 70
     1
102
RTVSPropertyOp16
 70
     1
102
RTVSPropertyOp17
 70
     1
102
RTVSPropertyOp18
 70
     1
102
RTVSPropertyOp19
 70
     1
102
RTVSPropertyOp20
 70
     1
102
RTVSPropertyOp21
 70
     1
102
RTVSPropertyOp22
 70
     1
102
RTVSPropertyOp23
 70
     1
102
RTVSPropertyOp24
 70
     1
102
RTVSPropertyOp25
 70
     1
102
RTVSPropertyOp26
 70
     1
102
RTVSPropertyOp27
 70
     1
102
RTVSPropertyOp28
 70
     1
102
RTVSPropertyOp29
 70
     1
102
RTVSPropertyOp30
 70
     1
102
RTVSPropertyOp31
 70
     1
102
RTVSPropertyOp32
 70
     1
102
RTVSPropertyOp33
 70
     1
102
RTVSPropertyOp34
 70
     1
102
RTVSPropertyOp35
 70
     1
102
RTVSPropertyOp36
 70
     1
102
RTVSPropertyOp37
 70
     1
102
RTVSPropertyOp38
 70
     1
102
RTVSPropertyOp39
 70
     1
102
RTVSPropertyOp40
 70
     1
102
RTVSPropertyOp41
 70
     1
102
RTVSPropertyOp42
 70
     1
102
RTVSPropertyOp43
 70
     1
102
RTVSPropertyOp44
 70
     1
102
RTVSPropertyOp45
 70
     1
102
RTVSPropertyOp46
 70
     1
102
RTVSPropertyOp47
 70
     1
102
RTVSPropertyOp48
 70
     1
102
RTVSPropertyOp49
 70
     1
102
RTVSPropertyOp50
 70
     1
102
RTVSPropertyOp51
 70
     0
102
RTVSPropertyOp52
 70
     0
102
RTVSPropertyOp53
 70
     1
102
RTVSPropertyOp54
 70
     1
102
RTVSPropertyOp55
 70
     1
102
RTVSPropertyOp56
 70
     1
102
RTVSPropertyOp57
 70
     1
102
RTVSPost2010Prop28
280
     0
102
RTVSPost2010PropOp28
 70
     1
102
RTVSPost2010Prop29
280
     1
102
RTVSPost2010PropOp29
 70
     1
102
RTVSPost2010Prop30
280
     1
102
RTVSPost2010PropOp30
 70
     1
102
RTVSPost2010Prop31
280
     0
102
RTVSPost2010PropOp31
 70
     1
102
RTVSPost2010Prop32
280
     0
102
RTVSPost2010PropOp32
 70
     1
102
RTVSPost2010Prop33
280
     0
102
RTVSPost2010PropOp33
 70
     1
102
RTVSPost2010Prop34
280
     0
102
RTVSPost2010PropOp34
 70
     1
102
RTVSPost2010Prop35
280
     0
102
RTVSPost2010PropOp35
 70
     1
102
RTVSPost2010Prop36
280
     0
102
RTVSPost2010PropOp36
 70
     1
102
RTVSPost2010Prop37
 90
       50
102
RTVSPost2010PropOp37
 70
     1
102
RTVSPost2010Prop38
140
0.0
102
RTVSPost2010PropOp38
 70
     1
102
RTVSPost2010Prop39
140
1.0
102
RTVSPost2010PropOp39
 70
     1
102
RTVSPost2010Prop40
 90
        0
102
RTVSPost2010PropOp40
 70
     1
102
RTVSPost2010Prop41ColorIndex
 90
       18
102
RTVSPost2010Prop41ColorRGB
 90
        0
102
RTVSPost2010PropOp41
 70
     1
102
RTVSPost2010Prop42
 90
       50
102
RTVSPost2010PropOp42
 70
     1
102
RTVSPost2010Prop43
 90
        3
102
RTVSPost2010PropOp43
 70
     1
102
RTVSPost2010Prop44ColorIndex
 90
        5
102
RTVSPost2010Prop44ColorRGB
 90
      255
102
RTVSPost2010PropOp44
 70
     1
102
RTVSPost2010Prop45
280
     0
102
RTVSPost2010PropOp45
 70
     1
102
RTVSPost2010Prop46
 90
       50
102
RTVSPost2010PropOp46
 70
     1
102
RTVSPost2010Prop47
 90
       50
102
RTVSPost2010PropOp47
 70
     1
102
RTVSPost2010Prop48
 90
       50
102
RTVSPost2010PropOp48
 70
     1
102
RTVSPost2010Prop49
280
     0
102
RTVSPost2010PropOp49
 70
     1
102
RTVSPost2010Prop50
 90
       50
102
RTVSPost2010PropOp50
 70
     1
102
RTVSPost2010Prop51ColorIndex
 90
      256
102
RTVSPost2010Prop51ColorRGB
 90
-16777216
102
RTVSPost2010PropOp51
 70
     0
102
RTVSPost2010Prop52
140
1.0
102
RTVSPost2010PropOp52
 70
     0
102
RTVSPost2010Prop53
 90
        2
102
RTVSPost2010PropOp53
 70
     1
102
RTVSPost2010Prop54
  1
strokes_ogs.tif
102
RTVSPost2010PropOp54
 70
     1
102
RTVSPost2010Prop55
280
     0
102
RTVSPost2010PropOp55
 70
     1
102
RTVSPost2010Prop56
140
1.0
102
RTVSPost2010PropOp56
 70
     1
102
RTVSPost2010Prop57
140
1.0
102
RTVSPost2010PropOp57
 70
     1
  0
XRECORD
  5
54A
102
{ACAD_REACTORS
330
549
102
}
330
549
100
AcDbXrecord
280
     1
102
RTVSPropertyOp0
 70
     1
102
RTVSPropertyOp1
 70
     1
102
RTVSPropertyOp2
 70
     1
102
RTVSPropertyOp3
 70
     1
102
RTVSPropertyOp4
 70
     1
102
RTVSPropertyOp5
 70
     1
102
RTVSPropertyOp6
 70
     1
102
RTVSPropertyOp7
 70
     1
102
RTVSPropertyOp8
 70
     1
102
RTVSPropertyOp9
 70
     1
102
RTVSPropertyOp10
 70
     1
102
RTVSPropertyOp11
 70
     1
102
RTVSPropertyOp12
 70
     1
102
RTVSPropertyOp13
 70
     1
102
RTVSPropertyOp14
 70
     1
102
RTVSPropertyOp15
 70
     1
102
RTVSPropertyOp16
 70
     1
102
RTVSPropertyOp17
 70
     1
102
RTVSPropertyOp18
 70
     1
102
RTVSPropertyOp19
 70
     1
102
RTVSPropertyOp20
 70
     1
102
RTVSPropertyOp21
 70
     1
102
RTVSPropertyOp22
 70
     1
102
RTVSPropertyOp23
 70
     1
102
RTVSPropertyOp24
 70
     1
102
RTVSPropertyOp25
 70
     1
102
RTVSPropertyOp26
 70
     1
102
RTVSPropertyOp27
 70
     1
102
RTVSPropertyOp28
 70
     1
102
RTVSPropertyOp29
 70
     1
102
RTVSPropertyOp30
 70
     1
102
RTVSPropertyOp31
 70
     1
102
RTVSPropertyOp32
 70
     1
102
RTVSPropertyOp33
 70
     1
102
RTVSPropertyOp34
 70
     1
102
RTVSPropertyOp35
 70
     1
102
RTVSPropertyOp36
 70
     1
102
RTVSPropertyOp37
 70
     1
102
RTVSPropertyOp38
 70
     1
102
RTVSPropertyOp39
 70
     1
102
RTVSPropertyOp40
 70
     1
102
RTVSPropertyOp41
 70
     1
102
RTVSPropertyOp42
 70
     1
102
RTVSPropertyOp43
 70
     1
102
RTVSPropertyOp44
 70
     1
102
RTVSPropertyOp45
 70
     1
102
RTVSPropertyOp46
 70
     1
102
RTVSPropertyOp47
 70
     1
102
RTVSPropertyOp48
 70
     1
102
RTVSPropertyOp49
 70
     1
102
RTVSPropertyOp50
 70
     1
102
RTVSPropertyOp51
 70
     0
102
RTVSPropertyOp52
 70
     0
102
RTVSPropertyOp53
 70
     1
102
RTVSPropertyOp54
 70
     1
102
RTVSPropertyOp55
 70
     1
102
RTVSPropertyOp56
 70
     1
102
RTVSPropertyOp57
 70
     1
102
RTVSPost2010Prop28
280
     0
102
RTVSPost2010PropOp28
 70
     1
102
RTVSPost2010Prop29
280
     1
102
RTVSPost2010PropOp29
 70
     1
102
RTVSPost2010Prop30
280
     1
102
RTVSPost2010PropOp30
 70
     1
102
RTVSPost2010Prop31
280
     0
102
RTVSPost2010PropOp31
 70
     1
102
RTVSPost2010Prop32
280
     0
102
RTVSPost2010PropOp32
 70
     1
102
RTVSPost2010Prop33
280
     0
102
RTVSPost2010PropOp33
 70
     1
102
RTVSPost2010Prop34
280
     0
102
RTVSPost2010PropOp34
 70
     1
102
RTVSPost2010Prop35
280
     0
102
RTVSPost2010PropOp35
 70
     1
102
RTVSPost2010Prop36
280
     0
102
RTVSPost2010PropOp36
 70
     1
102
RTVSPost2010Prop37
 90
       50
102
RTVSPost2010PropOp37
 70
     1
102
RTVSPost2010Prop38
140
0.0
102
RTVSPost2010PropOp38
 70
     1
102
RTVSPost2010Prop39
140
1.0
102
RTVSPost2010PropOp39
 70
     1
102
RTVSPost2010Prop40
 90
        0
102
RTVSPost2010PropOp40
 70
     1
102
RTVSPost2010Prop41ColorIndex
 90
       18
102
RTVSPost2010Prop41ColorRGB
 90
        0
102
RTVSPost2010PropOp41
 70
     1
102
RTVSPost2010Prop42
 90
       50
102
RTVSPost2010PropOp42
 70
     1
102
RTVSPost2010Prop43
 90
        3
102
RTVSPost2010PropOp43
 70
     1
102
RTVSPost2010Prop44ColorIndex
 90
        5
102
RTVSPost2010Prop44ColorRGB
 90
      255
102
RTVSPost2010PropOp44
 70
     1
102
RTVSPost2010Prop45
280
     0
102
RTVSPost2010PropOp45
 70
     1
102
RTVSPost2010Prop46
 90
       50
102
RTVSPost2010PropOp46
 70
     1
102
RTVSPost2010Prop47
 90
       50
102
RTVSPost2010PropOp47
 70
     1
102
RTVSPost2010Prop48
 90
       50
102
RTVSPost2010PropOp48
 70
     1
102
RTVSPost2010Prop49
280
     0
102
RTVSPost2010PropOp49
 70
     1
102
RTVSPost2010Prop50
 90
       50
102
RTVSPost2010PropOp50
 70
     1
102
RTVSPost2010Prop51ColorIndex
 90
      256
102
RTVSPost2010Prop51ColorRGB
 90
-16777216
102
RTVSPost2010PropOp51
 70
     0
102
RTVSPost2010Prop52
140
1.0
102
RTVSPost2010PropOp52
 70
     0
102
RTVSPost2010Prop53
 90
        2
102
RTVSPost2010PropOp53
 70
     1
102
RTVSPost2010Prop54
  1
strokes_ogs.tif
102
RTVSPost2010PropOp54
 70
     1
102
RTVSPost2010Prop55
280
     0
102
RTVSPost2010PropOp55
 70
     1
102
RTVSPost2010Prop56
140
1.0
102
RTVSPost2010PropOp56
 70
     1
102
RTVSPost2010Prop57
140
1.0
102
RTVSPost2010PropOp57
 70
     1
  0
XRECORD
  5
56A
102
{ACAD_REACTORS
330
569
102
}
330
569
100
AcDbXrecord
280
     1
102
RTVSPropertyOp0
 70
     1
102
RTVSPropertyOp1
 70
     1
102
RTVSPropertyOp2
 70
     1
102
RTVSPropertyOp3
 70
     1
102
RTVSPropertyOp4
 70
     1
102
RTVSPropertyOp5
 70
     1
102
RTVSPropertyOp6
 70
     1
102
RTVSPropertyOp7
 70
     1
102
RTVSPropertyOp8
 70
     1
102
RTVSPropertyOp9
 70
     1
102
RTVSPropertyOp10
 70
     1
102
RTVSPropertyOp11
 70
     1
102
RTVSPropertyOp12
 70
     1
102
RTVSPropertyOp13
 70
     1
102
RTVSPropertyOp14
 70
     1
102
RTVSPropertyOp15
 70
     1
102
RTVSPropertyOp16
 70
     1
102
RTVSPropertyOp17
 70
     1
102
RTVSPropertyOp18
 70
     1
102
RTVSPropertyOp19
 70
     1
102
RTVSPropertyOp20
 70
     1
102
RTVSPropertyOp21
 70
     1
102
RTVSPropertyOp22
 70
     1
102
RTVSPropertyOp23
 70
     1
102
RTVSPropertyOp24
 70
     1
102
RTVSPropertyOp25
 70
     1
102
RTVSPropertyOp26
 70
     1
102
RTVSPropertyOp27
 70
     1
102
RTVSPropertyOp28
 70
     1
102
RTVSPropertyOp29
 70
     1
102
RTVSPropertyOp30
 70
     1
102
RTVSPropertyOp31
 70
     1
102
RTVSPropertyOp32
 70
     1
102
RTVSPropertyOp33
 70
     1
102
RTVSPropertyOp34
 70
     1
102
RTVSPropertyOp35
 70
     1
102
RTVSPropertyOp36
 70
     1
102
RTVSPropertyOp37
 70
     1
102
RTVSPropertyOp38
 70
     1
102
RTVSPropertyOp39
 70
     1
102
RTVSPropertyOp40
 70
     1
102
RTVSPropertyOp41
 70
     1
102
RTVSPropertyOp42
 70
     1
102
RTVSPropertyOp43
 70
     1
102
RTVSPropertyOp44
 70
     1
102
RTVSPropertyOp45
 70
     1
102
RTVSPropertyOp46
 70
     1
102
RTVSPropertyOp47
 70
     1
102
RTVSPropertyOp48
 70
     1
102
RTVSPropertyOp49
 70
     1
102
RTVSPropertyOp50
 70
     1
102
RTVSPropertyOp51
 70
     0
102
RTVSPropertyOp52
 70
     0
102
RTVSPropertyOp53
 70
     1
102
RTVSPropertyOp54
 70
     1
102
RTVSPropertyOp55
 70
     1
102
RTVSPropertyOp56
 70
     1
102
RTVSPropertyOp57
 70
     1
102
RTVSPost2010Prop28
280
     0
102
RTVSPost2010PropOp28
 70
     1
102
RTVSPost2010Prop29
280
     1
102
RTVSPost2010PropOp29
 70
     1
102
RTVSPost2010Prop30
280
     1
102
RTVSPost2010PropOp30
 70
     1
102
RTVSPost2010Prop31
280
     0
102
RTVSPost2010PropOp31
 70
     1
102
RTVSPost2010Prop32
280
     0
102
RTVSPost2010PropOp32
 70
     1
102
RTVSPost2010Prop33
280
     0
102
RTVSPost2010PropOp33
 70
     1
102
RTVSPost2010Prop34
280
     0
102
RTVSPost2010PropOp34
 70
     1
102
RTVSPost2010Prop35
280
     0
102
RTVSPost2010PropOp35
 70
     1
102
RTVSPost2010Prop36
280
     0
102
RTVSPost2010PropOp36
 70
     1
102
RTVSPost2010Prop37
 90
       50
102
RTVSPost2010PropOp37
 70
     1
102
RTVSPost2010Prop38
140
0.0
102
RTVSPost2010PropOp38
 70
     1
102
RTVSPost2010Prop39
140
1.0
102
RTVSPost2010PropOp39
 70
     1
102
RTVSPost2010Prop40
 90
        0
102
RTVSPost2010PropOp40
 70
     1
102
RTVSPost2010Prop41ColorIndex
 90
       18
102
RTVSPost2010Prop41ColorRGB
 90
        0
102
RTVSPost2010PropOp41
 70
     1
102
RTVSPost2010Prop42
 90
       50
102
RTVSPost2010PropOp42
 70
     1
102
RTVSPost2010Prop43
 90
        3
102
RTVSPost2010PropOp43
 70
     1
102
RTVSPost2010Prop44ColorIndex
 90
        5
102
RTVSPost2010Prop44ColorRGB
 90
      255
102
RTVSPost2010PropOp44
 70
     1
102
RTVSPost2010Prop45
280
     0
102
RTVSPost2010PropOp45
 70
     1
102
RTVSPost2010Prop46
 90
       50
102
RTVSPost2010PropOp46
 70
     1
102
RTVSPost2010Prop47
 90
       50
102
RTVSPost2010PropOp47
 70
     1
102
RTVSPost2010Prop48
 90
       50
102
RTVSPost2010PropOp48
 70
     1
102
RTVSPost2010Prop49
280
     0
102
RTVSPost2010PropOp49
 70
     1
102
RTVSPost2010Prop50
 90
       50
102
RTVSPost2010PropOp50
 70
     1
102
RTVSPost2010Prop51ColorIndex
 90
      256
102
RTVSPost2010Prop51ColorRGB
 90
-16777216
102
RTVSPost2010PropOp51
 70
     0
102
RTVSPost2010Prop52
140
1.0
102
RTVSPost2010PropOp52
 70
     0
102
RTVSPost2010Prop53
 90
        2
102
RTVSPost2010PropOp53
 70
     1
102
RTVSPost2010Prop54
  1
strokes_ogs.tif
102
RTVSPost2010PropOp54
 70
     1
102
RTVSPost2010Prop55
280
     0
102
RTVSPost2010PropOp55
 70
     1
102
RTVSPost2010Prop56
140
1.0
102
RTVSPost2010PropOp56
 70
     1
102
RTVSPost2010Prop57
140
1.0
102
RTVSPost2010PropOp57
 70
     1
  0
ENDSEC
  0
EOF
