  0
SECTION
  2
HEADER
  9
$ACADVER
  1
AC1015
  9
$ACADMAINTVER
 70
     6
  9
$DWGCODEPAGE
  3
ANSI_932
  9
$INSBASE
 10
-62.84247277770191
 20
-244.6096122228773
 30
0.0
  9
$EXTMIN
 10
180.2380708879627
 20
18.39710898029875
 30
0.0
  9
$EXTMAX
 10
1690.766856885062
 20
1464.260092619819
 30
0.0
  9
$LIMMIN
 10
-210.0
 20
-148.5
  9
$LIMMAX
 10
210.0
 20
148.5
  9
$ORTHOMODE
 70
     1
  9
$REGENMODE
 70
     1
  9
$FILLMODE
 70
     1
  9
$QTEXTMODE
 70
     0
  9
$MIRRTEXT
 70
     1
  9
$LTSCALE
 40
5.0
  9
$ATTMODE
 70
     1
  9
$TEXTSIZE
 40
9.0
  9
$TRACEWID
 40
0.05
  9
$TEXTSTYLE
  7
KANJI
  9
$CLAYER
  8
2
  9
$CELTYPE
  6
BYLAYER
  9
$CECOLOR
 62
   256
  9
$CELTSCALE
 40
1.0
  9
$DISPSILH
 70
     0
  9
$DIMSCALE
 40
5.0
  9
$DIMASZ
 40
2.0
  9
$DIMEXO
 40
0.5
  9
$DIMDLI
 40
10.0
  9
$DIMRND
 40
0.0
  9
$DIMDLE
 40
0.0
  9
$DIMEXE
 40
1.0
  9
$DIMTP
 40
0.0
  9
$DIMTM
 40
0.0
  9
$DIMTXT
 40
3.0
  9
$DIMCEN
 40
0.09
  9
$DIMTSZ
 40
0.0
  9
$DIMTOL
 70
     0
  9
$DIMLIM
 70
     0
  9
$DIMTIH
 70
     0
  9
$DIMTOH
 70
     0
  9
$DIMSE1
 70
     0
  9
$DIMSE2
 70
     0
  9
$DIMTAD
 70
     0
  9
$DIMZIN
 70
     8
  9
$DIMBLK
  1

  9
$DIMASO
 70
     0
  9
$DIMSHO
 70
     0
  9
$DIMPOST
  1

  9
$DIMAPOST
  1

  9
$DIMALT
 70
     0
  9
$DIMALTD
 70
     2
  9
$DIMALTF
 40
25.4
  9
$DIMLFAC
 40
1.0
  9
$DIMTOFL
 70
     1
  9
$DIMTVP
 40
1.0
  9
$DIMTIX
 70
     1
  9
$DIMSOXD
 70
     1
  9
$DIMSAH
 70
     0
  9
$DIMBLK1
  1

  9
$DIMBLK2
  1

  9
$DIMSTYLE
  2
STANDARD
  9
$DIMCLRD
 70
   256
  9
$DIMCLRE
 70
   256
  9
$DIMCLRT
 70
     2
  9
$DIMTFAC
 40
1.0
  9
$DIMGAP
 40
0.09
  9
$DIMJUST
 70
     0
  9
$DIMSD1
 70
     0
  9
$DIMSD2
 70
     0
  9
$DIMTOLJ
 70
     1
  9
$DIMTZIN
 70
     0
  9
$DIMALTZ
 70
     0
  9
$DIMALTTZ
 70
     0
  9
$DIMUPT
 70
     0
  9
$DIMDEC
 70
     2
  9
$DIMTDEC
 70
     4
  9
$DIMALTU
 70
     2
  9
$DIMALTTD
 70
     2
  9
$DIMTXSTY
  7
STANDARD
  9
$DIMAUNIT
 70
     0
  9
$DIMADEC
 70
     0
  9
$DIMALTRND
 40
0.0
  9
$DIMAZIN
 70
     0
  9
$DIMDSEP
 70
    46
  9
$DIMATFIT
 70
     3
  9
$DIMFRAC
 70
     0
  9
$DIMLDRBLK
  1

  9
$DIMLUNIT
 70
     2
  9
$DIMLWD
 70
    -2
  9
$DIMLWE
 70
    -2
  9
$DIMTMOVE
 70
     0
  9
$LUNITS
 70
     2
  9
$LUPREC
 70
     4
  9
$SKETCHINC
 40
0.1
  9
$FILLETRAD
 40
0.0
  9
$AUNITS
 70
     0
  9
$AUPREC
 70
     0
  9
$MENU
  1
.
  9
$ELEVATION
 40
0.0
  9
$PELEVATION
 40
0.0
  9
$THICKNESS
 40
0.0
  9
$LIMCHECK
 70
     0
  9
$CHAMFERA
 40
0.0
  9
$CHAMFERB
 40
0.0
  9
$CHAMFERC
 40
0.0
  9
$CHAMFERD
 40
0.0
  9
$SKPOLY
 70
     0
  9
$TDCREATE
 40
2457539.641654572
  9
$TDUCREATE
 40
2457539.266654572
  9
$TDUPDATE
 40
2457871.841435914
  9
$TDUUPDATE
 40
2457871.466435914
  9
$TDINDWG
 40
0.0126060995
  9
$TDUSRTIMER
 40
0.0126056019
  9
$USRTIMER
 70
     1
  9
$ANGBASE
 50
0.0
  9
$ANGDIR
 70
     0
  9
$PDMODE
 70
     0
  9
$PDSIZE
 40
0.0
  9
$PLINEWID
 40
0.0
  9
$SPLFRAME
 70
     0
  9
$SPLINETYPE
 70
     6
  9
$SPLINESEGS
 70
     8
  9
$HANDSEED
  5
1F84
  9
$SURFTAB1
 70
     6
  9
$SURFTAB2
 70
     6
  9
$SURFTYPE
 70
     6
  9
$SURFU
 70
     6
  9
$SURFV
 70
     6
  9
$UCSBASE
  2

  9
$UCSNAME
  2

  9
$UCSORG
 10
0.0
 20
0.0
 30
0.0
  9
$UCSXDIR
 10
1.0
 20
0.0
 30
0.0
  9
$UCSYDIR
 10
0.0
 20
1.0
 30
0.0
  9
$UCSORTHOREF
  2

  9
$UCSORTHOVIEW
 70
     0
  9
$UCSORGTOP
 10
0.0
 20
0.0
 30
0.0
  9
$UCSORGBOTTOM
 10
0.0
 20
0.0
 30
0.0
  9
$UCSORGLEFT
 10
0.0
 20
0.0
 30
0.0
  9
$UCSORGRIGHT
 10
0.0
 20
0.0
 30
0.0
  9
$UCSORGFRONT
 10
0.0
 20
0.0
 30
0.0
  9
$UCSORGBACK
 10
0.0
 20
0.0
 30
0.0
  9
$PUCSBASE
  2

  9
$PUCSNAME
  2

  9
$PUCSORG
 10
0.0
 20
0.0
 30
0.0
  9
$PUCSXDIR
 10
1.0
 20
0.0
 30
0.0
  9
$PUCSYDIR
 10
0.0
 20
1.0
 30
0.0
  9
$PUCSORTHOREF
  2

  9
$PUCSORTHOVIEW
 70
     0
  9
$PUCSORGTOP
 10
0.0
 20
0.0
 30
0.0
  9
$PUCSORGBOTTOM
 10
0.0
 20
0.0
 30
0.0
  9
$PUCSORGLEFT
 10
0.0
 20
0.0
 30
0.0
  9
$PUCSORGRIGHT
 10
0.0
 20
0.0
 30
0.0
  9
$PUCSORGFRONT
 10
0.0
 20
0.0
 30
0.0
  9
$PUCSORGBACK
 10
0.0
 20
0.0
 30
0.0
  9
$USERI1
 70
     0
  9
$USERI2
 70
     0
  9
$USERI3
 70
     0
  9
$USERI4
 70
     0
  9
$USERI5
 70
     0
  9
$USERR1
 40
0.0
  9
$USERR2
 40
0.0
  9
$USERR3
 40
0.0
  9
$USERR4
 40
0.0
  9
$USERR5
 40
0.0
  9
$WORLDVIEW
 70
     1
  9
$SHADEDGE
 70
     3
  9
$SHADEDIF
 70
    70
  9
$TILEMODE
 70
     1
  9
$MAXACTVP
 70
    16
  9
$PINSBASE
 10
0.0
 20
0.0
 30
0.0
  9
$PLIMCHECK
 70
     0
  9
$PEXTMIN
 10
1.000000000000000E+20
 20
1.000000000000000E+20
 30
1.000000000000000E+20
  9
$PEXTMAX
 10
-1.000000000000000E+20
 20
-1.000000000000000E+20
 30
-1.000000000000000E+20
  9
$PLIMMIN
 10
0.0
 20
0.0
  9
$PLIMMAX
 10
12.0
 20
9.0
  9
$UNITMODE
 70
     0
  9
$VISRETAIN
 70
     0
  9
$PLINEGEN
 70
     0
  9
$PSLTSCALE
 70
     1
  9
$TREEDEPTH
 70
  3020
  9
$CMLSTYLE
  2
STANDARD
  9
$CMLJUST
 70
     0
  9
$CMLSCALE
 40
1.0
  9
$PROXYGRAPHICS
 70
     1
  9
$MEASUREMENT
 70
     0
  9
$CELWEIGHT
370
    -1
  9
$ENDCAPS
280
     0
  9
$JOINSTYLE
280
     0
  9
$LWDISPLAY
290
     0
  9
$INSUNITS
 70
     0
  9
$HYPERLINKBASE
  1

  9
$STYLESHEET
  1

  9
$XEDIT
290
     1
  9
$CEPSNTYPE
380
     0
  9
$PSTYLEMODE
290
     1
  9
$FINGERPRINTGUID
  2
{68FCCCC9-CB5C-4197-9E9E-163B8AD19984}
  9
$VERSIONGUID
  2
{F00ECDC1-A108-4D45-A5A7-3ADFDB5CF989}
  9
$EXTNAMES
290
     1
  9
$PSVPSCALE
 40
0.0
  9
$OLESTARTUP
290
     0
  0
ENDSEC
  0
SECTION
  2
CLASSES
  0
CLASS
  1
ACDBDICTIONARYWDFLT
  2
AcDbDictionaryWithDefault
  3
ObjectDBX Classes
 90
        0
280
     0
281
     0
  0
CLASS
  1
ACDBPLACEHOLDER
  2
AcDbPlaceHolder
  3
ObjectDBX Classes
 90
        0
280
     0
281
     0
  0
CLASS
  1
LAYOUT
  2
AcDbLayout
  3
ObjectDBX Classes
 90
        0
280
     0
281
     0
  0
CLASS
  1
DUMMY
  2
AcDbLongTransaction
  3
DUMMY
 90
        0
280
     0
281
     0
  0
CLASS
  1
LWPOLYLINE
  2
AcDbPolyline
  3
AutoCAD 2000
 90
        0
280
     0
281
     1
  0
CLASS
  1
HATCH
  2
AcDbHatch
  3
AutoCAD 2000
 90
        0
280
     0
281
     1
  0
CLASS
  1
XRECORD
  2
AcDbXrecord
  3
AutoCAD 2000
 90
        0
280
     0
281
     0
  0
CLASS
  1
DICTIONARYVAR
  2
AcDbDictionaryVar
  3
ObjectDBX Classes
 90
        0
280
     0
281
     0
  0
CLASS
  1
DUMMY
  2
AcDbLongTransaction
  3
DUMMY
 90
        0
280
     0
281
     0
  0
CLASS
  1
LWPOLYLINE
  2
AcDbPolyline
  3
AutoCAD 2000
 90
        0
280
     0
281
     1
  0
CLASS
  1
HATCH
  2
AcDbHatch
  3
AutoCAD 2000
 90
        0
280
     0
281
     1
  0
CLASS
  1
XRECORD
  2
AcDbXrecord
  3
AutoCAD 2000
 90
        0
280
     0
281
     0
  0
CLASS
  1
OLE2FRAME
  2
AcDbOle2Frame
  3
AutoCAD 2000
 90
        0
280
     0
281
     1
  0
CLASS
  1
DUMMY
  2
AcDbLongTransaction
  3
DUMMY
 90
        0
280
     0
281
     0
  0
CLASS
  1
LWPOLYLINE
  2
AcDbPolyline
  3
AutoCAD 2000
 90
        0
280
     0
281
     1
  0
CLASS
  1
HATCH
  2
AcDbHatch
  3
AutoCAD 2000
 90
        0
280
     0
281
     1
  0
CLASS
  1
XRECORD
  2
AcDbXrecord
  3
AutoCAD 2000
 90
        0
280
     0
281
     0
  0
CLASS
  1
MATERIAL
  2
AcDbMaterial
  3
ObjectDBX Classes
 90
     1153
280
     0
281
     0
  0
CLASS
  1
VISUALSTYLE
  2
AcDbVisualStyle
  3
ObjectDBX Classes
 90
     4095
280
     0
281
     0
  0
CLASS
  1
TABLESTYLE
  2
AcDbTableStyle
  3
ObjectDBX Classes
 90
     4095
280
     0
281
     0
  0
CLASS
  1
SCALE
  2
AcDbScale
  3
ObjectDBX Classes
 90
     1153
280
     0
281
     0
  0
CLASS
  1
MLEADERSTYLE
  2
AcDbMLeaderStyle
  3
ACDB_MLEADERSTYLE_CLASS
 90
     4095
280
     0
281
     0
  0
CLASS
  1
SORTENTSTABLE
  2
AcDbSortentsTable
  3
ObjectDBX Classes
 90
        0
280
     0
281
     0
  0
ENDSEC
  0
SECTION
  2
TABLES
  0
TABLE
  2
VPORT
  5
2C
102
{ACAD_XDICTIONARY
360
1F4A
102
}
330
0
100
AcDbSymbolTable
 70
     1
  0
VPORT
  5
2D
330
2C
100
AcDbSymbolTableRecord
100
AcDbViewportTableRecord
  2
*Active
 70
     0
 10
0.0
 20
0.0
 11
1.0
 21
1.0
 12
1441.834400706125
 22
780.5973471326263
 13
0.0
 23
0.0
 14
1.0
 24
1.0
 15
0.0
 25
0.0
 16
0.0
 26
0.0
 36
1.0
 17
0.0
 27
0.0
 37
0.0
 40
2516.965273552629
 41
2.174107142857143
 42
50.0
 43
0.0
 44
0.0
 50
0.0
 51
0.0
 71
     0
 72
 20000
 73
     1
 74
     0
 75
     0
 76
     0
 77
     0
 78
     0
281
     0
 65
     1
110
0.0
120
0.0
130
0.0
111
1.0
121
0.0
131
0.0
112
0.0
122
1.0
132
0.0
 79
     0
146
0.0
1001
ACAD_NAV_VCDISPLAY
1070
     3
  0
ENDTAB
  0
TABLE
  2
LTYPE
  5
27
330
0
100
AcDbSymbolTable
 70
     4
  0
LTYPE
  5
28
330
27
100
AcDbSymbolTableRecord
100
AcDbLinetypeTableRecord
  2
BYBLOCK
 70
     0
  3

 72
    65
 73
     0
 40
0.0
  0
LTYPE
  5
29
330
27
100
AcDbSymbolTableRecord
100
AcDbLinetypeTableRecord
  2
BYLAYER
 70
     0
  3

 72
    65
 73
     0
 40
0.0
  0
LTYPE
  5
15
330
27
100
AcDbSymbolTableRecord
100
AcDbLinetypeTableRecord
  2
CONTINUOUS
 70
     0
  3
Solid line
 72
    65
 73
     0
 40
0.0
  0
LTYPE
  5
134
330
27
100
AcDbSymbolTableRecord
100
AcDbLinetypeTableRecord
  2
DASHDOT
 70
     0
  3
__ . __ . __ . __ . __ . __ . __ . __ . __ . __
 72
    65
 73
     4
 40
8.0
 49
5.0
 74
     0
 49
-1.0
 74
     0
 49
1.0
 74
     0
 49
-1.0
 74
     0
  0
LTYPE
  5
17E
330
27
100
AcDbSymbolTableRecord
100
AcDbLinetypeTableRecord
  2
CENTER
 70
     0
  3
Center ____ _ ____ _ ____ _ ____ _ ____ _ ____
 72
    65
 73
     4
 40
2.0
 49
1.25
 74
     0
 49
-0.25
 74
     0
 49
0.25
 74
     0
 49
-0.25
 74
     0
  0
LTYPE
  5
80
330
27
100
AcDbSymbolTableRecord
100
AcDbLinetypeTableRecord
  2
DASHED
 70
     0
  3
__ __ __ __ __ __ __ __ __ __ __ __ __ __ __
 72
    65
 73
     2
 40
0.75
 49
0.5
 74
     0
 49
-0.25
 74
     0
  0
ENDTAB
  0
TABLE
  2
LAYER
  5
21
102
{ACAD_XDICTIONARY
360
22
102
}
330
0
100
AcDbSymbolTable
 70
     8
  0
LAYER
  5
6
102
{ACAD_XDICTIONARY
360
7
102
}
330
21
100
AcDbSymbolTableRecord
100
AcDbLayerTableRecord
  2
0
 70
     0
 62
     7
  6
CONTINUOUS
370
    -3
390
9
  0
LAYER
  5
67
102
{ACAD_XDICTIONARY
360
68
102
}
330
21
100
AcDbSymbolTableRecord
100
AcDbLayerTableRecord
  2
1
 70
     0
 62
     9
  6
CONTINUOUS
370
    -3
390
9
  0
LAYER
  5
4C
102
{ACAD_XDICTIONARY
360
4D
102
}
330
21
100
AcDbSymbolTableRecord
100
AcDbLayerTableRecord
  2
2
 70
     0
 62
     4
  6
CONTINUOUS
370
    -3
390
9
  0
LAYER
  5
6B
102
{ACAD_XDICTIONARY
360
6C
102
}
330
21
100
AcDbSymbolTableRecord
100
AcDbLayerTableRecord
  2
4
 70
     0
 62
     3
  6
CONTINUOUS
370
    -3
390
9
  0
LAYER
  5
17B
102
{ACAD_XDICTIONARY
360
17C
102
}
330
21
100
AcDbSymbolTableRecord
100
AcDbLayerTableRecord
  2
L-CENTER
 70
     0
 62
     1
  6
CENTER
370
    -3
390
9
  0
LAYER
  5
7D
102
{ACAD_XDICTIONARY
360
7E
102
}
330
21
100
AcDbSymbolTableRecord
100
AcDbLayerTableRecord
  2
3
 70
     0
 62
     2
  6
DASHED
370
    -3
390
9
  0
LAYER
  5
17DF
330
21
100
AcDbSymbolTableRecord
100
AcDbLayerTableRecord
  2
5
 70
     0
 62
     6
  6
CONTINUOUS
370
    -3
390
9
  0
LAYER
  5
1F20
330
21
100
AcDbSymbolTableRecord
100
AcDbLayerTableRecord
  2
Defpoints
 70
     0
 62
     7
  6
CONTINUOUS
290
     0
370
    -3
390
9
  0
ENDTAB
  0
TABLE
  2
STYLE
  5
24
330
0
100
AcDbSymbolTable
 70
     2
  0
STYLE
  5
25
330
24
100
AcDbSymbolTableRecord
100
AcDbTextStyleTableRecord
  2
STANDARD
 70
     0
 40
0.0
 41
1.0
 50
0.0
 71
     0
 42
7.2
  3
txt
  4

  0
STYLE
  5
4F
330
24
100
AcDbSymbolTableRecord
100
AcDbTextStyleTableRecord
  2
KANJI
 70
     0
 40
0.0
 41
1.0
 50
0.0
 71
     0
 42
9.0
  3
TXT
  4
BIGFONT
  0
ENDTAB
  0
TABLE
  2
VIEW
  5
2A
330
0
100
AcDbSymbolTable
 70
     0
  0
ENDTAB
  0
TABLE
  2
UCS
  5
2B
330
0
100
AcDbSymbolTable
 70
     0
  0
ENDTAB
  0
TABLE
  2
APPID
  5
31
330
0
100
AcDbSymbolTable
 70
     5
  0
APPID
  5
32
330
31
100
AcDbSymbolTableRecord
100
AcDbRegAppTableRecord
  2
ACAD
 70
     0
  0
APPID
  5
30
330
31
100
AcDbSymbolTableRecord
100
AcDbRegAppTableRecord
  2
ACAD_NAV_VCDISPLAY
 70
     0
  0
APPID
  5
1669
330
31
100
AcDbSymbolTableRecord
100
AcDbRegAppTableRecord
  2
ACAD_MLEADERVER
 70
     0
  0
APPID
  5
17E2
330
31
100
AcDbSymbolTableRecord
100
AcDbRegAppTableRecord
  2
ACAD_PSEXT
 70
     0
  0
APPID
  5
17E3
330
31
100
AcDbSymbolTableRecord
100
AcDbRegAppTableRecord
  2
ACAD_EXEMPT_FROM_CAD_STANDARDS
 70
     0
  0
ENDTAB
  0
TABLE
  2
DIMSTYLE
  5
33
330
0
100
AcDbSymbolTable
 70
     1
100
AcDbDimStyleTable
  0
DIMSTYLE
105
54
330
33
100
AcDbSymbolTableRecord
100
AcDbDimStyleTableRecord
  2
STANDARD
 70
     0
178
     0
340
25
  0
ENDTAB
  0
TABLE
  2
BLOCK_RECORD
  5
1
330
0
100
AcDbSymbolTable
 70
     0
  0
BLOCK_RECORD
  5
2
102
{ACAD_XDICTIONARY
360
17C5
102
}
330
1
100
AcDbSymbolTableRecord
100
AcDbBlockTableRecord
  2
*MODEL_SPACE
340
17
  0
BLOCK_RECORD
  5
1B
330
1
100
AcDbSymbolTableRecord
100
AcDbBlockTableRecord
  2
*PAPER_SPACE
340
20
  0
ENDTAB
  0
ENDSEC
  0
SECTION
  2
BLOCKS
  0
BLOCK
  5
5
330
2
100
AcDbEntity
  8
0
100
AcDbBlockBegin
  2
*MODEL_SPACE
 70
     0
 10
0.0
 20
0.0
 30
0.0
  3
*MODEL_SPACE
  1

  0
ENDBLK
  5
16
330
2
100
AcDbEntity
  8
0
100
AcDbBlockEnd
  0
BLOCK
  5
1E
330
1B
100
AcDbEntity
 67
     1
  8
0
100
AcDbBlockBegin
  2
*PAPER_SPACE
 70
     0
 10
0.0
 20
0.0
 30
0.0
  3
*PAPER_SPACE
  1

  0
ENDBLK
  5
1F
330
1B
100
AcDbEntity
 67
     1
  8
0
100
AcDbBlockEnd
  0
ENDSEC
  0
SECTION
  2
ENTITIES
  0
TEXT
  5
8E
330
2
100
AcDbEntity
  8
2
 62
     2
100
AcDbText
 10
907.2155848725702
 20
18.39710898029875
 30
0.0
 40
15.0
  1
LC9-00
  7
KANJI
 72
     1
 11
947.2155848725702
 21
18.39710898029875
 31
0.0
100
AcDbText
  0
ARC
  5
18C
330
2
100
AcDbEntity
  8
4
100
AcDbCircle
 10
1165.53741886492
 20
234.3067062281416
 30
0.0
 40
105.0
100
AcDbArc
 50
0.0
 51
180.0
  0
LINE
  5
18D
330
2
100
AcDbEntity
  8
L-CENTER
 48
5.0
100
AcDbLine
 10
1415.53741886492
 20
40.438178973699
 30
0.0
 11
1415.53741886492
 21
600.5948027467648
 31
0.0
  0
ARC
  5
18E
330
2
100
AcDbEntity
  8
4
100
AcDbCircle
 10
1658.53741886492
 20
234.3067062281416
 30
0.0
 40
600.0
100
AcDbArc
 50
177.4611878259642
 51
182.3981039490093
  0
LINE
  5
18F
330
2
100
AcDbEntity
  8
L-CENTER
 48
5.0
100
AcDbLine
 10
1165.53741886492
 20
354.0621779093881
 30
0.0
 11
1165.53741886492
 21
114.5512345468951
 31
0.0
  0
ARC
  5
190
330
2
100
AcDbEntity
  8
L-CENTER
 48
5.0
100
AcDbCircle
 10
1165.53741886492
 20
234.3067062281416
 30
0.0
 40
87.5
100
AcDbArc
 50
0.0
 51
180.0
  0
LINE
  5
191
330
2
100
AcDbEntity
  8
2
100
AcDbLine
 10
1665.53741886492
 20
343.3067062281416
 30
0.0
 11
1165.53741886492
 21
343.3067062281416
 31
0.0
  0
ARC
  5
192
330
2
100
AcDbEntity
  8
4
100
AcDbCircle
 10
1165.53741886492
 20
-260.6932937718584
 30
0.0
 40
600.0
100
AcDbArc
 50
90.0
 51
99.16604934950111
  0
LINE
  5
193
330
2
100
AcDbEntity
  8
L-CENTER
 48
5.0
100
AcDbLine
 10
1090.523279671476
 20
309.3208454215851
 30
0.0
 11
1116.807871350717
 21
283.0362537423439
 31
0.0
  0
ARC
  5
194
330
2
100
AcDbEntity
  8
4
100
AcDbCircle
 10
1658.53741886492
 20
234.3067062281416
 30
0.0
 40
600.0
100
AcDbArc
 50
171.0659170523284
 51
177.4293934197766
  0
ARC
  5
195
330
2
100
AcDbEntity
  8
4
100
AcDbCircle
 10
1070.756161159597
 20
326.7090497609179
 30
0.0
 40
5.0
100
AcDbArc
 50
99.16604934949876
 51
171.0659170523284
  0
LINE
  5
196
330
2
100
AcDbEntity
  8
4
100
AcDbLine
 10
1165.53741886492
 20
339.3067062281416
 30
0.0
 11
1165.53741886492
 21
343.3067062281416
 31
0.0
  0
LINE
  5
197
330
2
100
AcDbEntity
  8
L-CENTER
 48
5.0
100
AcDbLine
 10
1240.551558058363
 20
309.3208454215851
 30
0.0
 11
1214.266966379122
 21
283.0362537423439
 31
0.0
  0
LINE
  5
198
330
2
100
AcDbEntity
  8
4
100
AcDbLine
 10
1165.53741886492
 20
340.3067062281416
 30
0.0
 11
1668.53741886492
 21
340.3067062281416
 31
0.0
  0
LINE
  5
199
330
2
100
AcDbEntity
  8
4
100
AcDbLine
 10
1665.53741886492
 20
340.3067062281416
 30
0.0
 11
1665.53741886492
 21
343.3067062281416
 31
0.0
  0
LINE
  5
19A
330
2
100
AcDbEntity
  8
L-CENTER
 48
5.0
100
AcDbLine
 10
1045.781947183673
 20
234.3067062281416
 30
0.0
 11
1690.766856885062
 21
234.3067062281416
 31
0.0
  0
LINE
  5
19B
330
2
100
AcDbEntity
  8
4
100
AcDbLine
 10
1365.526083679269
 20
59.30670622814159
 30
0.0
 11
1293.53741886492
 21
59.30670622814159
 31
0.0
  0
LINE
  5
19C
330
2
100
AcDbEntity
  8
4
100
AcDbLine
 10
1308.537445314894
 20
74.30673267811471
 30
0.0
 11
1522.53766386492
 21
74.30673267811471
 31
0.0
  0
LINE
  5
19D
330
2
100
AcDbEntity
  8
4
100
AcDbLine
 10
1347.292427341589
 20
51.30670622814159
 30
0.0
 11
1483.782410388251
 21
51.30670622814159
 31
0.0
  0
LINE
  5
19E
330
2
100
AcDbEntity
  8
4
100
AcDbLine
 10
1175.53741886492
 20
36.30670622814159
 30
0.0
 11
1290.53741886492
 21
36.30670622814159
 31
0.0
  0
LINE
  5
19F
330
2
100
AcDbEntity
  8
4
100
AcDbLine
 10
1175.53741886492
 20
76.30670622814159
 30
0.0
 11
1290.53741886492
 21
76.30670622814159
 31
0.0
  0
ARC
  5
1A0
330
2
100
AcDbEntity
  8
L-CENTER
 48
5.0
100
AcDbCircle
 10
1165.53741886492
 20
234.3067062281416
 30
0.0
 40
87.5
100
AcDbArc
 50
180.0
 51
0.0
  0
ARC
  5
1A1
330
2
100
AcDbEntity
  8
4
100
AcDbCircle
 10
1165.53741886492
 20
234.3067062281416
 30
0.0
 40
105.0
100
AcDbArc
 50
180.0
 51
0.0
  0
LINE
  5
1A2
330
2
100
AcDbEntity
  8
4
100
AcDbLine
 10
1175.53741886492
 20
36.30670622814159
 30
0.0
 11
1175.53741886492
 21
123.3199076920673
 31
0.0
  0
ARC
  5
1A3
330
2
100
AcDbEntity
  8
4
100
AcDbCircle
 10
1165.53741886492
 20
729.3067062281416
 30
0.0
 40
600.0
100
AcDbArc
 50
260.8339506504988
 51
270.3781927100449
  0
LINE
  5
1A4
330
2
100
AcDbEntity
  8
L-CENTER
 48
5.0
100
AcDbLine
 10
1090.523279671476
 20
159.2925670346981
 30
0.0
 11
1116.807871350717
 21
185.5771587139393
 31
0.0
  0
ARC
  5
1A5
330
2
100
AcDbEntity
  8
4
100
AcDbCircle
 10
1658.53741886492
 20
234.3067062281416
 30
0.0
 40
600.0
100
AcDbArc
 50
182.388031919275
 51
188.9340829476716
  0
ARC
  5
1A6
330
2
100
AcDbEntity
  8
4
100
AcDbCircle
 10
1070.756161159597
 20
141.9043626953662
 30
0.0
 40
5.0
100
AcDbArc
 50
188.9340829476717
 51
260.8339506505013
  0
ARC
  5
1A7
330
2
100
AcDbEntity
  8
4
100
AcDbCircle
 10
1169.53741886492
 20
123.3199076920673
 30
0.0
 40
6.0
100
AcDbArc
 50
0.0
 51
90.37819271004555
  0
LINE
  5
1A8
330
2
100
AcDbEntity
  8
4
100
AcDbLine
 10
1252.53741886492
 20
76.30670622814159
 30
0.0
 11
1252.53741886492
 21
119.3067062281416
 31
0.0
  0
LINE
  5
1A9
330
2
100
AcDbEntity
  8
L-CENTER
 48
5.0
100
AcDbLine
 10
1240.551558058363
 20
159.2925670346981
 30
0.0
 11
1214.266966379122
 21
185.5771587139393
 31
0.0
  0
LINE
  5
1AA
330
2
100
AcDbEntity
  8
4
100
AcDbLine
 10
1219.62068799688
 20
144.3067062281416
 30
0.0
 11
1227.53741886492
 21
144.3067062281416
 31
0.0
  0
ARC
  5
1AB
330
2
100
AcDbEntity
  8
4
100
AcDbCircle
 10
1227.53741886492
 20
119.3067062281416
 30
0.0
 40
25.0
100
AcDbArc
 50
0.0
 51
90.0
  0
ARC
  5
1AC
330
2
100
AcDbEntity
  8
4
100
AcDbCircle
 10
1347.292427341589
 20
54.30670622814159
 30
0.0
 40
3.0
100
AcDbArc
 50
209.3444905320679
 51
270.0
  0
LINE
  5
1AD
330
2
100
AcDbEntity
  8
4
100
AcDbLine
 10
1344.677360338542
 20
52.83652781394267
 30
0.0
 11
1341.039856355091
 21
59.30670622814159
 31
0.0
  0
LINE
  5
1AE
330
2
100
AcDbEntity
  8
4
100
AcDbLine
 10
1290.53741886492
 20
56.30670622814159
 30
0.0
 11
1308.537445314894
 21
74.30673267811426
 31
0.0
  0
LINE
  5
1AF
330
2
100
AcDbEntity
  8
4
100
AcDbLine
 10
1280.53741886492
 20
36.30670622814159
 30
0.0
 11
1280.53741886492
 21
76.30670622814159
 31
0.0
  0
LINE
  5
1B0
330
2
100
AcDbEntity
  8
4
100
AcDbLine
 10
1290.53741886492
 20
36.30670622814159
 30
0.0
 11
1290.53741886492
 21
76.30670622814159
 31
0.0
  0
LINE
  5
1B1
330
2
100
AcDbEntity
  8
4
100
AcDbLine
 10
1351.555554252054
 20
74.30673267811471
 30
0.0
 11
1365.526083679269
 21
59.30670622814159
 31
0.0
  0
LINE
  5
1B2
330
2
100
AcDbEntity
  8
L-CENTER
 48
5.0
100
AcDbLine
 10
1649.410744756054
 20
102.3067062281416
 30
0.0
 11
1673.925649070726
 21
102.3067062281416
 31
0.0
  0
LINE
  5
1B3
330
2
100
AcDbEntity
  8
4
100
AcDbLine
 10
1655.53741886492
 20
36.30670622814159
 30
0.0
 11
1540.53741886492
 21
36.30670622814159
 31
0.0
  0
LINE
  5
1B4
330
2
100
AcDbEntity
  8
4
100
AcDbLine
 10
1540.53741886492
 20
36.30670622814159
 30
0.0
 11
1540.53741886492
 21
76.30670622814159
 31
0.0
  0
LINE
  5
1B5
330
2
100
AcDbEntity
  8
4
100
AcDbLine
 10
1655.53741886492
 20
36.30670622814159
 30
0.0
 11
1655.53741886492
 21
76.30670622814159
 31
0.0
  0
LINE
  5
1B6
330
2
100
AcDbEntity
  8
4
100
AcDbLine
 10
1666.53741886492
 20
365.6067062281418
 30
0.0
 11
1164.53741886492
 21
365.6067062281418
 31
0.0
  0
LINE
  5
1B7
330
2
100
AcDbEntity
  8
2
100
AcDbLine
 10
1667.53741886492
 20
343.6067062281418
 30
0.0
 11
1163.53741886492
 21
343.6067062281418
 31
0.0
  0
LINE
  5
1B8
330
2
100
AcDbEntity
  8
4
100
AcDbLine
 10
1163.53741886492
 20
364.6067062281418
 30
0.0
 11
1163.53741886492
 21
343.6067062281418
 31
0.0
  0
ARC
  5
1B9
330
2
100
AcDbEntity
  8
4
100
AcDbCircle
 10
1164.53741886492
 20
364.6067062281413
 30
0.0
 40
1.0
100
AcDbArc
 50
90.0
 51
180.0
  0
LINE
  5
1BA
330
2
100
AcDbEntity
  8
4
100
AcDbLine
 10
1338.03741886492
 20
417.6067062281418
 30
0.0
 11
1493.03741886492
 21
417.6067062281418
 31
0.0
  0
LINE
  5
1BB
330
2
100
AcDbEntity
  8
4
100
AcDbLine
 10
1333.588427160984
 20
399.8107394123999
 30
0.0
 11
1222.99110409018
 21
371.6586935398327
 31
0.0
  0
LINE
  5
1BC
330
2
100
AcDbEntity
  8
L-CENTER
 48
5.0
100
AcDbLine
 10
1240.53741886492
 20
463.015289978387
 30
0.0
 11
1240.53741886492
 21
360.8375338973724
 31
0.0
  0
LINE
  5
1BD
330
2
100
AcDbEntity
  8
4
100
AcDbLine
 10
1220.53741886492
 20
384.6067062281418
 30
0.0
 11
1260.53741886492
 21
384.6067062281418
 31
0.0
  0
LINE
  5
1BE
330
2
100
AcDbEntity
  8
4
100
AcDbLine
 10
1220.53741886492
 20
384.6067062281418
 30
0.0
 11
1220.53741886492
 21
376.5959356447092
 31
0.0
  0
LINE
  5
1BF
330
2
100
AcDbEntity
  8
4
100
AcDbLine
 10
1260.53741886492
 20
384.6067062281418
 30
0.0
 11
1260.53741886492
 21
381.2159373006753
 31
0.0
  0
LINE
  5
1C0
330
2
100
AcDbEntity
  8
4
100
AcDbLine
 10
1365.53741886492
 20
418.6067062281418
 30
0.0
 11
1365.53741886492
 21
417.6067062281418
 31
0.0
  0
LINE
  5
1C1
330
2
100
AcDbEntity
  8
4
100
AcDbLine
 10
1465.53741886492
 20
418.6067062281422
 30
0.0
 11
1465.537418864919
 21
417.6067062281418
 31
0.0
  0
LINE
  5
1C2
330
2
100
AcDbEntity
  8
L-CENTER
 48
5.0
100
AcDbLine
 10
1590.53741886492
 20
464.7366892115324
 30
0.0
 11
1590.53741886492
 21
361.0051750070706
 31
0.0
  0
LINE
  5
1C3
330
2
100
AcDbEntity
  8
4
100
AcDbLine
 10
1497.486410568856
 20
399.8107394123999
 30
0.0
 11
1608.08373363966
 21
371.6586935398323
 31
0.0
  0
LINE
  5
1C4
330
2
100
AcDbEntity
  8
4
100
AcDbLine
 10
1493.03741886492
 20
417.6067062281418
 30
0.0
 11
1497.486410568855
 21
399.8107394123999
 31
0.0
  0
LINE
  5
1C5
330
2
100
AcDbEntity
  8
4
100
AcDbLine
 10
1570.53741886492
 20
384.6067062281418
 30
0.0
 11
1570.53741886492
 21
381.2159373006753
 31
0.0
  0
LINE
  5
1C6
330
2
100
AcDbEntity
  8
4
100
AcDbLine
 10
1610.53741886492
 20
384.6067062281418
 30
0.0
 11
1610.53741886492
 21
376.5959356447083
 31
0.0
  0
LINE
  5
1C7
330
2
100
AcDbEntity
  8
4
100
AcDbLine
 10
1610.53741886492
 20
384.6067062281418
 30
0.0
 11
1570.53741886492
 21
384.6067062281418
 31
0.0
  0
LINE
  5
1C8
330
2
100
AcDbEntity
  8
4
100
AcDbLine
 10
1667.53741886492
 20
364.6067062281418
 30
0.0
 11
1667.53741886492
 21
343.6067062281418
 31
0.0
  0
ARC
  5
1C9
330
2
100
AcDbEntity
  8
4
100
AcDbCircle
 10
1666.53741886492
 20
364.6067062281413
 30
0.0
 40
1.0
100
AcDbArc
 50
0.0
 51
90.0
  0
LINE
  5
1CA
330
2
100
AcDbEntity
  8
4
100
AcDbLine
 10
1338.03741886494
 20
417.6067062281672
 30
0.0
 11
1333.588427160998
 21
399.8107394124272
 31
0.0
  0
LINE
  5
1CB
330
2
100
AcDbEntity
  8
4
100
AcDbLine
 10
1376.537418864919
 20
425.3067062281425
 30
0.0
 11
1376.53741886492
 21
582.3067062281416
 31
0.0
  0
LINE
  5
1CC
330
2
100
AcDbEntity
  8
4
100
AcDbLine
 10
1454.53741886492
 20
425.3067062281425
 30
0.0
 11
1454.53741886492
 21
582.3067062281425
 31
0.0
  0
LINE
  5
1CD
330
2
100
AcDbEntity
  8
4
100
AcDbLine
 10
1455.53741886492
 20
418.6067062281422
 30
0.0
 11
1455.53741886492
 21
424.3067062281425
 31
0.0
  0
LINE
  5
1CE
330
2
100
AcDbEntity
  8
4
100
AcDbLine
 10
1375.53741886492
 20
418.6067062281418
 30
0.0
 11
1375.53741886492
 21
424.3067062281425
 31
0.0
  0
LINE
  5
1CF
330
2
100
AcDbEntity
  8
4
100
AcDbLine
 10
1375.53741886492
 20
424.3067062281425
 30
0.0
 11
1455.53741886492
 21
424.3067062281425
 31
0.0
  0
LINE
  5
1D0
330
2
100
AcDbEntity
  8
4
100
AcDbLine
 10
1375.53741886492
 20
424.3067062281425
 30
0.0
 11
1375.537418864919
 21
424.3067062281425
 31
0.0
  0
ARC
  5
1D1
330
2
100
AcDbEntity
  8
4
100
AcDbCircle
 10
1375.537418864919
 20
425.3067062281434
 30
0.0
 40
1.0
100
AcDbArc
 50
270.0
 51
0.0
  0
ARC
  5
1D2
330
2
100
AcDbEntity
  8
4
100
AcDbCircle
 10
1455.53741886492
 20
425.3067062281434
 30
0.0
 40
1.0
100
AcDbArc
 50
180.0
 51
270.0
  0
LINE
  5
1D3
330
2
100
AcDbEntity
  8
4
100
AcDbLine
 10
1455.53741886492
 20
424.3067062281425
 30
0.0
 11
1455.53741886492
 21
424.3067062281425
 31
0.0
  0
LINE
  5
1D4
330
2
100
AcDbEntity
  8
4
100
AcDbLine
 10
1405.53741886492
 20
584.3067062281416
 30
0.0
 11
1405.53741886492
 21
444.3067062281416
 31
0.0
  0
LINE
  5
1D5
330
2
100
AcDbEntity
  8
4
100
AcDbLine
 10
1425.53741886492
 20
584.3067062281416
 30
0.0
 11
1425.53741886492
 21
444.3067062281416
 31
0.0
  0
ARC
  5
1D6
330
2
100
AcDbEntity
  8
4
100
AcDbCircle
 10
1415.53741886492
 20
444.3067062281425
 30
0.0
 40
10.0
100
AcDbArc
 50
180.0
 51
0.0
  0
LINE
  5
1D7
330
2
100
AcDbEntity
  8
4
100
AcDbLine
 10
1378.53741886492
 20
584.3067062281416
 30
0.0
 11
1452.53741886492
 21
584.3067062281425
 31
0.0
  0
LINE
  5
1D8
330
2
100
AcDbEntity
  8
4
100
AcDbLine
 10
1376.53741886492
 20
582.3067062281416
 30
0.0
 11
1378.53741886492
 21
584.3067062281416
 31
0.0
  0
LINE
  5
1D9
330
2
100
AcDbEntity
  8
4
100
AcDbLine
 10
1376.53741886492
 20
582.3067062281416
 30
0.0
 11
1405.53741886492
 21
582.3067062281425
 31
0.0
  0
LINE
  5
1DA
330
2
100
AcDbEntity
  8
4
100
AcDbLine
 10
1454.53741886492
 20
582.3067062281425
 30
0.0
 11
1452.53741886492
 21
584.3067062281425
 31
0.0
  0
LINE
  5
1DB
330
2
100
AcDbEntity
  8
4
100
AcDbLine
 10
1425.53741886492
 20
582.3067062281425
 30
0.0
 11
1454.53741886492
 21
582.3067062281425
 31
0.0
  0
LINE
  5
1DC
330
2
100
AcDbEntity
  8
4
100
AcDbLine
 10
1540.53741886492
 20
76.30670622814159
 30
0.0
 11
1655.53741886492
 21
76.30670622814159
 31
0.0
  0
LINE
  5
1DD
330
2
100
AcDbEntity
  8
4
100
AcDbLine
 10
1550.53741886492
 20
36.30670622814159
 30
0.0
 11
1550.53741886492
 21
76.30670622814159
 31
0.0
  0
LINE
  5
1DE
330
2
100
AcDbEntity
  8
4
100
AcDbLine
 10
1476.53741886492
 20
59.30670622814159
 30
0.0
 11
1491.53741886492
 21
74.30670622814159
 31
0.0
  0
LINE
  5
1DF
330
2
100
AcDbEntity
  8
4
100
AcDbLine
 10
1537.53766386492
 20
59.30670622814159
 30
0.0
 11
1476.53741886492
 21
59.30670622814159
 31
0.0
  0
LINE
  5
1E0
330
2
100
AcDbEntity
  8
4
100
AcDbLine
 10
1522.53766386492
 20
74.30670622814159
 30
0.0
 11
1540.53741886492
 21
56.30695122814177
 31
0.0
  0
LINE
  5
1E1
330
2
100
AcDbEntity
  8
4
100
AcDbLine
 10
1486.397477391297
 20
52.83652781394267
 30
0.0
 11
1490.034981374748
 21
59.30670622814159
 31
0.0
  0
ARC
  5
1E2
330
2
100
AcDbEntity
  8
4
100
AcDbCircle
 10
1483.78241038825
 20
54.30670622814159
 30
0.0
 40
3.0
100
AcDbArc
 50
270.0
 51
330.6555094679321
  0
LINE
  5
1E3
330
2
100
AcDbEntity
  8
4
100
AcDbLine
 10
1666.53741886492
 20
74.30670622814159
 30
0.0
 11
1655.53741886492
 21
74.30670622814159
 31
0.0
  0
LINE
  5
1E4
330
2
100
AcDbEntity
  8
4
100
AcDbLine
 10
1670.53741886492
 20
214.3067062281416
 30
0.0
 11
1670.53741886492
 21
89.30670622814159
 31
0.0
  0
LINE
  5
1E5
330
2
100
AcDbEntity
  8
L-CENTER
 48
5.0
100
AcDbLine
 10
1676.72184386492
 20
102.3067062281416
 30
0.0
 11
1658.78334386492
 21
102.3067062281416
 31
0.0
  0
LINE
  5
1E6
330
2
100
AcDbEntity
  8
4
100
AcDbLine
 10
1674.03756386492
 20
93.77765122814162
 30
0.0
 11
1670.53741886492
 21
93.97492122814174
 31
0.0
  0
LINE
  5
1E7
330
2
100
AcDbEntity
  8
4
100
AcDbLine
 10
1674.03756386492
 20
110.8355162281414
 30
0.0
 11
1670.53741886492
 21
110.6382512281416
 31
0.0
  0
LINE
  5
1E8
330
2
100
AcDbEntity
  8
4
100
AcDbLine
 10
1668.53741886492
 20
89.30670622814159
 30
0.0
 11
1670.53741886492
 21
89.30670622814159
 31
0.0
  0
LINE
  5
1E9
330
2
100
AcDbEntity
  8
4
100
AcDbLine
 10
1674.03756386492
 20
110.8355162281414
 30
0.0
 11
1674.03756386492
 21
102.3064612281414
 31
0.0
  0
LINE
  5
1EA
330
2
100
AcDbEntity
  8
4
100
AcDbLine
 10
1674.03756386492
 20
93.77765122814162
 30
0.0
 11
1674.03756386492
 21
102.3067062281416
 31
0.0
  0
LINE
  5
1EB
330
2
100
AcDbEntity
  8
4
100
AcDbLine
 10
1673.53741886492
 20
214.3067062281416
 30
0.0
 11
1673.53741886492
 21
254.3067062281416
 31
0.0
  0
LINE
  5
1EC
330
2
100
AcDbEntity
  8
4
100
AcDbLine
 10
1670.53741886492
 20
214.3067062281416
 30
0.0
 11
1673.53741886492
 21
214.3067062281416
 31
0.0
  0
LINE
  5
1ED
330
2
100
AcDbEntity
  8
4
100
AcDbLine
 10
1668.53741886492
 20
254.3067062281416
 30
0.0
 11
1673.53741886492
 21
254.3067062281416
 31
0.0
  0
LINE
  5
1EE
330
2
100
AcDbEntity
  8
4
100
AcDbLine
 10
1668.53741886492
 20
340.3067062281416
 30
0.0
 11
1668.53741886492
 21
76.30670622814159
 31
0.0
  0
ARC
  5
1EF
330
2
100
AcDbEntity
  8
4
100
AcDbCircle
 10
1666.53741886492
 20
76.30670622814159
 30
0.0
 40
2.0
100
AcDbArc
 50
270.0
 51
0.0
  0
LINE
  5
1F0
330
2
100
AcDbEntity
  8
4
100
AcDbLine
 10
1365.53741886492
 20
418.6067062281418
 30
0.0
 11
1465.53741886492
 21
418.6067062281422
 31
0.0
  0
LINE
  5
1F1
330
2
100
AcDbEntity
  8
4
100
AcDbLine
 10
1458.03741886492
 20
365.6067062281418
 30
0.0
 11
1473.03741886492
 21
397.6067062281418
 31
0.0
  0
LINE
  5
1F2
330
2
100
AcDbEntity
  8
4
100
AcDbLine
 10
1333.03741886492
 20
397.6067062281418
 30
0.0
 11
1415.53741886492
 21
397.6067062281418
 31
0.0
  0
LINE
  5
1F3
330
2
100
AcDbEntity
  8
4
100
AcDbLine
 10
1373.03741886492
 20
365.6067062281418
 30
0.0
 11
1358.03741886492
 21
397.6067062281418
 31
0.0
  0
LINE
  5
1F4
330
2
100
AcDbEntity
  8
L-CENTER
 48
5.0
100
AcDbLine
 10
1225.53741886492
 20
90.30670622814159
 30
0.0
 11
1225.53741886492
 21
22.30670622814159
 31
0.0
  0
LINE
  5
1F5
330
2
100
AcDbEntity
  8
L-CENTER
 48
5.0
100
AcDbLine
 10
1605.53741886492
 20
90.30670622814159
 30
0.0
 11
1605.53741886492
 21
22.30670622814159
 31
0.0
  0
LINE
  5
1F6
330
2
100
AcDbEntity
  8
4
100
AcDbLine
 10
1608.03741886492
 20
384.6067062281418
 30
0.0
 11
1606.53741886492
 21
397.6067062281418
 31
0.0
  0
LINE
  5
1F7
330
2
100
AcDbEntity
  8
4
100
AcDbLine
 10
1573.03741886492
 20
384.6067062281418
 30
0.0
 11
1574.53741886492
 21
397.6067062281418
 31
0.0
  0
ARC
  5
1F8
330
2
100
AcDbEntity
  8
4
100
AcDbCircle
 10
1567.02080494438
 20
384.8077282300474
 30
0.0
 40
6.0
100
AcDbArc
 50
358.0800219747723
 51
55.94977754878231
  0
ARC
  5
1F9
330
2
100
AcDbEntity
  8
4
100
AcDbCircle
 10
1614.054032785457
 20
384.8077282300392
 30
0.0
 40
6.0
100
AcDbArc
 50
124.050222451196
 51
181.9199780251495
  0
LINE
  5
1FA
330
2
100
AcDbEntity
  8
4
100
AcDbLine
 10
1590.53741886492
 20
399.6067062281418
 30
0.0
 11
1606.53741886492
 21
397.6067062281418
 31
0.0
  0
LINE
  5
1FB
330
2
100
AcDbEntity
  8
4
100
AcDbLine
 10
1574.537418864921
 20
397.6067062281418
 30
0.0
 11
1590.53741886492
 21
399.6067062281418
 31
0.0
  0
LINE
  5
1FC
330
2
100
AcDbEntity
  8
4
100
AcDbLine
 10
1574.537418864921
 20
397.6067062281418
 30
0.0
 11
1606.53741886492
 21
397.6067062281418
 31
0.0
  0
CIRCLE
  5
1FD
330
2
100
AcDbEntity
  8
4
100
AcDbCircle
 10
1590.53741886492
 20
419.6067062281418
 30
0.0
 40
20.0
  0
LINE
  5
1FE
330
2
100
AcDbEntity
  8
L-CENTER
 48
5.0
100
AcDbLine
 10
1545.407435881529
 20
419.6067062281418
 30
0.0
 11
1635.66740184831
 21
419.6067062281418
 31
0.0
  0
ARC
  5
1FF
330
2
100
AcDbEntity
  8
4
100
AcDbCircle
 10
1590.53741886492
 20
419.6067062281418
 30
0.0
 40
36.0
100
AcDbArc
 50
304.0502224511976
 51
235.9497775487923
  0
LINE
  5
200
330
2
100
AcDbEntity
  8
4
100
AcDbLine
 10
1258.03741886492
 20
384.6067062281418
 30
0.0
 11
1256.53741886492
 21
397.6067062281418
 31
0.0
  0
LINE
  5
201
330
2
100
AcDbEntity
  8
4
100
AcDbLine
 10
1223.03741886492
 20
384.6067062281418
 30
0.0
 11
1224.53741886492
 21
397.6067062281418
 31
0.0
  0
ARC
  5
202
330
2
100
AcDbEntity
  8
4
100
AcDbCircle
 10
1217.02080494438
 20
384.8077282300474
 30
0.0
 40
6.0
100
AcDbArc
 50
358.0800219747723
 51
55.94977754878231
  0
ARC
  5
203
330
2
100
AcDbEntity
  8
4
100
AcDbCircle
 10
1264.054032785457
 20
384.8077282300392
 30
0.0
 40
6.0
100
AcDbArc
 50
124.050222451196
 51
181.9199780251495
  0
LINE
  5
204
330
2
100
AcDbEntity
  8
4
100
AcDbLine
 10
1240.53741886492
 20
399.6067062281418
 30
0.0
 11
1256.53741886492
 21
397.6067062281418
 31
0.0
  0
LINE
  5
205
330
2
100
AcDbEntity
  8
4
100
AcDbLine
 10
1224.537418864921
 20
397.6067062281418
 30
0.0
 11
1240.53741886492
 21
399.6067062281418
 31
0.0
  0
LINE
  5
206
330
2
100
AcDbEntity
  8
4
100
AcDbLine
 10
1224.537418864921
 20
397.6067062281418
 30
0.0
 11
1256.53741886492
 21
397.6067062281418
 31
0.0
  0
CIRCLE
  5
207
330
2
100
AcDbEntity
  8
4
100
AcDbCircle
 10
1240.53741886492
 20
419.6067062281418
 30
0.0
 40
20.0
  0
ARC
  5
208
330
2
100
AcDbEntity
  8
4
100
AcDbCircle
 10
1240.53741886492
 20
419.6067062281418
 30
0.0
 40
36.0
100
AcDbArc
 50
304.0502224511976
 51
235.9497775487923
  0
LINE
  5
209
330
2
100
AcDbEntity
  8
L-CENTER
 48
5.0
100
AcDbLine
 10
1196.995846866473
 20
419.6067062281418
 30
0.0
 11
1283.946002615165
 21
419.6067062281418
 31
0.0
  0
LINE
  5
20A
330
2
100
AcDbEntity
  8
4
100
AcDbLine
 10
355.2380708879627
 20
56.30670622814159
 30
0.0
 11
325.2380708879627
 21
56.30670622814159
 31
0.0
  0
LINE
  5
20B
330
2
100
AcDbEntity
  8
4
100
AcDbLine
 10
180.2380708879627
 20
36.30670622814159
 30
0.0
 11
355.2380708879627
 21
36.30670622814159
 31
0.0
  0
LINE
  5
20C
330
2
100
AcDbEntity
  8
L-CENTER
 48
5.0
100
AcDbLine
 10
192.6182918867098
 20
234.3067062281416
 30
0.0
 11
883.0434935638361
 21
234.3067062281416
 31
0.0
  0
LINE
  5
20D
330
2
100
AcDbEntity
  8
4
100
AcDbLine
 10
217.2380708879627
 20
339.3067062281416
 30
0.0
 11
723.2380708879627
 21
339.3067062281416
 31
0.0
  0
LINE
  5
20E
330
2
100
AcDbEntity
  8
4
100
AcDbLine
 10
217.2380708879627
 20
129.3067062281416
 30
0.0
 11
723.2380708879627
 21
129.3067062281416
 31
0.0
  0
LINE
  5
20F
330
2
100
AcDbEntity
  8
2
100
AcDbLine
 10
220.2380708879627
 20
343.3067062281416
 30
0.0
 11
720.2380708879627
 21
343.3067062281416
 31
0.0
  0
LINE
  5
210
330
2
100
AcDbEntity
  8
4
100
AcDbLine
 10
217.2380708879627
 20
340.3067062281416
 30
0.0
 11
723.2380708879627
 21
340.3067062281416
 31
0.0
  0
LINE
  5
211
330
2
100
AcDbEntity
  8
4
100
AcDbLine
 10
217.2380708879627
 20
339.3067062281416
 30
0.0
 11
217.2380708879627
 21
105.7515699568298
 31
0.0
  0
LINE
  5
212
330
2
100
AcDbEntity
  8
4
100
AcDbLine
 10
180.2380708879627
 20
74.30670622814159
 30
0.0
 11
180.2380708879627
 21
36.30670622814159
 31
0.0
  0
LINE
  5
213
330
2
100
AcDbEntity
  8
L-CENTER
 48
5.0
100
AcDbLine
 10
230.2380708879627
 20
90.30670622814159
 30
0.0
 11
230.2380708879627
 21
22.30670622814159
 31
0.0
  0
LINE
  5
214
330
2
100
AcDbEntity
  8
4
100
AcDbLine
 10
182.2380708879627
 20
76.30670622814159
 30
0.0
 11
325.2380708879627
 21
76.30670622814159
 31
0.0
  0
ARC
  5
215
330
2
100
AcDbEntity
  8
4
100
AcDbCircle
 10
182.2380708879627
 20
74.30670622814159
 30
0.0
 40
2.0
100
AcDbArc
 50
90.0
 51
180.0
  0
LINE
  5
216
330
2
100
AcDbEntity
  8
4
100
AcDbLine
 10
305.2380708879627
 20
129.3067062281416
 30
0.0
 11
305.2380708879627
 21
76.30670622814159
 31
0.0
  0
LINE
  5
217
330
2
100
AcDbEntity
  8
4
100
AcDbLine
 10
325.2380708879627
 20
76.30670622814159
 30
0.0
 11
325.2380708879627
 21
56.30670622814159
 31
0.0
  0
LINE
  5
218
330
2
100
AcDbEntity
  8
4
100
AcDbLine
 10
222.2380708879627
 20
339.3067062281416
 30
0.0
 11
222.2380708879627
 21
129.3067062281416
 31
0.0
  0
LINE
  5
219
330
2
100
AcDbEntity
  8
4
100
AcDbLine
 10
220.2380708879627
 20
343.3067062281416
 30
0.0
 11
220.2380708879627
 21
340.3067062281416
 31
0.0
  0
LINE
  5
21A
330
2
100
AcDbEntity
  8
4
100
AcDbLine
 10
217.2380708879627
 20
340.3067062281416
 30
0.0
 11
217.2380708879627
 21
339.3067062281416
 31
0.0
  0
LINE
  5
21B
330
2
100
AcDbEntity
  8
L-CENTER
 48
5.0
100
AcDbLine
 10
470.2380708879627
 20
594.9755334062838
 30
0.0
 11
470.2380708879627
 21
40.438178973699
 31
0.0
  0
LINE
  5
21C
330
2
100
AcDbEntity
  8
4
100
AcDbLine
 10
723.2380708879627
 20
339.3067062281416
 30
0.0
 11
723.2380708879627
 21
105.7515699568303
 31
0.0
  0
LINE
  5
21D
330
2
100
AcDbEntity
  8
4
100
AcDbLine
 10
615.2380708879627
 20
76.30670622814159
 30
0.0
 11
758.2380708879627
 21
76.30670622814159
 31
0.0
  0
LINE
  5
21E
330
2
100
AcDbEntity
  8
4
100
AcDbLine
 10
585.2380708879627
 20
36.30670622814159
 30
0.0
 11
760.2380708879627
 21
36.30670622814159
 31
0.0
  0
LINE
  5
21F
330
2
100
AcDbEntity
  8
4
100
AcDbLine
 10
585.2380708879627
 20
56.30670622814159
 30
0.0
 11
585.2380708879627
 21
36.30670622814159
 31
0.0
  0
LINE
  5
220
330
2
100
AcDbEntity
  8
4
100
AcDbLine
 10
355.2380708879627
 20
56.30670622814159
 30
0.0
 11
355.2380708879627
 21
36.30670622814159
 31
0.0
  0
LINE
  5
221
330
2
100
AcDbEntity
  8
4
100
AcDbLine
 10
400.2380708879627
 20
51.30670622814159
 30
0.0
 11
540.2380708879627
 21
51.30670622814159
 31
0.0
  0
LINE
  5
222
330
2
100
AcDbEntity
  8
4
100
AcDbLine
 10
372.2380708879627
 20
74.30670622814159
 30
0.0
 11
568.2380708879627
 21
74.30670622814159
 31
0.0
  0
LINE
  5
223
330
2
100
AcDbEntity
  8
4
100
AcDbLine
 10
406.2562062750967
 20
74.30673267811562
 30
0.0
 11
420.226735702312
 21
59.30670622814159
 31
0.0
  0
LINE
  5
224
330
2
100
AcDbEntity
  8
4
100
AcDbLine
 10
420.226735702312
 20
59.30670622814159
 30
0.0
 11
358.0714042212957
 21
59.30670622814159
 31
0.0
  0
LINE
  5
225
330
2
100
AcDbEntity
  8
4
100
AcDbLine
 10
355.2380708879627
 20
56.30670622814159
 30
0.0
 11
372.2380708879627
 21
74.30670622814159
 31
0.0
  0
LINE
  5
226
330
2
100
AcDbEntity
  8
4
100
AcDbLine
 10
400.2380708879627
 20
51.30670622814159
 30
0.0
 11
392.2380708879627
 21
59.30670622814159
 31
0.0
  0
LINE
  5
227
330
2
100
AcDbEntity
  8
4
100
AcDbLine
 10
520.2494060736135
 20
59.30670622813977
 30
0.0
 11
582.4047375546334
 21
59.30670622813795
 31
0.0
  0
LINE
  5
228
330
2
100
AcDbEntity
  8
4
100
AcDbLine
 10
534.2199355008297
 20
74.3067326781129
 30
0.0
 11
520.2494060736135
 21
59.30670622813977
 31
0.0
  0
LINE
  5
229
330
2
100
AcDbEntity
  8
4
100
AcDbLine
 10
540.2380708879627
 20
51.30670622814159
 30
0.0
 11
548.2380708879609
 21
59.30670622813977
 31
0.0
  0
LINE
  5
22A
330
2
100
AcDbEntity
  8
4
100
AcDbLine
 10
585.2380708879627
 20
56.30670622814159
 30
0.0
 11
615.2380708879627
 21
56.30670622814159
 31
0.0
  0
LINE
  5
22B
330
2
100
AcDbEntity
  8
4
100
AcDbLine
 10
585.2380708879627
 20
56.30670622814159
 30
0.0
 11
568.2380708879627
 21
74.30670622814159
 31
0.0
  0
LINE
  5
22C
330
2
100
AcDbEntity
  8
4
100
AcDbLine
 10
615.2380708879627
 20
76.30670622814159
 30
0.0
 11
615.2380708879627
 21
56.30670622814159
 31
0.0
  0
LINE
  5
22D
330
2
100
AcDbEntity
  8
L-CENTER
 48
5.0
100
AcDbLine
 10
710.2380708879627
 20
90.30670622814159
 30
0.0
 11
710.2380708879627
 21
22.30670622814159
 31
0.0
  0
LINE
  5
22E
330
2
100
AcDbEntity
  8
4
100
AcDbLine
 10
760.2380708879627
 20
74.30670622814159
 30
0.0
 11
760.2380708879627
 21
36.30670622814159
 31
0.0
  0
LINE
  5
22F
330
2
100
AcDbEntity
  8
4
100
AcDbLine
 10
635.2380708879627
 20
129.3067062281416
 30
0.0
 11
635.2380708879627
 21
76.30670622814159
 31
0.0
  0
ARC
  5
230
330
2
100
AcDbEntity
  8
4
100
AcDbCircle
 10
758.2380708879627
 20
74.30670622814159
 30
0.0
 40
2.0
100
AcDbArc
 50
0.0
 51
90.0
  0
LINE
  5
231
330
2
100
AcDbEntity
  8
4
100
AcDbLine
 10
718.2380708879627
 20
339.3067062281416
 30
0.0
 11
718.2380708879637
 21
129.3067062281416
 31
0.0
  0
LINE
  5
232
330
2
100
AcDbEntity
  8
4
100
AcDbLine
 10
720.2380708879627
 20
343.3067062281416
 30
0.0
 11
720.2380708879627
 21
340.3067062281416
 31
0.0
  0
LINE
  5
233
330
2
100
AcDbEntity
  8
4
100
AcDbLine
 10
723.2380708879627
 20
340.3067062281416
 30
0.0
 11
723.2380708879627
 21
339.3067062281416
 31
0.0
  0
LINE
  5
234
330
2
100
AcDbEntity
  8
4
100
AcDbLine
 10
721.2380708879627
 20
365.6067062281418
 30
0.0
 11
219.2380708879627
 21
365.6067062281418
 31
0.0
  0
LINE
  5
235
330
2
100
AcDbEntity
  8
4
100
AcDbLine
 10
722.2380708879627
 20
364.6067062281418
 30
0.0
 11
722.2380708879627
 21
343.6067062281418
 31
0.0
  0
ARC
  5
236
330
2
100
AcDbEntity
  8
4
100
AcDbCircle
 10
721.2380708879627
 20
364.6067062281413
 30
0.0
 40
1.0
100
AcDbArc
 50
0.0
 51
90.0
  0
LINE
  5
237
330
2
100
AcDbEntity
  8
4
100
AcDbLine
 10
552.1870625918991
 20
399.8107394123999
 30
0.0
 11
686.5600501014887
 21
365.6067062281418
 31
0.0
  0
LINE
  5
238
330
2
100
AcDbEntity
  8
4
100
AcDbLine
 10
427.7380708879637
 20
365.6067062281418
 30
0.0
 11
412.7380708879637
 21
397.6067062281418
 31
0.0
  0
LINE
  5
239
330
2
100
AcDbEntity
  8
4
100
AcDbLine
 10
387.7380708879637
 20
397.6067062281418
 30
0.0
 11
454.2380708879618
 21
397.6067062281418
 31
0.0
  0
LINE
  5
23A
330
2
100
AcDbEntity
  8
4
100
AcDbLine
 10
392.7380708879627
 20
417.6067062281418
 30
0.0
 11
462.2380708879637
 21
417.6067062281418
 31
0.0
  0
LINE
  5
23B
330
2
100
AcDbEntity
  8
4
100
AcDbLine
 10
392.7380708879828
 20
417.6067062281672
 30
0.0
 11
388.2890791840409
 21
399.8107394124272
 31
0.0
  0
LINE
  5
23C
330
2
100
AcDbEntity
  8
4
100
AcDbLine
 10
420.2380708879627
 20
418.6067062281418
 30
0.0
 11
462.2380708879627
 21
418.6067062281418
 31
0.0
  0
LINE
  5
23D
330
2
100
AcDbEntity
  8
4
100
AcDbLine
 10
420.2380708879627
 20
418.6067062281418
 30
0.0
 11
420.2380708879627
 21
417.6067062281418
 31
0.0
  0
LINE
  5
23E
330
2
100
AcDbEntity
  8
4
100
AcDbLine
 10
512.7380708879637
 20
365.6067062281418
 30
0.0
 11
527.7380708879637
 21
397.6067062281418
 31
0.0
  0
LINE
  5
23F
330
2
100
AcDbEntity
  8
4
100
AcDbLine
 10
520.2380708879627
 20
418.6067062281422
 30
0.0
 11
520.2380708879618
 21
417.6067062281418
 31
0.0
  0
LINE
  5
240
330
2
100
AcDbEntity
  8
4
100
AcDbLine
 10
547.7380708879627
 20
417.6067062281418
 30
0.0
 11
552.1870625918982
 21
399.8107394123999
 31
0.0
  0
LINE
  5
241
330
2
100
AcDbEntity
  8
4
100
AcDbLine
 10
388.2890791840273
 20
399.8107394123999
 30
0.0
 11
253.9160916744367
 21
365.6067062281418
 31
0.0
  0
LINE
  5
242
330
2
100
AcDbEntity
  8
4
100
AcDbLine
 10
218.2380708879627
 20
364.6067062281418
 30
0.0
 11
218.2380708879627
 21
343.6067062281418
 31
0.0
  0
ARC
  5
243
330
2
100
AcDbEntity
  8
4
100
AcDbCircle
 10
219.2380708879627
 20
364.6067062281413
 30
0.0
 40
1.0
100
AcDbArc
 50
90.0
 51
180.0
  0
LINE
  5
244
330
2
100
AcDbEntity
  8
2
100
AcDbLine
 10
722.2380708879627
 20
343.6067062281418
 30
0.0
 11
218.2380708879627
 21
343.6067062281418
 31
0.0
  0
LINE
  5
245
330
2
100
AcDbEntity
  8
4
100
AcDbLine
 10
515.2380708879627
 20
584.3067062281416
 30
0.0
 11
515.2380708879627
 21
434.3067062281416
 31
0.0
  0
LINE
  5
246
330
2
100
AcDbEntity
  8
4
100
AcDbLine
 10
509.2380708879627
 20
424.3067062281416
 30
0.0
 11
509.2380708879627
 21
582.3067062281416
 31
0.0
  0
LINE
  5
247
330
2
100
AcDbEntity
  8
4
100
AcDbLine
 10
509.2380708879627
 20
582.3067062281416
 30
0.0
 11
431.2380708879627
 21
582.3067062281416
 31
0.0
  0
LINE
  5
248
330
2
100
AcDbEntity
  8
4
100
AcDbLine
 10
515.2380708879627
 20
584.3067062281416
 30
0.0
 11
433.2380708879627
 21
584.3067062281416
 31
0.0
  0
LINE
  5
249
330
2
100
AcDbEntity
  8
4
100
AcDbLine
 10
509.2380708879627
 20
582.3067062281416
 30
0.0
 11
507.2380708879627
 21
584.3067062281416
 31
0.0
  0
LINE
  5
24A
330
2
100
AcDbEntity
  8
4
100
AcDbLine
 10
431.2380708879627
 20
424.3067062281416
 30
0.0
 11
431.2380708879627
 21
582.3067062281416
 31
0.0
  0
LINE
  5
24B
330
2
100
AcDbEntity
  8
4
100
AcDbLine
 10
431.2380708879627
 20
582.3067062281416
 30
0.0
 11
433.2380708879627
 21
584.3067062281416
 31
0.0
  0
LINE
  5
24C
330
2
100
AcDbEntity
  8
4
100
AcDbLine
 10
478.2380708879627
 20
424.3067062281416
 30
0.0
 11
510.2380708879627
 21
424.3067062281416
 31
0.0
  0
LINE
  5
24D
330
2
100
AcDbEntity
  8
4
100
AcDbLine
 10
515.2380708879627
 20
434.3067062281416
 30
0.0
 11
509.2380708879627
 21
434.3067062281416
 31
0.0
  0
LINE
  5
24E
330
2
100
AcDbEntity
  8
4
100
AcDbLine
 10
510.2380708879627
 20
418.7067062281417
 30
0.0
 11
510.2380708879627
 21
424.3067062281416
 31
0.0
  0
LINE
  5
24F
330
2
100
AcDbEntity
  8
4
100
AcDbLine
 10
430.2380708879627
 20
424.3067062281416
 30
0.0
 11
462.2380708879627
 21
424.3067062281416
 31
0.0
  0
LINE
  5
250
330
2
100
AcDbEntity
  8
4
100
AcDbLine
 10
430.2380708879627
 20
418.7067062281417
 30
0.0
 11
430.2380708879627
 21
424.3067062281416
 31
0.0
  0
LINE
  5
251
330
2
100
AcDbEntity
  8
4
100
AcDbLine
 10
450.2380708879627
 20
384.6067062281418
 30
0.0
 11
490.2380708879627
 21
384.6067062281418
 31
0.0
  0
LINE
  5
252
330
2
100
AcDbEntity
  8
4
100
AcDbLine
 10
450.2380708879627
 20
384.6067062281418
 30
0.0
 11
450.2380708879627
 21
371.0341191188563
 31
0.0
  0
LINE
  5
253
330
2
100
AcDbEntity
  8
4
100
AcDbLine
 10
490.2380708879627
 20
384.6067062281418
 30
0.0
 11
490.2380708879627
 21
371.0341191188563
 31
0.0
  0
LINE
  5
254
330
2
100
AcDbEntity
  8
4
100
AcDbLine
 10
452.7380708879627
 20
384.6067062281418
 30
0.0
 11
454.2380708879627
 21
397.6067062281418
 31
0.0
  0
LINE
  5
255
330
2
100
AcDbEntity
  8
4
100
AcDbLine
 10
487.7380708879627
 20
384.6067062281418
 30
0.0
 11
486.2380708879627
 21
397.6067062281418
 31
0.0
  0
LINE
  5
256
330
2
100
AcDbEntity
  8
4
100
AcDbLine
 10
478.2380708879627
 20
447.6067062281418
 30
0.0
 11
478.2380708879627
 21
390.6067062281418
 31
0.0
  0
LINE
  5
257
330
2
100
AcDbEntity
  8
4
100
AcDbLine
 10
462.2380708879627
 20
447.6067062281418
 30
0.0
 11
462.2380708879627
 21
390.6067062281418
 31
0.0
  0
ARC
  5
258
330
2
100
AcDbEntity
  8
4
100
AcDbCircle
 10
456.2380708879627
 20
390.6067062281418
 30
0.0
 40
6.0
100
AcDbArc
 50
270.0
 51
0.0
  0
ARC
  5
259
330
2
100
AcDbEntity
  8
4
100
AcDbCircle
 10
484.2380708879627
 20
390.6067062281418
 30
0.0
 40
6.0
100
AcDbArc
 50
180.0
 51
270.0
  0
ARC
  5
25A
330
2
100
AcDbEntity
  8
4
100
AcDbCircle
 10
470.2380708879627
 20
447.6067062281418
 30
0.0
 40
8.0
100
AcDbArc
 50
0.0
 51
180.0
  0
LINE
  5
25B
330
2
100
AcDbEntity
  8
L-CENTER
 48
5.0
100
AcDbLine
 10
454.5281033469037
 20
419.6067062281418
 30
0.0
 11
485.0665333322413
 21
419.6067062281418
 31
0.0
  0
LINE
  5
25C
330
2
100
AcDbEntity
  8
4
100
AcDbLine
 10
454.2380708879627
 20
397.6067062281418
 30
0.0
 11
462.2380708879627
 21
398.6067062281418
 31
0.0
  0
LINE
  5
25D
330
2
100
AcDbEntity
  8
4
100
AcDbLine
 10
478.2380708879627
 20
398.6067062281418
 30
0.0
 11
486.2380708879627
 21
397.6067062281418
 31
0.0
  0
LINE
  5
25E
330
2
100
AcDbEntity
  8
4
100
AcDbLine
 10
486.2380708879618
 20
397.6067062281418
 30
0.0
 11
552.7380708879637
 21
397.6067062281418
 31
0.0
  0
LINE
  5
25F
330
2
100
AcDbEntity
  8
4
100
AcDbLine
 10
478.2380708879627
 20
418.6067062281418
 30
0.0
 11
520.2380708879627
 21
418.6067062281422
 31
0.0
  0
LINE
  5
260
330
2
100
AcDbEntity
  8
4
100
AcDbLine
 10
478.2380708879637
 20
417.6067062281418
 30
0.0
 11
547.7380708879627
 21
417.6067062281418
 31
0.0
  0
LINE
  5
264
330
2
100
AcDbEntity
  8
L-CENTER
 48
5.0
100
AcDbLine
 10
310.2380708879637
 20
407.6003536643116
 30
0.0
 11
310.2380708879637
 21
371.4950086643116
 31
0.0
  0
LINE
  5
271
330
2
100
AcDbEntity
  8
2
100
AcDbLine
 10
723.5380708879629
 20
339.3067062281416
 30
0.0
 11
723.538070887962
 21
129.3067062281416
 31
0.0
  0
LINE
  5
272
330
2
100
AcDbEntity
  8
4
100
AcDbLine
 10
740.0380708879638
 20
338.3067062281416
 30
0.0
 11
740.0380708879629
 21
130.3067062281411
 31
0.0
  0
LINE
  5
273
330
2
100
AcDbEntity
  8
4
 48
3.5
100
AcDbLine
 10
723.2380708879627
 20
339.3067062281416
 30
0.0
 11
739.0380708879638
 21
339.3067062281416
 31
0.0
  0
LINE
  5
274
330
2
100
AcDbEntity
  8
4
 48
3.5
100
AcDbLine
 10
723.2380708879627
 20
129.3067062281416
 30
0.0
 11
739.0380708879629
 21
129.3067062281411
 31
0.0
  0
ARC
  5
275
330
2
100
AcDbEntity
  8
4
100
AcDbCircle
 10
739.0380708879638
 20
338.3067062281416
 30
0.0
 40
1.0
100
AcDbArc
 50
0.0
 51
90.0
  0
ARC
  5
276
330
2
100
AcDbEntity
  8
4
100
AcDbCircle
 10
739.0380708879629
 20
130.3067062281411
 30
0.0
 40
1.0
100
AcDbArc
 50
270.0
 51
0.0
  0
LINE
  5
277
330
2
100
AcDbEntity
  8
4
100
AcDbLine
 10
1238.005135399422
 20
299.0177052438298
 30
0.0
 11
1230.248417880608
 21
306.7744227626431
 31
0.0
  0
LINE
  5
278
330
2
100
AcDbEntity
  8
4
100
AcDbLine
 10
1235.165979737556
 20
288.4218320631512
 30
0.0
 11
1238.005135399422
 21
299.0177052438298
 31
0.0
  0
LINE
  5
279
330
2
100
AcDbEntity
  8
4
100
AcDbLine
 10
1219.65254469993
 20
303.9352671007778
 30
0.0
 11
1216.813389038064
 21
293.3393939200992
 31
0.0
  0
LINE
  5
27A
330
2
100
AcDbEntity
  8
4
100
AcDbLine
 10
1230.248417880608
 20
306.7744227626431
 30
0.0
 11
1219.65254469993
 21
303.9352671007778
 31
0.0
  0
LINE
  5
27B
330
2
100
AcDbEntity
  8
4
100
AcDbLine
 10
1224.570106556877
 20
285.5826764012859
 30
0.0
 11
1235.165979737556
 21
288.4218320631512
 31
0.0
  0
LINE
  5
27C
330
2
100
AcDbEntity
  8
4
100
AcDbLine
 10
1216.813389038064
 20
293.3393939200992
 30
0.0
 11
1224.570106556877
 21
285.5826764012859
 31
0.0
  0
CIRCLE
  5
27D
330
2
100
AcDbEntity
  8
4
100
AcDbCircle
 10
1227.409262218742
 20
296.1785495819649
 30
0.0
 40
9.5
  0
LINE
  5
27E
330
2
100
AcDbEntity
  8
4
100
AcDbLine
 10
1100.826419849232
 20
306.7744227626436
 30
0.0
 11
1093.069702330419
 21
299.0177052438303
 31
0.0
  0
LINE
  5
27F
330
2
100
AcDbEntity
  8
4
100
AcDbLine
 10
1111.42229302991
 20
303.9352671007782
 30
0.0
 11
1100.826419849232
 21
306.7744227626436
 31
0.0
  0
LINE
  5
280
330
2
100
AcDbEntity
  8
4
100
AcDbLine
 10
1095.908857992284
 20
288.4218320631517
 30
0.0
 11
1106.504731172962
 21
285.5826764012863
 31
0.0
  0
LINE
  5
281
330
2
100
AcDbEntity
  8
4
100
AcDbLine
 10
1093.069702330419
 20
299.0177052438303
 30
0.0
 11
1095.908857992284
 21
288.4218320631517
 31
0.0
  0
LINE
  5
282
330
2
100
AcDbEntity
  8
4
100
AcDbLine
 10
1114.261448691776
 20
293.3393939200987
 30
0.0
 11
1111.42229302991
 21
303.9352671007782
 31
0.0
  0
LINE
  5
283
330
2
100
AcDbEntity
  8
4
100
AcDbLine
 10
1106.504731172962
 20
285.5826764012863
 30
0.0
 11
1114.261448691776
 21
293.3393939200987
 31
0.0
  0
CIRCLE
  5
284
330
2
100
AcDbEntity
  8
4
100
AcDbCircle
 10
1103.665575511096
 20
296.178549581964
 30
0.0
 40
9.5
  0
LINE
  5
285
330
2
100
AcDbEntity
  8
4
100
AcDbLine
 10
1093.069702330418
 20
169.5957072124543
 30
0.0
 11
1100.826419849231
 21
161.838989693641
 31
0.0
  0
LINE
  5
286
330
2
100
AcDbEntity
  8
4
100
AcDbLine
 10
1095.908857992283
 20
180.1915803931329
 30
0.0
 11
1093.069702330418
 21
169.5957072124543
 31
0.0
  0
LINE
  5
287
330
2
100
AcDbEntity
  8
4
100
AcDbLine
 10
1111.422293029909
 20
164.6781453555063
 30
0.0
 11
1114.261448691775
 21
175.2740185361849
 31
0.0
  0
LINE
  5
288
330
2
100
AcDbEntity
  8
4
100
AcDbLine
 10
1100.826419849231
 20
161.838989693641
 30
0.0
 11
1111.422293029909
 21
164.6781453555063
 31
0.0
  0
LINE
  5
289
330
2
100
AcDbEntity
  8
4
100
AcDbLine
 10
1106.504731172962
 20
183.0307360549982
 30
0.0
 11
1095.908857992283
 21
180.1915803931329
 31
0.0
  0
LINE
  5
28A
330
2
100
AcDbEntity
  8
4
100
AcDbLine
 10
1114.261448691775
 20
175.2740185361849
 30
0.0
 11
1106.504731172962
 21
183.0307360549982
 31
0.0
  0
CIRCLE
  5
28B
330
2
100
AcDbEntity
  8
4
100
AcDbCircle
 10
1103.665575511097
 20
172.4348628743187
 30
0.0
 40
9.5
  0
LINE
  5
28C
330
2
100
AcDbEntity
  8
4
100
AcDbLine
 10
1230.248417880607
 20
161.8389896936405
 30
0.0
 11
1238.005135399422
 21
169.5957072124538
 31
0.0
  0
LINE
  5
28D
330
2
100
AcDbEntity
  8
4
100
AcDbLine
 10
1219.652544699929
 20
164.6781453555059
 30
0.0
 11
1230.248417880607
 21
161.8389896936405
 31
0.0
  0
LINE
  5
28E
330
2
100
AcDbEntity
  8
4
100
AcDbLine
 10
1235.165979737555
 20
180.1915803931324
 30
0.0
 11
1224.570106556877
 21
183.0307360549978
 31
0.0
  0
LINE
  5
28F
330
2
100
AcDbEntity
  8
4
100
AcDbLine
 10
1238.005135399422
 20
169.5957072124538
 30
0.0
 11
1235.165979737555
 21
180.1915803931324
 31
0.0
  0
LINE
  5
290
330
2
100
AcDbEntity
  8
4
100
AcDbLine
 10
1216.813389038064
 20
175.2740185361854
 30
0.0
 11
1219.652544699929
 21
164.6781453555059
 31
0.0
  0
LINE
  5
291
330
2
100
AcDbEntity
  8
4
100
AcDbLine
 10
1224.570106556877
 20
183.0307360549978
 30
0.0
 11
1216.813389038064
 21
175.2740185361854
 31
0.0
  0
CIRCLE
  5
292
330
2
100
AcDbEntity
  8
4
100
AcDbCircle
 10
1227.409262218744
 20
172.4348628743201
 30
0.0
 40
9.5
  0
ARC
  5
293
330
2
100
AcDbEntity
  8
4
100
AcDbCircle
 10
747.1626920126837
 20
304.4057909179164
 30
0.0
 40
3.875378875279264
100
AcDbArc
 50
314.955926762744
 51
45.04407323725601
  0
LINE
  5
294
330
2
100
AcDbEntity
  8
4
100
AcDbLine
 10
749.9008899773362
 20
301.6633771392658
 30
0.0
 11
743.0380708879638
 21
301.6633771392658
 31
0.0
  0
LINE
  5
295
330
2
100
AcDbEntity
  8
4
100
AcDbLine
 10
740.0380708879638
 20
307.1482046965671
 30
0.0
 11
749.9008899773362
 21
307.1482046965671
 31
0.0
  0
LINE
  5
296
330
2
100
AcDbEntity
  8
L-CENTER
 48
5.0
100
AcDbLine
 10
754.638910768068
 20
296.1785495819645
 30
0.0
 11
701.8206532065069
 21
296.1785495819645
 31
0.0
  0
LINE
  5
297
330
2
100
AcDbEntity
  8
4
100
AcDbLine
 10
749.9008899773362
 20
290.6937220246627
 30
0.0
 11
743.0380708879638
 21
290.6937220246627
 31
0.0
  0
ARC
  5
298
330
2
100
AcDbEntity
  8
4
100
AcDbCircle
 10
737.2423267527865
 20
296.1785495819645
 30
0.0
 40
13.7957441351769
100
AcDbArc
 50
336.5734024913708
 51
23.42659750862732
  0
LINE
  5
299
330
2
100
AcDbEntity
  8
4
100
AcDbLine
 10
751.0380708879638
 20
304.4057909179164
 30
0.0
 11
751.0380708879638
 21
287.9513082460121
 31
0.0
  0
LINE
  5
29A
330
2
100
AcDbEntity
  8
4
100
AcDbLine
 10
749.9008899773362
 20
285.2088944673615
 30
0.0
 11
740.0380708879638
 21
285.2088944673615
 31
0.0
  0
LINE
  5
29B
330
2
100
AcDbEntity
  8
4
100
AcDbLine
 10
740.0380708879638
 20
285.2088944673615
 30
0.0
 11
740.0380708879638
 21
307.1482046965671
 31
0.0
  0
ARC
  5
29C
330
2
100
AcDbEntity
  8
4
100
AcDbCircle
 10
747.1626920126837
 20
287.9513082460121
 30
0.0
 40
3.875378875279244
100
AcDbArc
 50
314.955926762744
 51
45.04407323725362
  0
LINE
  5
29D
330
2
100
AcDbEntity
  8
4
100
AcDbLine
 10
743.0380708879638
 20
285.2088944673615
 30
0.0
 11
743.0380708879638
 21
307.1482046965671
 31
0.0
  0
ARC
  5
29E
330
2
100
AcDbEntity
  8
4
100
AcDbCircle
 10
747.1626920126837
 20
164.2076215383668
 30
0.0
 40
3.875378875279264
100
AcDbArc
 50
314.955926762744
 51
45.04407323725601
  0
LINE
  5
29F
330
2
100
AcDbEntity
  8
4
100
AcDbLine
 10
749.9008899773362
 20
166.9500353170174
 30
0.0
 11
743.0380708879638
 21
166.9500353170174
 31
0.0
  0
LINE
  5
2A0
330
2
100
AcDbEntity
  8
4
100
AcDbLine
 10
740.0380708879638
 20
161.4652077597161
 30
0.0
 11
749.9008899773362
 21
161.4652077597161
 31
0.0
  0
LINE
  5
2A1
330
2
100
AcDbEntity
  8
4
100
AcDbLine
 10
749.9008899773362
 20
177.9196904316204
 30
0.0
 11
743.0380708879638
 21
177.9196904316204
 31
0.0
  0
ARC
  5
2A2
330
2
100
AcDbEntity
  8
4
100
AcDbCircle
 10
737.2423267527865
 20
172.4348628743187
 30
0.0
 40
13.7957441351769
100
AcDbArc
 50
336.5734024913723
 51
23.42659750862924
  0
LINE
  5
2A3
330
2
100
AcDbEntity
  8
4
100
AcDbLine
 10
751.0380708879638
 20
164.2076215383668
 30
0.0
 11
751.0380708879638
 21
180.6621042102711
 31
0.0
  0
LINE
  5
2A4
330
2
100
AcDbEntity
  8
4
100
AcDbLine
 10
749.9008899773362
 20
183.4045179889217
 30
0.0
 11
740.0380708879638
 21
183.4045179889217
 31
0.0
  0
LINE
  5
2A5
330
2
100
AcDbEntity
  8
4
100
AcDbLine
 10
740.0380708879638
 20
183.4045179889217
 30
0.0
 11
740.0380708879638
 21
161.4652077597161
 31
0.0
  0
ARC
  5
2A6
330
2
100
AcDbEntity
  8
4
100
AcDbCircle
 10
747.1626920126837
 20
180.6621042102711
 30
0.0
 40
3.875378875279244
100
AcDbArc
 50
314.955926762744
 51
45.04407323725362
  0
LINE
  5
2A7
330
2
100
AcDbEntity
  8
4
100
AcDbLine
 10
743.0380708879638
 20
183.4045179889217
 30
0.0
 11
743.0380708879638
 21
161.4652077597161
 31
0.0
  0
LINE
  5
2A8
330
2
100
AcDbEntity
  8
L-CENTER
 48
5.0
100
AcDbLine
 10
754.638910768068
 20
172.4348628743187
 30
0.0
 11
701.8206532065069
 21
172.4348628743187
 31
0.0
  0
LINE
  5
2A9
330
2
100
AcDbEntity
  8
4
100
AcDbLine
 10
197.4380708879616
 20
183.4045179889217
 30
0.0
 11
197.4380708879616
 21
161.4652077597161
 31
0.0
  0
ARC
  5
2AA
330
2
100
AcDbEntity
  8
4
100
AcDbCircle
 10
193.3134497632417
 20
180.6621042102711
 30
0.0
 40
3.875378875279244
100
AcDbArc
 50
134.9559267627464
 51
225.0440732372536
  0
LINE
  5
2AB
330
2
100
AcDbEntity
  8
4
100
AcDbLine
 10
200.4380708879616
 20
183.4045179889217
 30
0.0
 11
200.4380708879616
 21
161.4652077597161
 31
0.0
  0
LINE
  5
2AC
330
2
100
AcDbEntity
  8
4
100
AcDbLine
 10
200.4380708879616
 20
338.3067062281416
 30
0.0
 11
200.4380708879625
 21
130.3067062281411
 31
0.0
  0
LINE
  5
2AD
330
2
100
AcDbEntity
  8
L-CENTER
 48
5.0
100
AcDbLine
 10
185.8372310078575
 20
172.4348628743187
 30
0.0
 11
238.6554885694185
 21
172.4348628743187
 31
0.0
  0
LINE
  5
2AE
330
2
100
AcDbEntity
  8
4
100
AcDbLine
 10
189.4380708879616
 20
164.2076215383668
 30
0.0
 11
189.4380708879616
 21
180.6621042102711
 31
0.0
  0
ARC
  5
2AF
330
2
100
AcDbEntity
  8
4
100
AcDbCircle
 10
203.2338150231389
 20
172.4348628743187
 30
0.0
 40
13.7957441351769
100
AcDbArc
 50
156.5734024913707
 51
203.4265975086272
  0
LINE
  5
2B0
330
2
100
AcDbEntity
  8
4
100
AcDbLine
 10
190.5752517985892
 20
177.9196904316204
 30
0.0
 11
197.4380708879616
 21
177.9196904316204
 31
0.0
  0
LINE
  5
2B1
330
2
100
AcDbEntity
  8
4
100
AcDbLine
 10
200.4380708879616
 20
161.4652077597161
 30
0.0
 11
190.5752517985892
 21
161.4652077597161
 31
0.0
  0
LINE
  5
2B2
330
2
100
AcDbEntity
  8
4
100
AcDbLine
 10
190.5752517985892
 20
166.9500353170174
 30
0.0
 11
197.4380708879616
 21
166.9500353170174
 31
0.0
  0
ARC
  5
2B3
330
2
100
AcDbEntity
  8
4
100
AcDbCircle
 10
193.3134497632417
 20
164.2076215383668
 30
0.0
 40
3.875378875279264
100
AcDbArc
 50
134.9559267627446
 51
225.0440732372554
  0
ARC
  5
2B4
330
2
100
AcDbEntity
  8
4
100
AcDbCircle
 10
201.4380708879625
 20
130.3067062281411
 30
0.0
 40
1.0
100
AcDbArc
 50
180.0
 51
270.0
  0
LINE
  5
2B5
330
2
100
AcDbEntity
  8
4
 48
3.5
100
AcDbLine
 10
217.2380708879627
 20
129.3067062281416
 30
0.0
 11
201.4380708879625
 21
129.3067062281411
 31
0.0
  0
LINE
  5
2B6
330
2
100
AcDbEntity
  8
4
100
AcDbLine
 10
190.5752517985892
 20
183.4045179889217
 30
0.0
 11
200.4380708879616
 21
183.4045179889217
 31
0.0
  0
LINE
  5
2B7
330
2
100
AcDbEntity
  8
L-CENTER
 48
5.0
100
AcDbLine
 10
185.8372310078575
 20
296.1785495819645
 30
0.0
 11
238.6554885694185
 21
296.1785495819645
 31
0.0
  0
ARC
  5
2B8
330
2
100
AcDbEntity
  8
4
100
AcDbCircle
 10
193.3134497632417
 20
304.4057909179164
 30
0.0
 40
3.875378875279264
100
AcDbArc
 50
134.9559267627446
 51
225.0440732372554
  0
LINE
  5
2B9
330
2
100
AcDbEntity
  8
4
100
AcDbLine
 10
190.5752517985892
 20
301.6633771392658
 30
0.0
 11
197.4380708879616
 21
301.6633771392658
 31
0.0
  0
LINE
  5
2BA
330
2
100
AcDbEntity
  8
4
100
AcDbLine
 10
200.4380708879616
 20
307.1482046965671
 30
0.0
 11
190.5752517985892
 21
307.1482046965671
 31
0.0
  0
LINE
  5
2BB
330
2
100
AcDbEntity
  8
4
100
AcDbLine
 10
190.5752517985892
 20
290.6937220246627
 30
0.0
 11
197.4380708879616
 21
290.6937220246627
 31
0.0
  0
ARC
  5
2BC
330
2
100
AcDbEntity
  8
4
100
AcDbCircle
 10
203.2338150231389
 20
296.1785495819645
 30
0.0
 40
13.7957441351769
100
AcDbArc
 50
156.5734024913727
 51
203.4265975086293
  0
LINE
  5
2BD
330
2
100
AcDbEntity
  8
4
100
AcDbLine
 10
189.4380708879616
 20
304.4057909179164
 30
0.0
 11
189.4380708879616
 21
287.9513082460121
 31
0.0
  0
LINE
  5
2BE
330
2
100
AcDbEntity
  8
4
100
AcDbLine
 10
190.5752517985892
 20
285.2088944673615
 30
0.0
 11
200.4380708879616
 21
285.2088944673615
 31
0.0
  0
LINE
  5
2BF
330
2
100
AcDbEntity
  8
4
100
AcDbLine
 10
200.4380708879616
 20
285.2088944673615
 30
0.0
 11
200.4380708879616
 21
307.1482046965671
 31
0.0
  0
ARC
  5
2C0
330
2
100
AcDbEntity
  8
4
100
AcDbCircle
 10
193.3134497632417
 20
287.9513082460121
 30
0.0
 40
3.875378875279244
100
AcDbArc
 50
134.9559267627464
 51
225.0440732372536
  0
LINE
  5
2C1
330
2
100
AcDbEntity
  8
4
100
AcDbLine
 10
197.4380708879616
 20
285.2088944673615
 30
0.0
 11
197.4380708879616
 21
307.1482046965671
 31
0.0
  0
ARC
  5
2C2
330
2
100
AcDbEntity
  8
4
100
AcDbCircle
 10
201.4380708879616
 20
338.3067062281416
 30
0.0
 40
1.0
100
AcDbArc
 50
90.0
 51
180.0
  0
LINE
  5
2C3
330
2
100
AcDbEntity
  8
4
 48
3.5
100
AcDbLine
 10
217.2380708879627
 20
339.3067062281416
 30
0.0
 11
201.4380708879616
 21
339.3067062281416
 31
0.0
  0
LINE
  5
2C4
330
2
100
AcDbEntity
  8
2
100
AcDbLine
 10
216.9380708879625
 20
339.3067062281416
 30
0.0
 11
216.9380708879634
 21
129.3067062281416
 31
0.0
  0
LINE
  5
2C5
330
2
100
AcDbEntity
  8
4
100
AcDbLine
 10
755.2380708879627
 20
205.3067062281416
 30
0.0
 11
873.2380708879627
 21
205.3067062281416
 31
0.0
  0
LINE
  5
2C6
330
2
100
AcDbEntity
  8
4
100
AcDbLine
 10
755.2380708879627
 20
266.8067062281416
 30
0.0
 11
755.2380708879627
 21
201.8067062281416
 31
0.0
  0
LINE
  5
2C7
330
2
100
AcDbEntity
  8
4
100
AcDbLine
 10
755.2380708879627
 20
201.8067062281416
 30
0.0
 11
741.0380708879629
 21
201.8067062281416
 31
0.0
  0
LINE
  5
2C8
330
2
100
AcDbEntity
  8
4
100
AcDbLine
 10
875.2380708879627
 20
207.3067062281416
 30
0.0
 11
875.2380708879627
 21
268.3067062281416
 31
0.0
  0
LINE
  5
2C9
330
2
100
AcDbEntity
  8
4
100
AcDbLine
 10
873.2380708879627
 20
205.3067062281416
 30
0.0
 11
873.2380708879627
 21
226.8067062281416
 31
0.0
  0
LINE
  5
2CA
330
2
100
AcDbEntity
  8
4
100
AcDbLine
 10
875.2380708879627
 20
207.3067062281416
 30
0.0
 11
873.2380708879627
 21
205.3067062281416
 31
0.0
  0
LINE
  5
2CB
330
2
100
AcDbEntity
  8
4
100
AcDbLine
 10
873.2380708879627
 20
205.3067062281416
 30
0.0
 11
875.2380708879627
 21
207.3067062281416
 31
0.0
  0
LINE
  5
2CC
330
2
100
AcDbEntity
  8
4
100
AcDbLine
 10
765.2380708879627
 20
268.3067062281416
 30
0.0
 11
875.2380708879627
 21
268.3067062281416
 31
0.0
  0
LINE
  5
2CD
330
2
100
AcDbEntity
  8
4
100
AcDbLine
 10
755.2380708879627
 20
263.3067062281416
 30
0.0
 11
873.2380708879627
 21
263.3067062281416
 31
0.0
  0
LINE
  5
2CE
330
2
100
AcDbEntity
  8
4
100
AcDbLine
 10
755.2380708879627
 20
266.8067062281416
 30
0.0
 11
741.0380708879629
 21
266.8067062281416
 31
0.0
  0
LINE
  5
2CF
330
2
100
AcDbEntity
  8
4
100
AcDbLine
 10
765.2380708879627
 20
263.3067062281416
 30
0.0
 11
765.2380708879627
 21
268.3067062281416
 31
0.0
  0
LINE
  5
2D0
330
2
100
AcDbEntity
  8
4
100
AcDbLine
 10
873.2380708879627
 20
226.0319262281414
 30
0.0
 11
873.2380708879627
 21
263.3067062281416
 31
0.0
  0
LINE
  5
2D1
330
2
100
AcDbEntity
  8
4
100
AcDbLine
 10
873.2380708879627
 20
263.3067062281416
 30
0.0
 11
875.2380708879627
 21
261.3067062281416
 31
0.0
  0
LINE
  5
2D2
330
2
100
AcDbEntity
  8
4
100
AcDbLine
 10
741.0380708879629
 20
189.3067062281416
 30
0.0
 11
741.0380708879629
 21
279.3067062281416
 31
0.0
  0
LINE
  5
2D4
330
2
100
AcDbEntity
  8
4
100
AcDbLine
 10
741.0380708879629
 20
279.3067062281416
 30
0.0
 11
740.0380708879638
 21
279.3067062281416
 31
0.0
  0
LINE
  5
2D5
330
2
100
AcDbEntity
  8
4
100
AcDbLine
 10
741.0380708879629
 20
189.3067062281416
 30
0.0
 11
740.0380708879629
 21
189.3067062281416
 31
0.0
  0
LINE
  5
311
330
2
100
AcDbEntity
  8
4
100
AcDbLine
 10
1681.8498308918
 20
225.6464521902972
 30
0.0
 11
1677.03741886492
 21
225.6464521902972
 31
0.0
  0
ARC
  5
312
330
2
100
AcDbEntity
  8
4
100
AcDbCircle
 10
1482.037418864918
 20
234.3067062281416
 30
0.0
 40
200.0
100
AcDbArc
 50
355.0318164639294
 51
4.968183536070478
  0
LINE
  5
313
330
2
100
AcDbEntity
  8
4
100
AcDbLine
 10
1675.03741886492
 20
216.8067062281416
 30
0.0
 11
1673.53741886492
 21
216.8067062281416
 31
0.0
  0
LINE
  5
314
330
2
100
AcDbEntity
  8
4
100
AcDbLine
 10
1677.03741886492
 20
216.3067062281416
 30
0.0
 11
1675.03741886492
 21
216.3067062281416
 31
0.0
  0
LINE
  5
315
330
2
100
AcDbEntity
  8
4
100
AcDbLine
 10
1681.286007316631
 20
216.9861981524527
 30
0.0
 11
1677.037418864918
 21
216.9861981524527
 31
0.0
  0
LINE
  5
316
330
2
100
AcDbEntity
  8
4
100
AcDbLine
 10
1673.53741886492
 20
251.8067062281416
 30
0.0
 11
1673.53741886492
 21
216.8067062281416
 31
0.0
  0
LINE
  5
317
330
2
100
AcDbEntity
  8
4
100
AcDbLine
 10
1675.03741886492
 20
252.3067062281416
 30
0.0
 11
1675.03741886492
 21
216.3067062281416
 31
0.0
  0
LINE
  5
318
330
2
100
AcDbEntity
  8
4
100
AcDbLine
 10
1677.03741886492
 20
252.3067062281416
 30
0.0
 11
1677.03741886492
 21
216.3067062281416
 31
0.0
  0
LINE
  5
319
330
2
100
AcDbEntity
  8
4
100
AcDbLine
 10
1681.8498308918
 20
242.966960265986
 30
0.0
 11
1677.03741886492
 21
242.966960265986
 31
0.0
  0
LINE
  5
31A
330
2
100
AcDbEntity
  8
4
100
AcDbLine
 10
1675.037418864918
 20
251.8067062281416
 30
0.0
 11
1673.53741886492
 21
251.8067062281416
 31
0.0
  0
LINE
  5
31B
330
2
100
AcDbEntity
  8
4
100
AcDbLine
 10
1677.03741886492
 20
252.3067062281416
 30
0.0
 11
1675.03741886492
 21
252.3067062281416
 31
0.0
  0
LINE
  5
31C
330
2
100
AcDbEntity
  8
4
100
AcDbLine
 10
1681.286007316631
 20
251.6272143038304
 30
0.0
 11
1677.03741886492
 21
251.6272143038304
 31
0.0
  0
LINE
  5
37C
330
2
100
AcDbEntity
  8
4
100
AcDbLine
 10
740.2380708879732
 20
76.30670622814159
 30
0.0
 11
718.807994626914
 21
113.4246871223704
 31
0.0
  0
LINE
  5
37D
330
2
100
AcDbEntity
  8
4
100
AcDbLine
 10
200.2380708879522
 20
76.30670622814159
 30
0.0
 11
221.6681471490114
 21
113.4246871223704
 31
0.0
  0
LINE
  5
37E
330
2
100
AcDbEntity
  8
4
100
AcDbLine
 10
1267.537418864921
 20
113.4246871223704
 30
0.0
 11
1267.537418864921
 21
76.30670622814159
 31
0.0
  0
LINE
  5
37F
330
2
100
AcDbEntity
  8
4
100
AcDbLine
 10
1279.537418864921
 20
113.4246871223704
 30
0.0
 11
1279.537418864921
 21
76.30670622814159
 31
0.0
  0
LINE
  5
380
330
2
100
AcDbEntity
  8
4
100
AcDbLine
 10
1563.53741886492
 20
113.4246871223704
 30
0.0
 11
1563.53741886492
 21
76.30670622814159
 31
0.0
  0
LINE
  5
381
330
2
100
AcDbEntity
  8
4
100
AcDbLine
 10
1551.53741886492
 20
113.4246871223704
 30
0.0
 11
1551.53741886492
 21
76.30670622814159
 31
0.0
  0
LINE
  5
382
330
2
100
AcDbEntity
  8
4
100
AcDbLine
 10
1267.537418864921
 20
113.4246871223709
 30
0.0
 11
1279.537418864921
 21
113.4246871223709
 31
0.0
  0
LINE
  5
383
330
2
100
AcDbEntity
  8
4
100
AcDbLine
 10
1551.53741886492
 20
113.4246871223709
 30
0.0
 11
1563.53741886492
 21
113.4246871223704
 31
0.0
  0
ARC
  5
384
330
2
100
AcDbEntity
  8
4
100
AcDbCircle
 10
1680.80550363486
 20
56.98201115744268
 30
0.0
 40
120.0
100
AcDbArc
 50
136.4470102182583
 51
167.7507921206044
  0
ARC
  5
385
330
2
100
AcDbEntity
  8
4
100
AcDbCircle
 10
1523.169825031025
 20
63.17442296870695
 30
0.0
 40
120.0
100
AcDbArc
 50
6.282786823510746
 51
39.05379607176488
  0
ARC
  5
386
330
2
100
AcDbEntity
  8
4
100
AcDbCircle
 10
1604.708072561373
 20
129.3296509531956
 30
0.0
 40
15.0
100
AcDbArc
 50
39.05379607176414
 51
136.447010218258
  0
LINE
  5
38D
330
2
100
AcDbEntity
  8
L-CENTER
 48
5.0
100
AcDbLine
 10
470.2380708879627
 20
819.6861177136118
 30
0.0
 11
470.2380708879627
 21
1464.260092619819
 31
0.0
  0
LINE
  5
38E
330
2
100
AcDbEntity
  8
4
100
AcDbLine
 10
180.2380708879627
 20
1427.638635420796
 30
0.0
 11
180.2380708879627
 21
1331.66327711996
 31
0.0
  0
ARC
  5
38F
330
2
100
AcDbEntity
  8
4
100
AcDbCircle
 10
470.2380708879646
 20
545.4326167038137
 30
0.0
 40
900.0
100
AcDbArc
 50
75.73816940612484
 51
90.00000000000011
  0
LINE
  5
390
330
2
100
AcDbEntity
  8
4
100
AcDbLine
 10
760.2380708879618
 20
1427.432616703814
 30
0.0
 11
760.2380708879618
 21
1331.457258402977
 31
0.0
  0
LINE
  5
391
330
2
100
AcDbEntity
  8
L-CENTER
 48
5.0
100
AcDbLine
 10
734.008276109369
 20
1192.432616703814
 30
0.0
 11
206.4678656665565
 21
1192.432616703813
 31
0.0
  0
LINE
  5
392
330
2
100
AcDbEntity
  8
L-CENTER
 48
5.0
100
AcDbLine
 10
886.8002255631282
 20
942.432616703805
 30
0.0
 11
190.9313480247811
 21
942.432616703805
 31
0.0
  0
LINE
  5
393
330
2
100
AcDbEntity
  8
4
100
AcDbLine
 10
222.2380708879627
 20
835.4326167038137
 30
0.0
 11
718.2380708879627
 21
835.4326167038137
 31
0.0
  0
LINE
  5
394
330
2
100
AcDbEntity
  8
4
100
AcDbLine
 10
222.2380708879627
 20
928.919715991379
 30
0.0
 11
222.2380708879627
 21
835.4326167038137
 31
0.0
  0
LINE
  5
395
330
2
100
AcDbEntity
  8
2
100
AcDbLine
 10
217.2380708879627
 20
1047.432616703814
 30
0.0
 11
217.2380708879627
 21
837.4326167038137
 31
0.0
  0
LINE
  5
396
330
2
100
AcDbEntity
  8
4
100
AcDbLine
 10
222.2380708879636
 20
837.4326167038137
 30
0.0
 11
217.2380708879627
 21
837.4326167038137
 31
0.0
  0
ARC
  5
397
330
2
100
AcDbEntity
  8
4
100
AcDbCircle
 10
1117.238070887964
 20
1192.638635420796
 30
0.0
 40
900.0
100
AcDbArc
 50
165.7564107103783
 51
194.2581358544953
  0
ARC
  5
398
330
2
100
AcDbEntity
  8
4
100
AcDbCircle
 10
470.2380708879627
 20
1839.638635420796
 30
0.0
 40
900.0
100
AcDbArc
 50
255.7418641455067
 51
270.0
  0
LINE
  5
399
330
2
100
AcDbEntity
  8
4
100
AcDbLine
 10
180.2380708879627
 20
957.6386354207964
 30
0.0
 11
180.2380708879627
 21
1053.613993721633
 31
0.0
  0
LINE
  5
39A
330
2
100
AcDbEntity
  8
4
100
AcDbLine
 10
200.4380708879617
 20
952.6386354207966
 30
0.0
 11
185.2380708879627
 21
952.6386354207964
 31
0.0
  0
ARC
  5
39B
330
2
100
AcDbEntity
  8
4
100
AcDbCircle
 10
185.2380708879627
 20
957.6386354207964
 30
0.0
 40
5.0
100
AcDbArc
 50
180.0
 51
270.0
  0
ARC
  5
39C
330
2
100
AcDbEntity
  8
4
100
AcDbCircle
 10
249.8076985056159
 20
972.2082630384477
 30
0.0
 40
5.0
100
AcDbArc
 50
194.2581358544952
 51
255.7418641455101
  0
LINE
  5
39D
330
2
100
AcDbEntity
  8
4
100
AcDbLine
 10
225.247039542919
 20
1056.638635420795
 30
0.0
 11
200.2380708879527
 21
1056.638635420798
 31
0.0
  0
LINE
  5
39E
330
2
100
AcDbEntity
  8
4
100
AcDbLine
 10
200.4380708879611
 20
1044.638635420798
 30
0.0
 11
200.2380708879518
 21
1044.638635420798
 31
0.0
  0
LINE
  5
39F
330
2
100
AcDbEntity
  8
4
100
AcDbLine
 10
184.1697769692909
 20
1058.498535471206
 30
0.0
 11
221.4456903562586
 21
1066.651118379874
 31
0.0
  0
ARC
  5
3A0
330
2
100
AcDbEntity
  8
4
100
AcDbCircle
 10
185.2380708879627
 20
1053.613993721633
 30
0.0
 40
5.0
100
AcDbArc
 50
102.3368529887982
 51
180.0
  0
LINE
  5
3A1
330
2
100
AcDbEntity
  8
4
100
AcDbLine
 10
200.2380708879518
 20
1044.638635420798
 30
0.0
 11
200.2380708879527
 21
1056.638635420798
 31
0.0
  0
ARC
  5
3A2
330
2
100
AcDbEntity
  8
4
100
AcDbCircle
 10
225.247039542919
 20
1058.638635420795
 30
0.0
 40
2.0
100
AcDbArc
 50
270.0
 51
8.543413728637109
  0
LINE
  5
3A3
330
2
100
AcDbEntity
  8
4
100
AcDbLine
 10
226.6786757866425
 20
1047.432616703814
 30
0.0
 11
217.2380708879627
 21
1047.432616703814
 31
0.0
  0
ARC
  5
3A4
330
2
100
AcDbEntity
  8
4
100
AcDbCircle
 10
220.3773964375868
 20
1071.535660129448
 30
0.0
 40
5.0
100
AcDbArc
 50
282.3368529887981
 51
7.69012824280849
  0
LINE
  5
3A5
330
2
100
AcDbEntity
  8
L-CENTER
 48
5.0
100
AcDbLine
 10
260.7033465984113
 20
1382.638635420796
 30
0.0
 11
199.7727951775132
 21
1382.638635420796
 31
0.0
  0
LINE
  5
3A6
330
2
100
AcDbEntity
  8
4
100
AcDbLine
 10
225.2470395429163
 20
1328.638635420796
 30
0.0
 11
200.2380708879627
 21
1328.638635420796
 31
0.0
  0
LINE
  5
3A7
330
2
100
AcDbEntity
  8
4
100
AcDbLine
 10
229.4903589787736
 20
1340.638635420796
 30
0.0
 11
200.2380708879627
 21
1340.638635420796
 31
0.0
  0
LINE
  5
3A8
330
2
100
AcDbEntity
  8
4
100
AcDbLine
 10
184.1697769692909
 20
1326.778735370386
 30
0.0
 11
221.4456903562586
 21
1318.626152461719
 31
0.0
  0
ARC
  5
3A9
330
2
100
AcDbEntity
  8
4
100
AcDbCircle
 10
185.2380708879627
 20
1331.66327711996
 30
0.0
 40
5.0
100
AcDbArc
 50
180.0
 51
257.6631470112019
  0
LINE
  5
3AA
330
2
100
AcDbEntity
  8
4
100
AcDbLine
 10
200.2380708879627
 20
1340.638635420796
 30
0.0
 11
200.2380708879627
 21
1328.638635420796
 31
0.0
  0
ARC
  5
3AB
330
2
100
AcDbEntity
  8
4
100
AcDbCircle
 10
220.3773964375868
 20
1313.741610712145
 30
0.0
 40
5.0
100
AcDbArc
 50
352.3098717571915
 51
77.66314701120184
  0
ARC
  5
3AC
330
2
100
AcDbEntity
  8
4
100
AcDbCircle
 10
225.2470395429163
 20
1326.638635420796
 30
0.0
 40
2.0
100
AcDbArc
 50
351.4565862713629
 51
90.0
  0
ARC
  5
3AD
330
2
100
AcDbEntity
  8
4
100
AcDbCircle
 10
230.2380708879618
 20
1382.638635420796
 30
0.0
 40
12.0
100
AcDbArc
 50
41.20257580063827
 51
294.6167329248337
  0
LINE
  5
3AE
330
2
100
AcDbEntity
  8
L-CENTER
 48
5.0
100
AcDbLine
 10
230.2380708879618
 20
1413.103911131245
 30
0.0
 11
230.2380708879627
 21
1352.173359710347
 31
0.0
  0
LINE
  5
3AF
330
2
100
AcDbEntity
  8
2
100
AcDbLine
 10
723.2380708879618
 20
1047.432616703814
 30
0.0
 11
723.2380708879618
 21
837.4326167038137
 31
0.0
  0
LINE
  5
3B0
330
2
100
AcDbEntity
  8
4
100
AcDbLine
 10
718.2380708879618
 20
837.4326167038137
 30
0.0
 11
723.2380708879618
 21
837.4326167038137
 31
0.0
  0
LINE
  5
3B1
330
2
100
AcDbEntity
  8
4
100
AcDbLine
 10
760.2380708879618
 20
971.432616703805
 30
0.0
 11
760.2380708879618
 21
1053.407975004651
 31
0.0
  0
LINE
  5
3B2
330
2
100
AcDbEntity
  8
4
100
AcDbLine
 10
756.3063648066336
 20
1058.292516754224
 30
0.0
 11
719.0034086437145
 21
1066.451014165126
 31
0.0
  0
LINE
  5
3B3
330
2
100
AcDbEntity
  8
4
100
AcDbLine
 10
715.1981285924185
 20
1056.432616703813
 30
0.0
 11
740.2380708879728
 21
1056.432616703815
 31
0.0
  0
LINE
  5
3B4
330
2
100
AcDbEntity
  8
4
100
AcDbLine
 10
740.0380708879629
 20
1044.432616703815
 30
0.0
 11
740.2380708879728
 21
1044.432616703815
 31
0.0
  0
LINE
  5
3B5
330
2
100
AcDbEntity
  8
4
100
AcDbLine
 10
740.2380708879728
 20
1044.432616703815
 30
0.0
 11
740.2380708879728
 21
1056.432616703815
 31
0.0
  0
ARC
  5
3B6
330
2
100
AcDbEntity
  8
4
100
AcDbCircle
 10
755.2380708879618
 20
1053.407975004651
 30
0.0
 40
5.0
100
AcDbArc
 50
0.0
 51
77.66314701120184
  0
LINE
  5
3B7
330
2
100
AcDbEntity
  8
L-CENTER
 48
5.0
100
AcDbLine
 10
679.7727951775137
 20
1382.432616703814
 30
0.0
 11
740.7033465984114
 21
1382.432616703814
 31
0.0
  0
ARC
  5
3B8
330
2
100
AcDbEntity
  8
4
100
AcDbCircle
 10
710.2380708879637
 20
1382.432616703814
 30
0.0
 40
12.0
100
AcDbArc
 50
245.3832670751656
 51
138.7974241993619
  0
LINE
  5
3B9
330
2
100
AcDbEntity
  8
4
100
AcDbLine
 10
756.3063648066336
 20
1326.572716653404
 30
0.0
 11
719.030451419666
 21
1318.420133744736
 31
0.0
  0
ARC
  5
3BA
330
2
100
AcDbEntity
  8
4
100
AcDbCircle
 10
720.0987453383377
 20
1313.535591995162
 30
0.0
 40
5.0
100
AcDbArc
 50
102.3368529888032
 51
187.6901282428085
  0
LINE
  5
3BB
330
2
100
AcDbEntity
  8
4
100
AcDbLine
 10
715.2291022330091
 20
1328.432616703814
 30
0.0
 11
740.2380708879618
 21
1328.432616703814
 31
0.0
  0
LINE
  5
3BC
330
2
100
AcDbEntity
  8
4
100
AcDbLine
 10
710.9857827971509
 20
1340.432616703814
 30
0.0
 11
740.2380708879618
 21
1340.432616703814
 31
0.0
  0
ARC
  5
3BD
330
2
100
AcDbEntity
  8
4
100
AcDbCircle
 10
715.2291022330091
 20
1326.432616703814
 30
0.0
 40
2.0
100
AcDbArc
 50
90.0
 51
188.5434137286368
  0
LINE
  5
3BE
330
2
100
AcDbEntity
  8
4
100
AcDbLine
 10
740.2380708879618
 20
1340.432616703814
 30
0.0
 11
740.2380708879618
 21
1328.432616703814
 31
0.0
  0
ARC
  5
3BF
330
2
100
AcDbEntity
  8
4
100
AcDbCircle
 10
755.2380708879618
 20
1331.457258402977
 30
0.0
 40
5.0
100
AcDbArc
 50
282.3368529887981
 51
0.0
  0
LINE
  5
3C0
330
2
100
AcDbEntity
  8
L-CENTER
 48
5.0
100
AcDbLine
 10
710.2380708879637
 20
1412.897892414263
 30
0.0
 11
710.2380708879618
 21
1351.967340993365
 31
0.0
  0
LINE
  5
3C1
330
2
100
AcDbEntity
  8
4
100
AcDbLine
 10
319.0247105246626
 20
1432.638635420796
 30
0.0
 11
185.2380708879627
 21
1432.638635420796
 31
0.0
  0
ARC
  5
3C2
330
2
100
AcDbEntity
  8
4
100
AcDbCircle
 10
185.2380708879627
 20
1427.638635420796
 30
0.0
 40
5.0
100
AcDbArc
 50
90.0
 51
180.0
  0
LINE
  5
3C3
330
2
100
AcDbEntity
  8
4
100
AcDbLine
 10
490.2380708879627
 20
1450.432616703814
 30
0.0
 11
450.2380708879627
 21
1450.432616703814
 31
0.0
  0
LINE
  5
3C4
330
2
100
AcDbEntity
  8
4
100
AcDbLine
 10
450.2380708879627
 20
1450.432616703814
 30
0.0
 11
450.2380708879627
 21
1447.164284108258
 31
0.0
  0
LINE
  5
3C5
330
2
100
AcDbEntity
  8
4
100
AcDbLine
 10
490.2380708879627
 20
1450.432616703814
 30
0.0
 11
490.2380708879627
 21
1447.164284108258
 31
0.0
  0
LINE
  5
3C6
330
2
100
AcDbEntity
  8
4
100
AcDbLine
 10
622.6552615194641
 20
1432.432616703814
 30
0.0
 11
755.2380708879618
 21
1432.432616703814
 31
0.0
  0
ARC
  5
3C7
330
2
100
AcDbEntity
  8
4
100
AcDbCircle
 10
755.2380708879618
 20
1427.432616703814
 30
0.0
 40
5.0
100
AcDbArc
 50
0.0
 51
90.0
  0
LINE
  5
3C8
330
2
100
AcDbEntity
  8
4
100
AcDbLine
 10
535.2380708879609
 20
860.6386354207964
 30
0.0
 11
527.2380708879609
 21
860.6386354207964
 31
0.0
  0
LINE
  5
3C9
330
2
100
AcDbEntity
  8
4
100
AcDbLine
 10
535.2380708879627
 20
915.6386354207964
 30
0.0
 11
506.2380708879618
 21
915.6386354207964
 31
0.0
  0
LINE
  5
3CA
330
2
100
AcDbEntity
  8
4
100
AcDbLine
 10
413.2380708879627
 20
892.0608405226524
 30
0.0
 11
413.2380708879627
 21
904.0469623339925
 31
0.0
  0
LINE
  5
3CB
330
2
100
AcDbEntity
  8
4
100
AcDbLine
 10
527.2380708879609
 20
860.6386354207964
 30
0.0
 11
527.2380708879618
 21
907.6386354207964
 31
0.0
  0
ARC
  5
3CC
330
2
100
AcDbEntity
  8
4
100
AcDbCircle
 10
422.2380708879627
 20
898.6386354207964
 30
0.0
 40
10.5
100
AcDbArc
 50
0.0
 51
148.9972808661282
  0
ARC
  5
3CD
330
2
100
AcDbEntity
  8
4
100
AcDbCircle
 10
422.2380708879627
 20
898.6386354207964
 30
0.0
 40
17.0
100
AcDbArc
 50
0.0
 51
180.0
  0
LINE
  5
3CE
330
2
100
AcDbEntity
  8
4
100
AcDbLine
 10
439.2380708879627
 20
898.6386354207964
 30
0.0
 11
432.7380708879627
 21
898.6386354207964
 31
0.0
  0
ARC
  5
3CF
330
2
100
AcDbEntity
  8
4
100
AcDbCircle
 10
422.2380708879627
 20
877.6386354207964
 30
0.0
 40
17.0
100
AcDbArc
 50
180.0
 51
121.9657187507952
  0
CIRCLE
  5
3D0
330
2
100
AcDbEntity
  8
4
100
AcDbCircle
 10
422.2380708879627
 20
877.6386354207964
 30
0.0
 40
10.5
  0
LINE
  5
3D1
330
2
100
AcDbEntity
  8
4
100
AcDbLine
 10
405.2380708879627
 20
877.6386354207964
 30
0.0
 11
405.2380708879627
 21
898.6386354207964
 31
0.0
  0
LINE
  5
3D2
330
2
100
AcDbEntity
  8
4
100
AcDbLine
 10
459.2380708879627
 20
884.1386354207964
 30
0.0
 11
446.2380708879627
 21
884.1386354207964
 31
0.0
  0
LINE
  5
3D3
330
2
100
AcDbEntity
  8
4
100
AcDbLine
 10
459.2380708879627
 20
892.1386354207964
 30
0.0
 11
446.2380708879627
 21
892.1386354207964
 31
0.0
  0
LINE
  5
3D4
330
2
100
AcDbEntity
  8
4
100
AcDbLine
 10
446.2380708879627
 20
884.1386354207964
 30
0.0
 11
446.2380708879627
 21
892.1386354207964
 31
0.0
  0
LINE
  5
3D5
330
2
100
AcDbEntity
  8
4
100
AcDbLine
 10
471.2063984940341
 20
896.1386354207959
 30
0.0
 11
463.059807599122
 21
896.1386354207959
 31
0.0
  0
LINE
  5
3D6
330
2
100
AcDbEntity
  8
4
100
AcDbLine
 10
471.206398494036
 20
880.1386354207959
 30
0.0
 11
463.0598075991247
 21
880.1386354207959
 31
0.0
  0
LINE
  5
3D7
330
2
100
AcDbEntity
  8
4
100
AcDbLine
 10
459.2380708879627
 20
884.1386354207964
 30
0.0
 11
459.2380708879627
 21
892.1386354207964
 31
0.0
  0
LINE
  5
3D8
330
2
100
AcDbEntity
  8
4
100
AcDbLine
 10
527.2380708879618
 20
907.6386354207964
 30
0.0
 11
506.2380708879618
 21
907.6386354207964
 31
0.0
  0
LINE
  5
3D9
330
2
100
AcDbEntity
  8
4
100
AcDbLine
 10
506.2380708879609
 20
907.6386354207964
 30
0.0
 11
506.2380708879618
 21
915.6386354207964
 31
0.0
  0
LINE
  5
3DA
330
2
100
AcDbEntity
  8
4
100
AcDbLine
 10
535.2380708879609
 20
860.6386354207964
 30
0.0
 11
535.2380708879627
 21
915.6386354207964
 31
0.0
  0
ARC
  5
3DB
330
2
100
AcDbEntity
  8
4
100
AcDbCircle
 10
-176.7619291120382
 20
1192.638635420796
 30
0.0
 40
900.0
100
AcDbArc
 50
345.7418641455068
 51
14.24358928962172
  0
LINE
  5
3DC
330
2
100
AcDbEntity
  8
4
100
AcDbLine
 10
713.797465989283
 20
1047.432616703814
 30
0.0
 11
723.2380708879618
 21
1047.432616703814
 31
0.0
  0
ARC
  5
3DD
330
2
100
AcDbEntity
  8
4
100
AcDbCircle
 10
720.0717025623862
 20
1071.3355559147
 30
0.0
 40
5.0
100
AcDbArc
 50
172.2970879435046
 51
257.6631470112019
  0
ARC
  5
3DE
330
2
100
AcDbEntity
  8
4
100
AcDbCircle
 10
715.1981285924185
 20
1058.432616703813
 30
0.0
 40
2.0
100
AcDbArc
 50
171.4433527214048
 51
270.0
  0
ARC
  5
3DF
330
2
100
AcDbEntity
  8
4
100
AcDbCircle
 10
249.7517623978255
 20
1412.848772749106
 30
0.0
 40
5.0
100
AcDbArc
 50
104.2618305938733
 51
165.7564107103779
  0
ARC
  5
3E0
330
2
100
AcDbEntity
  8
4
100
AcDbCircle
 10
690.724379378099
 20
1412.848772749107
 30
0.0
 40
5.0
100
AcDbArc
 50
14.24358928962203
 51
75.7381694061251
  0
ARC
  5
3E1
330
2
100
AcDbEntity
  8
4
100
AcDbCircle
 10
492.2380708879627
 20
1447.164284108259
 30
0.0
 40
2.0
100
AcDbArc
 50
180.0
 51
268.6024033717558
  0
ARC
  5
3E2
330
2
100
AcDbEntity
  8
4
100
AcDbCircle
 10
448.2380708879627
 20
1447.164284108258
 30
0.0
 40
2.0
100
AcDbArc
 50
271.3975966282573
 51
0.0
  0
ARC
  5
3E3
330
2
100
AcDbEntity
  8
4
100
AcDbCircle
 10
470.2380708879646
 20
545.4326167038137
 30
0.0
 40
900.0
100
AcDbArc
 50
90.0
 51
104.2618305938752
  0
ELLIPSE
  5
3E4
330
2
100
AcDbEntity
  8
4
100
AcDbEllipse
 10
481.2380708879627
 20
888.1386354207959
 30
0.0
 11
1.136868377216160E-13
 21
27.5
 31
0.0
210
0.0
220
0.0
230
1.0
 40
0.690909090909095
 41
1.865973213245423
 42
7.558804747524015
  0
ELLIPSE
  5
3E5
330
2
100
AcDbEntity
  8
4
100
AcDbEllipse
 10
481.2380708879618
 20
888.1386354207959
 30
0.0
 11
0.0
 21
19.5
 31
0.0
210
0.0
220
0.0
230
1.0
 40
0.5641025641025758
 41
1.993531531985281
 42
7.431246428784174
  0
CIRCLE
  5
3E6
330
2
100
AcDbEntity
  8
L-CENTER
 48
5.0
100
AcDbCircle
 10
470.2380708879632
 20
1192.432616703814
 30
0.0
 40
235.0
  0
ARC
  5
3E7
330
2
100
AcDbEntity
  8
4
100
AcDbCircle
 10
470.2380708879632
 20
1414.932616703814
 30
0.0
 40
300.0
100
AcDbArc
 50
256.9875433642607
 51
283.0124566357392
  0
CIRCLE
  5
3E8
330
2
100
AcDbEntity
  8
4
100
AcDbCircle
 10
470.2380708879627
 20
1192.432616703814
 30
0.0
 40
220.0
  0
ARC
  5
3E9
330
2
100
AcDbEntity
  8
4
100
AcDbCircle
 10
470.2380708879632
 20
969.9326167038139
 30
0.0
 40
300.0
100
AcDbArc
 50
76.98754336426079
 51
103.0124566357392
  0
ARC
  5
3EA
330
2
100
AcDbEntity
  8
4
100
AcDbCircle
 10
470.2380708879632
 20
974.9326167038139
 30
0.0
 40
300.0
100
AcDbArc
 50
90.0
 51
103.8131471068439
  0
ARC
  5
3EB
330
2
100
AcDbEntity
  8
4
100
AcDbCircle
 10
470.2380708879632
 20
1414.932616703814
 30
0.0
 40
305.0
100
AcDbArc
 50
256.3969660249212
 51
283.5725577054798
  0
CIRCLE
  5
3EC
330
2
100
AcDbEntity
  8
4
100
AcDbCircle
 10
470.2380708879627
 20
1192.432616703814
 30
0.0
 40
50.0
  0
CIRCLE
  5
3ED
330
2
100
AcDbEntity
  8
4
100
AcDbCircle
 10
470.2380708879627
 20
1192.432616703814
 30
0.0
 40
252.0
  0
ARC
  5
3EE
330
2
100
AcDbEntity
  8
4
100
AcDbCircle
 10
405.002279139107
 20
1276.967865432998
 30
0.0
 40
9.0
100
AcDbArc
 50
282.1879404939424
 51
354.049765959509
  0
LINE
  5
3EF
330
2
100
AcDbEntity
  8
4
100
AcDbLine
 10
427.3129602413642
 20
1404.209737915245
 30
0.0
 11
413.9537899428287
 21
1276.034884012578
 31
0.0
  0
LINE
  5
3F0
330
2
100
AcDbEntity
  8
L-CENTER
 48
5.0
100
AcDbLine
 10
362.0310773965179
 20
1379.85262716527
 30
0.0
 11
343.4450643794079
 21
1412.044546021043
 31
0.0
  0
ARC
  5
3F1
330
2
100
AcDbEntity
  8
4
100
AcDbCircle
 10
424.3291233067898
 20
1404.520731722051
 30
0.0
 40
3.0
100
AcDbArc
 50
354.049765959509
 51
102.2139034201194
  0
LINE
  5
3F2
330
2
100
AcDbEntity
  8
4
100
AcDbLine
 10
427.3129602413633
 20
980.6554954923824
 30
0.0
 11
413.9537899428287
 21
1108.830349395049
 31
0.0
  0
LINE
  5
3F3
330
2
100
AcDbEntity
  8
4
100
AcDbLine
 10
258.4609496765315
 20
1235.357727350413
 30
0.0
 11
386.6358035791986
 21
1248.716897648948
 31
0.0
  0
LINE
  5
3F4
330
2
100
AcDbEntity
  8
4
100
AcDbLine
 10
258.4609496765315
 20
1149.507506057215
 30
0.0
 11
386.5198382640638
 21
1136.160422375878
 31
0.0
  0
ARC
  5
3F5
330
2
100
AcDbEntity
  8
4
100
AcDbCircle
 10
258.149955869725
 20
1238.341564284986
 30
0.0
 40
3.0
100
AcDbArc
 50
167.7860965798891
 51
275.9502340404824
  0
ARC
  5
3F6
330
2
100
AcDbEntity
  8
4
100
AcDbCircle
 10
258.149955869725
 20
1146.523669122641
 30
0.0
 40
3.0
100
AcDbArc
 50
84.04976595951753
 51
192.2139034201109
  0
ARC
  5
3F7
330
2
100
AcDbEntity
  8
4
100
AcDbCircle
 10
692.7380708879632
 20
1192.432616703814
 30
0.0
 40
300.0
100
AcDbArc
 50
166.9875433642578
 51
193.0124566357421
  0
ARC
  5
3F8
330
2
100
AcDbEntity
  8
4
100
AcDbCircle
 10
692.7380708879632
 20
1192.432616703814
 30
0.0
 40
305.0
100
AcDbArc
 50
180.0
 51
193.6030339750818
  0
CIRCLE
  5
3F9
330
2
100
AcDbEntity
  8
4
100
AcDbCircle
 10
310.2380708879618
 20
1192.432616703813
 30
0.0
 40
25.0
  0
LINE
  5
3FA
330
2
100
AcDbEntity
  8
L-CENTER
 48
5.0
100
AcDbLine
 10
310.2380708879623
 20
1230.624752642688
 30
0.0
 11
310.2380708879627
 21
1154.240480764939
 31
0.0
  0
ARC
  5
3FB
330
2
100
AcDbEntity
  8
4
100
AcDbCircle
 10
687.7380708879632
 20
1192.432616703814
 30
0.0
 40
300.0
100
AcDbArc
 50
166.1868528931531
 51
180.0
  0
ARC
  5
3FC
330
2
100
AcDbEntity
  8
4
100
AcDbCircle
 10
385.7028221587798
 20
1257.66840845267
 30
0.0
 40
9.0
100
AcDbArc
 50
275.9502340404764
 51
347.8120595060561
  0
ARC
  5
3FD
330
2
100
AcDbEntity
  8
4
100
AcDbCircle
 10
403.3646937023732
 20
1259.305993889403
 30
0.0
 40
3.0
100
AcDbArc
 50
103.0124566357422
 51
166.9875433642581
  0
ARC
  5
3FE
330
2
100
AcDbEntity
  8
4
100
AcDbCircle
 10
399.3274533336421
 20
1263.343234258135
 30
0.0
 40
3.0
100
AcDbArc
 50
103.8131471068459
 51
166.1868528931543
  0
ARC
  5
3FF
330
2
100
AcDbEntity
  8
4
100
AcDbCircle
 10
687.7380708879632
 20
1192.432616703814
 30
0.0
 40
300.0
100
AcDbArc
 50
180.0
 51
180.0
  0
ARC
  5
400
330
2
100
AcDbEntity
  8
4
100
AcDbCircle
 10
385.5868568436449
 20
1127.208911572156
 30
0.0
 40
9.0
100
AcDbArc
 50
11.98870186282443
 51
84.04976595952071
  0
ARC
  5
401
330
2
100
AcDbEntity
  8
4
100
AcDbCircle
 10
399.2096094614963
 20
1121.404155277346
 30
0.0
 40
3.0
100
AcDbArc
 50
193.6030339750808
 51
256.3969660249191
  0
ARC
  5
402
330
2
100
AcDbEntity
  8
4
100
AcDbCircle
 10
403.3646937023732
 20
1125.559239518223
 30
0.0
 40
3.0
100
AcDbArc
 50
193.0124566357419
 51
256.9875433642578
  0
ARC
  5
403
330
2
100
AcDbEntity
  8
4
100
AcDbCircle
 10
405.0022791391066
 20
1107.89736797463
 30
0.0
 40
9.0
100
AcDbArc
 50
5.950234040491019
 51
77.81205950605468
  0
ARC
  5
404
330
2
100
AcDbEntity
  8
4
100
AcDbCircle
 10
470.2380708879632
 20
1409.932616703814
 30
0.0
 40
300.0
100
AcDbArc
 50
257.8120595060558
 51
257.8120595060558
  0
LINE
  5
405
330
2
100
AcDbEntity
  8
L-CENTER
 48
5.0
100
AcDbLine
 10
362.0310773965179
 20
1005.012606242358
 30
0.0
 11
343.445064379407
 21
972.8206873865852
 31
0.0
  0
ARC
  5
406
330
2
100
AcDbEntity
  8
4
100
AcDbCircle
 10
424.3291233067898
 20
980.3445016855762
 30
0.0
 40
3.0
100
AcDbArc
 50
257.7860965798807
 51
5.950234040491019
  0
ARC
  5
407
330
2
100
AcDbEntity
  8
4
100
AcDbCircle
 10
470.2380708879632
 20
974.9326167038139
 30
0.0
 40
300.0
100
AcDbArc
 50
76.18685289315617
 51
90.0
  0
ARC
  5
408
330
2
100
AcDbEntity
  8
4
100
AcDbCircle
 10
535.4738626368194
 20
1276.967865432998
 30
0.0
 40
9.0
100
AcDbArc
 50
185.950234040491
 51
257.8120595060576
  0
LINE
  5
409
330
2
100
AcDbEntity
  8
4
100
AcDbLine
 10
513.1631815345622
 20
1404.209737915245
 30
0.0
 11
526.5223518330977
 21
1276.034884012578
 31
0.0
  0
LINE
  5
40A
330
2
100
AcDbEntity
  8
L-CENTER
 48
5.0
100
AcDbLine
 10
578.4450643794075
 20
1379.852627165271
 30
0.0
 11
597.0310773965193
 21
1412.044546021043
 31
0.0
  0
ARC
  5
40B
330
2
100
AcDbEntity
  8
4
100
AcDbCircle
 10
516.1470184691361
 20
1404.520731722051
 30
0.0
 40
3.0
100
AcDbArc
 50
77.78609657987126
 51
185.9502340404909
  0
LINE
  5
40C
330
2
100
AcDbEntity
  8
L-CENTER
 48
5.0
100
AcDbLine
 10
503.9775127892776
 20
1367.432616703814
 30
0.0
 11
436.4986289866483
 21
1367.432616703814
 31
0.0
  0
LINE
  5
40D
330
2
100
AcDbEntity
  8
4
100
AcDbLine
 10
513.1631815345613
 20
980.6554954923824
 30
0.0
 11
526.5223518330968
 21
1108.830349395049
 31
0.0
  0
ARC
  5
40E
330
2
100
AcDbEntity
  8
4
100
AcDbCircle
 10
470.2380708879627
 20
1017.432616703814
 30
0.0
 40
20.0
100
AcDbArc
 50
293.5781784782019
 51
66.42182152179815
  0
LINE
  5
40F
330
2
100
AcDbEntity
  8
4
100
AcDbLine
 10
682.015192099394
 20
1149.507506057214
 30
0.0
 11
553.8403381967278
 21
1136.148335758679
 31
0.0
  0
LINE
  5
410
330
2
100
AcDbEntity
  8
4
100
AcDbLine
 10
682.015192099394
 20
1235.357727350412
 30
0.0
 11
553.8403381967278
 21
1248.716897648948
 31
0.0
  0
ARC
  5
411
330
2
100
AcDbEntity
  8
4
100
AcDbCircle
 10
247.7380708879631
 20
1192.432616703814
 30
0.0
 40
300.0
100
AcDbArc
 50
346.9875433642578
 51
13.01245663574212
  0
ARC
  5
412
330
2
100
AcDbEntity
  8
4
100
AcDbCircle
 10
252.7380708879631
 20
1192.432616703814
 30
0.0
 40
300.0
100
AcDbArc
 50
347.812059506056
 51
13.81314710684692
  0
ARC
  5
413
330
2
100
AcDbEntity
  8
4
100
AcDbCircle
 10
541.1486884422839
 20
1263.343234258135
 30
0.0
 40
3.0
100
AcDbArc
 50
13.81314710684596
 51
76.18685289315407
  0
ARC
  5
414
330
2
100
AcDbEntity
  8
4
100
AcDbCircle
 10
537.1114480735532
 20
1259.305993889404
 30
0.0
 40
3.0
100
AcDbArc
 50
13.01245663574169
 51
76.98754336425782
  0
ARC
  5
415
330
2
100
AcDbEntity
  8
4
100
AcDbCircle
 10
554.7733196171466
 20
1257.668408452669
 30
0.0
 40
9.0
100
AcDbArc
 50
192.187940493944
 51
264.0497659595236
  0
ARC
  5
416
330
2
100
AcDbEntity
  8
4
100
AcDbCircle
 10
541.1103911834821
 20
1121.366415965498
 30
0.0
 40
3.0
100
AcDbArc
 50
283.5725577054785
 51
346.1559426182284
  0
ARC
  5
417
330
2
100
AcDbEntity
  8
4
100
AcDbCircle
 10
554.7733196171466
 20
1127.196824954957
 30
0.0
 40
9.0
100
AcDbArc
 50
95.9502340404764
 51
167.8120595060561
  0
ARC
  5
418
330
2
100
AcDbEntity
  8
4
100
AcDbCircle
 10
252.7380708879631
 20
1192.432616703814
 30
0.0
 40
300.0
100
AcDbArc
 50
346.1559426182288
 51
347.812059506056
  0
ARC
  5
419
330
2
100
AcDbEntity
  8
4
100
AcDbCircle
 10
537.1114480735532
 20
1125.559239518223
 30
0.0
 40
3.0
100
AcDbArc
 50
283.0124566357422
 51
346.9875433642583
  0
ARC
  5
41A
330
2
100
AcDbEntity
  8
4
100
AcDbCircle
 10
535.4738626368189
 20
1107.89736797463
 30
0.0
 40
9.0
100
AcDbArc
 50
102.1879404939453
 51
174.049765959509
  0
ARC
  5
41B
330
2
100
AcDbEntity
  8
4
100
AcDbCircle
 10
682.3261859062004
 20
1238.341564284986
 30
0.0
 40
3.0
100
AcDbArc
 50
264.0497659595176
 51
12.21390342011086
  0
ARC
  5
41C
330
2
100
AcDbEntity
  8
4
100
AcDbCircle
 10
682.3261859062004
 20
1146.52366912264
 30
0.0
 40
3.0
100
AcDbArc
 50
347.7860965798891
 51
95.95023404048247
  0
ARC
  5
41D
330
2
100
AcDbEntity
  8
4
100
AcDbCircle
 10
516.1470184691357
 20
980.3445016855762
 30
0.0
 40
3.0
100
AcDbArc
 50
174.0497659595091
 51
282.2139034201193
  0
LINE
  5
41E
330
2
100
AcDbEntity
  8
L-CENTER
 48
5.0
100
AcDbLine
 10
503.9775127892776
 20
1017.432616703814
 30
0.0
 11
436.4986289866479
 21
1017.432616703814
 31
0.0
  0
LINE
  5
41F
330
2
100
AcDbEntity
  8
L-CENTER
 48
5.0
100
AcDbLine
 10
578.4450643794071
 20
1005.012606242357
 30
0.0
 11
597.0310773965184
 21
972.8206873865843
 31
0.0
  0
CIRCLE
  5
420
330
2
100
AcDbEntity
  8
4
100
AcDbCircle
 10
705.2380708879632
 20
1192.432616703814
 30
0.0
 40
9.5
  0
LINE
  5
421
330
2
100
AcDbEntity
  8
4
100
AcDbLine
 10
699.7532433306619
 20
1201.932616703814
 30
0.0
 11
694.2684157733597
 21
1192.432616703814
 31
0.0
  0
LINE
  5
422
330
2
100
AcDbEntity
  8
L-CENTER
100
AcDbLine
 10
691.7374302814655
 20
1192.432616703814
 30
0.0
 11
717.9864866787361
 21
1192.432616703814
 31
0.0
  0
LINE
  5
423
330
2
100
AcDbEntity
  8
4
100
AcDbLine
 10
694.2684157733597
 20
1192.432616703814
 30
0.0
 11
699.7532433306619
 21
1182.932616703814
 31
0.0
  0
LINE
  5
424
330
2
100
AcDbEntity
  8
4
100
AcDbLine
 10
716.2077260025658
 20
1192.432616703814
 30
0.0
 11
710.7228984452645
 21
1201.932616703814
 31
0.0
  0
LINE
  5
425
330
2
100
AcDbEntity
  8
4
100
AcDbLine
 10
710.7228984452645
 20
1201.932616703814
 30
0.0
 11
699.7532433306619
 21
1201.932616703814
 31
0.0
  0
LINE
  5
426
330
2
100
AcDbEntity
  8
4
100
AcDbLine
 10
699.7532433306619
 20
1182.932616703814
 30
0.0
 11
710.7228984452645
 21
1182.932616703814
 31
0.0
  0
LINE
  5
427
330
2
100
AcDbEntity
  8
4
100
AcDbLine
 10
710.7228984452645
 20
1182.932616703814
 30
0.0
 11
716.2077260025658
 21
1192.432616703814
 31
0.0
  0
LINE
  5
428
330
2
100
AcDbEntity
  8
4
100
AcDbLine
 10
478.2380708879627
 20
1045.432616703814
 30
0.0
 11
478.2380708879623
 21
989.4326167038137
 31
0.0
  0
LINE
  5
429
330
2
100
AcDbEntity
  8
4
100
AcDbLine
 10
462.2380708879627
 20
1045.432616703814
 30
0.0
 11
462.2380708879623
 21
989.4326167038137
 31
0.0
  0
ARC
  5
42A
330
2
100
AcDbEntity
  8
4
100
AcDbCircle
 10
470.2380708879627
 20
989.4326167038139
 30
0.0
 40
8.0
100
AcDbArc
 50
180.0
 51
0.0
  0
ARC
  5
42B
330
2
100
AcDbEntity
  8
4
100
AcDbCircle
 10
470.2380708879627
 20
1045.432616703814
 30
0.0
 40
8.0
100
AcDbArc
 50
0.0
 51
180.0
  0
ARC
  5
42C
330
2
100
AcDbEntity
  8
4
100
AcDbCircle
 10
470.2380708879627
 20
1017.432616703814
 30
0.0
 40
17.5
100
AcDbArc
 50
297.2028944122296
 51
62.79710558777023
  0
ARC
  5
42D
330
2
100
AcDbEntity
  8
4
100
AcDbCircle
 10
470.2380708879627
 20
1017.432616703814
 30
0.0
 40
16.0
100
AcDbArc
 50
300.0000000000109
 51
59.99999999998966
  0
ARC
  5
42E
330
2
100
AcDbEntity
  8
4
100
AcDbCircle
 10
470.2380708879627
 20
1017.432616703814
 30
0.0
 40
16.0
100
AcDbArc
 50
120.0000000000109
 51
239.9999999999891
  0
ARC
  5
42F
330
2
100
AcDbEntity
  8
4
100
AcDbCircle
 10
470.2380708879627
 20
1017.432616703814
 30
0.0
 40
17.5
100
AcDbArc
 50
117.2028944122298
 51
242.7971055877702
  0
LINE
  5
430
330
2
100
AcDbEntity
  8
4
100
AcDbLine
 10
582.2532433306615
 20
1386.448586593157
 30
0.0
 11
593.222898445264
 21
1386.448586593157
 31
0.0
  0
LINE
  5
431
330
2
100
AcDbEntity
  8
4
100
AcDbLine
 10
593.222898445264
 20
1405.448586593157
 30
0.0
 11
582.2532433306615
 21
1405.448586593157
 31
0.0
  0
CIRCLE
  5
432
330
2
100
AcDbEntity
  8
4
100
AcDbCircle
 10
587.7380708879627
 20
1395.948586593158
 30
0.0
 40
9.5
  0
LINE
  5
433
330
2
100
AcDbEntity
  8
4
100
AcDbLine
 10
576.7684157733593
 20
1395.948586593157
 30
0.0
 11
582.2532433306615
 21
1386.448586593157
 31
0.0
  0
LINE
  5
434
330
2
100
AcDbEntity
  8
4
100
AcDbLine
 10
582.2532433306615
 20
1405.448586593157
 30
0.0
 11
576.7684157733593
 21
1395.948586593157
 31
0.0
  0
LINE
  5
435
330
2
100
AcDbEntity
  8
4
100
AcDbLine
 10
593.222898445264
 20
1386.448586593157
 30
0.0
 11
598.7077260025653
 21
1395.948586593157
 31
0.0
  0
LINE
  5
436
330
2
100
AcDbEntity
  8
4
100
AcDbLine
 10
598.7077260025653
 20
1395.948586593157
 30
0.0
 11
593.222898445264
 21
1405.448586593157
 31
0.0
  0
LINE
  5
437
330
2
100
AcDbEntity
  8
4
100
AcDbLine
 10
347.2532433306614
 20
1386.448586593157
 30
0.0
 11
358.222898445264
 21
1386.448586593157
 31
0.0
  0
LINE
  5
438
330
2
100
AcDbEntity
  8
4
100
AcDbLine
 10
358.222898445264
 20
1405.448586593157
 30
0.0
 11
347.2532433306614
 21
1405.448586593157
 31
0.0
  0
CIRCLE
  5
439
330
2
100
AcDbEntity
  8
4
100
AcDbCircle
 10
352.7380708879627
 20
1395.948586593157
 30
0.0
 40
9.5
  0
LINE
  5
43A
330
2
100
AcDbEntity
  8
4
100
AcDbLine
 10
341.7684157733592
 20
1395.948586593157
 30
0.0
 11
347.2532433306614
 21
1386.448586593157
 31
0.0
  0
LINE
  5
43B
330
2
100
AcDbEntity
  8
4
100
AcDbLine
 10
347.2532433306614
 20
1405.448586593157
 30
0.0
 11
341.7684157733592
 21
1395.948586593157
 31
0.0
  0
LINE
  5
43C
330
2
100
AcDbEntity
  8
4
100
AcDbLine
 10
358.222898445264
 20
1386.448586593157
 30
0.0
 11
363.7077260025653
 21
1395.948586593157
 31
0.0
  0
LINE
  5
43D
330
2
100
AcDbEntity
  8
4
100
AcDbLine
 10
363.7077260025653
 20
1395.948586593157
 30
0.0
 11
358.222898445264
 21
1405.448586593157
 31
0.0
  0
LINE
  5
43E
330
2
100
AcDbEntity
  8
L-CENTER
100
AcDbLine
 10
221.7374302814655
 20
1192.432616703814
 30
0.0
 11
247.9864866787361
 21
1192.432616703814
 31
0.0
  0
LINE
  5
43F
330
2
100
AcDbEntity
  8
4
100
AcDbLine
 10
229.7532433306619
 20
1182.932616703814
 30
0.0
 11
240.7228984452644
 21
1182.932616703814
 31
0.0
  0
LINE
  5
440
330
2
100
AcDbEntity
  8
4
100
AcDbLine
 10
240.7228984452644
 20
1201.932616703814
 30
0.0
 11
229.7532433306619
 21
1201.932616703814
 31
0.0
  0
CIRCLE
  5
441
330
2
100
AcDbEntity
  8
4
100
AcDbCircle
 10
235.2380708879631
 20
1192.432616703814
 30
0.0
 40
9.5
  0
LINE
  5
442
330
2
100
AcDbEntity
  8
4
100
AcDbLine
 10
224.2684157733597
 20
1192.432616703814
 30
0.0
 11
229.7532433306619
 21
1182.932616703814
 31
0.0
  0
LINE
  5
443
330
2
100
AcDbEntity
  8
4
100
AcDbLine
 10
229.7532433306619
 20
1201.932616703814
 30
0.0
 11
224.2684157733597
 21
1192.432616703814
 31
0.0
  0
LINE
  5
444
330
2
100
AcDbEntity
  8
4
100
AcDbLine
 10
240.7228984452644
 20
1182.932616703814
 30
0.0
 11
246.2077260025657
 21
1192.432616703814
 31
0.0
  0
LINE
  5
445
330
2
100
AcDbEntity
  8
4
100
AcDbLine
 10
246.2077260025657
 20
1192.432616703814
 30
0.0
 11
240.7228984452644
 21
1201.932616703814
 31
0.0
  0
LINE
  5
446
330
2
100
AcDbEntity
  8
4
100
AcDbLine
 10
347.25324333066
 20
979.4166468144715
 30
0.0
 11
358.2228984452626
 21
979.4166468144715
 31
0.0
  0
LINE
  5
447
330
2
100
AcDbEntity
  8
4
100
AcDbLine
 10
358.2228984452626
 20
998.4166468144715
 30
0.0
 11
347.25324333066
 21
998.4166468144715
 31
0.0
  0
CIRCLE
  5
448
330
2
100
AcDbEntity
  8
4
100
AcDbCircle
 10
352.7380708879618
 20
988.9166468144717
 30
0.0
 40
9.5
  0
LINE
  5
449
330
2
100
AcDbEntity
  8
4
100
AcDbLine
 10
341.7684157733578
 20
988.9166468144715
 30
0.0
 11
347.25324333066
 21
979.4166468144715
 31
0.0
  0
LINE
  5
44A
330
2
100
AcDbEntity
  8
4
100
AcDbLine
 10
347.25324333066
 20
998.4166468144715
 30
0.0
 11
341.7684157733578
 21
988.9166468144715
 31
0.0
  0
LINE
  5
44B
330
2
100
AcDbEntity
  8
4
100
AcDbLine
 10
358.2228984452626
 20
979.4166468144715
 30
0.0
 11
363.7077260025639
 21
988.9166468144715
 31
0.0
  0
LINE
  5
44C
330
2
100
AcDbEntity
  8
4
100
AcDbLine
 10
363.7077260025639
 20
988.9166468144715
 30
0.0
 11
358.2228984452626
 21
998.4166468144715
 31
0.0
  0
LINE
  5
44D
330
2
100
AcDbEntity
  8
4
100
AcDbLine
 10
582.2532433306615
 20
979.4166468144706
 30
0.0
 11
593.222898445264
 21
979.4166468144706
 31
0.0
  0
LINE
  5
44E
330
2
100
AcDbEntity
  8
4
100
AcDbLine
 10
593.222898445264
 20
998.4166468144706
 30
0.0
 11
582.2532433306615
 21
998.4166468144706
 31
0.0
  0
CIRCLE
  5
44F
330
2
100
AcDbEntity
  8
4
100
AcDbCircle
 10
587.7380708879632
 20
988.9166468144708
 30
0.0
 40
9.5
  0
LINE
  5
450
330
2
100
AcDbEntity
  8
4
100
AcDbLine
 10
576.7684157733593
 20
988.9166468144706
 30
0.0
 11
582.2532433306615
 21
979.4166468144706
 31
0.0
  0
LINE
  5
451
330
2
100
AcDbEntity
  8
4
100
AcDbLine
 10
582.2532433306615
 20
998.4166468144706
 30
0.0
 11
576.7684157733593
 21
988.9166468144706
 31
0.0
  0
LINE
  5
452
330
2
100
AcDbEntity
  8
4
100
AcDbLine
 10
593.222898445264
 20
979.4166468144706
 30
0.0
 11
598.7077260025653
 21
988.9166468144706
 31
0.0
  0
LINE
  5
453
330
2
100
AcDbEntity
  8
4
100
AcDbLine
 10
598.7077260025653
 20
988.9166468144706
 30
0.0
 11
593.222898445264
 21
998.4166468144706
 31
0.0
  0
ARC
  5
454
330
2
100
AcDbEntity
  8
4
100
AcDbCircle
 10
470.2380708879627
 20
1017.432616703814
 30
0.0
 40
20.0
100
AcDbArc
 50
113.5781784782019
 51
246.4218215217981
  0
ARC
  5
455
330
2
100
AcDbEntity
  8
4
100
AcDbCircle
 10
470.2380708879632
 20
1367.432616703814
 30
0.0
 40
20.0
100
AcDbArc
 50
293.5781784782019
 51
66.42182152179815
  0
ARC
  5
456
330
2
100
AcDbEntity
  8
4
100
AcDbCircle
 10
470.2380708879632
 20
1367.432616703814
 30
0.0
 40
20.0
100
AcDbArc
 50
113.5781784782019
 51
246.4218215217981
  0
ARC
  5
457
330
2
100
AcDbEntity
  8
4
100
AcDbCircle
 10
470.2380708879632
 20
1367.432616703814
 30
0.0
 40
17.5
100
AcDbArc
 50
117.2028944122298
 51
242.7971055877702
  0
ARC
  5
458
330
2
100
AcDbEntity
  8
4
100
AcDbCircle
 10
470.2380708879632
 20
1367.432616703814
 30
0.0
 40
16.0
100
AcDbArc
 50
120.0000000000091
 51
239.999999999991
  0
ARC
  5
459
330
2
100
AcDbEntity
  8
4
100
AcDbCircle
 10
470.2380708879632
 20
1367.432616703814
 30
0.0
 40
16.0
100
AcDbArc
 50
300.000000000009
 51
59.99999999998838
  0
ARC
  5
45A
330
2
100
AcDbEntity
  8
4
100
AcDbCircle
 10
470.2380708879632
 20
1367.432616703814
 30
0.0
 40
17.5
100
AcDbArc
 50
297.2028944122296
 51
62.79710558777023
  0
LINE
  5
45B
330
2
100
AcDbEntity
  8
4
100
AcDbLine
 10
462.2380708879632
 20
1395.432616703814
 30
0.0
 11
462.2380708879632
 21
1339.432616703814
 31
0.0
  0
LINE
  5
45C
330
2
100
AcDbEntity
  8
4
100
AcDbLine
 10
478.2380708879632
 20
1395.432616703814
 30
0.0
 11
478.2380708879632
 21
1339.432616703814
 31
0.0
  0
ARC
  5
45D
330
2
100
AcDbEntity
  8
4
100
AcDbCircle
 10
470.2380708879632
 20
1395.432616703814
 30
0.0
 40
8.0
100
AcDbArc
 50
0.0
 51
180.0
  0
ARC
  5
45E
330
2
100
AcDbEntity
  8
4
100
AcDbCircle
 10
470.2380708879632
 20
1339.432616703814
 30
0.0
 40
8.0
100
AcDbArc
 50
180.0
 51
0.0
  0
LINE
  5
45F
330
2
100
AcDbEntity
  8
4
100
AcDbLine
 10
320.1973630314833
 20
1172.182616703813
 30
0.0
 11
300.2787787444413
 21
1172.182616703813
 31
0.0
  0
LINE
  5
460
330
2
100
AcDbEntity
  8
4
100
AcDbLine
 10
320.1973630314828
 20
1212.682616703813
 30
0.0
 11
300.2787787444408
 21
1212.682616703813
 31
0.0
  0
CIRCLE
  5
461
330
2
100
AcDbEntity
  8
4
100
AcDbCircle
 10
310.2380708879618
 20
1192.432616703813
 30
0.0
 40
23.0
  0
LINE
  5
462
330
2
100
AcDbEntity
  8
4
100
AcDbLine
 10
297.6807025330877
 20
1173.682616703813
 30
0.0
 11
287.7214103895667
 21
1190.932616703813
 31
0.0
  0
LINE
  5
463
330
2
100
AcDbEntity
  8
4
100
AcDbLine
 10
287.7214103895667
 20
1193.932616703813
 30
0.0
 11
297.6807025330872
 21
1211.182616703813
 31
0.0
  0
ARC
  5
464
330
2
100
AcDbEntity
  8
4
100
AcDbCircle
 10
300.2787787444408
 20
1209.682616703813
 30
0.0
 40
3.0
100
AcDbArc
 50
90.0
 51
150.0
  0
ARC
  5
465
330
2
100
AcDbEntity
  8
4
100
AcDbCircle
 10
290.3194866009198
 20
1192.432616703813
 30
0.0
 40
3.0
100
AcDbArc
 50
150.0
 51
210.0
  0
ARC
  5
466
330
2
100
AcDbEntity
  8
4
100
AcDbCircle
 10
300.2787787444413
 20
1175.182616703813
 30
0.0
 40
3.0
100
AcDbArc
 50
209.9999999999951
 51
270.0
  0
LINE
  5
467
330
2
100
AcDbEntity
  8
4
100
AcDbLine
 10
332.754731386357
 20
1190.932616703813
 30
0.0
 11
322.7954392428369
 21
1173.682616703813
 31
0.0
  0
LINE
  5
468
330
2
100
AcDbEntity
  8
4
100
AcDbLine
 10
332.754731386357
 20
1193.932616703813
 30
0.0
 11
322.795439242836
 21
1211.182616703813
 31
0.0
  0
ARC
  5
469
330
2
100
AcDbEntity
  8
4
100
AcDbCircle
 10
320.1973630314828
 20
1209.682616703813
 30
0.0
 40
3.0
100
AcDbArc
 50
29.99999999999516
 51
90.0
  0
ARC
  5
46A
330
2
100
AcDbEntity
  8
4
100
AcDbCircle
 10
330.1566551750047
 20
1192.432616703813
 30
0.0
 40
3.0
100
AcDbArc
 50
330.0
 51
29.99999999999999
  0
ARC
  5
46B
330
2
100
AcDbEntity
  8
4
100
AcDbCircle
 10
320.1973630314833
 20
1175.182616703813
 30
0.0
 40
3.0
100
AcDbArc
 50
270.0
 51
330.0
  0
ARC
  5
46C
330
2
100
AcDbEntity
  8
4
100
AcDbCircle
 10
470.2380708879627
 20
1839.638635420796
 30
0.0
 40
900.0
100
AcDbArc
 50
270.0
 51
284.2581358544929
  0
ARC
  5
46D
330
2
100
AcDbEntity
  8
4
100
AcDbCircle
 10
690.66844327031
 20
972.208263038448
 30
0.0
 40
5.0
100
AcDbArc
 50
284.2581358544899
 51
345.7418641455047
  0
LINE
  5
46E
330
2
100
AcDbEntity
  8
4
100
AcDbLine
 10
718.2380708879627
 20
928.919715991379
 30
0.0
 11
718.2380708879627
 21
835.4326167038137
 31
0.0
  0
LINE
  5
46F
330
2
100
AcDbEntity
  8
4
100
AcDbLine
 10
515.2378758879622
 20
1202.432616703814
 30
0.0
 11
515.2378758879622
 21
1182.432616703814
 31
0.0
  0
LINE
  5
470
330
2
100
AcDbEntity
  8
4
100
AcDbLine
 10
502.2378758879622
 20
1202.432616703814
 30
0.0
 11
502.2378758879622
 21
1182.432616703814
 31
0.0
  0
ARC
  5
471
330
2
100
AcDbEntity
  8
4
100
AcDbCircle
 10
470.2380708879627
 20
1192.432616703814
 30
0.0
 40
38.99999
100
AcDbArc
 50
14.85716944219921
 51
345.1428279999998
  0
LINE
  5
472
330
2
100
AcDbEntity
  8
4
100
AcDbLine
 10
502.2378758879622
 20
1202.432616703814
 30
0.0
 11
515.2378758879622
 21
1202.432616703814
 31
0.0
  0
LINE
  5
473
330
2
100
AcDbEntity
  8
4
100
AcDbLine
 10
502.2378758879622
 20
1182.432616703814
 30
0.0
 11
515.2378758879622
 21
1182.432616703814
 31
0.0
  0
LINE
  5
474
330
2
100
AcDbEntity
  8
4
100
AcDbLine
 10
741.038070887962
 20
897.432616703805
 30
0.0
 11
741.038070887962
 21
987.432616703805
 31
0.0
  0
LINE
  5
475
330
2
100
AcDbEntity
  8
4
100
AcDbLine
 10
740.0380708879629
 20
1046.432616703805
 30
0.0
 11
740.038070887962
 21
838.4326167038046
 31
0.0
  0
LINE
  5
476
330
2
100
AcDbEntity
  8
2
100
AcDbLine
 10
723.538070887962
 20
1047.432616703805
 30
0.0
 11
723.5380708879611
 21
837.432616703805
 31
0.0
  0
LINE
  5
477
330
2
100
AcDbEntity
  8
L-CENTER
 48
5.0
100
AcDbLine
 10
754.638910768067
 20
880.5607733499821
 30
0.0
 11
701.820653206506
 21
880.5607733499821
 31
0.0
  0
ARC
  5
478
330
2
100
AcDbEntity
  8
4
100
AcDbCircle
 10
739.038070887962
 20
838.4326167038046
 30
0.0
 40
1.0
100
AcDbArc
 50
270.0
 51
0.0
  0
LINE
  5
479
330
2
100
AcDbEntity
  8
4
 48
3.5
100
AcDbLine
 10
723.5380708879611
 20
837.432616703805
 30
0.0
 11
739.038070887962
 21
837.4326167038046
 31
0.0
  0
LINE
  5
47A
330
2
100
AcDbEntity
  8
4
100
AcDbLine
 10
741.038070887962
 20
897.432616703805
 30
0.0
 11
740.038070887962
 21
897.432616703805
 31
0.0
  0
ARC
  5
47B
330
2
100
AcDbEntity
  8
4
100
AcDbCircle
 10
747.1626920126828
 20
888.7880146859345
 30
0.0
 40
3.875378875279244
100
AcDbArc
 50
314.955926762744
 51
45.04407323725362
  0
LINE
  5
47C
330
2
100
AcDbEntity
  8
4
100
AcDbLine
 10
749.9008899773353
 20
891.5304284645852
 30
0.0
 11
740.0380708879629
 21
891.5304284645852
 31
0.0
  0
LINE
  5
47D
330
2
100
AcDbEntity
  8
4
100
AcDbLine
 10
749.9008899773353
 20
886.0456009072839
 30
0.0
 11
743.0380708879629
 21
886.0456009072839
 31
0.0
  0
LINE
  5
47E
330
2
100
AcDbEntity
  8
4
100
AcDbLine
 10
740.0380708879629
 20
869.5911182353796
 30
0.0
 11
749.9008899773353
 21
869.5911182353796
 31
0.0
  0
LINE
  5
47F
330
2
100
AcDbEntity
  8
4
100
AcDbLine
 10
749.9008899773353
 20
875.0759457926808
 30
0.0
 11
743.0380708879629
 21
875.0759457926808
 31
0.0
  0
ARC
  5
480
330
2
100
AcDbEntity
  8
4
100
AcDbCircle
 10
747.1626920126828
 20
872.3335320140302
 30
0.0
 40
3.875378875279264
100
AcDbArc
 50
314.9559267627464
 51
45.04407323725362
  0
LINE
  5
481
330
2
100
AcDbEntity
  8
4
100
AcDbLine
 10
743.0380708879629
 20
891.5304284645852
 30
0.0
 11
743.0380708879629
 21
869.5911182353796
 31
0.0
  0
LINE
  5
482
330
2
100
AcDbEntity
  8
4
100
AcDbLine
 10
740.0380708879629
 20
891.5304284645852
 30
0.0
 11
740.0380708879629
 21
869.5911182353796
 31
0.0
  0
LINE
  5
483
330
2
100
AcDbEntity
  8
4
100
AcDbLine
 10
751.0380708879629
 20
872.3335320140302
 30
0.0
 11
751.0380708879629
 21
888.7880146859345
 31
0.0
  0
ARC
  5
484
330
2
100
AcDbEntity
  8
4
100
AcDbCircle
 10
737.2423267527856
 20
880.5607733499821
 30
0.0
 40
13.7957441351769
100
AcDbArc
 50
336.5734024913716
 51
23.42659750862835
  0
ARC
  5
485
330
2
100
AcDbEntity
  8
4
100
AcDbCircle
 10
739.0380708879629
 20
1046.432616703805
 30
0.0
 40
1.0
100
AcDbArc
 50
0.0
 51
90.0
  0
LINE
  5
486
330
2
100
AcDbEntity
  8
L-CENTER
 48
5.0
100
AcDbLine
 10
754.638910768067
 20
1004.304460057628
 30
0.0
 11
701.820653206506
 21
1004.304460057628
 31
0.0
  0
LINE
  5
487
330
2
100
AcDbEntity
  8
4
 48
3.5
100
AcDbLine
 10
723.5380708879611
 20
1047.432616703805
 30
0.0
 11
739.0380708879629
 21
1047.432616703805
 31
0.0
  0
ARC
  5
488
330
2
100
AcDbEntity
  8
4
100
AcDbCircle
 10
737.2423267527856
 20
1004.304460057628
 30
0.0
 40
13.7957441351769
100
AcDbArc
 50
336.5734024913716
 51
23.42659750862835
  0
LINE
  5
489
330
2
100
AcDbEntity
  8
4
100
AcDbLine
 10
743.0380708879629
 20
993.3348049430249
 30
0.0
 11
743.0380708879629
 21
1015.27411517223
 31
0.0
  0
LINE
  5
48A
330
2
100
AcDbEntity
  8
4
100
AcDbLine
 10
740.0380708879629
 20
993.3348049430249
 30
0.0
 11
740.0380708879629
 21
1015.27411517223
 31
0.0
  0
LINE
  5
48B
330
2
100
AcDbEntity
  8
4
100
AcDbLine
 10
751.0380708879629
 20
1012.53170139358
 30
0.0
 11
751.0380708879629
 21
996.0772187216755
 31
0.0
  0
LINE
  5
48C
330
2
100
AcDbEntity
  8
4
100
AcDbLine
 10
755.2380708879618
 20
971.432616703805
 30
0.0
 11
873.2380708879618
 21
971.432616703805
 31
0.0
  0
LINE
  5
48D
330
2
100
AcDbEntity
  8
4
100
AcDbLine
 10
755.2380708879618
 20
913.432616703805
 30
0.0
 11
873.2380708879618
 21
913.432616703805
 31
0.0
  0
LINE
  5
48E
330
2
100
AcDbEntity
  8
4
100
AcDbLine
 10
749.9008899773353
 20
998.8196325003262
 30
0.0
 11
743.0380708879629
 21
998.8196325003262
 31
0.0
  0
LINE
  5
48F
330
2
100
AcDbEntity
  8
4
100
AcDbLine
 10
741.038070887962
 20
987.432616703805
 30
0.0
 11
740.0380708879629
 21
987.432616703805
 31
0.0
  0
LINE
  5
490
330
2
100
AcDbEntity
  8
4
100
AcDbLine
 10
755.2380708879618
 20
974.932616703805
 30
0.0
 11
741.038070887962
 21
974.932616703805
 31
0.0
  0
LINE
  5
491
330
2
100
AcDbEntity
  8
4
100
AcDbLine
 10
749.9008899773353
 20
993.3348049430249
 30
0.0
 11
740.0380708879629
 21
993.3348049430249
 31
0.0
  0
ARC
  5
492
330
2
100
AcDbEntity
  8
4
100
AcDbCircle
 10
747.1626920126828
 20
996.0772187216755
 30
0.0
 40
3.875378875279244
100
AcDbArc
 50
314.9559267627452
 51
45.04407323725362
  0
LINE
  5
493
330
2
100
AcDbEntity
  8
4
100
AcDbLine
 10
755.2380708879618
 20
909.932616703805
 30
0.0
 11
741.038070887962
 21
909.932616703805
 31
0.0
  0
LINE
  5
494
330
2
100
AcDbEntity
  8
4
100
AcDbLine
 10
755.2380708879618
 20
974.932616703805
 30
0.0
 11
755.2380708879618
 21
909.932616703805
 31
0.0
  0
LINE
  5
495
330
2
100
AcDbEntity
  8
4
100
AcDbLine
 10
873.2380708879618
 20
971.432616703805
 30
0.0
 11
875.2380708879618
 21
969.432616703805
 31
0.0
  0
LINE
  5
496
330
2
100
AcDbEntity
  8
4
100
AcDbLine
 10
873.2380708879618
 20
913.432616703805
 30
0.0
 11
875.2380708879618
 21
915.432616703805
 31
0.0
  0
LINE
  5
497
330
2
100
AcDbEntity
  8
4
100
AcDbLine
 10
875.2380708879618
 20
915.432616703805
 30
0.0
 11
873.2380708879618
 21
913.432616703805
 31
0.0
  0
LINE
  5
498
330
2
100
AcDbEntity
  8
4
100
AcDbLine
 10
873.2380708879618
 20
913.432616703805
 30
0.0
 11
873.2380708879623
 21
934.9326167038048
 31
0.0
  0
LINE
  5
499
330
2
100
AcDbEntity
  8
4
100
AcDbLine
 10
875.2380708879618
 20
915.432616703805
 30
0.0
 11
875.2380708879618
 21
969.4326167038055
 31
0.0
  0
LINE
  5
49A
330
2
100
AcDbEntity
  8
4
100
AcDbLine
 10
740.0380708879629
 20
1015.27411517223
 30
0.0
 11
749.9008899773353
 21
1015.27411517223
 31
0.0
  0
LINE
  5
49B
330
2
100
AcDbEntity
  8
4
100
AcDbLine
 10
749.9008899773353
 20
1009.789287614929
 30
0.0
 11
743.0380708879629
 21
1009.789287614929
 31
0.0
  0
ARC
  5
49C
330
2
100
AcDbEntity
  8
4
100
AcDbCircle
 10
747.1626920126828
 20
1012.53170139358
 30
0.0
 40
3.875378875279264
100
AcDbArc
 50
314.9559267627464
 51
45.04407323725362
  0
LINE
  5
49D
330
2
100
AcDbEntity
  8
4
100
AcDbLine
 10
723.2380708879618
 20
837.4326167038137
 30
0.0
 11
723.5380708879611
 21
837.432616703805
 31
0.0
  0
ARC
  5
49E
330
2
100
AcDbEntity
  8
4
100
AcDbCircle
 10
713.797465989283
 20
1049.432616703814
 30
0.0
 40
2.0
100
AcDbArc
 50
170.8647810452241
 51
270.0
  0
LINE
  5
49F
330
2
100
AcDbEntity
  8
4
100
AcDbLine
 10
723.2380708879618
 20
1047.432616703814
 30
0.0
 11
723.5380708879611
 21
1047.432616703805
 31
0.0
  0
ARC
  5
4A0
330
2
100
AcDbEntity
  8
4
100
AcDbCircle
 10
772.7380708879627
 20
942.432616703805
 30
0.0
 40
7.5
100
AcDbArc
 50
90.0
 51
270.0
  0
LINE
  5
4A1
330
2
100
AcDbEntity
  8
4
100
AcDbLine
 10
772.7380708879627
 20
949.932616703805
 30
0.0
 11
875.2380708879618
 21
949.9326167038048
 31
0.0
  0
LINE
  5
4A2
330
2
100
AcDbEntity
  8
4
100
AcDbLine
 10
772.7380708879627
 20
934.932616703805
 30
0.0
 11
875.2380708879623
 21
934.932616703805
 31
0.0
  0
LINE
  5
4A3
330
2
100
AcDbEntity
  8
4
100
AcDbLine
 10
873.2380708879623
 20
949.9326167038048
 30
0.0
 11
873.2380708879618
 21
971.4326167038046
 31
0.0
  0
ARC
  5
4A4
330
2
100
AcDbEntity
  8
4
100
AcDbCircle
 10
203.2338150231384
 20
1004.304460057628
 30
0.0
 40
13.7957441351769
100
AcDbArc
 50
156.5734024913717
 51
203.4265975086283
  0
LINE
  5
4A5
330
2
100
AcDbEntity
  8
4
100
AcDbLine
 10
197.4380708879611
 20
993.3348049430249
 30
0.0
 11
197.4380708879611
 21
1015.27411517223
 31
0.0
  0
LINE
  5
4A6
330
2
100
AcDbEntity
  8
4
100
AcDbLine
 10
200.4380708879611
 20
993.3348049430249
 30
0.0
 11
200.4380708879611
 21
1015.27411517223
 31
0.0
  0
LINE
  5
4A7
330
2
100
AcDbEntity
  8
4
100
AcDbLine
 10
189.4380708879611
 20
1012.53170139358
 30
0.0
 11
189.4380708879611
 21
996.0772187216755
 31
0.0
  0
LINE
  5
4A8
330
2
100
AcDbEntity
  8
4
100
AcDbLine
 10
190.5752517985888
 20
998.8196325003262
 30
0.0
 11
197.4380708879611
 21
998.8196325003262
 31
0.0
  0
LINE
  5
4A9
330
2
100
AcDbEntity
  8
4
100
AcDbLine
 10
190.5752517985888
 20
993.3348049430249
 30
0.0
 11
200.4380708879611
 21
993.3348049430249
 31
0.0
  0
ARC
  5
4AA
330
2
100
AcDbEntity
  8
4
100
AcDbCircle
 10
193.3134497632413
 20
996.0772187216755
 30
0.0
 40
3.875378875279244
100
AcDbArc
 50
134.9559267627461
 51
225.0440732372536
  0
ARC
  5
4AB
330
2
100
AcDbEntity
  8
4
100
AcDbCircle
 10
201.4380708879611
 20
1046.432616703805
 30
0.0
 40
1.0
100
AcDbArc
 50
90.0
 51
180.0
  0
LINE
  5
4AC
330
2
100
AcDbEntity
  8
4
100
AcDbLine
 10
200.4380708879611
 20
1015.27411517223
 30
0.0
 11
190.5752517985888
 21
1015.27411517223
 31
0.0
  0
LINE
  5
4AD
330
2
100
AcDbEntity
  8
4
100
AcDbLine
 10
190.5752517985888
 20
1009.789287614929
 30
0.0
 11
197.4380708879611
 21
1009.789287614929
 31
0.0
  0
ARC
  5
4AE
330
2
100
AcDbEntity
  8
4
100
AcDbCircle
 10
193.3134497632413
 20
1012.53170139358
 30
0.0
 40
3.875378875279264
100
AcDbArc
 50
134.9559267627467
 51
225.0440732372533
  0
LINE
  5
4AF
330
2
100
AcDbEntity
  8
4
100
AcDbLine
 10
200.4380708879611
 20
1046.432616703805
 30
0.0
 11
200.4380708879621
 21
838.4326167038046
 31
0.0
  0
LINE
  5
4B0
330
2
100
AcDbEntity
  8
4
 48
3.5
100
AcDbLine
 10
216.938070887963
 20
1047.432616703805
 30
0.0
 11
201.4380708879611
 21
1047.432616703805
 31
0.0
  0
LINE
  5
4B1
330
2
100
AcDbEntity
  8
4
100
AcDbLine
 10
190.5752517985888
 20
891.5304284645852
 30
0.0
 11
200.4380708879611
 21
891.5304284645852
 31
0.0
  0
LINE
  5
4B2
330
2
100
AcDbEntity
  8
4
100
AcDbLine
 10
190.5752517985888
 20
886.0456009072839
 30
0.0
 11
197.4380708879611
 21
886.0456009072839
 31
0.0
  0
ARC
  5
4B3
330
2
100
AcDbEntity
  8
4
100
AcDbCircle
 10
193.3134497632413
 20
888.7880146859345
 30
0.0
 40
3.875378875279244
100
AcDbArc
 50
134.9559267627461
 51
225.0440732372536
  0
ARC
  5
4B4
330
2
100
AcDbEntity
  8
4
100
AcDbCircle
 10
193.3134497632413
 20
872.3335320140302
 30
0.0
 40
3.875378875279264
100
AcDbArc
 50
134.9559267627467
 51
225.0440732372533
  0
LINE
  5
4B5
330
2
100
AcDbEntity
  8
4
100
AcDbLine
 10
190.5752517985888
 20
875.0759457926808
 30
0.0
 11
197.4380708879611
 21
875.0759457926808
 31
0.0
  0
LINE
  5
4B6
330
2
100
AcDbEntity
  8
4
100
AcDbLine
 10
200.4380708879611
 20
869.5911182353796
 30
0.0
 11
190.5752517985888
 21
869.5911182353796
 31
0.0
  0
ARC
  5
4B7
330
2
100
AcDbEntity
  8
4
100
AcDbCircle
 10
203.2338150231384
 20
880.5607733499821
 30
0.0
 40
13.7957441351769
100
AcDbArc
 50
156.5734024913717
 51
203.4265975086283
  0
LINE
  5
4B8
330
2
100
AcDbEntity
  8
4
100
AcDbLine
 10
189.4380708879611
 20
872.3335320140302
 30
0.0
 11
189.4380708879611
 21
888.7880146859345
 31
0.0
  0
LINE
  5
4B9
330
2
100
AcDbEntity
  8
4
100
AcDbLine
 10
200.4380708879611
 20
891.5304284645852
 30
0.0
 11
200.4380708879611
 21
869.5911182353796
 31
0.0
  0
LINE
  5
4BA
330
2
100
AcDbEntity
  8
4
100
AcDbLine
 10
197.4380708879611
 20
891.5304284645852
 30
0.0
 11
197.4380708879611
 21
869.5911182353796
 31
0.0
  0
ARC
  5
4BB
330
2
100
AcDbEntity
  8
4
100
AcDbCircle
 10
201.4380708879621
 20
838.4326167038046
 30
0.0
 40
1.0
100
AcDbArc
 50
180.0
 51
270.0
  0
LINE
  5
4BC
330
2
100
AcDbEntity
  8
4
 48
3.5
100
AcDbLine
 10
216.938070887963
 20
837.432616703805
 30
0.0
 11
201.4380708879621
 21
837.4326167038046
 31
0.0
  0
LINE
  5
4BD
330
2
100
AcDbEntity
  8
2
100
AcDbLine
 10
216.9380708879621
 20
1047.432616703805
 30
0.0
 11
216.938070887963
 21
837.432616703805
 31
0.0
  0
ARC
  5
4BE
330
2
100
AcDbEntity
  8
4
100
AcDbCircle
 10
226.6786757866425
 20
1049.432616703814
 30
0.0
 40
2.0
100
AcDbArc
 50
270.0
 51
9.135218954776066
  0
LINE
  5
4BF
330
2
100
AcDbEntity
  8
L-CENTER
 48
5.0
100
AcDbLine
 10
185.8372310078584
 20
880.5607733499821
 30
0.0
 11
238.6554885694194
 21
880.5607733499821
 31
0.0
  0
LINE
  5
4C0
330
2
100
AcDbEntity
  8
L-CENTER
 48
5.0
100
AcDbLine
 10
185.8372310078584
 20
1004.304460057628
 30
0.0
 11
238.6554885694194
 21
1004.304460057628
 31
0.0
  0
LINE
  5
4C1
330
2
100
AcDbEntity
  8
4
100
AcDbLine
 10
452.2380708879627
 20
1453.932616703814
 30
0.0
 11
488.2380708879627
 21
1453.932616703814
 31
0.0
  0
LINE
  5
4C2
330
2
100
AcDbEntity
  8
4
100
AcDbLine
 10
452.2380708879627
 20
1451.932616703814
 30
0.0
 11
488.2380708879627
 21
1451.932616703814
 31
0.0
  0
LINE
  5
4C3
330
2
100
AcDbEntity
  8
4
100
AcDbLine
 10
452.7380708879627
 20
1450.432616703814
 30
0.0
 11
487.7380708879627
 21
1450.432616703814
 31
0.0
  0
LINE
  5
4C4
330
2
100
AcDbEntity
  8
4
100
AcDbLine
 10
488.2380708879627
 20
1453.932616703814
 30
0.0
 11
488.2380708879627
 21
1451.932616703814
 31
0.0
  0
LINE
  5
4C5
330
2
100
AcDbEntity
  8
4
100
AcDbLine
 10
487.7380708879627
 20
1451.932616703814
 30
0.0
 11
487.7380708879627
 21
1450.432616703814
 31
0.0
  0
LINE
  5
4C6
330
2
100
AcDbEntity
  8
4
100
AcDbLine
 10
452.2380708879627
 20
1453.932616703814
 30
0.0
 11
452.2380708879627
 21
1451.932616703814
 31
0.0
  0
LINE
  5
4C7
330
2
100
AcDbEntity
  8
4
100
AcDbLine
 10
452.7380708879627
 20
1451.932616703812
 30
0.0
 11
452.7380708879627
 21
1450.432616703814
 31
0.0
  0
LINE
  5
4C8
330
2
100
AcDbEntity
  8
4
100
AcDbLine
 10
485.2380708879627
 20
1458.932616703812
 30
0.0
 11
455.2380708879627
 21
1458.932616703812
 31
0.0
  0
LINE
  5
4C9
330
2
100
AcDbEntity
  8
4
100
AcDbLine
 10
455.2380708879627
 20
1453.932616703814
 30
0.0
 11
455.2380708879627
 21
1458.932616703812
 31
0.0
  0
LINE
  5
4CA
330
2
100
AcDbEntity
  8
4
100
AcDbLine
 10
485.2380708879627
 20
1453.932616703814
 30
0.0
 11
485.2380708879627
 21
1458.932616703812
 31
0.0
  0
LINE
  5
4D1
330
2
100
AcDbEntity
  8
4
100
AcDbLine
 10
716.2077260025662
 20
368.6067062281418
 30
0.0
 11
694.2684157733606
 21
368.6067062281418
 31
0.0
  0
ARC
  5
4D2
330
2
100
AcDbEntity
  8
4
100
AcDbCircle
 10
713.4653122239156
 20
372.7313273528621
 30
0.0
 40
3.875378875279244
100
AcDbArc
 50
44.955926762744
 51
135.044073237256
  0
LINE
  5
4D3
330
2
100
AcDbEntity
  8
4
100
AcDbLine
 10
716.2077260025662
 20
365.6067062281418
 30
0.0
 11
694.2684157733606
 21
365.6067062281418
 31
0.0
  0
LINE
  5
4D4
330
2
100
AcDbEntity
  8
4
100
AcDbLine
 10
716.2077260025662
 20
375.4695253175141
 30
0.0
 11
716.2077260025662
 21
365.6067062281418
 31
0.0
  0
LINE
  5
4D5
330
2
100
AcDbEntity
  8
4
100
AcDbLine
 10
697.0108295520113
 20
376.6067062281418
 30
0.0
 11
713.4653122239156
 21
376.6067062281418
 31
0.0
  0
ARC
  5
4D6
330
2
100
AcDbEntity
  8
4
100
AcDbCircle
 10
705.2380708879632
 20
362.8109620929649
 30
0.0
 40
13.7957441351769
100
AcDbArc
 50
66.57340249137269
 51
113.4265975086273
  0
LINE
  5
4D7
330
2
100
AcDbEntity
  8
4
100
AcDbLine
 10
710.722898445265
 20
375.4695253175141
 30
0.0
 11
710.722898445265
 21
368.6067062281418
 31
0.0
  0
LINE
  5
4D8
330
2
100
AcDbEntity
  8
4
100
AcDbLine
 10
694.2684157733606
 20
365.6067062281418
 30
0.0
 11
694.2684157733606
 21
375.4695253175141
 31
0.0
  0
LINE
  5
4D9
330
2
100
AcDbEntity
  8
4
100
AcDbLine
 10
699.7532433306619
 20
375.4695253175141
 30
0.0
 11
699.7532433306619
 21
368.6067062281418
 31
0.0
  0
ARC
  5
4DA
330
2
100
AcDbEntity
  8
4
100
AcDbCircle
 10
697.0108295520113
 20
372.7313273528621
 30
0.0
 40
3.875378875279264
100
AcDbArc
 50
44.95592676274638
 51
135.044073237256
  0
LINE
  5
4DB
330
2
100
AcDbEntity
  8
L-CENTER
 48
5.0
100
AcDbLine
 10
705.2380708879632
 20
380.2075461082459
 30
0.0
 11
705.2380708879632
 21
327.3892885466848
 31
0.0
  0
LINE
  5
4DC
330
2
100
AcDbEntity
  8
L-CENTER
 48
5.0
100
AcDbLine
 10
587.7380708879627
 20
380.2075461082459
 30
0.0
 11
587.7380708879627
 21
327.3892885466848
 31
0.0
  0
ARC
  5
4DD
330
2
100
AcDbEntity
  8
4
100
AcDbCircle
 10
579.5108295520113
 20
372.7313273528616
 30
0.0
 40
3.875378875279264
100
AcDbArc
 50
44.95592676274638
 51
135.0440732372607
  0
LINE
  5
4DE
330
2
100
AcDbEntity
  8
4
100
AcDbLine
 10
598.7077260025662
 20
368.6067062281418
 30
0.0
 11
576.7684157733602
 21
368.6067062281418
 31
0.0
  0
LINE
  5
4DF
330
2
100
AcDbEntity
  8
4
100
AcDbLine
 10
598.7077260025662
 20
365.6067062281418
 30
0.0
 11
576.7684157733602
 21
365.6067062281418
 31
0.0
  0
LINE
  5
4E0
330
2
100
AcDbEntity
  8
4
100
AcDbLine
 10
576.7684157733602
 20
365.6067062281418
 30
0.0
 11
576.7684157733602
 21
375.4695253175141
 31
0.0
  0
LINE
  5
4E1
330
2
100
AcDbEntity
  8
4
100
AcDbLine
 10
579.5108295520113
 20
376.6067062281418
 30
0.0
 11
595.9653122239151
 21
376.6067062281418
 31
0.0
  0
ARC
  5
4E2
330
2
100
AcDbEntity
  8
4
100
AcDbCircle
 10
587.7380708879627
 20
362.8109620929645
 30
0.0
 40
13.7957441351769
100
AcDbArc
 50
66.57340249137077
 51
113.4265975086273
  0
LINE
  5
4E3
330
2
100
AcDbEntity
  8
4
100
AcDbLine
 10
593.222898445265
 20
375.4695253175141
 30
0.0
 11
593.222898445265
 21
368.6067062281418
 31
0.0
  0
LINE
  5
4E4
330
2
100
AcDbEntity
  8
4
100
AcDbLine
 10
582.2532433306615
 20
375.4695253175141
 30
0.0
 11
582.2532433306615
 21
368.6067062281418
 31
0.0
  0
LINE
  5
4E5
330
2
100
AcDbEntity
  8
4
100
AcDbLine
 10
598.7077260025662
 20
375.4695253175141
 30
0.0
 11
598.7077260025662
 21
365.6067062281418
 31
0.0
  0
ARC
  5
4E6
330
2
100
AcDbEntity
  8
4
100
AcDbCircle
 10
595.9653122239151
 20
372.7313273528616
 30
0.0
 40
3.875378875279244
100
AcDbArc
 50
44.95592676274044
 51
135.044073237256
  0
ARC
  5
4E7
330
2
100
AcDbEntity
  8
4
100
AcDbCircle
 10
352.7380708879627
 20
362.8109620929645
 30
0.0
 40
13.7957441351769
100
AcDbArc
 50
66.57340249137269
 51
113.4265975086292
  0
LINE
  5
4E8
330
2
100
AcDbEntity
  8
4
100
AcDbLine
 10
360.9653122239142
 20
376.6067062281418
 30
0.0
 11
344.5108295520103
 21
376.6067062281418
 31
0.0
  0
LINE
  5
4E9
330
2
100
AcDbEntity
  8
4
100
AcDbLine
 10
341.7684157733592
 20
365.6067062281418
 30
0.0
 11
363.7077260025653
 21
365.6067062281418
 31
0.0
  0
LINE
  5
4EA
330
2
100
AcDbEntity
  8
4
100
AcDbLine
 10
341.7684157733592
 20
368.6067062281418
 30
0.0
 11
363.7077260025653
 21
368.6067062281418
 31
0.0
  0
LINE
  5
4EB
330
2
100
AcDbEntity
  8
L-CENTER
 48
5.0
100
AcDbLine
 10
352.7380708879627
 20
380.2075461082459
 30
0.0
 11
352.7380708879627
 21
327.3892885466848
 31
0.0
  0
LINE
  5
4EC
330
2
100
AcDbEntity
  8
4
100
AcDbLine
 10
358.222898445264
 20
375.4695253175141
 30
0.0
 11
358.222898445264
 21
368.6067062281418
 31
0.0
  0
LINE
  5
4ED
330
2
100
AcDbEntity
  8
4
100
AcDbLine
 10
363.7077260025653
 20
365.6067062281418
 30
0.0
 11
363.7077260025653
 21
375.4695253175141
 31
0.0
  0
ARC
  5
4EE
330
2
100
AcDbEntity
  8
4
100
AcDbCircle
 10
360.9653122239142
 20
372.7313273528616
 30
0.0
 40
3.875378875279264
100
AcDbArc
 50
44.95592676274104
 51
135.0440732372495
  0
ARC
  5
4EF
330
2
100
AcDbEntity
  8
4
100
AcDbCircle
 10
344.5108295520103
 20
372.7313273528616
 30
0.0
 40
3.875378875279244
100
AcDbArc
 50
44.955926762744
 51
135.0440732372584
  0
LINE
  5
4F0
330
2
100
AcDbEntity
  8
4
100
AcDbLine
 10
341.7684157733592
 20
375.4695253175141
 30
0.0
 11
341.7684157733592
 21
365.6067062281418
 31
0.0
  0
LINE
  5
4F1
330
2
100
AcDbEntity
  8
4
100
AcDbLine
 10
347.2532433306605
 20
375.4695253175141
 30
0.0
 11
347.2532433306605
 21
368.6067062281418
 31
0.0
  0
LINE
  5
4F2
330
2
100
AcDbEntity
  8
L-CENTER
 48
5.0
100
AcDbLine
 10
235.2380708879622
 20
380.2075461082459
 30
0.0
 11
235.2380708879622
 21
327.3892885466848
 31
0.0
  0
ARC
  5
4F3
330
2
100
AcDbEntity
  8
4
100
AcDbCircle
 10
243.4653122239142
 20
372.7313273528621
 30
0.0
 40
3.875378875279264
100
AcDbArc
 50
44.95592676274579
 51
135.0440732372542
  0
LINE
  5
4F4
330
2
100
AcDbEntity
  8
4
100
AcDbLine
 10
224.2684157733592
 20
368.6067062281418
 30
0.0
 11
246.2077260025648
 21
368.6067062281418
 31
0.0
  0
LINE
  5
4F5
330
2
100
AcDbEntity
  8
4
100
AcDbLine
 10
224.2684157733592
 20
365.6067062281418
 30
0.0
 11
246.2077260025648
 21
365.6067062281418
 31
0.0
  0
LINE
  5
4F6
330
2
100
AcDbEntity
  8
4
100
AcDbLine
 10
246.2077260025648
 20
365.6067062281418
 30
0.0
 11
246.2077260025648
 21
375.4695253175141
 31
0.0
  0
LINE
  5
4F7
330
2
100
AcDbEntity
  8
4
100
AcDbLine
 10
243.4653122239142
 20
376.6067062281418
 30
0.0
 11
227.0108295520099
 21
376.6067062281418
 31
0.0
  0
ARC
  5
4F8
330
2
100
AcDbEntity
  8
4
100
AcDbCircle
 10
235.2380708879622
 20
362.8109620929649
 30
0.0
 40
13.7957441351769
100
AcDbArc
 50
66.57340249137248
 51
113.4265975086275
  0
LINE
  5
4F9
330
2
100
AcDbEntity
  8
4
100
AcDbLine
 10
229.7532433306605
 20
375.4695253175141
 30
0.0
 11
229.7532433306605
 21
368.6067062281418
 31
0.0
  0
LINE
  5
4FA
330
2
100
AcDbEntity
  8
4
100
AcDbLine
 10
240.7228984452635
 20
375.4695253175141
 30
0.0
 11
240.7228984452635
 21
368.6067062281418
 31
0.0
  0
LINE
  5
4FB
330
2
100
AcDbEntity
  8
4
100
AcDbLine
 10
224.2684157733592
 20
375.4695253175141
 30
0.0
 11
224.2684157733592
 21
365.6067062281418
 31
0.0
  0
ARC
  5
4FC
330
2
100
AcDbEntity
  8
4
100
AcDbCircle
 10
227.0108295520099
 20
372.7313273528621
 30
0.0
 40
3.875378875279244
100
AcDbArc
 50
44.955926762744
 51
135.044073237256
  0
ARC
  5
4FD
330
2
100
AcDbEntity
  8
4
100
AcDbCircle
 10
1212.021448975577
 20
362.8109620929645
 30
0.0
 40
13.7957441351769
100
AcDbArc
 50
66.57340249137077
 51
113.4265975086292
  0
LINE
  5
4FE
330
2
100
AcDbEntity
  8
4
100
AcDbLine
 10
1203.794207639625
 20
376.6067062281418
 30
0.0
 11
1220.248690311529
 21
376.6067062281418
 31
0.0
  0
LINE
  5
4FF
330
2
100
AcDbEntity
  8
4
100
AcDbLine
 10
1222.99110409018
 20
365.6067062281418
 30
0.0
 11
1201.051793860974
 21
365.6067062281418
 31
0.0
  0
LINE
  5
500
330
2
100
AcDbEntity
  8
4
100
AcDbLine
 10
1222.99110409018
 20
368.6067062281418
 30
0.0
 11
1201.051793860974
 21
368.6067062281418
 31
0.0
  0
LINE
  5
501
330
2
100
AcDbEntity
  8
L-CENTER
 48
5.0
100
AcDbLine
 10
1212.021448975577
 20
380.2075461082459
 30
0.0
 11
1212.021448975577
 21
327.3892885466848
 31
0.0
  0
LINE
  5
502
330
2
100
AcDbEntity
  8
4
100
AcDbLine
 10
1206.536621418276
 20
375.4695253175141
 30
0.0
 11
1206.536621418276
 21
368.6067062281418
 31
0.0
  0
LINE
  5
503
330
2
100
AcDbEntity
  8
4
100
AcDbLine
 10
1201.051793860974
 20
365.6067062281418
 30
0.0
 11
1201.051793860974
 21
375.4695253175141
 31
0.0
  0
ARC
  5
504
330
2
100
AcDbEntity
  8
4
100
AcDbCircle
 10
1203.794207639625
 20
372.7313273528616
 30
0.0
 40
3.875378875279264
100
AcDbArc
 50
44.95592676274638
 51
135.0440732372536
  0
ARC
  5
505
330
2
100
AcDbEntity
  8
4
100
AcDbCircle
 10
1220.248690311529
 20
372.7313273528616
 30
0.0
 40
3.875378875279244
100
AcDbArc
 50
44.95592676274519
 51
135.0440732372548
  0
LINE
  5
506
330
2
100
AcDbEntity
  8
4
100
AcDbLine
 10
1222.99110409018
 20
375.4695253175141
 30
0.0
 11
1222.99110409018
 21
365.6067062281418
 31
0.0
  0
LINE
  5
507
330
2
100
AcDbEntity
  8
4
100
AcDbLine
 10
1217.506276532879
 20
375.4695253175141
 30
0.0
 11
1217.506276532879
 21
368.6067062281418
 31
0.0
  0
LINE
  5
508
330
2
100
AcDbEntity
  8
4
100
AcDbLine
 10
1201.051793860974
 20
366.0741418451262
 30
0.0
 11
1199.215439651394
 21
365.6067062281418
 31
0.0
  0
ARC
  5
509
330
2
100
AcDbEntity
  8
4
100
AcDbCircle
 10
1627.280630090215
 20
372.7313273528607
 30
0.0
 40
3.875378875279264
100
AcDbArc
 50
44.95592676274163
 51
135.0440732372489
  0
LINE
  5
50A
330
2
100
AcDbEntity
  8
4
100
AcDbLine
 10
1608.08373363966
 20
368.6067062281409
 30
0.0
 11
1630.023043868866
 21
368.6067062281409
 31
0.0
  0
LINE
  5
50B
330
2
100
AcDbEntity
  8
4
100
AcDbLine
 10
1608.08373363966
 20
365.6067062281409
 30
0.0
 11
1630.023043868866
 21
365.6067062281409
 31
0.0
  0
LINE
  5
50C
330
2
100
AcDbEntity
  8
4
100
AcDbLine
 10
1630.023043868866
 20
365.6067062281409
 30
0.0
 11
1630.023043868866
 21
375.4695253175132
 31
0.0
  0
LINE
  5
50D
330
2
100
AcDbEntity
  8
4
100
AcDbLine
 10
1613.568561196961
 20
375.4695253175132
 30
0.0
 11
1613.568561196961
 21
368.6067062281409
 31
0.0
  0
LINE
  5
50E
330
2
100
AcDbEntity
  8
4
100
AcDbLine
 10
1608.08373363966
 20
375.4695253175132
 30
0.0
 11
1608.08373363966
 21
365.6067062281409
 31
0.0
  0
ARC
  5
50F
330
2
100
AcDbEntity
  8
4
100
AcDbCircle
 10
1610.826147418311
 20
372.7313273528607
 30
0.0
 40
3.875378875279244
100
AcDbArc
 50
44.95592676274994
 51
135.0440732372584
  0
LINE
  5
510
330
2
100
AcDbEntity
  8
4
100
AcDbLine
 10
1624.538216311565
 20
375.4695253175132
 30
0.0
 11
1624.538216311565
 21
368.6067062281409
 31
0.0
  0
LINE
  5
511
330
2
100
AcDbEntity
  8
4
100
AcDbLine
 10
1627.280630090215
 20
376.6067062281409
 30
0.0
 11
1610.826147418311
 21
376.6067062281409
 31
0.0
  0
ARC
  5
512
330
2
100
AcDbEntity
  8
4
100
AcDbCircle
 10
1619.053388754264
 20
362.8109620929636
 30
0.0
 40
13.7957441351769
100
AcDbArc
 50
66.57340249137269
 51
113.4265975086273
  0
LINE
  5
513
330
2
100
AcDbEntity
  8
L-CENTER
 48
5.0
100
AcDbLine
 10
1619.053388754264
 20
380.207546108245
 30
0.0
 11
1619.053388754263
 21
327.3892885466839
 31
0.0
  0
LINE
  5
514
330
2
100
AcDbEntity
  8
4
100
AcDbLine
 10
1630.023043868866
 20
366.0741418451253
 30
0.0
 11
1631.859398078446
 21
365.6067062281418
 31
0.0
  0
LINE
  5
17B2
330
2
100
AcDbEntity
  8
4
100
AcDbLine
 10
285.2380708879627
 20
390.6067062281418
 30
0.0
 11
335.2380708879627
 21
390.6067062281418
 31
0.0
  0
LINE
  5
17B3
330
2
100
AcDbEntity
  8
4
100
AcDbLine
 10
335.2380708879627
 20
390.6067062281418
 30
0.0
 11
335.2380708879627
 21
386.3068463915843
 31
0.0
  0
LINE
  5
17B4
330
2
100
AcDbEntity
  8
4
100
AcDbLine
 10
285.2380708879637
 20
373.5795736643117
 30
0.0
 11
285.2380708879627
 21
390.6067062281418
 31
0.0
  0
LINE
  5
17B5
330
2
100
AcDbEntity
  8
4
100
AcDbLine
 10
287.7380708879646
 20
390.6067062281418
 30
0.0
 11
332.7380708879646
 21
390.6067062281418
 31
0.0
  0
LINE
  5
17B6
330
2
100
AcDbEntity
  8
4
100
AcDbLine
 10
287.2380708879646
 20
392.1067062281418
 30
0.0
 11
333.2380708879646
 21
392.1067062281418
 31
0.0
  0
LINE
  5
17B7
330
2
100
AcDbEntity
  8
4
100
AcDbLine
 10
287.2380708879646
 20
396.1067062281418
 30
0.0
 11
333.2380708879646
 21
396.1067062281418
 31
0.0
  0
LINE
  5
17B8
330
2
100
AcDbEntity
  8
4
100
AcDbLine
 10
287.3194866009217
 20
401.1067062281418
 30
0.0
 11
333.1566551750066
 21
401.1067062281418
 31
0.0
  0
LINE
  5
17B9
330
2
100
AcDbEntity
  8
4
100
AcDbLine
 10
321.9294138390542
 20
401.1067062281418
 30
0.0
 11
321.9294138390542
 21
396.1067062281418
 31
0.0
  0
LINE
  5
17BA
330
2
100
AcDbEntity
  8
4
100
AcDbLine
 10
332.7380708879646
 20
392.1067062281418
 30
0.0
 11
332.7380708879646
 21
390.6067062281418
 31
0.0
  0
LINE
  5
17BB
330
2
100
AcDbEntity
  8
4
100
AcDbLine
 10
333.2380708879646
 20
396.1067062281418
 30
0.0
 11
333.2380708879646
 21
392.1067062281418
 31
0.0
  0
LINE
  5
17BC
330
2
100
AcDbEntity
  8
4
100
AcDbLine
 10
333.1566551750066
 20
401.1067062281418
 30
0.0
 11
333.1566551750066
 21
396.1067062281418
 31
0.0
  0
LINE
  5
17BD
330
2
100
AcDbEntity
  8
4
100
AcDbLine
 10
298.546727936874
 20
401.1067062281418
 30
0.0
 11
298.546727936874
 21
396.1067062281418
 31
0.0
  0
LINE
  5
17BE
330
2
100
AcDbEntity
  8
4
100
AcDbLine
 10
287.7380708879646
 20
392.1067062281418
 30
0.0
 11
287.7380708879646
 21
390.6067062281418
 31
0.0
  0
LINE
  5
17BF
330
2
100
AcDbEntity
  8
4
100
AcDbLine
 10
287.2380708879646
 20
396.1067062281418
 30
0.0
 11
287.2380708879646
 21
392.1067062281418
 31
0.0
  0
LINE
  5
17C0
330
2
100
AcDbEntity
  8
4
100
AcDbLine
 10
287.3194866009217
 20
401.1067062281418
 30
0.0
 11
287.3194866009217
 21
396.1067062281418
 31
0.0
  0
LINE
  5
17C4
330
2
100
AcDbEntity
  8
4
100
AcDbLine
 10
1415.53741886492
 20
397.6067062281418
 30
0.0
 11
1498.03741886492
 21
397.6067062281418
 31
0.0
  0
CIRCLE
  5
1F13
330
2
100
AcDbEntity
  8
4
100
AcDbCircle
 10
1165.53741886492
 20
234.3067062281416
 30
0.0
 40
44.99980499999947
  0
LINE
  5
1F14
330
2
100
AcDbEntity
  8
4
100
AcDbLine
 10
1158.03741886492
 20
268.3067062281416
 30
0.0
 11
1173.03741886492
 21
268.3067062281416
 31
0.0
  0
LINE
  5
1F15
330
2
100
AcDbEntity
  8
4
100
AcDbLine
 10
1158.03741886492
 20
258.3067062281416
 30
0.0
 11
1173.03741886492
 21
258.3067062281416
 31
0.0
  0
LINE
  5
1F16
330
2
100
AcDbEntity
  8
4
100
AcDbLine
 10
1173.03741886492
 20
258.3067062281416
 30
0.0
 11
1173.03741886492
 21
268.3067062281416
 31
0.0
  0
LINE
  5
1F17
330
2
100
AcDbEntity
  8
4
100
AcDbLine
 10
1158.03741886492
 20
258.3067062281416
 30
0.0
 11
1158.03741886492
 21
268.3067062281416
 31
0.0
  0
ARC
  5
1F18
330
2
100
AcDbEntity
  8
4
100
AcDbCircle
 10
1165.53741886492
 20
234.3067062281416
 30
0.0
 40
28.99999
100
AcDbArc
 50
104.9882397718754
 51
75.01175300000001
  0
ARC
  5
1F3A
330
2
100
AcDbEntity
  8
4
100
AcDbCircle
 10
1407.310177528969
 20
372.7313273528616
 30
0.0
 40
3.875378875279264
100
AcDbArc
 50
44.95592676274638
 51
135.0440732372584
  0
LINE
  5
1F3B
330
2
100
AcDbEntity
  8
4
100
AcDbLine
 10
1426.507073979524
 20
368.6067062281418
 30
0.0
 11
1404.567763750317
 21
368.6067062281418
 31
0.0
  0
LINE
  5
1F3C
330
2
100
AcDbEntity
  8
4
100
AcDbLine
 10
1426.507073979524
 20
365.6067062281418
 30
0.0
 11
1404.567763750317
 21
365.6067062281418
 31
0.0
  0
LINE
  5
1F3D
330
2
100
AcDbEntity
  8
4
100
AcDbLine
 10
1404.567763750317
 20
365.6067062281418
 30
0.0
 11
1404.567763750317
 21
375.4695253175141
 31
0.0
  0
LINE
  5
1F3E
330
2
100
AcDbEntity
  8
4
100
AcDbLine
 10
1407.310177528969
 20
376.6067062281418
 30
0.0
 11
1423.764660200872
 21
376.6067062281418
 31
0.0
  0
ARC
  5
1F3F
330
2
100
AcDbEntity
  8
4
100
AcDbCircle
 10
1415.53741886492
 20
362.8109620929645
 30
0.0
 40
13.7957441351769
100
AcDbArc
 50
66.57340249137077
 51
113.4265975086273
  0
LINE
  5
1F40
330
2
100
AcDbEntity
  8
4
100
AcDbLine
 10
1421.022246422222
 20
375.4695253175141
 30
0.0
 11
1421.022246422222
 21
368.6067062281418
 31
0.0
  0
LINE
  5
1F41
330
2
100
AcDbEntity
  8
4
100
AcDbLine
 10
1410.052591307619
 20
375.4695253175141
 30
0.0
 11
1410.052591307619
 21
368.6067062281418
 31
0.0
  0
LINE
  5
1F42
330
2
100
AcDbEntity
  8
4
100
AcDbLine
 10
1426.507073979524
 20
375.4695253175141
 30
0.0
 11
1426.507073979524
 21
365.6067062281418
 31
0.0
  0
ARC
  5
1F43
330
2
100
AcDbEntity
  8
4
100
AcDbCircle
 10
1423.764660200872
 20
372.7313273528616
 30
0.0
 40
3.875378875279244
100
AcDbArc
 50
44.95592676274044
 51
135.0440732372572
  0
ENDSEC
  0
SECTION
  2
OBJECTS
  0
DICTIONARY
  5
B
330
0
100
AcDbDictionary
281
     1
  3
ACAD_CIP_PREVIOUS_PRODUCT_INFO
350
539
  3
ACAD_COLOR
350
48
  3
ACAD_GROUP
350
35
  3
ACAD_LAYOUT
350
18
  3
ACAD_MATERIAL
350
D
  3
ACAD_MLEADERSTYLE
350
4B
  3
ACAD_MLINESTYLE
350
36
  3
ACAD_PLOTSETTINGS
350
37
  3
ACAD_PLOTSTYLENAME
350
A
  3
ACAD_SCALELIST
350
49
  3
ACAD_TABLESTYLE
350
4A
  3
ACAD_VISUALSTYLE
350
2F
  3
ACDBHEADERROUNDTRIPXREC
350
1F46
  3
AcDbVariableDictionary
350
516
  3
DWGPROPS
350
1F49
  0
DICTIONARY
  5
1F4A
330
2C
100
AcDbDictionary
280
     1
281
     1
  3
ACAD_XREC_ROUNDTRIP
360
1F4B
  0
DICTIONARY
  5
22
330
21
100
AcDbDictionary
280
     1
281
     1
  3
ACAD_LAYERSTATES
360
23
  0
DICTIONARY
  5
7
330
6
100
AcDbDictionary
280
     1
281
     1
  3
ADSK_XREC_LAYER_RECONCILED
360
8
  0
DICTIONARY
  5
68
330
67
100
AcDbDictionary
280
     1
281
     1
  3
ADSK_XREC_LAYER_RECONCILED
360
69
  0
DICTIONARY
  5
4D
330
4C
100
AcDbDictionary
280
     1
281
     1
  3
ADSK_XREC_LAYER_RECONCILED
360
4E
  0
DICTIONARY
  5
6C
330
6B
100
AcDbDictionary
280
     1
281
     1
  3
ADSK_XREC_LAYER_RECONCILED
360
6D
  0
DICTIONARY
  5
17C
330
17B
100
AcDbDictionary
280
     1
281
     1
  3
ADSK_XREC_LAYER_RECONCILED
360
17D
  0
DICTIONARY
  5
7E
330
7D
100
AcDbDictionary
280
     1
281
     1
  3
ADSK_XREC_LAYER_RECONCILED
360
7F
  0
DICTIONARY
  5
17C5
330
2
100
AcDbDictionary
280
     1
281
     1
  3
ACAD_SORTENTS
360
17C6
  0
XRECORD
  5
539
102
{ACAD_REACTORS
330
B
102
}
330
B
100
AcDbXrecord
280
     1
300
ACD
300
2012
300
ACD_F_S
  0
DICTIONARY
  5
48
102
{ACAD_REACTORS
330
B
102
}
330
B
100
AcDbDictionary
281
     1
  0
DICTIONARY
  5
35
102
{ACAD_REACTORS
330
B
102
}
330
B
100
AcDbDictionary
281
     1
  0
DICTIONARY
  5
18
102
{ACAD_REACTORS
330
B
102
}
330
B
100
AcDbDictionary
281
     1
  3
Model
350
17
  3
ﾚｲｱｳﾄ1
350
20
  0
DICTIONARY
  5
D
102
{ACAD_REACTORS
330
B
102
}
330
B
100
AcDbDictionary
281
     1
  3
ByBlock
350
40
  3
ByLayer
350
38
  3
Global
350
C
  0
DICTIONARY
  5
4B
102
{ACAD_REACTORS
330
B
102
}
330
B
100
AcDbDictionary
281
     1
  3
Standard
350
534
  0
DICTIONARY
  5
36
102
{ACAD_REACTORS
330
B
102
}
330
B
100
AcDbDictionary
281
     1
  3
STANDARD
350
50
  0
DICTIONARY
  5
37
102
{ACAD_REACTORS
330
B
102
}
330
B
100
AcDbDictionary
281
     1
  0
ACDBDICTIONARYWDFLT
  5
A
102
{ACAD_REACTORS
330
B
102
}
330
B
100
AcDbDictionary
281
     1
  3
Normal
350
9
100
AcDbDictionaryWithDefault
340
9
  0
DICTIONARY
  5
49
102
{ACAD_REACTORS
330
B
102
}
330
B
100
AcDbDictionary
281
     1
  3
A0
350
55
  3
A1
350
56
  3
A2
350
57
  3
A3
350
58
  3
A4
350
59
  3
A5
350
5A
  3
A6
350
5B
  3
A7
350
5C
  3
A8
350
5D
  3
A9
350
5E
  3
B0
350
5F
  3
B1
350
60
  3
B2
350
61
  3
B3
350
62
  3
B4
350
63
  3
B5
350
64
  3
B6
350
65
  0
DICTIONARY
  5
4A
102
{ACAD_REACTORS
330
B
102
}
330
B
100
AcDbDictionary
281
     1
  3
Standard
350
51
  0
DICTIONARY
  5
2F
102
{ACAD_REACTORS
330
B
102
}
330
B
100
AcDbDictionary
281
     1
  3
2dWireframe
350
2E
  3
Basic
350
523
  3
Brighten
350
527
  3
ColorChange
350
52B
  3
Conceptual
350
525
  3
Dim
350
526
  3
EdgeColorOff
350
533
  3
Facepattern
350
52A
  3
Flat
350
51F
  3
FlatWithEdges
350
520
  3
Gouraud
350
521
  3
GouraudWithEdges
350
522
  3
Hidden
350
524
  3
JitterOff
350
531
  3
Linepattern
350
529
  3
OverhangOff
350
532
  3
Realistic
350
52
  3
Shaded
350
530
  3
Shaded with edges
350
52F
  3
Shades of Gray
350
52C
  3
Sketchy
350
52D
  3
Thicken
350
528
  3
Wireframe
350
53
  3
X-Ray
350
52E
  0
DICTIONARY
  5
1F46
102
{ACAD_REACTORS
330
B
102
}
330
B
100
AcDbDictionary
281
     1
  3
COLORDICT
350
1F47
  3
MATERIALDICT
350
1F48
  0
DICTIONARY
  5
516
102
{ACAD_REACTORS
330
B
102
}
330
B
100
AcDbDictionary
281
     1
  3
CANNOSCALE
350
51A
  3
CMLEADERSTYLE
350
518
  3
CTABLESTYLE
350
517
  3
DIMASSOC
350
1F44
  3
HIDETEXT
350
1F45
  3
LAYEREVAL
350
51C
  3
LAYERNOTIFY
350
51D
  3
LIGHTINGUNITS
350
51B
  3
MSLTSCALE
350
519
  3
XCLIPFRAME
350
166A
  0
XRECORD
  5
1F49
102
{ACAD_REACTORS
330
B
102
}
330
B
100
AcDbXrecord
280
     1
  1
DWGPROPS COOKIE
  2

  3

  4

  6

  7

  8
sg-d04
  9

300
=
301
=
302
=
303
=
304
=
305
=
306
=
307
=
308
=
309
=
 40
0.0
 41
2457539.266654572
 42
2457871.466435914
  1

 90
        0
  0
XRECORD
  5
1F4B
102
{ACAD_REACTORS
330
1F4A
102
}
330
1F4A
100
AcDbXrecord
280
     1
102
VTR_0.000_0.000_1.000_1.000_VISUALSTYLE
340
2E
102
VTR_0.000_0.000_1.000_1.000_GRIDDISPLAY
 70
     3
102
VTR_0.000_0.000_1.000_1.000_GRIDMAJOR
 70
     5
102
VTR_0.000_0.000_1.000_1.000_DEFAULTLIGHTING
280
     1
102
VTR_0.000_0.000_1.000_1.000_DEFAULTLIGHTINGTYPE
 70
     1
102
VTR_0.000_0.000_1.000_1.000_BRIGHTNESS
141
0.0
102
VTR_0.000_0.000_1.000_1.000_CONTRAST
142
0.0
  0
DICTIONARY
  5
23
102
{ACAD_REACTORS
330
22
102
}
330
22
100
AcDbDictionary
281
     1
  0
XRECORD
  5
8
102
{ACAD_REACTORS
330
7
102
}
330
7
100
AcDbXrecord
280
     1
290
     1
  0
XRECORD
  5
69
102
{ACAD_REACTORS
330
68
102
}
330
68
100
AcDbXrecord
280
     1
290
     1
  0
XRECORD
  5
4E
102
{ACAD_REACTORS
330
4D
102
}
330
4D
100
AcDbXrecord
280
     1
290
     1
  0
XRECORD
  5
6D
102
{ACAD_REACTORS
330
6C
102
}
330
6C
100
AcDbXrecord
280
     1
290
     1
  0
XRECORD
  5
17D
102
{ACAD_REACTORS
330
17C
102
}
330
17C
100
AcDbXrecord
280
     1
290
     1
  0
XRECORD
  5
7F
102
{ACAD_REACTORS
330
7E
102
}
330
7E
100
AcDbXrecord
280
     1
290
     1
  0
SORTENTSTABLE
  5
17C6
102
{ACAD_REACTORS
330
17C5
102
}
330
17C5
100
AcDbSortentsTable
330
2
331
0
  5
273
331
18E
  5
18F
331
18F
  5
190
331
190
  5
191
331
191
  5
192
331
192
  5
193
331
193
  5
194
331
194
  5
195
331
195
  5
196
331
196
  5
197
331
197
  5
198
331
198
  5
199
331
199
  5
19A
331
19A
  5
19B
331
19B
  5
19C
331
19C
  5
19D
331
19D
  5
19E
331
19E
  5
19F
331
19F
  5
1A0
331
1A0
  5
1A1
331
1A1
  5
1A2
331
1A2
  5
1A3
331
1A3
  5
1A4
331
1A4
  5
1A5
331
1A5
  5
1A6
331
1A6
  5
1A7
331
1A7
  5
1A8
331
1A8
  5
1A9
331
1A9
  5
1AA
331
1AA
  5
1AB
331
1AB
  5
1AC
331
1AC
  5
1AD
331
1AD
  5
1AE
331
1AE
  5
1AF
331
1AF
  5
1B0
331
1B0
  5
1B1
331
1B1
  5
1B2
331
1B2
  5
1B3
331
1B3
  5
1B4
331
1B4
  5
1B5
331
1B5
  5
1B6
331
1B6
  5
1B7
331
1B7
  5
1B8
331
1B8
  5
1B9
331
1B9
  5
1BA
331
1BA
  5
1BB
331
1BB
  5
1BC
331
1BC
  5
1BD
331
1BD
  5
1BE
331
1BE
  5
1BF
331
1BF
  5
1C0
331
1C0
  5
1C1
331
1C1
  5
1C2
331
1C2
  5
1C3
331
1C3
  5
1C4
331
1C4
  5
1C5
331
1C5
  5
1C6
331
1C6
  5
1C7
331
1C7
  5
1C8
331
1C8
  5
1C9
331
1C9
  5
1CA
331
1CA
  5
1CB
331
1CB
  5
1CC
331
1CC
  5
1CD
331
1CD
  5
1CE
331
1CE
  5
1CF
331
1CF
  5
1D0
331
1D0
  5
1D3
331
1D1
  5
1D4
331
1D2
  5
1D5
331
1D3
  5
1D6
331
1D4
  5
1D7
331
1D5
  5
1D8
331
1D6
  5
1D9
331
1D7
  5
1DA
331
1D8
  5
1DB
331
1D9
  5
1DC
331
1DA
  5
1DD
331
1DB
  5
1DE
331
1DC
  5
1DF
331
1DD
  5
1E0
331
1DE
  5
1E1
331
1DF
  5
1E2
331
1E0
  5
1E3
331
1E1
  5
1E4
331
1E2
  5
1E5
331
1E3
  5
1E6
331
1E4
  5
1E7
331
1E5
  5
1E8
331
1E6
  5
1E9
331
1E7
  5
1EA
331
1E8
  5
1EB
331
1E9
  5
1EC
331
1EA
  5
1ED
331
1EB
  5
1EE
331
1EC
  5
1EF
331
1ED
  5
1F0
331
1EE
  5
1F1
331
1EF
  5
1F2
331
1F0
  5
1F3
331
1F1
  5
1F4
331
1F2
  5
1F5
331
1F3
  5
1F7
331
1F4
  5
1F8
331
1F5
  5
1F9
331
1F6
  5
1FA
331
1F7
  5
1FB
331
1F8
  5
1FC
331
1F9
  5
1FD
331
1FA
  5
1FE
331
1FB
  5
1FF
331
1FC
  5
200
331
1FD
  5
201
331
1FE
  5
202
331
1FF
  5
203
331
200
  5
204
331
201
  5
205
331
202
  5
206
331
203
  5
207
331
204
  5
208
331
205
  5
209
331
206
  5
20A
331
207
  5
20B
331
208
  5
20C
331
209
  5
211
331
20A
  5
212
331
20B
  5
213
331
20C
  5
214
331
20D
  5
215
331
20E
  5
216
331
20F
  5
217
331
210
  5
218
331
211
  5
219
331
212
  5
21C
331
213
  5
21D
331
214
  5
21E
331
215
  5
221
331
216
  5
222
331
217
  5
223
331
218
  5
224
331
219
  5
225
331
21A
  5
226
331
21B
  5
227
331
21C
  5
228
331
21D
  5
229
331
21E
  5
22A
331
21F
  5
22B
331
220
  5
22C
331
221
  5
22D
331
222
  5
22E
331
223
  5
22F
331
224
  5
230
331
225
  5
231
331
226
  5
232
331
227
  5
233
331
228
  5
234
331
229
  5
235
331
22A
  5
236
331
22B
  5
237
331
22C
  5
238
331
22D
  5
239
331
22E
  5
23A
331
22F
  5
23B
331
230
  5
23C
331
231
  5
23D
331
232
  5
23E
331
233
  5
23F
331
234
  5
240
331
235
  5
241
331
236
  5
242
331
237
  5
243
331
238
  5
244
331
239
  5
245
331
23A
  5
246
331
23B
  5
247
331
23C
  5
248
331
23D
  5
249
331
23E
  5
24A
331
23F
  5
24B
331
240
  5
24C
331
241
  5
24D
331
242
  5
251
331
243
  5
252
331
244
  5
253
331
245
  5
254
331
246
  5
255
331
247
  5
256
331
248
  5
257
331
249
  5
258
331
24A
  5
259
331
24B
  5
25A
331
24C
  5
25B
331
24D
  5
25C
331
24E
  5
25D
331
24F
  5
25E
331
250
  5
25F
331
251
  5
260
331
252
  5
261
331
253
  5
262
331
254
  5
263
331
255
  5
264
331
256
  5
265
331
257
  5
266
331
258
  5
267
331
259
  5
268
331
25A
  5
269
331
25B
  5
26B
331
25C
  5
26C
331
25D
  5
26E
331
25E
  5
26F
331
25F
  5
270
331
260
  5
272
331
264
  5
276
331
271
  5
280
331
272
  5
281
331
273
  5
282
331
274
  5
283
331
275
  5
284
331
276
  5
285
331
277
  5
286
331
278
  5
287
331
279
  5
288
331
27A
  5
289
331
27B
  5
28A
331
27C
  5
28B
331
27D
  5
28C
331
27E
  5
28D
331
27F
  5
28E
331
280
  5
28F
331
281
  5
290
331
282
  5
291
331
283
  5
292
331
284
  5
293
331
285
  5
294
331
286
  5
295
331
287
  5
296
331
288
  5
297
331
289
  5
298
331
28A
  5
299
331
28B
  5
29A
331
28C
  5
29B
331
28D
  5
29C
331
28E
  5
29D
331
28F
  5
29E
331
290
  5
29F
331
291
  5
2A0
331
292
  5
2A1
331
293
  5
2A2
331
294
  5
2A3
331
295
  5
2A4
331
296
  5
2A5
331
297
  5
2A6
331
298
  5
2A7
331
299
  5
2A8
331
29A
  5
2A9
331
29B
  5
2AA
331
29C
  5
2AB
331
29D
  5
2AC
331
29E
  5
2AD
331
29F
  5
2AE
331
2A0
  5
2AF
331
2A1
  5
2B0
331
2A2
  5
2B1
331
2A3
  5
2B2
331
2A4
  5
2B3
331
2A5
  5
2B4
331
2A6
  5
2B5
331
2A7
  5
2B6
331
2A8
  5
2B7
331
2A9
  5
2B8
331
2AA
  5
2B9
331
2AB
  5
2BA
331
2AC
  5
2BB
331
2AD
  5
2BC
331
2AE
  5
2BD
331
2AF
  5
2BE
331
2B0
  5
2BF
331
2B1
  5
2C0
331
2B2
  5
2C1
331
2B3
  5
2C2
331
2B4
  5
2C3
331
2B5
  5
2C4
331
2B6
  5
2C5
331
2B7
  5
2C6
331
2B8
  5
2C7
331
2B9
  5
2C8
331
2BA
  5
2C9
331
2BB
  5
2CA
331
2BC
  5
2CB
331
2BD
  5
2CC
331
2BE
  5
2CD
331
2BF
  5
2CE
331
2C0
  5
2CF
331
2C1
  5
2D0
331
2C2
  5
2D5
331
2C3
  5
2D6
331
2C4
  5
2DC
331
2C5
  5
2DD
331
2C6
  5
2DE
331
2C7
  5
2DF
331
2C8
  5
2E0
331
2C9
  5
2E1
331
2CA
  5
2E2
331
2CB
  5
2E3
331
2CC
  5
2E4
331
2CD
  5
2E5
331
2CE
  5
2E6
331
2CF
  5
2E7
331
2D0
  5
2E8
331
2D1
  5
2E9
331
2D2
  5
2EA
331
2D4
  5
2EB
331
2D5
  5
2EC
331
311
  5
323
331
312
  5
324
331
313
  5
325
331
314
  5
326
331
315
  5
327
331
316
  5
328
331
317
  5
329
331
318
  5
32A
331
319
  5
32B
331
31A
  5
32C
331
31B
  5
32D
331
31C
  5
32E
331
37C
  5
38E
331
37D
  5
38F
331
37E
  5
390
331
37F
  5
391
331
380
  5
392
331
381
  5
393
331
382
  5
394
331
383
  5
395
331
384
  5
396
331
385
  5
397
331
386
  5
398
331
38D
  5
39F
331
38E
  5
3A0
331
38F
  5
3A1
331
390
  5
3A2
331
391
  5
3A3
331
392
  5
3A4
331
393
  5
3A5
331
394
  5
3A6
331
395
  5
3A7
331
396
  5
3A8
331
397
  5
3A9
331
398
  5
3AA
331
399
  5
3AB
331
39A
  5
3AC
331
39B
  5
3AD
331
39C
  5
3AE
331
39D
  5
3AF
331
39E
  5
3B0
331
39F
  5
3B1
331
3A0
  5
3B2
331
3A1
  5
3B3
331
3A2
  5
3B4
331
3A3
  5
3B5
331
3A4
  5
3B6
331
3A5
  5
3B7
331
3A6
  5
3B8
331
3A7
  5
3B9
331
3A8
  5
3BA
331
3A9
  5
3BB
331
3AA
  5
3BC
331
3AB
  5
3BD
331
3AC
  5
3BE
331
3AD
  5
3BF
331
3AE
  5
3C0
331
3AF
  5
3C1
331
3B0
  5
3C2
331
3B1
  5
3C3
331
3B2
  5
3C4
331
3B3
  5
3C5
331
3B4
  5
3C6
331
3B5
  5
3C7
331
3B6
  5
3C8
331
3B7
  5
3C9
331
3B8
  5
3CA
331
3B9
  5
3CB
331
3BA
  5
3CC
331
3BB
  5
3CD
331
3BC
  5
3CE
331
3BD
  5
3CF
331
3BE
  5
3D0
331
3BF
  5
3D1
331
3C0
  5
3D2
331
3C1
  5
3D3
331
3C2
  5
3D4
331
3C3
  5
3D5
331
3C4
  5
3D6
331
3C5
  5
3D7
331
3C6
  5
3D8
331
3C7
  5
3D9
331
3C8
  5
3DA
331
3C9
  5
3DB
331
3CA
  5
3DC
331
3CB
  5
3DD
331
3CC
  5
3DE
331
3CD
  5
3DF
331
3CE
  5
3E0
331
3CF
  5
3E1
331
3D0
  5
3E2
331
3D1
  5
3E3
331
3D2
  5
3E4
331
3D3
  5
3E5
331
3D4
  5
3E6
331
3D5
  5
3E7
331
3D6
  5
3E8
331
3D7
  5
3E9
331
3D8
  5
3EA
331
3D9
  5
3EB
331
3DA
  5
3EC
331
3DB
  5
3ED
331
3DC
  5
3EE
331
3DD
  5
3EF
331
3DE
  5
3F0
331
3DF
  5
3F1
331
3E0
  5
3F2
331
3E1
  5
3F3
331
3E2
  5
3F4
331
3E3
  5
3F5
331
3E4
  5
3F6
331
3E5
  5
3F7
331
3E6
  5
3F8
331
3E7
  5
3F9
331
3E8
  5
3FA
331
3E9
  5
3FB
331
3EA
  5
3FC
331
3EB
  5
3FD
331
3EC
  5
3FE
331
3ED
  5
3FF
331
3EE
  5
400
331
3EF
  5
401
331
3F0
  5
402
331
3F1
  5
403
331
3F2
  5
404
331
3F3
  5
405
331
3F4
  5
406
331
3F5
  5
407
331
3F6
  5
408
331
3F7
  5
409
331
3F8
  5
40A
331
3F9
  5
40B
331
3FA
  5
40C
331
3FB
  5
40D
331
3FC
  5
40E
331
3FD
  5
40F
331
3FE
  5
410
331
3FF
  5
411
331
400
  5
412
331
401
  5
413
331
402
  5
414
331
403
  5
415
331
404
  5
416
331
405
  5
417
331
406
  5
418
331
407
  5
419
331
408
  5
41A
331
409
  5
41B
331
40A
  5
41C
331
40B
  5
41D
331
40C
  5
41E
331
40D
  5
41F
331
40E
  5
420
331
40F
  5
421
331
410
  5
422
331
411
  5
423
331
412
  5
424
331
413
  5
425
331
414
  5
426
331
415
  5
427
331
416
  5
428
331
417
  5
429
331
418
  5
42A
331
419
  5
42B
331
41A
  5
42C
331
41B
  5
42D
331
41C
  5
42E
331
41D
  5
42F
331
41E
  5
430
331
41F
  5
431
331
420
  5
432
331
421
  5
433
331
422
  5
434
331
423
  5
435
331
424
  5
436
331
425
  5
437
331
426
  5
438
331
427
  5
439
331
428
  5
43A
331
429
  5
43B
331
42A
  5
43C
331
42B
  5
43D
331
42C
  5
43E
331
42D
  5
43F
331
42E
  5
440
331
42F
  5
441
331
430
  5
442
331
431
  5
443
331
432
  5
444
331
433
  5
445
331
434
  5
446
331
435
  5
447
331
436
  5
448
331
437
  5
449
331
438
  5
44A
331
439
  5
44B
331
43A
  5
44C
331
43B
  5
44D
331
43C
  5
44E
331
43D
  5
44F
331
43E
  5
450
331
43F
  5
451
331
440
  5
452
331
441
  5
453
331
442
  5
454
331
443
  5
455
331
444
  5
456
331
445
  5
457
331
446
  5
458
331
447
  5
459
331
448
  5
45A
331
449
  5
45B
331
44A
  5
45C
331
44B
  5
45D
331
44C
  5
45E
331
44D
  5
45F
331
44E
  5
460
331
44F
  5
461
331
450
  5
462
331
451
  5
463
331
452
  5
464
331
453
  5
465
331
454
  5
466
331
455
  5
467
331
456
  5
468
331
457
  5
469
331
458
  5
46A
331
459
  5
46B
331
45A
  5
46C
331
45B
  5
46D
331
45C
  5
46E
331
45D
  5
46F
331
45E
  5
470
331
45F
  5
471
331
460
  5
472
331
461
  5
473
331
462
  5
474
331
463
  5
475
331
464
  5
476
331
465
  5
477
331
466
  5
478
331
467
  5
479
331
468
  5
47A
331
469
  5
47B
331
46A
  5
47C
331
46B
  5
47D
331
46C
  5
47E
331
46D
  5
47F
331
46E
  5
480
331
46F
  5
481
331
470
  5
482
331
471
  5
483
331
472
  5
484
331
473
  5
485
331
474
  5
486
331
475
  5
487
331
476
  5
488
331
477
  5
489
331
478
  5
48A
331
479
  5
48B
331
47A
  5
48C
331
47B
  5
48D
331
47C
  5
48E
331
47D
  5
48F
331
47E
  5
490
331
47F
  5
491
331
480
  5
492
331
481
  5
493
331
482
  5
494
331
483
  5
495
331
484
  5
496
331
485
  5
497
331
486
  5
498
331
487
  5
499
331
488
  5
49A
331
489
  5
49B
331
48A
  5
49C
331
48B
  5
49D
331
48C
  5
49E
331
48D
  5
49F
331
48E
  5
4A0
331
48F
  5
4A1
331
490
  5
4A2
331
491
  5
4A3
331
492
  5
4A4
331
493
  5
4A5
331
494
  5
4A6
331
495
  5
4A7
331
496
  5
4A8
331
497
  5
4A9
331
498
  5
4AA
331
499
  5
4AB
331
49A
  5
4AC
331
49B
  5
4AD
331
49C
  5
4AE
331
49D
  5
4AF
331
49E
  5
4B0
331
49F
  5
4B1
331
4A0
  5
4B2
331
4A1
  5
4B3
331
4A2
  5
4B4
331
4A3
  5
4B5
331
4A4
  5
4B6
331
4A5
  5
4B7
331
4A6
  5
4B8
331
4A7
  5
4B9
331
4A8
  5
4BA
331
4A9
  5
4BB
331
4AA
  5
4BC
331
4AB
  5
4BD
331
4AC
  5
4BE
331
4AD
  5
4BF
331
4AE
  5
4C0
331
4AF
  5
4C1
331
4B0
  5
4C2
331
4B1
  5
4C3
331
4B2
  5
4C4
331
4B3
  5
4C5
331
4B4
  5
4C6
331
4B5
  5
4C7
331
4B6
  5
4C8
331
4B7
  5
4C9
331
4B8
  5
4CA
331
4B9
  5
4CB
331
4BA
  5
4CC
331
4BB
  5
4CD
331
4BC
  5
4CE
331
4BD
  5
4CF
331
4BE
  5
4D0
331
4BF
  5
4D1
331
4C0
  5
4D2
331
4C1
  5
4D3
331
4C2
  5
4D4
331
4C3
  5
4D5
331
4C4
  5
4DC
331
4C5
  5
4DD
331
4C6
  5
4DE
331
4C7
  5
4DF
331
4C8
  5
4E0
331
4C9
  5
4E1
331
4CA
  5
4E2
331
4D1
  5
4E3
331
4D2
  5
4E4
331
4D3
  5
4E5
331
4D4
  5
4E6
331
4D5
  5
4E7
331
4D6
  5
4E8
331
4D7
  5
4E9
331
4D8
  5
4EA
331
4D9
  5
4EB
331
4DA
  5
4EC
331
4DB
  5
4ED
331
4DC
  5
4EE
331
4DD
  5
4EF
331
4DE
  5
4F0
331
4DF
  5
4F1
331
4E0
  5
4F2
331
4E1
  5
4F3
331
4E2
  5
4F4
331
4E3
  5
4F5
331
4E4
  5
4F6
331
4E5
  5
4F7
331
4E6
  5
4F8
331
4E7
  5
4F9
331
4E8
  5
4FA
331
4E9
  5
4FB
331
4EA
  5
4FC
331
4EB
  5
4FD
331
4EC
  5
4FE
331
4ED
  5
4FF
331
4EE
  5
500
331
4EF
  5
501
331
4F0
  5
502
331
4F1
  5
503
331
4F2
  5
504
331
4F3
  5
505
331
4F4
  5
506
331
4F5
  5
507
331
4F6
  5
508
331
4F7
  5
509
331
4F8
  5
50A
331
4F9
  5
50B
331
4FA
  5
50C
331
4FB
  5
50D
331
4FC
  5
50E
331
4FD
  5
50F
331
4FE
  5
510
331
4FF
  5
511
331
500
  5
512
331
501
  5
513
331
502
  5
514
331
503
  5
166D
331
504
  5
17AE
331
505
  5
17B2
331
506
  5
17B3
331
507
  5
17B4
331
508
  5
17B5
331
509
  5
17B6
331
50A
  5
17B7
331
50B
  5
17B8
331
50C
  5
17B9
331
50D
  5
17BA
331
50E
  5
17BB
331
50F
  5
17BC
331
510
  5
17BD
331
511
  5
17BE
331
512
  5
17BF
331
513
  5
17C0
331
514
  5
17C1
331
17B2
  5
17C8
331
17B3
  5
17C9
331
17B4
  5
17CA
331
17B5
  5
17CB
331
17B6
  5
17CC
331
17B7
  5
1DA8
331
17B8
  5
1DA9
331
17B9
  5
1DAA
331
17BA
  5
1DAB
331
17BB
  5
1DAC
331
17BC
  5
1DB2
331
17BD
  5
1DB3
331
17BE
  5
1DB4
331
17BF
  5
1DB5
331
17C0
  5
1DB6
331
17C4
  5
1F6
331
1F13
  5
1F16
331
1F14
  5
1F17
331
1F15
  5
1F18
331
1F16
  5
1F19
331
1F17
  5
1F1A
331
1F18
  5
1F1B
  0
LAYOUT
  5
17
102
{ACAD_REACTORS
330
18
102
}
102
{ACAD_XDICTIONARY
360
19
102
}
330
18
100
AcDbPlotSettings
  1

  2
Bullzip PDF Printer.pc3
  4
A3
  6

 40
0.2
 41
0.0
 42
0.0
 43
0.0
 44
420.2
 45
297.1
 46
25.0
 47
12.0
 48
99.99999980166649
 49
0.0
140
2009.999995426666
141
1362.499996820836
142
1.0
143
5.0
 70
 11936
 72
     1
 73
     0
 74
     4
  7
monochrome.ctb
 75
     0
147
0.2
148
-99.99999980166649
149
0.0
100
AcDbLayout
  1
Model
 70
     1
 71
     0
 10
0.0
 20
0.0
 11
12.0
 21
9.0
 12
0.0
 22
0.0
 32
0.0
 14
180.2380708879627
 24
18.39710898029875
 34
0.0
 15
1690.766856885062
 25
1464.260092619819
 35
0.0
146
0.0
 13
0.0
 23
0.0
 33
0.0
 16
1.0
 26
0.0
 36
0.0
 17
0.0
 27
1.0
 37
0.0
 76
     0
330
2
331
2D
1001
ACAD_PSEXT
1000
Bullzip PDF Printer.pc3
1000
Bullzip PDF Printer
1000
BULLZIP
1000
Bullzip PDF Printer 10.1.0.1871
1070
     0
  0
LAYOUT
  5
20
102
{ACAD_REACTORS
330
18
102
}
330
18
100
AcDbPlotSettings
  1

  2
SR-LP8000S!1
  4

  6

 40
0.0
 41
0.0
 42
0.0
 43
0.0
 44
0.0
 45
0.0
 46
0.0
 47
0.0
 48
0.0
 49
0.0
140
0.0
141
0.0
142
1.0
143
1.0
 70
   688
 72
     0
 73
     0
 74
     5
  7
monochrome.ctb
 75
    16
147
1.0
148
0.0
149
0.0
100
AcDbLayout
  1
ﾚｲｱｳﾄ1
 70
     1
 71
     1
 10
0.0
 20
0.0
 11
12.0
 21
9.0
 12
0.0
 22
0.0
 32
0.0
 14
1.000000000000000E+20
 24
1.000000000000000E+20
 34
1.000000000000000E+20
 15
-1.000000000000000E+20
 25
-1.000000000000000E+20
 35
-1.000000000000000E+20
146
0.0
 13
0.0
 23
0.0
 33
0.0
 16
1.0
 26
0.0
 36
0.0
 17
0.0
 27
1.0
 37
0.0
 76
     0
330
1B
  0
MATERIAL
  5
40
102
{ACAD_REACTORS
330
D
102
}
102
{ACAD_XDICTIONARY
360
1F4C
102
}
330
D
100
AcDbMaterial
  1
ByBlock
 72
     0
 73
     2
 43
0.0208333333333333
 43
0.0
 43
0.0
 43
0.0
 43
0.0
 43
0.0208333333333333
 43
0.0
 43
0.0
 43
0.0
 43
0.0
 43
1.0
 43
0.0
 43
0.0
 43
0.0
 43
0.0
 43
1.0
 77
     0
 78
     2
 47
0.0208333333333333
 47
0.0
 47
0.0
 47
0.0
 47
0.0
 47
0.0208333333333333
 47
0.0
 47
0.0
 47
0.0
 47
0.0
 47
1.0
 47
0.0
 47
0.0
 47
0.0
 47
0.0
 47
1.0
171
     0
172
     2
 49
0.0208333333333333
 49
0.0
 49
0.0
 49
0.0
 49
0.0
 49
0.0208333333333333
 49
0.0
 49
0.0
 49
0.0
 49
0.0
 49
1.0
 49
0.0
 49
0.0
 49
0.0
 49
0.0
 49
1.0
175
     0
176
     2
142
0.0208333333333333
142
0.0
142
0.0
142
0.0
142
0.0
142
0.0208333333333333
142
0.0
142
0.0
142
0.0
142
0.0
142
1.0
142
0.0
142
0.0
142
0.0
142
0.0
142
1.0
179
     0
270
     2
144
0.0208333333333333
144
0.0
144
0.0
144
0.0
144
0.0
144
0.0208333333333333
144
0.0
144
0.0
144
0.0
144
0.0
144
1.0
144
0.0
144
0.0
144
0.0
144
0.0
144
1.0
274
     2
147
0.0208333333333333
147
0.0
147
0.0
147
0.0
147
0.0
147
0.0208333333333333
147
0.0
147
0.0
147
0.0
147
0.0
147
1.0
147
0.0
147
0.0
147
0.0
147
0.0
147
1.0
  0
MATERIAL
  5
38
102
{ACAD_REACTORS
330
D
102
}
102
{ACAD_XDICTIONARY
360
1F4E
102
}
330
D
100
AcDbMaterial
  1
ByLayer
 72
     0
 73
     2
 43
0.0208333333333333
 43
0.0
 43
0.0
 43
0.0
 43
0.0
 43
0.0208333333333333
 43
0.0
 43
0.0
 43
0.0
 43
0.0
 43
1.0
 43
0.0
 43
0.0
 43
0.0
 43
0.0
 43
1.0
 77
     0
 78
     2
 47
0.0208333333333333
 47
0.0
 47
0.0
 47
0.0
 47
0.0
 47
0.0208333333333333
 47
0.0
 47
0.0
 47
0.0
 47
0.0
 47
1.0
 47
0.0
 47
0.0
 47
0.0
 47
0.0
 47
1.0
171
     0
172
     2
 49
0.0208333333333333
 49
0.0
 49
0.0
 49
0.0
 49
0.0
 49
0.0208333333333333
 49
0.0
 49
0.0
 49
0.0
 49
0.0
 49
1.0
 49
0.0
 49
0.0
 49
0.0
 49
0.0
 49
1.0
175
     0
176
     2
142
0.0208333333333333
142
0.0
142
0.0
142
0.0
142
0.0
142
0.0208333333333333
142
0.0
142
0.0
142
0.0
142
0.0
142
1.0
142
0.0
142
0.0
142
0.0
142
0.0
142
1.0
179
     0
270
     2
144
0.0208333333333333
144
0.0
144
0.0
144
0.0
144
0.0
144
0.0208333333333333
144
0.0
144
0.0
144
0.0
144
0.0
144
1.0
144
0.0
144
0.0
144
0.0
144
0.0
144
1.0
274
     2
147
0.0208333333333333
147
0.0
147
0.0
147
0.0
147
0.0
147
0.0208333333333333
147
0.0
147
0.0
147
0.0
147
0.0
147
1.0
147
0.0
147
0.0
147
0.0
147
0.0
147
1.0
  0
MATERIAL
  5
C
102
{ACAD_REACTORS
330
D
102
}
102
{ACAD_XDICTIONARY
360
1F50
102
}
330
D
100
AcDbMaterial
  1
Global
 72
     0
 73
     2
 43
0.0208333333333333
 43
0.0
 43
0.0
 43
0.0
 43
0.0
 43
0.0208333333333333
 43
0.0
 43
0.0
 43
0.0
 43
0.0
 43
1.0
 43
0.0
 43
0.0
 43
0.0
 43
0.0
 43
1.0
 77
     0
 78
     2
 47
0.0208333333333333
 47
0.0
 47
0.0
 47
0.0
 47
0.0
 47
0.0208333333333333
 47
0.0
 47
0.0
 47
0.0
 47
0.0
 47
1.0
 47
0.0
 47
0.0
 47
0.0
 47
0.0
 47
1.0
171
     0
172
     2
 49
0.0208333333333333
 49
0.0
 49
0.0
 49
0.0
 49
0.0
 49
0.0208333333333333
 49
0.0
 49
0.0
 49
0.0
 49
0.0
 49
1.0
 49
0.0
 49
0.0
 49
0.0
 49
0.0
 49
1.0
175
     0
176
     2
142
0.0208333333333333
142
0.0
142
0.0
142
0.0
142
0.0
142
0.0208333333333333
142
0.0
142
0.0
142
0.0
142
0.0
142
1.0
142
0.0
142
0.0
142
0.0
142
0.0
142
1.0
179
     0
270
     2
144
0.0208333333333333
144
0.0
144
0.0
144
0.0
144
0.0
144
0.0208333333333333
144
0.0
144
0.0
144
0.0
144
0.0
144
1.0
144
0.0
144
0.0
144
0.0
144
0.0
144
1.0
274
     2
147
0.0208333333333333
147
0.0
147
0.0
147
0.0
147
0.0
147
0.0208333333333333
147
0.0
147
0.0
147
0.0
147
0.0
147
1.0
147
0.0
147
0.0
147
0.0
147
0.0
147
1.0
1001
ACAD
1070
    -1
1070
     3
1070
     0
1000

1071
        0
  0
MLEADERSTYLE
  5
534
102
{ACAD_REACTORS
330
4B
102
}
102
{ACAD_XDICTIONARY
360
1F52
102
}
330
4B
100
AcDbMLeaderStyle
170
     2
171
     1
172
     0
 90
        2
 40
0.0
 41
0.0
173
     1
 91
-1056964608
340
28
 92
       -2
290
     1
 42
0.09
291
     1
 43
0.36
  3
Standard
341
0
 44
0.18
300

342
25
174
     1
178
     6
175
     1
176
     0
 93
-1056964608
 45
0.18
292
     0
297
     0
 46
0.18
343
0
 94
-1056964608
 47
1.0
 49
1.0
140
1.0
293
     1
141
0.0
294
     1
177
     0
142
1.0
295
     0
296
     0
143
0.125
1001
ACAD_MLEADERVER
1070
     2
  0
MLINESTYLE
  5
50
102
{ACAD_REACTORS
330
36
102
}
330
36
100
AcDbMlineStyle
  2
STANDARD
 70
     0
  3

 62
     0
 51
90.0
 52
90.0
 71
     2
 49
0.5
 62
   256
  6
BYLAYER
 49
-0.5
 62
   256
  6
BYLAYER
  0
ACDBPLACEHOLDER
  5
9
102
{ACAD_REACTORS
330
A
102
}
330
A
  0
SCALE
  5
55
102
{ACAD_REACTORS
330
49
102
}
330
49
100
AcDbScale
 70
     0
300
1:1
140
1.0
141
1.0
290
     1
  0
SCALE
  5
56
102
{ACAD_REACTORS
330
49
102
}
330
49
100
AcDbScale
 70
     0
300
1/128" = 1'-0"
140
0.0078125
141
12.0
290
     0
  0
SCALE
  5
57
102
{ACAD_REACTORS
330
49
102
}
330
49
100
AcDbScale
 70
     0
300
1/64" = 1'-0"
140
0.015625
141
12.0
290
     0
  0
SCALE
  5
58
102
{ACAD_REACTORS
330
49
102
}
330
49
100
AcDbScale
 70
     0
300
1/32" = 1'-0"
140
0.03125
141
12.0
290
     0
  0
SCALE
  5
59
102
{ACAD_REACTORS
330
49
102
}
330
49
100
AcDbScale
 70
     0
300
1/16" = 1'-0"
140
0.0625
141
12.0
290
     0
  0
SCALE
  5
5A
102
{ACAD_REACTORS
330
49
102
}
330
49
100
AcDbScale
 70
     0
300
3/32" = 1'-0"
140
0.09375
141
12.0
290
     0
  0
SCALE
  5
5B
102
{ACAD_REACTORS
330
49
102
}
330
49
100
AcDbScale
 70
     0
300
1/8" = 1'-0"
140
0.125
141
12.0
290
     0
  0
SCALE
  5
5C
102
{ACAD_REACTORS
330
49
102
}
330
49
100
AcDbScale
 70
     0
300
3/16" = 1'-0"
140
0.1875
141
12.0
290
     0
  0
SCALE
  5
5D
102
{ACAD_REACTORS
330
49
102
}
330
49
100
AcDbScale
 70
     0
300
1/4" = 1'-0"
140
0.25
141
12.0
290
     0
  0
SCALE
  5
5E
102
{ACAD_REACTORS
330
49
102
}
330
49
100
AcDbScale
 70
     0
300
3/8" = 1'-0"
140
0.375
141
12.0
290
     0
  0
SCALE
  5
5F
102
{ACAD_REACTORS
330
49
102
}
330
49
100
AcDbScale
 70
     0
300
1/2" = 1'-0"
140
0.5
141
12.0
290
     0
  0
SCALE
  5
60
102
{ACAD_REACTORS
330
49
102
}
330
49
100
AcDbScale
 70
     0
300
3/4" = 1'-0"
140
0.75
141
12.0
290
     0
  0
SCALE
  5
61
102
{ACAD_REACTORS
330
49
102
}
330
49
100
AcDbScale
 70
     0
300
1" = 1'-0"
140
1.0
141
12.0
290
     0
  0
SCALE
  5
62
102
{ACAD_REACTORS
330
49
102
}
330
49
100
AcDbScale
 70
     0
300
1-1/2" = 1'-0"
140
1.5
141
12.0
290
     0
  0
SCALE
  5
63
102
{ACAD_REACTORS
330
49
102
}
330
49
100
AcDbScale
 70
     0
300
3" = 1'-0"
140
3.0
141
12.0
290
     0
  0
SCALE
  5
64
102
{ACAD_REACTORS
330
49
102
}
330
49
100
AcDbScale
 70
     0
300
6" = 1'-0"
140
6.0
141
12.0
290
     0
  0
SCALE
  5
65
102
{ACAD_REACTORS
330
49
102
}
330
49
100
AcDbScale
 70
     0
300
1'-0" = 1'-0"
140
12.0
141
12.0
290
     0
  0
TABLESTYLE
  5
51
102
{ACAD_REACTORS
330
4A
102
}
330
4A
100
AcDbTableStyle
  3
Standard
 70
     0
 71
     0
 40
0.06
 41
0.06
280
     0
281
     0
  7
STANDARD
140
0.18
170
     2
 62
     0
 63
   257
283
     0
274
    -2
284
     1
 64
     0
275
    -2
285
     1
 65
     0
276
    -2
286
     1
 66
     0
277
    -2
287
     1
 67
     0
278
    -2
288
     1
 68
     0
279
    -2
289
     1
 69
     0
  7
STANDARD
140
0.25
170
     5
 62
     0
 63
   257
283
     0
274
    -2
284
     1
 64
     0
275
    -2
285
     1
 65
     0
276
    -2
286
     1
 66
     0
277
    -2
287
     1
 67
     0
278
    -2
288
     1
 68
     0
279
    -2
289
     1
 69
     0
  7
STANDARD
140
0.18
170
     5
 62
     0
 63
   257
283
     0
274
    -2
284
     1
 64
     0
275
    -2
285
     1
 65
     0
276
    -2
286
     1
 66
     0
277
    -2
287
     1
 67
     0
278
    -2
288
     1
 68
     0
279
    -2
289
     1
 69
     0
  0
VISUALSTYLE
  5
2E
102
{ACAD_REACTORS
330
2F
102
}
102
{ACAD_XDICTIONARY
360
1F54
102
}
330
2F
100
AcDbVisualStyle
  2
2dWireframe
 70
     4
 71
     0
 72
     2
 73
     0
 90
        0
 40
0.6
 41
30.0
 62
     5
 63
     7
 74
     1
 91
        4
 64
     7
 65
   257
 75
     1
175
     1
 42
1.0
 92
        0
 66
   257
 43
1.0
 76
     1
 77
     6
 78
     2
 67
     7
 79
     5
170
     0
171
     0
290
     0
174
     0
 93
        1
 44
0.0
173
     0
291
     0
 45
0.0
1001
ACAD
1000
AcDbSavedByObjectVersion
1070
     0
  0
VISUALSTYLE
  5
523
102
{ACAD_REACTORS
330
2F
102
}
102
{ACAD_XDICTIONARY
360
1F56
102
}
330
2F
100
AcDbVisualStyle
  2
Basic
 70
     7
 71
     1
 72
     0
 73
     1
 90
        0
 40
0.6
 41
30.0
 62
     5
 63
     7
 74
     0
 91
        4
 64
     7
 65
   257
 75
     1
175
     1
 42
1.0
 92
        8
 66
     7
 43
1.0
 76
     1
 77
     6
 78
     2
 67
     7
 79
     5
170
     0
171
     0
290
     0
174
     0
 93
        1
 44
0.0
173
     0
291
     1
 45
0.0
1001
ACAD
1000
AcDbSavedByObjectVersion
1070
     0
  0
VISUALSTYLE
  5
527
102
{ACAD_REACTORS
330
2F
102
}
102
{ACAD_XDICTIONARY
360
1F58
102
}
330
2F
100
AcDbVisualStyle
  2
Brighten
 70
    12
 71
     2
 72
     2
 73
     0
 90
        0
 40
0.6
 41
30.0
 62
     5
 63
     7
 74
     1
 91
        4
 64
     7
 65
   257
 75
     1
175
     1
 42
1.0
 92
        8
 66
     7
 43
1.0
 76
     1
 77
     6
 78
     2
 67
     7
 79
     5
170
     0
171
     0
290
     0
174
     0
 93
        1
 44
50.0
173
     0
291
     1
 45
0.0
1001
ACAD
1000
AcDbSavedByObjectVersion
1070
     0
  0
VISUALSTYLE
  5
52B
102
{ACAD_REACTORS
330
2F
102
}
102
{ACAD_XDICTIONARY
360
1F5A
102
}
330
2F
100
AcDbVisualStyle
  2
ColorChange
 70
    16
 71
     2
 72
     2
 73
     3
 90
        0
 40
0.6
 41
30.0
 62
     5
 63
     8
 74
     1
 91
        4
 64
     7
 65
   257
 75
     1
175
     1
 42
1.0
 92
        8
 66
     8
 43
1.0
 76
     1
 77
     6
 78
     2
 67
     7
 79
     5
170
     0
171
     0
290
     0
174
     0
 93
        1
 44
0.0
173
     0
291
     1
 45
0.0
1001
ACAD
1000
AcDbSavedByObjectVersion
1070
     0
  0
VISUALSTYLE
  5
525
102
{ACAD_REACTORS
330
2F
102
}
102
{ACAD_XDICTIONARY
360
1F5C
102
}
330
2F
100
AcDbVisualStyle
  2
Conceptual
 70
     9
 71
     3
 72
     2
 73
     0
 90
        0
 40
0.6
 41
30.0
 62
     5
 63
     7
 74
     2
 91
        2
 64
     7
 65
   257
 75
     1
175
     1
 42
179.0
 92
        8
 66
     7
 43
1.0
 76
     1
 77
     6
 78
     2
 67
     7
 79
     3
170
     0
171
     0
290
     0
174
     0
 93
        1
 44
0.0
173
     0
291
     0
 45
0.0
1001
ACAD
1000
AcDbSavedByObjectVersion
1070
     0
  0
VISUALSTYLE
  5
526
102
{ACAD_REACTORS
330
2F
102
}
102
{ACAD_XDICTIONARY
360
1F5E
102
}
330
2F
100
AcDbVisualStyle
  2
Dim
 70
    11
 71
     2
 72
     2
 73
     0
 90
        0
 40
0.6
 41
30.0
 62
     5
 63
     7
 74
     1
 91
        4
 64
     7
 65
   257
 75
     1
175
     1
 42
1.0
 92
        8
 66
     7
 43
1.0
 76
     1
 77
     6
 78
     2
 67
     7
 79
     5
170
     0
171
     0
290
     0
174
     0
 93
        1
 44
-50.0
173
     0
291
     1
 45
0.0
1001
ACAD
1000
AcDbSavedByObjectVersion
1070
     0
  0
VISUALSTYLE
  5
533
102
{ACAD_REACTORS
330
2F
102
}
102
{ACAD_XDICTIONARY
360
1F60
102
}
330
2F
100
AcDbVisualStyle
  2
EdgeColorOff
 70
    22
 71
     2
 72
     2
 73
     0
 90
        0
 40
0.6
 41
30.0
 62
     5
 63
     7
 74
     1
 91
        4
 64
     7
 65
   257
 75
     1
175
     1
 42
1.0
 92
        8
 66
     7
 43
1.0
 76
     1
 77
     6
 78
     2
 67
     7
 79
     5
170
     0
171
     0
290
     0
174
     0
 93
        1
 44
0.0
173
     0
291
     1
 45
0.0
1001
ACAD
1000
AcDbSavedByObjectVersion
1070
     0
  0
VISUALSTYLE
  5
52A
102
{ACAD_REACTORS
330
2F
102
}
102
{ACAD_XDICTIONARY
360
1F62
102
}
330
2F
100
AcDbVisualStyle
  2
Facepattern
 70
    15
 71
     2
 72
     2
 73
     0
 90
        0
 40
0.6
 41
30.0
 62
     5
 63
     7
 74
     1
 91
        4
 64
     7
 65
   257
 75
     1
175
     1
 42
1.0
 92
        8
 66
     7
 43
1.0
 76
     1
 77
     6
 78
     2
 67
     7
 79
     5
170
     0
171
     0
290
     0
174
     0
 93
        1
 44
0.0
173
     0
291
     1
 45
0.0
1001
ACAD
1000
AcDbSavedByObjectVersion
1070
     0
  0
VISUALSTYLE
  5
51F
102
{ACAD_REACTORS
330
2F
102
}
102
{ACAD_XDICTIONARY
360
1F64
102
}
330
2F
100
AcDbVisualStyle
  2
Flat
 70
     0
 71
     2
 72
     1
 73
     1
 90
        2
 40
0.6
 41
30.0
 62
     5
 63
     7
 74
     0
 91
        0
 64
     7
 65
   257
 75
     1
175
     1
 42
1.0
 92
        8
 66
     7
 43
1.0
 76
     1
 77
     6
 78
     2
 67
     7
 79
     5
170
     0
171
     0
290
     0
174
     0
 93
       13
 44
0.0
173
     0
291
     1
 45
0.0
1001
ACAD
1000
AcDbSavedByObjectVersion
1070
     0
  0
VISUALSTYLE
  5
520
102
{ACAD_REACTORS
330
2F
102
}
102
{ACAD_XDICTIONARY
360
1F66
102
}
330
2F
100
AcDbVisualStyle
  2
FlatWithEdges
 70
     1
 71
     2
 72
     1
 73
     1
 90
        2
 40
0.6
 41
30.0
 62
     5
 63
     7
 74
     1
 91
        0
 64
     7
 65
   257
 75
     1
175
     1
 42
1.0
 92
        0
 66
   257
 43
1.0
 76
     1
 77
     6
 78
     2
 67
     7
 79
     5
170
     0
171
     0
290
     0
174
     0
 93
       13
 44
0.0
173
     0
291
     1
 45
0.0
1001
ACAD
1000
AcDbSavedByObjectVersion
1070
     0
  0
VISUALSTYLE
  5
521
102
{ACAD_REACTORS
330
2F
102
}
102
{ACAD_XDICTIONARY
360
1F68
102
}
330
2F
100
AcDbVisualStyle
  2
Gouraud
 70
     2
 71
     2
 72
     2
 73
     1
 90
        2
 40
0.6
 41
30.0
 62
     5
 63
     7
 74
     0
 91
        0
 64
     7
 65
   257
 75
     1
175
     1
 42
1.0
 92
        0
 66
     7
 43
1.0
 76
     1
 77
     6
 78
     2
 67
     7
 79
     5
170
     0
171
     0
290
     0
174
     0
 93
       13
 44
0.0
173
     0
291
     1
 45
0.0
1001
ACAD
1000
AcDbSavedByObjectVersion
1070
     0
  0
VISUALSTYLE
  5
522
102
{ACAD_REACTORS
330
2F
102
}
102
{ACAD_XDICTIONARY
360
1F6A
102
}
330
2F
100
AcDbVisualStyle
  2
GouraudWithEdges
 70
     3
 71
     2
 72
     2
 73
     1
 90
        2
 40
0.6
 41
30.0
 62
     5
 63
     7
 74
     1
 91
        0
 64
     7
 65
   257
 75
     1
175
     1
 42
1.0
 92
        0
 66
   257
 43
1.0
 76
     1
 77
     6
 78
     2
 67
     7
 79
     5
170
     0
171
     0
290
     0
174
     0
 93
       13
 44
0.0
173
     0
291
     1
 45
0.0
1001
ACAD
1000
AcDbSavedByObjectVersion
1070
     0
  0
VISUALSTYLE
  5
524
102
{ACAD_REACTORS
330
2F
102
}
102
{ACAD_XDICTIONARY
360
1F6C
102
}
330
2F
100
AcDbVisualStyle
  2
Hidden
 70
     6
 71
     1
 72
     2
 73
     2
 90
        0
 40
0.6
 41
30.0
 62
     5
 63
     7
 74
     2
 91
        2
 64
     7
 65
   257
 75
     2
175
     1
 42
40.0
 92
        0
 66
   257
 43
1.0
 76
     1
 77
     6
 78
     2
 67
     7
 79
     3
170
     0
171
     0
290
     0
174
     0
 93
        1
 44
0.0
173
     0
291
     0
 45
0.0
1001
ACAD
1000
AcDbSavedByObjectVersion
1070
     0
  0
VISUALSTYLE
  5
531
102
{ACAD_REACTORS
330
2F
102
}
102
{ACAD_XDICTIONARY
360
1F6E
102
}
330
2F
100
AcDbVisualStyle
  2
JitterOff
 70
    20
 71
     2
 72
     2
 73
     0
 90
        0
 40
0.6
 41
30.0
 62
     5
 63
     7
 74
     1
 91
        4
 64
     7
 65
   257
 75
     1
175
     1
 42
1.0
 92
       10
 66
     7
 43
1.0
 76
     1
 77
     6
 78
     2
 67
     7
 79
     5
170
     0
171
     0
290
     0
174
     0
 93
        1
 44
0.0
173
     0
291
     1
 45
0.0
1001
ACAD
1000
AcDbSavedByObjectVersion
1070
     0
  0
VISUALSTYLE
  5
529
102
{ACAD_REACTORS
330
2F
102
}
102
{ACAD_XDICTIONARY
360
1F70
102
}
330
2F
100
AcDbVisualStyle
  2
Linepattern
 70
    14
 71
     2
 72
     2
 73
     0
 90
        0
 40
0.6
 41
30.0
 62
     5
 63
     7
 74
     1
 91
        4
 64
     7
 65
   257
 75
     7
175
     7
 42
1.0
 92
        8
 66
     7
 43
1.0
 76
     1
 77
     6
 78
     2
 67
     7
 79
     5
170
     0
171
     0
290
     0
174
     0
 93
        1
 44
0.0
173
     0
291
     1
 45
0.0
1001
ACAD
1000
AcDbSavedByObjectVersion
1070
     0
  0
VISUALSTYLE
  5
532
102
{ACAD_REACTORS
330
2F
102
}
102
{ACAD_XDICTIONARY
360
1F72
102
}
330
2F
100
AcDbVisualStyle
  2
OverhangOff
 70
    21
 71
     2
 72
     2
 73
     0
 90
        0
 40
0.6
 41
30.0
 62
     5
 63
     7
 74
     1
 91
        4
 64
     7
 65
   257
 75
     1
175
     1
 42
1.0
 92
        9
 66
     7
 43
1.0
 76
     1
 77
     6
 78
     2
 67
     7
 79
     5
170
     0
171
     0
290
     0
174
     0
 93
        1
 44
0.0
173
     0
291
     1
 45
0.0
1001
ACAD
1000
AcDbSavedByObjectVersion
1070
     0
  0
VISUALSTYLE
  5
52
102
{ACAD_REACTORS
330
2F
102
}
102
{ACAD_XDICTIONARY
360
1F74
102
}
330
2F
100
AcDbVisualStyle
  2
Realistic
 70
     8
 71
     2
 72
     3
 73
     0
 90
        2
 40
0.6
 41
30.0
 62
     5
 63
     7
 74
     0
 91
        0
 64
     7
 65
   257
 75
     1
175
     1
 42
1.0
 92
        8
 66
   257
 43
1.0
 76
     1
 77
     6
 78
     2
 67
     7
 79
     3
170
     0
171
     0
290
     0
174
     0
 93
       13
 44
0.0
173
     0
291
     0
 45
0.0
1001
ACAD
1000
AcDbSavedByObjectVersion
1070
     0
  0
VISUALSTYLE
  5
530
102
{ACAD_REACTORS
330
2F
102
}
102
{ACAD_XDICTIONARY
360
1F76
102
}
330
2F
100
AcDbVisualStyle
  2
Shaded
 70
    27
 71
     2
 72
     2
 73
     1
 90
        2
 40
0.6
 41
30.0
 62
     5
 63
     7
 74
     0
 91
        4
 64
     7
 65
   257
 75
     1
175
     1
 42
1.0
 92
        8
 66
   257
 43
1.0
 76
     1
 77
     6
 78
     2
 67
     8
 79
     3
170
     0
171
     0
290
     0
174
     0
 93
        5
 44
0.0
173
     0
291
     0
 45
0.0
1001
ACAD
1000
AcDbSavedByObjectVersion
1070
     0
  0
VISUALSTYLE
  5
52F
102
{ACAD_REACTORS
330
2F
102
}
102
{ACAD_XDICTIONARY
360
1F78
102
}
330
2F
100
AcDbVisualStyle
  2
Shaded with edges
 70
    26
 71
     2
 72
     2
 73
     1
 90
        2
 40
0.6
 41
30.0
 62
     5
 63
     7
 74
     1
 91
       10
 64
     7
 65
   257
 75
     2
175
     1
 42
1.0
 92
        8
 66
   257
 43
1.0
 76
     1
 77
     6
 78
     2
 67
     7
 79
     3
170
     0
171
     0
290
     0
174
     0
 93
        5
 44
0.0
173
     0
291
     0
 45
0.0
1001
ACAD
1000
AcDbSavedByObjectVersion
1070
     0
  0
VISUALSTYLE
  5
52C
102
{ACAD_REACTORS
330
2F
102
}
102
{ACAD_XDICTIONARY
360
1F7A
102
}
330
2F
100
AcDbVisualStyle
  2
Shades of Gray
 70
    23
 71
     2
 72
     2
 73
     3
 90
        0
 40
0.6
 41
30.0
 62
     5
 63
     7
 74
     2
 91
        2
 64
     7
 65
     7
 75
     1
175
     1
 42
40.0
 92
        8
 66
     7
 43
1.0
 76
     1
 77
     6
 78
     2
 67
     7
 79
     3
170
     0
171
     0
290
     0
174
     0
 93
        1
 44
0.0
173
     0
291
     0
 45
0.0
1001
ACAD
1000
AcDbSavedByObjectVersion
1070
     0
  0
VISUALSTYLE
  5
52D
102
{ACAD_REACTORS
330
2F
102
}
102
{ACAD_XDICTIONARY
360
1F7C
102
}
330
2F
100
AcDbVisualStyle
  2
Sketchy
 70
    24
 71
     1
 72
     2
 73
     2
 90
        0
 40
0.6
 41
30.0
 62
     5
 63
     7
 74
     2
 91
        2
 64
     7
 65
     7
 75
     1
175
     1
 42
40.0
 92
       11
 66
     7
 43
1.0
 76
     1
 77
     6
 78
     2
 67
     7
 79
     6
170
     0
171
     0
290
     0
174
     0
 93
        1
 44
0.0
173
     0
291
     0
 45
0.0
1001
ACAD
1000
AcDbSavedByObjectVersion
1070
     0
  0
VISUALSTYLE
  5
528
102
{ACAD_REACTORS
330
2F
102
}
102
{ACAD_XDICTIONARY
360
1F7E
102
}
330
2F
100
AcDbVisualStyle
  2
Thicken
 70
    13
 71
     2
 72
     2
 73
     0
 90
        0
 40
0.6
 41
30.0
 62
     5
 63
     7
 74
     1
 91
        4
 64
     7
 65
   257
 75
     1
175
     1
 42
1.0
 92
       12
 66
     7
 43
1.0
 76
     1
 77
     6
 78
     2
 67
     7
 79
     5
170
     0
171
     0
290
     0
174
     0
 93
        1
 44
0.0
173
     0
291
     1
 45
0.0
1001
ACAD
1000
AcDbSavedByObjectVersion
1070
     0
  0
VISUALSTYLE
  5
53
102
{ACAD_REACTORS
330
2F
102
}
102
{ACAD_XDICTIONARY
360
1F80
102
}
330
2F
100
AcDbVisualStyle
  2
Wireframe
 70
     5
 71
     0
 72
     2
 73
     0
 90
        0
 40
0.6
 41
30.0
 62
     5
 63
     7
 74
     1
 91
        4
 64
     7
 65
   257
 75
     1
175
     1
 42
1.0
 92
        0
 66
   257
 43
1.0
 76
     1
 77
     6
 78
     2
 67
     7
 79
     3
170
     0
171
     0
290
     0
174
     0
 93
        1
 44
0.0
173
     0
291
     0
 45
0.0
1001
ACAD
1000
AcDbSavedByObjectVersion
1070
     0
  0
VISUALSTYLE
  5
52E
102
{ACAD_REACTORS
330
2F
102
}
102
{ACAD_XDICTIONARY
360
1F82
102
}
330
2F
100
AcDbVisualStyle
  2
X-Ray
 70
    25
 71
     2
 72
     2
 73
     1
 90
        1
 40
0.5
 41
30.0
 62
     5
 63
     7
 74
     1
 91
        0
 64
     7
 65
   257
 75
     1
175
     1
 42
1.0
 92
        8
 66
     7
 43
1.0
 76
     1
 77
     6
 78
     2
 67
     7
 79
     3
170
     0
171
     0
290
     0
174
     0
 93
       13
 44
0.0
173
     0
291
     0
 45
0.0
1001
ACAD
1000
AcDbSavedByObjectVersion
1070
     0
  0
XRECORD
  5
1F47
102
{ACAD_REACTORS
330
1F46
102
}
330
1F46
100
AcDbXrecord
280
     1
340
48
  0
XRECORD
  5
1F48
102
{ACAD_REACTORS
330
1F46
102
}
330
1F46
100
AcDbXrecord
280
     1
340
D
  0
DICTIONARYVAR
  5
51A
102
{ACAD_REACTORS
330
516
102
}
330
516
100
DictionaryVariables
280
     0
  1
1:1
  0
DICTIONARYVAR
  5
518
102
{ACAD_REACTORS
330
516
102
}
330
516
100
DictionaryVariables
280
     0
  1
Standard
  0
DICTIONARYVAR
  5
517
102
{ACAD_REACTORS
330
516
102
}
330
516
100
DictionaryVariables
280
     0
  1
Standard
  0
DICTIONARYVAR
  5
1F44
102
{ACAD_REACTORS
330
516
102
}
330
516
100
DictionaryVariables
280
     0
  1
0
  0
DICTIONARYVAR
  5
1F45
102
{ACAD_REACTORS
330
516
102
}
330
516
100
DictionaryVariables
280
     0
  1
1
  0
DICTIONARYVAR
  5
51C
102
{ACAD_REACTORS
330
516
102
}
330
516
100
DictionaryVariables
280
     0
  1
1
  0
DICTIONARYVAR
  5
51D
102
{ACAD_REACTORS
330
516
102
}
330
516
100
DictionaryVariables
280
     0
  1
15
  0
DICTIONARYVAR
  5
51B
102
{ACAD_REACTORS
330
516
102
}
330
516
100
DictionaryVariables
280
     0
  1
0
  0
DICTIONARYVAR
  5
519
102
{ACAD_REACTORS
330
516
102
}
330
516
100
DictionaryVariables
280
     0
  1
0
  0
DICTIONARYVAR
  5
166A
102
{ACAD_REACTORS
330
516
102
}
330
516
100
DictionaryVariables
280
     0
  1
0
  0
DICTIONARY
  5
19
330
17
100
AcDbDictionary
280
     1
281
     1
  3
ADSK_XREC_LAYOUTTHUMBNAIL
360
1A
  0
DICTIONARY
  5
1F4C
330
40
100
AcDbDictionary
280
     1
281
     1
  3
ACAD_XREC_ROUNDTRIP
360
1F4D
  0
DICTIONARY
  5
1F4E
330
38
100
AcDbDictionary
280
     1
281
     1
  3
ACAD_XREC_ROUNDTRIP
360
1F4F
  0
DICTIONARY
  5
1F50
330
C
100
AcDbDictionary
280
     1
281
     1
  3
ACAD_XREC_ROUNDTRIP
360
1F51
  0
DICTIONARY
  5
1F52
330
534
100
AcDbDictionary
280
     1
281
     1
  3
ACAD_XREC_ROUNDTRIP
360
1F53
  0
DICTIONARY
  5
1F54
330
2E
100
AcDbDictionary
280
     1
281
     1
  3
ACAD_XREC_ROUNDTRIP
360
1F55
  0
DICTIONARY
  5
1F56
330
523
100
AcDbDictionary
280
     1
281
     1
  3
ACAD_XREC_ROUNDTRIP
360
1F57
  0
DICTIONARY
  5
1F58
330
527
100
AcDbDictionary
280
     1
281
     1
  3
ACAD_XREC_ROUNDTRIP
360
1F59
  0
DICTIONARY
  5
1F5A
330
52B
100
AcDbDictionary
280
     1
281
     1
  3
ACAD_XREC_ROUNDTRIP
360
1F5B
  0
DICTIONARY
  5
1F5C
330
525
100
AcDbDictionary
280
     1
281
     1
  3
ACAD_XREC_ROUNDTRIP
360
1F5D
  0
DICTIONARY
  5
1F5E
330
526
100
AcDbDictionary
280
     1
281
     1
  3
ACAD_XREC_ROUNDTRIP
360
1F5F
  0
DICTIONARY
  5
1F60
330
533
100
AcDbDictionary
280
     1
281
     1
  3
ACAD_XREC_ROUNDTRIP
360
1F61
  0
DICTIONARY
  5
1F62
330
52A
100
AcDbDictionary
280
     1
281
     1
  3
ACAD_XREC_ROUNDTRIP
360
1F63
  0
DICTIONARY
  5
1F64
330
51F
100
AcDbDictionary
280
     1
281
     1
  3
ACAD_XREC_ROUNDTRIP
360
1F65
  0
DICTIONARY
  5
1F66
330
520
100
AcDbDictionary
280
     1
281
     1
  3
ACAD_XREC_ROUNDTRIP
360
1F67
  0
DICTIONARY
  5
1F68
330
521
100
AcDbDictionary
280
     1
281
     1
  3
ACAD_XREC_ROUNDTRIP
360
1F69
  0
DICTIONARY
  5
1F6A
330
522
100
AcDbDictionary
280
     1
281
     1
  3
ACAD_XREC_ROUNDTRIP
360
1F6B
  0
DICTIONARY
  5
1F6C
330
524
100
AcDbDictionary
280
     1
281
     1
  3
ACAD_XREC_ROUNDTRIP
360
1F6D
  0
DICTIONARY
  5
1F6E
330
531
100
AcDbDictionary
280
     1
281
     1
  3
ACAD_XREC_ROUNDTRIP
360
1F6F
  0
DICTIONARY
  5
1F70
330
529
100
AcDbDictionary
280
     1
281
     1
  3
ACAD_XREC_ROUNDTRIP
360
1F71
  0
DICTIONARY
  5
1F72
330
532
100
AcDbDictionary
280
     1
281
     1
  3
ACAD_XREC_ROUNDTRIP
360
1F73
  0
DICTIONARY
  5
1F74
330
52
100
AcDbDictionary
280
     1
281
     1
  3
ACAD_XREC_ROUNDTRIP
360
1F75
  0
DICTIONARY
  5
1F76
330
530
100
AcDbDictionary
280
     1
281
     1
  3
ACAD_XREC_ROUNDTRIP
360
1F77
  0
DICTIONARY
  5
1F78
330
52F
100
AcDbDictionary
280
     1
281
     1
  3
ACAD_XREC_ROUNDTRIP
360
1F79
  0
DICTIONARY
  5
1F7A
330
52C
100
AcDbDictionary
280
     1
281
     1
  3
ACAD_XREC_ROUNDTRIP
360
1F7B
  0
DICTIONARY
  5
1F7C
330
52D
100
AcDbDictionary
280
     1
281
     1
  3
ACAD_XREC_ROUNDTRIP
360
1F7D
  0
DICTIONARY
  5
1F7E
330
528
100
AcDbDictionary
280
     1
281
     1
  3
ACAD_XREC_ROUNDTRIP
360
1F7F
  0
DICTIONARY
  5
1F80
330
53
100
AcDbDictionary
280
     1
281
     1
  3
ACAD_XREC_ROUNDTRIP
360
1F81
  0
DICTIONARY
  5
1F82
330
52E
100
AcDbDictionary
280
     1
281
     1
  3
ACAD_XREC_ROUNDTRIP
360
1F83
  0
XRECORD
  5
1A
102
{ACAD_REACTORS
330
19
102
}
330
19
100
AcDbXrecord
280
     1
310
280000000001000085000000010008000000000000850000000000000000000000010000000000000000000000000000C8C8C8000000000000000000000000000000000000000000000000000000000000000000330000006600000099000000CC000000FF00000000330000333300006633000099330000CC330000FF3300
310
0000660000336600006666000099660000CC660000FF66000000990000339900006699000099990000CC990000FF99000000CC000033CC000066CC000099CC0000CCCC0000FFCC000000FF000033FF000066FF000099FF0000CCFF0000FFFF000000003300330033006600330099003300CC003300FF003300003333003333
310
33006633330099333300CC333300FF33330000663300336633006666330099663300CC663300FF66330000993300339933006699330099993300CC993300FF99330000CC330033CC330066CC330099CC3300CCCC3300FFCC330000FF330033FF330066FF330099FF3300CCFF3300FFFF330000006600330066006600660099
310
006600CC006600FF00660000336600333366006633660099336600CC336600FF33660000666600336666006666660099666600CC666600FF66660000996600339966006699660099996600CC996600FF99660000CC660033CC660066CC660099CC6600CCCC6600FFCC660000FF660033FF660066FF660099FF6600CCFF6600
310
FFFF660000009900330099006600990099009900CC009900FF00990000339900333399006633990099339900CC339900FF33990000669900336699006666990099669900CC669900FF66990000999900339999006699990099999900CC999900FF99990000CC990033CC990066CC990099CC9900CCCC9900FFCC990000FF99
310
0033FF990066FF990099FF9900CCFF9900FFFF99000000CC003300CC006600CC009900CC00CC00CC00FF00CC000033CC003333CC006633CC009933CC00CC33CC00FF33CC000066CC003366CC006666CC009966CC00CC66CC00FF66CC000099CC003399CC006699CC009999CC00CC99CC00FF99CC0000CCCC0033CCCC0066CC
310
CC0099CCCC00CCCCCC00FFCCCC0000FFCC0033FFCC0066FFCC0099FFCC00CCFFCC00FFFFCC000000FF003300FF006600FF009900FF00CC00FF00FF00FF000033FF003333FF006633FF009933FF00CC33FF00FF33FF000066FF003366FF006666FF009966FF00CC66FF00FF66FF000099FF003399FF006699FF009999FF00CC
310
99FF00FF99FF0000CCFF0033CCFF0066CCFF0099CCFF00CCCCFF00FFCCFF0000FFFF0033FFFF0066FFFF0099FFFF00CCFFFF00FFFFFF00000000000D0D0D001A1A1A00282828003535350043434300505050005D5D5D006B6B6B00787878008686860093939300A1A1A100AEAEAE00BBBBBB00C9C9C900D6D6D600E4E4E400
310
F1F1F100FFFFFF000000000000000000000000000000000000000000000000000000000000000000000000000000000000000000000000000000000000000000000000000000000000000000000000000000000000000000000000000000000000000000000000000000000000000000000000000000000000000000000000
310
00000000000000000000000000000000000000000000000000000000000000000000000000000000000000000000000000000000000000000000000000000000000000000000000000000000000000000000000000000000000000000000000000000000000000000000000000000000000000000000000000000000000000
310
00000000000000000000000000000000000000000000000000000000000000000000000000000000000000000000000000000000000000000000000000000000000000000000000000000000000000000000000000000000000000000000000000000000000000000000000000000000000000000000000000000000000000
310
00000000000000000000000000000000000000000000000000000000000000000000000000000000000000000000000000000000000000000000000000000000000000000000000000000000000000000000000000000000000000000000000000000000000000000000000000000000000000000000000000000000000000
310
00000000000000000000000000000000000000000000000000000000000000000000000000000000000000000000000000000000000000000000000000000000000000000000000000000000000000000000000000000000000000000000000000000000000000000000000000000000000000000000000000000000000000
310
00000000000000000000000000000000000000000000000000000000000000000000000000000000000000000000000000000000000000000000000000000000000000000000000000000000000000000000000000000000000000000000000000000000000000000000000000000000000000000000000000000000000000
310
00000000000000000000000000000000000000000000000000000000000000000000000000000000000000000000000000000000000000000000000000000000000000000000000000000000000000000000000000000000000000000000000000000000000000000000000000000000000000000000000000000000000000
310
00000000000000000000000000000000000000000000000000000000000000000000000000000000000000000000000000000000000000000000000000000000000000000000000000000000000000000000000000000000000000000000000000000000000000000000000000000000000000000000000000000000000000
310
00000000000000000000000000000000000000000000000000000000000000000000000000000000000000000000000000000000000000000000000000000000000000000000000000000000000000000000000000000000000000000000000000000000000000000000000000000000000000000000000000000000000000
310
00000000000000000000000000000000000000000000000000000000000000000000000000000000000000000000000000000000000000000000000000000000000000000000000000000000000000000000000000000000000000000000000000000000000000000000000000000000000000000000000000000000000000
310
00000000000000000000000000000000000000000000000000000000000000000000000000000000000000000000000000000000000000000000000000000000000000000000000000000000000000000000000000000000000000000000000000000000000000000000000000000000000000000000000000000000000000
310
00000000000000000000000000000000000000000000000000000000000000000000000000000000000000000000000000000000000000000000000000000000000000000000000000000000000000000000000000000000000000000000000000000000000000000000000000000000000000000000000000000000000000
310
00000000000000000000000000000000000000000000000000000000000000000000000000000000000000000000000000000000000000000000000000000000000000000000000000000000000000000000000000000000000000000000000000000000000000000000000000000000000000000000000000000000000000
310
00000000000000000000000000000000000000000000000000000000000000000000000000000000000000000000000000000000000000000000000000000000000000000000000000000000000000000000000000000000000000000000000000000000000000000000000000000000000000000000000000000000000000
310
00000000000000000000000000000000000000000000000000000000000000000000000000000000000000000000000000000000000000000000000000000000000000000000000000000000000000000000000000000000000000000000000000000000000000000000000000000000000000000000000000000000000000
310
00000000000000000000000000000000000000000000000000000000000000000000000000000000000000000000000000000000000000000000000000000000000000000000000000000000000000000000000000000000000000000000000000000000000000000000000000000000000000000000000000000000000000
310
00000000000000000000000000000000000000000000000000000000000000000000000000000000000000000000000000000000000000000000000000000000000000000000000000000000000000000000000000000000000000000000000000000000000000000000000000000000000000000000000000000000000000
310
00000000000000000000000000000000000000000000000000000000000000000000000000000000000000000000000000000000000000000000000000000000000000000000000000000000000000000000000000000000000000000000000000000000000000000000000000000000000000000000000000000000000000
310
00000000000000000000000000000000000000000000000000000000000000000000000000000000000000000000000000000000000000000000000000000000000000000000000000000000000000000000000000000000000000000000000000000000000000000000000000000000000000000000000000000000000000
310
00000000000000000000000000000000000000000000000000000000000000000000000000000000000000000000000000000000000000000000000000000000000000000000000000000000000000000000000000000000000000000000000000000000000000000000000000000000000000000000000000000000000000
310
00000000000000000000000000000000000000000000000000000000000000000000000000000000000000000000000000000000000000000000000000000000000000000000000000000000000000000000000000000000000000000000000000000000000000000000000000000000000000000000000000000000000000
310
00000000000000000000000000000000000000000000000000000000000000000000000000000000000000000000000000000000000000000000000000000000000000000000000000000000000000000000000000000000000000000000000000000000000000000000000000000000000000000000000000000000000000
310
00000000000000000000000000000000000000000000000000000000000000000000000000000000000000000000000000000000000000000000000000000000000000000000000000000000000000000000000000000000000000000000000000000000000000000000000000000000000000000000000000000000000000
310
00000000000000000000000000000000000000000000000000000000000000000000000000000000000000000000000000000000000000000000000000000000000000000000000000000000000000000000000000000000000000000000000000000000000000000000000000000000000000000000000000000000000000
310
00000000000000000000000000000000000000000000000000000000000000000000000000000000000000000000000000000000000000000000000000000000000000000000000000000000000000000000000000000000000000000000000000000000000000000000000000000000000000000000000000000000000000
310
00000000000000000000000000000000000000000000000000000000000000000000000000000000000000000000000000000000000000000000000000000000000000000000000000000000000000000000000000000000000000000000000000000000000000000000000000000000000000000000000000000000000000
310
00000000000000000000000000000000000000000000000000000000000000000000000000000000000000000000000000000000000000000000000000000000000000000000000000000000000000000000000000000000000000000000000000000000000000000000000000000000000000000000000000000000000000
310
00000000000000000000000000000000000000000000000000000000000000000000000000000000000000000000000000000000000000000000000000000000000000000000000000000000000000000000000000000000000000000000000000000000000000000000000000000000000000000000000000000000000000
310
00000000000000000000000000000000000000000000000000000000000000000000000000000000000000000000000000000000000000000000000000000000000000000000000000000000000000000000000000000000000000000000000000000000000000000000000000000000000000000000000000000000000000
310
00000000000000000000000000000000000000000000000000000000000000000000000000000000000000000000000000000000000000000000000000000000000000000000000000000000000000000000000000000000000000000000000000000000000000000000000000000000000000000000000000000000000000
310
00000000000000000000000000000000000000000000000000000000000000000000000000000000000000000000000000000000000000000000000000000000000000000000000000000000000000000000000000000000000000000000000000000000000000000000000000000000000000000000000000000000000000
310
00000000000000000000000000000000000000000000000000000000000000000000000000000000000000000000000000000000000000000000000000000000000000000000000000000000000000000000000000000000000000000000000000000000000000000000000000000000000000000000000000000000000000
310
00000000000000000000000000000000000000000000000000000000000000000000000000000000000000000000000000000000000000000000000000000000000000000000000000000000000000000000000000000000000000000000000000000000000000000000000000000000000000000000000000000000000000
310
00000000000000000000000000000000000000000000000000000000000000000000000000000000000000000000000000000000000000000000000000000000000000000000000000000000000000000000000000000000000000000000000000000000000000000000000000000000000000000000000000000000000000
310
00000000000000000000000000000000000000000000000000000000000000000000000000000000000000000000000000000000000000000000000000000000000000000000000000000000000000000000000000000000000000000000000000000000000000000000000000000000000000000000000000000000000000
310
00000000000000000000000000000000000000000000000000000000000000000000000000000000000000000000000000000000000000000000000000000000000000000000000000000000000000000000000000000000000000000000000000000000000000000000000000000000000000000000000000000000000000
310
00000000000000000000000000000000000000000000000000000000000000000000000000000000000000000000000000000000000000000000000000000000000000000000000000000000000000000000000000000000000000000000000000000000000000000000000000000000000000000000000000000000000000
310
00000000000000000000000000000000000000000000000000000000000000000000000000000000000000000000000000000000000000000000000000282828282828282828282828282828282828282800000000000000000000000000000000000000000000000000000000000000000000000000000000000000000000
310
00000000000000000000000000000000000000000000000000000000000000000000000000000000000000000000000000000000000000000000000000000000000000000000000000000000000000000000000000000000000000000000000000000000000000000000000000000000000000000000000000000000000000
310
0000000000000000000000000000000000000000000000000000000000000000000000000000000000000000000000000000000000000000000000000000002800F0F0F0F0F0F0002828F0F0F0F0F0F0F0F0280000000000000000000000000000000000000000000000000000000000000000000000000000000000000000
310
00000000000000000000000000000000000000000000000000000000000000000000000000000000000000000000000000000000000000000000000000000000000000000000000000000000000000000000000000000000000000000000000000000000000000000000000000000000000000000000000000000000000000
310
00000000000000000000000000000000000000000000000000000000000000000000000000000000000000000000000000000000000000000000000000000000002828282828282828282828F0F0F0F0F0F0F02828000000000000000000000000000000000000000000000000000000000000000000000000000000000000
310
00000000000000000000000000000000000000000000000000000000000000000000000000000000000000000000000000000000000000000000000000000000000000000000000000000000000000000000000000000000000000000000000000000000000000000000000000000000000000000000000000000000000000
310
00000000000000000000000000000000000000000000000000000000000000000000000000000000000000000000000000000000000000000000000000000000000000000000000000000000000000000000000000000000000000000000000000000000000000000000000000000000000000000000000000000000000000
310
00000000000000000000000000000000000000000000000000000000000000000000000000000000000000000000000000000000000000000000000000000000000000000000000000000000000000000000000000000000000000000000000000000000000000000000000000000000000000000000000000000000000000
310
0000000000000000000000000000000000000000000000000000F0F0F0F0F0F0F0F0F0F0F0F0F0F0F0F0F0F0F0F0F0F0F0F0F0F0F0F0F0F0F0F0F0F0BEF0F0F0F0F0F0F0F0F0F0F0F0F0F0F0F0BEF0F0F0F0F0F0F0F0BE28F00000000000000000000000000000000000000000000000000000000000000000000000000000
310
00000000000000000000000000000000000000000000000000000000000000000000000000000000000000000000000000000000000000000000000000000000000000000000000000000000000000000000000000000000000000000000000000000000000000000000000000000000000000000000000000000000000000
310
00000000000000000000000000000000000000000000000000000000F00000000000000000000000000000000000000000000000000000000000BEBEBE00BEF0F0F0F0F0F0F0F0F0F0F0F0F0F0F000BEBE28282828282828BEBEBE000000000000000000000000000000000000000000000000000000000000000000000000
310
00000000000000000000000000000000000000000000000000000000000000000000000000000000000000000000000000000000000000000000000000000000000000000000000000000000000000000000000000000000000000000000000000000000000000000000000000000000000000000000000000000000000000
310
000000000000000000000000000000000000000000000000000000000000F00000000000000000000000000000000000000000000000000000000000BEBEBEBEBEBEBE2DF0F0F0BEF0F0BEF0F0BEF0F0F0BEBEF0F0F0F0F0F0F0BEBEBE00000000000000000000000000000000000000000000000000000000000000000000
310
00000000000000000000000000000000000000000000000000000000000000000000000000000000000000000000000000000000000000000000000000000000000000000000000000000000000000000000000000000000000000000000000000000000000000000000000000000000000000000000000000000000000000
310
0000000000000000000000000000000000000000000000000000000000000000F00000000000DCDCDCDCDCDC0000000000DCDCDCDCDCDC00000000000000BEBEBEBEBEBEBEBE2D0000BEBEBEBEBEBEBEBEBEBEBEBE002828282828000000F00000000000000000000000000000000000000000000000000000000000000000
310
00000000000000000000000000000000000000000000000000000000000000000000000000000000000000000000000000000000000000000000000000000000000000000000000000000000000000000000000000000000000000000000000000000000000000000000000000000000000000000000000000000000000000
310
00000000000000000000000000000000000000000000000000000000000000000000F00000000000DC00DCDCDCDC0000000000DCDCDCDCDCDC00000000000000BEBEBEBEBEBEBEBE002D2DBEBEBEBEBEBEBEBEBEBEBEBEBEBEBEBEBEBEBEBEBEF0000000000000000000000000000000000000000000000000000000000000
310
00000000000000000000000000000000000000000000000000000000000000000000000000000000000000000000000000000000000000000000000000000000000000000000000000000000000000000000000000000000000000000000000000000000000000000000000000000000000000000000000000000000000000
310
000000000000000000000000000000000000000000000000000000000000000000000000F0000000DCDCDC00BE000000000000DCDCDC0028BE000000000000000000BEBEBEBEF0BEBEBEBEBEBE2DBEBEBEBEBEBEBEBEBEBEBE282828282828282828F000000000000000000000000000000000000000000000000000000000
310
00000000000000000000000000000000000000000000000000000000000000000000000000000000000000000000000000000000000000000000000000000000000000000000000000000000000000000000000000000000000000000000000000000000000000000000000000000000000000000000000000000000000000
310
0000000000000000000000000000000000000000000000000000000000000000000000000000F000000000DCDCDC282800DC00000000DCDCDC2DBE28002D000000000000BEBEBEBEBEBEBEBEBEBEBEBEBEBEBEBEBEBEBEBEBEBEBEBEBEBEF0F0F0F0F0F0F00000000000000000000000000000000000000000000000000000
310
00000000000000000000000000000000000000000000000000000000000000000000000000000000000000000000000000000000000000000000000000000000000000000000000000000000000000000000000000000000000000000000000000000000000000000000000000000000000000000000000000000000000000
310
00000000000000000000000000000000000000000000000000000000000000000000000000000000F000000000002DBE2D2DBE2D00000000002DBEBE2D2D002D000000000000F0F0F0F0BEF0F0BEF0F0BEF0F0F0F0BEF0BEF0F0F0BEBEF0F0BEF0F0F0F0F0F0F0000000000000000000000000000000000000000000000000
310
00000000000000000000000000000000000000000000000000000000000000000000000000000000000000000000000000000000000000000000000000000000000000000000000000000000000000000000000000000000000000000000000000000000000000000000000000000000000000000000000000000000000000
310
000000000000000000000000000000000000000000000000000000000000000000000000000000000000F000000000DC2D2D2D2D2D2D000000002D2D2D2D2D2D2D2D0000000000000000F0BEBEBEBEBEBEBEBEBEBEBEBEBEBEBEBEBEBEBEBEBEBEBEBEBEBEBEBEBEF000000000000000000000000000000000000000000000
310
00000000000000000000000000000000000000000000000000000000000000000000000000000000000000000000000000000000000000000000000000000000000000000000000000000000000000000000000000000000000000000000000000000000000000000000000000000000000000000000000000000000000000
310
0000000000000000000000000000000000000000000000000000000000000000000000000000000000000000F000000000DCDC2D2D2D2D0000000000DC2D002D2D00002D0000000000000000000000000000000000000000000000000000000000000000000000000000F00000000000000000000000000000000000000000
310
00000000000000000000000000000000000000000000000000000000000000000000000000000000000000000000000000000000000000000000000000000000000000000000000000000000000000000000000000000000000000000000000000000000000000000000000000000000000000000000000000000000000000
310
00000000000000000000000000000000000000000000000000000000000000000000000000000000000000000000F0000000000000002DDCDC000000000000002D2D2DDC00000000000000000000000000000000000000000000000000000000000000000000000000000000F0000000000000000000000000000000000000
310
00000000000000000000000000000000000000000000000000000000000000000000000000000000000000000000000000000000000000000000000000000000000000000000000000000000000000000000000000000000000000000000000000000000000000000000000000000000000000000000000000000000000000
310
000000000000000000000000000000000000000000000000000000000000000000000000000000000000000000000000F000000000000000000000000000000000000000DCDC00000000000000000000000000000000000000000000000000000000000000000000000000000000F000000000000000000000000000000000
310
00000000000000000000000000000000000000000000000000000000000000000000000000000000000000000000000000000000000000000000000000000000000000000000000000000000000000000000000000000000000000000000000000000000000000000000000000000000000000000000000000000000000000
310
0000000000000000000000000000000000000000000000000000000000000000000000000000000000000000000000000000F000000000000000000000000000000000000000000000000000000000000000000000000000000000000000000000000000000000000000000000000000F00000000000000000000000000000
310
00000000000000000000000000000000000000000000000000000000000000000000000000000000000000000000000000000000000000000000000000000000000000000000000000000000000000000000000000000000000000000000000000000000000000000000000000000000000000000000000000000000000000
310
00000000000000000000000000000000000000000000000000000000000000000000000000000000000000000000000000000000F000000000000000000000000000000000000000000000000000000000000000000000000000000000000000000000000000000000000000000000000000F0000000000000000000000000
310
00000000000000000000000000000000000000000000000000000000000000000000000000000000000000000000000000000000000000000000000000000000000000000000000000000000000000000000000000000000000000000000000000000000000000000000000000000000000000000000000000000000000000
310
000000000000000000000000000000000000000000000000000000000000000000000000000000000000000000000000000000000000F0000000002D2D2D2D2D2D2D2D2DDCDC2D2D2D2D2D2D2D2D2D000000000000000000000000002D2D2D2D2D2D2D2DDCDC2D2D2D2D2D2D2D2D000000000000F000000000000000000000
310
00000000000000000000000000000000000000000000000000000000000000000000000000000000000000000000000000000000000000000000000000000000000000000000000000000000000000000000000000000000000000000000000000000000000000000000000000000000000000000000000000000000000000
310
0000000000000000000000000000000000000000000000000000000000000000000000000000000000000000000000000000000000000000F0000000002D002D2D2D2D2D2D2DDCDC2D2D2D2D2D2D2D2D2D000000000000000000000000002D002D2D2D2D2D2DDCDC2D2D2D2D2D2D002D000000000000F00000000000000000
310
00000000000000000000000000000000000000000000000000000000000000000000000000000000000000000000000000000000000000000000000000000000000000000000000000000000000000000000000000000000000000000000000000000000000000000000000000000000000000000000000000000000000000
310
00000000000000000000000000000000000000000000000000000000000000000000000000000000000000000000000000000000000000000000F0000000002D002D000000000000DCDC000000000000002D2D2D2D2D2D0000000000000000002D002D0000000000DCDC00000000002D002D000000000000F0000000000000
310
00000000000000000000000000000000000000000000000000000000000000000000000000000000000000000000000000000000000000000000000000000000000000000000000000000000000000000000000000000000000000000000000000000000000000000000000000000000000000000000000000000000000000
310
000000000000000000000000000000000000000000000000000000000000000000000000000000000000000000000000000000000000000000000000F0000000002D002D0000000000000000000000000000002D2D00DCDCDC0000000000000000002D002D0000000000000000000000002D002D000000000000F000000000
310
00000000000000000000000000000000000000000000000000000000000000000000000000000000000000000000000000000000000000000000000000000000000000000000000000000000000000000000000000000000000000000000000000000000000000000000000000000000000000000000000000000000000000
310
0000000000000000000000000000000000000000000000000000000000000000000000000000000000000000000000000000000000000000000000000000F0000000002D002D0000000000000000000000000000002D2D000000000000000000000000002D002D0000000000000000000000002D002D000000000000F00000
310
00000000000000000000000000000000000000000000000000000000000000000000000000000000000000000000000000000000000000000000000000000000000000000000000000000000000000000000000000000000000000000000000000000000000000000000000000000000000000000000000000000000000000
310
00000000000000000000000000000000000000000000000000000000000000000000000000000000000000000000000000000000000000000000000000000000F0000000002D28BE282828282828282828282828282828BE2D2DDC2D000000000000000000002D28BE282800282828282828002828BE282D2D2D2D2D2D00F0
310
00000000000000000000000000000000000000000000000000000000000000000000000000000000000000000000000000000000000000000000000000000000000000000000000000000000000000000000000000000000000000000000000000000000000000000000000000000000000000000000000000000000000000
310
000000000000000000000000000000000000000000000000000000000000000000000000000000000000000000000000000000000000000000000000000000000000F000000000282828282828282828282828282828282828BE2D2DDC2D000000000000000000002828BE282828282828282828282828BE282800002D2D00
310
00F00000000000000000000000000000000000000000000000000000000000000000000000000000000000000000000000000000000000000000000000000000000000000000000000000000000000000000000000000000000000000000000000000000000000000000000000000000000000000000000000000000000000
310
0000000000000000000000000000000000000000000000000000000000000000000000000000000000000000000000000000000000000000000000000000000000000000F00000000000280000280000000000BE000000002800002800000000000000000000000000002800BE282800000000BE0000002828BE282800DCDC
310
2D0000F0000000000000000000000000000000000000000000000000000000000000000000000000000000000000000000000000000000000000000000000000000000000000000000000000000000000000000000000000000000000000000000000000000000000000000000000000000000000000000000000000000000
310
00000000000000000000000000000000000000000000000000000000000000000000000000000000000000000000000000000000000000000000000000000000000000000000F000000000002D2828282828282828BE28282828282828282800000000000000000000282828282828280000000000BE000000002828282800
310
DCDC2D0000F000000000000000000000000000000000000000000000000000000000000000000000000000000000000000000000000000000000000000000000000000000000000000000000000000000000000000000000000000000000000000000000000000000000000000000000000000000000000000000000000000
310
000000000000000000000000000000000000000000000000000000000000000000000000000000000000000000000000000000000000000000000000000000000000000000000000F000000000282DBE00000000000000BE000000000000BEBEBE000000000000000000002828BEBEBE28280000000000BE00000000000000
310
2800DCDC2D0000F00000000000000000000000000000000000000000000000000000000000000000000000000000000000000000000000000000000000000000000000000000000000000000000000000000000000000000000000000000000000000000000000000000000000000000000000000000000000000000000000
310
0000000000000000000000000000000000000000000000000000000000000000000000000000000000000000000000000000000000000000000000000000000000000000000000000000F000000000282D0000000000000000BE000000000000002D2828282828000000000000282828282828282800000000BE0000000000
310
00002800002D2D0000F0000000000000000000000000000000000000000000000000000000000000000000000000000000000000000000000000000000000000000000000000000000000000000000000000000000000000000000000000000000000000000000000000000000000000000000000000000000000000000000
310
00000000000000000000000000000000000000000000000000000000000000000000000000000000000000000000000000000000000000000000000000000000000000000000000000000000F000000000BE2DBEBEBEBEBEBEBEBEBEBEBEBEBEBEBEBE2D28BEBEBE28BE2D000000BE28BE28282828BE28BEBEBEBEBEBEBEBE
310
BEBEBEBE282D2D2D2D0000F000000000000000000000000000000000000000000000000000000000000000000000000000000000000000000000000000000000000000000000000000000000000000000000000000000000000000000000000000000000000000000000000000000000000000000000000000000000000000
310
000000000000000000000000000000000000000000000000000000000000000000000000000000000000000000000000000000000000000000000000000000000000000000000000000000000000F000000000002D0000000000000000BE000000000000002D282828282800DC00000000280028282828BE2800000000BE00
310
0000000000002D00002D2D0000F00000000000000000000000000000000000000000000000000000000000000000000000000000000000000000000000000000000000000000000000000000000000000000000000000000000000000000000000000000000000000000000000000000000000000000000000000000000000
310
0000000000000000000000000000000000000000000000000000000000000000000000000000000000000000000000000000000000000000000000000000000000000000000000000000000000000000F000000000282DBE00000000000000BE000000000000BEBE2D0000002D0000000000002D2828282828280000000000
310
BE000000000000002D00002DDC0000F0000000000000000000000000000000000000000000000000000000000000000000000000000000000000000000000000000000000000000000000000000000000000000000000000000000000000000000000000000000000000000000000000000000000000000000000000000000
310
00000000000000000000000000000000000000000000000000000000000000000000000000000000000000000000000000000000000000000000000000000000000000000000000000000000000000000000F0000000002D2DBE000000BE000000BE000000BE0000BE2D2D0000002D0000000000002D28BEBEBEBE28000000
310
0000BE0000000000BE002D00002DDC0000F000000000000000000000000000000000000000000000000000000000000000000000000000000000000000000000000000000000000000000000000000000000000000000000000000000000000000000000000000000000000000000000000000000000000000000000000000
310
000000000000000000000000000000000000000000000000000000000000000000000000000000000000000000000000000000000000000000000000000000000000000000000000000000000000000000000000F0000000002D2DBE2D2D2DBE2D2D2D2D2D2D2DBE2D2DBE282D2DDCDC2D0000000000002D28282D2DBE2D2D
310
2D2D2D2D2D2D2D2D2D2DBE2D2D00002DDC0000F00000000000000000000000000000000000000000000000000000000000000000000000000000000000000000000000000000000000000000000000000000000000000000000000000000000000000000000000000000000000000000000000000000000000000000000000
310
0000000000000000000000000000000000000000000000000000000000000000000000000000000000000000000000000000000000000000000000000000000000000000000000000000000000000000000000000000F0000000002D282828BE282828282828282828282828BE280000DCDC2D0000000000002D00002D2828
310
282828282828282828282828BE282D00002D2D0000F0000000000000000000000000000000000000000000000000000000000000000000000000000000000000000000000000000000000000000000000000000000000000000000000000000000000000000000000000000000000000000000000000000000000000000000
310
00000000000000000000000000000000000000000000000000000000000000000000000000000000000000000000000000000000000000000000000000000000000000000000000000000000000000000000000000000000F0000000002D000028282828282828282828282800000000000000002D0000000000002D00002D
310
282828282828282828282828282828282D00DCDC2D0000F000000000000000000000000000000000000000000000000000000000000000000000000000000000000000000000000000000000000000000000000000000000000000000000000000000000000000000000000000000000000000000000000000000000000000
310
000000000000000000000000000000000000000000000000000000000000000000000000000000000000000000000000000000000000000000000000000000000000000000000000000000000000000000000000000000000000F0000000002D0000000000000028BE282800000000000000000000002D0000000000002D00
310
002DBEBEBEBE00002828282D2D2D282828282D00DCDC2D0000F00000000000000000000000000000000000000000000000000000000000000000000000000000000000000000000000000000000000000000000000000000000000000000000000000000000000000000000000000000000000000000000000000000000000
310
0000000000000000000000000000000000000000000000000000000000000000000000000000000000000000000000000000000000000000000000000000000000000000000000000000000000000000000000000000000000000000F0000000002D000000000000002828282800000000000000000000002D000000000000
310
2D00002D00282800000028282828002D002828002D00002D2D0000F0000000000000000000000000000000000000000000000000000000000000000000000000000000000000000000000000000000000000000000000000000000000000000000000000000000000000000000000000000000000000000000000000000000
310
00000000000000000000000000000000000000000000000000000000000000000000000000000000000000000000000000000000000000000000000000000000000000000000000000000000000000000000000000000000000000000000F0000000002D000000000000002800BE2800000000000000000000002D00000000
310
00002D00002D00000000000028282828DCDC000000002D00002D2D0000F000000000000000000000000000000000000000000000000000000000000000000000000000000000000000000000000000000000000000000000000000000000000000000000000000000000000000000000000000000000000000000000000000
310
000000000000000000000000000000000000000000000000000000000000000000000000000000000000000000000000000000000000000000000000000000000000000000000000000000000000000000000000000000000000000000000000F0000000002D000000000000002800BE2800000000000000000000002D0000
310
000000002D00002D00000000000028282828DCDC000000002D00002D2D0000F00000000000000000000000000000000000000000000000000000000000000000000000000000000000000000000000000000000000000000000000000000000000000000000000000000000000000000000000000000000000000000000000
310
0000000000000000000000000000000000000000000000000000000000000000000000000000000000000000000000000000000000000000000000000000000000000000000000000000000000000000000000000000000000000000000000000000F0000000002D000000000000002800BE2800000000000000000000002D
310
0000000000002D00002D00000000000028282828002D000000002D00002D2D0000F0000000000000000000000000000000000000000000000000000000000000000000000000000000000000000000000000000000000000000000000000000000000000000000000000000000000000000000000000000000000000000000
310
00000000000000000000000000000000000000000000000000000000000000000000000000000000000000000000000000000000000000000000000000000000000000000000000000000000000000000000000000000000000000000000000000000000F0000000002D000000000000002828282800000000000000000000
310
002D0000000000002D00002D0000000000002828282D2D2D2D2D2D2D2D2D2D2D2D2D00F000000000000000000000000000000000000000000000000000000000000000000000000000000000000000000000000000000000000000000000000000000000000000000000000000000000000000000000000000000000000000
310
000000000000000000000000000000000000000000000000000000000000000000000000000000000000000000000000000000000000000000000000000000000000000000000000000000000000000000000000000000000000000000000000000000000000F0000000002D0000000000000000002DDC0000000000000000
310
0000002D0000000000002D00002D00000000000000002D000000000000002D000000000000F00000000000000000000000000000000000000000000000000000000000000000000000000000000000000000000000000000000000000000000000000000000000000000000000000000000000000000000000000000000000
310
0000000000000000000000000000000000000000000000000000000000000000000000000000000000000000000000000000000000000000000000000000000000000000000000000000000000000000000000000000000000000000000000000000000000000000F0000000002D0000000000000000002D00000000000000
310
00000000002D0000000000002D00002D00000000000000002D000000000000002D000000000000F0000000000000000000000000000000000000000000000000000000000000000000000000000000000000000000000000000000000000000000000000000000000000000000000000000000000000000000000000000000
310
00000000000000000000000000000000000000000000000000000000000000000000000000000000000000000000000000000000000000000000000000000000000000000000000000000000000000000000000000000000000000000000000000000000000000000000F0000000002D2D2D2DDCDCDC2D2D2D2D2D2D2D2D2D
310
DCDC2D2D2D2D2D2D0000000000002DDCDC2D2D2D2DDCDC2D2D2D2D2D2DDCDCDC2D2D2D000000000000F000000000000000000000000000000000000000000000000000000000000000000000000000000000000000000000000000000000000000000000000000000000000000000000000000000000000000000000000000
310
000000000000000000000000000000000000000000000000000000000000000000000000000000000000000000000000000000000000000000000000000000000000000000000000000000000000000000000000000000000000000000000000000000000000000000000000F0000000002D2D0000DCDCDC00000000000000
310
0000DCDC00000000002D0000000000002DDCDC00000000DCDC000000000000DCDCDC00002D000000000000F00000000000000000000000000000000000000000000000000000000000000000000000000000000000000000000000000000000000000000000000000000000000000000000000000000000000000000000000
310
0000000000000000000000000000000000000000000000000000000000000000000000000000000000000000000000000000000000000000000000000000000000000000000000000000000000000000000000000000000000000000000000000000000000000000000000000000F0000000002D2D2D2D2D2D2D2D2D2D2DDC
310
DC2D2D2D2D2D2D2D2D2D2D2D0000000000002D2D2D2D2D2D2D2D2DDCDCDC2D2D2D2D2D2D2D2D2D000000000000F0000000000000000000000000000000000000000000000000000000000000000000000000000000000000000000000000000000000000000000000000000000000000000000000000000000000000000000
310
00000000000000000000000000000000000000000000000000000000000000000000000000000000000000000000000000000000000000000000000000000000000000000000000000000000000000000000000000000000000000000000000000000000000000000000000000000000F00000000000000000000000000000
310
0000000000000000000000000000000000000000000000000000000000000000000000000000000000000000000000F000000000000000000000000000000000000000000000000000000000000000000000000000000000000000000000000000000000000000000000000000000000000000000000000000000000000000
310
000000000000000000000000000000000000000000000000000000000000000000000000000000000000000000000000000000000000000000000000000000000000000000000000000000000000000000000000000000000000000000000000000000000000000000000000000000000000F0000000000000000000000000
310
00000000000000000000000000000000000000000000000000000000000000000000000000000000000000000000000000F00000000000000000000000000000000000000000000000000000000000000000000000000000000000000000000000000000000000000000000000000000000000000000000000000000000000
310
0000000000000000000000000000000000000000000000000000000000000000000000000000000000000000000000000000000000000000000000000000000000000000000000000000000000000000000000000000000000000000000000000000000000000000000000000000000000000000F000000000000000000000
310
000000000000000000000000000000000000000000000000000000000000000000000000000000000000000000000000000000F0000000000000000000000000000000000000000000000000000000000000000000000000000000000000000000000000000000000000000000000000000000000000000000000000000000
310
00000000000000000000000000000000000000000000000000000000000000000000000000000000000000000000000000000000000000000000000000000000000000000000000000000000000000000000000000000000000000000000000000000000000000000000000000000000000000000000F0F0F0F0F0F0F0F0F0
310
F0F0F0F0F0F0F0F0F0F0F0F0F0F0F0F0F0F0F0F0F0F0F0F0F0F0F0F0F0F0F0F0F0F0F0F0F0F0F0F0F0F0F0F0F0F0F0F0F0F0F0F0F0F000000000000000000000000000000000000000000000000000000000000000000000000000000000000000000000000000000000000000000000000000000000000000000000000000
310
00000000000000000000000000000000000000000000000000000000000000000000000000000000000000000000000000000000000000000000000000000000000000000000000000000000000000000000000000000000000000000000000000000000000000000000000000000000000000000000000000000000000000
310
00000000000000000000000000000000000000000000000000000000000000000000000000000000000000000000000000000000000000000000000000000000000000000000000000000000000000000000000000000000000000000000000000000000000000000000000000000000000000000000000000000000000000
310
00000000000000000000000000000000000000000000000000000000000000000000000000000000000000000000000000000000000000000000000000000000000000000000000000000000000000000000000000000000000000000000000000000000000000000000000000000000000000000000000000000000000000
310
00000000000000000000000000000000000000000000000000000000000000000000000000000000000000000000000000000000000000000000000000000000000000000000000000000000000000000000000000000000000000000000000000000000000000000000000000000000000000000000000000000000000000
310
00000000000000000000000000000000000000000000000000000000000000000000000000000000000000000000000000000000000000000000000000000000000000000000000000000000000000000000000000000000000000000000000000000000000000000000000000000000000000000000000000000000000000
310
00000000000000000000000000000000000000000000000000000000000000000000000000000000000000000000000000000000000000000000000000000000000000000000000000000000000000000000000000000000000000000000000000000000000000000000000000000000000000000000000000000000000000
310
00000000000000000000000000000000000000000000000000000000000000000000000000000000000000000000000000000000000000000000000000000000000000000000000000000000000000000000000000000000000000000000000000000000000000000000000000000000000000000000000000000000000000
310
00000000000000000000000000000000000000000000000000000000000000000000000000000000000000000000000000000000000000000000000000000000000000000000000000000000000000000000000000000000000000000000000000000000000000000000000000000000000000000000000000000000000000
310
00000000000000000000000000000000000000000000000000000000000000000000000000000000000000000000000000000000000000000000000000000000000000000000000000000000000000000000000000000000000000000000000000000000000000000000000000000000000000000000000000000000000000
310
00000000000000000000000000000000BE0000000000000000000000000000000000000000000000000000000000000000000000000000000000000000000000000000000000000000000000000000000000000000000000000000000000000000000000000000000000000000000000000000000000000000000000000000
310
00000000000000000000000000000000000000000000000000000000000000000000000000000000000000000000000000000000000000000000000000000000000000000000000000000000000000000000000000000000000000000000000000000000000000000000000000000000000000000000000000000000000000
310
0000000000000000002D282828282828282828282828282828282828000000000000000000000000000000000000000000000000000000000000000000000000000000000000000000000000000000000000000000000000000000000000000000000000000000000000000000000000000000000000000000000000000000
310
00000000000000000000000000000000000000000000000000000000000000000000000000000000000000000000000000000000000000000000000000000000000000000000000000000000000000000000000000000000000000000000000000000000000000000000000000000000000000000000000000000000000000
310
00000000000000000000BEBEBE0000000028282828282800000000BEBE2800000000000000000000000000000000000000000000000000000000000000000000000000000000000000000000000000000000000000000000000000000000000000000000000000000000000000000000000000000000000000000000000000
310
00000000000000000000000000000000000000000000000000000000000000000000000000000000000000000000000000000000000000000000000000000000000000000000000000000000000000000000000000000000000000000000000000000000000000000000000000000000000000000000000000000000000000
310
000000000000000000000000282D000000000028282828282800000000002D280000000000000000000000000000000000000000000000000000000000000000000000000000000000000000000000000000000000000000000000000000000000000000000000000000000000000000000000000000000000000000000000
310
00000000000000000000000000000000000000000000000000000000000000000000000000000000000000000000000000000000000000000000000000000000000000000000000000000000000000000000000000000000000000000000000000000000000000000000000000000000000000000000000000000000000000
310
0000000000000000000000000000002D000000000000282828282800000000002D28282828280000000000000000000000000000000000000000000000000000000000000000000000000000000000000000000000000000000000000000000000000000000000000000000000000000000000000000000000000000000000
310
00000000000000000000000000000000000000000000000000000000000000000000000000000000000000000000000000000000000000000000000000000000000000000000000000000000000000000000000000000000000000000000000000000000000000000000000000000000000000000000000000000000000000
310
00000000000000000000000000000000282D2828282828282828BE282828282828282D2828282828BE0000000000000000000000000000000000000000000000000000000000000000000000000000000000000000000000000000000000000000000000000000000000000000000000000000000000000000000000000000
310
00000000000000000000000000000000000000000000000000000000000000000000000000000000000000000000000000000000000000000000000000000000000000000000000000000000000000000000000000000000000000000000000000000000000000000000000000000000000000000000000000000000000000
310
000000000000000000000000000000000000282D280028282828282828282828282800282D280000000000000000000000000000000000000000000000000000000000000000000000000000000000000000000000000000000000000000000000000000000000000000000000000000000000000000000000000000000000
310
00000000000000000000000000000000000000000000000000000000000000000000000000000000000000000000000000000000000000000000000000000000000000000000000000000000000000000000000000000000000000000000000000000000000000000000000000000000000000000000000000000000000000
310
0000000000000000000000000000000000000000BEBEBE282828BE00BE2828BE00BE282828BEBE28000000000000000000000000000000000000000000000000000000000000000000000000000000000000000000000000000000000000000000000000000000000000000000000000000000000000000000000000000000
310
00000000000000000000000000000000000000000000000000000000000000000000000000000000000000000000000000000000000000000000000000000000000000000000000000000000000000000000000000000000000000000000000000000000000000000000000000000000000000000000000000000000000000
310
00000000000000000000000000000000000000000000282828282800000028282828000000282828282800000000000000000000000000000000000000000000000000000000000000000000000000000000000000000000000000000000000000000000000000000000000000000000000000000000000000000000000000
310
00000000000000000000000000000000000000000000000000000000000000000000000000000000000000000000000000000000000000000000000000000000000000000000000000000000000000000000000000000000000000000000000000000000000000000000000000000000000000000000000000000000000000
310
00000000000000000000000000000000000000000000000000282828280000002800BE2800000000282828000000000000000000000000000000000000000000000000000000000000000000000000000000000000000000000000000000000000000000000000000000000000000000000000000000000000000000000000
310
00000000000000000000000000000000000000000000000000000000000000000000000000000000000000000000000000000000000000000000000000000000000000000000000000000000000000000000000000000000000000000000000000000000000000000000000000000000000000000000000000000000000000
310
00000000000000000000000000000000000000000000000000000028282800000028282828282800000028282800000000000000000000000000000000000000000000000000000000000000000000000000000000000000000000000000000000000000000000000000000000000000000000000000000000000000000000
310
00000000000000000000000000000000000000000000000000000000000000000000000000000000000000000000000000000000000000000000000000000000000000000000000000000000000000000000000000000000000000000000000000000000000000000000000000000000000000000000000000000000000000
310
00000000000000000000000000000000000000000000000000000000002828282828282800282828282828282828280000000000000000000000000000000000000000000000000000000000000000000000000000000000000000000000000000000000000000000000000000000000000000000000000000000000000000
310
00000000000000000000000000000000000000000000000000000000000000000000000000000000000000000000000000000000000000000000000000000000000000000000000000000000000000000000000000000000000000000000000000000000000000000000000000000000000000000000000000000000000000
310
00000000000000000000000000000000000000000000000000000000000000282800282800282828282828000000002828000000000000000000000000000000000000000000000000000000000000000000000000000000000000000000000000000000000000000000000000000000000000000000000000000000000000
310
00000000000000000000000000000000000000000000000000000000000000000000000000000000000000000000000000000000000000000000000000000000000000000000000000000000000000000000000000000000000000000000000000000000000000000000000000000000000000000000000000000000000000
310
0000000000000000000000000000000000000000000000000000000000000000002828282828BE2828BEBE2828BEBEBEBE282800000000000000000000000000000000000000000000000000000000000000000000000000000000000000000000000000000000000000000000000000000000000000000000000000000000
310
00000000000000000000000000000000000000000000000000000000000000000000000000000000000000000000000000000000000000000000000000000000000000000000000000000000000000000000000000000000000000000000000000000000000000000000000000000000000000000000000000000000000000
310
00000000000000000000000000000000000000000000000000000000000000000000002828282828002828282828280000282828280000000000000000000000000000000000000000000000000000000000000000000000000000000000000000000000000000000000000000000000000000000000000000000000000000
310
00000000000000000000000000000000000000000000000000000000000000000000000000000000000000000000000000000000000000000000000000000000000000000000000000000000000000000000000000000000000000000000000000000000000000000000000000000000000000000000000000000000000000
310
00000000000000000000000000000000000000000000000000000000000000000000000000282828002828282828282828282800002828000000000000000000000000000000000000000000000000000000000000000000000000000000000000000000000000000000000000000000000000000000000000000000000000
310
00000000000000000000000000000000000000000000000000000000000000000000000000000000000000000000000000000000000000000000000000000000000000000000000000000000000000000000000000000000000000000000000000000000000000000000000000000000000000000000000000000000000000
310
00000000000000000000000000000000000000000000000000000000000000000000000000000028282800000000282828282800000028282800000000000000000000000000000000000000000000000000000000000000000000000000000000000000000000000000000000000000000000000000000000000000000000
310
00000000000000000000000000000000000000000000000000000000000000000000000000000000000000000000000000000000000000000000000000000000000000000000000000000000000000000000000000000000000000000000000000000000000000000000000000000000000000000000000000000000000000
310
0000000000000000000000000000000000000000000000000000000000000000000000000000000028282828280000002800BE28000000282828282800000000000000000000000000000000000000000000000000000000000000000000000000000000000000000000000000000000000000000000000000000000000000
310
00000000000000000000000000000000000000000000000000000000000000000000000000000000000000000000000000000000000000000000000000000000000000000000000000000000000000000000000000000000000000000000000000000000000000000000000000000000000000000000000000000000000000
310
0000000000000000000000000000000000000000000000000000000000000000000000000000000000002828BE28282800002828282800002828282828280000000000000000000000000000000000000000000000000000000000000000000000000000000000000000000000000000000000000000000000000000000000
310
00000000000000000000000000000000000000000000000000000000000000000000000000000000000000000000000000000000000000000000000000000000000000000000000000000000000000000000000000000000000000000000000000000000000000000000000000000000000000000000000000000000000000
310
00000000000000000000000000000000000000000000000000000000000000000000000000000000000000002828BE2828282800BE2828BE00282828282828BE000000000000000000000000000000000000000000000000000000000000000000000000000000000000000000000000000000000000000000000000000000
310
00000000000000000000000000000000000000000000000000000000000000000000000000000000000000000000000000000000000000000000000000000000000000000000000000000000000000000000000000000000000000000000000000000000000000000000000000000000000000000000000000000000000000
310
00000000000000000000000000000000000000000000000000000000000000000000000000000000000000000000282828002828282828282828282828280028BE2800000000000000000000000000000000000000000000000000000000000000000000000000000000000000000000000000000000000000000000000000
310
00000000000000000000000000000000000000000000000000000000000000000000000000000000000000000000000000000000000000000000000000000000000000000000000000000000000000000000000000000000000000000000000000000000000000000000000000000000000000000000000000000000000000
310
00000000000000000000000000000000000000000000000000000000000000000000000000000000000000000000000028282828282828282828282828282828282828280000000000000000000000000000000000000000000000000000000000000000000000000000000000000000000000000000000000000000000000
310
00000000000000000000000000000000000000000000000000000000000000000000000000000000000000000000000000000000000000000000000000000000000000000000000000000000000000000000000000000000000000000000000000000000000000000000000000000000000000000000000000000000000000
310
00000000000000000000000000000000000000000000000000000000000000000000000000000000000000000000000000000000000000000000002828000000000000000000000000000000000000000000000000000000000000000000000000000000000000000000000000000000000000000000000000000000000000
310
00000000000000000000000000000000000000000000000000000000000000000000000000000000000000000000000000000000000000000000000000000000000000000000000000000000000000000000000000000000000000000000000000000000000000000000000000000000000000000000000000000000000000
310
00000000000000000000000000000000000000000000000000000000000000000000000000000000000000000000000000000000000000000000000000000000000000000000000000000000000000000000000000000000000000000000000000000000000000000000000000000000000000000000000000000000000000
310
00000000000000000000000000000000000000000000000000000000000000000000000000000000000000000000000000000000000000000000000000000000000000000000000000000000000000000000000000000000000000000000000000000000000000000000000000000000000000000000000000000000000000
310
00000000000000000000000000000000000000000000000000000000000000000000000000000000000000000000000000000000000000000000000000000000000000000000000000000000000000000000000000000000000000000000000000000000000000000000000000000000000000000000000000000000000000
310
00000000000000000000000000000000000000000000000000000000000000000000000000000000000000000000000000000000000000000000000000000000000000000000000000000000000000000000000000000000000000000000000000000000000000000000000000000000000000000000000000000000000000
310
00000000000000000000000000000000000000000000000000000000000000000000000000000000000000000000000000000000000000000000000000000000000000000000000000000000000000000000000000000000000000000000000000000000000000000000000000000000000000000000000000000000000000
310
00000000000000000000000000000000000000000000000000000000000000000000000000000000000000000000000000000000000000000000000000000000000000000000000000000000000000000000000000000000000000000000000000000000000000000000000000000000000000000000000000000000000000
310
00000000000000000000000000000000000000000000000000000000000000000000000000000000000000000000000000000000000000000000000000000000000000000000000000000000000000000000000000000000000000000000000000000000000000000000000000000000000000000000000000000000000000
310
00000000000000000000000000000000000000000000000000000000000000000000000000000000000000000000000000000000000000000000000000000000000000000000000000000000000000000000000000000000000000000000000000000000000000000000000000000000000000000000000000000000000000
310
00000000000000000000000000000000000000000000000000000000000000000000000000000000000000000000000000000000000000000000000000000000000000000000000000000000000000000000000000000000000000000000000000000000000000000000000000000000000000000000000000000000000000
310
00000000000000000000000000000000000000000000000000000000000000000000000000000000000000000000000000000000000000000000000000000000000000000000000000000000000000000000000000000000000000000000000000000000000000000000000000000000000000000000000000000000000000
310
00000000000000000000000000000000000000000000000000000000000000000000000000000000000000000000000000000000000000000000000000000000000000000000000000000000000000000000000000000000000000000000000000000000000000000000000000000000000000000000000000000000000000
310
00000000000000000000000000000000000000000000000000000000000000000000000000000000000000000000000000000000000000000000000000000000000000000000000000000000000000000000000000000000000000000000000000000000000000000000000000000000000000000000000000000000000000
310
00000000000000000000000000000000000000000000000000000000000000000000000000000000000000000000000000000000000000000000000000000000000000000000000000000000000000000000000000000000000000000000000000000000000000000000000000000000000000000000000000000000000000
310
00000000000000000000000000000000000000000000000000000000000000000000000000000000000000000000000000000000000000000000000000000000000000000000000000000000000000000000000000000000000000000000000000000000000000000000000000000000000000000000000000000000000000
310
00000000000000000000000000000000000000000000000000000000000000000000000000000000000000000000000000000000000000000000000000000000000000000000000000000000000000000000000000000000000000000000000000000000000000000000000000000000000000000000000000000000000000
310
00000000000000000000000000000000000000000000000000000000000000000000000000000000000000000000000000000000000000000000000000000000000000000000000000000000000000000000000000000000000000000000000000000000000000000000000000000000000000000000000000000000000000
310
00000000000000000000000000000000000000000000000000000000000000000000000000000000000000000000000000000000000000000000000000000000000000000000000000000000000000000000000000000000000000000000000000000000000000000000000000000000000000000000000000000000000000
310
00000000000000000000000000000000000000000000000000000000000000000000000000000000000000000000000000000000000000000000000000000000000000000000000000000000000000000000000000000000000000000000000000000000000000000000000000000000000000000000000000000000000000
310
00000000000000000000000000000000000000000000000000000000000000000000000000000000000000000000000000000000000000000000000000000000000000000000000000000000000000000000000000000000000000000000000000000000000000000000000000000000000000000000000000000000000000
310
00000000000000000000000000000000000000000000000000000000000000000000000000000000000000000000000000000000000000000000000000000000000000000000000000000000000000000000000000000000000000000000000000000000000000000000000000000000000000000000000000000000000000
310
00000000000000000000000000000000000000000000000000000000000000000000000000000000000000000000000000000000000000000000000000000000000000000000000000000000000000000000000000000000000000000000000000000000000000000000000000000000000000000000000000000000000000
310
00000000000000000000000000000000000000000000000000000000000000000000000000000000000000000000000000000000000000000000000000000000000000000000000000000000000000000000000000000000000000000000000000000000000000000000000000000000000000000000000000000000000000
310
00000000000000000000000000000000000000000000000000000000000000000000000000000000000000000000000000000000000000000000000000000000000000000000000000000000000000000000000000000000000000000000000000000000000000000000000000000000000000000000000000000000000000
310
00000000000000000000000000000000000000000000000000000000000000000000000000000000000000000000000000000000000000000000000000000000000000000000000000000000000000000000000000000000000000000000000000000000000000000000000000000000000000000000000000000000000000
310
00000000000000000000000000000000000000000000000000000000000000000000000000000000000000000000000000000000000000000000000000000000000000000000000000000000000000000000000000000000000000000000000000000000000000000000000000000000000000000000000000000000000000
310
00000000000000000000000000000000000000000000000000000000000000000000000000000000000000000000000000000000000000000000000000000000000000000000000000000000000000000000000000000000000000000000000000000000000000000000000000000000000000000000000000000000000000
310
00000000000000000000000000000000000000000000000000000000000000000000000000000000000000000000000000000000000000000000000000000000000000000000000000000000000000000000000000000000000000000000000000000000000000000000000000000000000000000000000000000000000000
310
00000000000000000000000000000000000000000000000000000000000000000000000000000000000000000000000000000000000000000000000000000000000000000000000000000000000000000000000000000000000000000000000000000000000000000000000000000000000000000000000000000000000000
310
00000000000000000000000000000000000000000000000000000000000000000000000000000000000000000000000000000000000000000000000000000000000000000000000000000000000000000000000000000000000000000000000000000000000000000000000000000000000000000000000000000000000000
310
00000000000000000000000000000000000000000000000000000000000000000000000000000000000000000000000000000000000000000000000000000000000000000000000000000000000000000000000000000000000000000000000000000000000000000000000000000000000000000000000000000000000000
310
00000000000000000000000000000000000000000000000000000000000000000000000000000000000000000000000000000000000000000000000000000000000000000000000000000000000000000000000000000000000000000000000000000000000000000000000000000000000000000000000000000000000000
310
00000000000000000000000000000000000000000000000000000000000000000000000000000000000000000000000000000000000000000000000000000000000000000000000000000000000000000000000000000000000000000000000000000000000000000000000000000000000000000000000000000000000000
310
00000000000000000000000000000000000000000000000000000000000000000000000000000000000000000000000000000000000000000000000000000000000000000000000000000000000000000000000000000000000000000000000000000000000000000000000000000000000000000000000000000000000000
310
00000000000000000000000000000000000000000000000000000000000000000000000000000000000000000000000000000000000000000000000000000000000000000000000000000000000000000000000000000000000000000000000000000000000000000000000000000000000000000000000000000000000000
310
00000000000000000000000000000000000000000000000000000000000000000000000000000000000000000000000000000000000000000000000000000000000000000000000000000000000000000000000000000000000000000000000000000000000000000000000000000000000000000000000000000000000000
310
00000000000000000000000000000000000000000000000000000000000000000000000000000000000000000000000000000000000000000000000000000000000000000000000000000000000000000000000000000000000000000000000000000000000000000000000000000000000000000000000000000000000000
310
00000000000000000000000000000000000000000000000000000000000000000000000000000000000000000000000000000000000000000000000000000000000000000000000000000000000000000000000000000000000000000000000000000000000000000000000000000000000000000000000000000000000000
310
00000000000000000000000000000000000000000000000000000000000000000000000000000000000000000000000000000000000000000000000000000000000000000000000000000000000000000000000000000000000000000000000000000000000000000000000000000000000000000000000000000000000000
310
00000000000000000000000000000000000000000000000000000000000000000000000000000000000000000000000000000000000000000000000000000000000000000000000000000000000000000000000000000000000000000000000000000000000000000000000000000000000000000000000000000000000000
310
00000000000000000000000000000000000000000000000000000000000000000000000000000000000000000000000000000000000000000000000000000000000000000000000000000000000000000000000000000000000000000000000000000000000000000000000000000000000000000000000000000000000000
310
00000000000000000000000000000000000000000000000000000000000000000000000000000000000000000000000000000000000000000000000000000000000000000000000000000000000000000000000000000000000000000000000000000000000000000000000000000000000000000000000000000000000000
310
00000000000000000000000000000000000000000000000000000000000000000000000000000000000000000000000000000000000000000000000000000000000000000000000000000000000000000000000000000000000000000000000000000000000000000000000000000000000000000000000000000000000000
310
00000000000000000000000000000000000000000000000000000000000000000000000000000000000000000000000000000000000000000000000000000000000000000000000000000000000000000000000000000000000000000000000000000000000000000000000000000000000000000000000000000000000000
310
00000000000000000000000000000000000000000000000000000000000000000000000000000000000000000000000000000000000000000000000000000000000000000000000000000000000000000000000000000000000000000000000000000000000000000000000000000000000000000000000000000000000000
310
00000000000000000000000000000000000000000000000000000000000000000000000000000000000000000000000000000000000000000000000000000000000000000000000000000000000000000000000000000000000000000000000000000000000000000000000000000000000000000000000000000000000000
310
00000000000000000000000000000000000000000000000000000000000000000000000000000000000000000000000000000000000000000000000000000000000000000000000000000000000000000000000000000000000000000000000000000000000000000000000000000000000000000000000000000000000000
310
00000000000000000000000000000000000000000000000000000000000000000000000000000000000000000000000000000000000000000000000000000000000000000000000000000000000000000000000000000000000000000000000000000000000000000000000000000000000000000000000000000000000000
310
00000000000000000000000000000000000000000000000000000000000000000000000000000000000000000000000000000000000000000000000000000000000000000000000000000000000000000000000000000000000000000000000000000000000000000000000000000000000000000000000000000000000000
310
00000000000000000000000000000000000000000000000000000000000000000000000000000000000000000000000000000000000000000000000000000000000000000000000000000000000000000000000000000000000000000000000000000000000000000000000000000000000000000000000000000000000000
310
00000000000000000000000000000000000000000000000000000000000000000000000000000000000000000000000000000000000000000000000000000000000000000000000000000000000000000000000000000000000000000000000000000000000000000000000000000000000000000000000000000000000000
310
00000000000000000000000000000000000000000000000000000000000000000000000000000000000000000000000000000000000000000000000000000000000000000000000000000000000000000000000000000000000000000000000000000000000000000000000000000000000000000000000000000000000000
310
00000000000000000000000000000000000000000000000000000000000000000000000000000000000000000000000000000000000000000000000000000000000000000000000000000000000000000000000000000000000000000000000000000000000000000000000000000000000000000000000000000000000000
310
00000000000000000000000000000000000000000000000000000000000000000000000000000000000000000000000000000000000000000000000000000000000000000000000000000000000000000000000000000000000000000000000000000000000000000000000000000000000000000000000000000000000000
310
00000000000000000000000000000000000000000000000000000000000000000000000000000000000000000000000000000000000000000000000000000000000000000000000000000000000000000000000000000000000000000000000000000000000000000000000000000000000000000000000000000000000000
310
00000000000000000000000000000000000000000000000000000000000000000000000000000000000000000000000000000000000000000000000000000000000000000000000000000000000000000000000000000000000000000000000000000000000000000000000000000000000000000000000000000000000000
310
00000000000000000000000000000000000000000000000000000000000000000000000000000000000000000000000000000000000000000000000000000000000000000000000000000000000000000000000000000000000000000000000000000000000000000000000000000000000000000000000000000000000000
310
00000000000000000000000000000000000000000000000000000000000000000000000000000000000000000000000000000000000000000000000000000000000000000000000000000000000000000000000000000000000000000000000000000000000000000000000000000000000000000000000000000000000000
310
00000000000000000000000000000000000000000000000000000000000000000000000000000000000000000000000000000000000000000000000000000000000000000000000000000000000000000000000000000000000000000000000000000000000000000000000000000000000000000000000000000000000000
310
00000000000000000000000000000000000000000000000000000000000000000000000000000000000000000000000000000000000000000000000000000000000000000000000000000000000000000000000000000000000000000000000000000000000000000000000000000000000000000000000000000000000000
310
00000000000000000000000000000000000000000000000000000000000000000000000000000000000000000000000000000000000000000000000000000000000000000000000000000000000000000000000000000000000000000000000000000000000000000000000000000000000000000000000000000000000000
310
00000000000000000000000000000000000000000000000000000000000000000000000000000000000000000000000000000000000000000000000000000000000000000000000000000000000000000000000000000000000000000000000000000000000000000000000000000000000000000000000000000000000000
310
00000000000000000000000000000000000000000000000000000000000000000000000000000000000000000000000000000000000000000000000000000000000000000000000000000000000000000000000000000000000000000000000000000000000000000000000000000000000000000000000000000000000000
310
00000000000000000000000000000000000000000000000000000000000000000000000000000000000000000000000000000000000000000000000000000000000000000000000000000000000000000000000000000000000000000000000000000000000000000000000000000000000000000000000000000000000000
310
00000000000000000000000000000000000000000000000000000000000000000000000000000000000000000000000000000000000000000000000000000000000000000000000000000000000000000000000000000000000000000000000000000000000000000000000000000000000000000000000000000000000000
310
00000000000000000000000000000000000000000000000000000000000000000000000000000000000000000000000000000000000000000000000000000000000000000000000000000000000000000000000000000000000000000000000000000000000000000000000000000000000000000000000000000000000000
310
00000000000000000000000000000000000000000000000000000000000000000000000000000000000000000000000000000000000000000000000000000000000000000000000000000000000000000000000000000000000000000000000000000000000000000000000000000000000000000000000000000000000000
310
00000000000000000000000000000000000000000000000000000000000000000000000000000000000000000000000000000000000000000000000000000000000000000000000000000000000000000000000000000000000000000000000000000000000000000000000000000000000000000000000000000000000000
310
00000000000000000000000000000000000000000000000000000000000000000000000000000000000000000000000000000000000000000000000000000000000000000000000000000000000000000000000000000000000000000000000000000000000000000000000000000000000000000000000000000000000000
310
00000000000000000000000000000000000000000000000000000000000000000000000000000000000000000000000000000000000000000000000000000000000000000000000000000000000000000000000000000000000000000000000000000000000000000000000000000000000000000000000000000000000000
310
00000000000000000000000000000000000000000000000000000000000000000000000000000000000000000000000000000000000000000000000000000000000000000000000000000000000000000000000000000000000000000000000000000000000000000000000000000000000000000000000000000000000000
310
00000000000000000000000000000000000000000000000000000000000000000000000000000000000000000000000000000000000000000000000000000000000000000000000000000000000000000000000000000000000000000000000000000000000000000000000000000000000000000000000000000000000000
310
00000000000000000000000000000000000000000000000000000000000000000000000000000000000000000000000000000000000000000000000000000000000000000000000000000000000000000000000000000000000000000000000000000000000000000000000000000000000000000000000000000000000000
310
00000000000000000000000000000000000000000000000000000000000000000000000000000000000000000000000000000000000000000000000000000000000000000000000000000000000000000000000000000000000000000000000000000000000000000000000000000000000000000000000000000000000000
310
00000000000000000000000000000000000000000000000000000000000000000000000000000000000000000000000000000000000000000000000000000000000000000000000000000000000000000000000000000000000000000000000000000000000000000000000000000000000000000000000000000000000000
310
000000000000000000000000000000000000000000000000000000000000000000000000000000000000000000000000000000000000000000000000
  0
XRECORD
  5
1F4D
102
{ACAD_REACTORS
330
1F4C
102
}
330
1F4C
100
AcDbXrecord
280
     1
102
MATERIAL
148
0.0
149
0.0
149
0.0
 93
        0
 94
      127
282
     0
 72
     0
 77
     0
171
     0
175
     0
179
     0
273
     0
  0
XRECORD
  5
1F4F
102
{ACAD_REACTORS
330
1F4E
102
}
330
1F4E
100
AcDbXrecord
280
     1
102
MATERIAL
148
0.0
149
0.0
149
0.0
 93
        0
 94
      127
282
     0
 72
     0
 77
     0
171
     0
175
     0
179
     0
273
     0
  0
XRECORD
  5
1F51
102
{ACAD_REACTORS
330
1F50
102
}
330
1F50
100
AcDbXrecord
280
     1
102
MATERIAL
148
0.0
149
0.0
149
0.0
 93
        0
 94
      127
282
     0
 72
     0
 77
     0
171
     0
175
     0
179
     0
273
     0
  0
XRECORD
  5
1F53
102
{ACAD_REACTORS
330
1F52
102
}
330
1F52
100
AcDbXrecord
280
     1
102
ACAD_ROUNDTRIP_2012_MLEADER_STYLE
298
     1
  0
XRECORD
  5
1F55
102
{ACAD_REACTORS
330
1F54
102
}
330
1F54
100
AcDbXrecord
280
     1
102
RTVSPropertyOp0
 70
     1
102
RTVSPropertyOp1
 70
     1
102
RTVSPropertyOp2
 70
     1
102
RTVSPropertyOp3
 70
     1
102
RTVSPropertyOp4
 70
     1
102
RTVSPropertyOp5
 70
     1
102
RTVSPropertyOp6
 70
     1
102
RTVSPropertyOp7
 70
     1
102
RTVSPropertyOp8
 70
     1
102
RTVSPropertyOp9
 70
     1
102
RTVSPropertyOp10
 70
     1
102
RTVSPropertyOp11
 70
     1
102
RTVSPropertyOp12
 70
     1
102
RTVSPropertyOp13
 70
     1
102
RTVSPropertyOp14
 70
     1
102
RTVSPropertyOp15
 70
     1
102
RTVSPropertyOp16
 70
     1
102
RTVSPropertyOp17
 70
     1
102
RTVSPropertyOp18
 70
     1
102
RTVSPropertyOp19
 70
     1
102
RTVSPropertyOp20
 70
     1
102
RTVSPropertyOp21
 70
     1
102
RTVSPropertyOp22
 70
     1
102
RTVSPropertyOp23
 70
     1
102
RTVSPropertyOp24
 70
     1
102
RTVSPropertyOp25
 70
     1
102
RTVSPropertyOp26
 70
     1
102
RTVSPropertyOp27
 70
     1
102
RTVSPropertyOp28
 70
     1
102
RTVSPropertyOp29
 70
     1
102
RTVSPropertyOp30
 70
     1
102
RTVSPropertyOp31
 70
     1
102
RTVSPropertyOp32
 70
     1
102
RTVSPropertyOp33
 70
     1
102
RTVSPropertyOp34
 70
     1
102
RTVSPropertyOp35
 70
     1
102
RTVSPropertyOp36
 70
     1
102
RTVSPropertyOp37
 70
     1
102
RTVSPropertyOp38
 70
     1
102
RTVSPropertyOp39
 70
     1
102
RTVSPropertyOp40
 70
     1
102
RTVSPropertyOp41
 70
     1
102
RTVSPropertyOp42
 70
     1
102
RTVSPropertyOp43
 70
     1
102
RTVSPropertyOp44
 70
     1
102
RTVSPropertyOp45
 70
     1
102
RTVSPropertyOp46
 70
     1
102
RTVSPropertyOp47
 70
     1
102
RTVSPropertyOp48
 70
     1
102
RTVSPropertyOp49
 70
     1
102
RTVSPropertyOp50
 70
     1
102
RTVSPropertyOp51
 70
     0
102
RTVSPropertyOp52
 70
     0
102
RTVSPropertyOp53
 70
     1
102
RTVSPropertyOp54
 70
     1
102
RTVSPropertyOp55
 70
     1
102
RTVSPropertyOp56
 70
     1
102
RTVSPropertyOp57
 70
     1
102
RTVSPost2010Prop28
280
     1
102
RTVSPost2010PropOp28
 70
     1
102
RTVSPost2010Prop29
280
     1
102
RTVSPost2010PropOp29
 70
     1
102
RTVSPost2010Prop30
280
     0
102
RTVSPost2010PropOp30
 70
     1
102
RTVSPost2010Prop31
280
     0
102
RTVSPost2010PropOp31
 70
     1
102
RTVSPost2010Prop32
280
     0
102
RTVSPost2010PropOp32
 70
     1
102
RTVSPost2010Prop33
280
     0
102
RTVSPost2010PropOp33
 70
     1
102
RTVSPost2010Prop34
280
     0
102
RTVSPost2010PropOp34
 70
     1
102
RTVSPost2010Prop35
280
     0
102
RTVSPost2010PropOp35
 70
     1
102
RTVSPost2010Prop36
280
     0
102
RTVSPost2010PropOp36
 70
     1
102
RTVSPost2010Prop37
 90
       50
102
RTVSPost2010PropOp37
 70
     1
102
RTVSPost2010Prop38
140
0.0
102
RTVSPost2010PropOp38
 70
     1
102
RTVSPost2010Prop39
140
1.0
102
RTVSPost2010PropOp39
 70
     1
102
RTVSPost2010Prop40
 90
        0
102
RTVSPost2010PropOp40
 70
     1
102
RTVSPost2010Prop41ColorIndex
 90
       18
102
RTVSPost2010Prop41ColorRGB
 90
        0
102
RTVSPost2010PropOp41
 70
     1
102
RTVSPost2010Prop42
 90
       50
102
RTVSPost2010PropOp42
 70
     1
102
RTVSPost2010Prop43
 90
        3
102
RTVSPost2010PropOp43
 70
     1
102
RTVSPost2010Prop44ColorIndex
 90
        5
102
RTVSPost2010Prop44ColorRGB
 90
      255
102
RTVSPost2010PropOp44
 70
     1
102
RTVSPost2010Prop45
280
     0
102
RTVSPost2010PropOp45
 70
     1
102
RTVSPost2010Prop46
 90
       50
102
RTVSPost2010PropOp46
 70
     1
102
RTVSPost2010Prop47
 90
       50
102
RTVSPost2010PropOp47
 70
     1
102
RTVSPost2010Prop48
 90
       50
102
RTVSPost2010PropOp48
 70
     1
102
RTVSPost2010Prop49
280
     0
102
RTVSPost2010PropOp49
 70
     1
102
RTVSPost2010Prop50
 90
       50
102
RTVSPost2010PropOp50
 70
     1
102
RTVSPost2010Prop51ColorIndex
 90
      256
102
RTVSPost2010Prop51ColorRGB
 90
-16777216
102
RTVSPost2010PropOp51
 70
     0
102
RTVSPost2010Prop52
140
1.0
102
RTVSPost2010PropOp52
 70
     0
102
RTVSPost2010Prop53
 90
        2
102
RTVSPost2010PropOp53
 70
     1
102
RTVSPost2010Prop54
  1
strokes_ogs.tif
102
RTVSPost2010PropOp54
 70
     1
102
RTVSPost2010Prop55
280
     0
102
RTVSPost2010PropOp55
 70
     1
102
RTVSPost2010Prop56
140
1.0
102
RTVSPost2010PropOp56
 70
     1
102
RTVSPost2010Prop57
140
1.0
102
RTVSPost2010PropOp57
 70
     1
  0
XRECORD
  5
1F57
102
{ACAD_REACTORS
330
1F56
102
}
330
1F56
100
AcDbXrecord
280
     1
102
RTVSPropertyOp0
 70
     1
102
RTVSPropertyOp1
 70
     1
102
RTVSPropertyOp2
 70
     1
102
RTVSPropertyOp3
 70
     1
102
RTVSPropertyOp4
 70
     1
102
RTVSPropertyOp5
 70
     1
102
RTVSPropertyOp6
 70
     1
102
RTVSPropertyOp7
 70
     1
102
RTVSPropertyOp8
 70
     1
102
RTVSPropertyOp9
 70
     1
102
RTVSPropertyOp10
 70
     1
102
RTVSPropertyOp11
 70
     1
102
RTVSPropertyOp12
 70
     1
102
RTVSPropertyOp13
 70
     1
102
RTVSPropertyOp14
 70
     1
102
RTVSPropertyOp15
 70
     1
102
RTVSPropertyOp16
 70
     1
102
RTVSPropertyOp17
 70
     1
102
RTVSPropertyOp18
 70
     1
102
RTVSPropertyOp19
 70
     1
102
RTVSPropertyOp20
 70
     1
102
RTVSPropertyOp21
 70
     1
102
RTVSPropertyOp22
 70
     1
102
RTVSPropertyOp23
 70
     1
102
RTVSPropertyOp24
 70
     1
102
RTVSPropertyOp25
 70
     1
102
RTVSPropertyOp26
 70
     1
102
RTVSPropertyOp27
 70
     1
102
RTVSPropertyOp28
 70
     1
102
RTVSPropertyOp29
 70
     1
102
RTVSPropertyOp30
 70
     1
102
RTVSPropertyOp31
 70
     1
102
RTVSPropertyOp32
 70
     1
102
RTVSPropertyOp33
 70
     1
102
RTVSPropertyOp34
 70
     1
102
RTVSPropertyOp35
 70
     1
102
RTVSPropertyOp36
 70
     1
102
RTVSPropertyOp37
 70
     1
102
RTVSPropertyOp38
 70
     1
102
RTVSPropertyOp39
 70
     1
102
RTVSPropertyOp40
 70
     1
102
RTVSPropertyOp41
 70
     1
102
RTVSPropertyOp42
 70
     1
102
RTVSPropertyOp43
 70
     1
102
RTVSPropertyOp44
 70
     1
102
RTVSPropertyOp45
 70
     1
102
RTVSPropertyOp46
 70
     1
102
RTVSPropertyOp47
 70
     1
102
RTVSPropertyOp48
 70
     1
102
RTVSPropertyOp49
 70
     1
102
RTVSPropertyOp50
 70
     1
102
RTVSPropertyOp51
 70
     0
102
RTVSPropertyOp52
 70
     0
102
RTVSPropertyOp53
 70
     1
102
RTVSPropertyOp54
 70
     1
102
RTVSPropertyOp55
 70
     1
102
RTVSPropertyOp56
 70
     1
102
RTVSPropertyOp57
 70
     1
102
RTVSPost2010Prop28
280
     0
102
RTVSPost2010PropOp28
 70
     1
102
RTVSPost2010Prop29
280
     1
102
RTVSPost2010PropOp29
 70
     1
102
RTVSPost2010Prop30
280
     1
102
RTVSPost2010PropOp30
 70
     1
102
RTVSPost2010Prop31
280
     0
102
RTVSPost2010PropOp31
 70
     1
102
RTVSPost2010Prop32
280
     0
102
RTVSPost2010PropOp32
 70
     1
102
RTVSPost2010Prop33
280
     0
102
RTVSPost2010PropOp33
 70
     1
102
RTVSPost2010Prop34
280
     0
102
RTVSPost2010PropOp34
 70
     1
102
RTVSPost2010Prop35
280
     0
102
RTVSPost2010PropOp35
 70
     1
102
RTVSPost2010Prop36
280
     0
102
RTVSPost2010PropOp36
 70
     1
102
RTVSPost2010Prop37
 90
       50
102
RTVSPost2010PropOp37
 70
     1
102
RTVSPost2010Prop38
140
0.0
102
RTVSPost2010PropOp38
 70
     1
102
RTVSPost2010Prop39
140
1.0
102
RTVSPost2010PropOp39
 70
     1
102
RTVSPost2010Prop40
 90
        0
102
RTVSPost2010PropOp40
 70
     1
102
RTVSPost2010Prop41ColorIndex
 90
       18
102
RTVSPost2010Prop41ColorRGB
 90
        0
102
RTVSPost2010PropOp41
 70
     1
102
RTVSPost2010Prop42
 90
       50
102
RTVSPost2010PropOp42
 70
     1
102
RTVSPost2010Prop43
 90
        3
102
RTVSPost2010PropOp43
 70
     1
102
RTVSPost2010Prop44ColorIndex
 90
        5
102
RTVSPost2010Prop44ColorRGB
 90
      255
102
RTVSPost2010PropOp44
 70
     1
102
RTVSPost2010Prop45
280
     0
102
RTVSPost2010PropOp45
 70
     1
102
RTVSPost2010Prop46
 90
       50
102
RTVSPost2010PropOp46
 70
     1
102
RTVSPost2010Prop47
 90
       50
102
RTVSPost2010PropOp47
 70
     1
102
RTVSPost2010Prop48
 90
       50
102
RTVSPost2010PropOp48
 70
     1
102
RTVSPost2010Prop49
280
     0
102
RTVSPost2010PropOp49
 70
     1
102
RTVSPost2010Prop50
 90
       50
102
RTVSPost2010PropOp50
 70
     1
102
RTVSPost2010Prop51ColorIndex
 90
      256
102
RTVSPost2010Prop51ColorRGB
 90
-16777216
102
RTVSPost2010PropOp51
 70
     0
102
RTVSPost2010Prop52
140
1.0
102
RTVSPost2010PropOp52
 70
     0
102
RTVSPost2010Prop53
 90
        2
102
RTVSPost2010PropOp53
 70
     1
102
RTVSPost2010Prop54
  1
strokes_ogs.tif
102
RTVSPost2010PropOp54
 70
     1
102
RTVSPost2010Prop55
280
     0
102
RTVSPost2010PropOp55
 70
     1
102
RTVSPost2010Prop56
140
1.0
102
RTVSPost2010PropOp56
 70
     1
102
RTVSPost2010Prop57
140
1.0
102
RTVSPost2010PropOp57
 70
     1
  0
XRECORD
  5
1F59
102
{ACAD_REACTORS
330
1F58
102
}
330
1F58
100
AcDbXrecord
280
     1
102
RTVSPropertyOp0
 70
     1
102
RTVSPropertyOp1
 70
     1
102
RTVSPropertyOp2
 70
     1
102
RTVSPropertyOp3
 70
     1
102
RTVSPropertyOp4
 70
     1
102
RTVSPropertyOp5
 70
     1
102
RTVSPropertyOp6
 70
     1
102
RTVSPropertyOp7
 70
     1
102
RTVSPropertyOp8
 70
     1
102
RTVSPropertyOp9
 70
     1
102
RTVSPropertyOp10
 70
     1
102
RTVSPropertyOp11
 70
     1
102
RTVSPropertyOp12
 70
     1
102
RTVSPropertyOp13
 70
     1
102
RTVSPropertyOp14
 70
     1
102
RTVSPropertyOp15
 70
     1
102
RTVSPropertyOp16
 70
     1
102
RTVSPropertyOp17
 70
     1
102
RTVSPropertyOp18
 70
     1
102
RTVSPropertyOp19
 70
     1
102
RTVSPropertyOp20
 70
     1
102
RTVSPropertyOp21
 70
     1
102
RTVSPropertyOp22
 70
     1
102
RTVSPropertyOp23
 70
     1
102
RTVSPropertyOp24
 70
     1
102
RTVSPropertyOp25
 70
     1
102
RTVSPropertyOp26
 70
     1
102
RTVSPropertyOp27
 70
     1
102
RTVSPropertyOp28
 70
     1
102
RTVSPropertyOp29
 70
     1
102
RTVSPropertyOp30
 70
     1
102
RTVSPropertyOp31
 70
     1
102
RTVSPropertyOp32
 70
     1
102
RTVSPropertyOp33
 70
     1
102
RTVSPropertyOp34
 70
     1
102
RTVSPropertyOp35
 70
     1
102
RTVSPropertyOp36
 70
     1
102
RTVSPropertyOp37
 70
     1
102
RTVSPropertyOp38
 70
     1
102
RTVSPropertyOp39
 70
     1
102
RTVSPropertyOp40
 70
     1
102
RTVSPropertyOp41
 70
     1
102
RTVSPropertyOp42
 70
     1
102
RTVSPropertyOp43
 70
     1
102
RTVSPropertyOp44
 70
     1
102
RTVSPropertyOp45
 70
     1
102
RTVSPropertyOp46
 70
     1
102
RTVSPropertyOp47
 70
     1
102
RTVSPropertyOp48
 70
     1
102
RTVSPropertyOp49
 70
     1
102
RTVSPropertyOp50
 70
     1
102
RTVSPropertyOp51
 70
     0
102
RTVSPropertyOp52
 70
     0
102
RTVSPropertyOp53
 70
     1
102
RTVSPropertyOp54
 70
     1
102
RTVSPropertyOp55
 70
     1
102
RTVSPropertyOp56
 70
     1
102
RTVSPropertyOp57
 70
     1
102
RTVSPost2010Prop28
280
     0
102
RTVSPost2010PropOp28
 70
     1
102
RTVSPost2010Prop29
280
     1
102
RTVSPost2010PropOp29
 70
     1
102
RTVSPost2010Prop30
280
     1
102
RTVSPost2010PropOp30
 70
     1
102
RTVSPost2010Prop31
280
     0
102
RTVSPost2010PropOp31
 70
     1
102
RTVSPost2010Prop32
280
     0
102
RTVSPost2010PropOp32
 70
     1
102
RTVSPost2010Prop33
280
     0
102
RTVSPost2010PropOp33
 70
     1
102
RTVSPost2010Prop34
280
     0
102
RTVSPost2010PropOp34
 70
     1
102
RTVSPost2010Prop35
280
     0
102
RTVSPost2010PropOp35
 70
     1
102
RTVSPost2010Prop36
280
     0
102
RTVSPost2010PropOp36
 70
     1
102
RTVSPost2010Prop37
 90
       50
102
RTVSPost2010PropOp37
 70
     1
102
RTVSPost2010Prop38
140
0.0
102
RTVSPost2010PropOp38
 70
     1
102
RTVSPost2010Prop39
140
1.0
102
RTVSPost2010PropOp39
 70
     1
102
RTVSPost2010Prop40
 90
        0
102
RTVSPost2010PropOp40
 70
     1
102
RTVSPost2010Prop41ColorIndex
 90
       18
102
RTVSPost2010Prop41ColorRGB
 90
        0
102
RTVSPost2010PropOp41
 70
     1
102
RTVSPost2010Prop42
 90
       50
102
RTVSPost2010PropOp42
 70
     1
102
RTVSPost2010Prop43
 90
        3
102
RTVSPost2010PropOp43
 70
     1
102
RTVSPost2010Prop44ColorIndex
 90
        5
102
RTVSPost2010Prop44ColorRGB
 90
      255
102
RTVSPost2010PropOp44
 70
     1
102
RTVSPost2010Prop45
280
     0
102
RTVSPost2010PropOp45
 70
     1
102
RTVSPost2010Prop46
 90
       50
102
RTVSPost2010PropOp46
 70
     1
102
RTVSPost2010Prop47
 90
       50
102
RTVSPost2010PropOp47
 70
     1
102
RTVSPost2010Prop48
 90
       50
102
RTVSPost2010PropOp48
 70
     1
102
RTVSPost2010Prop49
280
     0
102
RTVSPost2010PropOp49
 70
     1
102
RTVSPost2010Prop50
 90
       50
102
RTVSPost2010PropOp50
 70
     1
102
RTVSPost2010Prop51ColorIndex
 90
      256
102
RTVSPost2010Prop51ColorRGB
 90
-16777216
102
RTVSPost2010PropOp51
 70
     0
102
RTVSPost2010Prop52
140
1.0
102
RTVSPost2010PropOp52
 70
     0
102
RTVSPost2010Prop53
 90
        2
102
RTVSPost2010PropOp53
 70
     1
102
RTVSPost2010Prop54
  1
strokes_ogs.tif
102
RTVSPost2010PropOp54
 70
     1
102
RTVSPost2010Prop55
280
     0
102
RTVSPost2010PropOp55
 70
     1
102
RTVSPost2010Prop56
140
1.0
102
RTVSPost2010PropOp56
 70
     1
102
RTVSPost2010Prop57
140
1.0
102
RTVSPost2010PropOp57
 70
     1
  0
XRECORD
  5
1F5B
102
{ACAD_REACTORS
330
1F5A
102
}
330
1F5A
100
AcDbXrecord
280
     1
102
RTVSPropertyOp0
 70
     1
102
RTVSPropertyOp1
 70
     1
102
RTVSPropertyOp2
 70
     1
102
RTVSPropertyOp3
 70
     1
102
RTVSPropertyOp4
 70
     1
102
RTVSPropertyOp5
 70
     1
102
RTVSPropertyOp6
 70
     1
102
RTVSPropertyOp7
 70
     1
102
RTVSPropertyOp8
 70
     1
102
RTVSPropertyOp9
 70
     1
102
RTVSPropertyOp10
 70
     1
102
RTVSPropertyOp11
 70
     1
102
RTVSPropertyOp12
 70
     1
102
RTVSPropertyOp13
 70
     1
102
RTVSPropertyOp14
 70
     1
102
RTVSPropertyOp15
 70
     1
102
RTVSPropertyOp16
 70
     1
102
RTVSPropertyOp17
 70
     1
102
RTVSPropertyOp18
 70
     1
102
RTVSPropertyOp19
 70
     1
102
RTVSPropertyOp20
 70
     1
102
RTVSPropertyOp21
 70
     1
102
RTVSPropertyOp22
 70
     1
102
RTVSPropertyOp23
 70
     1
102
RTVSPropertyOp24
 70
     1
102
RTVSPropertyOp25
 70
     1
102
RTVSPropertyOp26
 70
     1
102
RTVSPropertyOp27
 70
     1
102
RTVSPropertyOp28
 70
     1
102
RTVSPropertyOp29
 70
     1
102
RTVSPropertyOp30
 70
     1
102
RTVSPropertyOp31
 70
     1
102
RTVSPropertyOp32
 70
     1
102
RTVSPropertyOp33
 70
     1
102
RTVSPropertyOp34
 70
     1
102
RTVSPropertyOp35
 70
     1
102
RTVSPropertyOp36
 70
     1
102
RTVSPropertyOp37
 70
     1
102
RTVSPropertyOp38
 70
     1
102
RTVSPropertyOp39
 70
     1
102
RTVSPropertyOp40
 70
     1
102
RTVSPropertyOp41
 70
     1
102
RTVSPropertyOp42
 70
     1
102
RTVSPropertyOp43
 70
     1
102
RTVSPropertyOp44
 70
     1
102
RTVSPropertyOp45
 70
     1
102
RTVSPropertyOp46
 70
     1
102
RTVSPropertyOp47
 70
     1
102
RTVSPropertyOp48
 70
     1
102
RTVSPropertyOp49
 70
     1
102
RTVSPropertyOp50
 70
     1
102
RTVSPropertyOp51
 70
     0
102
RTVSPropertyOp52
 70
     0
102
RTVSPropertyOp53
 70
     1
102
RTVSPropertyOp54
 70
     1
102
RTVSPropertyOp55
 70
     1
102
RTVSPropertyOp56
 70
     1
102
RTVSPropertyOp57
 70
     1
102
RTVSPost2010Prop28
280
     0
102
RTVSPost2010PropOp28
 70
     1
102
RTVSPost2010Prop29
280
     1
102
RTVSPost2010PropOp29
 70
     1
102
RTVSPost2010Prop30
280
     1
102
RTVSPost2010PropOp30
 70
     1
102
RTVSPost2010Prop31
280
     0
102
RTVSPost2010PropOp31
 70
     1
102
RTVSPost2010Prop32
280
     0
102
RTVSPost2010PropOp32
 70
     1
102
RTVSPost2010Prop33
280
     0
102
RTVSPost2010PropOp33
 70
     1
102
RTVSPost2010Prop34
280
     0
102
RTVSPost2010PropOp34
 70
     1
102
RTVSPost2010Prop35
280
     0
102
RTVSPost2010PropOp35
 70
     1
102
RTVSPost2010Prop36
280
     0
102
RTVSPost2010PropOp36
 70
     1
102
RTVSPost2010Prop37
 90
       50
102
RTVSPost2010PropOp37
 70
     1
102
RTVSPost2010Prop38
140
0.0
102
RTVSPost2010PropOp38
 70
     1
102
RTVSPost2010Prop39
140
1.0
102
RTVSPost2010PropOp39
 70
     1
102
RTVSPost2010Prop40
 90
        0
102
RTVSPost2010PropOp40
 70
     1
102
RTVSPost2010Prop41ColorIndex
 90
       18
102
RTVSPost2010Prop41ColorRGB
 90
        0
102
RTVSPost2010PropOp41
 70
     1
102
RTVSPost2010Prop42
 90
       50
102
RTVSPost2010PropOp42
 70
     1
102
RTVSPost2010Prop43
 90
        3
102
RTVSPost2010PropOp43
 70
     1
102
RTVSPost2010Prop44ColorIndex
 90
        5
102
RTVSPost2010Prop44ColorRGB
 90
      255
102
RTVSPost2010PropOp44
 70
     1
102
RTVSPost2010Prop45
280
     0
102
RTVSPost2010PropOp45
 70
     1
102
RTVSPost2010Prop46
 90
       50
102
RTVSPost2010PropOp46
 70
     1
102
RTVSPost2010Prop47
 90
       50
102
RTVSPost2010PropOp47
 70
     1
102
RTVSPost2010Prop48
 90
       50
102
RTVSPost2010PropOp48
 70
     1
102
RTVSPost2010Prop49
280
     0
102
RTVSPost2010PropOp49
 70
     1
102
RTVSPost2010Prop50
 90
       50
102
RTVSPost2010PropOp50
 70
     1
102
RTVSPost2010Prop51ColorIndex
 90
      256
102
RTVSPost2010Prop51ColorRGB
 90
-16777216
102
RTVSPost2010PropOp51
 70
     0
102
RTVSPost2010Prop52
140
1.0
102
RTVSPost2010PropOp52
 70
     0
102
RTVSPost2010Prop53
 90
        2
102
RTVSPost2010PropOp53
 70
     1
102
RTVSPost2010Prop54
  1
strokes_ogs.tif
102
RTVSPost2010PropOp54
 70
     1
102
RTVSPost2010Prop55
280
     0
102
RTVSPost2010PropOp55
 70
     1
102
RTVSPost2010Prop56
140
1.0
102
RTVSPost2010PropOp56
 70
     1
102
RTVSPost2010Prop57
140
1.0
102
RTVSPost2010PropOp57
 70
     1
  0
XRECORD
  5
1F5D
102
{ACAD_REACTORS
330
1F5C
102
}
330
1F5C
100
AcDbXrecord
280
     1
102
RTVSPropertyOp0
 70
     1
102
RTVSPropertyOp1
 70
     1
102
RTVSPropertyOp2
 70
     1
102
RTVSPropertyOp3
 70
     1
102
RTVSPropertyOp4
 70
     1
102
RTVSPropertyOp5
 70
     1
102
RTVSPropertyOp6
 70
     1
102
RTVSPropertyOp7
 70
     1
102
RTVSPropertyOp8
 70
     1
102
RTVSPropertyOp9
 70
     1
102
RTVSPropertyOp10
 70
     1
102
RTVSPropertyOp11
 70
     1
102
RTVSPropertyOp12
 70
     1
102
RTVSPropertyOp13
 70
     1
102
RTVSPropertyOp14
 70
     1
102
RTVSPropertyOp15
 70
     1
102
RTVSPropertyOp16
 70
     1
102
RTVSPropertyOp17
 70
     1
102
RTVSPropertyOp18
 70
     1
102
RTVSPropertyOp19
 70
     1
102
RTVSPropertyOp20
 70
     1
102
RTVSPropertyOp21
 70
     1
102
RTVSPropertyOp22
 70
     1
102
RTVSPropertyOp23
 70
     1
102
RTVSPropertyOp24
 70
     1
102
RTVSPropertyOp25
 70
     1
102
RTVSPropertyOp26
 70
     1
102
RTVSPropertyOp27
 70
     1
102
RTVSPropertyOp28
 70
     1
102
RTVSPropertyOp29
 70
     1
102
RTVSPropertyOp30
 70
     1
102
RTVSPropertyOp31
 70
     1
102
RTVSPropertyOp32
 70
     1
102
RTVSPropertyOp33
 70
     1
102
RTVSPropertyOp34
 70
     1
102
RTVSPropertyOp35
 70
     1
102
RTVSPropertyOp36
 70
     1
102
RTVSPropertyOp37
 70
     1
102
RTVSPropertyOp38
 70
     1
102
RTVSPropertyOp39
 70
     1
102
RTVSPropertyOp40
 70
     1
102
RTVSPropertyOp41
 70
     1
102
RTVSPropertyOp42
 70
     1
102
RTVSPropertyOp43
 70
     1
102
RTVSPropertyOp44
 70
     1
102
RTVSPropertyOp45
 70
     1
102
RTVSPropertyOp46
 70
     1
102
RTVSPropertyOp47
 70
     1
102
RTVSPropertyOp48
 70
     1
102
RTVSPropertyOp49
 70
     1
102
RTVSPropertyOp50
 70
     1
102
RTVSPropertyOp51
 70
     0
102
RTVSPropertyOp52
 70
     0
102
RTVSPropertyOp53
 70
     1
102
RTVSPropertyOp54
 70
     1
102
RTVSPropertyOp55
 70
     1
102
RTVSPropertyOp56
 70
     1
102
RTVSPropertyOp57
 70
     1
102
RTVSPost2010Prop28
280
     0
102
RTVSPost2010PropOp28
 70
     1
102
RTVSPost2010Prop29
280
     1
102
RTVSPost2010PropOp29
 70
     1
102
RTVSPost2010Prop30
280
     1
102
RTVSPost2010PropOp30
 70
     1
102
RTVSPost2010Prop31
280
     0
102
RTVSPost2010PropOp31
 70
     1
102
RTVSPost2010Prop32
280
     0
102
RTVSPost2010PropOp32
 70
     1
102
RTVSPost2010Prop33
280
     0
102
RTVSPost2010PropOp33
 70
     1
102
RTVSPost2010Prop34
280
     0
102
RTVSPost2010PropOp34
 70
     1
102
RTVSPost2010Prop35
280
     0
102
RTVSPost2010PropOp35
 70
     1
102
RTVSPost2010Prop36
280
     0
102
RTVSPost2010PropOp36
 70
     1
102
RTVSPost2010Prop37
 90
       50
102
RTVSPost2010PropOp37
 70
     1
102
RTVSPost2010Prop38
140
0.0
102
RTVSPost2010PropOp38
 70
     1
102
RTVSPost2010Prop39
140
1.0
102
RTVSPost2010PropOp39
 70
     1
102
RTVSPost2010Prop40
 90
        0
102
RTVSPost2010PropOp40
 70
     1
102
RTVSPost2010Prop41ColorIndex
 90
       18
102
RTVSPost2010Prop41ColorRGB
 90
        0
102
RTVSPost2010PropOp41
 70
     1
102
RTVSPost2010Prop42
 90
       50
102
RTVSPost2010PropOp42
 70
     1
102
RTVSPost2010Prop43
 90
        3
102
RTVSPost2010PropOp43
 70
     1
102
RTVSPost2010Prop44ColorIndex
 90
        5
102
RTVSPost2010Prop44ColorRGB
 90
      255
102
RTVSPost2010PropOp44
 70
     1
102
RTVSPost2010Prop45
280
     0
102
RTVSPost2010PropOp45
 70
     1
102
RTVSPost2010Prop46
 90
       50
102
RTVSPost2010PropOp46
 70
     1
102
RTVSPost2010Prop47
 90
       50
102
RTVSPost2010PropOp47
 70
     1
102
RTVSPost2010Prop48
 90
       50
102
RTVSPost2010PropOp48
 70
     1
102
RTVSPost2010Prop49
280
     0
102
RTVSPost2010PropOp49
 70
     1
102
RTVSPost2010Prop50
 90
       50
102
RTVSPost2010PropOp50
 70
     1
102
RTVSPost2010Prop51ColorIndex
 90
      256
102
RTVSPost2010Prop51ColorRGB
 90
-16777216
102
RTVSPost2010PropOp51
 70
     0
102
RTVSPost2010Prop52
140
1.0
102
RTVSPost2010PropOp52
 70
     0
102
RTVSPost2010Prop53
 90
        2
102
RTVSPost2010PropOp53
 70
     1
102
RTVSPost2010Prop54
  1
strokes_ogs.tif
102
RTVSPost2010PropOp54
 70
     1
102
RTVSPost2010Prop55
280
     0
102
RTVSPost2010PropOp55
 70
     1
102
RTVSPost2010Prop56
140
1.0
102
RTVSPost2010PropOp56
 70
     1
102
RTVSPost2010Prop57
140
1.0
102
RTVSPost2010PropOp57
 70
     1
  0
XRECORD
  5
1F5F
102
{ACAD_REACTORS
330
1F5E
102
}
330
1F5E
100
AcDbXrecord
280
     1
102
RTVSPropertyOp0
 70
     1
102
RTVSPropertyOp1
 70
     1
102
RTVSPropertyOp2
 70
     1
102
RTVSPropertyOp3
 70
     1
102
RTVSPropertyOp4
 70
     1
102
RTVSPropertyOp5
 70
     1
102
RTVSPropertyOp6
 70
     1
102
RTVSPropertyOp7
 70
     1
102
RTVSPropertyOp8
 70
     1
102
RTVSPropertyOp9
 70
     1
102
RTVSPropertyOp10
 70
     1
102
RTVSPropertyOp11
 70
     1
102
RTVSPropertyOp12
 70
     1
102
RTVSPropertyOp13
 70
     1
102
RTVSPropertyOp14
 70
     1
102
RTVSPropertyOp15
 70
     1
102
RTVSPropertyOp16
 70
     1
102
RTVSPropertyOp17
 70
     1
102
RTVSPropertyOp18
 70
     1
102
RTVSPropertyOp19
 70
     1
102
RTVSPropertyOp20
 70
     1
102
RTVSPropertyOp21
 70
     1
102
RTVSPropertyOp22
 70
     1
102
RTVSPropertyOp23
 70
     1
102
RTVSPropertyOp24
 70
     1
102
RTVSPropertyOp25
 70
     1
102
RTVSPropertyOp26
 70
     1
102
RTVSPropertyOp27
 70
     1
102
RTVSPropertyOp28
 70
     1
102
RTVSPropertyOp29
 70
     1
102
RTVSPropertyOp30
 70
     1
102
RTVSPropertyOp31
 70
     1
102
RTVSPropertyOp32
 70
     1
102
RTVSPropertyOp33
 70
     1
102
RTVSPropertyOp34
 70
     1
102
RTVSPropertyOp35
 70
     1
102
RTVSPropertyOp36
 70
     1
102
RTVSPropertyOp37
 70
     1
102
RTVSPropertyOp38
 70
     1
102
RTVSPropertyOp39
 70
     1
102
RTVSPropertyOp40
 70
     1
102
RTVSPropertyOp41
 70
     1
102
RTVSPropertyOp42
 70
     1
102
RTVSPropertyOp43
 70
     1
102
RTVSPropertyOp44
 70
     1
102
RTVSPropertyOp45
 70
     1
102
RTVSPropertyOp46
 70
     1
102
RTVSPropertyOp47
 70
     1
102
RTVSPropertyOp48
 70
     1
102
RTVSPropertyOp49
 70
     1
102
RTVSPropertyOp50
 70
     1
102
RTVSPropertyOp51
 70
     0
102
RTVSPropertyOp52
 70
     0
102
RTVSPropertyOp53
 70
     1
102
RTVSPropertyOp54
 70
     1
102
RTVSPropertyOp55
 70
     1
102
RTVSPropertyOp56
 70
     1
102
RTVSPropertyOp57
 70
     1
102
RTVSPost2010Prop28
280
     0
102
RTVSPost2010PropOp28
 70
     1
102
RTVSPost2010Prop29
280
     1
102
RTVSPost2010PropOp29
 70
     1
102
RTVSPost2010Prop30
280
     1
102
RTVSPost2010PropOp30
 70
     1
102
RTVSPost2010Prop31
280
     0
102
RTVSPost2010PropOp31
 70
     1
102
RTVSPost2010Prop32
280
     0
102
RTVSPost2010PropOp32
 70
     1
102
RTVSPost2010Prop33
280
     0
102
RTVSPost2010PropOp33
 70
     1
102
RTVSPost2010Prop34
280
     0
102
RTVSPost2010PropOp34
 70
     1
102
RTVSPost2010Prop35
280
     0
102
RTVSPost2010PropOp35
 70
     1
102
RTVSPost2010Prop36
280
     0
102
RTVSPost2010PropOp36
 70
     1
102
RTVSPost2010Prop37
 90
       50
102
RTVSPost2010PropOp37
 70
     1
102
RTVSPost2010Prop38
140
0.0
102
RTVSPost2010PropOp38
 70
     1
102
RTVSPost2010Prop39
140
1.0
102
RTVSPost2010PropOp39
 70
     1
102
RTVSPost2010Prop40
 90
        0
102
RTVSPost2010PropOp40
 70
     1
102
RTVSPost2010Prop41ColorIndex
 90
       18
102
RTVSPost2010Prop41ColorRGB
 90
        0
102
RTVSPost2010PropOp41
 70
     1
102
RTVSPost2010Prop42
 90
       50
102
RTVSPost2010PropOp42
 70
     1
102
RTVSPost2010Prop43
 90
        3
102
RTVSPost2010PropOp43
 70
     1
102
RTVSPost2010Prop44ColorIndex
 90
        5
102
RTVSPost2010Prop44ColorRGB
 90
      255
102
RTVSPost2010PropOp44
 70
     1
102
RTVSPost2010Prop45
280
     0
102
RTVSPost2010PropOp45
 70
     1
102
RTVSPost2010Prop46
 90
       50
102
RTVSPost2010PropOp46
 70
     1
102
RTVSPost2010Prop47
 90
       50
102
RTVSPost2010PropOp47
 70
     1
102
RTVSPost2010Prop48
 90
       50
102
RTVSPost2010PropOp48
 70
     1
102
RTVSPost2010Prop49
280
     0
102
RTVSPost2010PropOp49
 70
     1
102
RTVSPost2010Prop50
 90
       50
102
RTVSPost2010PropOp50
 70
     1
102
RTVSPost2010Prop51ColorIndex
 90
      256
102
RTVSPost2010Prop51ColorRGB
 90
-16777216
102
RTVSPost2010PropOp51
 70
     0
102
RTVSPost2010Prop52
140
1.0
102
RTVSPost2010PropOp52
 70
     0
102
RTVSPost2010Prop53
 90
        2
102
RTVSPost2010PropOp53
 70
     1
102
RTVSPost2010Prop54
  1
strokes_ogs.tif
102
RTVSPost2010PropOp54
 70
     1
102
RTVSPost2010Prop55
280
     0
102
RTVSPost2010PropOp55
 70
     1
102
RTVSPost2010Prop56
140
1.0
102
RTVSPost2010PropOp56
 70
     1
102
RTVSPost2010Prop57
140
1.0
102
RTVSPost2010PropOp57
 70
     1
  0
XRECORD
  5
1F61
102
{ACAD_REACTORS
330
1F60
102
}
330
1F60
100
AcDbXrecord
280
     1
102
RTVSPropertyOp0
 70
     0
102
RTVSPropertyOp1
 70
     0
102
RTVSPropertyOp2
 70
     0
102
RTVSPropertyOp3
 70
     0
102
RTVSPropertyOp4
 70
     0
102
RTVSPropertyOp5
 70
     0
102
RTVSPropertyOp6
 70
     0
102
RTVSPropertyOp7
 70
     0
102
RTVSPropertyOp8
 70
     0
102
RTVSPropertyOp9
 70
     0
102
RTVSPropertyOp10
 70
     0
102
RTVSPropertyOp11
 70
     0
102
RTVSPropertyOp12
 70
     0
102
RTVSPropertyOp13
 70
     0
102
RTVSPropertyOp14
 70
     2
102
RTVSPropertyOp15
 70
     0
102
RTVSPropertyOp16
 70
     0
102
RTVSPropertyOp17
 70
     0
102
RTVSPropertyOp18
 70
     0
102
RTVSPropertyOp19
 70
     0
102
RTVSPropertyOp20
 70
     0
102
RTVSPropertyOp21
 70
     0
102
RTVSPropertyOp22
 70
     0
102
RTVSPropertyOp23
 70
     0
102
RTVSPropertyOp24
 70
     0
102
RTVSPropertyOp25
 70
     0
102
RTVSPropertyOp26
 70
     0
102
RTVSPropertyOp27
 70
     0
102
RTVSPropertyOp28
 70
     1
102
RTVSPropertyOp29
 70
     1
102
RTVSPropertyOp30
 70
     1
102
RTVSPropertyOp31
 70
     1
102
RTVSPropertyOp32
 70
     1
102
RTVSPropertyOp33
 70
     1
102
RTVSPropertyOp34
 70
     1
102
RTVSPropertyOp35
 70
     1
102
RTVSPropertyOp36
 70
     1
102
RTVSPropertyOp37
 70
     1
102
RTVSPropertyOp38
 70
     1
102
RTVSPropertyOp39
 70
     1
102
RTVSPropertyOp40
 70
     1
102
RTVSPropertyOp41
 70
     1
102
RTVSPropertyOp42
 70
     1
102
RTVSPropertyOp43
 70
     1
102
RTVSPropertyOp44
 70
     1
102
RTVSPropertyOp45
 70
     1
102
RTVSPropertyOp46
 70
     1
102
RTVSPropertyOp47
 70
     1
102
RTVSPropertyOp48
 70
     1
102
RTVSPropertyOp49
 70
     1
102
RTVSPropertyOp50
 70
     1
102
RTVSPropertyOp51
 70
     0
102
RTVSPropertyOp52
 70
     0
102
RTVSPropertyOp53
 70
     1
102
RTVSPropertyOp54
 70
     1
102
RTVSPropertyOp55
 70
     1
102
RTVSPropertyOp56
 70
     1
102
RTVSPropertyOp57
 70
     1
102
RTVSPost2010Prop28
280
     0
102
RTVSPost2010PropOp28
 70
     1
102
RTVSPost2010Prop29
280
     1
102
RTVSPost2010PropOp29
 70
     1
102
RTVSPost2010Prop30
280
     1
102
RTVSPost2010PropOp30
 70
     1
102
RTVSPost2010Prop31
280
     0
102
RTVSPost2010PropOp31
 70
     1
102
RTVSPost2010Prop32
280
     0
102
RTVSPost2010PropOp32
 70
     1
102
RTVSPost2010Prop33
280
     0
102
RTVSPost2010PropOp33
 70
     1
102
RTVSPost2010Prop34
280
     0
102
RTVSPost2010PropOp34
 70
     1
102
RTVSPost2010Prop35
280
     0
102
RTVSPost2010PropOp35
 70
     1
102
RTVSPost2010Prop36
280
     0
102
RTVSPost2010PropOp36
 70
     1
102
RTVSPost2010Prop37
 90
       50
102
RTVSPost2010PropOp37
 70
     1
102
RTVSPost2010Prop38
140
0.0
102
RTVSPost2010PropOp38
 70
     1
102
RTVSPost2010Prop39
140
1.0
102
RTVSPost2010PropOp39
 70
     1
102
RTVSPost2010Prop40
 90
        0
102
RTVSPost2010PropOp40
 70
     1
102
RTVSPost2010Prop41ColorIndex
 90
       18
102
RTVSPost2010Prop41ColorRGB
 90
        0
102
RTVSPost2010PropOp41
 70
     1
102
RTVSPost2010Prop42
 90
       50
102
RTVSPost2010PropOp42
 70
     1
102
RTVSPost2010Prop43
 90
        3
102
RTVSPost2010PropOp43
 70
     1
102
RTVSPost2010Prop44ColorIndex
 90
        5
102
RTVSPost2010Prop44ColorRGB
 90
      255
102
RTVSPost2010PropOp44
 70
     1
102
RTVSPost2010Prop45
280
     0
102
RTVSPost2010PropOp45
 70
     1
102
RTVSPost2010Prop46
 90
       50
102
RTVSPost2010PropOp46
 70
     1
102
RTVSPost2010Prop47
 90
       50
102
RTVSPost2010PropOp47
 70
     1
102
RTVSPost2010Prop48
 90
       50
102
RTVSPost2010PropOp48
 70
     1
102
RTVSPost2010Prop49
280
     0
102
RTVSPost2010PropOp49
 70
     1
102
RTVSPost2010Prop50
 90
       50
102
RTVSPost2010PropOp50
 70
     1
102
RTVSPost2010Prop51ColorIndex
 90
      256
102
RTVSPost2010Prop51ColorRGB
 90
-16777216
102
RTVSPost2010PropOp51
 70
     0
102
RTVSPost2010Prop52
140
1.0
102
RTVSPost2010PropOp52
 70
     0
102
RTVSPost2010Prop53
 90
        2
102
RTVSPost2010PropOp53
 70
     1
102
RTVSPost2010Prop54
  1
strokes_ogs.tif
102
RTVSPost2010PropOp54
 70
     1
102
RTVSPost2010Prop55
280
     0
102
RTVSPost2010PropOp55
 70
     1
102
RTVSPost2010Prop56
140
1.0
102
RTVSPost2010PropOp56
 70
     1
102
RTVSPost2010Prop57
140
1.0
102
RTVSPost2010PropOp57
 70
     1
  0
XRECORD
  5
1F63
102
{ACAD_REACTORS
330
1F62
102
}
330
1F62
100
AcDbXrecord
280
     1
102
RTVSPropertyOp0
 70
     1
102
RTVSPropertyOp1
 70
     1
102
RTVSPropertyOp2
 70
     1
102
RTVSPropertyOp3
 70
     1
102
RTVSPropertyOp4
 70
     1
102
RTVSPropertyOp5
 70
     1
102
RTVSPropertyOp6
 70
     1
102
RTVSPropertyOp7
 70
     1
102
RTVSPropertyOp8
 70
     1
102
RTVSPropertyOp9
 70
     1
102
RTVSPropertyOp10
 70
     1
102
RTVSPropertyOp11
 70
     1
102
RTVSPropertyOp12
 70
     1
102
RTVSPropertyOp13
 70
     1
102
RTVSPropertyOp14
 70
     1
102
RTVSPropertyOp15
 70
     1
102
RTVSPropertyOp16
 70
     1
102
RTVSPropertyOp17
 70
     1
102
RTVSPropertyOp18
 70
     1
102
RTVSPropertyOp19
 70
     1
102
RTVSPropertyOp20
 70
     1
102
RTVSPropertyOp21
 70
     1
102
RTVSPropertyOp22
 70
     1
102
RTVSPropertyOp23
 70
     1
102
RTVSPropertyOp24
 70
     1
102
RTVSPropertyOp25
 70
     1
102
RTVSPropertyOp26
 70
     1
102
RTVSPropertyOp27
 70
     1
102
RTVSPropertyOp28
 70
     1
102
RTVSPropertyOp29
 70
     1
102
RTVSPropertyOp30
 70
     1
102
RTVSPropertyOp31
 70
     1
102
RTVSPropertyOp32
 70
     1
102
RTVSPropertyOp33
 70
     1
102
RTVSPropertyOp34
 70
     1
102
RTVSPropertyOp35
 70
     1
102
RTVSPropertyOp36
 70
     1
102
RTVSPropertyOp37
 70
     1
102
RTVSPropertyOp38
 70
     1
102
RTVSPropertyOp39
 70
     1
102
RTVSPropertyOp40
 70
     1
102
RTVSPropertyOp41
 70
     1
102
RTVSPropertyOp42
 70
     1
102
RTVSPropertyOp43
 70
     1
102
RTVSPropertyOp44
 70
     1
102
RTVSPropertyOp45
 70
     1
102
RTVSPropertyOp46
 70
     1
102
RTVSPropertyOp47
 70
     1
102
RTVSPropertyOp48
 70
     1
102
RTVSPropertyOp49
 70
     1
102
RTVSPropertyOp50
 70
     1
102
RTVSPropertyOp51
 70
     0
102
RTVSPropertyOp52
 70
     0
102
RTVSPropertyOp53
 70
     1
102
RTVSPropertyOp54
 70
     1
102
RTVSPropertyOp55
 70
     1
102
RTVSPropertyOp56
 70
     1
102
RTVSPropertyOp57
 70
     1
102
RTVSPost2010Prop28
280
     0
102
RTVSPost2010PropOp28
 70
     1
102
RTVSPost2010Prop29
280
     1
102
RTVSPost2010PropOp29
 70
     1
102
RTVSPost2010Prop30
280
     1
102
RTVSPost2010PropOp30
 70
     1
102
RTVSPost2010Prop31
280
     0
102
RTVSPost2010PropOp31
 70
     1
102
RTVSPost2010Prop32
280
     0
102
RTVSPost2010PropOp32
 70
     1
102
RTVSPost2010Prop33
280
     0
102
RTVSPost2010PropOp33
 70
     1
102
RTVSPost2010Prop34
280
     0
102
RTVSPost2010PropOp34
 70
     1
102
RTVSPost2010Prop35
280
     0
102
RTVSPost2010PropOp35
 70
     1
102
RTVSPost2010Prop36
280
     0
102
RTVSPost2010PropOp36
 70
     1
102
RTVSPost2010Prop37
 90
       50
102
RTVSPost2010PropOp37
 70
     1
102
RTVSPost2010Prop38
140
0.0
102
RTVSPost2010PropOp38
 70
     1
102
RTVSPost2010Prop39
140
1.0
102
RTVSPost2010PropOp39
 70
     1
102
RTVSPost2010Prop40
 90
        0
102
RTVSPost2010PropOp40
 70
     1
102
RTVSPost2010Prop41ColorIndex
 90
       18
102
RTVSPost2010Prop41ColorRGB
 90
        0
102
RTVSPost2010PropOp41
 70
     1
102
RTVSPost2010Prop42
 90
       50
102
RTVSPost2010PropOp42
 70
     1
102
RTVSPost2010Prop43
 90
        3
102
RTVSPost2010PropOp43
 70
     1
102
RTVSPost2010Prop44ColorIndex
 90
        5
102
RTVSPost2010Prop44ColorRGB
 90
      255
102
RTVSPost2010PropOp44
 70
     1
102
RTVSPost2010Prop45
280
     0
102
RTVSPost2010PropOp45
 70
     1
102
RTVSPost2010Prop46
 90
       50
102
RTVSPost2010PropOp46
 70
     1
102
RTVSPost2010Prop47
 90
       50
102
RTVSPost2010PropOp47
 70
     1
102
RTVSPost2010Prop48
 90
       50
102
RTVSPost2010PropOp48
 70
     1
102
RTVSPost2010Prop49
280
     0
102
RTVSPost2010PropOp49
 70
     1
102
RTVSPost2010Prop50
 90
       50
102
RTVSPost2010PropOp50
 70
     1
102
RTVSPost2010Prop51ColorIndex
 90
      256
102
RTVSPost2010Prop51ColorRGB
 90
-16777216
102
RTVSPost2010PropOp51
 70
     0
102
RTVSPost2010Prop52
140
1.0
102
RTVSPost2010PropOp52
 70
     0
102
RTVSPost2010Prop53
 90
        2
102
RTVSPost2010PropOp53
 70
     1
102
RTVSPost2010Prop54
  1
strokes_ogs.tif
102
RTVSPost2010PropOp54
 70
     1
102
RTVSPost2010Prop55
280
     0
102
RTVSPost2010PropOp55
 70
     1
102
RTVSPost2010Prop56
140
1.0
102
RTVSPost2010PropOp56
 70
     1
102
RTVSPost2010Prop57
140
1.0
102
RTVSPost2010PropOp57
 70
     1
  0
XRECORD
  5
1F65
102
{ACAD_REACTORS
330
1F64
102
}
330
1F64
100
AcDbXrecord
280
     1
102
RTVSPropertyOp0
 70
     1
102
RTVSPropertyOp1
 70
     1
102
RTVSPropertyOp2
 70
     1
102
RTVSPropertyOp3
 70
     1
102
RTVSPropertyOp4
 70
     1
102
RTVSPropertyOp5
 70
     1
102
RTVSPropertyOp6
 70
     1
102
RTVSPropertyOp7
 70
     1
102
RTVSPropertyOp8
 70
     1
102
RTVSPropertyOp9
 70
     1
102
RTVSPropertyOp10
 70
     1
102
RTVSPropertyOp11
 70
     1
102
RTVSPropertyOp12
 70
     1
102
RTVSPropertyOp13
 70
     1
102
RTVSPropertyOp14
 70
     1
102
RTVSPropertyOp15
 70
     1
102
RTVSPropertyOp16
 70
     1
102
RTVSPropertyOp17
 70
     1
102
RTVSPropertyOp18
 70
     1
102
RTVSPropertyOp19
 70
     1
102
RTVSPropertyOp20
 70
     1
102
RTVSPropertyOp21
 70
     1
102
RTVSPropertyOp22
 70
     1
102
RTVSPropertyOp23
 70
     1
102
RTVSPropertyOp24
 70
     1
102
RTVSPropertyOp25
 70
     1
102
RTVSPropertyOp26
 70
     1
102
RTVSPropertyOp27
 70
     1
102
RTVSPropertyOp28
 70
     1
102
RTVSPropertyOp29
 70
     1
102
RTVSPropertyOp30
 70
     1
102
RTVSPropertyOp31
 70
     1
102
RTVSPropertyOp32
 70
     1
102
RTVSPropertyOp33
 70
     1
102
RTVSPropertyOp34
 70
     1
102
RTVSPropertyOp35
 70
     1
102
RTVSPropertyOp36
 70
     1
102
RTVSPropertyOp37
 70
     1
102
RTVSPropertyOp38
 70
     1
102
RTVSPropertyOp39
 70
     1
102
RTVSPropertyOp40
 70
     1
102
RTVSPropertyOp41
 70
     1
102
RTVSPropertyOp42
 70
     1
102
RTVSPropertyOp43
 70
     1
102
RTVSPropertyOp44
 70
     1
102
RTVSPropertyOp45
 70
     1
102
RTVSPropertyOp46
 70
     1
102
RTVSPropertyOp47
 70
     1
102
RTVSPropertyOp48
 70
     1
102
RTVSPropertyOp49
 70
     1
102
RTVSPropertyOp50
 70
     1
102
RTVSPropertyOp51
 70
     0
102
RTVSPropertyOp52
 70
     0
102
RTVSPropertyOp53
 70
     1
102
RTVSPropertyOp54
 70
     1
102
RTVSPropertyOp55
 70
     1
102
RTVSPropertyOp56
 70
     1
102
RTVSPropertyOp57
 70
     1
102
RTVSPost2010Prop28
280
     0
102
RTVSPost2010PropOp28
 70
     1
102
RTVSPost2010Prop29
280
     1
102
RTVSPost2010PropOp29
 70
     1
102
RTVSPost2010Prop30
280
     1
102
RTVSPost2010PropOp30
 70
     1
102
RTVSPost2010Prop31
280
     0
102
RTVSPost2010PropOp31
 70
     1
102
RTVSPost2010Prop32
280
     0
102
RTVSPost2010PropOp32
 70
     1
102
RTVSPost2010Prop33
280
     0
102
RTVSPost2010PropOp33
 70
     1
102
RTVSPost2010Prop34
280
     0
102
RTVSPost2010PropOp34
 70
     1
102
RTVSPost2010Prop35
280
     0
102
RTVSPost2010PropOp35
 70
     1
102
RTVSPost2010Prop36
280
     0
102
RTVSPost2010PropOp36
 70
     1
102
RTVSPost2010Prop37
 90
       50
102
RTVSPost2010PropOp37
 70
     1
102
RTVSPost2010Prop38
140
0.0
102
RTVSPost2010PropOp38
 70
     1
102
RTVSPost2010Prop39
140
1.0
102
RTVSPost2010PropOp39
 70
     1
102
RTVSPost2010Prop40
 90
        0
102
RTVSPost2010PropOp40
 70
     1
102
RTVSPost2010Prop41ColorIndex
 90
       18
102
RTVSPost2010Prop41ColorRGB
 90
        0
102
RTVSPost2010PropOp41
 70
     1
102
RTVSPost2010Prop42
 90
       50
102
RTVSPost2010PropOp42
 70
     1
102
RTVSPost2010Prop43
 90
        3
102
RTVSPost2010PropOp43
 70
     1
102
RTVSPost2010Prop44ColorIndex
 90
        5
102
RTVSPost2010Prop44ColorRGB
 90
      255
102
RTVSPost2010PropOp44
 70
     1
102
RTVSPost2010Prop45
280
     0
102
RTVSPost2010PropOp45
 70
     1
102
RTVSPost2010Prop46
 90
       50
102
RTVSPost2010PropOp46
 70
     1
102
RTVSPost2010Prop47
 90
       50
102
RTVSPost2010PropOp47
 70
     1
102
RTVSPost2010Prop48
 90
       50
102
RTVSPost2010PropOp48
 70
     1
102
RTVSPost2010Prop49
280
     0
102
RTVSPost2010PropOp49
 70
     1
102
RTVSPost2010Prop50
 90
       50
102
RTVSPost2010PropOp50
 70
     1
102
RTVSPost2010Prop51ColorIndex
 90
      256
102
RTVSPost2010Prop51ColorRGB
 90
-16777216
102
RTVSPost2010PropOp51
 70
     0
102
RTVSPost2010Prop52
140
1.0
102
RTVSPost2010PropOp52
 70
     0
102
RTVSPost2010Prop53
 90
        2
102
RTVSPost2010PropOp53
 70
     1
102
RTVSPost2010Prop54
  1
strokes_ogs.tif
102
RTVSPost2010PropOp54
 70
     1
102
RTVSPost2010Prop55
280
     0
102
RTVSPost2010PropOp55
 70
     1
102
RTVSPost2010Prop56
140
1.0
102
RTVSPost2010PropOp56
 70
     1
102
RTVSPost2010Prop57
140
1.0
102
RTVSPost2010PropOp57
 70
     1
  0
XRECORD
  5
1F67
102
{ACAD_REACTORS
330
1F66
102
}
330
1F66
100
AcDbXrecord
280
     1
102
RTVSPropertyOp0
 70
     1
102
RTVSPropertyOp1
 70
     1
102
RTVSPropertyOp2
 70
     1
102
RTVSPropertyOp3
 70
     1
102
RTVSPropertyOp4
 70
     1
102
RTVSPropertyOp5
 70
     1
102
RTVSPropertyOp6
 70
     1
102
RTVSPropertyOp7
 70
     1
102
RTVSPropertyOp8
 70
     1
102
RTVSPropertyOp9
 70
     1
102
RTVSPropertyOp10
 70
     1
102
RTVSPropertyOp11
 70
     1
102
RTVSPropertyOp12
 70
     1
102
RTVSPropertyOp13
 70
     1
102
RTVSPropertyOp14
 70
     1
102
RTVSPropertyOp15
 70
     1
102
RTVSPropertyOp16
 70
     1
102
RTVSPropertyOp17
 70
     1
102
RTVSPropertyOp18
 70
     1
102
RTVSPropertyOp19
 70
     1
102
RTVSPropertyOp20
 70
     1
102
RTVSPropertyOp21
 70
     1
102
RTVSPropertyOp22
 70
     1
102
RTVSPropertyOp23
 70
     1
102
RTVSPropertyOp24
 70
     1
102
RTVSPropertyOp25
 70
     1
102
RTVSPropertyOp26
 70
     1
102
RTVSPropertyOp27
 70
     1
102
RTVSPropertyOp28
 70
     1
102
RTVSPropertyOp29
 70
     1
102
RTVSPropertyOp30
 70
     1
102
RTVSPropertyOp31
 70
     1
102
RTVSPropertyOp32
 70
     1
102
RTVSPropertyOp33
 70
     1
102
RTVSPropertyOp34
 70
     1
102
RTVSPropertyOp35
 70
     1
102
RTVSPropertyOp36
 70
     1
102
RTVSPropertyOp37
 70
     1
102
RTVSPropertyOp38
 70
     1
102
RTVSPropertyOp39
 70
     1
102
RTVSPropertyOp40
 70
     1
102
RTVSPropertyOp41
 70
     1
102
RTVSPropertyOp42
 70
     1
102
RTVSPropertyOp43
 70
     1
102
RTVSPropertyOp44
 70
     1
102
RTVSPropertyOp45
 70
     1
102
RTVSPropertyOp46
 70
     1
102
RTVSPropertyOp47
 70
     1
102
RTVSPropertyOp48
 70
     1
102
RTVSPropertyOp49
 70
     1
102
RTVSPropertyOp50
 70
     1
102
RTVSPropertyOp51
 70
     0
102
RTVSPropertyOp52
 70
     0
102
RTVSPropertyOp53
 70
     1
102
RTVSPropertyOp54
 70
     1
102
RTVSPropertyOp55
 70
     1
102
RTVSPropertyOp56
 70
     1
102
RTVSPropertyOp57
 70
     1
102
RTVSPost2010Prop28
280
     0
102
RTVSPost2010PropOp28
 70
     1
102
RTVSPost2010Prop29
280
     1
102
RTVSPost2010PropOp29
 70
     1
102
RTVSPost2010Prop30
280
     1
102
RTVSPost2010PropOp30
 70
     1
102
RTVSPost2010Prop31
280
     0
102
RTVSPost2010PropOp31
 70
     1
102
RTVSPost2010Prop32
280
     0
102
RTVSPost2010PropOp32
 70
     1
102
RTVSPost2010Prop33
280
     0
102
RTVSPost2010PropOp33
 70
     1
102
RTVSPost2010Prop34
280
     0
102
RTVSPost2010PropOp34
 70
     1
102
RTVSPost2010Prop35
280
     0
102
RTVSPost2010PropOp35
 70
     1
102
RTVSPost2010Prop36
280
     0
102
RTVSPost2010PropOp36
 70
     1
102
RTVSPost2010Prop37
 90
       50
102
RTVSPost2010PropOp37
 70
     1
102
RTVSPost2010Prop38
140
0.0
102
RTVSPost2010PropOp38
 70
     1
102
RTVSPost2010Prop39
140
1.0
102
RTVSPost2010PropOp39
 70
     1
102
RTVSPost2010Prop40
 90
        0
102
RTVSPost2010PropOp40
 70
     1
102
RTVSPost2010Prop41ColorIndex
 90
       18
102
RTVSPost2010Prop41ColorRGB
 90
        0
102
RTVSPost2010PropOp41
 70
     1
102
RTVSPost2010Prop42
 90
       50
102
RTVSPost2010PropOp42
 70
     1
102
RTVSPost2010Prop43
 90
        3
102
RTVSPost2010PropOp43
 70
     1
102
RTVSPost2010Prop44ColorIndex
 90
        5
102
RTVSPost2010Prop44ColorRGB
 90
      255
102
RTVSPost2010PropOp44
 70
     1
102
RTVSPost2010Prop45
280
     0
102
RTVSPost2010PropOp45
 70
     1
102
RTVSPost2010Prop46
 90
       50
102
RTVSPost2010PropOp46
 70
     1
102
RTVSPost2010Prop47
 90
       50
102
RTVSPost2010PropOp47
 70
     1
102
RTVSPost2010Prop48
 90
       50
102
RTVSPost2010PropOp48
 70
     1
102
RTVSPost2010Prop49
280
     0
102
RTVSPost2010PropOp49
 70
     1
102
RTVSPost2010Prop50
 90
       50
102
RTVSPost2010PropOp50
 70
     1
102
RTVSPost2010Prop51ColorIndex
 90
      256
102
RTVSPost2010Prop51ColorRGB
 90
-16777216
102
RTVSPost2010PropOp51
 70
     0
102
RTVSPost2010Prop52
140
1.0
102
RTVSPost2010PropOp52
 70
     0
102
RTVSPost2010Prop53
 90
        2
102
RTVSPost2010PropOp53
 70
     1
102
RTVSPost2010Prop54
  1
strokes_ogs.tif
102
RTVSPost2010PropOp54
 70
     1
102
RTVSPost2010Prop55
280
     0
102
RTVSPost2010PropOp55
 70
     1
102
RTVSPost2010Prop56
140
1.0
102
RTVSPost2010PropOp56
 70
     1
102
RTVSPost2010Prop57
140
1.0
102
RTVSPost2010PropOp57
 70
     1
  0
XRECORD
  5
1F69
102
{ACAD_REACTORS
330
1F68
102
}
330
1F68
100
AcDbXrecord
280
     1
102
RTVSPropertyOp0
 70
     1
102
RTVSPropertyOp1
 70
     1
102
RTVSPropertyOp2
 70
     1
102
RTVSPropertyOp3
 70
     1
102
RTVSPropertyOp4
 70
     1
102
RTVSPropertyOp5
 70
     1
102
RTVSPropertyOp6
 70
     1
102
RTVSPropertyOp7
 70
     1
102
RTVSPropertyOp8
 70
     1
102
RTVSPropertyOp9
 70
     1
102
RTVSPropertyOp10
 70
     1
102
RTVSPropertyOp11
 70
     1
102
RTVSPropertyOp12
 70
     1
102
RTVSPropertyOp13
 70
     1
102
RTVSPropertyOp14
 70
     1
102
RTVSPropertyOp15
 70
     1
102
RTVSPropertyOp16
 70
     1
102
RTVSPropertyOp17
 70
     1
102
RTVSPropertyOp18
 70
     1
102
RTVSPropertyOp19
 70
     1
102
RTVSPropertyOp20
 70
     1
102
RTVSPropertyOp21
 70
     1
102
RTVSPropertyOp22
 70
     1
102
RTVSPropertyOp23
 70
     1
102
RTVSPropertyOp24
 70
     1
102
RTVSPropertyOp25
 70
     1
102
RTVSPropertyOp26
 70
     1
102
RTVSPropertyOp27
 70
     1
102
RTVSPropertyOp28
 70
     1
102
RTVSPropertyOp29
 70
     1
102
RTVSPropertyOp30
 70
     1
102
RTVSPropertyOp31
 70
     1
102
RTVSPropertyOp32
 70
     1
102
RTVSPropertyOp33
 70
     1
102
RTVSPropertyOp34
 70
     1
102
RTVSPropertyOp35
 70
     1
102
RTVSPropertyOp36
 70
     1
102
RTVSPropertyOp37
 70
     1
102
RTVSPropertyOp38
 70
     1
102
RTVSPropertyOp39
 70
     1
102
RTVSPropertyOp40
 70
     1
102
RTVSPropertyOp41
 70
     1
102
RTVSPropertyOp42
 70
     1
102
RTVSPropertyOp43
 70
     1
102
RTVSPropertyOp44
 70
     1
102
RTVSPropertyOp45
 70
     1
102
RTVSPropertyOp46
 70
     1
102
RTVSPropertyOp47
 70
     1
102
RTVSPropertyOp48
 70
     1
102
RTVSPropertyOp49
 70
     1
102
RTVSPropertyOp50
 70
     1
102
RTVSPropertyOp51
 70
     0
102
RTVSPropertyOp52
 70
     0
102
RTVSPropertyOp53
 70
     1
102
RTVSPropertyOp54
 70
     1
102
RTVSPropertyOp55
 70
     1
102
RTVSPropertyOp56
 70
     1
102
RTVSPropertyOp57
 70
     1
102
RTVSPost2010Prop28
280
     0
102
RTVSPost2010PropOp28
 70
     1
102
RTVSPost2010Prop29
280
     1
102
RTVSPost2010PropOp29
 70
     1
102
RTVSPost2010Prop30
280
     1
102
RTVSPost2010PropOp30
 70
     1
102
RTVSPost2010Prop31
280
     0
102
RTVSPost2010PropOp31
 70
     1
102
RTVSPost2010Prop32
280
     0
102
RTVSPost2010PropOp32
 70
     1
102
RTVSPost2010Prop33
280
     0
102
RTVSPost2010PropOp33
 70
     1
102
RTVSPost2010Prop34
280
     0
102
RTVSPost2010PropOp34
 70
     1
102
RTVSPost2010Prop35
280
     0
102
RTVSPost2010PropOp35
 70
     1
102
RTVSPost2010Prop36
280
     0
102
RTVSPost2010PropOp36
 70
     1
102
RTVSPost2010Prop37
 90
       50
102
RTVSPost2010PropOp37
 70
     1
102
RTVSPost2010Prop38
140
0.0
102
RTVSPost2010PropOp38
 70
     1
102
RTVSPost2010Prop39
140
1.0
102
RTVSPost2010PropOp39
 70
     1
102
RTVSPost2010Prop40
 90
        0
102
RTVSPost2010PropOp40
 70
     1
102
RTVSPost2010Prop41ColorIndex
 90
       18
102
RTVSPost2010Prop41ColorRGB
 90
        0
102
RTVSPost2010PropOp41
 70
     1
102
RTVSPost2010Prop42
 90
       50
102
RTVSPost2010PropOp42
 70
     1
102
RTVSPost2010Prop43
 90
        3
102
RTVSPost2010PropOp43
 70
     1
102
RTVSPost2010Prop44ColorIndex
 90
        5
102
RTVSPost2010Prop44ColorRGB
 90
      255
102
RTVSPost2010PropOp44
 70
     1
102
RTVSPost2010Prop45
280
     0
102
RTVSPost2010PropOp45
 70
     1
102
RTVSPost2010Prop46
 90
       50
102
RTVSPost2010PropOp46
 70
     1
102
RTVSPost2010Prop47
 90
       50
102
RTVSPost2010PropOp47
 70
     1
102
RTVSPost2010Prop48
 90
       50
102
RTVSPost2010PropOp48
 70
     1
102
RTVSPost2010Prop49
280
     0
102
RTVSPost2010PropOp49
 70
     1
102
RTVSPost2010Prop50
 90
       50
102
RTVSPost2010PropOp50
 70
     1
102
RTVSPost2010Prop51ColorIndex
 90
      256
102
RTVSPost2010Prop51ColorRGB
 90
-16777216
102
RTVSPost2010PropOp51
 70
     0
102
RTVSPost2010Prop52
140
1.0
102
RTVSPost2010PropOp52
 70
     0
102
RTVSPost2010Prop53
 90
        2
102
RTVSPost2010PropOp53
 70
     1
102
RTVSPost2010Prop54
  1
strokes_ogs.tif
102
RTVSPost2010PropOp54
 70
     1
102
RTVSPost2010Prop55
280
     0
102
RTVSPost2010PropOp55
 70
     1
102
RTVSPost2010Prop56
140
1.0
102
RTVSPost2010PropOp56
 70
     1
102
RTVSPost2010Prop57
140
1.0
102
RTVSPost2010PropOp57
 70
     1
  0
XRECORD
  5
1F6B
102
{ACAD_REACTORS
330
1F6A
102
}
330
1F6A
100
AcDbXrecord
280
     1
102
RTVSPropertyOp0
 70
     1
102
RTVSPropertyOp1
 70
     1
102
RTVSPropertyOp2
 70
     1
102
RTVSPropertyOp3
 70
     1
102
RTVSPropertyOp4
 70
     1
102
RTVSPropertyOp5
 70
     1
102
RTVSPropertyOp6
 70
     1
102
RTVSPropertyOp7
 70
     1
102
RTVSPropertyOp8
 70
     1
102
RTVSPropertyOp9
 70
     1
102
RTVSPropertyOp10
 70
     1
102
RTVSPropertyOp11
 70
     1
102
RTVSPropertyOp12
 70
     1
102
RTVSPropertyOp13
 70
     1
102
RTVSPropertyOp14
 70
     1
102
RTVSPropertyOp15
 70
     1
102
RTVSPropertyOp16
 70
     1
102
RTVSPropertyOp17
 70
     1
102
RTVSPropertyOp18
 70
     1
102
RTVSPropertyOp19
 70
     1
102
RTVSPropertyOp20
 70
     1
102
RTVSPropertyOp21
 70
     1
102
RTVSPropertyOp22
 70
     1
102
RTVSPropertyOp23
 70
     1
102
RTVSPropertyOp24
 70
     1
102
RTVSPropertyOp25
 70
     1
102
RTVSPropertyOp26
 70
     1
102
RTVSPropertyOp27
 70
     1
102
RTVSPropertyOp28
 70
     1
102
RTVSPropertyOp29
 70
     1
102
RTVSPropertyOp30
 70
     1
102
RTVSPropertyOp31
 70
     1
102
RTVSPropertyOp32
 70
     1
102
RTVSPropertyOp33
 70
     1
102
RTVSPropertyOp34
 70
     1
102
RTVSPropertyOp35
 70
     1
102
RTVSPropertyOp36
 70
     1
102
RTVSPropertyOp37
 70
     1
102
RTVSPropertyOp38
 70
     1
102
RTVSPropertyOp39
 70
     1
102
RTVSPropertyOp40
 70
     1
102
RTVSPropertyOp41
 70
     1
102
RTVSPropertyOp42
 70
     1
102
RTVSPropertyOp43
 70
     1
102
RTVSPropertyOp44
 70
     1
102
RTVSPropertyOp45
 70
     1
102
RTVSPropertyOp46
 70
     1
102
RTVSPropertyOp47
 70
     1
102
RTVSPropertyOp48
 70
     1
102
RTVSPropertyOp49
 70
     1
102
RTVSPropertyOp50
 70
     1
102
RTVSPropertyOp51
 70
     0
102
RTVSPropertyOp52
 70
     0
102
RTVSPropertyOp53
 70
     1
102
RTVSPropertyOp54
 70
     1
102
RTVSPropertyOp55
 70
     1
102
RTVSPropertyOp56
 70
     1
102
RTVSPropertyOp57
 70
     1
102
RTVSPost2010Prop28
280
     0
102
RTVSPost2010PropOp28
 70
     1
102
RTVSPost2010Prop29
280
     1
102
RTVSPost2010PropOp29
 70
     1
102
RTVSPost2010Prop30
280
     1
102
RTVSPost2010PropOp30
 70
     1
102
RTVSPost2010Prop31
280
     0
102
RTVSPost2010PropOp31
 70
     1
102
RTVSPost2010Prop32
280
     0
102
RTVSPost2010PropOp32
 70
     1
102
RTVSPost2010Prop33
280
     0
102
RTVSPost2010PropOp33
 70
     1
102
RTVSPost2010Prop34
280
     0
102
RTVSPost2010PropOp34
 70
     1
102
RTVSPost2010Prop35
280
     0
102
RTVSPost2010PropOp35
 70
     1
102
RTVSPost2010Prop36
280
     0
102
RTVSPost2010PropOp36
 70
     1
102
RTVSPost2010Prop37
 90
       50
102
RTVSPost2010PropOp37
 70
     1
102
RTVSPost2010Prop38
140
0.0
102
RTVSPost2010PropOp38
 70
     1
102
RTVSPost2010Prop39
140
1.0
102
RTVSPost2010PropOp39
 70
     1
102
RTVSPost2010Prop40
 90
        0
102
RTVSPost2010PropOp40
 70
     1
102
RTVSPost2010Prop41ColorIndex
 90
       18
102
RTVSPost2010Prop41ColorRGB
 90
        0
102
RTVSPost2010PropOp41
 70
     1
102
RTVSPost2010Prop42
 90
       50
102
RTVSPost2010PropOp42
 70
     1
102
RTVSPost2010Prop43
 90
        3
102
RTVSPost2010PropOp43
 70
     1
102
RTVSPost2010Prop44ColorIndex
 90
        5
102
RTVSPost2010Prop44ColorRGB
 90
      255
102
RTVSPost2010PropOp44
 70
     1
102
RTVSPost2010Prop45
280
     0
102
RTVSPost2010PropOp45
 70
     1
102
RTVSPost2010Prop46
 90
       50
102
RTVSPost2010PropOp46
 70
     1
102
RTVSPost2010Prop47
 90
       50
102
RTVSPost2010PropOp47
 70
     1
102
RTVSPost2010Prop48
 90
       50
102
RTVSPost2010PropOp48
 70
     1
102
RTVSPost2010Prop49
280
     0
102
RTVSPost2010PropOp49
 70
     1
102
RTVSPost2010Prop50
 90
       50
102
RTVSPost2010PropOp50
 70
     1
102
RTVSPost2010Prop51ColorIndex
 90
      256
102
RTVSPost2010Prop51ColorRGB
 90
-16777216
102
RTVSPost2010PropOp51
 70
     0
102
RTVSPost2010Prop52
140
1.0
102
RTVSPost2010PropOp52
 70
     0
102
RTVSPost2010Prop53
 90
        2
102
RTVSPost2010PropOp53
 70
     1
102
RTVSPost2010Prop54
  1
strokes_ogs.tif
102
RTVSPost2010PropOp54
 70
     1
102
RTVSPost2010Prop55
280
     0
102
RTVSPost2010PropOp55
 70
     1
102
RTVSPost2010Prop56
140
1.0
102
RTVSPost2010PropOp56
 70
     1
102
RTVSPost2010Prop57
140
1.0
102
RTVSPost2010PropOp57
 70
     1
  0
XRECORD
  5
1F6D
102
{ACAD_REACTORS
330
1F6C
102
}
330
1F6C
100
AcDbXrecord
280
     1
102
RTVSPropertyOp0
 70
     1
102
RTVSPropertyOp1
 70
     1
102
RTVSPropertyOp2
 70
     1
102
RTVSPropertyOp3
 70
     1
102
RTVSPropertyOp4
 70
     1
102
RTVSPropertyOp5
 70
     1
102
RTVSPropertyOp6
 70
     1
102
RTVSPropertyOp7
 70
     1
102
RTVSPropertyOp8
 70
     1
102
RTVSPropertyOp9
 70
     1
102
RTVSPropertyOp10
 70
     1
102
RTVSPropertyOp11
 70
     1
102
RTVSPropertyOp12
 70
     1
102
RTVSPropertyOp13
 70
     1
102
RTVSPropertyOp14
 70
     1
102
RTVSPropertyOp15
 70
     1
102
RTVSPropertyOp16
 70
     1
102
RTVSPropertyOp17
 70
     1
102
RTVSPropertyOp18
 70
     1
102
RTVSPropertyOp19
 70
     1
102
RTVSPropertyOp20
 70
     1
102
RTVSPropertyOp21
 70
     1
102
RTVSPropertyOp22
 70
     1
102
RTVSPropertyOp23
 70
     1
102
RTVSPropertyOp24
 70
     1
102
RTVSPropertyOp25
 70
     1
102
RTVSPropertyOp26
 70
     1
102
RTVSPropertyOp27
 70
     1
102
RTVSPropertyOp28
 70
     1
102
RTVSPropertyOp29
 70
     1
102
RTVSPropertyOp30
 70
     1
102
RTVSPropertyOp31
 70
     1
102
RTVSPropertyOp32
 70
     1
102
RTVSPropertyOp33
 70
     1
102
RTVSPropertyOp34
 70
     1
102
RTVSPropertyOp35
 70
     1
102
RTVSPropertyOp36
 70
     1
102
RTVSPropertyOp37
 70
     1
102
RTVSPropertyOp38
 70
     1
102
RTVSPropertyOp39
 70
     1
102
RTVSPropertyOp40
 70
     1
102
RTVSPropertyOp41
 70
     1
102
RTVSPropertyOp42
 70
     1
102
RTVSPropertyOp43
 70
     1
102
RTVSPropertyOp44
 70
     1
102
RTVSPropertyOp45
 70
     1
102
RTVSPropertyOp46
 70
     1
102
RTVSPropertyOp47
 70
     1
102
RTVSPropertyOp48
 70
     1
102
RTVSPropertyOp49
 70
     1
102
RTVSPropertyOp50
 70
     1
102
RTVSPropertyOp51
 70
     0
102
RTVSPropertyOp52
 70
     0
102
RTVSPropertyOp53
 70
     1
102
RTVSPropertyOp54
 70
     1
102
RTVSPropertyOp55
 70
     1
102
RTVSPropertyOp56
 70
     1
102
RTVSPropertyOp57
 70
     1
102
RTVSPost2010Prop28
280
     0
102
RTVSPost2010PropOp28
 70
     1
102
RTVSPost2010Prop29
280
     1
102
RTVSPost2010PropOp29
 70
     1
102
RTVSPost2010Prop30
280
     1
102
RTVSPost2010PropOp30
 70
     1
102
RTVSPost2010Prop31
280
     0
102
RTVSPost2010PropOp31
 70
     1
102
RTVSPost2010Prop32
280
     0
102
RTVSPost2010PropOp32
 70
     1
102
RTVSPost2010Prop33
280
     0
102
RTVSPost2010PropOp33
 70
     1
102
RTVSPost2010Prop34
280
     0
102
RTVSPost2010PropOp34
 70
     1
102
RTVSPost2010Prop35
280
     0
102
RTVSPost2010PropOp35
 70
     1
102
RTVSPost2010Prop36
280
     0
102
RTVSPost2010PropOp36
 70
     1
102
RTVSPost2010Prop37
 90
       50
102
RTVSPost2010PropOp37
 70
     1
102
RTVSPost2010Prop38
140
0.0
102
RTVSPost2010PropOp38
 70
     1
102
RTVSPost2010Prop39
140
1.0
102
RTVSPost2010PropOp39
 70
     1
102
RTVSPost2010Prop40
 90
        0
102
RTVSPost2010PropOp40
 70
     1
102
RTVSPost2010Prop41ColorIndex
 90
       18
102
RTVSPost2010Prop41ColorRGB
 90
        0
102
RTVSPost2010PropOp41
 70
     1
102
RTVSPost2010Prop42
 90
       50
102
RTVSPost2010PropOp42
 70
     1
102
RTVSPost2010Prop43
 90
        3
102
RTVSPost2010PropOp43
 70
     1
102
RTVSPost2010Prop44ColorIndex
 90
        5
102
RTVSPost2010Prop44ColorRGB
 90
      255
102
RTVSPost2010PropOp44
 70
     1
102
RTVSPost2010Prop45
280
     0
102
RTVSPost2010PropOp45
 70
     1
102
RTVSPost2010Prop46
 90
       50
102
RTVSPost2010PropOp46
 70
     1
102
RTVSPost2010Prop47
 90
       50
102
RTVSPost2010PropOp47
 70
     1
102
RTVSPost2010Prop48
 90
       50
102
RTVSPost2010PropOp48
 70
     1
102
RTVSPost2010Prop49
280
     0
102
RTVSPost2010PropOp49
 70
     1
102
RTVSPost2010Prop50
 90
       50
102
RTVSPost2010PropOp50
 70
     1
102
RTVSPost2010Prop51ColorIndex
 90
      256
102
RTVSPost2010Prop51ColorRGB
 90
-16777216
102
RTVSPost2010PropOp51
 70
     0
102
RTVSPost2010Prop52
140
1.0
102
RTVSPost2010PropOp52
 70
     0
102
RTVSPost2010Prop53
 90
        2
102
RTVSPost2010PropOp53
 70
     1
102
RTVSPost2010Prop54
  1
strokes_ogs.tif
102
RTVSPost2010PropOp54
 70
     1
102
RTVSPost2010Prop55
280
     0
102
RTVSPost2010PropOp55
 70
     1
102
RTVSPost2010Prop56
140
1.0
102
RTVSPost2010PropOp56
 70
     1
102
RTVSPost2010Prop57
140
1.0
102
RTVSPost2010PropOp57
 70
     1
  0
XRECORD
  5
1F6F
102
{ACAD_REACTORS
330
1F6E
102
}
330
1F6E
100
AcDbXrecord
280
     1
102
RTVSPropertyOp0
 70
     0
102
RTVSPropertyOp1
 70
     0
102
RTVSPropertyOp2
 70
     0
102
RTVSPropertyOp3
 70
     0
102
RTVSPropertyOp4
 70
     0
102
RTVSPropertyOp5
 70
     0
102
RTVSPropertyOp6
 70
     0
102
RTVSPropertyOp7
 70
     0
102
RTVSPropertyOp8
 70
     0
102
RTVSPropertyOp9
 70
     0
102
RTVSPropertyOp10
 70
     0
102
RTVSPropertyOp11
 70
     0
102
RTVSPropertyOp12
 70
     0
102
RTVSPropertyOp13
 70
     0
102
RTVSPropertyOp14
 70
     2
102
RTVSPropertyOp15
 70
     0
102
RTVSPropertyOp16
 70
     0
102
RTVSPropertyOp17
 70
     0
102
RTVSPropertyOp18
 70
     0
102
RTVSPropertyOp19
 70
     0
102
RTVSPropertyOp20
 70
     0
102
RTVSPropertyOp21
 70
     0
102
RTVSPropertyOp22
 70
     0
102
RTVSPropertyOp23
 70
     0
102
RTVSPropertyOp24
 70
     0
102
RTVSPropertyOp25
 70
     0
102
RTVSPropertyOp26
 70
     0
102
RTVSPropertyOp27
 70
     0
102
RTVSPropertyOp28
 70
     1
102
RTVSPropertyOp29
 70
     1
102
RTVSPropertyOp30
 70
     1
102
RTVSPropertyOp31
 70
     1
102
RTVSPropertyOp32
 70
     1
102
RTVSPropertyOp33
 70
     1
102
RTVSPropertyOp34
 70
     1
102
RTVSPropertyOp35
 70
     1
102
RTVSPropertyOp36
 70
     1
102
RTVSPropertyOp37
 70
     1
102
RTVSPropertyOp38
 70
     1
102
RTVSPropertyOp39
 70
     1
102
RTVSPropertyOp40
 70
     1
102
RTVSPropertyOp41
 70
     1
102
RTVSPropertyOp42
 70
     1
102
RTVSPropertyOp43
 70
     1
102
RTVSPropertyOp44
 70
     1
102
RTVSPropertyOp45
 70
     1
102
RTVSPropertyOp46
 70
     1
102
RTVSPropertyOp47
 70
     1
102
RTVSPropertyOp48
 70
     1
102
RTVSPropertyOp49
 70
     1
102
RTVSPropertyOp50
 70
     1
102
RTVSPropertyOp51
 70
     0
102
RTVSPropertyOp52
 70
     0
102
RTVSPropertyOp53
 70
     1
102
RTVSPropertyOp54
 70
     1
102
RTVSPropertyOp55
 70
     1
102
RTVSPropertyOp56
 70
     1
102
RTVSPropertyOp57
 70
     1
102
RTVSPost2010Prop28
280
     0
102
RTVSPost2010PropOp28
 70
     1
102
RTVSPost2010Prop29
280
     1
102
RTVSPost2010PropOp29
 70
     1
102
RTVSPost2010Prop30
280
     1
102
RTVSPost2010PropOp30
 70
     1
102
RTVSPost2010Prop31
280
     0
102
RTVSPost2010PropOp31
 70
     1
102
RTVSPost2010Prop32
280
     0
102
RTVSPost2010PropOp32
 70
     1
102
RTVSPost2010Prop33
280
     0
102
RTVSPost2010PropOp33
 70
     1
102
RTVSPost2010Prop34
280
     0
102
RTVSPost2010PropOp34
 70
     1
102
RTVSPost2010Prop35
280
     0
102
RTVSPost2010PropOp35
 70
     1
102
RTVSPost2010Prop36
280
     0
102
RTVSPost2010PropOp36
 70
     1
102
RTVSPost2010Prop37
 90
       50
102
RTVSPost2010PropOp37
 70
     1
102
RTVSPost2010Prop38
140
0.0
102
RTVSPost2010PropOp38
 70
     1
102
RTVSPost2010Prop39
140
1.0
102
RTVSPost2010PropOp39
 70
     1
102
RTVSPost2010Prop40
 90
        0
102
RTVSPost2010PropOp40
 70
     1
102
RTVSPost2010Prop41ColorIndex
 90
       18
102
RTVSPost2010Prop41ColorRGB
 90
        0
102
RTVSPost2010PropOp41
 70
     1
102
RTVSPost2010Prop42
 90
       50
102
RTVSPost2010PropOp42
 70
     1
102
RTVSPost2010Prop43
 90
        3
102
RTVSPost2010PropOp43
 70
     1
102
RTVSPost2010Prop44ColorIndex
 90
        5
102
RTVSPost2010Prop44ColorRGB
 90
      255
102
RTVSPost2010PropOp44
 70
     1
102
RTVSPost2010Prop45
280
     0
102
RTVSPost2010PropOp45
 70
     1
102
RTVSPost2010Prop46
 90
       50
102
RTVSPost2010PropOp46
 70
     1
102
RTVSPost2010Prop47
 90
       50
102
RTVSPost2010PropOp47
 70
     1
102
RTVSPost2010Prop48
 90
       50
102
RTVSPost2010PropOp48
 70
     1
102
RTVSPost2010Prop49
280
     0
102
RTVSPost2010PropOp49
 70
     1
102
RTVSPost2010Prop50
 90
       50
102
RTVSPost2010PropOp50
 70
     1
102
RTVSPost2010Prop51ColorIndex
 90
      256
102
RTVSPost2010Prop51ColorRGB
 90
-16777216
102
RTVSPost2010PropOp51
 70
     0
102
RTVSPost2010Prop52
140
1.0
102
RTVSPost2010PropOp52
 70
     0
102
RTVSPost2010Prop53
 90
        2
102
RTVSPost2010PropOp53
 70
     1
102
RTVSPost2010Prop54
  1
strokes_ogs.tif
102
RTVSPost2010PropOp54
 70
     1
102
RTVSPost2010Prop55
280
     0
102
RTVSPost2010PropOp55
 70
     1
102
RTVSPost2010Prop56
140
1.0
102
RTVSPost2010PropOp56
 70
     1
102
RTVSPost2010Prop57
140
1.0
102
RTVSPost2010PropOp57
 70
     1
  0
XRECORD
  5
1F71
102
{ACAD_REACTORS
330
1F70
102
}
330
1F70
100
AcDbXrecord
280
     1
102
RTVSPropertyOp0
 70
     1
102
RTVSPropertyOp1
 70
     1
102
RTVSPropertyOp2
 70
     1
102
RTVSPropertyOp3
 70
     1
102
RTVSPropertyOp4
 70
     1
102
RTVSPropertyOp5
 70
     1
102
RTVSPropertyOp6
 70
     1
102
RTVSPropertyOp7
 70
     1
102
RTVSPropertyOp8
 70
     1
102
RTVSPropertyOp9
 70
     1
102
RTVSPropertyOp10
 70
     1
102
RTVSPropertyOp11
 70
     1
102
RTVSPropertyOp12
 70
     1
102
RTVSPropertyOp13
 70
     1
102
RTVSPropertyOp14
 70
     1
102
RTVSPropertyOp15
 70
     1
102
RTVSPropertyOp16
 70
     1
102
RTVSPropertyOp17
 70
     1
102
RTVSPropertyOp18
 70
     1
102
RTVSPropertyOp19
 70
     1
102
RTVSPropertyOp20
 70
     1
102
RTVSPropertyOp21
 70
     1
102
RTVSPropertyOp22
 70
     1
102
RTVSPropertyOp23
 70
     1
102
RTVSPropertyOp24
 70
     1
102
RTVSPropertyOp25
 70
     1
102
RTVSPropertyOp26
 70
     1
102
RTVSPropertyOp27
 70
     1
102
RTVSPropertyOp28
 70
     1
102
RTVSPropertyOp29
 70
     1
102
RTVSPropertyOp30
 70
     1
102
RTVSPropertyOp31
 70
     1
102
RTVSPropertyOp32
 70
     1
102
RTVSPropertyOp33
 70
     1
102
RTVSPropertyOp34
 70
     1
102
RTVSPropertyOp35
 70
     1
102
RTVSPropertyOp36
 70
     1
102
RTVSPropertyOp37
 70
     1
102
RTVSPropertyOp38
 70
     1
102
RTVSPropertyOp39
 70
     1
102
RTVSPropertyOp40
 70
     1
102
RTVSPropertyOp41
 70
     1
102
RTVSPropertyOp42
 70
     1
102
RTVSPropertyOp43
 70
     1
102
RTVSPropertyOp44
 70
     1
102
RTVSPropertyOp45
 70
     1
102
RTVSPropertyOp46
 70
     1
102
RTVSPropertyOp47
 70
     1
102
RTVSPropertyOp48
 70
     1
102
RTVSPropertyOp49
 70
     1
102
RTVSPropertyOp50
 70
     1
102
RTVSPropertyOp51
 70
     0
102
RTVSPropertyOp52
 70
     0
102
RTVSPropertyOp53
 70
     1
102
RTVSPropertyOp54
 70
     1
102
RTVSPropertyOp55
 70
     1
102
RTVSPropertyOp56
 70
     1
102
RTVSPropertyOp57
 70
     1
102
RTVSPost2010Prop28
280
     0
102
RTVSPost2010PropOp28
 70
     1
102
RTVSPost2010Prop29
280
     1
102
RTVSPost2010PropOp29
 70
     1
102
RTVSPost2010Prop30
280
     1
102
RTVSPost2010PropOp30
 70
     1
102
RTVSPost2010Prop31
280
     0
102
RTVSPost2010PropOp31
 70
     1
102
RTVSPost2010Prop32
280
     0
102
RTVSPost2010PropOp32
 70
     1
102
RTVSPost2010Prop33
280
     0
102
RTVSPost2010PropOp33
 70
     1
102
RTVSPost2010Prop34
280
     0
102
RTVSPost2010PropOp34
 70
     1
102
RTVSPost2010Prop35
280
     0
102
RTVSPost2010PropOp35
 70
     1
102
RTVSPost2010Prop36
280
     0
102
RTVSPost2010PropOp36
 70
     1
102
RTVSPost2010Prop37
 90
       50
102
RTVSPost2010PropOp37
 70
     1
102
RTVSPost2010Prop38
140
0.0
102
RTVSPost2010PropOp38
 70
     1
102
RTVSPost2010Prop39
140
1.0
102
RTVSPost2010PropOp39
 70
     1
102
RTVSPost2010Prop40
 90
        0
102
RTVSPost2010PropOp40
 70
     1
102
RTVSPost2010Prop41ColorIndex
 90
       18
102
RTVSPost2010Prop41ColorRGB
 90
        0
102
RTVSPost2010PropOp41
 70
     1
102
RTVSPost2010Prop42
 90
       50
102
RTVSPost2010PropOp42
 70
     1
102
RTVSPost2010Prop43
 90
        3
102
RTVSPost2010PropOp43
 70
     1
102
RTVSPost2010Prop44ColorIndex
 90
        5
102
RTVSPost2010Prop44ColorRGB
 90
      255
102
RTVSPost2010PropOp44
 70
     1
102
RTVSPost2010Prop45
280
     0
102
RTVSPost2010PropOp45
 70
     1
102
RTVSPost2010Prop46
 90
       50
102
RTVSPost2010PropOp46
 70
     1
102
RTVSPost2010Prop47
 90
       50
102
RTVSPost2010PropOp47
 70
     1
102
RTVSPost2010Prop48
 90
       50
102
RTVSPost2010PropOp48
 70
     1
102
RTVSPost2010Prop49
280
     0
102
RTVSPost2010PropOp49
 70
     1
102
RTVSPost2010Prop50
 90
       50
102
RTVSPost2010PropOp50
 70
     1
102
RTVSPost2010Prop51ColorIndex
 90
      256
102
RTVSPost2010Prop51ColorRGB
 90
-16777216
102
RTVSPost2010PropOp51
 70
     0
102
RTVSPost2010Prop52
140
1.0
102
RTVSPost2010PropOp52
 70
     0
102
RTVSPost2010Prop53
 90
        2
102
RTVSPost2010PropOp53
 70
     1
102
RTVSPost2010Prop54
  1
strokes_ogs.tif
102
RTVSPost2010PropOp54
 70
     1
102
RTVSPost2010Prop55
280
     0
102
RTVSPost2010PropOp55
 70
     1
102
RTVSPost2010Prop56
140
1.0
102
RTVSPost2010PropOp56
 70
     1
102
RTVSPost2010Prop57
140
1.0
102
RTVSPost2010PropOp57
 70
     1
  0
XRECORD
  5
1F73
102
{ACAD_REACTORS
330
1F72
102
}
330
1F72
100
AcDbXrecord
280
     1
102
RTVSPropertyOp0
 70
     0
102
RTVSPropertyOp1
 70
     0
102
RTVSPropertyOp2
 70
     0
102
RTVSPropertyOp3
 70
     0
102
RTVSPropertyOp4
 70
     0
102
RTVSPropertyOp5
 70
     0
102
RTVSPropertyOp6
 70
     0
102
RTVSPropertyOp7
 70
     0
102
RTVSPropertyOp8
 70
     0
102
RTVSPropertyOp9
 70
     0
102
RTVSPropertyOp10
 70
     0
102
RTVSPropertyOp11
 70
     0
102
RTVSPropertyOp12
 70
     0
102
RTVSPropertyOp13
 70
     0
102
RTVSPropertyOp14
 70
     2
102
RTVSPropertyOp15
 70
     0
102
RTVSPropertyOp16
 70
     0
102
RTVSPropertyOp17
 70
     0
102
RTVSPropertyOp18
 70
     0
102
RTVSPropertyOp19
 70
     0
102
RTVSPropertyOp20
 70
     0
102
RTVSPropertyOp21
 70
     0
102
RTVSPropertyOp22
 70
     0
102
RTVSPropertyOp23
 70
     0
102
RTVSPropertyOp24
 70
     0
102
RTVSPropertyOp25
 70
     0
102
RTVSPropertyOp26
 70
     0
102
RTVSPropertyOp27
 70
     0
102
RTVSPropertyOp28
 70
     1
102
RTVSPropertyOp29
 70
     1
102
RTVSPropertyOp30
 70
     1
102
RTVSPropertyOp31
 70
     1
102
RTVSPropertyOp32
 70
     1
102
RTVSPropertyOp33
 70
     1
102
RTVSPropertyOp34
 70
     1
102
RTVSPropertyOp35
 70
     1
102
RTVSPropertyOp36
 70
     1
102
RTVSPropertyOp37
 70
     1
102
RTVSPropertyOp38
 70
     1
102
RTVSPropertyOp39
 70
     1
102
RTVSPropertyOp40
 70
     1
102
RTVSPropertyOp41
 70
     1
102
RTVSPropertyOp42
 70
     1
102
RTVSPropertyOp43
 70
     1
102
RTVSPropertyOp44
 70
     1
102
RTVSPropertyOp45
 70
     1
102
RTVSPropertyOp46
 70
     1
102
RTVSPropertyOp47
 70
     1
102
RTVSPropertyOp48
 70
     1
102
RTVSPropertyOp49
 70
     1
102
RTVSPropertyOp50
 70
     1
102
RTVSPropertyOp51
 70
     0
102
RTVSPropertyOp52
 70
     0
102
RTVSPropertyOp53
 70
     1
102
RTVSPropertyOp54
 70
     1
102
RTVSPropertyOp55
 70
     1
102
RTVSPropertyOp56
 70
     1
102
RTVSPropertyOp57
 70
     1
102
RTVSPost2010Prop28
280
     0
102
RTVSPost2010PropOp28
 70
     1
102
RTVSPost2010Prop29
280
     1
102
RTVSPost2010PropOp29
 70
     1
102
RTVSPost2010Prop30
280
     1
102
RTVSPost2010PropOp30
 70
     1
102
RTVSPost2010Prop31
280
     0
102
RTVSPost2010PropOp31
 70
     1
102
RTVSPost2010Prop32
280
     0
102
RTVSPost2010PropOp32
 70
     1
102
RTVSPost2010Prop33
280
     0
102
RTVSPost2010PropOp33
 70
     1
102
RTVSPost2010Prop34
280
     0
102
RTVSPost2010PropOp34
 70
     1
102
RTVSPost2010Prop35
280
     0
102
RTVSPost2010PropOp35
 70
     1
102
RTVSPost2010Prop36
280
     0
102
RTVSPost2010PropOp36
 70
     1
102
RTVSPost2010Prop37
 90
       50
102
RTVSPost2010PropOp37
 70
     1
102
RTVSPost2010Prop38
140
0.0
102
RTVSPost2010PropOp38
 70
     1
102
RTVSPost2010Prop39
140
1.0
102
RTVSPost2010PropOp39
 70
     1
102
RTVSPost2010Prop40
 90
        0
102
RTVSPost2010PropOp40
 70
     1
102
RTVSPost2010Prop41ColorIndex
 90
       18
102
RTVSPost2010Prop41ColorRGB
 90
        0
102
RTVSPost2010PropOp41
 70
     1
102
RTVSPost2010Prop42
 90
       50
102
RTVSPost2010PropOp42
 70
     1
102
RTVSPost2010Prop43
 90
        3
102
RTVSPost2010PropOp43
 70
     1
102
RTVSPost2010Prop44ColorIndex
 90
        5
102
RTVSPost2010Prop44ColorRGB
 90
      255
102
RTVSPost2010PropOp44
 70
     1
102
RTVSPost2010Prop45
280
     0
102
RTVSPost2010PropOp45
 70
     1
102
RTVSPost2010Prop46
 90
       50
102
RTVSPost2010PropOp46
 70
     1
102
RTVSPost2010Prop47
 90
       50
102
RTVSPost2010PropOp47
 70
     1
102
RTVSPost2010Prop48
 90
       50
102
RTVSPost2010PropOp48
 70
     1
102
RTVSPost2010Prop49
280
     0
102
RTVSPost2010PropOp49
 70
     1
102
RTVSPost2010Prop50
 90
       50
102
RTVSPost2010PropOp50
 70
     1
102
RTVSPost2010Prop51ColorIndex
 90
      256
102
RTVSPost2010Prop51ColorRGB
 90
-16777216
102
RTVSPost2010PropOp51
 70
     0
102
RTVSPost2010Prop52
140
1.0
102
RTVSPost2010PropOp52
 70
     0
102
RTVSPost2010Prop53
 90
        2
102
RTVSPost2010PropOp53
 70
     1
102
RTVSPost2010Prop54
  1
strokes_ogs.tif
102
RTVSPost2010PropOp54
 70
     1
102
RTVSPost2010Prop55
280
     0
102
RTVSPost2010PropOp55
 70
     1
102
RTVSPost2010Prop56
140
1.0
102
RTVSPost2010PropOp56
 70
     1
102
RTVSPost2010Prop57
140
1.0
102
RTVSPost2010PropOp57
 70
     1
  0
XRECORD
  5
1F75
102
{ACAD_REACTORS
330
1F74
102
}
330
1F74
100
AcDbXrecord
280
     1
102
RTVSPropertyOp0
 70
     1
102
RTVSPropertyOp1
 70
     1
102
RTVSPropertyOp2
 70
     1
102
RTVSPropertyOp3
 70
     1
102
RTVSPropertyOp4
 70
     1
102
RTVSPropertyOp5
 70
     1
102
RTVSPropertyOp6
 70
     1
102
RTVSPropertyOp7
 70
     1
102
RTVSPropertyOp8
 70
     1
102
RTVSPropertyOp9
 70
     1
102
RTVSPropertyOp10
 70
     1
102
RTVSPropertyOp11
 70
     1
102
RTVSPropertyOp12
 70
     1
102
RTVSPropertyOp13
 70
     1
102
RTVSPropertyOp14
 70
     1
102
RTVSPropertyOp15
 70
     1
102
RTVSPropertyOp16
 70
     1
102
RTVSPropertyOp17
 70
     1
102
RTVSPropertyOp18
 70
     1
102
RTVSPropertyOp19
 70
     1
102
RTVSPropertyOp20
 70
     1
102
RTVSPropertyOp21
 70
     1
102
RTVSPropertyOp22
 70
     1
102
RTVSPropertyOp23
 70
     1
102
RTVSPropertyOp24
 70
     1
102
RTVSPropertyOp25
 70
     1
102
RTVSPropertyOp26
 70
     1
102
RTVSPropertyOp27
 70
     1
102
RTVSPropertyOp28
 70
     1
102
RTVSPropertyOp29
 70
     1
102
RTVSPropertyOp30
 70
     1
102
RTVSPropertyOp31
 70
     1
102
RTVSPropertyOp32
 70
     1
102
RTVSPropertyOp33
 70
     1
102
RTVSPropertyOp34
 70
     1
102
RTVSPropertyOp35
 70
     1
102
RTVSPropertyOp36
 70
     1
102
RTVSPropertyOp37
 70
     1
102
RTVSPropertyOp38
 70
     1
102
RTVSPropertyOp39
 70
     1
102
RTVSPropertyOp40
 70
     1
102
RTVSPropertyOp41
 70
     1
102
RTVSPropertyOp42
 70
     1
102
RTVSPropertyOp43
 70
     1
102
RTVSPropertyOp44
 70
     1
102
RTVSPropertyOp45
 70
     1
102
RTVSPropertyOp46
 70
     1
102
RTVSPropertyOp47
 70
     1
102
RTVSPropertyOp48
 70
     1
102
RTVSPropertyOp49
 70
     1
102
RTVSPropertyOp50
 70
     1
102
RTVSPropertyOp51
 70
     0
102
RTVSPropertyOp52
 70
     0
102
RTVSPropertyOp53
 70
     1
102
RTVSPropertyOp54
 70
     1
102
RTVSPropertyOp55
 70
     1
102
RTVSPropertyOp56
 70
     1
102
RTVSPropertyOp57
 70
     1
102
RTVSPost2010Prop28
280
     0
102
RTVSPost2010PropOp28
 70
     1
102
RTVSPost2010Prop29
280
     1
102
RTVSPost2010PropOp29
 70
     1
102
RTVSPost2010Prop30
280
     1
102
RTVSPost2010PropOp30
 70
     1
102
RTVSPost2010Prop31
280
     0
102
RTVSPost2010PropOp31
 70
     1
102
RTVSPost2010Prop32
280
     0
102
RTVSPost2010PropOp32
 70
     1
102
RTVSPost2010Prop33
280
     0
102
RTVSPost2010PropOp33
 70
     1
102
RTVSPost2010Prop34
280
     0
102
RTVSPost2010PropOp34
 70
     1
102
RTVSPost2010Prop35
280
     0
102
RTVSPost2010PropOp35
 70
     1
102
RTVSPost2010Prop36
280
     0
102
RTVSPost2010PropOp36
 70
     1
102
RTVSPost2010Prop37
 90
       50
102
RTVSPost2010PropOp37
 70
     1
102
RTVSPost2010Prop38
140
0.0
102
RTVSPost2010PropOp38
 70
     1
102
RTVSPost2010Prop39
140
1.0
102
RTVSPost2010PropOp39
 70
     1
102
RTVSPost2010Prop40
 90
        0
102
RTVSPost2010PropOp40
 70
     1
102
RTVSPost2010Prop41ColorIndex
 90
       18
102
RTVSPost2010Prop41ColorRGB
 90
        0
102
RTVSPost2010PropOp41
 70
     1
102
RTVSPost2010Prop42
 90
       50
102
RTVSPost2010PropOp42
 70
     1
102
RTVSPost2010Prop43
 90
        3
102
RTVSPost2010PropOp43
 70
     1
102
RTVSPost2010Prop44ColorIndex
 90
        5
102
RTVSPost2010Prop44ColorRGB
 90
      255
102
RTVSPost2010PropOp44
 70
     1
102
RTVSPost2010Prop45
280
     0
102
RTVSPost2010PropOp45
 70
     1
102
RTVSPost2010Prop46
 90
       50
102
RTVSPost2010PropOp46
 70
     1
102
RTVSPost2010Prop47
 90
       50
102
RTVSPost2010PropOp47
 70
     1
102
RTVSPost2010Prop48
 90
       50
102
RTVSPost2010PropOp48
 70
     1
102
RTVSPost2010Prop49
280
     0
102
RTVSPost2010PropOp49
 70
     1
102
RTVSPost2010Prop50
 90
       50
102
RTVSPost2010PropOp50
 70
     1
102
RTVSPost2010Prop51ColorIndex
 90
      256
102
RTVSPost2010Prop51ColorRGB
 90
-16777216
102
RTVSPost2010PropOp51
 70
     0
102
RTVSPost2010Prop52
140
1.0
102
RTVSPost2010PropOp52
 70
     0
102
RTVSPost2010Prop53
 90
        2
102
RTVSPost2010PropOp53
 70
     1
102
RTVSPost2010Prop54
  1
strokes_ogs.tif
102
RTVSPost2010PropOp54
 70
     1
102
RTVSPost2010Prop55
280
     0
102
RTVSPost2010PropOp55
 70
     1
102
RTVSPost2010Prop56
140
1.0
102
RTVSPost2010PropOp56
 70
     1
102
RTVSPost2010Prop57
140
1.0
102
RTVSPost2010PropOp57
 70
     1
  0
XRECORD
  5
1F77
102
{ACAD_REACTORS
330
1F76
102
}
330
1F76
100
AcDbXrecord
280
     1
102
RTVSPropertyOp0
 70
     1
102
RTVSPropertyOp1
 70
     1
102
RTVSPropertyOp2
 70
     1
102
RTVSPropertyOp3
 70
     1
102
RTVSPropertyOp4
 70
     1
102
RTVSPropertyOp5
 70
     1
102
RTVSPropertyOp6
 70
     1
102
RTVSPropertyOp7
 70
     1
102
RTVSPropertyOp8
 70
     1
102
RTVSPropertyOp9
 70
     1
102
RTVSPropertyOp10
 70
     1
102
RTVSPropertyOp11
 70
     1
102
RTVSPropertyOp12
 70
     1
102
RTVSPropertyOp13
 70
     1
102
RTVSPropertyOp14
 70
     1
102
RTVSPropertyOp15
 70
     1
102
RTVSPropertyOp16
 70
     1
102
RTVSPropertyOp17
 70
     1
102
RTVSPropertyOp18
 70
     1
102
RTVSPropertyOp19
 70
     1
102
RTVSPropertyOp20
 70
     1
102
RTVSPropertyOp21
 70
     1
102
RTVSPropertyOp22
 70
     1
102
RTVSPropertyOp23
 70
     1
102
RTVSPropertyOp24
 70
     1
102
RTVSPropertyOp25
 70
     1
102
RTVSPropertyOp26
 70
     1
102
RTVSPropertyOp27
 70
     1
102
RTVSPropertyOp28
 70
     1
102
RTVSPropertyOp29
 70
     1
102
RTVSPropertyOp30
 70
     1
102
RTVSPropertyOp31
 70
     1
102
RTVSPropertyOp32
 70
     1
102
RTVSPropertyOp33
 70
     1
102
RTVSPropertyOp34
 70
     1
102
RTVSPropertyOp35
 70
     1
102
RTVSPropertyOp36
 70
     1
102
RTVSPropertyOp37
 70
     1
102
RTVSPropertyOp38
 70
     1
102
RTVSPropertyOp39
 70
     1
102
RTVSPropertyOp40
 70
     1
102
RTVSPropertyOp41
 70
     1
102
RTVSPropertyOp42
 70
     1
102
RTVSPropertyOp43
 70
     1
102
RTVSPropertyOp44
 70
     1
102
RTVSPropertyOp45
 70
     1
102
RTVSPropertyOp46
 70
     1
102
RTVSPropertyOp47
 70
     1
102
RTVSPropertyOp48
 70
     1
102
RTVSPropertyOp49
 70
     1
102
RTVSPropertyOp50
 70
     1
102
RTVSPropertyOp51
 70
     0
102
RTVSPropertyOp52
 70
     0
102
RTVSPropertyOp53
 70
     1
102
RTVSPropertyOp54
 70
     1
102
RTVSPropertyOp55
 70
     1
102
RTVSPropertyOp56
 70
     1
102
RTVSPropertyOp57
 70
     1
102
RTVSPost2010Prop28
280
     0
102
RTVSPost2010PropOp28
 70
     1
102
RTVSPost2010Prop29
280
     1
102
RTVSPost2010PropOp29
 70
     1
102
RTVSPost2010Prop30
280
     1
102
RTVSPost2010PropOp30
 70
     1
102
RTVSPost2010Prop31
280
     0
102
RTVSPost2010PropOp31
 70
     1
102
RTVSPost2010Prop32
280
     0
102
RTVSPost2010PropOp32
 70
     1
102
RTVSPost2010Prop33
280
     0
102
RTVSPost2010PropOp33
 70
     1
102
RTVSPost2010Prop34
280
     0
102
RTVSPost2010PropOp34
 70
     1
102
RTVSPost2010Prop35
280
     0
102
RTVSPost2010PropOp35
 70
     1
102
RTVSPost2010Prop36
280
     0
102
RTVSPost2010PropOp36
 70
     1
102
RTVSPost2010Prop37
 90
       50
102
RTVSPost2010PropOp37
 70
     1
102
RTVSPost2010Prop38
140
0.0
102
RTVSPost2010PropOp38
 70
     1
102
RTVSPost2010Prop39
140
1.0
102
RTVSPost2010PropOp39
 70
     1
102
RTVSPost2010Prop40
 90
        0
102
RTVSPost2010PropOp40
 70
     1
102
RTVSPost2010Prop41ColorIndex
 90
       18
102
RTVSPost2010Prop41ColorRGB
 90
        0
102
RTVSPost2010PropOp41
 70
     1
102
RTVSPost2010Prop42
 90
       50
102
RTVSPost2010PropOp42
 70
     1
102
RTVSPost2010Prop43
 90
        3
102
RTVSPost2010PropOp43
 70
     1
102
RTVSPost2010Prop44ColorIndex
 90
        5
102
RTVSPost2010Prop44ColorRGB
 90
      255
102
RTVSPost2010PropOp44
 70
     1
102
RTVSPost2010Prop45
280
     0
102
RTVSPost2010PropOp45
 70
     1
102
RTVSPost2010Prop46
 90
       50
102
RTVSPost2010PropOp46
 70
     1
102
RTVSPost2010Prop47
 90
       50
102
RTVSPost2010PropOp47
 70
     1
102
RTVSPost2010Prop48
 90
       50
102
RTVSPost2010PropOp48
 70
     1
102
RTVSPost2010Prop49
280
     0
102
RTVSPost2010PropOp49
 70
     1
102
RTVSPost2010Prop50
 90
       50
102
RTVSPost2010PropOp50
 70
     1
102
RTVSPost2010Prop51ColorIndex
 90
      256
102
RTVSPost2010Prop51ColorRGB
 90
-16777216
102
RTVSPost2010PropOp51
 70
     0
102
RTVSPost2010Prop52
140
1.0
102
RTVSPost2010PropOp52
 70
     0
102
RTVSPost2010Prop53
 90
        2
102
RTVSPost2010PropOp53
 70
     1
102
RTVSPost2010Prop54
  1
strokes_ogs.tif
102
RTVSPost2010PropOp54
 70
     1
102
RTVSPost2010Prop55
280
     0
102
RTVSPost2010PropOp55
 70
     1
102
RTVSPost2010Prop56
140
1.0
102
RTVSPost2010PropOp56
 70
     1
102
RTVSPost2010Prop57
140
1.0
102
RTVSPost2010PropOp57
 70
     1
  0
XRECORD
  5
1F79
102
{ACAD_REACTORS
330
1F78
102
}
330
1F78
100
AcDbXrecord
280
     1
102
RTVSPropertyOp0
 70
     1
102
RTVSPropertyOp1
 70
     1
102
RTVSPropertyOp2
 70
     1
102
RTVSPropertyOp3
 70
     1
102
RTVSPropertyOp4
 70
     1
102
RTVSPropertyOp5
 70
     1
102
RTVSPropertyOp6
 70
     1
102
RTVSPropertyOp7
 70
     1
102
RTVSPropertyOp8
 70
     1
102
RTVSPropertyOp9
 70
     1
102
RTVSPropertyOp10
 70
     1
102
RTVSPropertyOp11
 70
     1
102
RTVSPropertyOp12
 70
     1
102
RTVSPropertyOp13
 70
     1
102
RTVSPropertyOp14
 70
     1
102
RTVSPropertyOp15
 70
     1
102
RTVSPropertyOp16
 70
     1
102
RTVSPropertyOp17
 70
     1
102
RTVSPropertyOp18
 70
     1
102
RTVSPropertyOp19
 70
     1
102
RTVSPropertyOp20
 70
     1
102
RTVSPropertyOp21
 70
     1
102
RTVSPropertyOp22
 70
     1
102
RTVSPropertyOp23
 70
     1
102
RTVSPropertyOp24
 70
     1
102
RTVSPropertyOp25
 70
     1
102
RTVSPropertyOp26
 70
     1
102
RTVSPropertyOp27
 70
     1
102
RTVSPropertyOp28
 70
     1
102
RTVSPropertyOp29
 70
     1
102
RTVSPropertyOp30
 70
     1
102
RTVSPropertyOp31
 70
     1
102
RTVSPropertyOp32
 70
     1
102
RTVSPropertyOp33
 70
     1
102
RTVSPropertyOp34
 70
     1
102
RTVSPropertyOp35
 70
     1
102
RTVSPropertyOp36
 70
     1
102
RTVSPropertyOp37
 70
     1
102
RTVSPropertyOp38
 70
     1
102
RTVSPropertyOp39
 70
     1
102
RTVSPropertyOp40
 70
     1
102
RTVSPropertyOp41
 70
     1
102
RTVSPropertyOp42
 70
     1
102
RTVSPropertyOp43
 70
     1
102
RTVSPropertyOp44
 70
     1
102
RTVSPropertyOp45
 70
     1
102
RTVSPropertyOp46
 70
     1
102
RTVSPropertyOp47
 70
     1
102
RTVSPropertyOp48
 70
     1
102
RTVSPropertyOp49
 70
     1
102
RTVSPropertyOp50
 70
     1
102
RTVSPropertyOp51
 70
     0
102
RTVSPropertyOp52
 70
     0
102
RTVSPropertyOp53
 70
     1
102
RTVSPropertyOp54
 70
     1
102
RTVSPropertyOp55
 70
     1
102
RTVSPropertyOp56
 70
     1
102
RTVSPropertyOp57
 70
     1
102
RTVSPost2010Prop28
280
     0
102
RTVSPost2010PropOp28
 70
     1
102
RTVSPost2010Prop29
280
     1
102
RTVSPost2010PropOp29
 70
     1
102
RTVSPost2010Prop30
280
     1
102
RTVSPost2010PropOp30
 70
     1
102
RTVSPost2010Prop31
280
     0
102
RTVSPost2010PropOp31
 70
     1
102
RTVSPost2010Prop32
280
     0
102
RTVSPost2010PropOp32
 70
     1
102
RTVSPost2010Prop33
280
     0
102
RTVSPost2010PropOp33
 70
     1
102
RTVSPost2010Prop34
280
     0
102
RTVSPost2010PropOp34
 70
     1
102
RTVSPost2010Prop35
280
     0
102
RTVSPost2010PropOp35
 70
     1
102
RTVSPost2010Prop36
280
     0
102
RTVSPost2010PropOp36
 70
     1
102
RTVSPost2010Prop37
 90
       50
102
RTVSPost2010PropOp37
 70
     1
102
RTVSPost2010Prop38
140
0.0
102
RTVSPost2010PropOp38
 70
     1
102
RTVSPost2010Prop39
140
1.0
102
RTVSPost2010PropOp39
 70
     1
102
RTVSPost2010Prop40
 90
        0
102
RTVSPost2010PropOp40
 70
     1
102
RTVSPost2010Prop41ColorIndex
 90
       18
102
RTVSPost2010Prop41ColorRGB
 90
        0
102
RTVSPost2010PropOp41
 70
     1
102
RTVSPost2010Prop42
 90
       50
102
RTVSPost2010PropOp42
 70
     1
102
RTVSPost2010Prop43
 90
        3
102
RTVSPost2010PropOp43
 70
     1
102
RTVSPost2010Prop44ColorIndex
 90
        5
102
RTVSPost2010Prop44ColorRGB
 90
      255
102
RTVSPost2010PropOp44
 70
     1
102
RTVSPost2010Prop45
280
     0
102
RTVSPost2010PropOp45
 70
     1
102
RTVSPost2010Prop46
 90
       50
102
RTVSPost2010PropOp46
 70
     1
102
RTVSPost2010Prop47
 90
       50
102
RTVSPost2010PropOp47
 70
     1
102
RTVSPost2010Prop48
 90
       50
102
RTVSPost2010PropOp48
 70
     1
102
RTVSPost2010Prop49
280
     0
102
RTVSPost2010PropOp49
 70
     1
102
RTVSPost2010Prop50
 90
       50
102
RTVSPost2010PropOp50
 70
     1
102
RTVSPost2010Prop51ColorIndex
 90
      256
102
RTVSPost2010Prop51ColorRGB
 90
-16777216
102
RTVSPost2010PropOp51
 70
     0
102
RTVSPost2010Prop52
140
1.0
102
RTVSPost2010PropOp52
 70
     0
102
RTVSPost2010Prop53
 90
        2
102
RTVSPost2010PropOp53
 70
     1
102
RTVSPost2010Prop54
  1
strokes_ogs.tif
102
RTVSPost2010PropOp54
 70
     1
102
RTVSPost2010Prop55
280
     0
102
RTVSPost2010PropOp55
 70
     1
102
RTVSPost2010Prop56
140
1.0
102
RTVSPost2010PropOp56
 70
     1
102
RTVSPost2010Prop57
140
1.0
102
RTVSPost2010PropOp57
 70
     1
  0
XRECORD
  5
1F7B
102
{ACAD_REACTORS
330
1F7A
102
}
330
1F7A
100
AcDbXrecord
280
     1
102
RTVSPropertyOp0
 70
     1
102
RTVSPropertyOp1
 70
     1
102
RTVSPropertyOp2
 70
     1
102
RTVSPropertyOp3
 70
     1
102
RTVSPropertyOp4
 70
     1
102
RTVSPropertyOp5
 70
     1
102
RTVSPropertyOp6
 70
     1
102
RTVSPropertyOp7
 70
     1
102
RTVSPropertyOp8
 70
     1
102
RTVSPropertyOp9
 70
     1
102
RTVSPropertyOp10
 70
     1
102
RTVSPropertyOp11
 70
     1
102
RTVSPropertyOp12
 70
     1
102
RTVSPropertyOp13
 70
     1
102
RTVSPropertyOp14
 70
     1
102
RTVSPropertyOp15
 70
     1
102
RTVSPropertyOp16
 70
     1
102
RTVSPropertyOp17
 70
     1
102
RTVSPropertyOp18
 70
     1
102
RTVSPropertyOp19
 70
     1
102
RTVSPropertyOp20
 70
     1
102
RTVSPropertyOp21
 70
     1
102
RTVSPropertyOp22
 70
     1
102
RTVSPropertyOp23
 70
     1
102
RTVSPropertyOp24
 70
     1
102
RTVSPropertyOp25
 70
     1
102
RTVSPropertyOp26
 70
     1
102
RTVSPropertyOp27
 70
     1
102
RTVSPropertyOp28
 70
     1
102
RTVSPropertyOp29
 70
     1
102
RTVSPropertyOp30
 70
     1
102
RTVSPropertyOp31
 70
     1
102
RTVSPropertyOp32
 70
     1
102
RTVSPropertyOp33
 70
     1
102
RTVSPropertyOp34
 70
     1
102
RTVSPropertyOp35
 70
     1
102
RTVSPropertyOp36
 70
     1
102
RTVSPropertyOp37
 70
     1
102
RTVSPropertyOp38
 70
     1
102
RTVSPropertyOp39
 70
     1
102
RTVSPropertyOp40
 70
     1
102
RTVSPropertyOp41
 70
     1
102
RTVSPropertyOp42
 70
     1
102
RTVSPropertyOp43
 70
     1
102
RTVSPropertyOp44
 70
     1
102
RTVSPropertyOp45
 70
     1
102
RTVSPropertyOp46
 70
     1
102
RTVSPropertyOp47
 70
     1
102
RTVSPropertyOp48
 70
     1
102
RTVSPropertyOp49
 70
     1
102
RTVSPropertyOp50
 70
     1
102
RTVSPropertyOp51
 70
     0
102
RTVSPropertyOp52
 70
     0
102
RTVSPropertyOp53
 70
     1
102
RTVSPropertyOp54
 70
     1
102
RTVSPropertyOp55
 70
     1
102
RTVSPropertyOp56
 70
     1
102
RTVSPropertyOp57
 70
     1
102
RTVSPost2010Prop28
280
     0
102
RTVSPost2010PropOp28
 70
     1
102
RTVSPost2010Prop29
280
     1
102
RTVSPost2010PropOp29
 70
     1
102
RTVSPost2010Prop30
280
     1
102
RTVSPost2010PropOp30
 70
     1
102
RTVSPost2010Prop31
280
     0
102
RTVSPost2010PropOp31
 70
     1
102
RTVSPost2010Prop32
280
     0
102
RTVSPost2010PropOp32
 70
     1
102
RTVSPost2010Prop33
280
     0
102
RTVSPost2010PropOp33
 70
     1
102
RTVSPost2010Prop34
280
     0
102
RTVSPost2010PropOp34
 70
     1
102
RTVSPost2010Prop35
280
     0
102
RTVSPost2010PropOp35
 70
     1
102
RTVSPost2010Prop36
280
     0
102
RTVSPost2010PropOp36
 70
     1
102
RTVSPost2010Prop37
 90
       50
102
RTVSPost2010PropOp37
 70
     1
102
RTVSPost2010Prop38
140
0.0
102
RTVSPost2010PropOp38
 70
     1
102
RTVSPost2010Prop39
140
1.0
102
RTVSPost2010PropOp39
 70
     1
102
RTVSPost2010Prop40
 90
        0
102
RTVSPost2010PropOp40
 70
     1
102
RTVSPost2010Prop41ColorIndex
 90
       18
102
RTVSPost2010Prop41ColorRGB
 90
        0
102
RTVSPost2010PropOp41
 70
     1
102
RTVSPost2010Prop42
 90
       50
102
RTVSPost2010PropOp42
 70
     1
102
RTVSPost2010Prop43
 90
        3
102
RTVSPost2010PropOp43
 70
     1
102
RTVSPost2010Prop44ColorIndex
 90
        5
102
RTVSPost2010Prop44ColorRGB
 90
      255
102
RTVSPost2010PropOp44
 70
     1
102
RTVSPost2010Prop45
280
     0
102
RTVSPost2010PropOp45
 70
     1
102
RTVSPost2010Prop46
 90
       50
102
RTVSPost2010PropOp46
 70
     1
102
RTVSPost2010Prop47
 90
       50
102
RTVSPost2010PropOp47
 70
     1
102
RTVSPost2010Prop48
 90
       50
102
RTVSPost2010PropOp48
 70
     1
102
RTVSPost2010Prop49
280
     0
102
RTVSPost2010PropOp49
 70
     1
102
RTVSPost2010Prop50
 90
       50
102
RTVSPost2010PropOp50
 70
     1
102
RTVSPost2010Prop51ColorIndex
 90
      256
102
RTVSPost2010Prop51ColorRGB
 90
-16777216
102
RTVSPost2010PropOp51
 70
     0
102
RTVSPost2010Prop52
140
1.0
102
RTVSPost2010PropOp52
 70
     0
102
RTVSPost2010Prop53
 90
        2
102
RTVSPost2010PropOp53
 70
     1
102
RTVSPost2010Prop54
  1
strokes_ogs.tif
102
RTVSPost2010PropOp54
 70
     1
102
RTVSPost2010Prop55
280
     0
102
RTVSPost2010PropOp55
 70
     1
102
RTVSPost2010Prop56
140
1.0
102
RTVSPost2010PropOp56
 70
     1
102
RTVSPost2010Prop57
140
1.0
102
RTVSPost2010PropOp57
 70
     1
  0
XRECORD
  5
1F7D
102
{ACAD_REACTORS
330
1F7C
102
}
330
1F7C
100
AcDbXrecord
280
     1
102
RTVSPropertyOp0
 70
     1
102
RTVSPropertyOp1
 70
     1
102
RTVSPropertyOp2
 70
     1
102
RTVSPropertyOp3
 70
     1
102
RTVSPropertyOp4
 70
     1
102
RTVSPropertyOp5
 70
     1
102
RTVSPropertyOp6
 70
     1
102
RTVSPropertyOp7
 70
     1
102
RTVSPropertyOp8
 70
     1
102
RTVSPropertyOp9
 70
     1
102
RTVSPropertyOp10
 70
     1
102
RTVSPropertyOp11
 70
     1
102
RTVSPropertyOp12
 70
     1
102
RTVSPropertyOp13
 70
     1
102
RTVSPropertyOp14
 70
     1
102
RTVSPropertyOp15
 70
     1
102
RTVSPropertyOp16
 70
     1
102
RTVSPropertyOp17
 70
     1
102
RTVSPropertyOp18
 70
     1
102
RTVSPropertyOp19
 70
     1
102
RTVSPropertyOp20
 70
     1
102
RTVSPropertyOp21
 70
     1
102
RTVSPropertyOp22
 70
     1
102
RTVSPropertyOp23
 70
     1
102
RTVSPropertyOp24
 70
     1
102
RTVSPropertyOp25
 70
     1
102
RTVSPropertyOp26
 70
     1
102
RTVSPropertyOp27
 70
     1
102
RTVSPropertyOp28
 70
     1
102
RTVSPropertyOp29
 70
     1
102
RTVSPropertyOp30
 70
     1
102
RTVSPropertyOp31
 70
     1
102
RTVSPropertyOp32
 70
     1
102
RTVSPropertyOp33
 70
     1
102
RTVSPropertyOp34
 70
     1
102
RTVSPropertyOp35
 70
     1
102
RTVSPropertyOp36
 70
     1
102
RTVSPropertyOp37
 70
     1
102
RTVSPropertyOp38
 70
     1
102
RTVSPropertyOp39
 70
     1
102
RTVSPropertyOp40
 70
     1
102
RTVSPropertyOp41
 70
     1
102
RTVSPropertyOp42
 70
     1
102
RTVSPropertyOp43
 70
     1
102
RTVSPropertyOp44
 70
     1
102
RTVSPropertyOp45
 70
     1
102
RTVSPropertyOp46
 70
     1
102
RTVSPropertyOp47
 70
     1
102
RTVSPropertyOp48
 70
     1
102
RTVSPropertyOp49
 70
     1
102
RTVSPropertyOp50
 70
     1
102
RTVSPropertyOp51
 70
     0
102
RTVSPropertyOp52
 70
     0
102
RTVSPropertyOp53
 70
     1
102
RTVSPropertyOp54
 70
     1
102
RTVSPropertyOp55
 70
     1
102
RTVSPropertyOp56
 70
     1
102
RTVSPropertyOp57
 70
     1
102
RTVSPost2010Prop28
280
     0
102
RTVSPost2010PropOp28
 70
     1
102
RTVSPost2010Prop29
280
     1
102
RTVSPost2010PropOp29
 70
     1
102
RTVSPost2010Prop30
280
     1
102
RTVSPost2010PropOp30
 70
     1
102
RTVSPost2010Prop31
280
     0
102
RTVSPost2010PropOp31
 70
     1
102
RTVSPost2010Prop32
280
     0
102
RTVSPost2010PropOp32
 70
     1
102
RTVSPost2010Prop33
280
     0
102
RTVSPost2010PropOp33
 70
     1
102
RTVSPost2010Prop34
280
     0
102
RTVSPost2010PropOp34
 70
     1
102
RTVSPost2010Prop35
280
     0
102
RTVSPost2010PropOp35
 70
     1
102
RTVSPost2010Prop36
280
     0
102
RTVSPost2010PropOp36
 70
     1
102
RTVSPost2010Prop37
 90
       50
102
RTVSPost2010PropOp37
 70
     1
102
RTVSPost2010Prop38
140
0.0
102
RTVSPost2010PropOp38
 70
     1
102
RTVSPost2010Prop39
140
1.0
102
RTVSPost2010PropOp39
 70
     1
102
RTVSPost2010Prop40
 90
        0
102
RTVSPost2010PropOp40
 70
     1
102
RTVSPost2010Prop41ColorIndex
 90
       18
102
RTVSPost2010Prop41ColorRGB
 90
        0
102
RTVSPost2010PropOp41
 70
     1
102
RTVSPost2010Prop42
 90
       50
102
RTVSPost2010PropOp42
 70
     1
102
RTVSPost2010Prop43
 90
        3
102
RTVSPost2010PropOp43
 70
     1
102
RTVSPost2010Prop44ColorIndex
 90
        5
102
RTVSPost2010Prop44ColorRGB
 90
      255
102
RTVSPost2010PropOp44
 70
     1
102
RTVSPost2010Prop45
280
     0
102
RTVSPost2010PropOp45
 70
     1
102
RTVSPost2010Prop46
 90
       50
102
RTVSPost2010PropOp46
 70
     1
102
RTVSPost2010Prop47
 90
       50
102
RTVSPost2010PropOp47
 70
     1
102
RTVSPost2010Prop48
 90
       50
102
RTVSPost2010PropOp48
 70
     1
102
RTVSPost2010Prop49
280
     0
102
RTVSPost2010PropOp49
 70
     1
102
RTVSPost2010Prop50
 90
       50
102
RTVSPost2010PropOp50
 70
     1
102
RTVSPost2010Prop51ColorIndex
 90
      256
102
RTVSPost2010Prop51ColorRGB
 90
-16777216
102
RTVSPost2010PropOp51
 70
     0
102
RTVSPost2010Prop52
140
1.0
102
RTVSPost2010PropOp52
 70
     0
102
RTVSPost2010Prop53
 90
        2
102
RTVSPost2010PropOp53
 70
     1
102
RTVSPost2010Prop54
  1
strokes_ogs.tif
102
RTVSPost2010PropOp54
 70
     1
102
RTVSPost2010Prop55
280
     0
102
RTVSPost2010PropOp55
 70
     1
102
RTVSPost2010Prop56
140
1.0
102
RTVSPost2010PropOp56
 70
     1
102
RTVSPost2010Prop57
140
1.0
102
RTVSPost2010PropOp57
 70
     1
  0
XRECORD
  5
1F7F
102
{ACAD_REACTORS
330
1F7E
102
}
330
1F7E
100
AcDbXrecord
280
     1
102
RTVSPropertyOp0
 70
     1
102
RTVSPropertyOp1
 70
     1
102
RTVSPropertyOp2
 70
     1
102
RTVSPropertyOp3
 70
     1
102
RTVSPropertyOp4
 70
     1
102
RTVSPropertyOp5
 70
     1
102
RTVSPropertyOp6
 70
     1
102
RTVSPropertyOp7
 70
     1
102
RTVSPropertyOp8
 70
     1
102
RTVSPropertyOp9
 70
     1
102
RTVSPropertyOp10
 70
     1
102
RTVSPropertyOp11
 70
     1
102
RTVSPropertyOp12
 70
     1
102
RTVSPropertyOp13
 70
     1
102
RTVSPropertyOp14
 70
     1
102
RTVSPropertyOp15
 70
     1
102
RTVSPropertyOp16
 70
     1
102
RTVSPropertyOp17
 70
     1
102
RTVSPropertyOp18
 70
     1
102
RTVSPropertyOp19
 70
     1
102
RTVSPropertyOp20
 70
     1
102
RTVSPropertyOp21
 70
     1
102
RTVSPropertyOp22
 70
     1
102
RTVSPropertyOp23
 70
     1
102
RTVSPropertyOp24
 70
     1
102
RTVSPropertyOp25
 70
     1
102
RTVSPropertyOp26
 70
     1
102
RTVSPropertyOp27
 70
     1
102
RTVSPropertyOp28
 70
     1
102
RTVSPropertyOp29
 70
     1
102
RTVSPropertyOp30
 70
     1
102
RTVSPropertyOp31
 70
     1
102
RTVSPropertyOp32
 70
     1
102
RTVSPropertyOp33
 70
     1
102
RTVSPropertyOp34
 70
     1
102
RTVSPropertyOp35
 70
     1
102
RTVSPropertyOp36
 70
     1
102
RTVSPropertyOp37
 70
     1
102
RTVSPropertyOp38
 70
     1
102
RTVSPropertyOp39
 70
     1
102
RTVSPropertyOp40
 70
     1
102
RTVSPropertyOp41
 70
     1
102
RTVSPropertyOp42
 70
     1
102
RTVSPropertyOp43
 70
     1
102
RTVSPropertyOp44
 70
     1
102
RTVSPropertyOp45
 70
     1
102
RTVSPropertyOp46
 70
     1
102
RTVSPropertyOp47
 70
     1
102
RTVSPropertyOp48
 70
     1
102
RTVSPropertyOp49
 70
     1
102
RTVSPropertyOp50
 70
     1
102
RTVSPropertyOp51
 70
     0
102
RTVSPropertyOp52
 70
     0
102
RTVSPropertyOp53
 70
     1
102
RTVSPropertyOp54
 70
     1
102
RTVSPropertyOp55
 70
     1
102
RTVSPropertyOp56
 70
     1
102
RTVSPropertyOp57
 70
     1
102
RTVSPost2010Prop28
280
     0
102
RTVSPost2010PropOp28
 70
     1
102
RTVSPost2010Prop29
280
     1
102
RTVSPost2010PropOp29
 70
     1
102
RTVSPost2010Prop30
280
     1
102
RTVSPost2010PropOp30
 70
     1
102
RTVSPost2010Prop31
280
     0
102
RTVSPost2010PropOp31
 70
     1
102
RTVSPost2010Prop32
280
     0
102
RTVSPost2010PropOp32
 70
     1
102
RTVSPost2010Prop33
280
     0
102
RTVSPost2010PropOp33
 70
     1
102
RTVSPost2010Prop34
280
     0
102
RTVSPost2010PropOp34
 70
     1
102
RTVSPost2010Prop35
280
     0
102
RTVSPost2010PropOp35
 70
     1
102
RTVSPost2010Prop36
280
     0
102
RTVSPost2010PropOp36
 70
     1
102
RTVSPost2010Prop37
 90
       50
102
RTVSPost2010PropOp37
 70
     1
102
RTVSPost2010Prop38
140
0.0
102
RTVSPost2010PropOp38
 70
     1
102
RTVSPost2010Prop39
140
1.0
102
RTVSPost2010PropOp39
 70
     1
102
RTVSPost2010Prop40
 90
        0
102
RTVSPost2010PropOp40
 70
     1
102
RTVSPost2010Prop41ColorIndex
 90
       18
102
RTVSPost2010Prop41ColorRGB
 90
        0
102
RTVSPost2010PropOp41
 70
     1
102
RTVSPost2010Prop42
 90
       50
102
RTVSPost2010PropOp42
 70
     1
102
RTVSPost2010Prop43
 90
        3
102
RTVSPost2010PropOp43
 70
     1
102
RTVSPost2010Prop44ColorIndex
 90
        5
102
RTVSPost2010Prop44ColorRGB
 90
      255
102
RTVSPost2010PropOp44
 70
     1
102
RTVSPost2010Prop45
280
     0
102
RTVSPost2010PropOp45
 70
     1
102
RTVSPost2010Prop46
 90
       50
102
RTVSPost2010PropOp46
 70
     1
102
RTVSPost2010Prop47
 90
       50
102
RTVSPost2010PropOp47
 70
     1
102
RTVSPost2010Prop48
 90
       50
102
RTVSPost2010PropOp48
 70
     1
102
RTVSPost2010Prop49
280
     0
102
RTVSPost2010PropOp49
 70
     1
102
RTVSPost2010Prop50
 90
       50
102
RTVSPost2010PropOp50
 70
     1
102
RTVSPost2010Prop51ColorIndex
 90
      256
102
RTVSPost2010Prop51ColorRGB
 90
-16777216
102
RTVSPost2010PropOp51
 70
     0
102
RTVSPost2010Prop52
140
1.0
102
RTVSPost2010PropOp52
 70
     0
102
RTVSPost2010Prop53
 90
        2
102
RTVSPost2010PropOp53
 70
     1
102
RTVSPost2010Prop54
  1
strokes_ogs.tif
102
RTVSPost2010PropOp54
 70
     1
102
RTVSPost2010Prop55
280
     0
102
RTVSPost2010PropOp55
 70
     1
102
RTVSPost2010Prop56
140
1.0
102
RTVSPost2010PropOp56
 70
     1
102
RTVSPost2010Prop57
140
1.0
102
RTVSPost2010PropOp57
 70
     1
  0
XRECORD
  5
1F81
102
{ACAD_REACTORS
330
1F80
102
}
330
1F80
100
AcDbXrecord
280
     1
102
RTVSPropertyOp0
 70
     1
102
RTVSPropertyOp1
 70
     1
102
RTVSPropertyOp2
 70
     1
102
RTVSPropertyOp3
 70
     1
102
RTVSPropertyOp4
 70
     1
102
RTVSPropertyOp5
 70
     1
102
RTVSPropertyOp6
 70
     1
102
RTVSPropertyOp7
 70
     1
102
RTVSPropertyOp8
 70
     1
102
RTVSPropertyOp9
 70
     1
102
RTVSPropertyOp10
 70
     1
102
RTVSPropertyOp11
 70
     1
102
RTVSPropertyOp12
 70
     1
102
RTVSPropertyOp13
 70
     1
102
RTVSPropertyOp14
 70
     1
102
RTVSPropertyOp15
 70
     1
102
RTVSPropertyOp16
 70
     1
102
RTVSPropertyOp17
 70
     1
102
RTVSPropertyOp18
 70
     1
102
RTVSPropertyOp19
 70
     1
102
RTVSPropertyOp20
 70
     1
102
RTVSPropertyOp21
 70
     1
102
RTVSPropertyOp22
 70
     1
102
RTVSPropertyOp23
 70
     1
102
RTVSPropertyOp24
 70
     1
102
RTVSPropertyOp25
 70
     1
102
RTVSPropertyOp26
 70
     1
102
RTVSPropertyOp27
 70
     1
102
RTVSPropertyOp28
 70
     1
102
RTVSPropertyOp29
 70
     1
102
RTVSPropertyOp30
 70
     1
102
RTVSPropertyOp31
 70
     1
102
RTVSPropertyOp32
 70
     1
102
RTVSPropertyOp33
 70
     1
102
RTVSPropertyOp34
 70
     1
102
RTVSPropertyOp35
 70
     1
102
RTVSPropertyOp36
 70
     1
102
RTVSPropertyOp37
 70
     1
102
RTVSPropertyOp38
 70
     1
102
RTVSPropertyOp39
 70
     1
102
RTVSPropertyOp40
 70
     1
102
RTVSPropertyOp41
 70
     1
102
RTVSPropertyOp42
 70
     1
102
RTVSPropertyOp43
 70
     1
102
RTVSPropertyOp44
 70
     1
102
RTVSPropertyOp45
 70
     1
102
RTVSPropertyOp46
 70
     1
102
RTVSPropertyOp47
 70
     1
102
RTVSPropertyOp48
 70
     1
102
RTVSPropertyOp49
 70
     1
102
RTVSPropertyOp50
 70
     1
102
RTVSPropertyOp51
 70
     0
102
RTVSPropertyOp52
 70
     0
102
RTVSPropertyOp53
 70
     1
102
RTVSPropertyOp54
 70
     1
102
RTVSPropertyOp55
 70
     1
102
RTVSPropertyOp56
 70
     1
102
RTVSPropertyOp57
 70
     1
102
RTVSPost2010Prop28
280
     0
102
RTVSPost2010PropOp28
 70
     1
102
RTVSPost2010Prop29
280
     1
102
RTVSPost2010PropOp29
 70
     1
102
RTVSPost2010Prop30
280
     1
102
RTVSPost2010PropOp30
 70
     1
102
RTVSPost2010Prop31
280
     0
102
RTVSPost2010PropOp31
 70
     1
102
RTVSPost2010Prop32
280
     0
102
RTVSPost2010PropOp32
 70
     1
102
RTVSPost2010Prop33
280
     0
102
RTVSPost2010PropOp33
 70
     1
102
RTVSPost2010Prop34
280
     0
102
RTVSPost2010PropOp34
 70
     1
102
RTVSPost2010Prop35
280
     0
102
RTVSPost2010PropOp35
 70
     1
102
RTVSPost2010Prop36
280
     0
102
RTVSPost2010PropOp36
 70
     1
102
RTVSPost2010Prop37
 90
       50
102
RTVSPost2010PropOp37
 70
     1
102
RTVSPost2010Prop38
140
0.0
102
RTVSPost2010PropOp38
 70
     1
102
RTVSPost2010Prop39
140
1.0
102
RTVSPost2010PropOp39
 70
     1
102
RTVSPost2010Prop40
 90
        0
102
RTVSPost2010PropOp40
 70
     1
102
RTVSPost2010Prop41ColorIndex
 90
       18
102
RTVSPost2010Prop41ColorRGB
 90
        0
102
RTVSPost2010PropOp41
 70
     1
102
RTVSPost2010Prop42
 90
       50
102
RTVSPost2010PropOp42
 70
     1
102
RTVSPost2010Prop43
 90
        3
102
RTVSPost2010PropOp43
 70
     1
102
RTVSPost2010Prop44ColorIndex
 90
        5
102
RTVSPost2010Prop44ColorRGB
 90
      255
102
RTVSPost2010PropOp44
 70
     1
102
RTVSPost2010Prop45
280
     0
102
RTVSPost2010PropOp45
 70
     1
102
RTVSPost2010Prop46
 90
       50
102
RTVSPost2010PropOp46
 70
     1
102
RTVSPost2010Prop47
 90
       50
102
RTVSPost2010PropOp47
 70
     1
102
RTVSPost2010Prop48
 90
       50
102
RTVSPost2010PropOp48
 70
     1
102
RTVSPost2010Prop49
280
     0
102
RTVSPost2010PropOp49
 70
     1
102
RTVSPost2010Prop50
 90
       50
102
RTVSPost2010PropOp50
 70
     1
102
RTVSPost2010Prop51ColorIndex
 90
      256
102
RTVSPost2010Prop51ColorRGB
 90
-16777216
102
RTVSPost2010PropOp51
 70
     0
102
RTVSPost2010Prop52
140
1.0
102
RTVSPost2010PropOp52
 70
     0
102
RTVSPost2010Prop53
 90
        2
102
RTVSPost2010PropOp53
 70
     1
102
RTVSPost2010Prop54
  1
strokes_ogs.tif
102
RTVSPost2010PropOp54
 70
     1
102
RTVSPost2010Prop55
280
     0
102
RTVSPost2010PropOp55
 70
     1
102
RTVSPost2010Prop56
140
1.0
102
RTVSPost2010PropOp56
 70
     1
102
RTVSPost2010Prop57
140
1.0
102
RTVSPost2010PropOp57
 70
     1
  0
XRECORD
  5
1F83
102
{ACAD_REACTORS
330
1F82
102
}
330
1F82
100
AcDbXrecord
280
     1
102
RTVSPropertyOp0
 70
     1
102
RTVSPropertyOp1
 70
     1
102
RTVSPropertyOp2
 70
     1
102
RTVSPropertyOp3
 70
     1
102
RTVSPropertyOp4
 70
     1
102
RTVSPropertyOp5
 70
     1
102
RTVSPropertyOp6
 70
     1
102
RTVSPropertyOp7
 70
     1
102
RTVSPropertyOp8
 70
     1
102
RTVSPropertyOp9
 70
     1
102
RTVSPropertyOp10
 70
     1
102
RTVSPropertyOp11
 70
     1
102
RTVSPropertyOp12
 70
     1
102
RTVSPropertyOp13
 70
     1
102
RTVSPropertyOp14
 70
     1
102
RTVSPropertyOp15
 70
     1
102
RTVSPropertyOp16
 70
     1
102
RTVSPropertyOp17
 70
     1
102
RTVSPropertyOp18
 70
     1
102
RTVSPropertyOp19
 70
     1
102
RTVSPropertyOp20
 70
     1
102
RTVSPropertyOp21
 70
     1
102
RTVSPropertyOp22
 70
     1
102
RTVSPropertyOp23
 70
     1
102
RTVSPropertyOp24
 70
     1
102
RTVSPropertyOp25
 70
     1
102
RTVSPropertyOp26
 70
     1
102
RTVSPropertyOp27
 70
     1
102
RTVSPropertyOp28
 70
     1
102
RTVSPropertyOp29
 70
     1
102
RTVSPropertyOp30
 70
     1
102
RTVSPropertyOp31
 70
     1
102
RTVSPropertyOp32
 70
     1
102
RTVSPropertyOp33
 70
     1
102
RTVSPropertyOp34
 70
     1
102
RTVSPropertyOp35
 70
     1
102
RTVSPropertyOp36
 70
     1
102
RTVSPropertyOp37
 70
     1
102
RTVSPropertyOp38
 70
     1
102
RTVSPropertyOp39
 70
     1
102
RTVSPropertyOp40
 70
     1
102
RTVSPropertyOp41
 70
     1
102
RTVSPropertyOp42
 70
     1
102
RTVSPropertyOp43
 70
     1
102
RTVSPropertyOp44
 70
     1
102
RTVSPropertyOp45
 70
     1
102
RTVSPropertyOp46
 70
     1
102
RTVSPropertyOp47
 70
     1
102
RTVSPropertyOp48
 70
     1
102
RTVSPropertyOp49
 70
     1
102
RTVSPropertyOp50
 70
     1
102
RTVSPropertyOp51
 70
     0
102
RTVSPropertyOp52
 70
     0
102
RTVSPropertyOp53
 70
     1
102
RTVSPropertyOp54
 70
     1
102
RTVSPropertyOp55
 70
     1
102
RTVSPropertyOp56
 70
     1
102
RTVSPropertyOp57
 70
     1
102
RTVSPost2010Prop28
280
     0
102
RTVSPost2010PropOp28
 70
     1
102
RTVSPost2010Prop29
280
     1
102
RTVSPost2010PropOp29
 70
     1
102
RTVSPost2010Prop30
280
     1
102
RTVSPost2010PropOp30
 70
     1
102
RTVSPost2010Prop31
280
     0
102
RTVSPost2010PropOp31
 70
     1
102
RTVSPost2010Prop32
280
     0
102
RTVSPost2010PropOp32
 70
     1
102
RTVSPost2010Prop33
280
     0
102
RTVSPost2010PropOp33
 70
     1
102
RTVSPost2010Prop34
280
     0
102
RTVSPost2010PropOp34
 70
     1
102
RTVSPost2010Prop35
280
     0
102
RTVSPost2010PropOp35
 70
     1
102
RTVSPost2010Prop36
280
     0
102
RTVSPost2010PropOp36
 70
     1
102
RTVSPost2010Prop37
 90
       50
102
RTVSPost2010PropOp37
 70
     1
102
RTVSPost2010Prop38
140
0.0
102
RTVSPost2010PropOp38
 70
     1
102
RTVSPost2010Prop39
140
1.0
102
RTVSPost2010PropOp39
 70
     1
102
RTVSPost2010Prop40
 90
        0
102
RTVSPost2010PropOp40
 70
     1
102
RTVSPost2010Prop41ColorIndex
 90
       18
102
RTVSPost2010Prop41ColorRGB
 90
        0
102
RTVSPost2010PropOp41
 70
     1
102
RTVSPost2010Prop42
 90
       50
102
RTVSPost2010PropOp42
 70
     1
102
RTVSPost2010Prop43
 90
        3
102
RTVSPost2010PropOp43
 70
     1
102
RTVSPost2010Prop44ColorIndex
 90
        5
102
RTVSPost2010Prop44ColorRGB
 90
      255
102
RTVSPost2010PropOp44
 70
     1
102
RTVSPost2010Prop45
280
     0
102
RTVSPost2010PropOp45
 70
     1
102
RTVSPost2010Prop46
 90
       50
102
RTVSPost2010PropOp46
 70
     1
102
RTVSPost2010Prop47
 90
       50
102
RTVSPost2010PropOp47
 70
     1
102
RTVSPost2010Prop48
 90
       50
102
RTVSPost2010PropOp48
 70
     1
102
RTVSPost2010Prop49
280
     0
102
RTVSPost2010PropOp49
 70
     1
102
RTVSPost2010Prop50
 90
       50
102
RTVSPost2010PropOp50
 70
     1
102
RTVSPost2010Prop51ColorIndex
 90
      256
102
RTVSPost2010Prop51ColorRGB
 90
-16777216
102
RTVSPost2010PropOp51
 70
     0
102
RTVSPost2010Prop52
140
1.0
102
RTVSPost2010PropOp52
 70
     0
102
RTVSPost2010Prop53
 90
        2
102
RTVSPost2010PropOp53
 70
     1
102
RTVSPost2010Prop54
  1
strokes_ogs.tif
102
RTVSPost2010PropOp54
 70
     1
102
RTVSPost2010Prop55
280
     0
102
RTVSPost2010PropOp55
 70
     1
102
RTVSPost2010Prop56
140
1.0
102
RTVSPost2010PropOp56
 70
     1
102
RTVSPost2010Prop57
140
1.0
102
RTVSPost2010PropOp57
 70
     1
  0
ENDSEC
  0
EOF
