  0
SECTION
  2
HEADER
  9
$ACADVER
  1
AC1015
  9
$ACADMAINTVER
 70
     6
  9
$DWGCODEPAGE
  3
ANSI_932
  9
$INSBASE
 10
1955.974830285529
 20
746.1177103371888
 30
0.0
  9
$EXTMIN
 10
108.9242568596394
 20
7.274558931430192
 30
0.0
  9
$EXTMAX
 10
1420.311794302164
 20
1272.490730492063
 30
0.0
  9
$LIMMIN
 10
-210.0
 20
-148.5
  9
$LIMMAX
 10
210.0
 20
148.5
  9
$ORTHOMODE
 70
     1
  9
$REGENMODE
 70
     1
  9
$FILLMODE
 70
     1
  9
$QTEXTMODE
 70
     0
  9
$MIRRTEXT
 70
     1
  9
$LTSCALE
 40
3.0
  9
$ATTMODE
 70
     1
  9
$TEXTSIZE
 40
12.0
  9
$TRACEWID
 40
0.05
  9
$TEXTSTYLE
  7
KANJI
  9
$CLAYER
  8
2
  9
$CELTYPE
  6
BYLAYER
  9
$CECOLOR
 62
   256
  9
$CELTSCALE
 40
1.0
  9
$DISPSILH
 70
     0
  9
$DIMSCALE
 40
4.0
  9
$DIMASZ
 40
2.0
  9
$DIMEXO
 40
0.5
  9
$DIMDLI
 40
10.0
  9
$DIMRND
 40
0.0
  9
$DIMDLE
 40
0.0
  9
$DIMEXE
 40
1.0
  9
$DIMTP
 40
0.0
  9
$DIMTM
 40
0.0
  9
$DIMTXT
 40
3.0
  9
$DIMCEN
 40
0.09
  9
$DIMTSZ
 40
0.0
  9
$DIMTOL
 70
     0
  9
$DIMLIM
 70
     0
  9
$DIMTIH
 70
     0
  9
$DIMTOH
 70
     0
  9
$DIMSE1
 70
     0
  9
$DIMSE2
 70
     0
  9
$DIMTAD
 70
     0
  9
$DIMZIN
 70
     8
  9
$DIMBLK
  1

  9
$DIMASO
 70
     0
  9
$DIMSHO
 70
     0
  9
$DIMPOST
  1

  9
$DIMAPOST
  1

  9
$DIMALT
 70
     0
  9
$DIMALTD
 70
     2
  9
$DIMALTF
 40
25.4
  9
$DIMLFAC
 40
1.0
  9
$DIMTOFL
 70
     1
  9
$DIMTVP
 40
1.0
  9
$DIMTIX
 70
     1
  9
$DIMSOXD
 70
     1
  9
$DIMSAH
 70
     0
  9
$DIMBLK1
  1

  9
$DIMBLK2
  1

  9
$DIMSTYLE
  2
STANDARD
  9
$DIMCLRD
 70
   256
  9
$DIMCLRE
 70
   256
  9
$DIMCLRT
 70
   256
  9
$DIMTFAC
 40
1.0
  9
$DIMGAP
 40
0.09
  9
$DIMJUST
 70
     0
  9
$DIMSD1
 70
     0
  9
$DIMSD2
 70
     0
  9
$DIMTOLJ
 70
     1
  9
$DIMTZIN
 70
     0
  9
$DIMALTZ
 70
     0
  9
$DIMALTTZ
 70
     0
  9
$DIMUPT
 70
     0
  9
$DIMDEC
 70
     4
  9
$DIMTDEC
 70
     4
  9
$DIMALTU
 70
     2
  9
$DIMALTTD
 70
     2
  9
$DIMTXSTY
  7
STANDARD
  9
$DIMAUNIT
 70
     0
  9
$DIMADEC
 70
     0
  9
$DIMALTRND
 40
0.0
  9
$DIMAZIN
 70
     0
  9
$DIMDSEP
 70
    46
  9
$DIMATFIT
 70
     3
  9
$DIMFRAC
 70
     0
  9
$DIMLDRBLK
  1

  9
$DIMLUNIT
 70
     2
  9
$DIMLWD
 70
    -2
  9
$DIMLWE
 70
    -2
  9
$DIMTMOVE
 70
     0
  9
$LUNITS
 70
     2
  9
$LUPREC
 70
     4
  9
$SKETCHINC
 40
0.1
  9
$FILLETRAD
 40
2.0
  9
$AUNITS
 70
     0
  9
$AUPREC
 70
     0
  9
$MENU
  1
.
  9
$ELEVATION
 40
0.0
  9
$PELEVATION
 40
0.0
  9
$THICKNESS
 40
0.0
  9
$LIMCHECK
 70
     0
  9
$CHAMFERA
 40
0.0
  9
$CHAMFERB
 40
0.0
  9
$CHAMFERC
 40
0.0
  9
$CHAMFERD
 40
0.0
  9
$SKPOLY
 70
     0
  9
$TDCREATE
 40
2457542.816486828
  9
$TDUCREATE
 40
2457542.441486828
  9
$TDUPDATE
 40
2457870.616460289
  9
$TDUUPDATE
 40
2457870.241460289
  9
$TDINDWG
 40
0.0172501852
  9
$TDUSRTIMER
 40
0.0172494792
  9
$USRTIMER
 70
     1
  9
$ANGBASE
 50
0.0
  9
$ANGDIR
 70
     0
  9
$PDMODE
 70
     0
  9
$PDSIZE
 40
0.0
  9
$PLINEWID
 40
0.0
  9
$SPLFRAME
 70
     0
  9
$SPLINETYPE
 70
     6
  9
$SPLINESEGS
 70
     8
  9
$HANDSEED
  5
66C
  9
$SURFTAB1
 70
     6
  9
$SURFTAB2
 70
     6
  9
$SURFTYPE
 70
     6
  9
$SURFU
 70
     6
  9
$SURFV
 70
     6
  9
$UCSBASE
  2

  9
$UCSNAME
  2

  9
$UCSORG
 10
0.0
 20
0.0
 30
0.0
  9
$UCSXDIR
 10
1.0
 20
0.0
 30
0.0
  9
$UCSYDIR
 10
0.0
 20
1.0
 30
0.0
  9
$UCSORTHOREF
  2

  9
$UCSORTHOVIEW
 70
     0
  9
$UCSORGTOP
 10
0.0
 20
0.0
 30
0.0
  9
$UCSORGBOTTOM
 10
0.0
 20
0.0
 30
0.0
  9
$UCSORGLEFT
 10
0.0
 20
0.0
 30
0.0
  9
$UCSORGRIGHT
 10
0.0
 20
0.0
 30
0.0
  9
$UCSORGFRONT
 10
0.0
 20
0.0
 30
0.0
  9
$UCSORGBACK
 10
0.0
 20
0.0
 30
0.0
  9
$PUCSBASE
  2

  9
$PUCSNAME
  2

  9
$PUCSORG
 10
0.0
 20
0.0
 30
0.0
  9
$PUCSXDIR
 10
1.0
 20
0.0
 30
0.0
  9
$PUCSYDIR
 10
0.0
 20
1.0
 30
0.0
  9
$PUCSORTHOREF
  2

  9
$PUCSORTHOVIEW
 70
     0
  9
$PUCSORGTOP
 10
0.0
 20
0.0
 30
0.0
  9
$PUCSORGBOTTOM
 10
0.0
 20
0.0
 30
0.0
  9
$PUCSORGLEFT
 10
0.0
 20
0.0
 30
0.0
  9
$PUCSORGRIGHT
 10
0.0
 20
0.0
 30
0.0
  9
$PUCSORGFRONT
 10
0.0
 20
0.0
 30
0.0
  9
$PUCSORGBACK
 10
0.0
 20
0.0
 30
0.0
  9
$USERI1
 70
     0
  9
$USERI2
 70
     0
  9
$USERI3
 70
     0
  9
$USERI4
 70
     0
  9
$USERI5
 70
     0
  9
$USERR1
 40
0.0
  9
$USERR2
 40
0.0
  9
$USERR3
 40
0.0
  9
$USERR4
 40
0.0
  9
$USERR5
 40
0.0
  9
$WORLDVIEW
 70
     1
  9
$SHADEDGE
 70
     3
  9
$SHADEDIF
 70
    70
  9
$TILEMODE
 70
     1
  9
$MAXACTVP
 70
    16
  9
$PINSBASE
 10
0.0
 20
0.0
 30
0.0
  9
$PLIMCHECK
 70
     0
  9
$PEXTMIN
 10
1.000000000000000E+20
 20
1.000000000000000E+20
 30
1.000000000000000E+20
  9
$PEXTMAX
 10
-1.000000000000000E+20
 20
-1.000000000000000E+20
 30
-1.000000000000000E+20
  9
$PLIMMIN
 10
0.0
 20
0.0
  9
$PLIMMAX
 10
12.0
 20
9.0
  9
$UNITMODE
 70
     0
  9
$VISRETAIN
 70
     0
  9
$PLINEGEN
 70
     0
  9
$PSLTSCALE
 70
     1
  9
$TREEDEPTH
 70
  3020
  9
$CMLSTYLE
  2
STANDARD
  9
$CMLJUST
 70
     0
  9
$CMLSCALE
 40
1.0
  9
$PROXYGRAPHICS
 70
     1
  9
$MEASUREMENT
 70
     0
  9
$CELWEIGHT
370
    -1
  9
$ENDCAPS
280
     0
  9
$JOINSTYLE
280
     0
  9
$LWDISPLAY
290
     0
  9
$INSUNITS
 70
     0
  9
$HYPERLINKBASE
  1

  9
$STYLESHEET
  1
monochrome.ctb
  9
$XEDIT
290
     1
  9
$CEPSNTYPE
380
     0
  9
$PSTYLEMODE
290
     1
  9
$FINGERPRINTGUID
  2
{EB602474-75B2-4EFB-BB3C-CA6E542901DF}
  9
$VERSIONGUID
  2
{9F24F0C3-BF72-4574-A925-E06DE9172671}
  9
$EXTNAMES
290
     1
  9
$PSVPSCALE
 40
0.0
  9
$OLESTARTUP
290
     0
  0
ENDSEC
  0
SECTION
  2
CLASSES
  0
CLASS
  1
ACDBDICTIONARYWDFLT
  2
AcDbDictionaryWithDefault
  3
ObjectDBX Classes
 90
        0
280
     0
281
     0
  0
CLASS
  1
MATERIAL
  2
AcDbMaterial
  3
ObjectDBX Classes
 90
     1153
280
     0
281
     0
  0
CLASS
  1
SORTENTSTABLE
  2
AcDbSortentsTable
  3
ObjectDBX Classes
 90
        0
280
     0
281
     0
  0
CLASS
  1
VISUALSTYLE
  2
AcDbVisualStyle
  3
ObjectDBX Classes
 90
     4095
280
     0
281
     0
  0
CLASS
  1
SCALE
  2
AcDbScale
  3
ObjectDBX Classes
 90
     1153
280
     0
281
     0
  0
CLASS
  1
DICTIONARYVAR
  2
AcDbDictionaryVar
  3
ObjectDBX Classes
 90
        0
280
     0
281
     0
  0
CLASS
  1
MLEADERSTYLE
  2
AcDbMLeaderStyle
  3
ACDB_MLEADERSTYLE_CLASS
 90
     4095
280
     0
281
     0
  0
CLASS
  1
TABLESTYLE
  2
AcDbTableStyle
  3
ObjectDBX Classes
 90
     4095
280
     0
281
     0
  0
CLASS
  1
ACDBPLACEHOLDER
  2
AcDbPlaceHolder
  3
ObjectDBX Classes
 90
        0
280
     0
281
     0
  0
CLASS
  1
LAYOUT
  2
AcDbLayout
  3
ObjectDBX Classes
 90
        0
280
     0
281
     0
  0
ENDSEC
  0
SECTION
  2
TABLES
  0
TABLE
  2
VPORT
  5
2E
102
{ACAD_XDICTIONARY
360
631
102
}
330
0
100
AcDbSymbolTable
 70
     1
  0
VPORT
  5
35
330
2E
100
AcDbSymbolTableRecord
100
AcDbViewportTableRecord
  2
*Active
 70
     0
 10
0.0
 20
0.0
 11
1.0
 21
1.0
 12
1215.874890932564
 22
696.0717519620365
 13
0.0
 23
0.0
 14
1.0
 24
1.0
 15
0.0
 25
0.0
 16
0.0
 26
0.0
 36
1.0
 17
0.0
 27
0.0
 37
0.0
 40
1921.902445913162
 41
2.174107142857143
 42
50.0
 43
0.0
 44
0.0
 50
0.0
 51
0.0
 71
     0
 72
 20000
 73
     1
 74
     0
 75
     0
 76
     0
 77
     0
 78
     0
281
     0
 65
     1
110
0.0
120
0.0
130
0.0
111
1.0
121
0.0
131
0.0
112
0.0
122
1.0
132
0.0
 79
     0
146
0.0
1001
ACAD_NAV_VCDISPLAY
1070
     3
  0
ENDTAB
  0
TABLE
  2
LTYPE
  5
F
330
0
100
AcDbSymbolTable
 70
     4
  0
LTYPE
  5
10
330
F
100
AcDbSymbolTableRecord
100
AcDbLinetypeTableRecord
  2
BYBLOCK
 70
     0
  3

 72
    65
 73
     0
 40
0.0
  0
LTYPE
  5
11
330
F
100
AcDbSymbolTableRecord
100
AcDbLinetypeTableRecord
  2
BYLAYER
 70
     0
  3

 72
    65
 73
     0
 40
0.0
  0
LTYPE
  5
E
330
F
100
AcDbSymbolTableRecord
100
AcDbLinetypeTableRecord
  2
CONTINUOUS
 70
     0
  3
Solid line
 72
    65
 73
     0
 40
0.0
  0
LTYPE
  5
60
330
F
100
AcDbSymbolTableRecord
100
AcDbLinetypeTableRecord
  2
CENTER
 70
     0
  3
Center ____ _ ____ _ ____ _ ____ _ ____ _ ____
 72
    65
 73
     4
 40
2.0
 49
1.25
 74
     0
 49
-0.25
 74
     0
 49
0.25
 74
     0
 49
-0.25
 74
     0
  0
LTYPE
  5
6A
330
F
100
AcDbSymbolTableRecord
100
AcDbLinetypeTableRecord
  2
DASHED
 70
     0
  3
__ __ __ __ __ __ __ __ __ __ __ __ __ __ __ __
 72
    65
 73
     2
 40
0.75
 49
0.5
 74
     0
 49
-0.25
 74
     0
  0
ENDTAB
  0
TABLE
  2
LAYER
  5
2
102
{ACAD_XDICTIONARY
360
3
102
}
330
0
100
AcDbSymbolTable
 70
     8
  0
LAYER
  5
1F
102
{ACAD_XDICTIONARY
360
20
102
}
330
2
100
AcDbSymbolTableRecord
100
AcDbLayerTableRecord
  2
0
 70
     0
 62
     7
  6
CONTINUOUS
370
    -3
390
7
  0
LAYER
  5
DE
102
{ACAD_XDICTIONARY
360
DF
102
}
330
2
100
AcDbSymbolTableRecord
100
AcDbLayerTableRecord
  2
1
 70
     0
 62
     7
  6
CONTINUOUS
370
    -3
390
7
  0
LAYER
  5
1
102
{ACAD_XDICTIONARY
360
5
102
}
330
2
100
AcDbSymbolTableRecord
100
AcDbLayerTableRecord
  2
2
 70
     0
 62
     4
  6
CONTINUOUS
370
    -3
390
7
  0
LAYER
  5
D9
102
{ACAD_XDICTIONARY
360
DA
102
}
330
2
100
AcDbSymbolTableRecord
100
AcDbLayerTableRecord
  2
4
 70
     0
 62
     3
  6
CONTINUOUS
370
    -3
390
7
  0
LAYER
  5
5D
102
{ACAD_XDICTIONARY
360
5E
102
}
330
2
100
AcDbSymbolTableRecord
100
AcDbLayerTableRecord
  2
L-CENTER
 70
     0
 62
     1
  6
CENTER
370
    -3
390
7
  0
LAYER
  5
67
102
{ACAD_XDICTIONARY
360
68
102
}
330
2
100
AcDbSymbolTableRecord
100
AcDbLayerTableRecord
  2
3
 70
     0
 62
     2
  6
DASHED
370
    -3
390
7
  0
LAYER
  5
D4
330
2
100
AcDbSymbolTableRecord
100
AcDbLayerTableRecord
  2
5
 70
     0
 62
     6
  6
CONTINUOUS
370
    -3
390
7
  0
LAYER
  5
579
330
2
100
AcDbSymbolTableRecord
100
AcDbLayerTableRecord
  2
Defpoints
 70
     0
 62
     7
  6
CONTINUOUS
290
     0
370
    -3
390
7
  0
ENDTAB
  0
TABLE
  2
STYLE
  5
13
330
0
100
AcDbSymbolTable
 70
     2
  0
STYLE
  5
17
330
13
100
AcDbSymbolTableRecord
100
AcDbTextStyleTableRecord
  2
STANDARD
 70
     0
 40
0.0
 41
1.0
 50
0.0
 71
     0
 42
7.2
  3
txt
  4

  0
STYLE
  5
12
330
13
100
AcDbSymbolTableRecord
100
AcDbTextStyleTableRecord
  2
KANJI
 70
     0
 40
0.0
 41
1.0
 50
0.0
 71
     0
 42
12.0
  3
TXT
  4
BIGFONT
  0
ENDTAB
  0
TABLE
  2
VIEW
  5
2C
330
0
100
AcDbSymbolTable
 70
     0
  0
ENDTAB
  0
TABLE
  2
UCS
  5
2D
330
0
100
AcDbSymbolTable
 70
     0
  0
ENDTAB
  0
TABLE
  2
APPID
  5
D
330
0
100
AcDbSymbolTable
 70
     4
  0
APPID
  5
C
330
D
100
AcDbSymbolTableRecord
100
AcDbRegAppTableRecord
  2
ACAD
 70
     0
  0
APPID
  5
36
330
D
100
AcDbSymbolTableRecord
100
AcDbRegAppTableRecord
  2
ACAD_NAV_VCDISPLAY
 70
     0
  0
APPID
  5
27
330
D
100
AcDbSymbolTableRecord
100
AcDbRegAppTableRecord
  2
ACAD_PSEXT
 70
     0
  0
APPID
  5
5EF
330
D
100
AcDbSymbolTableRecord
100
AcDbRegAppTableRecord
  2
ACAD_MLEADERVER
 70
     0
  0
ENDTAB
  0
TABLE
  2
DIMSTYLE
  5
16
330
0
100
AcDbSymbolTable
 70
     1
100
AcDbDimStyleTable
  0
DIMSTYLE
105
15
330
16
100
AcDbSymbolTableRecord
100
AcDbDimStyleTableRecord
  2
STANDARD
 70
     0
178
     0
340
17
  0
ENDTAB
  0
TABLE
  2
BLOCK_RECORD
  5
1A
330
0
100
AcDbSymbolTable
 70
     0
  0
BLOCK_RECORD
  5
1B
102
{ACAD_XDICTIONARY
360
1C
102
}
330
1A
100
AcDbSymbolTableRecord
100
AcDbBlockTableRecord
  2
*MODEL_SPACE
340
23
  0
BLOCK_RECORD
  5
28
330
1A
100
AcDbSymbolTableRecord
100
AcDbBlockTableRecord
  2
*PAPER_SPACE
340
2B
  0
ENDTAB
  0
ENDSEC
  0
SECTION
  2
BLOCKS
  0
BLOCK
  5
1E
330
1B
100
AcDbEntity
  8
0
100
AcDbBlockBegin
  2
*MODEL_SPACE
 70
     0
 10
0.0
 20
0.0
 30
0.0
  3
*MODEL_SPACE
  1

  0
ENDBLK
  5
22
330
1B
100
AcDbEntity
  8
0
100
AcDbBlockEnd
  0
BLOCK
  5
29
330
28
100
AcDbEntity
 67
     1
  8
0
100
AcDbBlockBegin
  2
*PAPER_SPACE
 70
     0
 10
0.0
 20
0.0
 30
0.0
  3
*PAPER_SPACE
  1

  0
ENDBLK
  5
2A
330
28
100
AcDbEntity
 67
     1
  8
0
100
AcDbBlockEnd
  0
ENDSEC
  0
SECTION
  2
ENTITIES
  0
LINE
  5
1A8
330
1B
100
AcDbEntity
  8
4
100
AcDbLine
 10
699.4108003546055
 20
201.1416625402287
 30
0.0
 11
687.410800354605
 21
210.1416625402287
 31
0.0
  0
LINE
  5
1A9
330
1B
100
AcDbEntity
  8
4
100
AcDbLine
 10
699.4108003546055
 20
201.1416625402288
 30
0.0
 11
699.4108003546055
 21
210.1416625402287
 31
0.0
  0
ARC
  5
1AA
330
1B
100
AcDbEntity
  8
4
100
AcDbCircle
 10
703.410800354605
 20
212.1416625402287
 30
0.0
 40
2.0
100
AcDbArc
 50
270.0
 51
0.0
  0
LINE
  5
1AB
330
1B
100
AcDbEntity
  8
4
100
AcDbLine
 10
699.4108003546055
 20
371.1416625402286
 30
0.0
 11
687.410800354605
 21
362.1416625402287
 31
0.0
  0
LINE
  5
1AC
330
1B
100
AcDbEntity
  8
4
100
AcDbLine
 10
699.4108003546055
 20
371.1416625402286
 30
0.0
 11
699.4108003546055
 21
362.1416625402287
 31
0.0
  0
ARC
  5
1AD
330
1B
100
AcDbEntity
  8
4
100
AcDbCircle
 10
703.410800354605
 20
360.1416625402287
 30
0.0
 40
2.0
100
AcDbArc
 50
0.0
 51
90.0
  0
LINE
  5
1AE
330
1B
100
AcDbEntity
  8
4
100
AcDbLine
 10
339.4108003546048
 20
201.1416625402287
 30
0.0
 11
351.4108003546055
 21
210.1416625402287
 31
0.0
  0
LINE
  5
1AF
330
1B
100
AcDbEntity
  8
4
100
AcDbLine
 10
339.410800354605
 20
201.1416625402288
 30
0.0
 11
339.410800354605
 21
210.1416625402287
 31
0.0
  0
ARC
  5
1B0
330
1B
100
AcDbEntity
  8
4
100
AcDbCircle
 10
335.410800354605
 20
212.1416625402287
 30
0.0
 40
2.0
100
AcDbArc
 50
180.0
 51
270.0
  0
LINE
  5
1B1
330
1B
100
AcDbEntity
  8
4
100
AcDbLine
 10
339.410800354605
 20
371.1416625402286
 30
0.0
 11
351.4108003546055
 21
362.1416625402287
 31
0.0
  0
LINE
  5
1B2
330
1B
100
AcDbEntity
  8
4
100
AcDbLine
 10
339.410800354605
 20
371.1416625402286
 30
0.0
 11
339.410800354605
 21
362.1416625402287
 31
0.0
  0
LINE
  5
1B3
330
1B
100
AcDbEntity
  8
4
100
AcDbLine
 10
547.410800354605
 20
1047.996956155549
 30
0.0
 11
559.410800354605
 21
1047.996956155549
 31
0.0
  0
LINE
  5
1B4
330
1B
100
AcDbEntity
  8
4
100
AcDbLine
 10
547.410800354605
 20
1065.996956155549
 30
0.0
 11
559.410800354605
 21
1065.996956155549
 31
0.0
  0
LINE
  5
1B5
330
1B
100
AcDbEntity
  8
4
100
AcDbLine
 10
547.410800354605
 20
1056.996956155549
 30
0.0
 11
547.410800354605
 21
1065.996956155549
 31
0.0
  0
LINE
  5
1B6
330
1B
100
AcDbEntity
  8
4
100
AcDbLine
 10
547.410800354605
 20
1056.996956155549
 30
0.0
 11
547.410800354605
 21
1047.996956155549
 31
0.0
  0
LINE
  5
1B7
330
1B
100
AcDbEntity
  8
4
100
AcDbLine
 10
559.410800354605
 20
1065.996956155549
 30
0.0
 11
559.410800354605
 21
1047.996956155549
 31
0.0
  0
ARC
  5
1B8
330
1B
100
AcDbEntity
  8
4
100
AcDbCircle
 10
519.410800354605
 20
1056.996956155549
 30
0.0
 40
33.999996
100
AcDbArc
 50
15.34947886730766
 51
344.6505199999996
  0
LINE
  5
1B9
330
1B
100
AcDbEntity
  8
4
100
AcDbLine
 10
501.410800354605
 20
1260.496956155549
 30
0.0
 11
537.410800354605
 21
1260.496956155549
 31
0.0
  0
LINE
  5
1BA
330
1B
100
AcDbEntity
  8
4
100
AcDbLine
 10
503.8223503546053
 20
1265.496956155549
 30
0.0
 11
534.9992503546048
 21
1265.496956155549
 31
0.0
  0
LINE
  5
1BB
330
1B
100
AcDbEntity
  8
4
100
AcDbLine
 10
534.9992503546048
 20
1265.496956155549
 30
0.0
 11
534.9992503546048
 21
1260.496956155549
 31
0.0
  0
LINE
  5
1BC
330
1B
100
AcDbEntity
  8
4
100
AcDbLine
 10
503.8223503546053
 20
1265.496956155549
 30
0.0
 11
503.8223503546053
 21
1260.496956155549
 31
0.0
  0
LINE
  5
1BD
330
1B
100
AcDbEntity
  8
4
100
AcDbLine
 10
502.410800354605
 20
1256.996956155549
 30
0.0
 11
536.410800354605
 21
1256.996956155549
 31
0.0
  0
LINE
  5
1BE
330
1B
100
AcDbEntity
  8
4
100
AcDbLine
 10
501.410800354605
 20
1258.496956155549
 30
0.0
 11
537.410800354605
 21
1258.496956155549
 31
0.0
  0
LINE
  5
1BF
330
1B
100
AcDbEntity
  8
4
100
AcDbLine
 10
536.410800354605
 20
1256.996956155549
 30
0.0
 11
536.410800354605
 21
1258.496956155549
 31
0.0
  0
LINE
  5
1C0
330
1B
100
AcDbEntity
  8
4
100
AcDbLine
 10
502.410800354605
 20
1258.496956155549
 30
0.0
 11
502.410800354605
 21
1256.996956155549
 31
0.0
  0
LINE
  5
1C1
330
1B
100
AcDbEntity
  8
4
100
AcDbLine
 10
501.410800354605
 20
1258.496956155549
 30
0.0
 11
501.410800354605
 21
1260.496956155549
 31
0.0
  0
LINE
  5
1C2
330
1B
100
AcDbEntity
  8
4
100
AcDbLine
 10
537.410800354605
 20
1258.496956155549
 30
0.0
 11
537.410800354605
 21
1260.496956155549
 31
0.0
  0
LINE
  5
1C3
330
1B
100
AcDbEntity
  8
4
100
AcDbLine
 10
303.9144273004579
 20
800.8297923758334
 30
0.0
 11
310.0109003546056
 21
800.8297923758334
 31
0.0
  0
LINE
  5
1C4
330
1B
100
AcDbEntity
  8
4
100
AcDbLine
 10
312.5109003546056
 20
815.5522242401692
 30
0.0
 11
303.9144273004579
 21
815.5522242401692
 31
0.0
  0
LINE
  5
1C5
330
1B
100
AcDbEntity
  8
4
100
AcDbLine
 10
303.9144273004576
 20
810.6447469520574
 30
0.0
 11
310.0109003546054
 21
810.6447469520574
 31
0.0
  0
ARC
  5
1C6
330
1B
100
AcDbEntity
  8
4
100
AcDbCircle
 10
316.7900656520653
 20
805.737269663945
 30
0.0
 40
13.77916529745958
100
AcDbArc
 50
159.1359356360806
 51
200.8640643639205
  0
ARC
  5
1C7
330
1B
100
AcDbEntity
  8
4
100
AcDbCircle
 10
306.7945142836647
 20
813.0984855961126
 30
0.0
 40
3.783613929059507
100
AcDbArc
 50
139.5701031551729
 51
220.4298968448266
  0
LINE
  5
1C8
330
1B
100
AcDbEntity
  8
4
100
AcDbLine
 10
303.9144273004579
 20
795.9223150877217
 30
0.0
 11
312.5109003546056
 21
795.9223150877217
 31
0.0
  0
LINE
  5
1C9
330
1B
100
AcDbEntity
  8
4
100
AcDbLine
 10
303.0109003546056
 20
813.098485596113
 30
0.0
 11
303.0109003546056
 21
798.3760537317778
 31
0.0
  0
ARC
  5
1CA
330
1B
100
AcDbEntity
  8
4
100
AcDbCircle
 10
306.794514283665
 20
798.3760537317773
 30
0.0
 40
3.783613929059507
100
AcDbArc
 50
139.5701031551729
 51
220.4298968448266
  0
LINE
  5
1CB
330
1B
100
AcDbEntity
  8
4
100
AcDbLine
 10
312.5109003546056
 20
795.9223150877217
 30
0.0
 11
312.5109003546056
 21
815.5522242401692
 31
0.0
  0
LINE
  5
1CC
330
1B
100
AcDbEntity
  8
4
100
AcDbLine
 10
310.0109003546056
 20
795.9223150877217
 30
0.0
 11
310.0109003546056
 21
815.5522242401692
 31
0.0
  0
LINE
  5
1CD
330
1B
100
AcDbEntity
  8
L-CENTER
 48
8.0
100
AcDbLine
 10
343.6669338497961
 20
805.7372696639454
 30
0.0
 11
300.1429221000255
 21
805.737269663945
 31
0.0
  0
LINE
  5
1CE
330
1B
100
AcDbEntity
  8
4
100
AcDbLine
 10
310.0109003546052
 20
918.0715972233763
 30
0.0
 11
310.0109003546052
 21
898.4416880709289
 31
0.0
  0
LINE
  5
1CF
330
1B
100
AcDbEntity
  8
4
100
AcDbLine
 10
312.5109003546052
 20
918.0715972233763
 30
0.0
 11
312.5109003546052
 21
898.4416880709289
 31
0.0
  0
ARC
  5
1D0
330
1B
100
AcDbEntity
  8
4
100
AcDbCircle
 10
306.7945142836645
 20
915.6178585793205
 30
0.0
 40
3.783613929059507
100
AcDbArc
 50
139.5701031551729
 51
220.4298968448266
  0
LINE
  5
1D1
330
1B
100
AcDbEntity
  8
4
100
AcDbLine
 10
303.0109003546052
 20
900.895426714985
 30
0.0
 11
303.0109003546052
 21
915.6178585793202
 31
0.0
  0
LINE
  5
1D2
330
1B
100
AcDbEntity
  8
4
100
AcDbLine
 10
303.9144273004574
 20
918.0715972233763
 30
0.0
 11
312.5109003546052
 21
918.0715972233763
 31
0.0
  0
ARC
  5
1D3
330
1B
100
AcDbEntity
  8
4
100
AcDbCircle
 10
306.7945142836645
 20
900.8954267149852
 30
0.0
 40
3.783613929059507
100
AcDbArc
 50
139.5701031551729
 51
220.4298968448266
  0
ARC
  5
1D4
330
1B
100
AcDbEntity
  8
4
100
AcDbCircle
 10
316.7900656520649
 20
908.2566426471531
 30
0.0
 40
13.77916529745958
100
AcDbArc
 50
159.1359356360806
 51
200.8640643639194
  0
LINE
  5
1D5
330
1B
100
AcDbEntity
  8
4
100
AcDbLine
 10
303.9144273004574
 20
903.3491653590406
 30
0.0
 11
310.0109003546052
 21
903.3491653590406
 31
0.0
  0
LINE
  5
1D6
330
1B
100
AcDbEntity
  8
4
100
AcDbLine
 10
312.5109003546052
 20
898.4416880709289
 30
0.0
 11
303.9144273004574
 21
898.4416880709289
 31
0.0
  0
LINE
  5
1D7
330
1B
100
AcDbEntity
  8
4
100
AcDbLine
 10
303.9144273004574
 20
913.1641199352646
 30
0.0
 11
310.0109003546052
 21
913.1641199352646
 31
0.0
  0
LINE
  5
1D8
330
1B
100
AcDbEntity
  8
L-CENTER
 48
8.0
100
AcDbLine
 10
343.6669338497961
 20
908.2566426471528
 30
0.0
 11
300.1429221000251
 21
908.2566426471528
 31
0.0
  0
LINE
  5
1D9
330
1B
100
AcDbEntity
  8
L-CENTER
 48
8.0
100
AcDbLine
 10
695.154666859414
 20
805.7372696639454
 30
0.0
 11
738.6786786091845
 21
805.737269663945
 31
0.0
  0
LINE
  5
1DA
330
1B
100
AcDbEntity
  8
4
100
AcDbLine
 10
728.8107003546045
 20
795.9223150877217
 30
0.0
 11
728.8107003546045
 21
815.5522242401692
 31
0.0
  0
LINE
  5
1DB
330
1B
100
AcDbEntity
  8
4
100
AcDbLine
 10
726.3107003546045
 20
795.9223150877217
 30
0.0
 11
726.3107003546045
 21
815.5522242401692
 31
0.0
  0
ARC
  5
1DC
330
1B
100
AcDbEntity
  8
4
100
AcDbCircle
 10
732.0270864255451
 20
798.3760537317773
 30
0.0
 40
3.783613929059507
100
AcDbArc
 50
319.5701031551723
 51
40.42989684482771
  0
LINE
  5
1DD
330
1B
100
AcDbEntity
  8
4
100
AcDbLine
 10
735.8107003546045
 20
813.098485596113
 30
0.0
 11
735.8107003546045
 21
798.3760537317778
 31
0.0
  0
LINE
  5
1DE
330
1B
100
AcDbEntity
  8
4
100
AcDbLine
 10
734.9071734087522
 20
795.9223150877217
 30
0.0
 11
726.3107003546045
 21
795.9223150877217
 31
0.0
  0
ARC
  5
1DF
330
1B
100
AcDbEntity
  8
4
100
AcDbCircle
 10
732.0270864255451
 20
813.0984855961126
 30
0.0
 40
3.783613929059507
100
AcDbArc
 50
319.5701031551723
 51
40.42989684482771
  0
ARC
  5
1E0
330
1B
100
AcDbEntity
  8
4
100
AcDbCircle
 10
722.0315350571448
 20
805.737269663945
 30
0.0
 40
13.77916529745958
100
AcDbArc
 50
339.1359356360795
 51
20.86406436391942
  0
LINE
  5
1E1
330
1B
100
AcDbEntity
  8
4
100
AcDbLine
 10
734.9071734087522
 20
810.6447469520574
 30
0.0
 11
728.8107003546045
 21
810.6447469520574
 31
0.0
  0
LINE
  5
1E2
330
1B
100
AcDbEntity
  8
4
100
AcDbLine
 10
726.3107003546045
 20
815.5522242401692
 30
0.0
 11
734.9071734087522
 21
815.5522242401692
 31
0.0
  0
LINE
  5
1E3
330
1B
100
AcDbEntity
  8
4
100
AcDbLine
 10
734.9071734087522
 20
800.8297923758334
 30
0.0
 11
728.8107003546045
 21
800.8297923758334
 31
0.0
  0
LINE
  5
1E4
330
1B
100
AcDbEntity
  8
L-CENTER
 48
8.0
100
AcDbLine
 10
695.154666859414
 20
908.2566426471528
 30
0.0
 11
738.678678609185
 21
908.2566426471528
 31
0.0
  0
LINE
  5
1E5
330
1B
100
AcDbEntity
  8
4
100
AcDbLine
 10
734.9071734087527
 20
913.1641199352646
 30
0.0
 11
728.8107003546049
 21
913.1641199352646
 31
0.0
  0
LINE
  5
1E6
330
1B
100
AcDbEntity
  8
4
100
AcDbLine
 10
726.3107003546049
 20
898.4416880709289
 30
0.0
 11
734.9071734087527
 21
898.4416880709289
 31
0.0
  0
LINE
  5
1E7
330
1B
100
AcDbEntity
  8
4
100
AcDbLine
 10
734.9071734087527
 20
903.3491653590406
 30
0.0
 11
728.8107003546049
 21
903.3491653590406
 31
0.0
  0
ARC
  5
1E8
330
1B
100
AcDbEntity
  8
4
100
AcDbCircle
 10
722.0315350571452
 20
908.2566426471531
 30
0.0
 40
13.77916529745958
100
AcDbArc
 50
339.1359356360805
 51
20.86406436391942
  0
ARC
  5
1E9
330
1B
100
AcDbEntity
  8
4
100
AcDbCircle
 10
732.0270864255456
 20
900.8954267149852
 30
0.0
 40
3.783613929059507
100
AcDbArc
 50
319.5701031551782
 51
40.42989684482174
  0
LINE
  5
1EA
330
1B
100
AcDbEntity
  8
4
100
AcDbLine
 10
734.9071734087527
 20
918.0715972233763
 30
0.0
 11
726.3107003546049
 21
918.0715972233763
 31
0.0
  0
LINE
  5
1EB
330
1B
100
AcDbEntity
  8
4
100
AcDbLine
 10
735.8107003546049
 20
900.895426714985
 30
0.0
 11
735.8107003546049
 21
915.6178585793202
 31
0.0
  0
ARC
  5
1EC
330
1B
100
AcDbEntity
  8
4
100
AcDbCircle
 10
732.0270864255456
 20
915.6178585793205
 30
0.0
 40
3.783613929059507
100
AcDbArc
 50
319.5701031551782
 51
40.42989684482174
  0
LINE
  5
1ED
330
1B
100
AcDbEntity
  8
4
100
AcDbLine
 10
726.3107003546049
 20
918.0715972233763
 30
0.0
 11
726.3107003546049
 21
898.4416880709289
 31
0.0
  0
LINE
  5
1EE
330
1B
100
AcDbEntity
  8
4
100
AcDbLine
 10
728.8107003546049
 20
918.0715972233763
 30
0.0
 11
728.8107003546049
 21
898.4416880709289
 31
0.0
  0
LINE
  5
1EF
330
1B
100
AcDbEntity
  8
4
100
AcDbLine
 10
734.9071734087522
 20
229.9744987605128
 30
0.0
 11
728.8107003546049
 21
229.9744987605128
 31
0.0
  0
LINE
  5
1F0
330
1B
100
AcDbEntity
  8
4
100
AcDbLine
 10
726.3107003546049
 20
244.6969306248485
 30
0.0
 11
734.9071734087522
 21
244.6969306248485
 31
0.0
  0
LINE
  5
1F1
330
1B
100
AcDbEntity
  8
4
100
AcDbLine
 10
734.9071734087522
 20
239.7894533367368
 30
0.0
 11
728.8107003546049
 21
239.7894533367368
 31
0.0
  0
ARC
  5
1F2
330
1B
100
AcDbEntity
  8
4
100
AcDbCircle
 10
722.0315350571448
 20
234.8819760486244
 30
0.0
 40
13.77916529745958
100
AcDbArc
 50
339.1359356360801
 51
20.86406436391942
  0
ARC
  5
1F3
330
1B
100
AcDbEntity
  8
4
100
AcDbCircle
 10
732.0270864255456
 20
242.2431919807922
 30
0.0
 40
3.783613929059507
100
AcDbArc
 50
319.5701031551699
 51
40.42989684483014
  0
LINE
  5
1F4
330
1B
100
AcDbEntity
  8
4
100
AcDbLine
 10
734.9071734087522
 20
225.0670214724011
 30
0.0
 11
726.3107003546045
 21
225.0670214724011
 31
0.0
  0
LINE
  5
1F5
330
1B
100
AcDbEntity
  8
4
100
AcDbLine
 10
735.8107003546049
 20
242.2431919807924
 30
0.0
 11
735.8107003546049
 21
227.5207601164572
 31
0.0
  0
ARC
  5
1F6
330
1B
100
AcDbEntity
  8
4
100
AcDbCircle
 10
732.0270864255451
 20
227.5207601164569
 30
0.0
 40
3.783613929059507
100
AcDbArc
 50
319.5701031551699
 51
40.42989684483014
  0
LINE
  5
1F7
330
1B
100
AcDbEntity
  8
4
100
AcDbLine
 10
726.3107003546045
 20
225.0670214724011
 30
0.0
 11
726.3107003546049
 21
244.6969306248485
 31
0.0
  0
LINE
  5
1F8
330
1B
100
AcDbEntity
  8
4
100
AcDbLine
 10
728.8107003546045
 20
225.0670214724011
 30
0.0
 11
728.8107003546049
 21
244.6969306248485
 31
0.0
  0
LINE
  5
1F9
330
1B
100
AcDbEntity
  8
L-CENTER
 48
8.0
100
AcDbLine
 10
695.154666859414
 20
234.8819760486249
 30
0.0
 11
738.6786786091845
 21
234.8819760486244
 31
0.0
  0
LINE
  5
1FA
330
1B
100
AcDbEntity
  8
4
100
AcDbLine
 10
728.8107003546049
 20
347.2163036080558
 30
0.0
 11
728.8107003546049
 21
327.5863944556083
 31
0.0
  0
LINE
  5
1FB
330
1B
100
AcDbEntity
  8
4
100
AcDbLine
 10
726.3107003546049
 20
347.2163036080558
 30
0.0
 11
726.3107003546049
 21
327.5863944556083
 31
0.0
  0
ARC
  5
1FC
330
1B
100
AcDbEntity
  8
4
100
AcDbCircle
 10
732.0270864255456
 20
344.7625649639999
 30
0.0
 40
3.783613929059507
100
AcDbArc
 50
319.5701031551772
 51
40.42989684482285
  0
LINE
  5
1FD
330
1B
100
AcDbEntity
  8
4
100
AcDbLine
 10
735.8107003546049
 20
330.0401330996644
 30
0.0
 11
735.8107003546049
 21
344.7625649639997
 31
0.0
  0
LINE
  5
1FE
330
1B
100
AcDbEntity
  8
4
100
AcDbLine
 10
734.9071734087531
 20
347.2163036080558
 30
0.0
 11
726.3107003546049
 21
347.2163036080558
 31
0.0
  0
ARC
  5
1FF
330
1B
100
AcDbEntity
  8
4
100
AcDbCircle
 10
732.0270864255456
 20
330.0401330996647
 30
0.0
 40
3.783613929059507
100
AcDbArc
 50
319.5701031551772
 51
40.42989684482285
  0
ARC
  5
200
330
1B
100
AcDbEntity
  8
4
100
AcDbCircle
 10
722.0315350571457
 20
337.4013490318325
 30
0.0
 40
13.77916529745958
100
AcDbArc
 50
339.1359356360801
 51
20.86406436391987
  0
LINE
  5
201
330
1B
100
AcDbEntity
  8
4
100
AcDbLine
 10
734.9071734087531
 20
332.4938717437201
 30
0.0
 11
728.8107003546049
 21
332.4938717437201
 31
0.0
  0
LINE
  5
202
330
1B
100
AcDbEntity
  8
4
100
AcDbLine
 10
726.3107003546049
 20
327.5863944556083
 30
0.0
 11
734.9071734087527
 21
327.5863944556083
 31
0.0
  0
LINE
  5
203
330
1B
100
AcDbEntity
  8
4
100
AcDbLine
 10
734.9071734087531
 20
342.308826319944
 30
0.0
 11
728.8107003546049
 21
342.308826319944
 31
0.0
  0
LINE
  5
204
330
1B
100
AcDbEntity
  8
L-CENTER
 48
8.0
100
AcDbLine
 10
695.1546668594144
 20
337.4013490318323
 30
0.0
 11
738.6786786091855
 21
337.4013490318323
 31
0.0
  0
LINE
  5
205
330
1B
100
AcDbEntity
  8
4
100
AcDbLine
 10
310.0109003546056
 20
225.0670214724011
 30
0.0
 11
310.0109003546056
 21
244.6969306248485
 31
0.0
  0
LINE
  5
206
330
1B
100
AcDbEntity
  8
4
100
AcDbLine
 10
312.5109003546056
 20
225.0670214724011
 30
0.0
 11
312.5109003546056
 21
244.6969306248485
 31
0.0
  0
ARC
  5
207
330
1B
100
AcDbEntity
  8
4
100
AcDbCircle
 10
306.794514283665
 20
227.5207601164569
 30
0.0
 40
3.783613929059507
100
AcDbArc
 50
139.5701031551704
 51
220.429896844829
  0
LINE
  5
208
330
1B
100
AcDbEntity
  8
4
100
AcDbLine
 10
303.0109003546056
 20
242.2431919807924
 30
0.0
 11
303.0109003546056
 21
227.5207601164572
 31
0.0
  0
LINE
  5
209
330
1B
100
AcDbEntity
  8
4
100
AcDbLine
 10
303.9144273004579
 20
225.0670214724011
 30
0.0
 11
312.5109003546056
 21
225.0670214724011
 31
0.0
  0
ARC
  5
20A
330
1B
100
AcDbEntity
  8
4
100
AcDbCircle
 10
306.794514283665
 20
242.2431919807922
 30
0.0
 40
3.783613929059507
100
AcDbArc
 50
139.5701031551734
 51
220.4298968448266
  0
ARC
  5
20B
330
1B
100
AcDbEntity
  8
4
100
AcDbCircle
 10
316.7900656520653
 20
234.8819760486244
 30
0.0
 40
13.77916529745958
100
AcDbArc
 50
159.1359356360806
 51
200.8640643639205
  0
LINE
  5
20C
330
1B
100
AcDbEntity
  8
4
100
AcDbLine
 10
303.9144273004579
 20
239.7894533367368
 30
0.0
 11
310.0109003546056
 21
239.7894533367368
 31
0.0
  0
LINE
  5
20D
330
1B
100
AcDbEntity
  8
4
100
AcDbLine
 10
312.5109003546056
 20
244.6969306248485
 30
0.0
 11
303.9144273004579
 21
244.6969306248485
 31
0.0
  0
LINE
  5
20E
330
1B
100
AcDbEntity
  8
4
100
AcDbLine
 10
303.9144273004579
 20
229.9744987605128
 30
0.0
 11
310.0109003546056
 21
229.9744987605128
 31
0.0
  0
LINE
  5
20F
330
1B
100
AcDbEntity
  8
L-CENTER
 48
8.0
100
AcDbLine
 10
343.6669338497966
 20
234.8819760486249
 30
0.0
 11
300.1429221000255
 21
234.8819760486244
 31
0.0
  0
LINE
  5
210
330
1B
100
AcDbEntity
  8
4
100
AcDbLine
 10
310.0109003546052
 20
347.2163036080558
 30
0.0
 11
310.0109003546052
 21
327.5863944556083
 31
0.0
  0
LINE
  5
211
330
1B
100
AcDbEntity
  8
4
100
AcDbLine
 10
312.5109003546052
 20
347.2163036080558
 30
0.0
 11
312.5109003546052
 21
327.5863944556083
 31
0.0
  0
ARC
  5
212
330
1B
100
AcDbEntity
  8
4
100
AcDbCircle
 10
306.7945142836645
 20
344.7625649639999
 30
0.0
 40
3.783613929059507
100
AcDbArc
 50
139.5701031551734
 51
220.4298968448266
  0
LINE
  5
213
330
1B
100
AcDbEntity
  8
4
100
AcDbLine
 10
303.0109003546052
 20
330.0401330996644
 30
0.0
 11
303.0109003546052
 21
344.7625649639997
 31
0.0
  0
LINE
  5
214
330
1B
100
AcDbEntity
  8
4
100
AcDbLine
 10
303.9144273004574
 20
347.2163036080558
 30
0.0
 11
312.5109003546052
 21
347.2163036080558
 31
0.0
  0
ARC
  5
215
330
1B
100
AcDbEntity
  8
4
100
AcDbCircle
 10
306.7945142836645
 20
330.0401330996647
 30
0.0
 40
3.783613929059507
100
AcDbArc
 50
139.5701031551734
 51
220.4298968448266
  0
ARC
  5
216
330
1B
100
AcDbEntity
  8
4
100
AcDbCircle
 10
316.7900656520649
 20
337.4013490318325
 30
0.0
 40
13.77916529745958
100
AcDbArc
 50
159.1359356360801
 51
200.8640643639199
  0
LINE
  5
217
330
1B
100
AcDbEntity
  8
4
100
AcDbLine
 10
303.9144273004574
 20
332.4938717437201
 30
0.0
 11
310.0109003546052
 21
332.4938717437201
 31
0.0
  0
LINE
  5
218
330
1B
100
AcDbEntity
  8
4
100
AcDbLine
 10
312.5109003546052
 20
327.5863944556083
 30
0.0
 11
303.9144273004574
 21
327.5863944556083
 31
0.0
  0
LINE
  5
219
330
1B
100
AcDbEntity
  8
4
100
AcDbLine
 10
303.9144273004574
 20
342.308826319944
 30
0.0
 11
310.0109003546052
 21
342.308826319944
 31
0.0
  0
LINE
  5
21A
330
1B
100
AcDbEntity
  8
L-CENTER
 48
8.0
100
AcDbLine
 10
343.6669338497961
 20
337.4013490318323
 30
0.0
 11
300.1429221000251
 21
337.4013490318323
 31
0.0
  0
LINE
  5
21B
330
1B
100
AcDbEntity
  8
4
100
AcDbLine
 10
1217.794532878387
 20
379.5415665402285
 30
0.0
 11
1217.794532878387
 21
388.1380395943762
 31
0.0
  0
LINE
  5
21C
330
1B
100
AcDbEntity
  8
4
100
AcDbLine
 10
1212.887055590276
 20
388.1380395943763
 30
0.0
 11
1212.887055590276
 21
382.0415665402286
 31
0.0
  0
ARC
  5
21D
330
1B
100
AcDbEntity
  8
4
100
AcDbCircle
 10
1215.340794234331
 20
385.2579526111692
 30
0.0
 40
3.783613929059507
100
AcDbArc
 50
49.57010315516856
 51
130.4298968448315
  0
LINE
  5
21E
330
1B
100
AcDbEntity
  8
4
100
AcDbLine
 10
1203.072101014052
 20
388.1380395943763
 30
0.0
 11
1203.072101014052
 21
382.0415665402286
 31
0.0
  0
LINE
  5
21F
330
1B
100
AcDbEntity
  8
4
100
AcDbLine
 10
1198.16462372594
 20
388.1380395943763
 30
0.0
 11
1198.16462372594
 21
379.5415665402286
 31
0.0
  0
ARC
  5
220
330
1B
100
AcDbEntity
  8
4
100
AcDbCircle
 10
1200.618362369996
 20
385.2579526111692
 30
0.0
 40
3.783613929059507
100
AcDbArc
 50
49.57010315517714
 51
130.4298968448228
  0
ARC
  5
221
330
1B
100
AcDbEntity
  8
4
100
AcDbCircle
 10
1207.979578302163
 20
375.2624012427689
 30
0.0
 40
13.77916529745958
100
AcDbArc
 50
69.13593563608057
 51
110.8640643639194
  0
LINE
  5
222
330
1B
100
AcDbEntity
  8
4
100
AcDbLine
 10
1215.340794234331
 20
389.0415665402285
 30
0.0
 11
1200.618362369996
 21
389.0415665402286
 31
0.0
  0
LINE
  5
223
330
1B
100
AcDbEntity
  8
4
100
AcDbLine
 10
1198.16462372594
 20
379.5415665402286
 30
0.0
 11
1217.794532878387
 21
379.5415665402285
 31
0.0
  0
LINE
  5
224
330
1B
100
AcDbEntity
  8
4
100
AcDbLine
 10
1198.16462372594
 20
382.0415665402286
 30
0.0
 11
1217.794532878387
 21
382.0415665402285
 31
0.0
  0
LINE
  5
225
330
1B
100
AcDbEntity
  8
L-CENTER
 48
8.0
100
AcDbLine
 10
1367.3282525985
 20
348.3855330450377
 30
0.0
 11
1367.3282525985
 21
391.9095447948087
 31
0.0
  0
LINE
  5
226
330
1B
100
AcDbEntity
  8
4
100
AcDbLine
 10
1357.513298022276
 20
379.5415665402285
 30
0.0
 11
1357.513298022276
 21
388.1380395943762
 31
0.0
  0
LINE
  5
227
330
1B
100
AcDbEntity
  8
4
100
AcDbLine
 10
1362.420775310388
 20
388.1380395943763
 30
0.0
 11
1362.420775310388
 21
382.0415665402286
 31
0.0
  0
ARC
  5
228
330
1B
100
AcDbEntity
  8
4
100
AcDbCircle
 10
1359.967036666332
 20
385.2579526111692
 30
0.0
 40
3.783613929059507
100
AcDbArc
 50
49.57010315517714
 51
130.4298968448228
  0
LINE
  5
229
330
1B
100
AcDbEntity
  8
4
100
AcDbLine
 10
1372.235729886612
 20
388.1380395943763
 30
0.0
 11
1372.235729886612
 21
382.0415665402286
 31
0.0
  0
LINE
  5
22A
330
1B
100
AcDbEntity
  8
4
100
AcDbLine
 10
1377.143207174723
 20
388.1380395943763
 30
0.0
 11
1377.143207174723
 21
379.5415665402286
 31
0.0
  0
ARC
  5
22B
330
1B
100
AcDbEntity
  8
4
100
AcDbCircle
 10
1374.689468530667
 20
385.2579526111692
 30
0.0
 40
3.783613929059507
100
AcDbArc
 50
49.57010315516856
 51
130.4298968448315
  0
ARC
  5
22C
330
1B
100
AcDbEntity
  8
4
100
AcDbCircle
 10
1367.3282525985
 20
375.2624012427689
 30
0.0
 40
13.77916529745958
100
AcDbArc
 50
69.13593563608057
 51
110.8640643639194
  0
LINE
  5
22D
330
1B
100
AcDbEntity
  8
4
100
AcDbLine
 10
1359.967036666332
 20
389.0415665402285
 30
0.0
 11
1374.689468530667
 21
389.0415665402286
 31
0.0
  0
LINE
  5
22E
330
1B
100
AcDbEntity
  8
4
100
AcDbLine
 10
1377.143207174723
 20
379.5415665402286
 30
0.0
 11
1357.513298022276
 21
379.5415665402285
 31
0.0
  0
LINE
  5
22F
330
1B
100
AcDbEntity
  8
4
100
AcDbLine
 10
1377.143207174723
 20
382.0415665402286
 30
0.0
 11
1357.513298022276
 21
382.0415665402285
 31
0.0
  0
LINE
  5
230
330
1B
100
AcDbEntity
  8
4
100
AcDbLine
 10
1038.815949429604
 20
382.0415665402286
 30
0.0
 11
1058.445858582051
 21
382.0415665402285
 31
0.0
  0
LINE
  5
231
330
1B
100
AcDbEntity
  8
4
100
AcDbLine
 10
1038.815949429604
 20
379.5415665402286
 30
0.0
 11
1058.445858582051
 21
379.5415665402285
 31
0.0
  0
ARC
  5
232
330
1B
100
AcDbEntity
  8
4
100
AcDbCircle
 10
1041.26968807366
 20
385.2579526111692
 30
0.0
 40
3.783613929059507
100
AcDbArc
 50
49.57010315517452
 51
130.4298968448315
  0
LINE
  5
233
330
1B
100
AcDbEntity
  8
4
100
AcDbLine
 10
1055.992119937995
 20
389.0415665402285
 30
0.0
 11
1041.26968807366
 21
389.0415665402286
 31
0.0
  0
LINE
  5
234
330
1B
100
AcDbEntity
  8
4
100
AcDbLine
 10
1038.815949429604
 20
388.1380395943763
 30
0.0
 11
1038.815949429604
 21
379.5415665402286
 31
0.0
  0
ARC
  5
235
330
1B
100
AcDbEntity
  8
4
100
AcDbCircle
 10
1055.992119937995
 20
385.2579526111692
 30
0.0
 40
3.783613929059507
100
AcDbArc
 50
49.57010315517452
 51
130.4298968448315
  0
ARC
  5
236
330
1B
100
AcDbEntity
  8
4
100
AcDbCircle
 10
1048.630904005827
 20
375.2624012427689
 30
0.0
 40
13.77916529745958
100
AcDbArc
 50
69.13593563608057
 51
110.8640643639214
  0
LINE
  5
237
330
1B
100
AcDbEntity
  8
4
100
AcDbLine
 10
1053.538381293939
 20
388.1380395943763
 30
0.0
 11
1053.538381293939
 21
382.0415665402286
 31
0.0
  0
LINE
  5
238
330
1B
100
AcDbEntity
  8
4
100
AcDbLine
 10
1058.445858582051
 20
379.5415665402285
 30
0.0
 11
1058.445858582051
 21
388.1380395943762
 31
0.0
  0
LINE
  5
239
330
1B
100
AcDbEntity
  8
4
100
AcDbLine
 10
1043.723426717715
 20
388.1380395943763
 30
0.0
 11
1043.723426717715
 21
382.0415665402286
 31
0.0
  0
LINE
  5
23A
330
1B
100
AcDbEntity
  8
L-CENTER
 48
8.0
100
AcDbLine
 10
1048.630904005827
 20
348.3855330450377
 30
0.0
 11
1048.630904005827
 21
391.9095447948087
 31
0.0
  0
LINE
  5
23B
330
1B
100
AcDbEntity
  8
L-CENTER
 48
8.0
100
AcDbLine
 10
703.4108003546055
 20
348.3855330450377
 30
0.0
 11
703.4108003546055
 21
391.9095447948087
 31
0.0
  0
LINE
  5
23C
330
1B
100
AcDbEntity
  8
4
100
AcDbLine
 10
693.5958457783811
 20
379.5415665402285
 30
0.0
 11
693.5958457783811
 21
388.1380395943762
 31
0.0
  0
LINE
  5
23D
330
1B
100
AcDbEntity
  8
4
100
AcDbLine
 10
698.5033230664933
 20
388.1380395943763
 30
0.0
 11
698.5033230664933
 21
382.0415665402286
 31
0.0
  0
ARC
  5
23E
330
1B
100
AcDbEntity
  8
4
100
AcDbCircle
 10
696.0495844224376
 20
385.2579526111692
 30
0.0
 40
3.783613929059507
100
AcDbArc
 50
49.57010315517584
 51
130.4298968448315
  0
LINE
  5
23F
330
1B
100
AcDbEntity
  8
4
100
AcDbLine
 10
708.3182776427168
 20
388.1380395943763
 30
0.0
 11
708.3182776427168
 21
382.0415665402286
 31
0.0
  0
LINE
  5
240
330
1B
100
AcDbEntity
  8
4
100
AcDbLine
 10
713.225754930829
 20
388.1380395943763
 30
0.0
 11
713.225754930829
 21
379.5415665402286
 31
0.0
  0
ARC
  5
241
330
1B
100
AcDbEntity
  8
4
100
AcDbCircle
 10
710.7720162867729
 20
385.2579526111692
 30
0.0
 40
3.783613929059507
100
AcDbArc
 50
49.57010315517584
 51
130.4298968448315
  0
ARC
  5
242
330
1B
100
AcDbEntity
  8
4
100
AcDbCircle
 10
703.4108003546055
 20
375.2624012427689
 30
0.0
 40
13.77916529745958
100
AcDbArc
 50
69.13593563608057
 51
110.8640643639214
  0
LINE
  5
243
330
1B
100
AcDbEntity
  8
4
100
AcDbLine
 10
696.0495844224372
 20
389.0415665402285
 30
0.0
 11
710.7720162867729
 21
389.0415665402286
 31
0.0
  0
LINE
  5
244
330
1B
100
AcDbEntity
  8
4
100
AcDbLine
 10
713.225754930829
 20
379.5415665402286
 30
0.0
 11
693.5958457783811
 21
379.5415665402285
 31
0.0
  0
LINE
  5
245
330
1B
100
AcDbEntity
  8
4
100
AcDbLine
 10
713.225754930829
 20
382.0415665402286
 30
0.0
 11
693.5958457783811
 21
382.0415665402285
 31
0.0
  0
LINE
  5
246
330
1B
100
AcDbEntity
  8
4
100
AcDbLine
 10
616.3182776427168
 20
388.1380395943763
 30
0.0
 11
616.3182776427168
 21
382.0415665402286
 31
0.0
  0
LINE
  5
247
330
1B
100
AcDbEntity
  8
4
100
AcDbLine
 10
601.5958457783811
 20
379.5415665402285
 30
0.0
 11
601.5958457783811
 21
388.1380395943762
 31
0.0
  0
LINE
  5
248
330
1B
100
AcDbEntity
  8
4
100
AcDbLine
 10
606.5033230664933
 20
388.1380395943763
 30
0.0
 11
606.5033230664933
 21
382.0415665402286
 31
0.0
  0
ARC
  5
249
330
1B
100
AcDbEntity
  8
4
100
AcDbCircle
 10
611.4108003546055
 20
375.2624012427689
 30
0.0
 40
13.77916529745958
100
AcDbArc
 50
69.13593563608057
 51
110.8640643639214
  0
ARC
  5
24A
330
1B
100
AcDbEntity
  8
4
100
AcDbCircle
 10
604.0495844224372
 20
385.2579526111692
 30
0.0
 40
3.783613929059507
100
AcDbArc
 50
49.57010315516856
 51
130.4298968448242
  0
LINE
  5
24B
330
1B
100
AcDbEntity
  8
4
100
AcDbLine
 10
621.225754930829
 20
388.1380395943763
 30
0.0
 11
621.225754930829
 21
379.5415665402286
 31
0.0
  0
LINE
  5
24C
330
1B
100
AcDbEntity
  8
4
100
AcDbLine
 10
604.0495844224372
 20
389.0415665402285
 30
0.0
 11
618.7720162867729
 21
389.0415665402286
 31
0.0
  0
ARC
  5
24D
330
1B
100
AcDbEntity
  8
4
100
AcDbCircle
 10
618.7720162867729
 20
385.2579526111692
 30
0.0
 40
3.783613929059507
100
AcDbArc
 50
49.57010315517584
 51
130.4298968448315
  0
LINE
  5
24E
330
1B
100
AcDbEntity
  8
4
100
AcDbLine
 10
621.225754930829
 20
379.5415665402286
 30
0.0
 11
601.5958457783811
 21
379.5415665402285
 31
0.0
  0
LINE
  5
24F
330
1B
100
AcDbEntity
  8
4
100
AcDbLine
 10
621.225754930829
 20
382.0415665402286
 30
0.0
 11
601.5958457783811
 21
382.0415665402285
 31
0.0
  0
LINE
  5
250
330
1B
100
AcDbEntity
  8
L-CENTER
 48
8.0
100
AcDbLine
 10
611.4108003546055
 20
348.3855330450377
 30
0.0
 11
611.4108003546055
 21
391.9095447948087
 31
0.0
  0
LINE
  5
251
330
1B
100
AcDbEntity
  8
4
100
AcDbLine
 10
417.5958457783815
 20
382.0415665402286
 30
0.0
 11
437.225754930829
 21
382.0415665402285
 31
0.0
  0
LINE
  5
252
330
1B
100
AcDbEntity
  8
4
100
AcDbLine
 10
417.5958457783815
 20
379.5415665402286
 30
0.0
 11
437.225754930829
 21
379.5415665402285
 31
0.0
  0
ARC
  5
253
330
1B
100
AcDbEntity
  8
4
100
AcDbCircle
 10
420.0495844224376
 20
385.2579526111692
 30
0.0
 40
3.783613929059507
100
AcDbArc
 50
49.5701031551765
 51
130.4298968448315
  0
LINE
  5
254
330
1B
100
AcDbEntity
  8
4
100
AcDbLine
 10
434.7720162867729
 20
389.0415665402285
 30
0.0
 11
420.0495844224376
 21
389.0415665402286
 31
0.0
  0
LINE
  5
255
330
1B
100
AcDbEntity
  8
4
100
AcDbLine
 10
417.5958457783815
 20
388.1380395943763
 30
0.0
 11
417.5958457783815
 21
379.5415665402286
 31
0.0
  0
ARC
  5
256
330
1B
100
AcDbEntity
  8
4
100
AcDbCircle
 10
434.7720162867729
 20
385.2579526111692
 30
0.0
 40
3.783613929059507
100
AcDbArc
 50
49.57010315516856
 51
130.4298968448315
  0
ARC
  5
257
330
1B
100
AcDbEntity
  8
4
100
AcDbCircle
 10
427.410800354605
 20
375.2624012427689
 30
0.0
 40
13.77916529745958
100
AcDbArc
 50
69.13593563608057
 51
110.8640643639194
  0
LINE
  5
258
330
1B
100
AcDbEntity
  8
4
100
AcDbLine
 10
432.3182776427172
 20
388.1380395943763
 30
0.0
 11
432.3182776427172
 21
382.0415665402286
 31
0.0
  0
LINE
  5
259
330
1B
100
AcDbEntity
  8
4
100
AcDbLine
 10
437.225754930829
 20
379.5415665402285
 30
0.0
 11
437.225754930829
 21
388.1380395943762
 31
0.0
  0
LINE
  5
25A
330
1B
100
AcDbEntity
  8
4
100
AcDbLine
 10
422.5033230664933
 20
388.1380395943763
 30
0.0
 11
422.5033230664933
 21
382.0415665402286
 31
0.0
  0
LINE
  5
25B
330
1B
100
AcDbEntity
  8
L-CENTER
 48
8.0
100
AcDbLine
 10
427.410800354605
 20
348.3855330450377
 30
0.0
 11
427.410800354605
 21
391.9095447948087
 31
0.0
  0
LINE
  5
25C
330
1B
100
AcDbEntity
  8
4
100
AcDbLine
 10
325.5958457783815
 20
382.0415665402286
 30
0.0
 11
345.225754930829
 21
382.0415665402285
 31
0.0
  0
LINE
  5
25D
330
1B
100
AcDbEntity
  8
4
100
AcDbLine
 10
325.5958457783815
 20
379.5415665402286
 30
0.0
 11
345.225754930829
 21
379.5415665402285
 31
0.0
  0
ARC
  5
25E
330
1B
100
AcDbEntity
  8
4
100
AcDbCircle
 10
328.0495844224376
 20
385.2579526111692
 30
0.0
 40
3.783613929059507
100
AcDbArc
 50
49.57010315517163
 51
130.4298968448315
  0
LINE
  5
25F
330
1B
100
AcDbEntity
  8
4
100
AcDbLine
 10
342.7720162867729
 20
389.0415665402285
 30
0.0
 11
328.0495844224376
 21
389.0415665402286
 31
0.0
  0
LINE
  5
260
330
1B
100
AcDbEntity
  8
4
100
AcDbLine
 10
325.5958457783815
 20
388.1380395943763
 30
0.0
 11
325.5958457783815
 21
379.5415665402286
 31
0.0
  0
ARC
  5
261
330
1B
100
AcDbEntity
  8
4
100
AcDbCircle
 10
342.7720162867729
 20
385.2579526111692
 30
0.0
 40
3.783613929059507
100
AcDbArc
 50
49.5701031551765
 51
130.4298968448315
  0
ARC
  5
262
330
1B
100
AcDbEntity
  8
4
100
AcDbCircle
 10
335.410800354605
 20
375.2624012427689
 30
0.0
 40
13.77916529745958
100
AcDbArc
 50
69.13593563608057
 51
110.8640643639205
  0
LINE
  5
263
330
1B
100
AcDbEntity
  8
4
100
AcDbLine
 10
340.3182776427172
 20
388.1380395943763
 30
0.0
 11
340.3182776427172
 21
382.0415665402286
 31
0.0
  0
LINE
  5
264
330
1B
100
AcDbEntity
  8
4
100
AcDbLine
 10
345.225754930829
 20
379.5415665402285
 30
0.0
 11
345.225754930829
 21
388.1380395943762
 31
0.0
  0
LINE
  5
265
330
1B
100
AcDbEntity
  8
4
100
AcDbLine
 10
330.5033230664933
 20
388.1380395943763
 30
0.0
 11
330.5033230664933
 21
382.0415665402286
 31
0.0
  0
LINE
  5
266
330
1B
100
AcDbEntity
  8
L-CENTER
 48
8.0
100
AcDbLine
 10
335.410800354605
 20
348.3855330450377
 30
0.0
 11
335.410800354605
 21
391.9095447948087
 31
0.0
  0
LINE
  5
267
330
1B
100
AcDbEntity
  8
4
100
AcDbLine
 10
435.910800354605
 20
902.5557591473246
 30
0.0
 11
427.410800354605
 21
907.4632364354363
 31
0.0
  0
LINE
  5
268
330
1B
100
AcDbEntity
  8
4
100
AcDbLine
 10
427.410800354605
 20
907.4632364354363
 30
0.0
 11
418.910800354605
 21
902.5557591473246
 31
0.0
  0
LINE
  5
269
330
1B
100
AcDbEntity
  8
4
100
AcDbLine
 10
427.410800354605
 20
887.8333272829889
 30
0.0
 11
435.910800354605
 21
892.7408045711006
 31
0.0
  0
LINE
  5
26A
330
1B
100
AcDbEntity
  8
4
100
AcDbLine
 10
418.910800354605
 20
892.7408045711006
 30
0.0
 11
427.410800354605
 21
887.8333272829889
 31
0.0
  0
LINE
  5
26B
330
1B
100
AcDbEntity
  8
4
100
AcDbLine
 10
435.910800354605
 20
892.7408045711006
 30
0.0
 11
435.910800354605
 21
902.5557591473246
 31
0.0
  0
LINE
  5
26C
330
1B
100
AcDbEntity
  8
4
100
AcDbLine
 10
418.910800354605
 20
902.5557591473246
 30
0.0
 11
418.910800354605
 21
892.7408045711006
 31
0.0
  0
CIRCLE
  5
26D
330
1B
100
AcDbEntity
  8
4
100
AcDbCircle
 10
427.410800354605
 20
897.6482818592124
 30
0.0
 40
8.5
  0
LINE
  5
26E
330
1B
100
AcDbEntity
  8
4
100
AcDbLine
 10
619.9108003546046
 20
902.5557591473246
 30
0.0
 11
611.4108003546046
 21
907.4632364354363
 31
0.0
  0
LINE
  5
26F
330
1B
100
AcDbEntity
  8
4
100
AcDbLine
 10
611.4108003546046
 20
907.4632364354363
 30
0.0
 11
602.9108003546046
 21
902.5557591473246
 31
0.0
  0
LINE
  5
270
330
1B
100
AcDbEntity
  8
4
100
AcDbLine
 10
611.4108003546046
 20
887.8333272829889
 30
0.0
 11
619.9108003546046
 21
892.7408045711006
 31
0.0
  0
LINE
  5
271
330
1B
100
AcDbEntity
  8
4
100
AcDbLine
 10
602.9108003546046
 20
892.7408045711006
 30
0.0
 11
611.4108003546046
 21
887.8333272829889
 31
0.0
  0
LINE
  5
272
330
1B
100
AcDbEntity
  8
4
100
AcDbLine
 10
619.9108003546046
 20
892.7408045711006
 30
0.0
 11
619.9108003546046
 21
902.5557591473246
 31
0.0
  0
LINE
  5
273
330
1B
100
AcDbEntity
  8
4
100
AcDbLine
 10
602.9108003546046
 20
902.5557591473246
 30
0.0
 11
602.9108003546046
 21
892.7408045711006
 31
0.0
  0
CIRCLE
  5
274
330
1B
100
AcDbEntity
  8
4
100
AcDbCircle
 10
611.4108003546046
 20
897.6482818592124
 30
0.0
 40
8.5
  0
LINE
  5
275
330
1B
100
AcDbEntity
  8
4
100
AcDbLine
 10
343.910800354605
 20
1061.904433443661
 30
0.0
 11
335.410800354605
 21
1066.811910731773
 31
0.0
  0
LINE
  5
276
330
1B
100
AcDbEntity
  8
4
100
AcDbLine
 10
335.410800354605
 20
1066.811910731773
 30
0.0
 11
326.910800354605
 21
1061.904433443661
 31
0.0
  0
LINE
  5
277
330
1B
100
AcDbEntity
  8
4
100
AcDbLine
 10
335.410800354605
 20
1047.182001579326
 30
0.0
 11
343.910800354605
 21
1052.089478867437
 31
0.0
  0
LINE
  5
278
330
1B
100
AcDbEntity
  8
4
100
AcDbLine
 10
326.910800354605
 20
1052.089478867437
 30
0.0
 11
335.410800354605
 21
1047.182001579326
 31
0.0
  0
LINE
  5
279
330
1B
100
AcDbEntity
  8
4
100
AcDbLine
 10
343.910800354605
 20
1052.089478867437
 30
0.0
 11
343.910800354605
 21
1061.904433443661
 31
0.0
  0
LINE
  5
27A
330
1B
100
AcDbEntity
  8
4
100
AcDbLine
 10
326.910800354605
 20
1061.904433443661
 30
0.0
 11
326.910800354605
 21
1052.089478867437
 31
0.0
  0
CIRCLE
  5
27B
330
1B
100
AcDbEntity
  8
4
100
AcDbCircle
 10
335.410800354605
 20
1056.996956155549
 30
0.0
 40
8.5
  0
LINE
  5
27C
330
1B
100
AcDbEntity
  8
4
100
AcDbLine
 10
711.910800354605
 20
1061.904433443661
 30
0.0
 11
703.410800354605
 21
1066.811910731773
 31
0.0
  0
LINE
  5
27D
330
1B
100
AcDbEntity
  8
4
100
AcDbLine
 10
703.410800354605
 20
1066.811910731773
 30
0.0
 11
694.910800354605
 21
1061.904433443661
 31
0.0
  0
LINE
  5
27E
330
1B
100
AcDbEntity
  8
4
100
AcDbLine
 10
703.410800354605
 20
1047.182001579326
 30
0.0
 11
711.910800354605
 21
1052.089478867437
 31
0.0
  0
LINE
  5
27F
330
1B
100
AcDbEntity
  8
4
100
AcDbLine
 10
694.910800354605
 20
1052.089478867437
 30
0.0
 11
703.410800354605
 21
1047.182001579326
 31
0.0
  0
LINE
  5
280
330
1B
100
AcDbEntity
  8
4
100
AcDbLine
 10
711.910800354605
 20
1052.089478867437
 30
0.0
 11
711.910800354605
 21
1061.904433443661
 31
0.0
  0
LINE
  5
281
330
1B
100
AcDbEntity
  8
4
100
AcDbLine
 10
694.910800354605
 20
1061.904433443661
 30
0.0
 11
694.910800354605
 21
1052.089478867437
 31
0.0
  0
CIRCLE
  5
282
330
1B
100
AcDbEntity
  8
4
100
AcDbCircle
 10
703.410800354605
 20
1056.996956155549
 30
0.0
 40
8.5
  0
LINE
  5
283
330
1B
100
AcDbEntity
  8
4
100
AcDbLine
 10
619.910800354605
 20
1221.253107739998
 30
0.0
 11
611.410800354605
 21
1226.16058502811
 31
0.0
  0
LINE
  5
284
330
1B
100
AcDbEntity
  8
4
100
AcDbLine
 10
611.410800354605
 20
1226.16058502811
 30
0.0
 11
602.910800354605
 21
1221.253107739998
 31
0.0
  0
LINE
  5
285
330
1B
100
AcDbEntity
  8
4
100
AcDbLine
 10
611.410800354605
 20
1206.530675875663
 30
0.0
 11
619.910800354605
 21
1211.438153163774
 31
0.0
  0
LINE
  5
286
330
1B
100
AcDbEntity
  8
4
100
AcDbLine
 10
602.910800354605
 20
1211.438153163774
 30
0.0
 11
611.410800354605
 21
1206.530675875663
 31
0.0
  0
LINE
  5
287
330
1B
100
AcDbEntity
  8
4
100
AcDbLine
 10
619.910800354605
 20
1211.438153163774
 30
0.0
 11
619.910800354605
 21
1221.253107739998
 31
0.0
  0
LINE
  5
288
330
1B
100
AcDbEntity
  8
4
100
AcDbLine
 10
602.910800354605
 20
1221.253107739998
 30
0.0
 11
602.910800354605
 21
1211.438153163774
 31
0.0
  0
CIRCLE
  5
289
330
1B
100
AcDbEntity
  8
4
100
AcDbCircle
 10
611.410800354605
 20
1216.345630451886
 30
0.0
 40
8.5
  0
LINE
  5
28A
330
1B
100
AcDbEntity
  8
4
100
AcDbLine
 10
435.9108003546055
 20
1221.253107739998
 30
0.0
 11
427.4108003546055
 21
1226.16058502811
 31
0.0
  0
LINE
  5
28B
330
1B
100
AcDbEntity
  8
4
100
AcDbLine
 10
427.4108003546055
 20
1226.16058502811
 30
0.0
 11
418.9108003546055
 21
1221.253107739998
 31
0.0
  0
LINE
  5
28C
330
1B
100
AcDbEntity
  8
4
100
AcDbLine
 10
427.4108003546055
 20
1206.530675875663
 30
0.0
 11
435.9108003546055
 21
1211.438153163774
 31
0.0
  0
LINE
  5
28D
330
1B
100
AcDbEntity
  8
4
100
AcDbLine
 10
418.9108003546055
 20
1211.438153163774
 30
0.0
 11
427.4108003546055
 21
1206.530675875663
 31
0.0
  0
LINE
  5
28E
330
1B
100
AcDbEntity
  8
4
100
AcDbLine
 10
435.9108003546055
 20
1211.438153163774
 30
0.0
 11
435.9108003546055
 21
1221.253107739998
 31
0.0
  0
LINE
  5
28F
330
1B
100
AcDbEntity
  8
4
100
AcDbLine
 10
418.9108003546055
 20
1221.253107739998
 30
0.0
 11
418.9108003546055
 21
1211.438153163774
 31
0.0
  0
CIRCLE
  5
290
330
1B
100
AcDbEntity
  8
4
100
AcDbCircle
 10
427.4108003546055
 20
1216.345630451886
 30
0.0
 40
8.5
  0
LINE
  5
2A3
330
1B
100
AcDbEntity
  8
4
100
AcDbLine
 10
312.510800354605
 20
941.9969561555492
 30
0.0
 11
312.510800354605
 21
771.9969561555492
 31
0.0
  0
LINE
  5
2A4
330
1B
100
AcDbEntity
  8
4
100
AcDbLine
 10
726.3108003546051
 20
941.9969561555492
 30
0.0
 11
726.3108003546051
 21
771.9969561555492
 31
0.0
  0
ARC
  5
2A5
330
1B
100
AcDbEntity
  8
4
100
AcDbCircle
 10
519.410800354605
 20
1186.996956155549
 30
0.0
 40
20.0
100
AcDbArc
 50
108.209956864283
 51
251.790043135717
  0
ARC
  5
2A6
330
1B
100
AcDbEntity
  8
4
100
AcDbCircle
 10
519.410800354605
 20
1186.996956155549
 30
0.0
 40
15.0
100
AcDbArc
 50
294.6243183521642
 51
65.3756816478342
  0
ARC
  5
2A7
330
1B
100
AcDbEntity
  8
4
100
AcDbCircle
 10
519.410800354605
 20
1186.996956155549
 30
0.0
 40
13.5
100
AcDbArc
 50
297.5784679781233
 51
62.42153202187455
  0
ARC
  5
2A8
330
1B
100
AcDbEntity
  8
4
100
AcDbCircle
 10
519.410800354605
 20
1210.746956155549
 30
0.0
 40
6.25
100
AcDbArc
 50
0.0
 51
180.0
  0
LINE
  5
2A9
330
1B
100
AcDbEntity
  8
4
100
AcDbLine
 10
513.160800354605
 20
1210.746956155549
 30
0.0
 11
513.160800354605
 21
1163.246956155549
 31
0.0
  0
LINE
  5
2AA
330
1B
100
AcDbEntity
  8
4
100
AcDbLine
 10
525.660800354605
 20
1210.746956155549
 30
0.0
 11
525.660800354605
 21
1163.246956155549
 31
0.0
  0
ARC
  5
2AB
330
1B
100
AcDbEntity
  8
4
100
AcDbCircle
 10
519.410800354605
 20
1186.996956155549
 30
0.0
 40
20.0
100
AcDbArc
 50
288.209956864283
 51
71.79004313571703
  0
ARC
  5
2AC
330
1B
100
AcDbEntity
  8
4
100
AcDbCircle
 10
519.410800354605
 20
1186.996956155549
 30
0.0
 40
13.5
100
AcDbArc
 50
117.5784679781212
 51
242.4215320218788
  0
ARC
  5
2AD
330
1B
100
AcDbEntity
  8
4
100
AcDbCircle
 10
519.410800354605
 20
1186.996956155549
 30
0.0
 40
15.0
100
AcDbArc
 50
114.6243183521623
 51
245.3756816478377
  0
ARC
  5
2AE
330
1B
100
AcDbEntity
  8
4
100
AcDbCircle
 10
519.410800354605
 20
1163.246956155549
 30
0.0
 40
6.25
100
AcDbArc
 50
180.0
 51
0.0
  0
ARC
  5
2AF
330
1B
100
AcDbEntity
  8
4
100
AcDbCircle
 10
519.410800354605
 20
926.9969561555492
 30
0.0
 40
20.0
100
AcDbArc
 50
288.209956864283
 51
71.79004313571703
  0
ARC
  5
2B0
330
1B
100
AcDbEntity
  8
4
100
AcDbCircle
 10
519.410800354605
 20
950.7469561555492
 30
0.0
 40
6.25
100
AcDbArc
 50
0.0
 51
180.0
  0
LINE
  5
2B1
330
1B
100
AcDbEntity
  8
4
100
AcDbLine
 10
525.660800354605
 20
903.2469561555492
 30
0.0
 11
525.660800354605
 21
950.7469561555492
 31
0.0
  0
LINE
  5
2B2
330
1B
100
AcDbEntity
  8
4
100
AcDbLine
 10
513.160800354605
 20
903.2469561555492
 30
0.0
 11
513.160800354605
 21
950.7469561555492
 31
0.0
  0
ARC
  5
2B3
330
1B
100
AcDbEntity
  8
4
100
AcDbCircle
 10
519.410800354605
 20
903.2469561555492
 30
0.0
 40
6.25
100
AcDbArc
 50
180.0
 51
0.0
  0
ARC
  5
2B4
330
1B
100
AcDbEntity
  8
4
100
AcDbCircle
 10
519.410800354605
 20
926.9969561555492
 30
0.0
 40
13.5
100
AcDbArc
 50
297.5784679781252
 51
62.42153202187669
  0
ARC
  5
2B5
330
1B
100
AcDbEntity
  8
4
100
AcDbCircle
 10
519.410800354605
 20
926.9969561555492
 30
0.0
 40
15.0
100
AcDbArc
 50
294.624318352166
 51
65.37568164783578
  0
ARC
  5
2B6
330
1B
100
AcDbEntity
  8
4
100
AcDbCircle
 10
519.410800354605
 20
926.9969561555492
 30
0.0
 40
15.0
100
AcDbArc
 50
114.6243183521623
 51
245.3756816478379
  0
ARC
  5
2B7
330
1B
100
AcDbEntity
  8
4
100
AcDbCircle
 10
519.410800354605
 20
926.9969561555492
 30
0.0
 40
13.5
100
AcDbArc
 50
117.5784679781212
 51
242.4215320218791
  0
LWPOLYLINE
  5
2B8
330
1B
100
AcDbEntity
  8
4
100
AcDbPolyline
 90
        6
 70
     1
 43
0.0
 10
626.410800354605
 20
1056.996956155549
 10
637.910800354605
 20
1037.078371868507
 10
660.910800354605
 20
1037.078371868507
 10
672.410800354605
 20
1056.996956155549
 10
660.910800354605
 20
1076.915540442591
 10
637.910800354605
 20
1076.915540442591
  0
CIRCLE
  5
2B9
330
1B
100
AcDbEntity
  8
4
100
AcDbCircle
 10
649.410800354605
 20
1056.996956155549
 30
0.0
 40
23.0
  0
LINE
  5
2BA
330
1B
100
AcDbEntity
  8
L-CENTER
 48
8.0
100
AcDbLine
 10
619.7348634987864
 20
1230.76333074302
 30
0.0
 11
603.0867372104233
 21
1201.927930160752
 31
0.0
  0
ARC
  5
2BB
330
1B
100
AcDbEntity
  8
4
100
AcDbCircle
 10
562.4491231346053
 20
1216.802940937985
 30
0.0
 40
3.5
100
AcDbArc
 50
74.92695388160367
 51
186.3634968358655
  0
ARC
  5
2BC
330
1B
100
AcDbEntity
  8
4
100
AcDbCircle
 10
679.2167851370411
 20
1100.035278935549
 30
0.0
 40
3.5
100
AcDbArc
 50
263.636503164138
 51
15.07304611839274
  0
ARC
  5
2BD
330
1B
100
AcDbEntity
  8
4
100
AcDbCircle
 10
592.0359550984806
 20
1114.285835671954
 30
0.0
 40
8.0
100
AcDbArc
 50
190.7196066720562
 51
263.6365031641363
  0
ARC
  5
2BE
330
1B
100
AcDbEntity
  8
4
100
AcDbCircle
 10
580.1132690277711
 20
1117.833414856946
 30
0.0
 40
3.0
100
AcDbArc
 50
11.81993167154825
 51
78.40446683456898
  0
ARC
  5
2BF
330
1B
100
AcDbEntity
  8
4
100
AcDbCircle
 10
575.974725393655
 20
1113.560881194599
 30
0.0
 40
3.0
100
AcDbArc
 50
10.97910089056233
 51
79.02089910943809
  0
ARC
  5
2C0
330
1B
100
AcDbEntity
  8
4
100
AcDbCircle
 10
576.6996798710095
 20
1129.622110899425
 30
0.0
 40
8.0
100
AcDbArc
 50
186.3634968358654
 51
259.2803933279438
  0
LINE
  5
2C1
330
1B
100
AcDbEntity
  8
4
100
AcDbLine
 10
678.8288599081391
 20
1096.556843365241
 30
0.0
 11
591.1492688609899
 21
1106.335125796965
 31
0.0
  0
LINE
  5
2C2
330
1B
100
AcDbEntity
  8
4
100
AcDbLine
 10
558.9706875642971
 20
1216.415015709083
 30
0.0
 11
568.7489699960208
 21
1128.735424661934
 31
0.0
  0
ARC
  5
2C3
330
1B
100
AcDbEntity
  8
4
100
AcDbCircle
 10
476.3724775746052
 20
1216.802940937985
 30
0.0
 40
3.5
100
AcDbArc
 50
353.6365031641382
 51
105.0730461183892
  0
LINE
  5
2C4
330
1B
100
AcDbEntity
  8
L-CENTER
 48
8.0
100
AcDbLine
 10
419.0867372104237
 20
1230.76333074302
 30
0.0
 11
435.7348634987864
 21
1201.927930160752
 31
0.0
  0
ARC
  5
2C5
330
1B
100
AcDbEntity
  8
4
100
AcDbCircle
 10
458.7083316814389
 20
1117.833414856946
 30
0.0
 40
3.0
100
AcDbArc
 50
101.595533165431
 51
168.1800683284515
  0
ARC
  5
2C6
330
1B
100
AcDbEntity
  8
4
100
AcDbCircle
 10
446.7856456107295
 20
1114.285835671954
 30
0.0
 40
8.0
100
AcDbArc
 50
276.3634968358637
 51
349.2803933279438
  0
ARC
  5
2C7
330
1B
100
AcDbEntity
  8
4
100
AcDbCircle
 10
462.8468753155551
 20
1113.560881194599
 30
0.0
 40
3.0
100
AcDbArc
 50
100.9791008905619
 51
169.0208991094379
  0
ARC
  5
2C8
330
1B
100
AcDbEntity
  8
4
100
AcDbCircle
 10
462.1219208382006
 20
1129.622110899425
 30
0.0
 40
8.0
100
AcDbArc
 50
280.7196066720562
 51
353.6365031641347
  0
ARC
  5
2C9
330
1B
100
AcDbEntity
  8
4
100
AcDbCircle
 10
359.6048155721689
 20
1100.03527893555
 30
0.0
 40
3.5
100
AcDbArc
 50
164.9269538816073
 51
276.363496835862
  0
CIRCLE
  5
2CA
330
1B
100
AcDbEntity
  8
4
100
AcDbCircle
 10
649.410800354605
 20
1056.996956155549
 30
0.0
 40
25.0
  0
LINE
  5
2CB
330
1B
100
AcDbEntity
  8
L-CENTER
 48
8.0
100
AcDbLine
 10
649.410800354605
 20
1023.768317762984
 30
0.0
 11
649.410800354605
 21
1090.225594548114
 31
0.0
  0
LINE
  5
2CC
330
1B
100
AcDbEntity
  8
4
100
AcDbLine
 10
359.992740801071
 20
1096.556843365241
 30
0.0
 11
447.6723318482202
 21
1106.335125796965
 31
0.0
  0
LINE
  5
2CD
330
1B
100
AcDbEntity
  8
4
100
AcDbLine
 10
479.850913144913
 20
1216.415015709083
 30
0.0
 11
470.0726307131893
 21
1128.735424661934
 31
0.0
  0
ARC
  5
2CE
330
1B
100
AcDbEntity
  8
4
100
AcDbCircle
 10
519.410800354605
 20
821.9969561555492
 30
0.0
 40
305.0
100
AcDbArc
 50
78.4044668345727
 51
101.5955331654273
  0
ARC
  5
2CF
330
1B
100
AcDbEntity
  8
4
100
AcDbCircle
 10
519.410800354605
 20
821.9969561555492
 30
0.0
 40
300.0
100
AcDbArc
 50
79.02089910943822
 51
100.9791008905618
  0
LINE
  5
2D0
330
1B
100
AcDbEntity
  8
L-CENTER
 48
8.0
100
AcDbLine
 10
492.3541252566677
 20
1186.996956155549
 30
0.0
 11
546.4674754525424
 21
1186.996956155549
 31
0.0
  0
ARC
  5
2D1
330
1B
100
AcDbEntity
  8
4
100
AcDbCircle
 10
576.6996798710095
 20
984.3718014116737
 30
0.0
 40
8.0
100
AcDbArc
 50
100.7196066720562
 51
173.6365031641346
  0
ARC
  5
2D2
330
1B
100
AcDbEntity
  8
4
100
AcDbCircle
 10
575.974725393655
 20
1000.433031116499
 30
0.0
 40
3.0
100
AcDbArc
 50
280.9791008905619
 51
349.0208991094377
  0
ARC
  5
2D3
330
1B
100
AcDbEntity
  8
4
100
AcDbCircle
 10
580.1364387799642
 20
996.27131773019
 30
0.0
 40
3.0
100
AcDbArc
 50
281.7980905051251
 51
348.2019094948703
  0
ARC
  5
2D4
330
1B
100
AcDbEntity
  8
4
100
AcDbCircle
 10
592.0359550984806
 20
999.7080766391448
 30
0.0
 40
8.0
100
AcDbArc
 50
96.36349683586364
 51
169.2803933279438
  0
LINE
  5
2D5
330
1B
100
AcDbEntity
  8
L-CENTER
 48
8.0
100
AcDbLine
 10
619.7348634987864
 20
883.2305815680784
 30
0.0
 11
603.0867372104233
 21
912.0659821503464
 31
0.0
  0
ARC
  5
2D6
330
1B
100
AcDbEntity
  8
4
100
AcDbCircle
 10
562.4491231346049
 20
897.1909713731131
 30
0.0
 40
3.5
100
AcDbArc
 50
173.6365031641382
 51
285.0730461183891
  0
LINE
  5
2D7
330
1B
100
AcDbEntity
  8
4
100
AcDbLine
 10
558.9706875642971
 20
897.5788966020152
 30
0.0
 11
568.7489699960208
 21
985.2584876491644
 31
0.0
  0
ARC
  5
2D8
330
1B
100
AcDbEntity
  8
4
100
AcDbCircle
 10
462.8468753155551
 20
1000.433031116499
 30
0.0
 40
3.0
100
AcDbArc
 50
190.9791008905621
 51
259.0208991094381
  0
ARC
  5
2D9
330
1B
100
AcDbEntity
  8
4
100
AcDbCircle
 10
458.6851619292459
 20
996.27131773019
 30
0.0
 40
3.0
100
AcDbArc
 50
191.7980905051255
 51
258.2019094948749
  0
ARC
  5
2DA
330
1B
100
AcDbEntity
  8
4
100
AcDbCircle
 10
462.1219208382006
 20
984.3718014116737
 30
0.0
 40
8.0
100
AcDbArc
 50
6.363496835865358
 51
79.28039332794378
  0
ARC
  5
2DB
330
1B
100
AcDbEntity
  8
4
100
AcDbCircle
 10
446.7856456107295
 20
999.7080766391448
 30
0.0
 40
8.0
100
AcDbArc
 50
10.7196066720562
 51
83.63650316413636
  0
ARC
  5
2DC
330
1B
100
AcDbEntity
  8
4
100
AcDbCircle
 10
476.3724775746048
 20
897.1909713731131
 30
0.0
 40
3.5
100
AcDbArc
 50
254.9269538816031
 51
6.363496835865645
  0
LINE
  5
2DD
330
1B
100
AcDbEntity
  8
4
100
AcDbLine
 10
479.850913144913
 20
897.5788966020152
 30
0.0
 11
470.0726307131893
 21
985.2584876491644
 31
0.0
  0
ARC
  5
2DE
330
1B
100
AcDbEntity
  8
4
100
AcDbCircle
 10
519.410800354605
 20
926.9969561555492
 30
0.0
 40
20.0
100
AcDbArc
 50
108.209956864283
 51
251.790043135717
  0
LINE
  5
2DF
330
1B
100
AcDbEntity
  8
L-CENTER
 48
8.0
100
AcDbLine
 10
419.0867372104233
 20
883.2305815680786
 30
0.0
 11
435.7348634987868
 21
912.0659821503461
 31
0.0
  0
ARC
  5
2E0
330
1B
100
AcDbEntity
  8
4
100
AcDbCircle
 10
519.410800354605
 20
1291.996956155549
 30
0.0
 40
300.0
100
AcDbArc
 50
259.0208991094382
 51
280.9791008905617
  0
ARC
  5
2E1
330
1B
100
AcDbEntity
  8
4
100
AcDbCircle
 10
519.410800354605
 20
1286.996956155549
 30
0.0
 40
300.0
100
AcDbArc
 50
258.2019094948723
 51
281.7980905051276
  0
LINE
  5
2E2
330
1B
100
AcDbEntity
  8
L-CENTER
 48
8.0
100
AcDbLine
 10
492.3541252566677
 20
926.9969561555492
 30
0.0
 11
546.4674754525424
 21
926.9969561555492
 31
0.0
  0
CIRCLE
  5
2E3
330
1B
100
AcDbEntity
  8
4
100
AcDbCircle
 10
519.410800354605
 20
1056.996956155549
 30
0.0
 40
50.0
  0
CIRCLE
  5
2E4
330
1B
100
AcDbEntity
  8
4
100
AcDbCircle
 10
519.410800354605
 20
1056.996956155549
 30
0.0
 40
194.0
  0
CIRCLE
  5
2E5
330
1B
100
AcDbEntity
  8
L-CENTER
 48
8.0
100
AcDbCircle
 10
519.410800354605
 20
1056.996956155549
 30
0.0
 40
184.0
  0
CIRCLE
  5
2E6
330
1B
100
AcDbEntity
  8
4
100
AcDbCircle
 10
519.410800354605
 20
1056.996956155549
 30
0.0
 40
169.0
  0
ARC
  5
2E7
330
1B
100
AcDbEntity
  8
4
100
AcDbCircle
 10
754.410800354605
 20
1056.996956155549
 30
0.0
 40
300.0
100
AcDbArc
 50
169.0208991094383
 51
190.9791008905617
  0
ARC
  5
2E8
330
1B
100
AcDbEntity
  8
4
100
AcDbCircle
 10
749.410800354605
 20
1056.996956155549
 30
0.0
 40
300.0
100
AcDbArc
 50
168.1800683284511
 51
191.7980905051275
  0
LINE
  5
2E9
330
1B
100
AcDbEntity
  8
4
100
AcDbLine
 10
359.992740801071
 20
1017.437068945857
 30
0.0
 11
447.6723318482202
 21
1007.658786514133
 31
0.0
  0
ARC
  5
2EA
330
1B
100
AcDbEntity
  8
4
100
AcDbCircle
 10
359.6048155721689
 20
1013.958633375549
 30
0.0
 40
3.5
100
AcDbArc
 50
83.63650316413796
 51
195.0730461183927
  0
ARC
  5
2EB
330
1B
100
AcDbEntity
  8
4
100
AcDbCircle
 10
284.410800354605
 20
1056.996956155549
 30
0.0
 40
300.0
100
AcDbArc
 50
349.0208991094382
 51
10.9791008905618
  0
ARC
  5
2EC
330
1B
100
AcDbEntity
  8
4
100
AcDbCircle
 10
289.410800354605
 20
1056.996956155549
 30
0.0
 40
300.0
100
AcDbArc
 50
348.2019094948723
 51
11.81993167154881
  0
LINE
  5
2ED
330
1B
100
AcDbEntity
  8
4
100
AcDbLine
 10
678.8288599081391
 20
1017.437068945857
 30
0.0
 11
591.1492688609899
 21
1007.658786514133
 31
0.0
  0
ARC
  5
2EE
330
1B
100
AcDbEntity
  8
4
100
AcDbCircle
 10
679.2167851370411
 20
1013.958633375549
 30
0.0
 40
3.5
100
AcDbArc
 50
344.9269538816073
 51
96.36349683586204
  0
ARC
  5
2EF
330
1B
100
AcDbEntity
  8
4
100
AcDbCircle
 10
529.3697903810651
 20
828.4175469537356
 30
0.0
 40
8.75
100
AcDbArc
 50
90.0
 51
164.6531835497857
  0
ARC
  5
2F0
330
1B
100
AcDbEntity
  8
4
100
AcDbCircle
 10
529.3697903810651
 20
815.9175469537356
 30
0.0
 40
8.75
100
AcDbArc
 50
194.4440951627979
 51
270.0
  0
ARC
  5
2F1
330
1B
100
AcDbEntity
  8
4
100
AcDbCircle
 10
529.3697903810651
 20
815.9175469537356
 30
0.0
 40
15.75
100
AcDbArc
 50
187.9654037623433
 51
270.0
  0
LINE
  5
2F2
330
1B
100
AcDbEntity
  8
4
100
AcDbLine
 10
513.7717475863899
 20
813.7349885981619
 30
0.0
 11
520.896364921163
 21
813.7349885981619
 31
0.0
  0
ARC
  5
2F3
330
1B
100
AcDbEntity
  8
4
100
AcDbCircle
 10
529.3697903810651
 20
828.4175469537356
 30
0.0
 40
15.75
100
AcDbArc
 50
90.0
 51
171.5449217064241
  0
LINE
  5
2F4
330
1B
100
AcDbEntity
  8
4
100
AcDbLine
 10
513.7909700965708
 20
830.7333316033589
 30
0.0
 11
520.9318023829362
 21
830.7333316033589
 31
0.0
  0
LINE
  5
2F5
330
1B
100
AcDbEntity
  8
4
100
AcDbLine
 10
570.7909700965708
 20
800.1675469537356
 30
0.0
 11
570.7909700965708
 21
844.1675469537356
 31
0.0
  0
LINE
  5
2F6
330
1B
100
AcDbEntity
  8
4
100
AcDbLine
 10
563.7909700965708
 20
800.1675469537356
 30
0.0
 11
563.7909700965708
 21
837.1675469537356
 31
0.0
  0
LINE
  5
2F7
330
1B
100
AcDbEntity
  8
4
100
AcDbLine
 10
570.7909700965708
 20
800.1675469537356
 30
0.0
 11
563.7909700965708
 21
800.1675469537356
 31
0.0
  0
ARC
  5
2F8
330
1B
100
AcDbEntity
  8
4
100
AcDbCircle
 10
530.0424016870827
 20
815.9175469537356
 30
0.0
 40
15.75
100
AcDbArc
 50
267.5546421064602
 51
0.1542523760194512
  0
ARC
  5
2F9
330
1B
100
AcDbEntity
  8
4
100
AcDbCircle
 10
530.0424016870827
 20
828.4175469537356
 30
0.0
 40
15.75
100
AcDbArc
 50
1.096141316697201
 51
90.0
  0
LINE
  5
2FA
330
1B
100
AcDbEntity
  8
4
100
AcDbLine
 10
538.7908004610506
 20
828.5849353990768
 30
0.0
 11
538.7923699770815
 21
815.9411037788839
 31
0.0
  0
ARC
  5
2FB
330
1B
100
AcDbEntity
  8
4
100
AcDbCircle
 10
530.0424016870827
 20
815.9175469537356
 30
0.0
 40
8.75
100
AcDbArc
 50
270.0
 51
0.1542523760170885
  0
ARC
  5
2FC
330
1B
100
AcDbEntity
  8
4
100
AcDbCircle
 10
530.0424016870827
 20
828.4175469537356
 30
0.0
 40
8.75
100
AcDbArc
 50
1.096141316697201
 51
90.0
  0
LINE
  5
2FD
330
1B
100
AcDbEntity
  8
4
100
AcDbLine
 10
545.7895194802252
 20
828.7188461553494
 30
0.0
 11
545.792344609081
 21
815.9599492390023
 31
0.0
  0
LINE
  5
2FE
330
1B
100
AcDbEntity
  8
4
100
AcDbLine
 10
547.7909700965708
 20
837.1675469537356
 30
0.0
 11
547.7909700965708
 21
844.1675469537356
 31
0.0
  0
LINE
  5
2FF
330
1B
100
AcDbEntity
  8
4
100
AcDbLine
 10
563.7909700965708
 20
837.1675469537356
 30
0.0
 11
547.7909700965708
 21
837.1675469537356
 31
0.0
  0
LINE
  5
300
330
1B
100
AcDbEntity
  8
4
100
AcDbLine
 10
570.7909700965708
 20
844.1675469537356
 30
0.0
 11
547.7909700965708
 21
844.1675469537356
 31
0.0
  0
LINE
  5
301
330
1B
100
AcDbEntity
  8
4
100
AcDbLine
 10
705.410800354605
 20
933.3887040038421
 30
0.0
 11
705.410800354605
 21
889.1151222012388
 31
0.0
  0
LINE
  5
302
330
1B
100
AcDbEntity
  8
4
100
AcDbLine
 10
699.410800354605
 20
889.1151222012388
 30
0.0
 11
705.410800354605
 21
889.1151222012388
 31
0.0
  0
ARC
  5
303
330
1B
100
AcDbEntity
  8
4
100
AcDbCircle
 10
737.4093588165326
 20
856.6172829682148
 30
0.0
 40
50.0
100
AcDbArc
 50
139.4616562984868
 51
220.5383437015128
  0
LINE
  5
304
330
1B
100
AcDbEntity
  8
4
100
AcDbLine
 10
699.410800354605
 20
824.1194437351908
 30
0.0
 11
699.410800354605
 21
889.1151222012384
 31
0.0
  0
LINE
  5
305
330
1B
100
AcDbEntity
  8
4
100
AcDbLine
 10
705.410800354605
 20
824.2414331384596
 30
0.0
 11
705.410800354605
 21
771.9969561555492
 31
0.0
  0
LINE
  5
306
330
1B
100
AcDbEntity
  8
4
100
AcDbLine
 10
699.410800354605
 20
824.1194437351908
 30
0.0
 11
705.410800354605
 21
824.1194437351908
 31
0.0
  0
ARC
  5
307
330
1B
100
AcDbEntity
  8
4
100
AcDbCircle
 10
690.1195757252738
 20
886.2881807848803
 30
0.0
 40
5.0
100
AcDbArc
 50
284.2187212882588
 51
345.7812787117412
  0
ARC
  5
308
330
1B
100
AcDbEntity
  8
4
100
AcDbCircle
 10
16.41080035460504
 20
1056.996956155549
 30
0.0
 40
700.0
100
AcDbArc
 50
345.7812787117402
 51
14.21872128825976
  0
ARC
  5
309
330
1B
100
AcDbEntity
  8
4
100
AcDbCircle
 10
690.1195757252738
 20
1227.705731526218
 30
0.0
 40
5.0
100
AcDbArc
 50
14.21872128825886
 51
75.78127871174114
  0
LINE
  5
30A
330
1B
100
AcDbEntity
  8
L-CENTER
 48
8.0
100
AcDbLine
 10
676.2122223182034
 20
1201.996956155552
 30
0.0
 11
732.6093783910067
 21
1201.996956155552
 31
0.0
  0
ARC
  5
30B
330
1B
100
AcDbEntity
  8
4
100
AcDbCircle
 10
734.410800354605
 20
1246.996956155549
 30
0.0
 40
5.0
100
AcDbArc
 50
0.0
 51
90.0
  0
ARC
  5
30C
330
1B
100
AcDbEntity
  8
4
100
AcDbCircle
 10
607.410800354605
 20
1243.996956155549
 30
0.0
 40
8.0
100
AcDbArc
 50
90.0
 51
139.5446399065702
  0
ARC
  5
30D
330
1B
100
AcDbEntity
  8
4
100
AcDbCircle
 10
541.410800354605
 20
1255.65214212655
 30
0.0
 40
2.0
100
AcDbArc
 50
180.0
 51
268.2041117209929
  0
ARC
  5
30E
330
1B
100
AcDbEntity
  8
4
100
AcDbCircle
 10
541.410800354605
 20
1255.65214212655
 30
0.0
 40
2.0
100
AcDbArc
 50
180.0
 51
268.2041117209799
  0
LINE
  5
30F
330
1B
100
AcDbEntity
  8
4
100
AcDbLine
 10
539.410800354605
 20
1255.996956155549
 30
0.0
 11
539.410800354605
 21
1255.65214212655
 31
0.0
  0
LINE
  5
310
330
1B
100
AcDbEntity
  8
4
100
AcDbLine
 10
539.410800354605
 20
1256.996956155549
 30
0.0
 11
539.410800354605
 21
1255.996956155549
 31
0.0
  0
LINE
  5
311
330
1B
100
AcDbEntity
  8
4
100
AcDbLine
 10
539.410800354605
 20
1255.996956155549
 30
0.0
 11
539.410800354605
 21
1255.65214212655
 31
0.0
  0
LINE
  5
312
330
1B
100
AcDbEntity
  8
4
100
AcDbLine
 10
734.410800354605
 20
1251.996956155549
 30
0.0
 11
607.410800354605
 21
1251.996956155549
 31
0.0
  0
ARC
  5
313
330
1B
100
AcDbEntity
  8
4
100
AcDbCircle
 10
722.410800354605
 20
1163.996956155549
 30
0.0
 40
2.0
100
AcDbArc
 50
270.0
 51
0.0
  0
LINE
  5
314
330
1B
100
AcDbEntity
  8
4
100
AcDbLine
 10
722.410800354605
 20
1151.996956155549
 30
0.0
 11
709.9344120651219
 21
1151.996956155549
 31
0.0
  0
LINE
  5
315
330
1B
100
AcDbEntity
  8
4
100
AcDbLine
 10
722.410800354605
 20
1161.996956155549
 30
0.0
 11
708.4909980195869
 21
1161.996956155549
 31
0.0
  0
ARC
  5
316
330
1B
100
AcDbEntity
  8
4
100
AcDbCircle
 10
722.410800354605
 20
1149.996956155549
 30
0.0
 40
2.0
100
AcDbArc
 50
0.0
 51
90.0
  0
ARC
  5
317
330
1B
100
AcDbEntity
  8
4
100
AcDbCircle
 10
734.410800354605
 20
1155.528127880155
 30
0.0
 40
5.0
100
AcDbArc
 50
289.5378972703033
 51
0.0
  0
ARC
  5
318
330
1B
100
AcDbEntity
  8
4
100
AcDbCircle
 10
704.410800354605
 20
1201.996956155549
 30
0.0
 40
11.0
100
AcDbArc
 50
270.0
 51
118.7752055090169
  0
LINE
  5
319
330
1B
100
AcDbEntity
  8
4
100
AcDbLine
 10
736.0829517523655
 20
1150.816025408543
 30
0.0
 11
711.2309209613707
 21
1141.996956155549
 31
0.0
  0
LINE
  5
31A
330
1B
100
AcDbEntity
  8
L-CENTER
 48
8.0
100
AcDbLine
 10
704.410800354605
 20
1230.195534191954
 30
0.0
 11
704.410800354605
 21
1173.786409342693
 31
0.0
  0
LINE
  5
31B
330
1B
100
AcDbEntity
  8
4
100
AcDbLine
 10
739.410800354605
 20
1155.528127880155
 30
0.0
 11
739.410800354605
 21
1246.996956155549
 31
0.0
  0
ARC
  5
31C
330
1B
100
AcDbEntity
  8
4
100
AcDbCircle
 10
497.410800354605
 20
1255.65214212655
 30
0.0
 40
2.0
100
AcDbArc
 50
271.7958882790071
 51
0.0
  0
LINE
  5
31D
330
1B
100
AcDbEntity
  8
4
100
AcDbLine
 10
519.410800354605
 20
1256.996956155549
 30
0.0
 11
499.410800354605
 21
1256.996956155549
 31
0.0
  0
LINE
  5
31E
330
1B
100
AcDbEntity
  8
4
100
AcDbLine
 10
499.410800354605
 20
1256.996956155549
 30
0.0
 11
499.410800354605
 21
1255.996956155549
 31
0.0
  0
LINE
  5
31F
330
1B
100
AcDbEntity
  8
4
100
AcDbLine
 10
499.410800354605
 20
1255.996956155549
 30
0.0
 11
499.410800354605
 21
1255.65214212655
 31
0.0
  0
ARC
  5
320
330
1B
100
AcDbEntity
  8
4
100
AcDbCircle
 10
431.410800354605
 20
1243.996956155549
 30
0.0
 40
8.0
100
AcDbArc
 50
40.45536009342984
 51
90.0
  0
ARC
  5
321
330
1B
100
AcDbEntity
  8
4
100
AcDbCircle
 10
304.410800354605
 20
1246.996956155549
 30
0.0
 40
5.0
100
AcDbArc
 50
90.0
 51
180.0
  0
ARC
  5
322
330
1B
100
AcDbEntity
  8
4
100
AcDbCircle
 10
348.7020249839363
 20
1227.705731526218
 30
0.0
 40
5.0
100
AcDbArc
 50
104.2187212882589
 51
165.7812787117413
  0
ARC
  5
323
330
1B
100
AcDbEntity
  8
4
100
AcDbCircle
 10
519.410800354605
 20
553.9969561555492
 30
0.0
 40
700.0
100
AcDbArc
 50
75.78127871174028
 51
104.2187212882597
  0
LINE
  5
324
330
1B
100
AcDbEntity
  8
4
100
AcDbLine
 10
304.410800354605
 20
1251.996956155549
 30
0.0
 11
431.410800354605
 21
1251.996956155549
 31
0.0
  0
LINE
  5
325
330
1B
100
AcDbEntity
  8
4
100
AcDbLine
 10
316.4108003546046
 20
1161.996956155549
 30
0.0
 11
330.3306026896237
 21
1161.996956155549
 31
0.0
  0
LINE
  5
326
330
1B
100
AcDbEntity
  8
4
100
AcDbLine
 10
316.410800354605
 20
1151.996956155549
 30
0.0
 11
328.8871886440877
 21
1151.996956155549
 31
0.0
  0
ARC
  5
327
330
1B
100
AcDbEntity
  8
4
100
AcDbCircle
 10
316.4108003546046
 20
1163.996956155549
 30
0.0
 40
2.0
100
AcDbArc
 50
180.0
 51
270.0
  0
ARC
  5
328
330
1B
100
AcDbEntity
  8
4
100
AcDbCircle
 10
304.410800354605
 20
1155.528127880155
 30
0.0
 40
5.0
100
AcDbArc
 50
180.0
 51
250.4621027296967
  0
ARC
  5
329
330
1B
100
AcDbEntity
  8
4
100
AcDbCircle
 10
316.410800354605
 20
1149.996956155549
 30
0.0
 40
2.0
100
AcDbArc
 50
90.0
 51
180.0
  0
LINE
  5
32A
330
1B
100
AcDbEntity
  8
L-CENTER
 48
8.0
100
AcDbLine
 10
362.6093783910067
 20
1201.996956155549
 30
0.0
 11
306.2122223182032
 21
1201.996956155549
 31
0.0
  0
ARC
  5
32B
330
1B
100
AcDbEntity
  8
4
100
AcDbCircle
 10
334.410800354605
 20
1201.996956155549
 30
0.0
 40
11.0
100
AcDbArc
 50
61.22479449098236
 51
270.0
  0
LINE
  5
32C
330
1B
100
AcDbEntity
  8
4
100
AcDbLine
 10
302.7386489568446
 20
1150.816025408543
 30
0.0
 11
327.5906797478394
 21
1141.996956155549
 31
0.0
  0
LINE
  5
32D
330
1B
100
AcDbEntity
  8
L-CENTER
 48
8.0
100
AcDbLine
 10
334.410800354605
 20
1230.195534191951
 30
0.0
 11
334.410800354605
 21
1173.798378119148
 31
0.0
  0
LINE
  5
32E
330
1B
100
AcDbEntity
  8
4
100
AcDbLine
 10
299.410800354605
 20
1155.528127880155
 30
0.0
 11
299.410800354605
 21
1246.996956155549
 31
0.0
  0
LINE
  5
32F
330
1B
100
AcDbEntity
  8
4
100
AcDbLine
 10
519.410800354605
 20
1256.996956155549
 30
0.0
 11
539.410800354605
 21
1256.996956155549
 31
0.0
  0
LINE
  5
330
330
1B
100
AcDbEntity
  8
4
100
AcDbLine
 10
706.8997575436395
 20
941.9969561555492
 30
0.0
 11
726.3108003546051
 21
941.9969561555492
 31
0.0
  0
LINE
  5
331
330
1B
100
AcDbEntity
  8
4
100
AcDbLine
 10
712.410800354605
 20
941.9969561555495
 30
0.0
 11
709.7599754110609
 21
941.9969561555495
 31
0.0
  0
LINE
  5
332
330
1B
100
AcDbEntity
  8
4
100
AcDbLine
 10
736.0829517523655
 20
963.1778869025557
 30
0.0
 11
711.2309209613707
 21
971.9969561555495
 31
0.0
  0
LINE
  5
333
330
1B
100
AcDbEntity
  8
4
100
AcDbLine
 10
722.410800354605
 20
961.9969561555495
 30
0.0
 11
709.9344120651219
 21
961.9969561555495
 31
0.0
  0
LINE
  5
334
330
1B
100
AcDbEntity
  8
4
100
AcDbLine
 10
722.410800354605
 20
951.9969561555497
 30
0.0
 11
708.4909980195869
 21
951.9969561555495
 31
0.0
  0
ARC
  5
335
330
1B
100
AcDbEntity
  8
4
100
AcDbCircle
 10
722.410800354605
 20
949.9969561555497
 30
0.0
 40
2.0
100
AcDbArc
 50
0.0
 51
90.0
  0
ARC
  5
336
330
1B
100
AcDbEntity
  8
4
100
AcDbCircle
 10
722.410800354605
 20
963.9969561555495
 30
0.0
 40
2.0
100
AcDbArc
 50
270.0
 51
0.0
  0
ARC
  5
337
330
1B
100
AcDbEntity
  8
4
100
AcDbCircle
 10
734.410800354605
 20
958.465784430944
 30
0.0
 40
5.0
100
AcDbArc
 50
0.0
 51
70.46210272969668
  0
LINE
  5
338
330
1B
100
AcDbEntity
  8
4
100
AcDbLine
 10
739.410800354605
 20
958.465784430944
 30
0.0
 11
739.4108003546056
 21
866.9969561555492
 31
0.0
  0
LINE
  5
339
330
1B
100
AcDbEntity
  8
4
100
AcDbLine
 10
712.410800354605
 20
941.9969561555492
 30
0.0
 11
712.410800354605
 21
771.9969561555492
 31
0.0
  0
LINE
  5
33A
330
1B
100
AcDbEntity
  8
4
100
AcDbLine
 10
302.7386489568446
 20
963.1778869025557
 30
0.0
 11
327.5906797478394
 21
971.9969561555495
 31
0.0
  0
LINE
  5
33B
330
1B
100
AcDbEntity
  8
4
100
AcDbLine
 10
316.410800354605
 20
961.9969561555495
 30
0.0
 11
328.8871886440877
 21
961.9969561555495
 31
0.0
  0
LINE
  5
33C
330
1B
100
AcDbEntity
  8
4
100
AcDbLine
 10
316.4108003546046
 20
951.9969561555497
 30
0.0
 11
330.3306026896237
 21
951.9969561555495
 31
0.0
  0
ARC
  5
33D
330
1B
100
AcDbEntity
  8
4
100
AcDbCircle
 10
304.410800354605
 20
958.465784430944
 30
0.0
 40
5.0
100
AcDbArc
 50
109.5378972703033
 51
180.0
  0
ARC
  5
33E
330
1B
100
AcDbEntity
  8
4
100
AcDbCircle
 10
316.410800354605
 20
963.9969561555495
 30
0.0
 40
2.0
100
AcDbArc
 50
180.0
 51
270.0
  0
ARC
  5
33F
330
1B
100
AcDbEntity
  8
4
100
AcDbCircle
 10
316.4108003546046
 20
949.9969561555497
 30
0.0
 40
2.0
100
AcDbArc
 50
90.0
 51
180.0
  0
LINE
  5
340
330
1B
100
AcDbEntity
  8
4
100
AcDbLine
 10
312.510800354605
 20
941.9969561555492
 30
0.0
 11
331.9218431655706
 21
941.9969561555492
 31
0.0
  0
CIRCLE
  5
341
330
1B
100
AcDbEntity
  8
4
100
AcDbCircle
 10
481.2909700965704
 20
830.6675469537356
 30
0.0
 40
7.5
  0
ARC
  5
342
330
1B
100
AcDbEntity
  8
4
100
AcDbCircle
 10
481.2909700965704
 20
830.653201614117
 30
0.0
 40
13.5
100
AcDbArc
 50
306.789563507821
 51
233.210436492179
  0
ARC
  5
343
330
1B
100
AcDbEntity
  8
4
100
AcDbCircle
 10
481.2909700965704
 20
811.6635174154287
 30
0.0
 40
11.5
100
AcDbArc
 50
134.6706406007723
 51
45.32935939922768
  0
CIRCLE
  5
344
330
1B
100
AcDbEntity
  8
4
100
AcDbCircle
 10
481.2909700965704
 20
811.6675469537356
 30
0.0
 40
5.5
  0
LINE
  5
345
330
1B
100
AcDbEntity
  8
4
100
AcDbLine
 10
511.7909700965704
 20
825.6675469537356
 30
0.0
 11
511.7909700965704
 21
818.6675469537356
 31
0.0
  0
LINE
  5
346
330
1B
100
AcDbEntity
  8
4
100
AcDbLine
 10
501.7909700965704
 20
825.6675469537356
 30
0.0
 11
501.7909700965704
 21
818.6675469537356
 31
0.0
  0
LINE
  5
347
330
1B
100
AcDbEntity
  8
4
100
AcDbLine
 10
511.7909700965704
 20
818.6675469537356
 30
0.0
 11
501.7909700965704
 21
818.6675469537356
 31
0.0
  0
LINE
  5
348
330
1B
100
AcDbEntity
  8
4
100
AcDbLine
 10
511.7909700965704
 20
825.6675469537356
 30
0.0
 11
501.7909700965704
 21
825.6675469537356
 31
0.0
  0
LINE
  5
34B
330
1B
100
AcDbEntity
  8
4
100
AcDbLine
 10
339.410800354605
 20
889.1151222012388
 30
0.0
 11
333.410800354605
 21
889.1151222012388
 31
0.0
  0
ARC
  5
34C
330
1B
100
AcDbEntity
  8
4
100
AcDbCircle
 10
348.7020249839363
 20
886.2881807848803
 30
0.0
 40
5.0
100
AcDbArc
 50
194.2187212882587
 51
255.7812787117412
  0
LINE
  5
34D
330
1B
100
AcDbEntity
  8
4
100
AcDbLine
 10
339.410800354605
 20
824.1194437351908
 30
0.0
 11
333.410800354605
 21
824.1194437351908
 31
0.0
  0
LINE
  5
34E
330
1B
100
AcDbEntity
  8
4
100
AcDbLine
 10
339.410800354605
 20
824.1194437351908
 30
0.0
 11
339.410800354605
 21
889.1151222012384
 31
0.0
  0
ARC
  5
34F
330
1B
100
AcDbEntity
  8
4
100
AcDbCircle
 10
301.4122418926775
 20
856.6172829682148
 30
0.0
 40
50.0
100
AcDbArc
 50
319.4616562984869
 51
40.53834370151315
  0
CIRCLE
  5
350
330
1B
100
AcDbEntity
  8
4
100
AcDbCircle
 10
419.410800354605
 20
820.9969561555492
 30
0.0
 40
25.0
  0
ARC
  5
351
330
1B
100
AcDbEntity
  8
4
100
AcDbCircle
 10
519.410800354605
 20
1559.996956155549
 30
0.0
 40
700.0
100
AcDbArc
 50
255.7812787117403
 51
284.2187212882597
  0
LINE
  5
352
330
1B
100
AcDbEntity
  8
4
100
AcDbLine
 10
299.410800354605
 20
958.465784430944
 30
0.0
 11
299.4108003546046
 21
866.9969561555492
 31
0.0
  0
LINE
  5
353
330
1B
100
AcDbEntity
  8
4
100
AcDbLine
 10
333.410800354605
 20
933.3887040038421
 30
0.0
 11
333.410800354605
 21
889.1151222012388
 31
0.0
  0
LINE
  5
354
330
1B
100
AcDbEntity
  8
4
100
AcDbLine
 10
333.410800354605
 20
824.2414331384596
 30
0.0
 11
333.410800354605
 21
771.9969561555492
 31
0.0
  0
LINE
  5
355
330
1B
100
AcDbEntity
  8
4
100
AcDbLine
 10
326.410800354605
 20
941.9969561555492
 30
0.0
 11
326.410800354605
 21
771.9969561555492
 31
0.0
  0
LINE
  5
356
330
1B
100
AcDbEntity
  8
L-CENTER
 48
8.0
100
AcDbLine
 10
733.3920180166682
 20
856.9969561555492
 30
0.0
 11
193.4042432839676
 21
856.9969561555492
 31
0.0
  0
LINE
  5
357
330
1B
100
AcDbEntity
  8
4
100
AcDbLine
 10
312.510800354605
 20
771.9969561555492
 30
0.0
 11
726.3108003546051
 21
771.9969561555492
 31
0.0
  0
LINE
  5
358
330
1B
100
AcDbEntity
  8
L-CENTER
 48
8.0
100
AcDbLine
 10
729.7693283297369
 20
1056.996956155549
 30
0.0
 11
309.0522723794732
 21
1056.996956155549
 31
0.0
  0
LINE
  5
359
330
1B
100
AcDbEntity
  8
L-CENTER
 48
8.0
100
AcDbLine
 10
519.410800354605
 20
1272.490730492063
 30
0.0
 11
519.410800354605
 21
763.8369419513451
 31
0.0
  0
ARC
  5
35A
330
1B
100
AcDbEntity
  8
4
100
AcDbCircle
 10
1022.410800354605
 20
1056.996956155549
 30
0.0
 40
700.0
100
AcDbArc
 50
165.7812787117402
 51
194.2187212882597
  0
LINE
  5
361
330
1B
100
AcDbEntity
  8
4
100
AcDbLine
 10
1241.979334302163
 20
555.1416625402287
 30
0.0
 11
1216.979334302163
 21
555.1416625402287
 31
0.0
  0
LINE
  5
362
330
1B
100
AcDbEntity
  8
4
100
AcDbLine
 10
1240.979334302163
 20
556.1416625402287
 30
0.0
 11
1241.979334302163
 21
555.1416625402287
 31
0.0
  0
LINE
  5
367
330
1B
100
AcDbEntity
  8
4
100
AcDbLine
 10
1173.979334302163
 20
555.1416625402287
 30
0.0
 11
1174.979334302163
 21
556.1416625402287
 31
0.0
  0
LINE
  5
368
330
1B
100
AcDbEntity
  8
4
100
AcDbLine
 10
1173.979334302163
 20
555.1416625402287
 30
0.0
 11
1198.979334302163
 21
555.1416625402287
 31
0.0
  0
LINE
  5
369
330
1B
100
AcDbEntity
  8
4
100
AcDbLine
 10
1240.979334302163
 20
556.1416625402287
 30
0.0
 11
1174.979334302163
 21
556.1416625402287
 31
0.0
  0
LINE
  5
371
330
1B
100
AcDbEntity
  8
4
100
AcDbLine
 10
1337.979578302163
 20
408.6416625402287
 30
0.0
 11
1323.556238302164
 21
407.1416625402287
 31
0.0
  0
CIRCLE
  5
373
330
1B
100
AcDbEntity
  8
4
100
AcDbCircle
 10
1337.979578302163
 20
426.1416625402287
 30
0.0
 40
17.5
  0
LINE
  5
374
330
1B
100
AcDbEntity
  8
4
100
AcDbLine
 10
1352.403162302164
 20
407.1416625402287
 30
0.0
 11
1323.556238302164
 21
407.1416625402287
 31
0.0
  0
LINE
  5
375
330
1B
100
AcDbEntity
  8
4
100
AcDbLine
 10
1352.403162302164
 20
407.1416625402287
 30
0.0
 11
1337.979578302163
 21
408.6416625402287
 31
0.0
  0
LINE
  5
376
330
1B
100
AcDbEntity
  8
L-CENTER
 48
8.0
100
AcDbLine
 10
1297.355554302164
 20
426.1416625402287
 30
0.0
 11
1378.603602302163
 21
426.1416625402287
 31
0.0
  0
LINE
  5
377
330
1B
100
AcDbEntity
  8
4
100
AcDbLine
 10
1401.979578302163
 20
363.1416625402287
 30
0.0
 11
1401.979578302163
 21
365.1416625402287
 31
0.0
  0
ARC
  5
378
330
1B
100
AcDbEntity
  8
4
100
AcDbCircle
 10
1400.979578302163
 20
378.5415665402286
 30
0.0
 40
1.0
100
AcDbArc
 50
0.0
 51
90.0
  0
LINE
  5
379
330
1B
100
AcDbEntity
  8
4
100
AcDbLine
 10
1401.979578302163
 20
378.5415665402286
 30
0.0
 11
1401.979578302163
 21
365.1416625402287
 31
0.0
  0
LINE
  5
37A
330
1B
100
AcDbEntity
  8
4
100
AcDbLine
 10
1357.979578302163
 20
388.4741825402286
 30
0.0
 11
1357.979578302163
 21
396.1416625402287
 31
0.0
  0
LINE
  5
37B
330
1B
100
AcDbEntity
  8
4
100
AcDbLine
 10
1317.979578302163
 20
396.0374905402284
 30
0.0
 11
1317.979578302163
 21
396.1416625402287
 31
0.0
  0
LINE
  5
37C
330
1B
100
AcDbEntity
  8
4
100
AcDbLine
 10
1357.979578302163
 20
396.1416625402287
 30
0.0
 11
1317.979578302163
 21
396.1416625402287
 31
0.0
  0
LINE
  5
37D
330
1B
100
AcDbEntity
  8
4
100
AcDbLine
 10
1314.414526302163
 20
396.1416625402287
 30
0.0
 11
1352.979578302163
 21
396.1416625402287
 31
0.0
  0
LINE
  5
37E
330
1B
100
AcDbEntity
  8
L-CENTER
 48
8.0
100
AcDbLine
 10
1337.979578302163
 20
466.7656865402284
 30
0.0
 11
1337.979578302163
 21
368.4158345402286
 31
0.0
  0
ARC
  5
37F
330
1B
100
AcDbEntity
  8
4
100
AcDbCircle
 10
1337.979578302163
 20
426.1416625402287
 30
0.0
 40
29.99994
100
AcDbArc
 50
299.5510209999997
 51
240.4496160000006
  0
LINE
  5
380
330
1B
100
AcDbEntity
  8
4
100
AcDbLine
 10
1322.979822302164
 20
396.1416625402287
 30
0.0
 11
1323.556238302164
 21
407.1416625402287
 31
0.0
  0
LINE
  5
381
330
1B
100
AcDbEntity
  8
4
100
AcDbLine
 10
1352.979578302163
 20
396.1416625402287
 30
0.0
 11
1352.403162302164
 21
407.1416625402287
 31
0.0
  0
LINE
  5
383
330
1B
100
AcDbEntity
  8
4
100
AcDbLine
 10
1416.479578302163
 20
279.1416625402287
 30
0.0
 11
1416.479578302163
 21
243.1416625402287
 31
0.0
  0
LINE
  5
389
330
1B
100
AcDbEntity
  8
4
100
AcDbLine
 10
1411.479578302163
 20
279.1416625402287
 30
0.0
 11
1411.479578302163
 21
243.1416625402287
 31
0.0
  0
LINE
  5
38A
330
1B
100
AcDbEntity
  8
4
100
AcDbLine
 10
1409.479578302163
 20
279.1416625402287
 30
0.0
 11
1409.479578302163
 21
243.1416625402287
 31
0.0
  0
LINE
  5
38B
330
1B
100
AcDbEntity
  8
4
100
AcDbLine
 10
1407.979578302163
 20
278.1416625402287
 30
0.0
 11
1407.979578302163
 21
244.1416625402287
 31
0.0
  0
LINE
  5
38C
330
1B
100
AcDbEntity
  8
4
100
AcDbLine
 10
1407.979578302163
 20
241.1416625402287
 30
0.0
 11
1407.979578302163
 21
281.1416625402287
 31
0.0
  0
LINE
  5
38D
330
1B
100
AcDbEntity
  8
4
100
AcDbLine
 10
1407.979578302163
 20
244.1416625402287
 30
0.0
 11
1409.479578302163
 21
244.1416625402287
 31
0.0
  0
LINE
  5
38E
330
1B
100
AcDbEntity
  8
4
100
AcDbLine
 10
1405.979578302163
 20
241.1416625402287
 30
0.0
 11
1407.979578302163
 21
241.1416625402287
 31
0.0
  0
ARC
  5
38F
330
1B
100
AcDbEntity
  8
4
100
AcDbCircle
 10
1408.979578302163
 20
258.1416625402287
 30
0.0
 40
3.000032
100
AcDbArc
 50
137.6253050000031
 51
180.0
  0
LINE
  5
390
330
1B
100
AcDbEntity
  8
4
100
AcDbLine
 10
1404.979578302163
 20
281.1416625402287
 30
0.0
 11
1407.979578302163
 21
281.1416625402287
 31
0.0
  0
LINE
  5
391
330
1B
100
AcDbEntity
  8
4
100
AcDbLine
 10
1409.479578302163
 20
278.1416625402287
 30
0.0
 11
1407.979578302163
 21
278.1416625402287
 31
0.0
  0
LINE
  5
392
330
1B
100
AcDbEntity
  8
L-CENTER
 48
8.0
100
AcDbLine
 10
1410.236074302163
 20
187.1416625402287
 30
0.0
 11
1398.919886302163
 21
187.1416625402287
 31
0.0
  0
LINE
  5
393
330
1B
100
AcDbEntity
  8
4
100
AcDbLine
 10
1405.979578302163
 20
193.7173465402286
 30
0.0
 11
1408.479482302163
 21
193.8796985402284
 31
0.0
  0
ARC
  5
394
330
1B
100
AcDbEntity
  8
4
100
AcDbCircle
 10
1352.979578302163
 20
234.2881465402286
 30
0.0
 40
14.999944
100
AcDbArc
 50
30.57368000000019
 51
149.4275959999996
  0
LINE
  5
395
330
1B
100
AcDbEntity
  8
4
100
AcDbLine
 10
1404.979578302163
 20
142.1416625402287
 30
0.0
 11
1404.979578302163
 21
172.1416625402287
 31
0.0
  0
LINE
  5
396
330
1B
100
AcDbEntity
  8
4
100
AcDbLine
 10
1404.979578302163
 20
142.1416625402287
 30
0.0
 11
1402.979578302163
 21
142.1416625402287
 31
0.0
  0
ARC
  5
397
330
1B
100
AcDbEntity
  8
4
100
AcDbCircle
 10
1399.979578302163
 20
154.1416625402287
 30
0.0
 40
3.0
100
AcDbArc
 50
0.0
 51
90.0
  0
LINE
  5
398
330
1B
100
AcDbEntity
  8
4
100
AcDbLine
 10
1404.979578302163
 20
172.1416625402287
 30
0.0
 11
1405.979578302163
 21
172.1416625402287
 31
0.0
  0
LINE
  5
399
330
1B
100
AcDbEntity
  8
4
100
AcDbLine
 10
1405.979578302163
 20
180.5659785402288
 30
0.0
 11
1408.479482302163
 21
180.4036265402285
 31
0.0
  0
LINE
  5
39A
330
1B
100
AcDbEntity
  8
L-CENTER
 48
8.0
100
AcDbLine
 10
1352.979578302163
 20
110.1416625402287
 30
0.0
 11
1352.979578302163
 21
169.1416625402287
 31
0.0
  0
LINE
  5
39B
330
1B
100
AcDbEntity
  8
4
100
AcDbLine
 10
1402.979578302163
 20
154.1416625402287
 30
0.0
 11
1402.979578302163
 21
122.1416625402287
 31
0.0
  0
ARC
  5
39C
330
1B
100
AcDbEntity
  8
4
100
AcDbCircle
 10
1295.979578302163
 20
154.1416625402287
 30
0.0
 40
3.0
100
AcDbArc
 50
90.0
 51
180.0
  0
ARC
  5
39D
330
1B
100
AcDbEntity
  8
4
100
AcDbCircle
 10
1305.979578302163
 20
154.1416625402287
 30
0.0
 40
3.0
100
AcDbArc
 50
90.0
 51
180.0
  0
LINE
  5
39E
330
1B
100
AcDbEntity
  8
4
100
AcDbLine
 10
1292.979578302163
 20
154.1416625402287
 30
0.0
 11
1292.979578302163
 21
122.1416625402287
 31
0.0
  0
LINE
  5
39F
330
1B
100
AcDbEntity
  8
4
100
AcDbLine
 10
1402.979578302163
 20
122.1416625402287
 30
0.0
 11
1292.979578302163
 21
122.1416625402287
 31
0.0
  0
LINE
  5
3A0
330
1B
100
AcDbEntity
  8
4
100
AcDbLine
 10
1295.979578302163
 20
157.1416625402287
 30
0.0
 11
1399.979578302163
 21
157.1416625402287
 31
0.0
  0
LINE
  5
3A1
330
1B
100
AcDbEntity
  8
4
100
AcDbLine
 10
1405.979578302163
 20
258.1416625402287
 30
0.0
 11
1405.979578302163
 21
172.1416625402287
 31
0.0
  0
ARC
  5
3A2
330
1B
100
AcDbEntity
  8
4
100
AcDbCircle
 10
1193.699550302163
 20
140.1878065402286
 30
0.0
 40
199.999908
100
AcDbArc
 50
4.862760000000098
 51
30.57395799999997
  0
LINE
  5
3A3
330
1B
100
AcDbEntity
  8
4
100
AcDbLine
 10
1302.979578302163
 20
184.8928825402284
 30
0.0
 11
1302.979578302163
 21
122.1416625402287
 31
0.0
  0
LINE
  5
3A4
330
1B
100
AcDbEntity
  8
4
100
AcDbLine
 10
1312.979578302163
 20
185.8413705402284
 30
0.0
 11
1312.979578302163
 21
157.1416625402287
 31
0.0
  0
ARC
  5
3A5
330
1B
100
AcDbEntity
  8
4
100
AcDbCircle
 10
1512.259610302164
 20
140.1878065402286
 30
0.0
 40
199.999956
100
AcDbArc
 50
149.426858
 51
175.1378030000001
  0
LINE
  5
3A6
330
1B
100
AcDbEntity
  8
4
100
AcDbLine
 10
1408.479482302163
 20
193.8796985402284
 30
0.0
 11
1408.479482302163
 21
180.4036265402285
 31
0.0
  0
LINE
  5
3A7
330
1B
100
AcDbEntity
  8
L-CENTER
 48
8.0
100
AcDbLine
 10
1420.311794302164
 20
261.1416625402287
 30
0.0
 11
1385.641198302163
 21
261.1416625402287
 31
0.0
  0
LINE
  5
3A8
330
1B
100
AcDbEntity
  8
4
100
AcDbLine
 10
1411.479578302163
 20
270.1416625402287
 30
0.0
 11
1416.479578302163
 21
270.1416625402287
 31
0.0
  0
LINE
  5
3A9
330
1B
100
AcDbEntity
  8
4
100
AcDbLine
 10
1409.479578302163
 20
243.1416625402287
 30
0.0
 11
1416.479578302163
 21
243.1416625402287
 31
0.0
  0
LINE
  5
3AA
330
1B
100
AcDbEntity
  8
4
100
AcDbLine
 10
1411.479578302163
 20
252.1416625402287
 30
0.0
 11
1416.479578302163
 21
252.1416625402287
 31
0.0
  0
LINE
  5
3AB
330
1B
100
AcDbEntity
  8
4
100
AcDbLine
 10
1409.479578302163
 20
279.1416625402287
 30
0.0
 11
1416.479578302163
 21
279.1416625402287
 31
0.0
  0
LINE
  5
3AD
330
1B
100
AcDbEntity
  8
4
100
AcDbLine
 10
1404.979578302163
 20
281.1416625402287
 30
0.0
 11
1404.979578302163
 21
363.1416625402287
 31
0.0
  0
LINE
  5
3B0
330
1B
100
AcDbEntity
  8
4
100
AcDbLine
 10
1257.979334302163
 20
427.1416625402287
 30
0.0
 11
1257.979334302163
 21
426.1416625402287
 31
0.0
  0
LINE
  5
3B1
330
1B
100
AcDbEntity
  8
4
100
AcDbLine
 10
1272.979578302163
 20
426.1416625402287
 30
0.0
 11
1277.979578302163
 21
408.1416625402287
 31
0.0
  0
LINE
  5
3B2
330
1B
100
AcDbEntity
  8
4
100
AcDbLine
 10
1242.979334302163
 20
427.1416625402287
 30
0.0
 11
1242.979334302163
 21
436.1416625402287
 31
0.0
  0
ARC
  5
3B3
330
1B
100
AcDbEntity
  8
4
100
AcDbCircle
 10
1242.979334302163
 20
437.1416625402287
 30
0.0
 40
1.0
100
AcDbArc
 50
180.0
 51
270.0
  0
LINE
  5
3B4
330
1B
100
AcDbEntity
  8
4
100
AcDbLine
 10
1172.979334302163
 20
427.1416625402287
 30
0.0
 11
1172.979334302163
 21
436.1416625402287
 31
0.0
  0
LINE
  5
3B5
330
1B
100
AcDbEntity
  8
4
100
AcDbLine
 10
1157.979334302163
 20
427.1416625402287
 30
0.0
 11
1157.979334302163
 21
426.1416625402287
 31
0.0
  0
ARC
  5
3B6
330
1B
100
AcDbEntity
  8
4
100
AcDbCircle
 10
1172.979334302163
 20
437.1416625402287
 30
0.0
 40
1.0
100
AcDbArc
 50
270.0
 51
0.0
  0
LINE
  5
3B7
330
1B
100
AcDbEntity
  8
4
100
AcDbLine
 10
1157.979334302163
 20
427.1416625402287
 30
0.0
 11
1257.979334302163
 21
427.1416625402287
 31
0.0
  0
LINE
  5
3B8
330
1B
100
AcDbEntity
  8
4
100
AcDbLine
 10
1242.979334302163
 20
436.1416625402287
 30
0.0
 11
1172.979334302163
 21
436.1416625402287
 31
0.0
  0
ARC
  5
3B9
330
1B
100
AcDbEntity
  8
4
100
AcDbCircle
 10
1207.979334302163
 20
455.1416625402287
 30
0.0
 40
9.0
100
AcDbArc
 50
180.0
 51
0.0
  0
LINE
  5
3BA
330
1B
100
AcDbEntity
  8
4
100
AcDbLine
 10
1157.979578302163
 20
408.1416625402287
 30
0.0
 11
1168.979578302163
 21
379.5415665402286
 31
0.0
  0
LINE
  5
3BB
330
1B
100
AcDbEntity
  8
4
100
AcDbLine
 10
1257.979578302163
 20
408.1416625402287
 30
0.0
 11
1246.979578302163
 21
379.5415665402286
 31
0.0
  0
LINE
  5
3BC
330
1B
100
AcDbEntity
  8
4
100
AcDbLine
 10
1142.979578302163
 20
426.1416625402287
 30
0.0
 11
1137.979578302163
 21
408.1416625402287
 31
0.0
  0
LINE
  5
3BD
330
1B
100
AcDbEntity
  8
4
100
AcDbLine
 10
1063.555994302163
 20
407.1416625402287
 30
0.0
 11
1077.979578302163
 21
408.6416625402287
 31
0.0
  0
CIRCLE
  5
3BE
330
1B
100
AcDbEntity
  8
4
100
AcDbCircle
 10
1077.979578302163
 20
426.1416625402287
 30
0.0
 40
17.5
  0
LINE
  5
3BF
330
1B
100
AcDbEntity
  8
4
100
AcDbLine
 10
1063.555994302163
 20
407.1416625402287
 30
0.0
 11
1092.402918302163
 21
407.1416625402287
 31
0.0
  0
LINE
  5
3C0
330
1B
100
AcDbEntity
  8
4
100
AcDbLine
 10
1077.979578302163
 20
408.6416625402287
 30
0.0
 11
1092.402918302163
 21
407.1416625402287
 31
0.0
  0
LINE
  5
3C1
330
1B
100
AcDbEntity
  8
L-CENTER
 48
8.0
100
AcDbLine
 10
1118.603602302163
 20
426.1416625402287
 30
0.0
 11
1037.355554302164
 21
426.1416625402287
 31
0.0
  0
LINE
  5
3C2
330
1B
100
AcDbEntity
  8
4
100
AcDbLine
 10
1097.979578302163
 20
396.0374585402285
 30
0.0
 11
1097.979578302163
 21
396.1416625402287
 31
0.0
  0
LINE
  5
3C3
330
1B
100
AcDbEntity
  8
4
100
AcDbLine
 10
1057.979578302163
 20
388.4746705402288
 30
0.0
 11
1057.979578302163
 21
396.1416625402287
 31
0.0
  0
LINE
  5
3C4
330
1B
100
AcDbEntity
  8
4
100
AcDbLine
 10
1061.785242302163
 20
327.9263305402285
 30
0.0
 11
1068.725430302163
 21
334.8667625402288
 31
0.0
  0
LINE
  5
3C5
330
1B
100
AcDbEntity
  8
4
100
AcDbLine
 10
1061.785242302163
 20
327.9263305402285
 30
0.0
 11
1052.304774302164
 21
330.4663705402288
 31
0.0
  0
LINE
  5
3C6
330
1B
100
AcDbEntity
  8
4
100
AcDbLine
 10
1068.725430302163
 20
334.8667625402288
 30
0.0
 11
1066.184902302163
 21
344.3469865402287
 31
0.0
  0
LINE
  5
3C7
330
1B
100
AcDbEntity
  8
4
100
AcDbLine
 10
1052.304774302164
 20
330.4663705402288
 30
0.0
 11
1049.764246302163
 21
339.9470825402284
 31
0.0
  0
LINE
  5
3C8
330
1B
100
AcDbEntity
  8
L-CENTER
 48
8.0
100
AcDbLine
 10
1070.212088742481
 20
348.3741729805457
 30
0.0
 11
1048.277551133896
 21
326.439635371961
 31
0.0
  0
CIRCLE
  5
3C9
330
1B
100
AcDbEntity
  8
4
100
AcDbCircle
 10
1059.244714302163
 20
337.4067985402287
 30
0.0
 40
8.5
  0
LINE
  5
3CA
330
1B
100
AcDbEntity
  8
4
100
AcDbLine
 10
1049.764246302163
 20
339.9470825402284
 30
0.0
 11
1056.704434302164
 21
346.8875145402287
 31
0.0
  0
LINE
  5
3CB
330
1B
100
AcDbEntity
  8
4
100
AcDbLine
 10
1066.184902302163
 20
344.3469865402287
 30
0.0
 11
1056.704434302164
 21
346.8875145402287
 31
0.0
  0
LINE
  5
3CC
330
1B
100
AcDbEntity
  8
4
100
AcDbLine
 10
1057.979578302163
 20
396.1416625402287
 30
0.0
 11
1101.544742302164
 21
396.1416625402287
 31
0.0
  0
LINE
  5
3CD
330
1B
100
AcDbEntity
  8
4
100
AcDbLine
 10
1092.979334302163
 20
396.1416625402287
 30
0.0
 11
1062.979578302163
 21
396.1416625402287
 31
0.0
  0
LINE
  5
3CE
330
1B
100
AcDbEntity
  8
L-CENTER
 48
8.0
100
AcDbLine
 10
1077.979578302163
 20
466.7656865402284
 30
0.0
 11
1077.979578302163
 21
368.4158345402286
 31
0.0
  0
ARC
  5
3CF
330
1B
100
AcDbEntity
  8
4
100
AcDbCircle
 10
1077.979578302163
 20
426.1416625402287
 30
0.0
 40
30.000044
100
AcDbArc
 50
299.5514259999995
 51
240.4502509999994
  0
LINE
  5
3D0
330
1B
100
AcDbEntity
  8
4
100
AcDbLine
 10
1058.445858582051
 20
381.946823231308
 30
0.0
 11
1137.979578302163
 21
408.1416625402287
 31
0.0
  0
LINE
  5
3D1
330
1B
100
AcDbEntity
  8
4
100
AcDbLine
 10
1062.979578302163
 20
396.1416625402287
 30
0.0
 11
1063.555994302163
 21
407.1416625402287
 31
0.0
  0
LINE
  5
3D2
330
1B
100
AcDbEntity
  8
4
100
AcDbLine
 10
1092.979334302163
 20
396.1416625402287
 30
0.0
 11
1092.402918302163
 21
407.1416625402287
 31
0.0
  0
LINE
  5
3D3
330
1B
100
AcDbEntity
  8
4
100
AcDbLine
 10
1142.979578302163
 20
426.1416625402287
 30
0.0
 11
1272.979578302163
 21
426.1416625402287
 31
0.0
  0
LINE
  5
3D4
330
1B
100
AcDbEntity
  8
4
100
AcDbLine
 10
1137.979578302163
 20
408.1416625402287
 30
0.0
 11
1277.979578302163
 21
408.1416625402287
 31
0.0
  0
LINE
  5
3D5
330
1B
100
AcDbEntity
  8
4
100
AcDbLine
 10
1166.855798302164
 20
362.1416625402287
 30
0.0
 11
1046.045254302163
 21
362.1416625402287
 31
0.0
  0
LINE
  5
3D6
330
1B
100
AcDbEntity
  8
4
100
AcDbLine
 10
1268.979578302163
 20
151.1416625402287
 30
0.0
 11
1263.979578302163
 21
146.1416625402287
 31
0.0
  0
LINE
  5
3D7
330
1B
100
AcDbEntity
  8
4
100
AcDbLine
 10
1248.979578302163
 20
151.1416625402287
 30
0.0
 11
1263.979578302163
 21
166.1416625402287
 31
0.0
  0
LINE
  5
3D8
330
1B
100
AcDbEntity
  8
4
100
AcDbLine
 10
1166.979578302163
 20
151.1416625402287
 30
0.0
 11
1151.979578302163
 21
166.1416625402287
 31
0.0
  0
LINE
  5
3D9
330
1B
100
AcDbEntity
  8
4
100
AcDbLine
 10
1263.979578302163
 20
146.1416625402287
 30
0.0
 11
1151.979578302163
 21
146.1416625402287
 31
0.0
  0
LINE
  5
3DA
330
1B
100
AcDbEntity
  8
4
100
AcDbLine
 10
1068.725186302163
 20
237.4165625402286
 30
0.0
 11
1061.784998302164
 21
244.3569945402285
 31
0.0
  0
LINE
  5
3DB
330
1B
100
AcDbEntity
  8
4
100
AcDbLine
 10
1061.784998302164
 20
244.3569945402285
 30
0.0
 11
1052.304530302163
 21
241.8167105402288
 31
0.0
  0
LINE
  5
3DC
330
1B
100
AcDbEntity
  8
4
100
AcDbLine
 10
1066.184658302164
 20
227.9360945402284
 30
0.0
 11
1056.704190302163
 21
225.3958145402287
 31
0.0
  0
LINE
  5
3DD
330
1B
100
AcDbEntity
  8
4
100
AcDbLine
 10
1046.095058302163
 20
210.1665625402286
 30
0.0
 11
1077.979578302163
 21
210.1665625402286
 31
0.0
  0
LINE
  5
3DE
330
1B
100
AcDbEntity
  8
4
100
AcDbLine
 10
1056.704190302163
 20
225.3958145402287
 30
0.0
 11
1049.764002302163
 21
232.3362425402286
 31
0.0
  0
LINE
  5
3DF
330
1B
100
AcDbEntity
  8
4
100
AcDbLine
 10
1052.304530302163
 20
241.8167105402288
 30
0.0
 11
1049.764002302163
 21
232.3362425402286
 31
0.0
  0
LINE
  5
3E0
330
1B
100
AcDbEntity
  8
L-CENTER
 48
8.0
100
AcDbLine
 10
1070.212088535494
 20
223.9091518929254
 30
0.0
 11
1048.277553059929
 21
245.8436916345299
 31
0.0
  0
CIRCLE
  5
3E1
330
1B
100
AcDbEntity
  8
4
100
AcDbCircle
 10
1059.244714302163
 20
234.8765265402287
 30
0.0
 40
8.5
  0
LINE
  5
3E2
330
1B
100
AcDbEntity
  8
4
100
AcDbLine
 10
1068.725186302163
 20
237.4165625402286
 30
0.0
 11
1066.184658302164
 21
227.9360945402284
 31
0.0
  0
ARC
  5
3E3
330
1B
100
AcDbEntity
  8
4
100
AcDbCircle
 10
1077.979578302163
 20
185.1665625402286
 30
0.0
 40
25.0
100
AcDbArc
 50
0.0
 51
90.0
  0
LINE
  5
3E4
330
1B
100
AcDbEntity
  8
4
100
AcDbLine
 10
1146.979578302163
 20
166.1416625402287
 30
0.0
 11
1122.979578302163
 21
142.1416625402287
 31
0.0
  0
ARC
  5
3E5
330
1B
100
AcDbEntity
  8
4
100
AcDbCircle
 10
1119.979578302163
 20
154.1416625402287
 30
0.0
 40
3.0
100
AcDbArc
 50
0.0
 51
90.0
  0
ARC
  5
3E6
330
1B
100
AcDbEntity
  8
4
100
AcDbCircle
 10
1109.979578302163
 20
154.1416625402287
 30
0.0
 40
3.0
100
AcDbArc
 50
0.0
 51
90.0
  0
LINE
  5
3E7
330
1B
100
AcDbEntity
  8
4
100
AcDbLine
 10
1122.979578302163
 20
154.1416625402287
 30
0.0
 11
1122.979578302163
 21
122.1416625402287
 31
0.0
  0
LINE
  5
3E8
330
1B
100
AcDbEntity
  8
L-CENTER
 48
8.0
100
AcDbLine
 10
1062.979578302163
 20
110.1416625402287
 30
0.0
 11
1062.979578302163
 21
169.1416625402287
 31
0.0
  0
LINE
  5
3E9
330
1B
100
AcDbEntity
  8
4
100
AcDbLine
 10
1112.979578302163
 20
185.4641705402285
 30
0.0
 11
1112.979578302163
 21
122.1416625402287
 31
0.0
  0
LINE
  5
3EA
330
1B
100
AcDbEntity
  8
4
100
AcDbLine
 10
1102.979578302163
 20
157.1416625402287
 30
0.0
 11
1102.979578302163
 21
185.1665625402286
 31
0.0
  0
LINE
  5
3EB
330
1B
100
AcDbEntity
  8
4
100
AcDbLine
 10
1268.979090302163
 20
166.1416625402287
 30
0.0
 11
1146.979578302163
 21
166.1416625402287
 31
0.0
  0
LINE
  5
3EC
330
1B
100
AcDbEntity
  8
4
100
AcDbLine
 10
1131.979578302163
 20
151.1416625402287
 30
0.0
 11
1166.979578302163
 21
151.1416625402287
 31
0.0
  0
LINE
  5
3ED
330
1B
100
AcDbEntity
  8
4
100
AcDbLine
 10
1146.979578302163
 20
151.1416625402287
 30
0.0
 11
1151.979578302163
 21
146.1416625402287
 31
0.0
  0
LINE
  5
3EE
330
1B
100
AcDbEntity
  8
4
100
AcDbLine
 10
1268.979090302163
 20
166.1416625402287
 30
0.0
 11
1292.979578302163
 21
142.1411745402286
 31
0.0
  0
LINE
  5
3EF
330
1B
100
AcDbEntity
  8
4
100
AcDbLine
 10
1283.979090302163
 20
151.1416625402287
 30
0.0
 11
1248.979578302163
 21
151.1416625402287
 31
0.0
  0
LINE
  5
3F0
330
1B
100
AcDbEntity
  8
4
100
AcDbLine
 10
1039.348230302164
 20
365.1416625402287
 30
0.0
 11
1401.979578302163
 21
365.1416625402287
 31
0.0
  0
LINE
  5
3F1
330
1B
100
AcDbEntity
  8
4
100
AcDbLine
 10
1043.979578302163
 20
363.1416625402287
 30
0.0
 11
1404.979578302163
 21
363.1416625402287
 31
0.0
  0
LINE
  5
3F2
330
1B
100
AcDbEntity
  8
4
100
AcDbLine
 10
1357.513298022275
 20
381.9469071746184
 30
0.0
 11
1277.979578302163
 21
408.1416625402287
 31
0.0
  0
LINE
  5
3F4
330
1B
100
AcDbEntity
  8
L-CENTER
 48
8.0
100
AcDbLine
 10
1207.979578302163
 20
7.274558931430192
 30
0.0
 11
1207.979578302163
 21
565.0087661490272
 31
0.0
  0
LINE
  5
3F5
330
1B
100
AcDbEntity
  8
4
100
AcDbLine
 10
1173.979334302163
 20
437.1416625402287
 30
0.0
 11
1173.979334302163
 21
555.1416625402287
 31
0.0
  0
LINE
  5
3F6
330
1B
100
AcDbEntity
  8
4
100
AcDbLine
 10
1198.979334302163
 20
455.1416625402287
 30
0.0
 11
1198.979334302163
 21
556.1416625402287
 31
0.0
  0
LINE
  5
3F7
330
1B
100
AcDbEntity
  8
4
100
AcDbLine
 10
1216.979334302163
 20
455.1416625402287
 30
0.0
 11
1216.979334302163
 21
556.1416625402287
 31
0.0
  0
LINE
  5
3F8
330
1B
100
AcDbEntity
  8
4
100
AcDbLine
 10
1241.979334302163
 20
437.1416625402287
 30
0.0
 11
1241.979334302163
 21
555.1416625402287
 31
0.0
  0
LINE
  5
407
330
1B
100
AcDbEntity
  8
4
100
AcDbLine
 10
553.4103123546049
 20
555.1419065402285
 30
0.0
 11
552.4103123546049
 21
556.1419065402285
 31
0.0
  0
ARC
  5
409
330
1B
100
AcDbEntity
  8
4
100
AcDbCircle
 10
1014.979578302163
 20
378.5415665402286
 30
0.0
 40
1.0
100
AcDbArc
 50
90.0
 51
180.0
  0
LINE
  5
40A
330
1B
100
AcDbEntity
  8
4
100
AcDbLine
 10
1013.979578302163
 20
370.9297505402285
 30
0.0
 11
1013.979578302163
 21
378.5415665402286
 31
0.0
  0
LINE
  5
411
330
1B
100
AcDbEntity
  8
4
100
AcDbLine
 10
966.1892943021633
 20
339.9414665402285
 30
0.0
 11
963.6487703021633
 21
330.4609985402287
 31
0.0
  0
LINE
  5
412
330
1B
100
AcDbEntity
  8
4
100
AcDbLine
 10
963.6487703021633
 20
330.4609985402287
 30
0.0
 11
954.1682983021635
 21
327.9207145402286
 31
0.0
  0
LINE
  5
413
330
1B
100
AcDbEntity
  8
4
100
AcDbLine
 10
966.1892943021633
 20
339.9414665402285
 30
0.0
 11
959.2491103021632
 21
346.8818985402288
 31
0.0
  0
LINE
  5
414
330
1B
100
AcDbEntity
  8
4
100
AcDbLine
 10
946.9795783021634
 20
358.4067985402287
 30
0.0
 11
946.9795783021634
 21
365.1416625402287
 31
0.0
  0
ARC
  5
415
330
1B
100
AcDbEntity
  8
4
100
AcDbCircle
 10
932.2896383021637
 20
351.3206185402285
 30
0.0
 40
5.000032
100
AcDbArc
 50
98.79679200000561
 51
172.4329050000003
  0
LINE
  5
416
330
1B
100
AcDbEntity
  8
4
100
AcDbLine
 10
949.7686423021635
 20
344.3416145402286
 30
0.0
 11
947.2281143021635
 21
334.8611465402284
 31
0.0
  0
LINE
  5
417
330
1B
100
AcDbEntity
  8
4
100
AcDbLine
 10
954.1682983021635
 20
327.9207145402286
 30
0.0
 11
947.2281143021635
 21
334.8611465402284
 31
0.0
  0
LINE
  5
418
330
1B
100
AcDbEntity
  8
L-CENTER
 48
8.0
100
AcDbLine
 10
945.7358379450618
 20
348.3629395234359
 30
0.0
 11
967.6817263021633
 21
326.4397585402287
 31
0.0
  0
CIRCLE
  5
419
330
1B
100
AcDbEntity
  8
4
100
AcDbCircle
 10
956.7088263021635
 20
337.4014305402286
 30
0.0
 40
8.5
  0
ARC
  5
41A
330
1B
100
AcDbEntity
  8
4
100
AcDbCircle
 10
1007.979578302163
 20
-137.8583374597713
 30
0.0
 40
500.0000440000001
100
AcDbArc
 50
94.73870800000003
 51
98.79572599999999
  0
LINE
  5
41B
330
1B
100
AcDbEntity
  8
4
100
AcDbLine
 10
959.2491103021632
 20
346.8818985402288
 30
0.0
 11
949.7686423021635
 21
344.3416145402286
 31
0.0
  0
LINE
  5
41C
330
1B
100
AcDbEntity
  8
4
100
AcDbLine
 10
976.6109263021633
 20
365.1416625402287
 30
0.0
 11
946.9795783021634
 21
365.1416625402287
 31
0.0
  0
LINE
  5
420
330
1B
100
AcDbEntity
  8
4
100
AcDbLine
 10
963.6490143021636
 20
241.8220825402284
 30
0.0
 11
954.1685423021634
 21
244.3626105402284
 31
0.0
  0
ARC
  5
421
330
1B
100
AcDbEntity
  8
4
100
AcDbCircle
 10
997.9795783021634
 20
195.2388305402285
 30
0.0
 40
14.999956
100
AcDbArc
 50
0.0
 51
23.51830999999935
  0
LINE
  5
422
330
1B
100
AcDbEntity
  8
4
100
AcDbLine
 10
959.2493543021635
 20
225.4014265402286
 30
0.0
 11
966.1895383021636
 21
232.3418585402285
 31
0.0
  0
LINE
  5
423
330
1B
100
AcDbEntity
  8
4
100
AcDbLine
 10
966.1895383021636
 20
232.3418585402285
 30
0.0
 11
963.6490143021636
 21
241.8220825402284
 31
0.0
  0
ARC
  5
424
330
1B
100
AcDbEntity
  8
4
100
AcDbCircle
 10
932.2896383021637
 20
220.9627065402285
 30
0.0
 40
5.000032
100
AcDbArc
 50
187.5670949999997
 51
261.2032079999944
  0
LINE
  5
425
330
1B
100
AcDbEntity
  8
4
100
AcDbLine
 10
949.7688863021633
 20
227.9414665402285
 30
0.0
 11
947.2283583021633
 21
237.4221785402285
 31
0.0
  0
LINE
  5
426
330
1B
100
AcDbEntity
  8
4
100
AcDbLine
 10
947.2283583021633
 20
237.4221785402285
 30
0.0
 11
954.1685423021634
 21
244.3626105402284
 31
0.0
  0
LINE
  5
427
330
1B
100
AcDbEntity
  8
L-CENTER
 48
8.0
100
AcDbLine
 10
945.7358379450618
 20
223.9203855570216
 30
0.0
 11
967.6817263021633
 21
245.8435665402287
 31
0.0
  0
CIRCLE
  5
428
330
1B
100
AcDbEntity
  8
4
100
AcDbCircle
 10
956.7088263021635
 20
234.8818945402288
 30
0.0
 40
8.5
  0
LINE
  5
429
330
1B
100
AcDbEntity
  8
4
100
AcDbLine
 10
959.2493543021635
 20
225.4014265402286
 30
0.0
 11
949.7688863021633
 21
227.9414665402285
 31
0.0
  0
ARC
  5
42A
330
1B
100
AcDbEntity
  8
4
100
AcDbCircle
 10
1007.979578302163
 20
710.1416625402287
 30
0.0
 40
500.000072
100
AcDbArc
 50
261.205125
 51
265.262359
  0
ARC
  5
42B
330
1B
100
AcDbEntity
  8
4
100
AcDbCircle
 10
1015.979578302163
 20
154.1416625402287
 30
0.0
 40
3.0
100
AcDbArc
 50
90.0
 51
180.0
  0
LINE
  5
42C
330
1B
100
AcDbEntity
  8
4
100
AcDbLine
 10
1012.979578302163
 20
195.2388305402285
 30
0.0
 11
1012.979578302163
 21
122.1416625402287
 31
0.0
  0
ARC
  5
430
330
1B
100
AcDbEntity
  8
4
100
AcDbCircle
 10
1422.979578302163
 20
286.1416625402287
 30
0.0
 40
499.99996
100
AcDbArc
 50
172.434238
 51
187.566724
  0
LINE
  5
431
330
1B
100
AcDbEntity
  8
L-CENTER
 48
8.0
100
AcDbLine
 10
1007.979578302163
 20
191.3560185402287
 30
0.0
 11
1007.979578302163
 21
380.9273065402288
 31
0.0
  0
LINE
  5
437
330
1B
100
AcDbEntity
  8
4
100
AcDbLine
 10
725.3107043546054
 20
371.1416625402287
 30
0.0
 11
712.410800354605
 21
371.1416625402287
 31
0.0
  0
ARC
  5
438
330
1B
100
AcDbEntity
  8
4
100
AcDbCircle
 10
712.410800354605
 20
378.5415665402286
 30
0.0
 40
1.0
100
AcDbArc
 50
0.0
 51
90.0
  0
LINE
  5
439
330
1B
100
AcDbEntity
  8
4
100
AcDbLine
 10
713.410800354605
 20
371.1416625402287
 30
0.0
 11
713.410800354605
 21
378.5415665402286
 31
0.0
  0
ARC
  5
43A
330
1B
100
AcDbEntity
  8
4
100
AcDbCircle
 10
725.3107043546054
 20
370.1416625402287
 30
0.0
 40
1.0
100
AcDbArc
 50
0.0
 51
90.0
  0
LINE
  5
43B
330
1B
100
AcDbEntity
  8
4
100
AcDbLine
 10
699.4108003546055
 20
371.1416625402286
 30
0.0
 11
712.410800354605
 21
371.1416625402287
 31
0.0
  0
LINE
  5
43E
330
1B
100
AcDbEntity
  8
4
100
AcDbLine
 10
584.410800354605
 20
426.1416625402287
 30
0.0
 11
589.410800354605
 21
408.1416625402287
 31
0.0
  0
LINE
  5
43F
330
1B
100
AcDbEntity
  8
4
100
AcDbLine
 10
554.4103123546049
 20
427.1419065402285
 30
0.0
 11
554.4103123546049
 21
436.1419065402285
 31
0.0
  0
LINE
  5
440
330
1B
100
AcDbEntity
  8
4
100
AcDbLine
 10
569.4103123546049
 20
427.1419065402285
 30
0.0
 11
569.4103123546049
 21
426.1419065402285
 31
0.0
  0
ARC
  5
441
330
1B
100
AcDbEntity
  8
4
100
AcDbCircle
 10
554.4103123546049
 20
437.1419065402285
 30
0.0
 40
1.0
100
AcDbArc
 50
180.0
 51
270.0
  0
LINE
  5
442
330
1B
100
AcDbEntity
  8
4
100
AcDbLine
 10
553.4103123546049
 20
446.1419065402285
 30
0.0
 11
559.4103123546049
 21
446.1419065402285
 31
0.0
  0
LINE
  5
443
330
1B
100
AcDbEntity
  8
4
100
AcDbLine
 10
569.410800354605
 20
408.1416625402287
 30
0.0
 11
558.410800354605
 21
379.5415665402286
 31
0.0
  0
LINE
  5
444
330
1B
100
AcDbEntity
  8
4
100
AcDbLine
 10
676.2540643546051
 20
379.5415665402286
 30
0.0
 11
589.410800354605
 21
408.1416625402287
 31
0.0
  0
LINE
  5
447
330
1B
100
AcDbEntity
  8
4
100
AcDbLine
 10
725.3107043546054
 20
201.1416625402287
 30
0.0
 11
712.410800354605
 21
201.1416625402287
 31
0.0
  0
ARC
  5
448
330
1B
100
AcDbEntity
  8
4
100
AcDbCircle
 10
725.3107043546054
 20
202.1416625402287
 30
0.0
 40
1.0
100
AcDbArc
 50
270.0
 51
0.0
  0
LINE
  5
449
330
1B
100
AcDbEntity
  8
4
100
AcDbLine
 10
699.4108003546055
 20
201.1416625402287
 30
0.0
 11
712.410800354605
 21
201.1416625402287
 31
0.0
  0
LINE
  5
44B
330
1B
100
AcDbEntity
  8
4
100
AcDbLine
 10
739.410800354605
 20
154.1416625402287
 30
0.0
 11
739.410800354605
 21
122.1416625402287
 31
0.0
  0
ARC
  5
44C
330
1B
100
AcDbEntity
  8
4
100
AcDbCircle
 10
670.8238883546053
 20
153.9627065402285
 30
0.0
 40
4.867612
100
AcDbArc
 50
308.2787669999985
 51
40.77366400000033
  0
ARC
  5
44D
330
1B
100
AcDbEntity
  8
4
100
AcDbCircle
 10
670.8238883546053
 20
153.9627065402285
 30
0.0
 40
4.867612
100
AcDbArc
 50
308.2787669999985
 51
40.77366400000033
  0
LINE
  5
44F
330
1B
100
AcDbEntity
  8
L-CENTER
 48
8.0
100
AcDbLine
 10
704.410800354605
 20
110.1416625402287
 30
0.0
 11
704.410800354605
 21
169.1416625402287
 31
0.0
  0
LINE
  5
450
330
1B
100
AcDbEntity
  8
4
100
AcDbLine
 10
715.410800354605
 20
122.1416625402287
 30
0.0
 11
715.410800354605
 21
157.1416625402287
 31
0.0
  0
LINE
  5
451
330
1B
100
AcDbEntity
  8
4
100
AcDbLine
 10
693.410800354605
 20
122.1416625402287
 30
0.0
 11
693.410800354605
 21
157.1416625402287
 31
0.0
  0
ARC
  5
452
330
1B
100
AcDbEntity
  8
4
100
AcDbCircle
 10
736.410800354605
 20
154.1416625402287
 30
0.0
 40
3.0
100
AcDbArc
 50
0.0
 51
90.0
  0
LINE
  5
453
330
1B
100
AcDbEntity
  8
4
100
AcDbLine
 10
706.410800354605
 20
201.1416625402287
 30
0.0
 11
706.410800354605
 21
157.1416625402287
 31
0.0
  0
LINE
  5
454
330
1B
100
AcDbEntity
  8
4
100
AcDbLine
 10
716.410800354605
 20
170.9981065402287
 30
0.0
 11
716.410800354605
 21
201.1416625402287
 31
0.0
  0
LINE
  5
455
330
1B
100
AcDbEntity
  8
4
100
AcDbLine
 10
706.410800354605
 20
188.3186625402284
 30
0.0
 11
724.410800354605
 21
157.1416625402287
 31
0.0
  0
ARC
  5
456
330
1B
100
AcDbEntity
  8
4
100
AcDbCircle
 10
675.5133403546054
 20
132.3206185402285
 30
0.0
 40
4.867612
100
AcDbArc
 50
128.2787670000044
 51
220.7736559999969
  0
ARC
  5
457
330
1B
100
AcDbEntity
  8
4
100
AcDbCircle
 10
675.5133403546054
 20
132.3206185402285
 30
0.0
 40
4.867612
100
AcDbArc
 50
128.2787670000044
 51
220.7736559999969
  0
LINE
  5
458
330
1B
100
AcDbEntity
  8
4
100
AcDbLine
 10
599.410800354605
 20
147.1411745402286
 30
0.0
 11
580.4103123546049
 21
166.1416625402287
 31
0.0
  0
LINE
  5
459
330
1B
100
AcDbEntity
  8
4
100
AcDbLine
 10
580.410800354605
 20
151.1416625402287
 30
0.0
 11
575.410800354605
 21
146.1416625402287
 31
0.0
  0
ARC
  5
45A
330
1B
100
AcDbEntity
  8
4
100
AcDbCircle
 10
602.410800354605
 20
154.1416625402287
 30
0.0
 40
3.0
100
AcDbArc
 50
90.0
 51
180.0
  0
LINE
  5
45B
330
1B
100
AcDbEntity
  8
4
100
AcDbLine
 10
560.410800354605
 20
151.1416625402287
 30
0.0
 11
575.410800354605
 21
166.1416625402287
 31
0.0
  0
LINE
  5
45C
330
1B
100
AcDbEntity
  8
4
100
AcDbLine
 10
595.4103123546049
 20
151.1416625402287
 30
0.0
 11
560.410800354605
 21
151.1416625402287
 31
0.0
  0
LINE
  5
45D
330
1B
100
AcDbEntity
  8
4
100
AcDbLine
 10
599.410800354605
 20
154.1416625402287
 30
0.0
 11
599.410800354605
 21
122.1416625402287
 31
0.0
  0
LINE
  5
45E
330
1B
100
AcDbEntity
  8
4
100
AcDbLine
 10
654.410800354605
 20
210.1416625402287
 30
0.0
 11
654.410800354605
 21
157.1416625402287
 31
0.0
  0
LINE
  5
45F
330
1B
100
AcDbEntity
  8
4
100
AcDbLine
 10
736.410800354605
 20
157.1416625402287
 30
0.0
 11
602.410800354605
 21
157.1416625402287
 31
0.0
  0
LINE
  5
460
330
1B
100
AcDbEntity
  8
4
100
AcDbLine
 10
599.410800354605
 20
122.1416625402287
 30
0.0
 11
739.410800354605
 21
122.1416625402287
 31
0.0
  0
ARC
  5
461
330
1B
100
AcDbEntity
  8
4
100
AcDbCircle
 10
676.8548923546052
 20
146.3206185402285
 30
0.0
 40
4.867612
100
AcDbArc
 50
128.2787669999986
 51
220.7736559999969
  0
ARC
  5
462
330
1B
100
AcDbEntity
  8
4
100
AcDbCircle
 10
676.8548923546052
 20
146.3206185402285
 30
0.0
 40
4.867612
100
AcDbArc
 50
128.2787669999986
 51
220.7736559999969
  0
ARC
  5
463
330
1B
100
AcDbEntity
  8
4
100
AcDbCircle
 10
668.1407803546051
 20
125.9627065402285
 30
0.0
 40
4.867612
100
AcDbArc
 50
308.2787669999985
 51
40.77366400000033
  0
ARC
  5
464
330
1B
100
AcDbEntity
  8
4
100
AcDbCircle
 10
668.1407803546051
 20
125.9627065402285
 30
0.0
 40
4.867612
100
AcDbArc
 50
308.2787669999985
 51
40.77366400000033
  0
ARC
  5
465
330
1B
100
AcDbEntity
  8
4
100
AcDbCircle
 10
669.482336354605
 20
139.9627065402285
 30
0.0
 40
4.867612
100
AcDbArc
 50
308.2787670000044
 51
40.77366400000033
  0
ARC
  5
466
330
1B
100
AcDbEntity
  8
4
100
AcDbCircle
 10
669.482336354605
 20
139.9627065402285
 30
0.0
 40
4.867612
100
AcDbArc
 50
308.2787670000044
 51
40.77366400000033
  0
LINE
  5
467
330
1B
100
AcDbEntity
  8
4
100
AcDbLine
 10
712.410800354605
 20
371.1416625402287
 30
0.0
 11
712.410800354605
 21
201.1416625402287
 31
0.0
  0
LINE
  5
468
330
1B
100
AcDbEntity
  8
4
100
AcDbLine
 10
712.410800354605
 20
201.1416625402287
 30
0.0
 11
712.410800354605
 21
371.1416625402287
 31
0.0
  0
LINE
  5
469
330
1B
100
AcDbEntity
  8
4
100
AcDbLine
 10
705.410800354605
 20
360.1416625402287
 30
0.0
 11
705.410800354605
 21
212.1416625402287
 31
0.0
  0
LINE
  5
46A
330
1B
100
AcDbEntity
  8
4
100
AcDbLine
 10
726.3107043546054
 20
202.1416625402287
 30
0.0
 11
726.3107043546054
 21
370.1416625402287
 31
0.0
  0
LINE
  5
471
330
1B
100
AcDbEntity
  8
4
100
AcDbLine
 10
553.4103123546049
 20
437.1419065402285
 30
0.0
 11
553.4103123546049
 21
555.1419065402285
 31
0.0
  0
LINE
  5
472
330
1B
100
AcDbEntity
  8
4
100
AcDbLine
 10
559.4103123546049
 20
556.1419065402285
 30
0.0
 11
559.4103123546049
 21
446.1419065402285
 31
0.0
  0
LINE
  5
478
330
1B
100
AcDbEntity
  8
4
100
AcDbLine
 10
1012.979578302163
 20
122.1416625402287
 30
0.0
 11
1122.979578302163
 21
122.1416625402287
 31
0.0
  0
LINE
  5
479
330
1B
100
AcDbEntity
  8
4
100
AcDbLine
 10
1119.979578302163
 20
157.1416625402287
 30
0.0
 11
1015.979578302163
 21
157.1416625402287
 31
0.0
  0
LINE
  5
47A
330
1B
100
AcDbEntity
  8
4
100
AcDbLine
 10
1400.979578302163
 20
379.5415665402286
 30
0.0
 11
1014.979578302163
 21
379.5415665402286
 31
0.0
  0
LINE
  5
47B
330
1B
100
AcDbEntity
  8
L-CENTER
 48
8.0
100
AcDbLine
 10
1408.642758229207
 20
286.1416625402287
 30
0.0
 11
913.1939343021634
 21
286.1416625402287
 31
0.0
  0
CIRCLE
  5
47C
330
1B
100
AcDbEntity
  8
4
100
AcDbCircle
 10
1007.979578302163
 20
286.1416625402287
 30
0.0
 40
85.0
  0
CIRCLE
  5
47D
330
1B
100
AcDbEntity
  8
L-CENTER
 48
8.0
100
AcDbCircle
 10
1007.979578302163
 20
286.1416625402287
 30
0.0
 40
72.5
  0
TEXT
  5
4AD
330
1B
100
AcDbEntity
  8
3
  6
Continuous
100
AcDbText
 10
801.6753971258358
 20
36.24290122485706
 30
0.0
 40
12.0
  1
LC8-07
  7
KANJI
 72
     1
 11
834.6753971258358
 21
36.24290122485706
 31
0.0
100
AcDbText
  0
LINE
  5
4B9
330
1B
100
AcDbEntity
  8
4
100
AcDbLine
 10
486.4103123546049
 20
556.1419065402285
 30
0.0
 11
485.4103123546049
 21
555.1419065402285
 31
0.0
  0
LINE
  5
4BA
330
1B
100
AcDbEntity
  8
4
100
AcDbLine
 10
485.4103123546049
 20
555.1419065402285
 30
0.0
 11
519.4103123546049
 21
555.1419065402285
 31
0.0
  0
LINE
  5
4BF
330
1B
100
AcDbEntity
  8
L-CENTER
 48
8.0
100
AcDbLine
 10
506.9902166589948
 20
426.1416625402287
 30
0.0
 11
531.8313840502153
 21
426.1416625402287
 31
0.0
  0
LINE
  5
4C0
330
1B
100
AcDbEntity
  8
4
100
AcDbLine
 10
513.160800354605
 20
400.6416625402287
 30
0.0
 11
513.160800354605
 21
449.8916625402287
 31
0.0
  0
LINE
  5
4C1
330
1B
100
AcDbEntity
  8
4
100
AcDbLine
 10
525.660800354605
 20
400.6416625402287
 30
0.0
 11
525.660800354605
 21
449.8916625402287
 31
0.0
  0
LINE
  5
4C2
330
1B
100
AcDbEntity
  8
4
100
AcDbLine
 10
525.660800354605
 20
407.1416625402287
 30
0.0
 11
533.8343843546052
 21
407.1416625402287
 31
0.0
  0
LINE
  5
4C3
330
1B
100
AcDbEntity
  8
4
100
AcDbLine
 10
525.660800354605
 20
407.9917625402288
 30
0.0
 11
533.8343843546052
 21
407.1416625402287
 31
0.0
  0
LINE
  5
4C4
330
1B
100
AcDbEntity
  8
4
100
AcDbLine
 10
484.4103123546049
 20
427.1419065402285
 30
0.0
 11
484.4103123546049
 21
436.1419065402285
 31
0.0
  0
ARC
  5
4C5
330
1B
100
AcDbEntity
  8
4
100
AcDbCircle
 10
484.4103123546049
 20
437.1419065402285
 30
0.0
 40
1.0
100
AcDbArc
 50
270.0
 51
0.0
  0
LINE
  5
4C6
330
1B
100
AcDbEntity
  8
4
100
AcDbLine
 10
484.4103123546049
 20
436.1419065402285
 30
0.0
 11
513.160800354605
 21
436.1419065402285
 31
0.0
  0
LINE
  5
4C7
330
1B
100
AcDbEntity
  8
4
100
AcDbLine
 10
504.9874603546052
 20
407.1416625402287
 30
0.0
 11
513.160800354605
 21
407.1416625402287
 31
0.0
  0
LINE
  5
4C8
330
1B
100
AcDbEntity
  8
4
100
AcDbLine
 10
513.160800354605
 20
407.9917625402288
 30
0.0
 11
504.9874603546052
 21
407.1416625402287
 31
0.0
  0
ARC
  5
4C9
330
1B
100
AcDbEntity
  8
4
100
AcDbCircle
 10
519.410800354605
 20
449.8916625402287
 30
0.0
 40
6.25
100
AcDbArc
 50
0.0
 51
180.0
  0
LINE
  5
4CA
330
1B
100
AcDbEntity
  8
4
100
AcDbLine
 10
454.410800354605
 20
426.1416625402287
 30
0.0
 11
449.410800354605
 21
408.1416625402287
 31
0.0
  0
LINE
  5
4CB
330
1B
100
AcDbEntity
  8
4
100
AcDbLine
 10
469.4103123546054
 20
427.1419065402285
 30
0.0
 11
469.4103123546054
 21
426.1419065402285
 31
0.0
  0
LINE
  5
4CC
330
1B
100
AcDbEntity
  8
4
100
AcDbLine
 10
469.4103123546054
 20
427.1419065402285
 30
0.0
 11
513.160800354605
 21
427.1419065402285
 31
0.0
  0
LINE
  5
4CD
330
1B
100
AcDbEntity
  8
4
100
AcDbLine
 10
513.160800354605
 20
408.1416625402287
 30
0.0
 11
449.410800354605
 21
408.1416625402287
 31
0.0
  0
LINE
  5
4CE
330
1B
100
AcDbEntity
  8
4
100
AcDbLine
 10
513.160800354605
 20
426.1416625402287
 30
0.0
 11
454.410800354605
 21
426.1416625402287
 31
0.0
  0
LINE
  5
4CF
330
1B
100
AcDbEntity
  8
4
100
AcDbLine
 10
539.410800354605
 20
389.0715945402287
 30
0.0
 11
539.410800354605
 21
396.1416625402287
 31
0.0
  0
LINE
  5
4D0
330
1B
100
AcDbEntity
  8
4
100
AcDbLine
 10
499.410800354605
 20
389.0715945402287
 30
0.0
 11
499.410800354605
 21
396.1416625402287
 31
0.0
  0
ARC
  5
4D1
330
1B
100
AcDbEntity
  8
4
100
AcDbCircle
 10
519.410800354605
 20
443.1101705402286
 30
0.0
 40
60.000064
100
AcDbArc
 50
250.529536
 51
289.4726760000001
  0
LINE
  5
4D2
330
1B
100
AcDbEntity
  8
4
100
AcDbLine
 10
539.410800354605
 20
396.1416625402287
 30
0.0
 11
499.410800354605
 21
396.1416625402287
 31
0.0
  0
LINE
  5
4D3
330
1B
100
AcDbEntity
  8
4
100
AcDbLine
 10
504.410800354605
 20
396.1416625402287
 30
0.0
 11
534.410800354605
 21
396.1416625402287
 31
0.0
  0
LINE
  5
4D4
330
1B
100
AcDbEntity
  8
4
100
AcDbLine
 10
444.410800354605
 20
362.1416625402287
 30
0.0
 11
444.410800354605
 21
365.1416625402287
 31
0.0
  0
LINE
  5
4D7
330
1B
100
AcDbEntity
  8
4
100
AcDbLine
 10
469.410800354605
 20
408.1416625402287
 30
0.0
 11
480.410800354605
 21
379.5415665402286
 31
0.0
  0
LINE
  5
4D8
330
1B
100
AcDbEntity
  8
4
100
AcDbLine
 10
504.410800354605
 20
396.1416625402287
 30
0.0
 11
504.9874603546052
 21
407.1416625402287
 31
0.0
  0
ARC
  5
4D9
330
1B
100
AcDbEntity
  8
4
100
AcDbCircle
 10
511.160800354605
 20
400.6416625402287
 30
0.0
 40
2.0
100
AcDbArc
 50
270.0
 51
0.0
  0
LINE
  5
4DA
330
1B
100
AcDbEntity
  8
4
100
AcDbLine
 10
534.410800354605
 20
396.1416625402287
 30
0.0
 11
533.8343843546052
 21
407.1416625402287
 31
0.0
  0
ARC
  5
4DB
330
1B
100
AcDbEntity
  8
4
100
AcDbCircle
 10
527.660800354605
 20
400.6416625402287
 30
0.0
 40
2.0
100
AcDbArc
 50
180.0
 51
270.0
  0
LINE
  5
4DE
330
1B
100
AcDbEntity
  8
4
100
AcDbLine
 10
394.410800354605
 20
365.1416625402287
 30
0.0
 11
394.410800354605
 21
362.1416625402287
 31
0.0
  0
LINE
  5
4E1
330
1B
100
AcDbEntity
  8
4
100
AcDbLine
 10
339.410800354605
 20
371.1416625402286
 30
0.0
 11
326.410800354605
 21
371.1416625402287
 31
0.0
  0
LINE
  5
4E2
330
1B
100
AcDbEntity
  8
4
100
AcDbLine
 10
313.5109003546052
 20
371.1416625402287
 30
0.0
 11
326.410800354605
 21
371.1416625402287
 31
0.0
  0
ARC
  5
4E3
330
1B
100
AcDbEntity
  8
4
100
AcDbCircle
 10
313.5109003546052
 20
370.1416625402287
 30
0.0
 40
1.0
100
AcDbArc
 50
90.0
 51
180.0
  0
ARC
  5
4E4
330
1B
100
AcDbEntity
  8
4
100
AcDbCircle
 10
326.410800354605
 20
378.5415665402286
 30
0.0
 40
1.0
100
AcDbArc
 50
90.0
 51
180.0
  0
LINE
  5
4E5
330
1B
100
AcDbEntity
  8
4
100
AcDbLine
 10
325.410800354605
 20
371.1416625402287
 30
0.0
 11
325.410800354605
 21
378.5415665402286
 31
0.0
  0
LINE
  5
4E6
330
1B
100
AcDbEntity
  8
4
100
AcDbLine
 10
350.077467021272
 20
363.1416625402287
 30
0.0
 11
394.410800354605
 21
363.1416625402287
 31
0.0
  0
LINE
  5
4ED
330
1B
100
AcDbEntity
  8
4
100
AcDbLine
 10
362.5675403546049
 20
379.5415665402286
 30
0.0
 11
449.410800354605
 21
408.1416625402287
 31
0.0
  0
LINE
  5
4EE
330
1B
100
AcDbEntity
  8
4
100
AcDbLine
 10
458.410800354605
 20
151.1416625402287
 30
0.0
 11
463.410800354605
 21
146.1416625402287
 31
0.0
  0
ARC
  5
4EF
330
1B
100
AcDbEntity
  8
4
100
AcDbCircle
 10
436.410800354605
 20
154.1416625402287
 30
0.0
 40
3.0
100
AcDbArc
 50
0.0
 51
90.0
  0
LINE
  5
4F0
330
1B
100
AcDbEntity
  8
4
100
AcDbLine
 10
439.410800354605
 20
147.1416625402287
 30
0.0
 11
458.410800354605
 21
166.1416625402287
 31
0.0
  0
LINE
  5
4F1
330
1B
100
AcDbEntity
  8
4
100
AcDbLine
 10
439.410800354605
 20
154.1416625402287
 30
0.0
 11
439.410800354605
 21
122.1416625402287
 31
0.0
  0
LINE
  5
4F2
330
1B
100
AcDbEntity
  8
4
100
AcDbLine
 10
443.410800354605
 20
151.1416625402287
 30
0.0
 11
478.410800354605
 21
151.1416625402287
 31
0.0
  0
LINE
  5
4F3
330
1B
100
AcDbEntity
  8
4
100
AcDbLine
 10
478.410800354605
 20
151.1416625402287
 30
0.0
 11
463.410800354605
 21
166.1416625402287
 31
0.0
  0
LINE
  5
4F4
330
1B
100
AcDbEntity
  8
4
100
AcDbLine
 10
339.4108003546048
 20
201.1416625402287
 30
0.0
 11
326.410800354605
 21
201.1416625402287
 31
0.0
  0
LINE
  5
4F5
330
1B
100
AcDbEntity
  8
4
100
AcDbLine
 10
313.5109003546052
 20
201.1416625402287
 30
0.0
 11
326.410800354605
 21
201.1416625402287
 31
0.0
  0
ARC
  5
4F6
330
1B
100
AcDbEntity
  8
4
100
AcDbCircle
 10
313.5109003546052
 20
202.1416625402287
 30
0.0
 40
1.0
100
AcDbArc
 50
180.0
 51
270.0
  0
ARC
  5
4F7
330
1B
100
AcDbEntity
  8
4
100
AcDbCircle
 10
302.410800354605
 20
154.1416625402287
 30
0.0
 40
3.0
100
AcDbArc
 50
90.0
 51
180.0
  0
LINE
  5
4F8
330
1B
100
AcDbEntity
  8
4
100
AcDbLine
 10
299.410800354605
 20
154.1416625402287
 30
0.0
 11
299.410800354605
 21
122.1416625402287
 31
0.0
  0
LINE
  5
4F9
330
1B
100
AcDbEntity
  8
L-CENTER
 48
8.0
100
AcDbLine
 10
334.410800354605
 20
110.1416625402287
 30
0.0
 11
334.410800354605
 21
169.1416625402287
 31
0.0
  0
LINE
  5
4FA
330
1B
100
AcDbEntity
  8
4
100
AcDbLine
 10
332.410800354605
 20
201.1416625402287
 30
0.0
 11
332.410800354605
 21
157.1416625402287
 31
0.0
  0
LINE
  5
4FB
330
1B
100
AcDbEntity
  8
4
100
AcDbLine
 10
322.410800354605
 20
170.9981065402287
 30
0.0
 11
322.410800354605
 21
201.1416625402287
 31
0.0
  0
LINE
  5
4FC
330
1B
100
AcDbEntity
  8
4
100
AcDbLine
 10
332.410800354605
 20
188.3186625402284
 30
0.0
 11
314.410800354605
 21
157.1416625402287
 31
0.0
  0
LINE
  5
4FD
330
1B
100
AcDbEntity
  8
4
100
AcDbLine
 10
384.410800354605
 20
210.1416625402287
 30
0.0
 11
384.410800354605
 21
157.1416625402287
 31
0.0
  0
LINE
  5
4FE
330
1B
100
AcDbEntity
  8
4
100
AcDbLine
 10
439.410800354605
 20
122.1416625402287
 30
0.0
 11
299.410800354605
 21
122.1416625402287
 31
0.0
  0
LINE
  5
4FF
330
1B
100
AcDbEntity
  8
4
100
AcDbLine
 10
302.410800354605
 20
157.1416625402287
 30
0.0
 11
436.410800354605
 21
157.1416625402287
 31
0.0
  0
LINE
  5
500
330
1B
100
AcDbEntity
  8
4
100
AcDbLine
 10
312.5109003546052
 20
202.1416625402287
 30
0.0
 11
312.5109003546052
 21
370.1416625402287
 31
0.0
  0
LINE
  5
501
330
1B
100
AcDbEntity
  8
4
100
AcDbLine
 10
326.410800354605
 20
371.1416625402287
 30
0.0
 11
326.410800354605
 21
201.1416625402287
 31
0.0
  0
LINE
  5
502
330
1B
100
AcDbEntity
  8
4
100
AcDbLine
 10
333.410800354605
 20
360.1416625402287
 30
0.0
 11
333.410800354605
 21
212.1416625402287
 31
0.0
  0
LINE
  5
503
330
1B
100
AcDbEntity
  8
4
100
AcDbLine
 10
326.410800354605
 20
201.1416625402287
 30
0.0
 11
326.410800354605
 21
371.1416625402287
 31
0.0
  0
LINE
  5
504
330
1B
100
AcDbEntity
  8
L-CENTER
 48
8.0
100
AcDbLine
 10
519.410800354605
 20
7.274558931430192
 30
0.0
 11
519.410800354605
 21
565.0087661490272
 31
0.0
  0
LINE
  5
505
330
1B
100
AcDbEntity
  8
4
100
AcDbLine
 10
485.4103123546049
 20
437.1419065402285
 30
0.0
 11
485.4103123546049
 21
555.1419065402285
 31
0.0
  0
LINE
  5
50D
330
1B
100
AcDbEntity
  8
4
100
AcDbLine
 10
144.5722648596393
 20
312.6416625402287
 30
0.0
 11
144.5722648596393
 21
304.6416625402287
 31
0.0
  0
LINE
  5
50E
330
1B
100
AcDbEntity
  8
4
100
AcDbLine
 10
138.5722648596393
 20
312.6416625402287
 30
0.0
 11
132.5722648596393
 21
312.6416625402287
 31
0.0
  0
LINE
  5
50F
330
1B
100
AcDbEntity
  8
4
100
AcDbLine
 10
138.5722648596393
 20
304.6416625402287
 30
0.0
 11
132.5722648596393
 21
304.6416625402287
 31
0.0
  0
LINE
  5
510
330
1B
100
AcDbEntity
  8
4
100
AcDbLine
 10
132.5722648596393
 20
312.6416625402287
 30
0.0
 11
132.5722648596393
 21
304.6416625402287
 31
0.0
  0
LINE
  5
511
330
1B
100
AcDbEntity
  8
4
100
AcDbLine
 10
138.5722648596393
 20
312.6416625402287
 30
0.0
 11
144.5722648596393
 21
312.6416625402287
 31
0.0
  0
LINE
  5
512
330
1B
100
AcDbEntity
  8
4
100
AcDbLine
 10
138.5722648596393
 20
304.6416625402287
 30
0.0
 11
144.5722648596393
 21
304.6416625402287
 31
0.0
  0
LINE
  5
522
330
1B
100
AcDbEntity
  8
L-CENTER
 48
8.0
100
AcDbLine
 10
108.9242568596394
 20
286.1416625402287
 30
0.0
 11
168.2202728596392
 21
286.1416625402287
 31
0.0
  0
ARC
  5
529
330
1B
100
AcDbEntity
  8
4
100
AcDbCircle
 10
138.5722648596393
 20
286.1416625402287
 30
0.0
 40
22.999996
100
AcDbArc
 50
105.121668007576
 51
74.87833099999978
  0
LINE
  5
52A
330
1B
100
AcDbEntity
  8
L-CENTER
 48
8.0
100
AcDbLine
 10
138.5722648596393
 20
256.4936545402288
 30
0.0
 11
138.5722648596393
 21
315.7896705402286
 31
0.0
  0
LINE
  5
531
330
1B
100
AcDbEntity
  8
4
100
AcDbLine
 10
575.410800354605
 20
146.1416625402287
 30
0.0
 11
463.410800354605
 21
146.1416625402287
 31
0.0
  0
LINE
  5
532
330
1B
100
AcDbEntity
  8
4
100
AcDbLine
 10
580.4103123546049
 20
166.1416625402287
 30
0.0
 11
458.410800354605
 21
166.1416625402287
 31
0.0
  0
LINE
  5
533
330
1B
100
AcDbEntity
  8
4
100
AcDbLine
 10
486.4103123546049
 20
556.1419065402285
 30
0.0
 11
559.4103123546049
 21
556.1419065402285
 31
0.0
  0
LINE
  5
534
330
1B
100
AcDbEntity
  8
4
100
AcDbLine
 10
444.410800354605
 20
363.1416625402287
 30
0.0
 11
688.7441336879385
 21
363.1416625402286
 31
0.0
  0
LINE
  5
535
330
1B
100
AcDbEntity
  8
4
100
AcDbLine
 10
712.410800354605
 20
379.5415665402286
 30
0.0
 11
326.410800354605
 21
379.5415665402286
 31
0.0
  0
LINE
  5
536
330
1B
100
AcDbEntity
  8
4
100
AcDbLine
 10
691.410800354605
 20
365.1416625402287
 30
0.0
 11
347.410800354605
 21
365.1416625402286
 31
0.0
  0
ARC
  5
537
330
1B
100
AcDbEntity
  8
4
100
AcDbCircle
 10
335.410800354605
 20
360.1416625402287
 30
0.0
 40
2.0
100
AcDbArc
 50
90.0
 51
180.0
  0
LINE
  5
538
330
1B
100
AcDbEntity
  8
4
100
AcDbLine
 10
703.410800354605
 20
362.1416625402287
 30
0.0
 11
335.410800354605
 21
362.1416625402287
 31
0.0
  0
LINE
  5
539
330
1B
100
AcDbEntity
  8
L-CENTER
 48
8.0
100
AcDbLine
 10
733.3920180166682
 20
286.1416625402287
 30
0.0
 11
193.4042432839676
 21
286.1416625402287
 31
0.0
  0
LINE
  5
53A
330
1B
100
AcDbEntity
  8
4
100
AcDbLine
 10
703.410800354605
 20
210.1416625402287
 30
0.0
 11
335.410800354605
 21
210.1416625402287
 31
0.0
  0
LINE
  5
53B
330
1B
100
AcDbEntity
  8
4
100
AcDbLine
 10
525.660800354605
 20
427.1419065402285
 30
0.0
 11
569.4103123546049
 21
427.1419065402285
 31
0.0
  0
LINE
  5
53C
330
1B
100
AcDbEntity
  8
4
100
AcDbLine
 10
525.660800354605
 20
408.1416625402287
 30
0.0
 11
589.410800354605
 21
408.1416625402287
 31
0.0
  0
LINE
  5
53D
330
1B
100
AcDbEntity
  8
4
100
AcDbLine
 10
525.660800354605
 20
426.1416625402287
 30
0.0
 11
584.410800354605
 21
426.1416625402287
 31
0.0
  0
LINE
  5
53E
330
1B
100
AcDbEntity
  8
4
100
AcDbLine
 10
525.660800354605
 20
436.1419065402285
 30
0.0
 11
554.4103123546049
 21
436.1419065402285
 31
0.0
  0
LINE
  5
53F
330
1B
100
AcDbEntity
  8
4
100
AcDbLine
 10
553.4103123546049
 20
555.1419065402285
 30
0.0
 11
519.4103123546049
 21
555.1419065402285
 31
0.0
  0
LINE
  5
565
330
1B
100
AcDbEntity
  8
4
100
AcDbLine
 10
199.410800354605
 20
312.6416625402287
 30
0.0
 11
289.410800354605
 21
312.6416625402287
 31
0.0
  0
LINE
  5
566
330
1B
100
AcDbEntity
  8
4
100
AcDbLine
 10
298.410800354605
 20
309.1416625402287
 30
0.0
 11
200.410800354605
 21
309.1416625402287
 31
0.0
  0
LINE
  5
567
330
1B
100
AcDbEntity
  8
4
100
AcDbLine
 10
298.410800354605
 20
263.1416625402287
 30
0.0
 11
200.410800354605
 21
263.1416625402287
 31
0.0
  0
LINE
  5
568
330
1B
100
AcDbEntity
  8
4
100
AcDbLine
 10
299.410800354605
 20
261.1416625402287
 30
0.0
 11
299.410800354605
 21
311.1416625402287
 31
0.0
  0
LINE
  5
569
330
1B
100
AcDbEntity
  8
4
100
AcDbLine
 10
311.5108963546047
 20
250.1416625402287
 30
0.0
 11
311.5108963546047
 21
322.1416625402287
 31
0.0
  0
LINE
  5
56A
330
1B
100
AcDbEntity
  8
4
100
AcDbLine
 10
299.410800354605
 20
261.1416625402287
 30
0.0
 11
311.5108963546047
 21
261.1416625402287
 31
0.0
  0
LINE
  5
56B
330
1B
100
AcDbEntity
  8
4
100
AcDbLine
 10
312.5108963546047
 20
250.1416625402287
 30
0.0
 11
311.5108963546047
 21
250.1416625402287
 31
0.0
  0
ARC
  5
56C
330
1B
100
AcDbEntity
  8
4
100
AcDbCircle
 10
298.410800354605
 20
262.1416625402287
 30
0.0
 40
1.0
100
AcDbArc
 50
0.0
 51
90.0
  0
LINE
  5
56D
330
1B
100
AcDbEntity
  8
4
100
AcDbLine
 10
299.410800354605
 20
311.1416625402287
 30
0.0
 11
311.5108963546047
 21
311.1416625402287
 31
0.0
  0
LINE
  5
56E
330
1B
100
AcDbEntity
  8
4
100
AcDbLine
 10
312.5108963546047
 20
322.1416625402287
 30
0.0
 11
311.5108963546047
 21
322.1416625402287
 31
0.0
  0
LINE
  5
56F
330
1B
100
AcDbEntity
  8
4
100
AcDbLine
 10
289.410800354605
 20
312.6416625402287
 30
0.0
 11
289.410800354605
 21
309.1416625402287
 31
0.0
  0
ARC
  5
570
330
1B
100
AcDbEntity
  8
4
100
AcDbCircle
 10
298.410800354605
 20
310.1416625402287
 30
0.0
 40
1.0
100
AcDbArc
 50
270.0
 51
0.0
  0
LINE
  5
571
330
1B
100
AcDbEntity
  8
4
100
AcDbLine
 10
200.410800354605
 20
263.1416625402287
 30
0.0
 11
200.410800354605
 21
309.1416625402287
 31
0.0
  0
LINE
  5
572
330
1B
100
AcDbEntity
  8
4
100
AcDbLine
 10
199.410800354605
 20
312.6416625402287
 30
0.0
 11
199.410800354605
 21
264.1416625402287
 31
0.0
  0
LINE
  5
573
330
1B
100
AcDbEntity
  8
4
100
AcDbLine
 10
200.410800354605
 20
263.1416625402287
 30
0.0
 11
199.410800354605
 21
264.1416625402287
 31
0.0
  0
LINE
  5
574
330
1B
100
AcDbEntity
  8
4
100
AcDbLine
 10
199.410800354605
 20
308.1416625402287
 30
0.0
 11
200.410800354605
 21
309.1416625402287
 31
0.0
  0
LINE
  5
58E
330
1B
100
AcDbEntity
  8
4
100
AcDbLine
 10
199.410800354605
 20
862.9969561555492
 30
0.0
 11
283.410800354605
 21
862.9969561555492
 31
0.0
  0
LINE
  5
58F
330
1B
100
AcDbEntity
  8
4
100
AcDbLine
 10
297.410800354605
 20
879.9969561555492
 30
0.0
 11
200.410800354605
 21
879.9969561555492
 31
0.0
  0
LINE
  5
590
330
1B
100
AcDbEntity
  8
4
100
AcDbLine
 10
199.410800354605
 20
850.9969561555492
 30
0.0
 11
283.410800354605
 21
850.9969561555492
 31
0.0
  0
LINE
  5
591
330
1B
100
AcDbEntity
  8
4
100
AcDbLine
 10
297.410800354605
 20
833.9969561555492
 30
0.0
 11
200.410800354605
 21
833.9969561555492
 31
0.0
  0
ARC
  5
592
330
1B
100
AcDbEntity
  8
4
100
AcDbCircle
 10
297.410800354605
 20
831.9969561555492
 30
0.0
 40
2.0
100
AcDbArc
 50
0.0
 51
90.0
  0
LINE
  5
593
330
1B
100
AcDbEntity
  8
4
100
AcDbLine
 10
299.410800354605
 20
831.9969561555492
 30
0.0
 11
299.410800354605
 21
881.9969561555492
 31
0.0
  0
ARC
  5
594
330
1B
100
AcDbEntity
  8
4
100
AcDbCircle
 10
297.410800354605
 20
881.9969561555492
 30
0.0
 40
2.0
100
AcDbArc
 50
270.0
 51
0.0
  0
ARC
  5
595
330
1B
100
AcDbEntity
  8
4
100
AcDbCircle
 10
283.410800354605
 20
856.9969561555492
 30
0.0
 40
6.0
100
AcDbArc
 50
270.0
 51
90.0
  0
LINE
  5
596
330
1B
100
AcDbEntity
  8
4
100
AcDbLine
 10
200.410800354605
 20
879.9969561555492
 30
0.0
 11
199.410800354605
 21
878.9969561555492
 31
0.0
  0
LINE
  5
597
330
1B
100
AcDbEntity
  8
4
100
AcDbLine
 10
200.410800354605
 20
879.9969561555492
 30
0.0
 11
200.410800354605
 21
862.9969561555492
 31
0.0
  0
LINE
  5
598
330
1B
100
AcDbEntity
  8
4
100
AcDbLine
 10
199.410800354605
 20
834.9969561555492
 30
0.0
 11
200.410800354605
 21
833.9969561555492
 31
0.0
  0
LINE
  5
599
330
1B
100
AcDbEntity
  8
4
100
AcDbLine
 10
200.410800354605
 20
850.9969561555492
 30
0.0
 11
200.410800354605
 21
833.9969561555492
 31
0.0
  0
LINE
  5
59A
330
1B
100
AcDbEntity
  8
4
100
AcDbLine
 10
199.410800354605
 20
878.9969561555492
 30
0.0
 11
199.410800354605
 21
834.9969561555492
 31
0.0
  0
LINE
  5
59B
330
1B
100
AcDbEntity
  8
4
100
AcDbLine
 10
299.410800354605
 20
881.9969561555492
 30
0.0
 11
311.5108963546052
 21
881.9969561555492
 31
0.0
  0
LINE
  5
59C
330
1B
100
AcDbEntity
  8
4
100
AcDbLine
 10
299.410800354605
 20
831.9969561555492
 30
0.0
 11
311.5108963546052
 21
831.9969561555492
 31
0.0
  0
LINE
  5
59D
330
1B
100
AcDbEntity
  8
4
100
AcDbLine
 10
311.5108963546052
 20
820.9969561555492
 30
0.0
 11
311.5108963546052
 21
892.9969561555492
 31
0.0
  0
LINE
  5
59E
330
1B
100
AcDbEntity
  8
4
100
AcDbLine
 10
312.5108963546052
 20
820.9969561555492
 30
0.0
 11
311.5108963546052
 21
820.9969561555492
 31
0.0
  0
LINE
  5
59F
330
1B
100
AcDbEntity
  8
4
100
AcDbLine
 10
312.5108963546052
 20
892.9969561555492
 30
0.0
 11
311.5108963546052
 21
892.9969561555492
 31
0.0
  0
LINE
  5
5A5
330
1B
100
AcDbEntity
  8
4
100
AcDbLine
 10
486.4103123546049
 20
16.14141854022887
 30
0.0
 11
559.4103123546049
 21
16.14141854022887
 31
0.0
  0
LINE
  5
5A6
330
1B
100
AcDbEntity
  8
4
100
AcDbLine
 10
485.4103123546049
 20
135.1414185402289
 30
0.0
 11
485.4103123546049
 21
17.14141854022887
 31
0.0
  0
LINE
  5
5A8
330
1B
100
AcDbEntity
  8
4
100
AcDbLine
 10
469.4103123546054
 20
145.1414185402289
 30
0.0
 11
469.4103123546054
 21
146.1414185402289
 31
0.0
  0
ARC
  5
5AA
330
1B
100
AcDbEntity
  8
4
100
AcDbCircle
 10
484.4103123546049
 20
135.1414185402289
 30
0.0
 40
1.0
100
AcDbArc
 50
0.0
 51
90.0
  0
LINE
  5
5AB
330
1B
100
AcDbEntity
  8
4
100
AcDbLine
 10
484.4103123546049
 20
145.1414185402289
 30
0.0
 11
484.4103123546049
 21
136.1414185402289
 31
0.0
  0
LINE
  5
5AC
330
1B
100
AcDbEntity
  8
4
100
AcDbLine
 10
485.4103123546049
 20
17.14141854022887
 30
0.0
 11
519.4103123546049
 21
17.14141854022887
 31
0.0
  0
LINE
  5
5AD
330
1B
100
AcDbEntity
  8
4
100
AcDbLine
 10
486.4103123546049
 20
16.14141854022887
 30
0.0
 11
485.4103123546049
 21
17.14141854022887
 31
0.0
  0
LINE
  5
5AE
330
1B
100
AcDbEntity
  8
4
100
AcDbLine
 10
559.4103123546049
 20
16.14141854022887
 30
0.0
 11
559.4103123546049
 21
126.1414185402289
 31
0.0
  0
LINE
  5
5AF
330
1B
100
AcDbEntity
  8
4
100
AcDbLine
 10
553.4103123546049
 20
135.1414185402289
 30
0.0
 11
553.4103123546049
 21
17.14141854022887
 31
0.0
  0
LINE
  5
5B0
330
1B
100
AcDbEntity
  8
4
100
AcDbLine
 10
553.4103123546049
 20
126.1414185402289
 30
0.0
 11
559.4103123546049
 21
126.1414185402289
 31
0.0
  0
ARC
  5
5B1
330
1B
100
AcDbEntity
  8
4
100
AcDbCircle
 10
554.4103123546049
 20
135.1414185402289
 30
0.0
 40
1.0
100
AcDbArc
 50
90.0
 51
180.0
  0
LINE
  5
5B2
330
1B
100
AcDbEntity
  8
4
100
AcDbLine
 10
569.4103123546049
 20
145.1414185402289
 30
0.0
 11
569.4103123546049
 21
146.1414185402289
 31
0.0
  0
LINE
  5
5B3
330
1B
100
AcDbEntity
  8
4
100
AcDbLine
 10
554.4103123546049
 20
145.1414185402289
 30
0.0
 11
554.4103123546049
 21
136.1414185402289
 31
0.0
  0
LINE
  5
5B4
330
1B
100
AcDbEntity
  8
4
100
AcDbLine
 10
553.4103123546049
 20
17.14141854022887
 30
0.0
 11
552.4103123546049
 21
16.14141854022887
 31
0.0
  0
LINE
  5
5B5
330
1B
100
AcDbEntity
  8
4
100
AcDbLine
 10
1241.979334302163
 20
135.1416625402287
 30
0.0
 11
1241.979334302163
 21
17.14166254022871
 31
0.0
  0
LINE
  5
5B6
330
1B
100
AcDbEntity
  8
4
100
AcDbLine
 10
1216.979334302163
 20
117.1416625402287
 30
0.0
 11
1216.979334302163
 21
16.14166254022871
 31
0.0
  0
LINE
  5
5B7
330
1B
100
AcDbEntity
  8
4
100
AcDbLine
 10
1198.979334302163
 20
117.1416625402287
 30
0.0
 11
1198.979334302163
 21
16.14166254022871
 31
0.0
  0
LINE
  5
5B8
330
1B
100
AcDbEntity
  8
4
100
AcDbLine
 10
1173.979334302163
 20
135.1416625402287
 30
0.0
 11
1173.979334302163
 21
17.14166254022871
 31
0.0
  0
ARC
  5
5B9
330
1B
100
AcDbEntity
  8
4
100
AcDbCircle
 10
1207.979334302163
 20
117.1416625402287
 30
0.0
 40
9.0
100
AcDbArc
 50
0.0
 51
180.0
  0
LINE
  5
5BA
330
1B
100
AcDbEntity
  8
4
100
AcDbLine
 10
1242.979334302163
 20
136.1416625402287
 30
0.0
 11
1172.979334302163
 21
136.1416625402287
 31
0.0
  0
LINE
  5
5BB
330
1B
100
AcDbEntity
  8
4
100
AcDbLine
 10
1157.979334302163
 20
145.1416625402287
 30
0.0
 11
1257.979334302163
 21
145.1416625402287
 31
0.0
  0
ARC
  5
5BC
330
1B
100
AcDbEntity
  8
4
100
AcDbCircle
 10
1172.979334302163
 20
135.1416625402287
 30
0.0
 40
1.0
100
AcDbArc
 50
0.0
 51
90.0
  0
LINE
  5
5BD
330
1B
100
AcDbEntity
  8
4
100
AcDbLine
 10
1157.979334302163
 20
145.1416625402287
 30
0.0
 11
1157.979334302163
 21
146.1416625402287
 31
0.0
  0
LINE
  5
5BE
330
1B
100
AcDbEntity
  8
4
100
AcDbLine
 10
1172.979334302163
 20
145.1416625402287
 30
0.0
 11
1172.979334302163
 21
136.1416625402287
 31
0.0
  0
ARC
  5
5BF
330
1B
100
AcDbEntity
  8
4
100
AcDbCircle
 10
1242.979334302163
 20
135.1416625402287
 30
0.0
 40
1.0
100
AcDbArc
 50
90.0
 51
180.0
  0
LINE
  5
5C0
330
1B
100
AcDbEntity
  8
4
100
AcDbLine
 10
1242.979334302163
 20
145.1416625402287
 30
0.0
 11
1242.979334302163
 21
136.1416625402287
 31
0.0
  0
LINE
  5
5C1
330
1B
100
AcDbEntity
  8
4
100
AcDbLine
 10
1257.979334302163
 20
145.1416625402287
 30
0.0
 11
1257.979334302163
 21
146.1416625402287
 31
0.0
  0
LINE
  5
5C2
330
1B
100
AcDbEntity
  8
4
100
AcDbLine
 10
1240.979334302163
 20
16.14166254022871
 30
0.0
 11
1174.979334302163
 21
16.14166254022871
 31
0.0
  0
LINE
  5
5C3
330
1B
100
AcDbEntity
  8
4
100
AcDbLine
 10
1173.979334302163
 20
17.14166254022871
 30
0.0
 11
1198.979334302163
 21
17.14166254022871
 31
0.0
  0
LINE
  5
5C4
330
1B
100
AcDbEntity
  8
4
100
AcDbLine
 10
1173.979334302163
 20
17.14166254022871
 30
0.0
 11
1174.979334302163
 21
16.14166254022871
 31
0.0
  0
LINE
  5
5C5
330
1B
100
AcDbEntity
  8
4
100
AcDbLine
 10
1240.979334302163
 20
16.14166254022871
 30
0.0
 11
1241.979334302163
 21
17.14166254022871
 31
0.0
  0
LINE
  5
5C6
330
1B
100
AcDbEntity
  8
4
100
AcDbLine
 10
1241.979334302163
 20
17.14166254022871
 30
0.0
 11
1216.979334302163
 21
17.14166254022871
 31
0.0
  0
LINE
  5
5C7
330
1B
100
AcDbEntity
  8
4
100
AcDbLine
 10
469.4103123546054
 20
145.1414185402289
 30
0.0
 11
569.4103123546049
 21
145.1414185402289
 31
0.0
  0
LINE
  5
5C8
330
1B
100
AcDbEntity
  8
4
100
AcDbLine
 10
484.4103123546049
 20
136.1414185402289
 30
0.0
 11
554.4103123546049
 21
136.1414185402289
 31
0.0
  0
LINE
  5
5C9
330
1B
100
AcDbEntity
  8
4
100
AcDbLine
 10
553.4103123546049
 20
17.14141854022887
 30
0.0
 11
519.4103123546049
 21
17.14141854022887
 31
0.0
  0
CIRCLE
  5
5FA
330
1B
100
AcDbEntity
  8
4
100
AcDbCircle
 10
1007.979578302164
 20
286.1416625402287
 30
0.0
 40
60.0
  0
LINE
  5
607
330
1B
100
AcDbEntity
  8
4
100
AcDbLine
 10
734.410800354605
 20
861.9969561555492
 30
0.0
 11
726.3108003546051
 21
861.9969561555492
 31
0.0
  0
ARC
  5
608
330
1B
100
AcDbEntity
  8
4
100
AcDbCircle
 10
734.410800354605
 20
866.9969561555492
 30
0.0
 40
5.0
100
AcDbArc
 50
270.0
 51
0.0
  0
LINE
  5
60B
330
1B
100
AcDbEntity
  8
4
100
AcDbLine
 10
672.410800354605
 20
397.1416625402287
 30
0.0
 11
626.410800354605
 21
397.1416625402287
 31
0.0
  0
LINE
  5
60C
330
1B
100
AcDbEntity
  8
4
100
AcDbLine
 10
672.410800354605
 20
401.1416625402287
 30
0.0
 11
626.410800354605
 21
401.1416625402287
 31
0.0
  0
LINE
  5
60D
330
1B
100
AcDbEntity
  8
4
100
AcDbLine
 10
672.410800354605
 20
406.1416625402287
 30
0.0
 11
626.410800354605
 21
406.1416625402287
 31
0.0
  0
LINE
  5
60E
330
1B
100
AcDbEntity
  8
4
100
AcDbLine
 10
628.8848723546046
 20
395.1416625402287
 30
0.0
 11
674.410800354605
 21
395.1416625402287
 31
0.0
  0
LINE
  5
60F
330
1B
100
AcDbEntity
  8
4
100
AcDbLine
 10
672.410800354605
 20
397.1416625402287
 30
0.0
 11
672.410800354605
 21
406.1416625402287
 31
0.0
  0
LINE
  5
610
330
1B
100
AcDbEntity
  8
4
100
AcDbLine
 10
674.410800354605
 20
395.1416625402287
 30
0.0
 11
674.410800354605
 21
380.1480105402286
 31
0.0
  0
LINE
  5
611
330
1B
100
AcDbEntity
  8
4
100
AcDbLine
 10
671.410800354605
 20
397.1416625402287
 30
0.0
 11
671.410800354605
 21
395.1416625402287
 31
0.0
  0
LINE
  5
612
330
1B
100
AcDbEntity
  8
4
100
AcDbLine
 10
637.910800354605
 20
401.1416625402287
 30
0.0
 11
637.910800354605
 21
406.1416625402287
 31
0.0
  0
LINE
  5
613
330
1B
100
AcDbEntity
  8
4
100
AcDbLine
 10
660.910800354605
 20
401.1416625402287
 30
0.0
 11
660.910800354605
 21
406.1416625402287
 31
0.0
  0
LINE
  5
614
330
1B
100
AcDbEntity
  8
4
100
AcDbLine
 10
626.410800354605
 20
397.1416625402287
 30
0.0
 11
626.410800354605
 21
406.1416625402287
 31
0.0
  0
LINE
  5
615
330
1B
100
AcDbEntity
  8
4
100
AcDbLine
 10
627.410800354605
 20
397.1416625402287
 30
0.0
 11
627.410800354605
 21
395.6271185402286
 31
0.0
  0
LINE
  5
617
330
1B
100
AcDbEntity
  8
L-CENTER
 48
8.0
100
AcDbLine
 10
649.410800354605
 20
355.3622182272514
 30
0.0
 11
649.410800354605
 21
412.2881387235443
 31
0.0
  0
LINE
  5
618
330
1B
100
AcDbEntity
  8
4
100
AcDbLine
 10
1230.979578302163
 20
397.1416625402287
 30
0.0
 11
1184.979578302163
 21
397.1416625402287
 31
0.0
  0
LINE
  5
619
330
1B
100
AcDbEntity
  8
4
100
AcDbLine
 10
1230.979578302163
 20
401.1416625402287
 30
0.0
 11
1184.979578302163
 21
401.1416625402287
 31
0.0
  0
LINE
  5
61A
330
1B
100
AcDbEntity
  8
4
100
AcDbLine
 10
1228.229578302163
 20
406.1416625402287
 30
0.0
 11
1187.729578302163
 21
406.1416625402287
 31
0.0
  0
LINE
  5
61B
330
1B
100
AcDbEntity
  8
4
100
AcDbLine
 10
1182.979578302163
 20
395.1416625402287
 30
0.0
 11
1232.979578302163
 21
395.1416625402287
 31
0.0
  0
LINE
  5
61C
330
1B
100
AcDbEntity
  8
4
100
AcDbLine
 10
1230.979578302163
 20
397.1416625402287
 30
0.0
 11
1230.979578302163
 21
401.1416625402287
 31
0.0
  0
LINE
  5
61D
330
1B
100
AcDbEntity
  8
4
100
AcDbLine
 10
1232.979578302163
 20
395.1416625402287
 30
0.0
 11
1232.979578302163
 21
388.3818598686017
 31
0.0
  0
LINE
  5
61E
330
1B
100
AcDbEntity
  8
4
100
AcDbLine
 10
1229.979578302163
 20
397.1416625402287
 30
0.0
 11
1229.979578302163
 21
395.1416625402287
 31
0.0
  0
LINE
  5
61F
330
1B
100
AcDbEntity
  8
4
 48
8.0
100
AcDbLine
 10
1228.229578302163
 20
401.1416625402287
 30
0.0
 11
1228.229578302163
 21
406.1416625402287
 31
0.0
  0
LINE
  5
620
330
1B
100
AcDbEntity
  8
4
 48
8.0
100
AcDbLine
 10
1187.729578302163
 20
401.1416625402287
 30
0.0
 11
1187.729578302163
 21
406.1416625402287
 31
0.0
  0
LINE
  5
621
330
1B
100
AcDbEntity
  8
4
100
AcDbLine
 10
1184.979578302163
 20
397.1416625402287
 30
0.0
 11
1184.979578302163
 21
401.1416625402287
 31
0.0
  0
LINE
  5
622
330
1B
100
AcDbEntity
  8
4
100
AcDbLine
 10
1182.979578302163
 20
395.1416625402287
 30
0.0
 11
1182.979578302163
 21
388.3818598686017
 31
0.0
  0
LINE
  5
623
330
1B
100
AcDbEntity
  8
4
100
AcDbLine
 10
1185.979578302163
 20
397.1416625402287
 30
0.0
 11
1185.979578302163
 21
395.1416625402287
 31
0.0
  0
ARC
  5
626
330
1B
100
AcDbEntity
  8
4
100
AcDbCircle
 10
1207.979578302163
 20
422.2210789357512
 30
0.0
 40
42.0724701803273
100
AcDbArc
 50
233.5434658023061
 51
256.5093393131241
  0
ARC
  5
627
330
1B
100
AcDbEntity
  8
4
100
AcDbCircle
 10
1207.979578302163
 20
422.2210789357512
 30
0.0
 40
42.0724701803273
100
AcDbArc
 50
283.4906606868765
 51
306.4565341976939
  0
ENDSEC
  0
SECTION
  2
OBJECTS
  0
DICTIONARY
  5
9
330
0
100
AcDbDictionary
281
     1
  3
ACAD_COLOR
350
31
  3
ACAD_GROUP
350
2F
  3
ACAD_LAYOUT
350
24
  3
ACAD_MATERIAL
350
B
  3
ACAD_MLEADERSTYLE
350
54B
  3
ACAD_MLINESTYLE
350
19
  3
ACAD_PLOTSETTINGS
350
30
  3
ACAD_PLOTSTYLENAME
350
8
  3
ACAD_SCALELIST
350
38
  3
ACAD_TABLESTYLE
350
54A
  3
ACAD_VISUALSTYLE
350
32
  3
ACDBHEADERROUNDTRIPXREC
350
62D
  3
AcDbVariableDictionary
350
548
  3
DWGPROPS
350
630
  0
DICTIONARY
  5
631
330
2E
100
AcDbDictionary
280
     1
281
     1
  3
ACAD_XREC_ROUNDTRIP
360
632
  0
DICTIONARY
  5
3
330
2
100
AcDbDictionary
280
     1
281
     1
  3
ACAD_LAYERSTATES
360
4
  0
DICTIONARY
  5
20
330
1F
100
AcDbDictionary
280
     1
281
     1
  3
ADSK_XREC_LAYER_RECONCILED
360
21
  0
DICTIONARY
  5
DF
330
DE
100
AcDbDictionary
280
     1
281
     1
  3
ADSK_XREC_LAYER_RECONCILED
360
E0
  0
DICTIONARY
  5
5
330
1
100
AcDbDictionary
280
     1
281
     1
  3
ADSK_XREC_LAYER_RECONCILED
360
6
  0
DICTIONARY
  5
DA
330
D9
100
AcDbDictionary
280
     1
281
     1
  3
ADSK_XREC_LAYER_RECONCILED
360
DB
  0
DICTIONARY
  5
5E
330
5D
100
AcDbDictionary
280
     1
281
     1
  3
ADSK_XREC_LAYER_RECONCILED
360
5F
  0
DICTIONARY
  5
68
330
67
100
AcDbDictionary
280
     1
281
     1
  3
ADSK_XREC_LAYER_RECONCILED
360
69
  0
DICTIONARY
  5
1C
330
1B
100
AcDbDictionary
280
     1
281
     1
  3
ACAD_SORTENTS
360
1D
  0
DICTIONARY
  5
31
102
{ACAD_REACTORS
330
9
102
}
330
9
100
AcDbDictionary
281
     1
  0
DICTIONARY
  5
2F
102
{ACAD_REACTORS
330
9
102
}
330
9
100
AcDbDictionary
281
     1
  0
DICTIONARY
  5
24
102
{ACAD_REACTORS
330
9
102
}
330
9
100
AcDbDictionary
281
     1
  3
Model
350
23
  3
ﾚｲｱｳﾄ1
350
2B
  0
DICTIONARY
  5
B
102
{ACAD_REACTORS
330
9
102
}
330
9
100
AcDbDictionary
281
     1
  3
ByBlock
350
5B
  3
ByLayer
350
14
  3
Global
350
A
  0
DICTIONARY
  5
54B
102
{ACAD_REACTORS
330
9
102
}
330
9
100
AcDbDictionary
281
     1
  3
Standard
350
5EE
  0
DICTIONARY
  5
19
102
{ACAD_REACTORS
330
9
102
}
330
9
100
AcDbDictionary
281
     1
  3
STANDARD
350
18
  0
DICTIONARY
  5
30
102
{ACAD_REACTORS
330
9
102
}
330
9
100
AcDbDictionary
281
     1
  0
ACDBDICTIONARYWDFLT
  5
8
102
{ACAD_REACTORS
330
9
102
}
330
9
100
AcDbDictionary
281
     1
  3
Normal
350
7
100
AcDbDictionaryWithDefault
340
7
  0
DICTIONARY
  5
38
102
{ACAD_REACTORS
330
9
102
}
330
9
100
AcDbDictionary
281
     1
  3
*A1
350
5A
  0
DICTIONARY
  5
54A
102
{ACAD_REACTORS
330
9
102
}
330
9
100
AcDbDictionary
281
     1
  3
Standard
350
629
  0
DICTIONARY
  5
32
102
{ACAD_REACTORS
330
9
102
}
330
9
100
AcDbDictionary
281
     1
  3
2dWireframe
350
553
  3
Basic
350
555
  3
Brighten
350
558
  3
ColorChange
350
55C
  3
Conceptual
350
556
  3
Dim
350
557
  3
EdgeColorOff
350
55F
  3
Facepattern
350
55B
  3
Flat
350
54F
  3
FlatWithEdges
350
550
  3
Gouraud
350
551
  3
GouraudWithEdges
350
552
  3
Hidden
350
554
  3
JitterOff
350
55D
  3
Linepattern
350
55A
  3
OverhangOff
350
55E
  3
Realistic
350
33
  3
Shaded
350
564
  3
Shaded with edges
350
563
  3
Shades of Gray
350
560
  3
Sketchy
350
561
  3
Thicken
350
559
  3
Wireframe
350
34
  3
X-Ray
350
562
  0
DICTIONARY
  5
62D
102
{ACAD_REACTORS
330
9
102
}
330
9
100
AcDbDictionary
281
     1
  3
COLORDICT
350
62E
  3
MATERIALDICT
350
62F
  0
DICTIONARY
  5
548
102
{ACAD_REACTORS
330
9
102
}
330
9
100
AcDbDictionary
281
     1
  3
CANNOSCALE
350
549
  3
CMLEADERSTYLE
350
5F0
  3
CTABLESTYLE
350
62A
  3
DIMASSOC
350
62B
  3
HIDETEXT
350
62C
  3
MSLTSCALE
350
633
  3
XCLIPFRAME
350
54C
  0
XRECORD
  5
630
102
{ACAD_REACTORS
330
9
102
}
330
9
100
AcDbXrecord
280
     1
  1
DWGPROPS COOKIE
  2

  3

  4

  6

  7

  8
sg-d04
  9

300
=
301
=
302
=
303
=
304
=
305
=
306
=
307
=
308
=
309
=
 40
0.0
 41
2457542.441486828
 42
2457870.241460289
  1

 90
        0
  0
XRECORD
  5
632
102
{ACAD_REACTORS
330
631
102
}
330
631
100
AcDbXrecord
280
     1
102
VTR_0.000_0.000_1.000_1.000_VISUALSTYLE
340
553
102
VTR_0.000_0.000_1.000_1.000_GRIDDISPLAY
 70
     3
102
VTR_0.000_0.000_1.000_1.000_GRIDMAJOR
 70
     5
102
VTR_0.000_0.000_1.000_1.000_DEFAULTLIGHTING
280
     1
102
VTR_0.000_0.000_1.000_1.000_DEFAULTLIGHTINGTYPE
 70
     1
102
VTR_0.000_0.000_1.000_1.000_BRIGHTNESS
141
0.0
102
VTR_0.000_0.000_1.000_1.000_CONTRAST
142
0.0
  0
DICTIONARY
  5
4
102
{ACAD_REACTORS
330
3
102
}
330
3
100
AcDbDictionary
281
     1
  0
XRECORD
  5
21
102
{ACAD_REACTORS
330
20
102
}
330
20
100
AcDbXrecord
280
     1
290
     1
  0
XRECORD
  5
E0
102
{ACAD_REACTORS
330
DF
102
}
330
DF
100
AcDbXrecord
280
     1
290
     1
  0
XRECORD
  5
6
102
{ACAD_REACTORS
330
5
102
}
330
5
100
AcDbXrecord
280
     1
290
     1
  0
XRECORD
  5
DB
102
{ACAD_REACTORS
330
DA
102
}
330
DA
100
AcDbXrecord
280
     1
290
     1
  0
XRECORD
  5
5F
102
{ACAD_REACTORS
330
5E
102
}
330
5E
100
AcDbXrecord
280
     1
290
     1
  0
XRECORD
  5
69
102
{ACAD_REACTORS
330
68
102
}
330
68
100
AcDbXrecord
280
     1
290
     1
  0
SORTENTSTABLE
  5
1D
102
{ACAD_REACTORS
330
1C
102
}
330
1C
100
AcDbSortentsTable
330
1B
331
0
  5
D1
331
1A8
  5
535
331
1A9
  5
534
331
1AA
  5
533
331
1AB
  5
532
331
1AC
  5
531
331
1AD
  5
530
331
1AE
  5
52F
331
1AF
  5
52E
331
1B0
  5
52D
331
1B1
  5
52C
331
1B2
  5
52B
331
1B3
  5
52A
331
1B4
  5
529
331
1B5
  5
528
331
1B6
  5
527
331
1B7
  5
526
331
1B8
  5
525
331
1B9
  5
524
331
1BA
  5
523
331
1BB
  5
522
331
1BC
  5
521
331
1BD
  5
520
331
1BE
  5
51F
331
1BF
  5
51E
331
1C0
  5
51D
331
1C1
  5
51C
331
1C2
  5
51B
331
1C3
  5
51A
331
1C4
  5
519
331
1C5
  5
518
331
1C6
  5
517
331
1C7
  5
516
331
1C8
  5
515
331
1C9
  5
514
331
1CA
  5
513
331
1CB
  5
512
331
1CC
  5
511
331
1CD
  5
510
331
1CE
  5
50F
331
1CF
  5
50E
331
1D0
  5
50D
331
1D1
  5
50C
331
1D2
  5
50B
331
1D3
  5
50A
331
1D4
  5
509
331
1D5
  5
508
331
1D6
  5
507
331
1D7
  5
506
331
1D8
  5
505
331
1D9
  5
504
331
1DA
  5
503
331
1DB
  5
502
331
1DC
  5
501
331
1DD
  5
500
331
1DE
  5
4FF
331
1DF
  5
4FE
331
1E0
  5
4FD
331
1E1
  5
4FC
331
1E2
  5
4FB
331
1E3
  5
4FA
331
1E4
  5
4F9
331
1E5
  5
4F8
331
1E6
  5
4F7
331
1E7
  5
4F6
331
1E8
  5
4F5
331
1E9
  5
4F4
331
1EA
  5
4F3
331
1EB
  5
4F2
331
1EC
  5
4F1
331
1ED
  5
4F0
331
1EE
  5
4EF
331
1EF
  5
4EE
331
1F0
  5
4ED
331
1F1
  5
4EC
331
1F2
  5
4EB
331
1F3
  5
4EA
331
1F4
  5
4E9
331
1F5
  5
4E8
331
1F6
  5
4E7
331
1F7
  5
4E6
331
1F8
  5
4E5
331
1F9
  5
4E4
331
1FA
  5
4E3
331
1FB
  5
4E2
331
1FC
  5
4E1
331
1FD
  5
4E0
331
1FE
  5
4DF
331
1FF
  5
4DE
331
200
  5
4DD
331
201
  5
4DC
331
202
  5
4DB
331
203
  5
4DA
331
204
  5
4D9
331
205
  5
4D8
331
206
  5
4D7
331
207
  5
4D6
331
208
  5
4D5
331
209
  5
4D4
331
20A
  5
4D3
331
20B
  5
4D2
331
20C
  5
4D1
331
20D
  5
4D0
331
20E
  5
4CF
331
20F
  5
4CE
331
210
  5
4CD
331
211
  5
4CC
331
212
  5
4CB
331
213
  5
4CA
331
214
  5
4C9
331
215
  5
4C8
331
216
  5
4C7
331
217
  5
4C6
331
218
  5
4C5
331
219
  5
4C4
331
21A
  5
4C3
331
21B
  5
4C2
331
21C
  5
4C1
331
21D
  5
4C0
331
21E
  5
4BF
331
21F
  5
4BE
331
220
  5
4BD
331
221
  5
4BC
331
222
  5
4BB
331
223
  5
4BA
331
224
  5
4B9
331
225
  5
4B8
331
226
  5
4B7
331
227
  5
4B6
331
228
  5
4B5
331
229
  5
4B4
331
22A
  5
4B3
331
22B
  5
4B2
331
22C
  5
4B1
331
22D
  5
4B0
331
22E
  5
4AF
331
22F
  5
4AE
331
230
  5
4AD
331
231
  5
4AC
331
232
  5
4AB
331
233
  5
4AA
331
234
  5
4A9
331
235
  5
4A8
331
236
  5
4A7
331
237
  5
4A6
331
238
  5
4A5
331
239
  5
4A4
331
23A
  5
4A3
331
23B
  5
4A2
331
23C
  5
4A1
331
23D
  5
4A0
331
23E
  5
49F
331
23F
  5
49E
331
240
  5
49D
331
241
  5
49C
331
242
  5
49B
331
243
  5
49A
331
244
  5
499
331
245
  5
498
331
246
  5
497
331
247
  5
496
331
248
  5
495
331
249
  5
494
331
24A
  5
493
331
24B
  5
492
331
24C
  5
491
331
24D
  5
490
331
24E
  5
48F
331
24F
  5
48E
331
250
  5
48D
331
251
  5
48C
331
252
  5
48B
331
253
  5
48A
331
254
  5
489
331
255
  5
488
331
256
  5
487
331
257
  5
486
331
258
  5
485
331
259
  5
484
331
25A
  5
483
331
25B
  5
482
331
25C
  5
481
331
25D
  5
480
331
25E
  5
47F
331
25F
  5
47E
331
260
  5
47D
331
261
  5
47C
331
262
  5
47B
331
263
  5
47A
331
264
  5
479
331
265
  5
478
331
266
  5
477
331
267
  5
476
331
268
  5
475
331
269
  5
474
331
26A
  5
473
331
26B
  5
472
331
26C
  5
471
331
26D
  5
470
331
26E
  5
46F
331
26F
  5
46E
331
270
  5
46D
331
271
  5
46C
331
272
  5
46B
331
273
  5
46A
331
274
  5
469
331
275
  5
468
331
276
  5
467
331
277
  5
466
331
278
  5
465
331
279
  5
464
331
27A
  5
463
331
27B
  5
462
331
27C
  5
461
331
27D
  5
460
331
27E
  5
45F
331
27F
  5
45E
331
280
  5
45D
331
281
  5
45C
331
282
  5
45B
331
283
  5
45A
331
284
  5
459
331
285
  5
458
331
286
  5
457
331
287
  5
456
331
288
  5
455
331
289
  5
454
331
28A
  5
453
331
28B
  5
452
331
28C
  5
451
331
28D
  5
450
331
28E
  5
44F
331
28F
  5
44E
331
290
  5
44D
331
2A3
  5
43A
331
2A4
  5
439
331
2A5
  5
438
331
2A6
  5
437
331
2A7
  5
436
331
2A8
  5
435
331
2A9
  5
434
331
2AA
  5
433
331
2AB
  5
432
331
2AC
  5
431
331
2AD
  5
430
331
2AE
  5
42F
331
2AF
  5
42E
331
2B0
  5
42D
331
2B1
  5
42C
331
2B2
  5
42B
331
2B3
  5
42A
331
2B4
  5
429
331
2B5
  5
428
331
2B6
  5
427
331
2B7
  5
426
331
2B8
  5
425
331
2B9
  5
424
331
2BA
  5
423
331
2BB
  5
422
331
2BC
  5
421
331
2BD
  5
420
331
2BE
  5
41F
331
2BF
  5
41E
331
2C0
  5
41D
331
2C1
  5
41C
331
2C2
  5
41B
331
2C3
  5
41A
331
2C4
  5
419
331
2C5
  5
418
331
2C6
  5
417
331
2C7
  5
416
331
2C8
  5
415
331
2C9
  5
414
331
2CA
  5
413
331
2CB
  5
412
331
2CC
  5
411
331
2CD
  5
410
331
2CE
  5
40F
331
2CF
  5
40E
331
2D0
  5
40D
331
2D1
  5
40C
331
2D2
  5
40B
331
2D3
  5
40A
331
2D4
  5
409
331
2D5
  5
408
331
2D6
  5
407
331
2D7
  5
406
331
2D8
  5
405
331
2D9
  5
404
331
2DA
  5
403
331
2DB
  5
402
331
2DC
  5
401
331
2DD
  5
400
331
2DE
  5
3FF
331
2DF
  5
3FE
331
2E0
  5
3FD
331
2E1
  5
3FC
331
2E2
  5
3FB
331
2E3
  5
3FA
331
2E4
  5
3F9
331
2E5
  5
3F8
331
2E6
  5
3F7
331
2E7
  5
3F6
331
2E8
  5
3F5
331
2E9
  5
3F4
331
2EA
  5
3F3
331
2EB
  5
3F2
331
2EC
  5
3F1
331
2ED
  5
3F0
331
2EE
  5
3EF
331
2EF
  5
3EE
331
2F0
  5
3ED
331
2F1
  5
3EC
331
2F2
  5
3EB
331
2F3
  5
3EA
331
2F4
  5
3E9
331
2F5
  5
3E8
331
2F6
  5
3E7
331
2F7
  5
3E6
331
2F8
  5
3E5
331
2F9
  5
3E4
331
2FA
  5
3E3
331
2FB
  5
3E2
331
2FC
  5
3E1
331
2FD
  5
3E0
331
2FE
  5
3DF
331
2FF
  5
3DE
331
300
  5
3DD
331
301
  5
3DC
331
302
  5
3DB
331
303
  5
3DA
331
304
  5
3D9
331
305
  5
3D8
331
306
  5
3D7
331
307
  5
3D6
331
308
  5
3D5
331
309
  5
3D4
331
30A
  5
3D3
331
30B
  5
3D2
331
30C
  5
3D1
331
30D
  5
3D0
331
30E
  5
3CF
331
30F
  5
3CE
331
310
  5
3CD
331
311
  5
3CC
331
312
  5
3CB
331
313
  5
3CA
331
314
  5
3C9
331
315
  5
3C8
331
316
  5
3C7
331
317
  5
3C6
331
318
  5
3C5
331
319
  5
3C4
331
31A
  5
3C3
331
31B
  5
3C2
331
31C
  5
3C1
331
31D
  5
3C0
331
31E
  5
3BF
331
31F
  5
3BE
331
320
  5
3BD
331
321
  5
3BC
331
322
  5
3BB
331
323
  5
3BA
331
324
  5
3B9
331
325
  5
3B8
331
326
  5
3B7
331
327
  5
3B6
331
328
  5
3B5
331
329
  5
3B4
331
32A
  5
3B3
331
32B
  5
3B2
331
32C
  5
3B1
331
32D
  5
3B0
331
32E
  5
3AF
331
32F
  5
3AE
331
330
  5
3AD
331
331
  5
3AC
331
332
  5
3AB
331
333
  5
3AA
331
334
  5
3A9
331
335
  5
3A8
331
336
  5
3A7
331
337
  5
3A6
331
338
  5
3A5
331
339
  5
3A4
331
33A
  5
3A3
331
33B
  5
3A2
331
33C
  5
3A1
331
33D
  5
3A0
331
33E
  5
39F
331
33F
  5
39E
331
340
  5
39D
331
341
  5
39C
331
342
  5
39B
331
343
  5
39A
331
344
  5
399
331
345
  5
398
331
346
  5
397
331
347
  5
396
331
348
  5
395
331
34B
  5
394
331
34C
  5
393
331
34D
  5
392
331
34E
  5
391
331
34F
  5
390
331
350
  5
38D
331
351
  5
38C
331
352
  5
38B
331
353
  5
38A
331
354
  5
389
331
355
  5
388
331
356
  5
387
331
357
  5
386
331
358
  5
385
331
359
  5
384
331
35A
  5
383
331
361
  5
37C
331
362
  5
37B
331
367
  5
376
331
368
  5
375
331
369
  5
374
331
371
  5
36D
331
373
  5
36B
331
374
  5
36A
331
375
  5
369
331
376
  5
367
331
377
  5
366
331
378
  5
365
331
379
  5
364
331
37A
  5
363
331
37B
  5
362
331
37C
  5
361
331
37D
  5
360
331
37E
  5
35F
331
37F
  5
35E
331
380
  5
35D
331
381
  5
35C
331
383
  5
35A
331
389
  5
354
331
38A
  5
353
331
38B
  5
352
331
38C
  5
351
331
38D
  5
350
331
38E
  5
34F
331
38F
  5
34E
331
390
  5
34D
331
391
  5
34C
331
392
  5
34B
331
393
  5
34A
331
394
  5
349
331
395
  5
348
331
396
  5
347
331
397
  5
346
331
398
  5
345
331
399
  5
344
331
39A
  5
343
331
39B
  5
342
331
39C
  5
341
331
39D
  5
340
331
39E
  5
33F
331
39F
  5
33E
331
3A0
  5
33D
331
3A1
  5
33C
331
3A2
  5
33B
331
3A3
  5
33A
331
3A4
  5
339
331
3A5
  5
338
331
3A6
  5
337
331
3A7
  5
336
331
3A8
  5
335
331
3A9
  5
334
331
3AA
  5
333
331
3AB
  5
332
331
3AD
  5
330
331
3B0
  5
32E
331
3B1
  5
32D
331
3B2
  5
32C
331
3B3
  5
32A
331
3B4
  5
329
331
3B5
  5
328
331
3B6
  5
327
331
3B7
  5
326
331
3B8
  5
325
331
3B9
  5
323
331
3BA
  5
322
331
3BB
  5
321
331
3BC
  5
320
331
3BD
  5
31F
331
3BE
  5
31E
331
3BF
  5
31D
331
3C0
  5
31C
331
3C1
  5
31B
331
3C2
  5
31A
331
3C3
  5
319
331
3C4
  5
318
331
3C5
  5
317
331
3C6
  5
316
331
3C7
  5
315
331
3C8
  5
314
331
3C9
  5
313
331
3CA
  5
312
331
3CB
  5
311
331
3CC
  5
310
331
3CD
  5
30F
331
3CE
  5
30E
331
3CF
  5
30D
331
3D0
  5
30C
331
3D1
  5
30B
331
3D2
  5
30A
331
3D3
  5
309
331
3D4
  5
308
331
3D5
  5
307
331
3D6
  5
306
331
3D7
  5
305
331
3D8
  5
304
331
3D9
  5
303
331
3DA
  5
302
331
3DB
  5
301
331
3DC
  5
300
331
3DD
  5
2FF
331
3DE
  5
2FE
331
3DF
  5
2FD
331
3E0
  5
2FC
331
3E1
  5
2FB
331
3E2
  5
2FA
331
3E3
  5
2F9
331
3E4
  5
2F8
331
3E5
  5
2F7
331
3E6
  5
2F6
331
3E7
  5
2F5
331
3E8
  5
2F4
331
3E9
  5
2F3
331
3EA
  5
2F2
331
3EB
  5
2F1
331
3EC
  5
2F0
331
3ED
  5
2EF
331
3EE
  5
2EE
331
3EF
  5
2ED
331
3F0
  5
2EC
331
3F1
  5
2EB
331
3F2
  5
2EA
331
3F4
  5
2E6
331
3F5
  5
2E5
331
3F6
  5
2E4
331
3F7
  5
2E3
331
3F8
  5
2E2
331
407
  5
2D5
331
409
  5
2D1
331
40A
  5
2D0
331
411
  5
2C9
331
412
  5
2C8
331
413
  5
2C7
331
414
  5
2C6
331
415
  5
2C5
331
416
  5
2C4
331
417
  5
2C3
331
418
  5
2C2
331
419
  5
2C1
331
41A
  5
2C0
331
41B
  5
2BF
331
41C
  5
2BE
331
420
  5
2BA
331
421
  5
2B9
331
422
  5
2B8
331
423
  5
2B7
331
424
  5
2B6
331
425
  5
2B5
331
426
  5
2B4
331
427
  5
2B3
331
428
  5
2B2
331
429
  5
2B1
331
42A
  5
2B0
331
42B
  5
2AF
331
42C
  5
2AE
331
430
  5
2AA
331
431
  5
2A9
331
437
  5
2A3
331
438
  5
2A2
331
439
  5
2A1
331
43A
  5
2A0
331
43B
  5
29F
331
43E
  5
29C
331
43F
  5
29B
331
440
  5
29A
331
441
  5
299
331
442
  5
298
331
443
  5
297
331
444
  5
296
331
447
  5
293
331
448
  5
292
331
449
  5
291
331
44B
  5
28F
331
44C
  5
28E
331
44D
  5
28D
331
44F
  5
28B
331
450
  5
28A
331
451
  5
289
331
452
  5
288
331
453
  5
287
331
454
  5
286
331
455
  5
285
331
456
  5
284
331
457
  5
283
331
458
  5
282
331
459
  5
281
331
45A
  5
280
331
45B
  5
27F
331
45C
  5
27E
331
45D
  5
27D
331
45E
  5
27C
331
45F
  5
27B
331
460
  5
27A
331
461
  5
279
331
462
  5
278
331
463
  5
277
331
464
  5
276
331
465
  5
275
331
466
  5
274
331
467
  5
273
331
468
  5
272
331
469
  5
271
331
46A
  5
270
331
471
  5
269
331
472
  5
268
331
478
  5
263
331
479
  5
262
331
47A
  5
260
331
47B
  5
25F
331
47C
  5
25E
331
47D
  5
25D
331
4AD
  5
22D
331
4B9
  5
222
331
4BA
  5
221
331
4BF
  5
21F
331
4C0
  5
21E
331
4C1
  5
219
331
4C2
  5
218
331
4C3
  5
217
331
4C4
  5
216
331
4C5
  5
215
331
4C6
  5
214
331
4C7
  5
213
331
4C8
  5
212
331
4C9
  5
211
331
4CA
  5
210
331
4CB
  5
20F
331
4CC
  5
20E
331
4CD
  5
20D
331
4CE
  5
20C
331
4CF
  5
20B
331
4D0
  5
20A
331
4D1
  5
209
331
4D2
  5
208
331
4D3
  5
207
331
4D4
  5
206
331
4D7
  5
203
331
4D8
  5
202
331
4D9
  5
201
331
4DA
  5
200
331
4DB
  5
1FF
331
4DE
  5
1FC
331
4E1
  5
1F9
331
4E2
  5
1F8
331
4E3
  5
1F7
331
4E4
  5
1F6
331
4E5
  5
1F5
331
4E6
  5
1F4
331
4ED
  5
1ED
331
4EE
  5
1EC
331
4EF
  5
1EB
331
4F0
  5
1EA
331
4F1
  5
1E9
331
4F2
  5
1E8
331
4F3
  5
1E7
331
4F4
  5
1E6
331
4F5
  5
1E5
331
4F6
  5
1E4
331
4F7
  5
1E3
331
4F8
  5
1E2
331
4F9
  5
1E1
331
4FA
  5
1E0
331
4FB
  5
1DF
331
4FC
  5
1DE
331
4FD
  5
1DD
331
4FE
  5
1DC
331
4FF
  5
1DB
331
500
  5
1DA
331
501
  5
1D9
331
502
  5
1D8
331
503
  5
1D7
331
504
  5
1D6
331
505
  5
1D5
331
50D
  5
1CD
331
50E
  5
1CC
331
50F
  5
1CB
331
510
  5
1CA
331
511
  5
1C9
331
512
  5
1C8
331
522
  5
1B8
331
529
  5
1B1
331
52A
  5
1B0
331
531
  5
1A9
331
532
  5
1A8
331
533
  5
1A7
331
534
  5
1A6
331
535
  5
1A5
331
536
  5
1A4
331
537
  5
1A3
331
538
  5
53D
331
539
  5
53E
331
53A
  5
540
331
53B
  5
541
331
53C
  5
542
331
53D
  5
544
331
53E
  5
545
331
53F
  5
546
331
565
  5
56B
331
566
  5
56C
331
567
  5
56D
331
568
  5
56E
331
569
  5
571
331
56A
  5
572
331
56B
  5
573
331
56C
  5
574
331
56D
  5
575
331
56E
  5
576
331
56F
  5
578
331
570
  5
57A
331
571
  5
57B
331
572
  5
57C
331
573
  5
57D
331
574
  5
57E
331
58E
  5
596
331
58F
  5
597
331
590
  5
598
331
591
  5
599
331
592
  5
59A
331
593
  5
59B
331
594
  5
59C
331
595
  5
59D
331
596
  5
59E
331
597
  5
59F
331
598
  5
5A1
331
599
  5
5A2
331
59A
  5
5A3
331
59B
  5
5A4
331
59C
  5
5A5
331
59D
  5
5A6
331
59E
  5
5A8
331
59F
  5
5AA
331
5A5
  5
5AD
331
5A6
  5
5AE
331
5A8
  5
5AF
331
5AA
  5
5B0
331
5AB
  5
5B1
331
5AC
  5
5B2
331
5AD
  5
5B3
331
5AE
  5
5B4
331
5AF
  5
5B5
331
5B0
  5
5B6
331
5B1
  5
5B7
331
5B2
  5
5B8
331
5B3
  5
5B9
331
5B4
  5
5BA
331
5B5
  5
5BB
331
5B6
  5
5BC
331
5B7
  5
5BD
331
5B8
  5
5BE
331
5B9
  5
5BF
331
5BA
  5
5C0
331
5BB
  5
5C1
331
5BC
  5
5C2
331
5BD
  5
5C3
331
5BE
  5
5C4
331
5BF
  5
5C5
331
5C0
  5
5C6
331
5C1
  5
5C7
331
5C2
  5
5C8
331
5C3
  5
5C9
331
5C4
  5
5CD
331
5C5
  5
5CE
331
5C6
  5
5CF
331
5C7
  5
5D0
331
5C8
  5
5D1
331
5C9
  5
5D2
331
5FA
  5
5FB
331
607
  5
608
331
608
  5
609
331
60B
  5
60C
331
60C
  5
60D
331
60D
  5
60E
331
60E
  5
60F
331
60F
  5
610
331
610
  5
611
331
611
  5
612
331
612
  5
613
331
613
  5
614
331
614
  5
615
331
615
  5
616
331
617
  5
618
331
618
  5
619
331
619
  5
61A
331
61A
  5
61B
331
61B
  5
61C
331
61C
  5
61D
331
61D
  5
61E
331
61E
  5
61F
331
61F
  5
2E9
  0
LAYOUT
  5
23
102
{ACAD_REACTORS
330
24
102
}
102
{ACAD_XDICTIONARY
360
25
102
}
330
24
100
AcDbPlotSettings
  1

  2
Bullzip PDF Printer.pc3
  4
A3
  6

 40
0.2
 41
0.0
 42
0.0
 43
0.0
 44
420.2
 45
297.1
 46
25.0
 47
12.0
 48
79.99999984133319
 49
0.0
140
1607.999996341334
141
1089.999997456667
142
1.0
143
4.0
 70
 11936
 72
     1
 73
     0
 74
     4
  7
monochrome.ctb
 75
    18
147
0.25
148
-79.99999984133319
149
0.0
100
AcDbLayout
  1
Model
 70
     1
 71
     0
 10
0.0
 20
0.0
 11
12.0
 21
9.0
 12
0.0
 22
0.0
 32
0.0
 14
108.9242568596394
 24
7.274558931430192
 34
0.0
 15
1420.311794302164
 25
1272.490730492063
 35
0.0
146
0.0
 13
0.0
 23
0.0
 33
0.0
 16
1.0
 26
0.0
 36
0.0
 17
0.0
 27
1.0
 37
0.0
 76
     0
330
1B
331
35
1001
ACAD_PSEXT
1000
Bullzip PDF Printer.pc3
1000
Bullzip PDF Printer
1000
BULLZIP
1000
Bullzip PDF Printer 10.1.0.1871
1070
     0
  0
LAYOUT
  5
2B
102
{ACAD_REACTORS
330
24
102
}
330
24
100
AcDbPlotSettings
  1

  2
SR-LP8000S!1
  4

  6

 40
0.0
 41
0.0
 42
0.0
 43
0.0
 44
0.0
 45
0.0
 46
0.0
 47
0.0
 48
0.0
 49
0.0
140
0.0
141
0.0
142
1.0
143
1.0
 70
   688
 72
     0
 73
     0
 74
     5
  7
monochrome.ctb
 75
    16
147
1.0
148
0.0
149
0.0
100
AcDbLayout
  1
ﾚｲｱｳﾄ1
 70
     1
 71
     1
 10
0.0
 20
0.0
 11
12.0
 21
9.0
 12
0.0
 22
0.0
 32
0.0
 14
1.000000000000000E+20
 24
1.000000000000000E+20
 34
1.000000000000000E+20
 15
-1.000000000000000E+20
 25
-1.000000000000000E+20
 35
-1.000000000000000E+20
146
0.0
 13
0.0
 23
0.0
 33
0.0
 16
1.0
 26
0.0
 36
0.0
 17
0.0
 27
1.0
 37
0.0
 76
     0
330
28
  0
MATERIAL
  5
5B
102
{ACAD_REACTORS
330
B
102
}
102
{ACAD_XDICTIONARY
360
638
102
}
330
B
100
AcDbMaterial
  1
ByBlock
 72
     0
 73
     2
 43
0.0208333333333333
 43
0.0
 43
0.0
 43
0.0
 43
0.0
 43
0.0208333333333333
 43
0.0
 43
0.0
 43
0.0
 43
0.0
 43
1.0
 43
0.0
 43
0.0
 43
0.0
 43
0.0
 43
1.0
 77
     0
 78
     2
 47
0.0208333333333333
 47
0.0
 47
0.0
 47
0.0
 47
0.0
 47
0.0208333333333333
 47
0.0
 47
0.0
 47
0.0
 47
0.0
 47
1.0
 47
0.0
 47
0.0
 47
0.0
 47
0.0
 47
1.0
171
     0
172
     2
 49
0.0208333333333333
 49
0.0
 49
0.0
 49
0.0
 49
0.0
 49
0.0208333333333333
 49
0.0
 49
0.0
 49
0.0
 49
0.0
 49
1.0
 49
0.0
 49
0.0
 49
0.0
 49
0.0
 49
1.0
175
     0
176
     2
142
0.0208333333333333
142
0.0
142
0.0
142
0.0
142
0.0
142
0.0208333333333333
142
0.0
142
0.0
142
0.0
142
0.0
142
1.0
142
0.0
142
0.0
142
0.0
142
0.0
142
1.0
179
     0
270
     2
144
0.0208333333333333
144
0.0
144
0.0
144
0.0
144
0.0
144
0.0208333333333333
144
0.0
144
0.0
144
0.0
144
0.0
144
1.0
144
0.0
144
0.0
144
0.0
144
0.0
144
1.0
274
     2
147
0.0208333333333333
147
0.0
147
0.0
147
0.0
147
0.0
147
0.0208333333333333
147
0.0
147
0.0
147
0.0
147
0.0
147
1.0
147
0.0
147
0.0
147
0.0
147
0.0
147
1.0
  0
MATERIAL
  5
14
102
{ACAD_REACTORS
330
B
102
}
102
{ACAD_XDICTIONARY
360
634
102
}
330
B
100
AcDbMaterial
  1
ByLayer
 72
     0
 73
     2
 43
0.0208333333333333
 43
0.0
 43
0.0
 43
0.0
 43
0.0
 43
0.0208333333333333
 43
0.0
 43
0.0
 43
0.0
 43
0.0
 43
1.0
 43
0.0
 43
0.0
 43
0.0
 43
0.0
 43
1.0
 77
     0
 78
     2
 47
0.0208333333333333
 47
0.0
 47
0.0
 47
0.0
 47
0.0
 47
0.0208333333333333
 47
0.0
 47
0.0
 47
0.0
 47
0.0
 47
1.0
 47
0.0
 47
0.0
 47
0.0
 47
0.0
 47
1.0
171
     0
172
     2
 49
0.0208333333333333
 49
0.0
 49
0.0
 49
0.0
 49
0.0
 49
0.0208333333333333
 49
0.0
 49
0.0
 49
0.0
 49
0.0
 49
1.0
 49
0.0
 49
0.0
 49
0.0
 49
0.0
 49
1.0
175
     0
176
     2
142
0.0208333333333333
142
0.0
142
0.0
142
0.0
142
0.0
142
0.0208333333333333
142
0.0
142
0.0
142
0.0
142
0.0
142
1.0
142
0.0
142
0.0
142
0.0
142
0.0
142
1.0
179
     0
270
     2
144
0.0208333333333333
144
0.0
144
0.0
144
0.0
144
0.0
144
0.0208333333333333
144
0.0
144
0.0
144
0.0
144
0.0
144
1.0
144
0.0
144
0.0
144
0.0
144
0.0
144
1.0
274
     2
147
0.0208333333333333
147
0.0
147
0.0
147
0.0
147
0.0
147
0.0208333333333333
147
0.0
147
0.0
147
0.0
147
0.0
147
1.0
147
0.0
147
0.0
147
0.0
147
0.0
147
1.0
  0
MATERIAL
  5
A
102
{ACAD_REACTORS
330
B
102
}
102
{ACAD_XDICTIONARY
360
636
102
}
330
B
100
AcDbMaterial
  1
Global
 72
     0
 73
     2
 43
0.0208333333333333
 43
0.0
 43
0.0
 43
0.0
 43
0.0
 43
0.0208333333333333
 43
0.0
 43
0.0
 43
0.0
 43
0.0
 43
1.0
 43
0.0
 43
0.0
 43
0.0
 43
0.0
 43
1.0
 77
     0
 78
     2
 47
0.0208333333333333
 47
0.0
 47
0.0
 47
0.0
 47
0.0
 47
0.0208333333333333
 47
0.0
 47
0.0
 47
0.0
 47
0.0
 47
1.0
 47
0.0
 47
0.0
 47
0.0
 47
0.0
 47
1.0
171
     0
172
     2
 49
0.0208333333333333
 49
0.0
 49
0.0
 49
0.0
 49
0.0
 49
0.0208333333333333
 49
0.0
 49
0.0
 49
0.0
 49
0.0
 49
1.0
 49
0.0
 49
0.0
 49
0.0
 49
0.0
 49
1.0
175
     0
176
     2
142
0.0208333333333333
142
0.0
142
0.0
142
0.0
142
0.0
142
0.0208333333333333
142
0.0
142
0.0
142
0.0
142
0.0
142
1.0
142
0.0
142
0.0
142
0.0
142
0.0
142
1.0
179
     0
270
     2
144
0.0208333333333333
144
0.0
144
0.0
144
0.0
144
0.0
144
0.0208333333333333
144
0.0
144
0.0
144
0.0
144
0.0
144
1.0
144
0.0
144
0.0
144
0.0
144
0.0
144
1.0
274
     2
147
0.0208333333333333
147
0.0
147
0.0
147
0.0
147
0.0
147
0.0208333333333333
147
0.0
147
0.0
147
0.0
147
0.0
147
1.0
147
0.0
147
0.0
147
0.0
147
0.0
147
1.0
1001
ACAD
1070
    -1
1070
     3
1070
     0
1000

1071
        0
  0
MLEADERSTYLE
  5
5EE
102
{ACAD_REACTORS
330
54B
102
}
102
{ACAD_XDICTIONARY
360
66A
102
}
330
54B
100
AcDbMLeaderStyle
170
     2
171
     1
172
     0
 90
        2
 40
0.0
 41
0.0
173
     1
 91
-1056964608
340
11
 92
       -2
290
     1
 42
0.09
291
     1
 43
0.36
  3
Standard
341
0
 44
0.18
300

342
12
174
     1
178
     6
175
     1
176
     0
 93
-1056964608
 45
0.18
292
     0
297
     0
 46
0.18
343
0
 94
-1056964608
 47
1.0
 49
1.0
140
1.0
293
     1
141
0.0
294
     1
177
     0
142
1.0
295
     0
296
     0
143
0.125
1001
ACAD_MLEADERVER
1070
     2
  0
MLINESTYLE
  5
18
102
{ACAD_REACTORS
330
19
102
}
330
19
100
AcDbMlineStyle
  2
STANDARD
 70
     0
  3

 62
     0
 51
90.0
 52
90.0
 71
     2
 49
0.5
 62
   256
  6
BYLAYER
 49
-0.5
 62
   256
  6
BYLAYER
  0
ACDBPLACEHOLDER
  5
7
102
{ACAD_REACTORS
330
8
102
}
330
8
  0
SCALE
  5
5A
102
{ACAD_REACTORS
330
38
102
}
330
38
100
AcDbScale
 70
     0
300
1:1
140
1.0
141
1.0
290
     1
  0
TABLESTYLE
  5
629
102
{ACAD_REACTORS
330
54A
102
}
330
54A
100
AcDbTableStyle
  3
Standard
 70
     0
 71
     0
 40
0.06
 41
0.06
280
     0
281
     0
  7
STANDARD
140
0.18
170
     2
 62
     0
 63
   257
283
     0
274
    -2
284
     1
 64
     0
275
    -2
285
     1
 65
     0
276
    -2
286
     1
 66
     0
277
    -2
287
     1
 67
     0
278
    -2
288
     1
 68
     0
279
    -2
289
     1
 69
     0
  7
STANDARD
140
0.25
170
     5
 62
     0
 63
   257
283
     0
274
    -2
284
     1
 64
     0
275
    -2
285
     1
 65
     0
276
    -2
286
     1
 66
     0
277
    -2
287
     1
 67
     0
278
    -2
288
     1
 68
     0
279
    -2
289
     1
 69
     0
  7
STANDARD
140
0.18
170
     5
 62
     0
 63
   257
283
     0
274
    -2
284
     1
 64
     0
275
    -2
285
     1
 65
     0
276
    -2
286
     1
 66
     0
277
    -2
287
     1
 67
     0
278
    -2
288
     1
 68
     0
279
    -2
289
     1
 69
     0
  0
VISUALSTYLE
  5
553
102
{ACAD_REACTORS
330
32
102
}
102
{ACAD_XDICTIONARY
360
646
102
}
330
32
100
AcDbVisualStyle
  2
2dWireframe
 70
     4
 71
     0
 72
     2
 73
     0
 90
        0
 40
0.6
 41
30.0
 62
     5
 63
     7
 74
     1
 91
        4
 64
     7
 65
   257
 75
     1
175
     1
 42
1.0
 92
        0
 66
   257
 43
1.0
 76
     1
 77
     6
 78
     2
 67
     7
 79
     5
170
     0
171
     0
290
     0
174
     0
 93
        1
 44
0.0
173
     0
291
     0
 45
0.0
1001
ACAD
1000
AcDbSavedByObjectVersion
1070
     0
  0
VISUALSTYLE
  5
555
102
{ACAD_REACTORS
330
32
102
}
102
{ACAD_XDICTIONARY
360
64A
102
}
330
32
100
AcDbVisualStyle
  2
Basic
 70
     7
 71
     1
 72
     0
 73
     1
 90
        0
 40
0.6
 41
30.0
 62
     5
 63
     7
 74
     0
 91
        4
 64
     7
 65
   257
 75
     1
175
     1
 42
1.0
 92
        8
 66
     7
 43
1.0
 76
     1
 77
     6
 78
     2
 67
     7
 79
     5
170
     0
171
     0
290
     0
174
     0
 93
        1
 44
0.0
173
     0
291
     1
 45
0.0
1001
ACAD
1000
AcDbSavedByObjectVersion
1070
     0
  0
VISUALSTYLE
  5
558
102
{ACAD_REACTORS
330
32
102
}
102
{ACAD_XDICTIONARY
360
650
102
}
330
32
100
AcDbVisualStyle
  2
Brighten
 70
    12
 71
     2
 72
     2
 73
     0
 90
        0
 40
0.6
 41
30.0
 62
     5
 63
     7
 74
     1
 91
        4
 64
     7
 65
   257
 75
     1
175
     1
 42
1.0
 92
        8
 66
     7
 43
1.0
 76
     1
 77
     6
 78
     2
 67
     7
 79
     5
170
     0
171
     0
290
     0
174
     0
 93
        1
 44
50.0
173
     0
291
     1
 45
0.0
1001
ACAD
1000
AcDbSavedByObjectVersion
1070
     0
  0
VISUALSTYLE
  5
55C
102
{ACAD_REACTORS
330
32
102
}
102
{ACAD_XDICTIONARY
360
658
102
}
330
32
100
AcDbVisualStyle
  2
ColorChange
 70
    16
 71
     2
 72
     2
 73
     3
 90
        0
 40
0.6
 41
30.0
 62
     5
 63
     8
 74
     1
 91
        4
 64
     7
 65
   257
 75
     1
175
     1
 42
1.0
 92
        8
 66
     8
 43
1.0
 76
     1
 77
     6
 78
     2
 67
     7
 79
     5
170
     0
171
     0
290
     0
174
     0
 93
        1
 44
0.0
173
     0
291
     1
 45
0.0
1001
ACAD
1000
AcDbSavedByObjectVersion
1070
     0
  0
VISUALSTYLE
  5
556
102
{ACAD_REACTORS
330
32
102
}
102
{ACAD_XDICTIONARY
360
64C
102
}
330
32
100
AcDbVisualStyle
  2
Conceptual
 70
     9
 71
     3
 72
     2
 73
     0
 90
        0
 40
0.6
 41
30.0
 62
     5
 63
     7
 74
     2
 91
        2
 64
     7
 65
   257
 75
     1
175
     1
 42
40.0
 92
        8
 66
     7
 43
1.0
 76
     1
 77
     6
 78
     2
 67
     7
 79
     3
170
     0
171
     0
290
     0
174
     0
 93
        1
 44
0.0
173
     0
291
     0
 45
0.0
1001
ACAD
1000
AcDbSavedByObjectVersion
1070
     0
  0
VISUALSTYLE
  5
557
102
{ACAD_REACTORS
330
32
102
}
102
{ACAD_XDICTIONARY
360
64E
102
}
330
32
100
AcDbVisualStyle
  2
Dim
 70
    11
 71
     2
 72
     2
 73
     0
 90
        0
 40
0.6
 41
30.0
 62
     5
 63
     7
 74
     1
 91
        4
 64
     7
 65
   257
 75
     1
175
     1
 42
1.0
 92
        8
 66
     7
 43
1.0
 76
     1
 77
     6
 78
     2
 67
     7
 79
     5
170
     0
171
     0
290
     0
174
     0
 93
        1
 44
-50.0
173
     0
291
     1
 45
0.0
1001
ACAD
1000
AcDbSavedByObjectVersion
1070
     0
  0
VISUALSTYLE
  5
55F
102
{ACAD_REACTORS
330
32
102
}
102
{ACAD_XDICTIONARY
360
65E
102
}
330
32
100
AcDbVisualStyle
  2
EdgeColorOff
 70
    22
 71
     2
 72
     2
 73
     0
 90
        0
 40
0.6
 41
30.0
 62
     5
 63
     7
 74
     1
 91
        4
 64
     7
 65
   257
 75
     1
175
     1
 42
1.0
 92
        8
 66
     7
 43
1.0
 76
     1
 77
     6
 78
     2
 67
     7
 79
     5
170
     0
171
     0
290
     0
174
     0
 93
        1
 44
0.0
173
     0
291
     1
 45
0.0
1001
ACAD
1000
AcDbSavedByObjectVersion
1070
     0
  0
VISUALSTYLE
  5
55B
102
{ACAD_REACTORS
330
32
102
}
102
{ACAD_XDICTIONARY
360
656
102
}
330
32
100
AcDbVisualStyle
  2
Facepattern
 70
    15
 71
     2
 72
     2
 73
     0
 90
        0
 40
0.6
 41
30.0
 62
     5
 63
     7
 74
     1
 91
        4
 64
     7
 65
   257
 75
     1
175
     1
 42
1.0
 92
        8
 66
     7
 43
1.0
 76
     1
 77
     6
 78
     2
 67
     7
 79
     5
170
     0
171
     0
290
     0
174
     0
 93
        1
 44
0.0
173
     0
291
     1
 45
0.0
1001
ACAD
1000
AcDbSavedByObjectVersion
1070
     0
  0
VISUALSTYLE
  5
54F
102
{ACAD_REACTORS
330
32
102
}
102
{ACAD_XDICTIONARY
360
63E
102
}
330
32
100
AcDbVisualStyle
  2
Flat
 70
     0
 71
     2
 72
     1
 73
     1
 90
        2
 40
0.6
 41
30.0
 62
     5
 63
     7
 74
     0
 91
        4
 64
     7
 65
   257
 75
     1
175
     1
 42
1.0
 92
        8
 66
     7
 43
1.0
 76
     1
 77
     6
 78
     2
 67
     7
 79
     5
170
     0
171
     0
290
     0
174
     0
 93
       13
 44
0.0
173
     0
291
     1
 45
0.0
1001
ACAD
1000
AcDbSavedByObjectVersion
1070
     0
  0
VISUALSTYLE
  5
550
102
{ACAD_REACTORS
330
32
102
}
102
{ACAD_XDICTIONARY
360
640
102
}
330
32
100
AcDbVisualStyle
  2
FlatWithEdges
 70
     1
 71
     2
 72
     1
 73
     1
 90
        2
 40
0.6
 41
30.0
 62
     5
 63
     7
 74
     1
 91
        4
 64
     7
 65
   257
 75
     1
175
     1
 42
1.0
 92
        0
 66
   257
 43
1.0
 76
     1
 77
     6
 78
     2
 67
     7
 79
     5
170
     0
171
     0
290
     0
174
     0
 93
       13
 44
0.0
173
     0
291
     1
 45
0.0
1001
ACAD
1000
AcDbSavedByObjectVersion
1070
     0
  0
VISUALSTYLE
  5
551
102
{ACAD_REACTORS
330
32
102
}
102
{ACAD_XDICTIONARY
360
642
102
}
330
32
100
AcDbVisualStyle
  2
Gouraud
 70
     2
 71
     2
 72
     2
 73
     1
 90
        2
 40
0.6
 41
30.0
 62
     5
 63
     7
 74
     0
 91
        4
 64
     7
 65
   257
 75
     1
175
     1
 42
1.0
 92
        0
 66
     7
 43
1.0
 76
     1
 77
     6
 78
     2
 67
     7
 79
     5
170
     0
171
     0
290
     0
174
     0
 93
       13
 44
0.0
173
     0
291
     1
 45
0.0
1001
ACAD
1000
AcDbSavedByObjectVersion
1070
     0
  0
VISUALSTYLE
  5
552
102
{ACAD_REACTORS
330
32
102
}
102
{ACAD_XDICTIONARY
360
644
102
}
330
32
100
AcDbVisualStyle
  2
GouraudWithEdges
 70
     3
 71
     2
 72
     2
 73
     1
 90
        2
 40
0.6
 41
30.0
 62
     5
 63
     7
 74
     1
 91
        4
 64
     7
 65
   257
 75
     1
175
     1
 42
1.0
 92
        0
 66
   257
 43
1.0
 76
     1
 77
     6
 78
     2
 67
     7
 79
     5
170
     0
171
     0
290
     0
174
     0
 93
       13
 44
0.0
173
     0
291
     1
 45
0.0
1001
ACAD
1000
AcDbSavedByObjectVersion
1070
     0
  0
VISUALSTYLE
  5
554
102
{ACAD_REACTORS
330
32
102
}
102
{ACAD_XDICTIONARY
360
648
102
}
330
32
100
AcDbVisualStyle
  2
Hidden
 70
     6
 71
     1
 72
     2
 73
     2
 90
        0
 40
0.6
 41
30.0
 62
     5
 63
     7
 74
     2
 91
        2
 64
     7
 65
   257
 75
     2
175
     1
 42
40.0
 92
        0
 66
   257
 43
1.0
 76
     1
 77
     6
 78
     2
 67
     7
 79
     3
170
     0
171
     0
290
     0
174
     0
 93
        1
 44
0.0
173
     0
291
     0
 45
0.0
1001
ACAD
1000
AcDbSavedByObjectVersion
1070
     0
  0
VISUALSTYLE
  5
55D
102
{ACAD_REACTORS
330
32
102
}
102
{ACAD_XDICTIONARY
360
65A
102
}
330
32
100
AcDbVisualStyle
  2
JitterOff
 70
    20
 71
     2
 72
     2
 73
     0
 90
        0
 40
0.6
 41
30.0
 62
     5
 63
     7
 74
     1
 91
        4
 64
     7
 65
   257
 75
     1
175
     1
 42
1.0
 92
       10
 66
     7
 43
1.0
 76
     1
 77
     6
 78
     2
 67
     7
 79
     5
170
     0
171
     0
290
     0
174
     0
 93
        1
 44
0.0
173
     0
291
     1
 45
0.0
1001
ACAD
1000
AcDbSavedByObjectVersion
1070
     0
  0
VISUALSTYLE
  5
55A
102
{ACAD_REACTORS
330
32
102
}
102
{ACAD_XDICTIONARY
360
654
102
}
330
32
100
AcDbVisualStyle
  2
Linepattern
 70
    14
 71
     2
 72
     2
 73
     0
 90
        0
 40
0.6
 41
30.0
 62
     5
 63
     7
 74
     1
 91
        4
 64
     7
 65
   257
 75
     7
175
     7
 42
1.0
 92
        8
 66
     7
 43
1.0
 76
     1
 77
     6
 78
     2
 67
     7
 79
     5
170
     0
171
     0
290
     0
174
     0
 93
        1
 44
0.0
173
     0
291
     1
 45
0.0
1001
ACAD
1000
AcDbSavedByObjectVersion
1070
     0
  0
VISUALSTYLE
  5
55E
102
{ACAD_REACTORS
330
32
102
}
102
{ACAD_XDICTIONARY
360
65C
102
}
330
32
100
AcDbVisualStyle
  2
OverhangOff
 70
    21
 71
     2
 72
     2
 73
     0
 90
        0
 40
0.6
 41
30.0
 62
     5
 63
     7
 74
     1
 91
        4
 64
     7
 65
   257
 75
     1
175
     1
 42
1.0
 92
        9
 66
     7
 43
1.0
 76
     1
 77
     6
 78
     2
 67
     7
 79
     5
170
     0
171
     0
290
     0
174
     0
 93
        1
 44
0.0
173
     0
291
     1
 45
0.0
1001
ACAD
1000
AcDbSavedByObjectVersion
1070
     0
  0
VISUALSTYLE
  5
33
102
{ACAD_REACTORS
330
32
102
}
102
{ACAD_XDICTIONARY
360
63A
102
}
330
32
100
AcDbVisualStyle
  2
Realistic
 70
     8
 71
     2
 72
     3
 73
     0
 90
        2
 40
0.6
 41
30.0
 62
     5
 63
     7
 74
     0
 91
        0
 64
     7
 65
   257
 75
     1
175
     1
 42
1.0
 92
        8
 66
   257
 43
1.0
 76
     1
 77
     6
 78
     2
 67
     7
 79
     3
170
     0
171
     0
290
     0
174
     0
 93
       13
 44
0.0
173
     0
291
     0
 45
0.0
1001
ACAD
1000
AcDbSavedByObjectVersion
1070
     0
  0
VISUALSTYLE
  5
564
102
{ACAD_REACTORS
330
32
102
}
102
{ACAD_XDICTIONARY
360
668
102
}
330
32
100
AcDbVisualStyle
  2
Shaded
 70
    27
 71
     2
 72
     2
 73
     1
 90
        2
 40
0.6
 41
30.0
 62
     5
 63
     7
 74
     0
 91
        4
 64
     7
 65
   257
 75
     1
175
     1
 42
1.0
 92
        8
 66
   257
 43
1.0
 76
     1
 77
     6
 78
     2
 67
   251
 79
     3
170
     0
171
     0
290
     0
174
     0
 93
        5
 44
0.0
173
     0
291
     0
 45
0.0
1001
ACAD
1000
AcDbSavedByObjectVersion
1070
     0
  0
VISUALSTYLE
  5
563
102
{ACAD_REACTORS
330
32
102
}
102
{ACAD_XDICTIONARY
360
666
102
}
330
32
100
AcDbVisualStyle
  2
Shaded with edges
 70
    26
 71
     2
 72
     2
 73
     1
 90
        2
 40
0.6
 41
30.0
 62
     5
 63
     7
 74
     1
 91
       10
 64
     7
 65
   257
 75
     2
175
     1
 42
1.0
 92
        8
 66
   257
 43
1.0
 76
     1
 77
     6
 78
     2
 67
     7
 79
     3
170
     0
171
     0
290
     0
174
     0
 93
        5
 44
0.0
173
     0
291
     0
 45
0.0
1001
ACAD
1000
AcDbSavedByObjectVersion
1070
     0
  0
VISUALSTYLE
  5
560
102
{ACAD_REACTORS
330
32
102
}
102
{ACAD_XDICTIONARY
360
660
102
}
330
32
100
AcDbVisualStyle
  2
Shades of Gray
 70
    23
 71
     2
 72
     2
 73
     3
 90
        0
 40
0.6
 41
30.0
 62
     5
 63
     7
 74
     2
 91
        2
 64
     7
 65
     7
 75
     1
175
     1
 42
40.0
 92
        8
 66
     7
 43
1.0
 76
     1
 77
     6
 78
     2
 67
     7
 79
     3
170
     0
171
     0
290
     0
174
     0
 93
        1
 44
0.0
173
     0
291
     0
 45
0.0
1001
ACAD
1000
AcDbSavedByObjectVersion
1070
     0
  0
VISUALSTYLE
  5
561
102
{ACAD_REACTORS
330
32
102
}
102
{ACAD_XDICTIONARY
360
662
102
}
330
32
100
AcDbVisualStyle
  2
Sketchy
 70
    24
 71
     1
 72
     2
 73
     2
 90
        0
 40
0.6
 41
30.0
 62
     5
 63
     7
 74
     2
 91
        2
 64
     7
 65
     7
 75
     1
175
     1
 42
40.0
 92
       11
 66
     7
 43
1.0
 76
     1
 77
     6
 78
     2
 67
     7
 79
     6
170
     0
171
     0
290
     0
174
     0
 93
        1
 44
0.0
173
     0
291
     0
 45
0.0
1001
ACAD
1000
AcDbSavedByObjectVersion
1070
     0
  0
VISUALSTYLE
  5
559
102
{ACAD_REACTORS
330
32
102
}
102
{ACAD_XDICTIONARY
360
652
102
}
330
32
100
AcDbVisualStyle
  2
Thicken
 70
    13
 71
     2
 72
     2
 73
     0
 90
        0
 40
0.6
 41
30.0
 62
     5
 63
     7
 74
     1
 91
        4
 64
     7
 65
   257
 75
     1
175
     1
 42
1.0
 92
       12
 66
     7
 43
1.0
 76
     1
 77
     6
 78
     2
 67
     7
 79
     5
170
     0
171
     0
290
     0
174
     0
 93
        1
 44
0.0
173
     0
291
     1
 45
0.0
1001
ACAD
1000
AcDbSavedByObjectVersion
1070
     0
  0
VISUALSTYLE
  5
34
102
{ACAD_REACTORS
330
32
102
}
102
{ACAD_XDICTIONARY
360
63C
102
}
330
32
100
AcDbVisualStyle
  2
Wireframe
 70
     5
 71
     0
 72
     2
 73
     0
 90
        0
 40
0.6
 41
30.0
 62
     5
 63
     7
 74
     1
 91
        4
 64
     7
 65
   257
 75
     1
175
     1
 42
1.0
 92
        0
 66
   257
 43
1.0
 76
     1
 77
     6
 78
     2
 67
     7
 79
     3
170
     0
171
     0
290
     0
174
     0
 93
        1
 44
0.0
173
     0
291
     0
 45
0.0
1001
ACAD
1000
AcDbSavedByObjectVersion
1070
     0
  0
VISUALSTYLE
  5
562
102
{ACAD_REACTORS
330
32
102
}
102
{ACAD_XDICTIONARY
360
664
102
}
330
32
100
AcDbVisualStyle
  2
X-Ray
 70
    25
 71
     2
 72
     2
 73
     1
 90
        1
 40
0.5
 41
30.0
 62
     5
 63
     7
 74
     1
 91
        0
 64
     7
 65
   257
 75
     1
175
     1
 42
1.0
 92
        8
 66
     7
 43
1.0
 76
     1
 77
     6
 78
     2
 67
     7
 79
     3
170
     0
171
     0
290
     0
174
     0
 93
       13
 44
0.0
173
     0
291
     0
 45
0.0
1001
ACAD
1000
AcDbSavedByObjectVersion
1070
     0
  0
XRECORD
  5
62E
102
{ACAD_REACTORS
330
62D
102
}
330
62D
100
AcDbXrecord
280
     1
340
31
  0
XRECORD
  5
62F
102
{ACAD_REACTORS
330
62D
102
}
330
62D
100
AcDbXrecord
280
     1
340
B
  0
DICTIONARYVAR
  5
549
102
{ACAD_REACTORS
330
548
102
}
330
548
100
DictionaryVariables
280
     0
  1
1:1
  0
DICTIONARYVAR
  5
5F0
102
{ACAD_REACTORS
330
548
102
}
330
548
100
DictionaryVariables
280
     0
  1
Standard
  0
DICTIONARYVAR
  5
62A
102
{ACAD_REACTORS
330
548
102
}
330
548
100
DictionaryVariables
280
     0
  1
Standard
  0
DICTIONARYVAR
  5
62B
102
{ACAD_REACTORS
330
548
102
}
330
548
100
DictionaryVariables
280
     0
  1
0
  0
DICTIONARYVAR
  5
62C
102
{ACAD_REACTORS
330
548
102
}
330
548
100
DictionaryVariables
280
     0
  1
1
  0
DICTIONARYVAR
  5
633
102
{ACAD_REACTORS
330
548
102
}
330
548
100
DictionaryVariables
280
     0
  1
1
  0
DICTIONARYVAR
  5
54C
102
{ACAD_REACTORS
330
548
102
}
330
548
100
DictionaryVariables
280
     0
  1
0
  0
DICTIONARY
  5
25
330
23
100
AcDbDictionary
280
     1
281
     1
  3
ADSK_XREC_LAYOUTTHUMBNAIL
360
26
  0
DICTIONARY
  5
638
330
5B
100
AcDbDictionary
280
     1
281
     1
  3
ACAD_XREC_ROUNDTRIP
360
639
  0
DICTIONARY
  5
634
330
14
100
AcDbDictionary
280
     1
281
     1
  3
ACAD_XREC_ROUNDTRIP
360
635
  0
DICTIONARY
  5
636
330
A
100
AcDbDictionary
280
     1
281
     1
  3
ACAD_XREC_ROUNDTRIP
360
637
  0
DICTIONARY
  5
66A
330
5EE
100
AcDbDictionary
280
     1
281
     1
  3
ACAD_XREC_ROUNDTRIP
360
66B
  0
DICTIONARY
  5
646
330
553
100
AcDbDictionary
280
     1
281
     1
  3
ACAD_XREC_ROUNDTRIP
360
647
  0
DICTIONARY
  5
64A
330
555
100
AcDbDictionary
280
     1
281
     1
  3
ACAD_XREC_ROUNDTRIP
360
64B
  0
DICTIONARY
  5
650
330
558
100
AcDbDictionary
280
     1
281
     1
  3
ACAD_XREC_ROUNDTRIP
360
651
  0
DICTIONARY
  5
658
330
55C
100
AcDbDictionary
280
     1
281
     1
  3
ACAD_XREC_ROUNDTRIP
360
659
  0
DICTIONARY
  5
64C
330
556
100
AcDbDictionary
280
     1
281
     1
  3
ACAD_XREC_ROUNDTRIP
360
64D
  0
DICTIONARY
  5
64E
330
557
100
AcDbDictionary
280
     1
281
     1
  3
ACAD_XREC_ROUNDTRIP
360
64F
  0
DICTIONARY
  5
65E
330
55F
100
AcDbDictionary
280
     1
281
     1
  3
ACAD_XREC_ROUNDTRIP
360
65F
  0
DICTIONARY
  5
656
330
55B
100
AcDbDictionary
280
     1
281
     1
  3
ACAD_XREC_ROUNDTRIP
360
657
  0
DICTIONARY
  5
63E
330
54F
100
AcDbDictionary
280
     1
281
     1
  3
ACAD_XREC_ROUNDTRIP
360
63F
  0
DICTIONARY
  5
640
330
550
100
AcDbDictionary
280
     1
281
     1
  3
ACAD_XREC_ROUNDTRIP
360
641
  0
DICTIONARY
  5
642
330
551
100
AcDbDictionary
280
     1
281
     1
  3
ACAD_XREC_ROUNDTRIP
360
643
  0
DICTIONARY
  5
644
330
552
100
AcDbDictionary
280
     1
281
     1
  3
ACAD_XREC_ROUNDTRIP
360
645
  0
DICTIONARY
  5
648
330
554
100
AcDbDictionary
280
     1
281
     1
  3
ACAD_XREC_ROUNDTRIP
360
649
  0
DICTIONARY
  5
65A
330
55D
100
AcDbDictionary
280
     1
281
     1
  3
ACAD_XREC_ROUNDTRIP
360
65B
  0
DICTIONARY
  5
654
330
55A
100
AcDbDictionary
280
     1
281
     1
  3
ACAD_XREC_ROUNDTRIP
360
655
  0
DICTIONARY
  5
65C
330
55E
100
AcDbDictionary
280
     1
281
     1
  3
ACAD_XREC_ROUNDTRIP
360
65D
  0
DICTIONARY
  5
63A
330
33
100
AcDbDictionary
280
     1
281
     1
  3
ACAD_XREC_ROUNDTRIP
360
63B
  0
DICTIONARY
  5
668
330
564
100
AcDbDictionary
280
     1
281
     1
  3
ACAD_XREC_ROUNDTRIP
360
669
  0
DICTIONARY
  5
666
330
563
100
AcDbDictionary
280
     1
281
     1
  3
ACAD_XREC_ROUNDTRIP
360
667
  0
DICTIONARY
  5
660
330
560
100
AcDbDictionary
280
     1
281
     1
  3
ACAD_XREC_ROUNDTRIP
360
661
  0
DICTIONARY
  5
662
330
561
100
AcDbDictionary
280
     1
281
     1
  3
ACAD_XREC_ROUNDTRIP
360
663
  0
DICTIONARY
  5
652
330
559
100
AcDbDictionary
280
     1
281
     1
  3
ACAD_XREC_ROUNDTRIP
360
653
  0
DICTIONARY
  5
63C
330
34
100
AcDbDictionary
280
     1
281
     1
  3
ACAD_XREC_ROUNDTRIP
360
63D
  0
DICTIONARY
  5
664
330
562
100
AcDbDictionary
280
     1
281
     1
  3
ACAD_XREC_ROUNDTRIP
360
665
  0
XRECORD
  5
26
102
{ACAD_REACTORS
330
25
102
}
330
25
100
AcDbXrecord
280
     1
310
280000000001000078000000010008000000000000780000000000000000000000010000000000003028210000000000C8C8C8000000000000000000000000000000000000000000000000000000000000000000330000006600000099000000CC000000FF00000000330000333300006633000099330000CC330000FF3300
310
0000660000336600006666000099660000CC660000FF66000000990000339900006699000099990000CC990000FF99000000CC000033CC000066CC000099CC0000CCCC0000FFCC000000FF000033FF000066FF000099FF0000CCFF0000FFFF000000003300330033006600330099003300CC003300FF003300003333003333
310
33006633330099333300CC333300FF33330000663300336633006666330099663300CC663300FF66330000993300339933006699330099993300CC993300FF99330000CC330033CC330066CC330099CC3300CCCC3300FFCC330000FF330033FF330066FF330099FF3300CCFF3300FFFF330000006600330066006600660099
310
006600CC006600FF00660000336600333366006633660099336600CC336600FF33660000666600336666006666660099666600CC666600FF66660000996600339966006699660099996600CC996600FF99660000CC660033CC660066CC660099CC6600CCCC6600FFCC660000FF660033FF660066FF660099FF6600CCFF6600
310
FFFF660000009900330099006600990099009900CC009900FF00990000339900333399006633990099339900CC339900FF33990000669900336699006666990099669900CC669900FF66990000999900339999006699990099999900CC999900FF99990000CC990033CC990066CC990099CC9900CCCC9900FFCC990000FF99
310
0033FF990066FF990099FF9900CCFF9900FFFF99000000CC003300CC006600CC009900CC00CC00CC00FF00CC000033CC003333CC006633CC009933CC00CC33CC00FF33CC000066CC003366CC006666CC009966CC00CC66CC00FF66CC000099CC003399CC006699CC009999CC00CC99CC00FF99CC0000CCCC0033CCCC0066CC
310
CC0099CCCC00CCCCCC00FFCCCC0000FFCC0033FFCC0066FFCC0099FFCC00CCFFCC00FFFFCC000000FF003300FF006600FF009900FF00CC00FF00FF00FF000033FF003333FF006633FF009933FF00CC33FF00FF33FF000066FF003366FF006666FF009966FF00CC66FF00FF66FF000099FF003399FF006699FF009999FF00CC
310
99FF00FF99FF0000CCFF0033CCFF0066CCFF0099CCFF00CCCCFF00FFCCFF0000FFFF0033FFFF0066FFFF0099FFFF00CCFFFF00FFFFFF00000000000D0D0D001A1A1A00282828003535350043434300505050005D5D5D006B6B6B00787878008686860093939300A1A1A100AEAEAE00BBBBBB00C9C9C900D6D6D600E4E4E400
310
F1F1F100FFFFFF000000000000000000000000000000000000000000000000000000000000000000000000000000000000000000000000000000000000000000000000000000000000000000000000000000000000000000000000000000000000000000000000000000000000000000000000000000000000000000000000
310
00000000000000000000000000000000000000000000000000000000000000000000000000000000000000000000000000000000000000000000000000000000000000000000000000000000000000000000000000000000000000000000000000000000000000000000000000000000000000000000000000000000000000
310
00000000000000000000000000000000000000000000000000000000000000000000000000000000000000000000000000000000000000000000000000000000000000000000000000000000000000000000000000000000000000000000000000000000000000000000000000000000000000000000000000000000000000
310
00000000000000000000000000000000000000000000000000000000000000000000000000000000000000000000000000000000000000000000000000000000000000000000000000000000000000000000000000000000000000000000000000000000000000000000000000000000000000000000000000000000000000
310
00000000000000000000000000000000000000000000000000000000000000000000000000000000000000000000000000000000000000000000000000000000000000000000000000000000000000000000000000000000000000000000000000000000000000000000000000000000000000000000000000000000000000
310
00000000000000000000000000000000000000000000000000000000000000000000000000000000000000000000000000000000000000000000000000000000000000000000000000000000000000000000000000000000000000000000000000000000000000000000000000000000000000000000000000000000000000
310
00000000000000000000000000000000000000000000000000000000000000000000000000000000000000000000000000000000000000000000000000000000000000000000000000000000000000000000000000000000000000000000000000000000000000000000000000000000000000000000000000000000000000
310
00000000000000000000000000000000000000000000000000000000000000000000000000000000000000000000000000000000000000000000000000000000000000000000000000000000000000000000000000000000000000000000000000000000000000000000000000000000000000000000000000000000000000
310
00000000000000000000000000000000000000000000000000000000000000000000000000000000000000000000000000000000000000000000000000000000000000000000000000000000000000000000000000000000000000000000000000000000000000000000000000000000000000000000000000000000000000
310
00000000000000000000000000000000000000000000000000000000000000000000000000000000000000000000000000000000000000000000000000000000000000000000000000000000000000000000000000000000000000000000000000000000000000000000000000000000000000000000000000000000000000
310
00000000000000000000000000000000000000000000000000000000000000000000000000000000000000000000000000000000000000000000000000000000000000000000000000000000000000000000000000000000000000000000000000000000000000000000000000000000000000000000000000000000000000
310
00000000000000000000000000000000000000000000000000000000000000000000000000000000000000000000000000000000000000000000000000000000000000000000000000000000000000000000000000000000000000000000000028282828282828282828282828282828282800000000000000000000000000
310
00000000000000000000000000000000000000000000000000000000000000000000000000000000000000000000000000000000000000000000000000000000000000000000000000000000000000000000000000000000000000000000000000000000000000000000000000000000000000000000000000000000000000
310
00000000000000000000000000000000000000000000000000000000000000000000000000000000000000000000000000000000000000000000000000000000000000000000000000000000000000000028282828282828282828282828282828002828282828282828282828282828282800280000000000000000000000
310
00000000000000000000000000000000000000000000000000000000000000000000000000000000000000000000000000000000000000000000000000000000000000000000000000000000000000000000000000000000000000000000000000000000000000000000000000000000000000000000000000000000000000
310
0000000000000000000000000000000000000000000000000000000000000000000000000000000000000000000000000000000000000000000000000000000000000000000000000000000000000000000000280000F5F500F500F500F5F500000028002800F5F50000F50000F5F50000F500280028000000000000000000
310
00000000000000000000000000000000000000000000000000000000000000000000000000000000000000000000000000000000000000000000000000000000000000000000000000000000000000000000000000000000000000000000000000000000000000000000000000000000000000000000000000000000000000
310
00000000000000000000000000000000000000000000000000000000000000000000000000000000000000000000000000000000000000000000000000000000000000000000000000000000000000000000000000280000F5F50000F50000F5F500000028002800F5F50000F5F500F5F50000F5F528002800000000000000
310
00000000000000000000000000000000000000000000000000000000000000000000000000000000000000000000000000000000000000000000000000000000000000000000000000000000000000000000000000000000000000000000000000000000000000000000000000000000000000000000000000000000000000
310
00000000000000000000000000000000000000000000000000000000000000000000000000000000000000000000000000000000000000000000000000000000000000000000000000000000000000000000000000000028282828282828282828282828282828002828F5282828F5282828F52828F5282800280000000000
310
00000000000000000000000000000000000000000000000000000000000000000000000000000000000000000000000000000000000000000000000000000000000000000000000000000000000000000000000000000000000000000000000000000000000000000000000000000000000000000000000000000000000000
310
00000000000000000000000000000000000000000000000000000000000000000000000000000000000000000000000000000000000000000000000000000000000000000000000000000000000000000000000000000000000000000000000000000000000000000000000000000000000000000000000000000000000000
310
00000000000000000000000000000000000000000000000000000000000000000000000000000000000000000000000000000000000000000000000000000000000000000000000000000000000000000000000000000000000000000000000000000000000000000000000000000000000000000000000000000000000000
310
00000000000000000000000000000000000000000000000000000000000000000000000000000000000000000000000000000000000000000000000000000000000000000000000000000000000000000000000000000000000000000000000000000000000000000000000000000000000000000000000000000000000000
310
00000000000000000000000000000000000000000000000000000000000000000000000000000000000000000000000000000000000000000000000000000000000000000000000000000000000000000000000000000000000000000000000000000000000000000000000000000000000000000000000000000000000000
310
00000000000000000000000000000000000000000000000000000000000000000000000000000000000000000000000000000000000000000000000000000000000000000000000000000000000000000000000000000000000000000000000000000000000000000000000000000000000000000000000000000000000000
310
00000000000000000000000000000000000000000000000000000000000000000000000000000000000000000000000000000000000000000000000000000000000000000000000000000000000000000000000000000000000000000000000000000000000000000000000000000000000000000000000000000000000000
310
00000000000000000000000000000000000000F0F0F0F0F0F0F0F0F0F0F0F0F0F0F0F0F0F0F0F0F0F0F0F0F0F0F0F0F0F0F0F0F0F0F0F0F0F0F0F0F0F0F0F0F0F0F0F0F0F0F0F0F0F0F0F0F0F0F0BEBEBEF0F0F0F0F0F0F0F0F0F0F0F0F0F0F0F0F0F0F0F0F0F0F0F0F0F0F0BEF0F0F0F0F0F0F0F0F0F0F0F0F0F0F0BEF028
310
28F0F000000000000000000000000000000000000000000000000000000000000000000000000000000000000000000000000000000000000000000000000000000000000000000000000000000000000000000000000000000000000000000000000000000000000000000000000000000000000000000000000000000000
310
000000000000000000000000000000000000000000F0000000000000000000000000000000000000000000000000000000000000000000000000000000000000000000000000000000F000000000F000BEBEBEF0F0F0F0F0F0F0F0F0F0F0F0F0F000F0F0F0F0F0F0F0F0F0F00000BE002828282828282828282828282828BE
310
00282800F00000000000000000000000000000000000000000000000000000000000000000000000000000000000000000000000000000000000000000000000000000000000000000000000000000000000000000000000000000000000000000000000000000000000000000000000000000000000000000000000000000
310
0000000000000000000000000000000000000000000000F0000000000000000000000000000000000000000000000000000000000000000000000000000000000000000000000000000000F000BEBEBEF000BEBEBEF0F0F0F0F0F0F0F0F0F0F0F0F0F0F0F0F0F0F0F0F000F0F0F00000BEBEBE000000000000000000000000
310
00BEBEBEBEBEBE000000000000000000000000000000000000000000000000000000000000000000000000000000000000000000000000000000000000000000000000000000000000000000000000000000000000000000000000000000000000000000000000000000000000000000000000000000000000000000000000
310
00000000000000000000000000000000000000000000000000F000000000000000000000002DDCDC2DDCDCDCDCDCDC2D00000000002DDCDC2DDCDCDCDCDCDC2D00000000000000000000000000F000BEBEBEF0F0F0F0F0F0F0F0F0BEF0F0F0F0F0BEF0F0F0F0BEF0F0F0F0F0BEF0F0F0F0F0BEBEBEF0F0F0F0F0F0F0F0F0F0
310
F0F0F0BEBEBEBEBEF000000000000000000000000000000000000000000000000000000000000000000000000000000000000000000000000000000000000000000000000000000000000000000000000000000000000000000000000000000000000000000000000000000000000000000000000000000000000000000000
310
000000000000000000000000000000000000000000000000000000F0000000000000000000000000DCDC00DCDCDCDCDCDC00000000000000DCDC00DCDCDCDCDCDC0000000000000000000000000000F000000000F0BEBEBEBEBEBEBE00BEBE00000000BE00000000BE0000000000BE0000000000BE00000000002828282828
310
28282800000000000000F00000000000000000000000000000000000000000000000000000000000000000000000000000000000000000000000000000000000000000000000000000000000000000000000000000000000000000000000000000000000000000000000000000000000000000000000000000000000000000
310
0000000000000000000000000000000000000000000000000000000000F000000000000000000000000000000000DCDC000000000000002D000000000000DCDC0000000000000000000000000000000000F0F0F0F0F0F0BEBEBEBEBEBEBEBEBE00BEBE0000BEBEBEBEBEBEBEBEBEBEBEBEBEBEBEBEBEBEBEBE000000002828
310
282828282800000000000000F0000000000000000000000000000000000000000000000000000000000000000000000000000000000000000000000000000000000000000000000000000000000000000000000000000000000000000000000000000000000000000000000000000000000000000000000000000000000000
310
00000000000000000000000000000000000000000000000000000000000000F000000000000000000000DC0000000000000000000000000000DCDC000000000000000000000000000000000000000000000000F0BEBEBEBEF0BEBEBEBEBEBEBEBEBE000000BE00BEBEBEBEBEBE00BEBEBEBEBE00BEBEBE00BEBEBE00000028
310
2800282828282800000000000000F000000000000000000000000000000000000000000000000000000000000000000000000000000000000000000000000000000000000000000000000000000000000000000000000000000000000000000000000000000000000000000000000000000000000000000000000000000000
310
000000000000000000000000000000000000000000000000000000000000000000F000000000000000000000DCDCDC000000000000000000000000DCDCDC2D000000BE000000000000000000000000000000000000F0BEBEBEBEF0BE0000BE00F0F0F0BE00000000BEBEBEBEBEBEBE00BEBEBEBEBE00BEBEBE00BEBEBEBEBE
310
BEBEBEBEBEBEBEBEBEBEBEBEBEBEBEBEF00000000000000000000000000000000000000000000000000000000000000000000000000000000000000000000000000000000000000000000000000000000000000000000000000000000000000000000000000000000000000000000000000000000000000000000000000000
310
0000000000000000000000000000000000000000000000000000000000000000000000F00000000000000000000000DCDC2D2D0000BE0000000000000000DCDCDCDC282828282800000000000000000000000000000000F0BEBEBEBEBEBEF0F0F0BEBEBEBEBEBEBEBEBEBEBEBEBEBEBEBEBEBEBEBEBEBEBEBEBEBEBEBEBEBE
310
002828282828282828282828282828282828F0000000000000000000000000000000000000000000000000000000000000000000000000000000000000000000000000000000000000000000000000000000000000000000000000000000000000000000000000000000000000000000000000000000000000000000000000
310
00000000000000000000000000000000000000000000000000000000000000000000000000F0000000000000000000000000DCDCDC2D2828280000000000000000DCDCDC2D2DBE002800000000000000000000000000000000F0BEBEBEBEF0BE00F0F0BEBEBEBEBE00BEBEBE00BEBEBEBEBEBE00BEBEBEBEBE00BEBEBEBEBE
310
BEBE002828282800000000282828000000002800F000000000000000000000000000000000000000000000000000000000000000000000000000000000000000000000000000000000000000000000000000000000000000000000000000000000000000000000000000000000000000000000000000000000000000000000
310
000000000000000000000000000000000000000000000000000000000000000000000000000000F0000000000000000000000000002D00BE2DBEBEDCDC2D00000000000000BEBEBEBEBEBEBEDCDC00000000000000000000000000F0BEBEBEBEBEBEBEBEBEBEBEBEBEBEF0BEF0BEF0BEBEBEBEBEBEBEBEBEF0F0BEF0BEBEBE
310
BEBEBEBEBEBEBEBEBEF0F0F0F0F0F0F0F0F0F0F0F0F0F00000000000000000000000000000000000000000000000000000000000000000000000000000000000000000000000000000000000000000000000000000000000000000000000000000000000000000000000000000000000000000000000000000000000000000
310
0000000000000000000000000000000000000000000000000000000000000000000000000000000000F0000000000000000000000000002D0028002D2DDCDC2D0000000000002D002800BE2D2D28DCDC00000000000000000000000000F0F0F0F0F0F0BEBEBEF0BEBEBEBEBEBEF0F0BEF0F0F0BEBEF0F0BEBEF0F0F0BEF0BE
310
BEBEF0BEBEBEBEBEBEBEBEF0F0F0F0F0F0F0F0F0F0F0F0F0F0000000000000000000000000000000000000000000000000000000000000000000000000000000000000000000000000000000000000000000000000000000000000000000000000000000000000000000000000000000000000000000000000000000000000
310
00000000000000000000000000000000000000000000000000000000000000000000000000000000000000F0000000000000000000000000002D2D2D28282D2D2D2D0000000000002D2D2D2828282D2D2D2D2D0000000000000000000000000000000000F00000BE000000000000000000BE000000000000000000000000BE
310
0000000000BE0000BE000000BE00000000000000000000000000F000000000000000000000000000000000000000000000000000000000000000000000000000000000000000000000000000000000000000000000000000000000000000000000000000000000000000000000000000000000000000000000000000000000
310
000000000000000000000000000000000000000000000000000000000000000000000000000000000000000000F0000000000000000000000000DCDC00002D2D0000002D0000000000002D2D2D2828282D2D2D2D2D0000000000000000000000000000000000F0BEBEBEBEBEBEBEBEBEBEBEBEBEBEBEBEBEBEBEBEBEBEBEBE
310
BEBEBEBEBEBEBEBEBEBEBEBEBEBEBEBEBEBEBEBEBEBEBEBEBEBEBEBEF00000000000000000000000000000000000000000000000000000000000000000000000000000000000000000000000000000000000000000000000000000000000000000000000000000000000000000000000000000000000000000000000000000
310
0000000000000000000000000000000000000000000000000000000000000000000000000000000000000000000000F0000000000000000000000000DCDC00002D2D000000000000000000DC2D00002DBE2D0000002D0000000000000000000000000000000000000000000000000000000000000000000000000000000000
310
000000000000000000000000000000000000000000000000000000000000F0000000000000000000000000000000000000000000000000000000000000000000000000000000000000000000000000000000000000000000000000000000000000000000000000000000000000000000000000000000000000000000000000
310
00000000000000000000000000000000000000000000000000000000000000000000000000000000000000000000000000F0000000000000000000000000DC2D002D2D2D2D2D00000000000000002D00002D002D00000000000000000000000000000000000000000000000000000000000000000000000000000000000000
310
0000000000000000000000000000000000000000000000000000000000000000F000000000000000000000000000000000000000000000000000000000000000000000000000000000000000000000000000000000000000000000000000000000000000000000000000000000000000000000000000000000000000000000
310
000000000000000000000000000000000000000000000000000000000000000000000000000000000000000000000000000000F0000000000000000000000000000000000000DCDC000000000000000000002D2D2D2DDCDC000000000000000000000000000000000000000000000000000000000000000000000000000000
310
00000000000000000000000000000000000000000000000000000000000000000000F00000000000000000000000000000000000000000000000000000000000000000000000000000000000000000000000000000000000000000000000000000000000000000000000000000000000000000000000000000000000000000
310
0000000000000000000000000000000000000000000000000000000000000000000000000000000000000000000000000000000000F000000000000000000000000000000000000000000000000000000000000000000000DCDC00000000000000000000000000000000000000000000000000000000000000000000000000
310
000000000000000000000000000000000000000000000000000000000000000000000000F0000000000000000000000000000000000000000000000000000000000000000000000000000000000000000000000000000000000000000000000000000000000000000000000000000000000000000000000000000000000000
310
00000000000000000000000000000000000000000000000000000000000000000000000000000000000000000000000000000000000000F00000000000000000000000000000000000000000000000000000000000000000000000000000000000000000000000000000000000000000000000000000000000000000000000
310
0000000000000000000000000000000000000000000000000000000000000000000000000000F000000000000000000000000000000000000000000000000000000000000000000000000000000000000000000000000000000000000000000000000000000000000000000000000000000000000000000000000000000000
310
000000000000000000000000000000000000000000000000000000000000000000000000000000000000000000000000000000000000000000F0000000000000000000000000000000000000000000000000000000000000000000000000000000000000000000000000000000000000000000000000000000000000000000
310
00000000000000000000000000000000000000000000000000000000000000000000000000000000F00000000000000000000000000000000000000000000000000000000000000000000000000000000000000000000000000000000000000000000000000000000000000000000000000000000000000000000000000000
310
0000000000000000000000000000000000000000000000000000000000000000000000000000000000000000000000000000000000000000000000F00000000000002D2D2D2D2D2D2D2D2D2D2D2D2D2D2D2D2D2D2D2D2D2D2D2D2D2D2D2D2D2D2D2D2D2D000000000000000000000000000000000000000000002D2D2D2D2D
310
2D2D2D2D2D2D2D2D2D2D2D2D2D2D2D2D2D2D2D2D2D2D2D2D2D0000000000000000000000000000000000F0000000000000000000000000000000000000000000000000000000000000000000000000000000000000000000000000000000000000000000000000000000000000000000000000000000000000000000000000
310
00000000000000000000000000000000000000000000000000000000000000000000000000000000000000000000000000000000000000000000000000F00000000000002D0000000000000000000000000000DCDCDC0000000000000000000000000000002D000000000000000000000000000000000000000000002D0000
310
00000000000000000000DCDCDCDC0000000000000000000000002D0000000000000000000000000000000000F000000000000000000000000000000000000000000000000000000000000000000000000000000000000000000000000000000000000000000000000000000000000000000000000000000000000000000000
310
000000000000000000000000000000000000000000000000000000000000000000000000000000000000000000000000000000000000000000000000000000F00000000000002D000000000000000000000000000000DCDC0000000000000000000000000000002D000000000000000000000000000000000000000000002D
310
00000000000000000000000000DCDC000000000000000000000000002D0000000000000000000000000000000000F00000000000000000000000000000000000000000000000000000000000000000000000000000000000000000000000000000000000000000000000000000000000000000000000000000000000000000
310
0000000000000000000000000000000000000000000000000000000000000000000000000000000000000000000000000000000000000000000000000000000000F00000000000002D00002D2D2D2D2D2D2D2D2D2D2D2DDCDCDC2D2D2D2D2D2D2D2D2D2D2D2D2D00002D000000000000000000000000000000000000000000
310
002D0000002D2D2D2D2D2D2D2D2DDCDCDC2D2D2D2D2D2D2D2D2D2D0000002D0000000000000000000000000000000000F0000000000000000000000000000000000000000000000000000000000000000000000000000000000000000000000000000000000000000000000000000000000000000000000000000000000000
310
00000000000000000000000000000000000000000000000000000000000000000000000000000000000000000000000000000000000000000000000000000000000000F00000000000002D00002D0000000000000000000000DCDCDC0000000000000000000000002D00002D00000000000000000000000000000000000000
310
0000002D0000002D0000000000000000DCDCDCDC00000000000000002D0000002D0000000000000000000000000000000000F000000000000000000000000000000000000000000000000000000000000000000000000000000000000000000000000000000000000000000000000000000000000000000000000000000000
310
000000000000000000000000000000000000000000000000000000000000000000000000000000000000000000000000000000000000000000000000000000000000000000F00000000000002D00002D00000000000000000000000000000000000000000000000000002D00002D0000000000000000000000000000000000
310
00000000002D0000002D00000000000000000000000000000000000000002D0000002D0000000000000000000000000000000000F00000000000000000000000000000000000000000000000000000000000000000000000000000000000000000000000000000000000000000000000000000000000000000000000000000
310
0000000000000000000000000000000000000000000000000000000000000000000000000000000000000000000000000000000000000000000000000000000000000000000000F00000000000002D00002D00000000000000000000000000000000000000000000000000002D00002D2D2D2D2D2D2D2D0000000000000000
310
000000000000002D0000002D00000000000000000000000000000000000000002D0000002D0000000000000000000000000000000000F0000000000000000000000000000000000000000000000000000000000000000000000000000000000000000000000000000000000000000000000000000000000000000000000000
310
00000000000000000000000000000000000000000000000000000000000000000000000000000000000000000000000000000000000000000000000000000000000000000000000000F00000000000002D00002D00000000000000000000000000000000000000000000000000002D00002D00DCDCDCDCDC00000000000000
310
0000000000000000002D0000002D00000000000000000000000000000000000000002D0000002D0000000000000000000000000000000000F000000000000000000000000000000000000000000000000000000000000000000000000000000000000000000000000000000000000000000000000000000000000000000000
310
000000000000000000000000000000000000000000000000000000000000000000000000000000000000000000000000000000000000000000000000000000000000000000000000000000F00000000000002D00002D00000000000000000000000000000000000000000000000000002D002D2D0000000000000000000000
310
00000000000000000000002D0000002D00000000000000000000000000000000000000002D0000002D0000000000000000000000000000000000F00000000000000000000000000000000000000000000000000000000000000000000000000000000000000000000000000000000000000000000000000000000000000000
310
0000000000000000000000000000000000000000000000000000000000000000000000000000000000000000000000000000000000000000000000000000000000000000000000000000000000F00000000000002D00002D00000000000000000000000000000000000000000000000000002D002D2D000000000000000000
310
000000000000000000000000002D0000002D00000000000000000000000000000000000000002D0000002D0000000000000000000000000000000000F0000000000000000000000000000000000000000000000000000000000000000000000000000000000000000000000000000000000000000000000000000000000000
310
00000000000000000000000000000000000000000000000000000000000000000000000000000000000000000000000000000000000000000000000000000000000000000000000000000000000000F00000000000002D0000BE00000000000000000000000000000000000000000000000000002D2D002D00000000000000
310
0000000000000000000000000000002D000000BE0000000000000000000000000000000000000000BE0000002D0000000000000000000000000000000000F000000000000000000000000000000000000000000000000000000000000000000000000000000000000000000000000000000000000000000000000000000000
310
000000000000000000000000000000000000000000000000000000000000000000000000000000000000000000000000000000000000000000000000000000000000000000000000000000000000000000F0000000000000282828BE28282828282828280000000000000000000028282828282828282D2828280000000000
310
000000000000000000000000000000000028282828BE28282828000000000000BE000000000028282828BE282828282D2D2D2D2D2D2D2D2D2D2D000000000000F00000000000000000000000000000000000000000000000000000000000000000000000000000000000000000000000000000000000000000000000000000
310
0000000000000000000000000000000000000000000000000000000000000000000000000000000000000000000000000000000000000000000000000000000000000000000000000000000000000000000000F0000000000000280000BE000000000000002800000000BE00000000002800000000282828BE280028000000
310
0000000000000000000000000000000000000028000000BE00000028000000000000BE000000000028000000BE000000280000000000002D00002D00000000000000F0000000000000000000000000000000000000000000000000000000000000000000000000000000000000000000000000000000000000000000000000
310
00000000000000000000000000000000000000000000000000000000000000000000000000000000000000000000000000000000000000000000000000000000000000000000000000000000000000000000000000F0000000000000282828BE282828282828282828282828BE28282828282828282828282828BE28282800
310
00000000000000000000000000000000000000000028282828BE2828282828282828282828282828282828282828BE282828280000000000002D00002D00000000000000F000000000000000000000000000000000000000000000000000000000000000000000000000000000000000000000000000000000000000000000
310
000000000000000000000000000000000000000000000000000000000000000000000000000000000000000000000000000000000000000000000000000000000000000000000000000000000000000000000000000000F0000000000000000028BE000000280000000028282828BE28282828280000000028000000BE2800
310
000000000000000000000000000000000000000000000028000000BE0000282800282828282828282828280028280000BE000028280000000000002D00002D00000000000000F00000000000000000000000000000000000000000000000000000000000000000000000000000000000000000000000000000000000000000
310
0000000000000000000000000000000000000000000000000000000000000000000000000000000000000000000000000000000000000000000000000000000000000000000000000000000000000000000000000000000000F0000000000000000028BE000000280000000000000000BE00000000000000000028000000BE
310
28000000000000000000000000000000000000000000000000280000000000002828000000000000BE00000000002828280000000028280000000000002D00002D00000000000000F0000000000000000000000000000000000000000000000000000000000000000000000000000000000000000000000000000000000000
310
00000000000000000000000000000000000000000000000000000000000000000000000000000000000000000000000000000000000000000000000000000000000000000000000000000000000000000000000000000000000000F000000000000000002828000000280000000000000000BE000000000000000000280000
310
002828000000000000000000000000000000000000000000000000280000000000282800000000000000BE00000000000000280000002828BE0000000000DCDC00002D00000000000000F000000000000000000000000000000000000000000000000000000000000000000000000000000000000000000000000000000000
310
000000000000000000000000000000000000000000000000000000000000000000000000000000000000000000000000000000000000000000000000000000000000000000000000000000000000000000000000000000000000000000F000000000000000282828282828282828282828282828BE28282828282828282828
310
2828282828280000000000000000000000000000000000002828282828282828282828280000000000000000BE00000000000000280000002800280000000000DCDC00002D00000000000000F00000000000000000000000000000000000000000000000000000000000000000000000000000000000000000000000000000
310
0000000000000000000000000000000000000000000000000000000000000000000000000000000000000000000000000000000000000000000000000000000000000000000000000000000000000000000000000000000000000000000000F000000000000000282828000000000000000000000000BE0000000000000000
310
0000000000282828000000000000000000000000000000000028BE2828BEBEBEBEBE282800000000000000000000BE00000000000000282800002800280000000000DCDC00002D00000000000000F0000000000000000000000000000000000000000000000000000000000000000000000000000000000000000000000000
310
00000000000000000000000000000000000000000000000000000000000000000000000000000000000000000000000000000000000000000000000000000000000000000000000000000000000000000000000000000000000000000000000000F0000000000000BE28BEBEBE0000000000000000000000BE000000000000
310
000000000000BEBEBE2800000000000000000000000000000000002828BE280000BE0000282828000000000000000000BE00000000000000002800282800280000000000002D00002D00000000000000F000000000000000000000000000000000000000000000000000000000000000000000000000000000000000000000
310
000000000000000000000000000000000000000000000000000000000000000000000000000000000000000000000000000000000000000000000000000000000000000000000000000000000000000000000000000000000000000000000000000000F000000000000000282828000000000000000000000000BE00000000
310
0000000000000000002828280000000000000000000000000000000000282828BE0028BE2800BE2828280000000000000000BE00000000000000002828280000282800000000002D00002D00000000000000F00000000000000000000000000000000000000000000000000000000000000000000000000000000000000000
310
0000000000000000000000000000000000000000000000000000000000000000000000000000000000000000000000000000000000000000000000000000000000000000000000000000000000000000000000000000000000000000000000000000000000F000000000000000282828000000000000000000000000BE0000
310
0000000000000000000000282828282828282828282800000000000000000028BE00002828BE28280000BE280000000000000000BE000000000000000000000000BE282800000000002D00002D00000000000000F0000000000000000000000000000000000000000000000000000000000000000000000000000000000000
310
00000000000000000000000000000000000000000000000000000000000000000000000000000000000000000000000000000000000000000000000000000000000000000000000000000000000000000000000000000000000000000000000000000000000000F000000000000000282828000000000000000000000000BE
310
00000000000000000000000000282828280000000000002800000000000000000028BE00282828BE28282800BE280000000000000000BE00000000000000000000000000282800000000002D00002D00000000000000F000000000000000000000000000000000000000000000000000000000000000000000000000000000
310
000000000000000000000000000000000000000000000000000000000000000000000000000000000000000000000000000000000000000000000000000000000000000000000000000000000000000000000000000000000000000000000000000000000000000000F000000000000000282828BEBEBEBEBEBEBEBEBEBEBE
310
BEBEBEBEBEBEBEBEBEBEBEBEBEBEBE28282828BEBEBEBEBEBE282DDCDC2D00000000BE28BEBEBEBEBEBEBEBEBEBEBEBEBEBEBEBEBEBEBEBEBEBEBEBEBEBEBEBEBEBEBEBEBEBE282D2D2D2D2D2D2D2D002D00000000000000F00000000000000000000000000000000000000000000000000000000000000000000000000000
310
0000000000000000000000000000000000000000000000000000000000000000000000000000000000000000000000000000000000000000000000000000000000000000000000000000000000000000000000000000000000000000000000000000000000000000000000F000000000000000282828000000000000000000
310
000000BE00000000000000000000000000282828282828282828282800DCDC00000000000028BE002828282828280000BE280000000000000000BE00000000000000000000000000282D00000000002D00002D00000000000000F0000000000000000000000000000000000000000000000000000000000000000000000000
310
00000000000000000000000000000000000000000000000000000000000000000000000000000000000000000000000000000000000000000000000000000000000000000000000000000000000000000000000000000000000000000000000000000000000000000000000000F00000000000000028282800000000000000
310
0000000000BE00000000000000000000000000282828282828282828282D0000DC00000000000028BE0000282828282800BE28280000000000000000BE00000000000000000000000000282D00000000002D0000DC00000000000000F000000000000000000000000000000000000000000000000000000000000000000000
310
000000000000000000000000000000000000000000000000000000000000000000000000000000000000000000000000000000000000000000000000000000000000000000000000000000000000000000000000000000000000000000000000000000000000000000000000000000F0000000000000BE28BEBEBE00000000
310
00000000000000BE000000000000000000000000BEBEBE282D0000000000002D000000000000000000282828280000BE0000282828000000000000000000BE00000000000000000000000000282D00000000002D00DCDC00000000000000F00000000000000000000000000000000000000000000000000000000000000000
310
0000000000000000000000000000000000000000000000000000000000000000000000000000000000000000000000000000000000000000000000000000000000000000000000000000000000000000000000000000000000000000000000000000000000000000000000000000000000F0000000000000002828BE000000
310
000000BE0000000000BE000000000000BE000000000000BE28282D0000000000002D00000000000000000028BE28280000BE00BEBE2828000000000000000000BE00000000000000000000BE0000282D00000000002D00DCDC00000000000000F0000000000000000000000000000000000000000000000000000000000000
310
00000000000000000000000000000000000000000000000000000000000000000000000000000000000000000000000000000000000000000000000000000000000000000000000000000000000000000000000000000000000000000000000000000000000000000000000000000000000000F00000000000000028282828
310
2828282828BE2828282828BE282828282828BE2828282828282828282D0000000000002D0000000000000000002828282828BEBEBE28BE28282828282828282828282828282828282828282828BE2828282D00000000002D00DCDC00000000000000F000000000000000000000000000000000000000000000000000000000
310
000000000000000000000000000000000000000000000000000000000000000000000000000000000000000000000000000000000000000000000000000000000000000000000000000000000000000000000000000000000000000000000000000000000000000000000000000000000000000000F0000000000000002828
310
28000000BE0000BE0000000000BE000000000000BE0000000000002828282D2DDCDCDC2D2D2D0000000000000000002D0000002828282828BE00BE000000000000000000BE0000000000000000BE00BE0000282D00000000002D00002D00000000000000F00000000000000000000000000000000000000000000000000000
310
0000000000000000000000000000000000000000000000000000000000000000000000000000000000000000000000000000000000000000000000000000000000000000000000000000000000000000000000000000000000000000000000000000000000000000000000000000000000000000000000F000000000000000
310
2D2828282828BE28282828282828282828282828282828282828282828BE28000000DCDCDC00002D0000000000000000002D00000000002828282828BE282828282828282828282828282828282828BE28BE2828282D00000000002D00002D00000000000000F0000000000000000000000000000000000000000000000000
310
00000000000000000000000000000000000000000000000000000000000000000000000000000000000000000000000000000000000000000000000000000000000000000000000000000000000000000000000000000000000000000000000000000000000000000000000000000000000000000000000000F00000000000
310
00002D0000002828BE28280000000028282828280028000000282828000000000000000000000000002D0000000000000000002D00000000002D0000282828282800000000280000BE00002800000028282828280000002D00000000DCDC00002D00000000000000F000000000000000000000000000000000000000000000
310
000000000000000000000000000000000000000000000000000000000000000000000000000000000000000000000000000000000000000000000000000000000000000000000000000000000000000000000000000000000000000000000000000000000000000000000000000000000000000000000000000000F0000000
310
000000002D0000000000BE00002828282828282828282828282828000000000000000000000000000000002D0000000000000000002D00000000002D00002828282828282828282828282828282828282828282828280000002D00000000DCDC00002D00000000000000F00000000000000000000000000000000000000000
310
0000000000000000000000000000000000000000000000000000000000000000000000000000000000000000000000000000000000000000000000000000000000000000000000000000000000000000000000000000000000000000000000000000000000000000000000000000000000000000000000000000000000F000
310
0000000000002D0000000000000000000028282828BEBE282828280000000000000000000000000000000000002D0000000000000000002D00000000002D00BEBE28BE28BEBE002828282828282828282800BEBE28BE28BEBE00002D00000000DCDC00002D00000000000000F0000000000000000000000000000000000000
310
00000000000000000000000000000000000000000000000000000000000000000000000000000000000000000000000000000000000000000000000000000000000000000000000000000000000000000000000000000000000000000000000000000000000000000000000000000000000000000000000000000000000000
310
F0000000000000002D00000000000000000000000028282828282800000000000000000000000000000000000000002D0000000000000000002D00000000002D00002828282828000000002828282828282D2D2D2D28282828280000002D00000000DCDC00002D00000000000000F000000000000000000000000000000000
310
00000000000000000000000000000000000000000000000000000000000000000000000000000000000000000000000000000000000000000000000000000000000000000000000000000000000000000000000000000000000000000000000000000000000000000000000000000000000000000000000000000000000000
310
0000F0000000000000002D00000000000000000000000028002828002800000000000000000000000000000000000000002D0000000000000000002D00000000002D00000028BE28000000000028002828002800002D000028BE28280000002D00000000002D00002D00000000000000F00000000000000000000000000000
310
00000000000000000000000000000000000000000000000000000000000000000000000000000000000000000000000000000000000000000000000000000000000000000000000000000000000000000000000000000000000000000000000000000000000000000000000000000000000000000000000000000000000000
310
00000000F0000000000000002D0000000000000000000000002800BE00002800000000000000000000000000000000000000002D0000000000000000002D00000000002D00000000BE000000000000280028BE002800002D000000BE00000000002D00000000002D00002D00000000000000F0000000000000000000000000
310
00000000000000000000000000000000000000000000000000000000000000000000000000000000000000000000000000000000000000000000000000000000000000000000000000000000000000000000000000000000000000000000000000000000000000000000000000000000000000000000000000000000000000
310
000000000000F0000000000000002D0000000000000000000000002800BE00002800000000000000000000000000000000000000002D0000000000000000002D00000000002D0000000000000000000000280028BE002800DCDC0000000000000000002D00000000002D00002D00000000000000F000000000000000000000
310
00000000000000000000000000000000000000000000000000000000000000000000000000000000000000000000000000000000000000000000000000000000000000000000000000000000000000000000000000000000000000000000000000000000000000000000000000000000000000000000000000000000000000
310
0000000000000000F0000000000000002D0000000000000000000000002800BE00002800000000000000000000000000000000000000002D0000000000000000002D00000000002D0000000000000000000000280028BE002800DCDC0000000000000000002D00000000002D00002D00000000000000F00000000000000000
310
00000000000000000000000000000000000000000000000000000000000000000000000000000000000000000000000000000000000000000000000000000000000000000000000000000000000000000000000000000000000000000000000000000000000000000000000000000000000000000000000000000000000000
310
00000000000000000000F0000000000000002D0000000000000000000000002800BE00002800000000000000000000000000000000000000002D0000000000000000002D00000000002D0000000000000000000000280028BE002800DCDC0000000000000000002D00000000002D00002D00000000000000F0000000000000
310
00000000000000000000000000000000000000000000000000000000000000000000000000000000000000000000000000000000000000000000000000000000000000000000000000000000000000000000000000000000000000000000000000000000000000000000000000000000000000000000000000000000000000
310
000000000000000000000000F0000000000000002D0000000000000000000000002800BE00002800000000000000000000000000000000000000002D0000000000000000002D00000000002D0000000000000000000000280028BE002800002D0000000000000000002D00000000002D00002D00000000000000F000000000
310
00000000000000000000000000000000000000000000000000000000000000000000000000000000000000000000000000000000000000000000000000000000000000000000000000000000000000000000000000000000000000000000000000000000000000000000000000000000000000000000000000000000000000
310
0000000000000000000000000000F0000000000000002D0000000000000000000000002800BE00002800000000000000000000000000000000000000002D0000000000000000002D00000000002D0000000000000000000000280028BE002800002D0000000000000000002D00000000002D00002D00000000000000F00000
310
00000000000000000000000000000000000000000000000000000000000000000000000000000000000000000000000000000000000000000000000000000000000000000000000000000000000000000000000000000000000000000000000000000000000000000000000000000000000000000000000000000000000000
310
00000000000000000000000000000000F0000000000000002D00000000000000000000000028282828282800000000000000000000000000000000000000002D0000000000000000002D00000000002D00000000000000000000002828282828282D2D2D2D2D2D2D2D2D2D2D2D2D2D2D2D2D2D2D2D2D2D2D000000000000F0
310
00000000000000000000000000000000000000000000000000000000000000000000000000000000000000000000000000000000000000000000000000000000000000000000000000000000000000000000000000000000000000000000000000000000000000000000000000000000000000000000000000000000000000
310
000000000000000000000000000000000000F0000000000000002D00000000000000000000000000002D2D000000000000000000000000000000000000000000002D0000000000000000002D00000000002D00000000000000000000000000002D00000000000000000000000000002D000000000000000000000000000000
310
00F00000000000000000000000000000000000000000000000000000000000000000000000000000000000000000000000000000000000000000000000000000000000000000000000000000000000000000000000000000000000000000000000000000000000000000000000000000000000000000000000000000000000
310
0000000000000000000000000000000000000000F0000000000000002D00000000000000000000000000002D2DDCDC00000000000000000000000000000000000000002D0000000000000000002D00000000002D00000000000000000000000000002D00000000000000000000000000002D00000000000000000000000000
310
000000F0000000000000000000000000000000000000000000000000000000000000000000000000000000000000000000000000000000000000000000000000000000000000000000000000000000000000000000000000000000000000000000000000000000000000000000000000000000000000000000000000000000
310
00000000000000000000000000000000000000000000F0000000000000002D00000000000000000000000000002D2DDCDC00000000000000000000000000000000000000002D0000000000000000002D00000000002D00000000000000000000000000002D00000000000000000000000000002D0000000000000000000000
310
0000000000F000000000000000000000000000000000000000000000000000000000000000000000000000000000000000000000000000000000000000000000000000000000000000000000000000000000000000000000000000000000000000000000000000000000000000000000000000000000000000000000000000
310
000000000000000000000000000000000000000000000000F0000000000000002D00000000000000000000000000002D2D000000000000000000000000000000000000000000002D0000000000000000002D00000000002D00000000000000000000000000002D00000000000000000000000000002D000000000000000000
310
00000000000000F00000000000000000000000000000000000000000000000000000000000000000000000000000000000000000000000000000000000000000000000000000000000000000000000000000000000000000000000000000000000000000000000000000000000000000000000000000000000000000000000
310
0000000000000000000000000000000000000000000000000000F0000000000000002D00000000000000000000000000002D00000000000000000000000000000000000000000000002D0000000000000000002D00000000002D00000000000000000000000000002D00000000000000000000000000002D00000000000000
310
000000000000000000F0000000000000000000000000000000000000000000000000000000000000000000000000000000000000000000000000000000000000000000000000000000000000000000000000000000000000000000000000000000000000000000000000000000000000000000000000000000000000000000
310
00000000000000000000000000000000000000000000000000000000F0000000000000002D2D2D2D2D2D2D2D2D2D2D2D2D2D2D2D2D2D2D2D2D2D2D2D2D2DDCDCDC2D2D2D2D2D2D2D2D2D2D2D0000000000000000002D2D2D2D2D2D2D2D2D2D2D2DDCDCDC2D2D2D2D2D2D2D2D2D2D2DDCDCDCDCDC2D2D2D2D2D2D0000000000
310
0000000000000000000000F000000000000000000000000000000000000000000000000000000000000000000000000000000000000000000000000000000000000000000000000000000000000000000000000000000000000000000000000000000000000000000000000000000000000000000000000000000000000000
310
000000000000000000000000000000000000000000000000000000000000F0000000000000002D0000000000DCDCDCDC00000000000000000000000000000000DCDCDC000000000000000000002D0000000000000000002D00DCDCDC00000000000000DCDCDC0000000000000000000000DCDCDCDCDC00000000002D000000
310
00000000000000000000000000F00000000000000000000000000000000000000000000000000000000000000000000000000000000000000000000000000000000000000000000000000000000000000000000000000000000000000000000000000000000000000000000000000000000000000000000000000000000000
310
0000000000000000000000000000000000000000000000000000000000000000F0000000000000002D000000000000000000000000000000000000000000000000000000000000000000000000002D2D0000000000000000002D000000000000000000000000000000000000000000000000000000000000000000002D2D00
310
000000000000000000000000000000F0000000000000000000000000000000000000000000000000000000000000000000000000000000000000000000000000000000000000000000000000000000000000000000000000000000000000000000000000000000000000000000000000000000000000000000000000000000
310
00000000000000000000000000000000000000000000000000000000000000000000F0000000000000002D2D2D2D2D2D2D2D2D2D2D2D2D2D2D2D2DDCDCDCDCDC2D2D2D2D2D2D2D2D2D2D2D2D2D2D2D2D2D2D0000000000000000002D2D2D2D2D2D2D2D2D2D2D2D2D2D2D2DDCDCDCDC2D2D2D2D2D2D2D2D2D2D2D2D2D2D2D2D
310
2D00000000000000000000000000000000F000000000000000000000000000000000000000000000000000000000000000000000000000000000000000000000000000000000000000000000000000000000000000000000000000000000000000000000000000000000000000000000000000000000000000000000000000
310
000000000000000000000000000000000000000000000000000000000000000000000000F0000000000000000000000000000000000000000000000000DCDCDCDCDC00000000000000000000000000000000000000000000000000000000000000000000000000000000000000DCDCDCDC0000000000000000000000000000
310
00000000000000000000000000000000000000F00000000000000000000000000000000000000000000000000000000000000000000000000000000000000000000000000000000000000000000000000000000000000000000000000000000000000000000000000000000000000000000000000000000000000000000000
310
0000000000000000000000000000000000000000000000000000000000000000000000000000F000000000000000000000000000000000000000000000000000000000000000000000000000000000000000000000000000000000000000000000000000000000000000000000000000000000000000000000000000000000
310
000000000000000000000000000000000000000000F0000000000000000000000000000000000000000000000000000000000000000000000000000000000000000000000000000000000000000000000000000000000000000000000000000000000000000000000000000000000000000000000000000000000000000000
310
00000000000000000000000000000000000000000000000000000000000000000000000000000000F00000000000000000000000000000000000000000000000000000000000000000000000000000000000000000000000000000000000000000000000000000000000000000000000000000000000000000000000000000
310
0000000000000000000000000000000000000000000000F000000000000000000000000000000000000000000000000000000000000000000000000000000000000000000000000000000000000000000000000000000000000000000000000000000000000000000000000000000000000000000000000000000000000000
310
000000000000000000000000000000000000000000000000000000000000000000000000000000000000F0000000000000000000000000000000000000000000000000000000000000000000000000000000000000000000000000000000000000000000000000000000000000000000000000000000000000000000000000
310
00000000000000000000000000000000000000000000000000F00000000000000000000000000000000000000000000000000000000000000000000000000000000000000000000000000000000000000000000000000000000000000000000000000000000000000000000000000000000000000000000000000000000000
310
0000000000000000000000000000000000000000000000000000000000000000000000000000000000000000F000000000000000000000000000000000000000000000000000000000000000000000000000000000000000000000000000000000000000000000000000000000000000000000000000000000000000000000
310
000000000000000000000000000000000000000000000000000000F0000000000000000000000000000000000000000000000000000000000000000000000000000000000000000000000000000000000000000000000000000000000000000000000000000000000000000000000000000000000000000000000000000000
310
00000000000000000000000000000000000000000000000000000000000000000000000000000000000000000000F00000000000000000000000000000000000000000000000000000000000000000000000000000000000000000000000000000000000000000000000000000000000000000000000000000000000000000
310
0000000000000000000000000000000000000000000000000000000000F000000000000000000000000000000000000000000000000000000000000000000000000000000000000000000000000000000000000000000000000000000000000000000000000000000000000000000000000000000000000000000000000000
310
000000000000000000000000000000000000000000000000000000000000000000000000000000000000000000000000F0000000000000000000000000000000000000000000000000000000000000000000000000000000000000000000000000000000000000000000000000000000000000000000000000000000000000
310
00000000000000000000000000000000000000000000000000000000000000F00000000000000000000000000000000000000000000000000000000000000000000000000000000000000000000000000000000000000000000000000000000000000000000000000000000000000000000000000000000000000000000000
310
0000000000000000000000000000000000000000000000000000000000000000000000000000000000000000000000000000F0F0F0F0F0F0F0F0F0F0F0F0F0F0F0F0F0F0F0F0F0F0F0F0F0F0F0F0F0F0F0F0F0F0F0F0F0F0F0F0F0F0F0F0F0F0F0F0F0F0F0F0F0F0F0F0F0F0F0F0F0F0F0F0F0F0F0F0F0F0F0F0F0F0F0F0F0
310
F0F0F0F0F0F0F0F0F0F0F0F0F0F0F0F0F0F0F0F0F0F0F0F0F0F0F0F0F0F0F0F0F0F0000000000000000000000000000000000000000000000000000000000000000000000000000000000000000000000000000000000000000000000000000000000000000000000000000000000000000000000000000000000000000000
310
00000000000000000000000000000000000000000000000000000000000000000000000000000000000000000000000000000000000000000000000000000000000000000000000000000000000000000000000000000000000000000000000000000000000000000000000000000000000000000000000000000000000000
310
00000000000000000000000000000000000000000000000000000000000000000000000000000000000000000000000000000000000000000000000000000000000000000000000000000000000000000000000000000000000000000000000000000000000000000000000000000000000000000000000000000000000000
310
00000000000000000000000000000000000000000000000000000000000000000000000000000000000000000000000000000000000000000000000000000000000000000000000000000000000000000000000000000000000000000000000000000000000000000000000000000000000000000000000000000000000000
310
00000000000000000000000000000000000000000000000000000000000000000000000000000000000000000000000000000000000000000000000000000000000000000000000000000000000000000000000000000000000000000000000000000000000000000000000000000000000000000000000000000000000000
310
00000000000000000000000000000000000000000000000000000000000000000000000000000000000000000000000000000000000000000000000000000000000000000000000000000000000000000000000000000000000000000000000000000000000000000000000000000000000000000000000000000000000000
310
00000000000000000000000000000000000000000000000000000000000000000000000000000000000000000000000000000000000000000000000000000000000000000000000000000000000000000000000000000000000000000000000000000000000000000000000000000000000000000000000000000000000000
310
00000000000000000000000000000000000000000000000000000000000000000000000000000000000000000000000000000000000000000000000000000000000000000000000000000000000000000000000000000000000000000000000000000000000000000000000000000000000000000000000000000000000000
310
00000000000000000000000000000000000000000000000000000000000000000000000000000000000000000000000000000000000000000000000000000000000000000000000000000000000000000000000000000000000000000000000000000000000000000000000000000000000000000000000000000000000000
310
00000000000000000000000000000000000000000000000000000000000000000000000000000000000000000000000000000000000000000000000000000000000000000000000000000000000000000000000000000000000000000000000000000000000000000000000000000000000000000000000000000000000000
310
00000000000000000000000000000000000000000000000000000000000000000000000000000000000000000000000000000000000000000000000000000000000000000000000000000000000000000000000000000000000000000000000000000000000000000000000000000000000000000000000000000000000000
310
00000000000000000000000000000000000000000000000000000000000000000000000000000000000000000000000000000000000000000000000000000000000000000000000000000000000000000000000000000000000000000000000000000000000000000000000000000000000000000000000000000000000000
310
00000000000000000000000000000000000000000000000000000000000000000000000000000000000000000000000000000000000000000000000000000000000000000000000000000000000000000000000000000000000000000000000000000000000000000000000000000000000000000000000000000000000000
310
00000000000000000000000000000000000000000000000000000000000000000000000000000000000000000000000000000000000000000000000000000000000000000000000000000000000000000000000000000000000000000000000000000000000000000000000000000000000000000000000000000000000000
310
00000000000000000000000000000000000000000000000000000000000000000000000000000000000000000000000000000000000000000000000000000000000000000000000000000000000000000000000000000000000000000000000000000000000000000000000000000000000000000000000000000000000000
310
00000000000000000000000000000000000000000000000000000000000000000000000000000000000000000000000000000000000000000000000000000000000000000000000000000000000000000000000000000000000000000000000000000000000000000000000000000000000000000000000000000000000000
310
00000000000000000000000000000000000000000000000000000000000000000000000000000000000000000000000000000000000000000000000000000000000000000000000000000000000000000000000000000000000000000000000000000000000000000000000000000000000000000000000000000000000000
310
00000000000000000000000000000000000000000000000000000000000000000000000000000000000000000000000000000000000000000000000000000000000000000000000000000000000000000000000000000000000000000000000000000000000000000000000000000000000000000000000000000000000000
310
00000000000000000000000000000000000000000000000000000000000000000000000000000000000000000000000000000000000000000000000000000000000000000000000000000000000000000000000000000000000000000000000000000000000000000000000000000000000000000000000000000000000000
310
000000000000000000000000000000000000000000000000000000000000000000000000000000000000000000000000000000000000000000000000000000000000000000000000000000000000000000000000000000000000000000BE000000000000000000000000000000000000000000000000000000000000000000
310
00000000000000000000000000000000000000000000000000000000000000000000000000000000000000000000000000000000000000000000000000000000000000000000000000000000000000000000000000000000000000000000000000000000000000000000000000000000000000000000000000000000000000
310
00000000000000000000000000000000000000000000000000000000000000000000000000000000000000000000000000000000000000000000000000000000000000000000000000000000000000002828282828282828282828282828282828282828282828282828282828282828000000000000000000000000000000
310
00000000000000000000000000000000000000000000000000000000000000000000000000000000000000000000000000000000000000000000000000000000000000000000000000000000000000000000000000000000000000000000000000000000000000000000000000000000000000000000000000000000000000
310
000000000000000000000000000000000000000000000000000000000000000000000000000000000000000000000000000000000000000000000000000000000000000000000000000000000000000000002828280000000000BE000000000000BE0000000000000000000000000028282800000000000000000000000000
310
0000000000000000000000000000000000000000000000002D2D2D2828BE282D2D2D000000000000000000000000000000000000000000000000000000000000000000000000000000000000000000000000000000000000000000000000000000000000000000000000000000000000000000000000000000000000000000
310
0000000000000000000000000000000000000000000000000000000000000000000000000000000000000000000000000000000000000000000000000000000000000000000000000000000000000000000000BE28BEBEBE00000028BE28280028280028282800280000000000000000BEBEBEBE0000000000000000000000
310
00000000000000000000000000000000000000000000000000002D2D2D0000BE00282D2D00000000000000000000000000000000000000000000000000000000000000000000000000000000000000000000000000000000000000000000000000000000000000000000000000000000000000000000000000000000000000
310
00000000000000000000000000000000000000000000000000000000000000000000000000000000000000000000000000000000000000000000000000000000000000000000000000000000000000000000000000002828280000002828BE0028002828282828280028000000000000000000282828000000000000000000
310
000000000000000000000000000000000000000000000000000000002D2D2D0000BE002D2D2D0000000000000000000000000000000000000000000000000000000000000000000000000000000000000000000000000000000000000000000000000000000000000000000000000000000000000000000000000000000000
310
000000000000000000000000000000000000000000000000000000000000000000000000000000000000000000000000000000000000000000000000000000000000000000000000000000000000000000000000000000002828282800BE28BEBEBE28BE282828282828002800000000000000002828282828000000000000
310
00000000000000000000000000000000000000000000000000000000000000002D0000BE00282D00000000000000000000000000000000000000000000000000000000000000000000000000000000000000000000000000000000000000000000000000000000000000000000000000000000000000000000000000000000
310
0000000000000000000000000000000000000000000000000000000000000000000000000000000000000000000000000000000000000000000000000000000000000000000000000000000000000000000000000000000000002828282800000028BE28280028282828282828280000000000000000282828282828282828
310
282828000000000000000000000000000000000000000000000000000000000000002D2828BE28282D0000000000000000000000000000000000000000000000000000000000000000000000000000000000000000000000000000000000000000000000000000000000000000000000000000000000000000000000000000
310
000000000000000000000000000000000000000000000000000000000000000000000000000000000000000000000000000000000000000000000000000000000000000000000000000000000000000000000000000000000000000028282828BEBEBEBEBEBEBEBE28282828282828BEBEBEBEBEBEBEBEBE28282828282828
310
28282828280000000000000000000000000000000000000000000000000000000000000028002828280028000000000000000000000000000000000000000000000000000000000000000000000000000000000000000000000000000000000000000000000000000000000000000000000000000000000000000000000000
310
00000000000000000000000000000000000000000000000000000000000000000000000000000000000000000000000000000000000000000000000000000000000000000000000000000000000000000000000000000000000000000028282828280028282828282828282828282828282828282828282828002828282828
310
2828282828282800000000000000000000000000000000000000000000000000000000000000280028BE28002800000000000000000000000000000000000000000000000000000000000000000000000000000000000000000000000000000000000000000000000000000000000000000000000000000000000000000000
310
0000000000000000000000000000000000000000000000000000000000000000000000000000000000000000000000000000000000000000000000000000000000000000000000000000000000000000000000000000000000000000000000282828282828000000BE2828BEBEBE28282800BEBE282828BE00002828282828
310
28282828282828282800000000000000000000000000000000000000000000000000000000000000280028BE2800280000000000000000000000000000000000000000000000000000000000000000000000000000000000000000000000000000000000000000000000000000000000000000000000000000000000000000
310
000000000000000000000000000000000000000000000000000000000000000000000000000000000000000000000000000000000000000000000000000000000000000000000000000000000000000000000000000000000000000000000000002828282800000000282828BE28282828282828282828BE28282800000028
310
282828280000000000000000000000000000000000000000000000000000000000000000000000000000280028BE280028000000000000000000000000000000000000000000000000000000000000000000000000000000000000000000000000000000000000000000000000000000000000000000000000000000000000
310
000000000000000000000000000000000000000000000000000000000000000000000000000000000000000000000000000000000000000000000000000000000000000000000000000000000000000000000000000000000000000000000000000000BE28BEBEBE0000282828282800002828282828280028282828282800
310
00BEBEBEBE280000000000000000000000000000000000000000000000000000000000000000000000000000280028BE28002800000000000000000000000000000000000000000000000000000000000000000000000000000000000000000000000000000000000000000000000000000000000000000000000000000000
310
00000000000000000000000000000000000000000000000000000000000000000000000000000000000000000000000000000000000000000000000000000000000000000000000000000000000000000000000000000000000000000000000000000000002828282800002828BE28280000002828282828280000002828BE
310
28280000282828280000000000000000000000000000000000000000000000000000000000000000000000000000280028282800280000000000000000000000000000000000000000000000000000000000000000000000000000000000000000000000000000000000000000000000000000000000000000000000000000
310
0000000000000000000000000000000000000000000000000000000000000000000000000000000000000000000000000000000000000000000000000000000000000000000000000000000000000000000000000000000000000000000000000000000000000028282828002828BE28000000000028282828282800000000
310
0028BE282800282828280000000000000000000000000000000000000000000000000000000000000000000000000000282828BE282828000000000000000000000000000000000000000000000000000000000000000000000000000000000000000000000000000000000000000000000000000000000000000000000000
310
000000000000000000000000000000000000000000000000000000000000000000000000000000000000000000000000000000000000000000000000000000000000000000000000000000000000000000000000000000000000000000000000000000000000000000282828282828BE280000000000280000282800002800
310
0000000028BE2828282800280000000000000000000000000000000000000000000000000000000000000000000000000000280000BE00002800000000000000000000000000000000000000000000000000000000000000000000000000000000000000000000000000000000000000000000000000000000000000000000
310
00000000000000000000000000000000000000000000000000000000000000000000000000000000000000000000000000000000000000000000000000000000000000000000000000000000000000000000000000000000000000000000000000000000000000000000002828280028BE28000000000000280000BE000000
310
2800000000002828BE28282828280000000000000000000000000000000000000000000000000000000000000000000000000000280000BE0000280000000000000000000000000000000000000000000000000000000000000000000000000000000000000000000000000000000000000000000000000000000000000000
310
0000000000000000000000000000000000000000000000000000000000000000000000000000000000000000000000000000000000000000000000000000000000000000000000000000000000000000000000000000000000000000000000000000000000000000000000000000002828282828000000000000280000BE00
310
00002800000000000028BE28282800000000000000000000000000000000000000000000000000000000000000000000000000002D2D2D2828BE28282D2D0000000000000000000000000000000000000000000000000000000000000000000000000000000000000000000000000000000000000000000000000000000000
310
00000000000000000000000000000000000000000000000000000000000000000000000000000000000000000000000000000000000000000000000000000000000000000000000000000000000000000000000000000000000000000000000000000000000000000000000000000000002828BE2800000000000028282828
310
28282828282800000000000028BE282800000000000000000000000000000000000000000000000000000000000000000000000000002D2D2D2828BE282D2D2D000000000000000000000000000000000000000000000000000000000000000000000000000000000000000000000000000000000000000000000000000000
310
00000000000000000000000000000000000000000000000000000000000000000000
  0
XRECORD
  5
639
102
{ACAD_REACTORS
330
638
102
}
330
638
100
AcDbXrecord
280
     1
102
MATERIAL
148
0.0
149
0.0
149
0.0
 93
        0
 94
      127
282
     0
 72
     0
 77
     0
171
     0
175
     0
179
     0
273
     0
  0
XRECORD
  5
635
102
{ACAD_REACTORS
330
634
102
}
330
634
100
AcDbXrecord
280
     1
102
MATERIAL
148
0.0
149
0.0
149
0.0
 93
        0
 94
      127
282
     0
 72
     0
 77
     0
171
     0
175
     0
179
     0
273
     0
  0
XRECORD
  5
637
102
{ACAD_REACTORS
330
636
102
}
330
636
100
AcDbXrecord
280
     1
102
MATERIAL
148
0.0
149
0.0
149
0.0
 93
        0
 94
      127
282
     0
 72
     0
 77
     0
171
     0
175
     0
179
     0
273
     0
  0
XRECORD
  5
66B
102
{ACAD_REACTORS
330
66A
102
}
330
66A
100
AcDbXrecord
280
     1
102
ACAD_ROUNDTRIP_2010_MLEADER_STYLE
  0
XRECORD
  5
647
102
{ACAD_REACTORS
330
646
102
}
330
646
100
AcDbXrecord
280
     1
102
RTVSPropertyOp0
 70
     1
102
RTVSPropertyOp1
 70
     1
102
RTVSPropertyOp2
 70
     1
102
RTVSPropertyOp3
 70
     1
102
RTVSPropertyOp4
 70
     1
102
RTVSPropertyOp5
 70
     1
102
RTVSPropertyOp6
 70
     1
102
RTVSPropertyOp7
 70
     1
102
RTVSPropertyOp8
 70
     1
102
RTVSPropertyOp9
 70
     1
102
RTVSPropertyOp10
 70
     1
102
RTVSPropertyOp11
 70
     1
102
RTVSPropertyOp12
 70
     1
102
RTVSPropertyOp13
 70
     1
102
RTVSPropertyOp14
 70
     1
102
RTVSPropertyOp15
 70
     1
102
RTVSPropertyOp16
 70
     1
102
RTVSPropertyOp17
 70
     1
102
RTVSPropertyOp18
 70
     1
102
RTVSPropertyOp19
 70
     1
102
RTVSPropertyOp20
 70
     1
102
RTVSPropertyOp21
 70
     1
102
RTVSPropertyOp22
 70
     1
102
RTVSPropertyOp23
 70
     1
102
RTVSPropertyOp24
 70
     1
102
RTVSPropertyOp25
 70
     1
102
RTVSPropertyOp26
 70
     1
102
RTVSPropertyOp27
 70
     1
102
RTVSPropertyOp28
 70
     1
102
RTVSPropertyOp29
 70
     1
102
RTVSPropertyOp30
 70
     1
102
RTVSPropertyOp31
 70
     1
102
RTVSPropertyOp32
 70
     1
102
RTVSPropertyOp33
 70
     1
102
RTVSPropertyOp34
 70
     1
102
RTVSPropertyOp35
 70
     1
102
RTVSPropertyOp36
 70
     1
102
RTVSPropertyOp37
 70
     1
102
RTVSPropertyOp38
 70
     1
102
RTVSPropertyOp39
 70
     1
102
RTVSPropertyOp40
 70
     1
102
RTVSPropertyOp41
 70
     1
102
RTVSPropertyOp42
 70
     1
102
RTVSPropertyOp43
 70
     1
102
RTVSPropertyOp44
 70
     1
102
RTVSPropertyOp45
 70
     1
102
RTVSPropertyOp46
 70
     1
102
RTVSPropertyOp47
 70
     1
102
RTVSPropertyOp48
 70
     1
102
RTVSPropertyOp49
 70
     1
102
RTVSPropertyOp50
 70
     1
102
RTVSPropertyOp51
 70
     0
102
RTVSPropertyOp52
 70
     0
102
RTVSPropertyOp53
 70
     1
102
RTVSPropertyOp54
 70
     1
102
RTVSPropertyOp55
 70
     1
102
RTVSPropertyOp56
 70
     1
102
RTVSPropertyOp57
 70
     1
102
RTVSPost2010Prop28
280
     1
102
RTVSPost2010PropOp28
 70
     1
102
RTVSPost2010Prop29
280
     1
102
RTVSPost2010PropOp29
 70
     1
102
RTVSPost2010Prop30
280
     0
102
RTVSPost2010PropOp30
 70
     1
102
RTVSPost2010Prop31
280
     0
102
RTVSPost2010PropOp31
 70
     1
102
RTVSPost2010Prop32
280
     0
102
RTVSPost2010PropOp32
 70
     1
102
RTVSPost2010Prop33
280
     0
102
RTVSPost2010PropOp33
 70
     1
102
RTVSPost2010Prop34
280
     0
102
RTVSPost2010PropOp34
 70
     1
102
RTVSPost2010Prop35
280
     0
102
RTVSPost2010PropOp35
 70
     1
102
RTVSPost2010Prop36
280
     0
102
RTVSPost2010PropOp36
 70
     1
102
RTVSPost2010Prop37
 90
       50
102
RTVSPost2010PropOp37
 70
     1
102
RTVSPost2010Prop38
140
0.0
102
RTVSPost2010PropOp38
 70
     1
102
RTVSPost2010Prop39
140
1.0
102
RTVSPost2010PropOp39
 70
     1
102
RTVSPost2010Prop40
 90
        0
102
RTVSPost2010PropOp40
 70
     1
102
RTVSPost2010Prop41ColorIndex
 90
       18
102
RTVSPost2010Prop41ColorRGB
 90
        0
102
RTVSPost2010PropOp41
 70
     1
102
RTVSPost2010Prop42
 90
       50
102
RTVSPost2010PropOp42
 70
     1
102
RTVSPost2010Prop43
 90
        3
102
RTVSPost2010PropOp43
 70
     1
102
RTVSPost2010Prop44ColorIndex
 90
        5
102
RTVSPost2010Prop44ColorRGB
 90
      255
102
RTVSPost2010PropOp44
 70
     1
102
RTVSPost2010Prop45
280
     0
102
RTVSPost2010PropOp45
 70
     1
102
RTVSPost2010Prop46
 90
       50
102
RTVSPost2010PropOp46
 70
     1
102
RTVSPost2010Prop47
 90
       50
102
RTVSPost2010PropOp47
 70
     1
102
RTVSPost2010Prop48
 90
       50
102
RTVSPost2010PropOp48
 70
     1
102
RTVSPost2010Prop49
280
     0
102
RTVSPost2010PropOp49
 70
     1
102
RTVSPost2010Prop50
 90
       50
102
RTVSPost2010PropOp50
 70
     1
102
RTVSPost2010Prop51ColorIndex
 90
      256
102
RTVSPost2010Prop51ColorRGB
 90
-16777216
102
RTVSPost2010PropOp51
 70
     0
102
RTVSPost2010Prop52
140
1.0
102
RTVSPost2010PropOp52
 70
     0
102
RTVSPost2010Prop53
 90
        2
102
RTVSPost2010PropOp53
 70
     1
102
RTVSPost2010Prop54
  1
strokes_ogs.tif
102
RTVSPost2010PropOp54
 70
     1
102
RTVSPost2010Prop55
280
     0
102
RTVSPost2010PropOp55
 70
     1
102
RTVSPost2010Prop56
140
1.0
102
RTVSPost2010PropOp56
 70
     1
102
RTVSPost2010Prop57
140
1.0
102
RTVSPost2010PropOp57
 70
     1
  0
XRECORD
  5
64B
102
{ACAD_REACTORS
330
64A
102
}
330
64A
100
AcDbXrecord
280
     1
102
RTVSPropertyOp0
 70
     1
102
RTVSPropertyOp1
 70
     1
102
RTVSPropertyOp2
 70
     1
102
RTVSPropertyOp3
 70
     1
102
RTVSPropertyOp4
 70
     1
102
RTVSPropertyOp5
 70
     1
102
RTVSPropertyOp6
 70
     1
102
RTVSPropertyOp7
 70
     1
102
RTVSPropertyOp8
 70
     1
102
RTVSPropertyOp9
 70
     1
102
RTVSPropertyOp10
 70
     1
102
RTVSPropertyOp11
 70
     1
102
RTVSPropertyOp12
 70
     1
102
RTVSPropertyOp13
 70
     1
102
RTVSPropertyOp14
 70
     1
102
RTVSPropertyOp15
 70
     1
102
RTVSPropertyOp16
 70
     1
102
RTVSPropertyOp17
 70
     1
102
RTVSPropertyOp18
 70
     1
102
RTVSPropertyOp19
 70
     1
102
RTVSPropertyOp20
 70
     1
102
RTVSPropertyOp21
 70
     1
102
RTVSPropertyOp22
 70
     1
102
RTVSPropertyOp23
 70
     1
102
RTVSPropertyOp24
 70
     1
102
RTVSPropertyOp25
 70
     1
102
RTVSPropertyOp26
 70
     1
102
RTVSPropertyOp27
 70
     1
102
RTVSPropertyOp28
 70
     1
102
RTVSPropertyOp29
 70
     1
102
RTVSPropertyOp30
 70
     1
102
RTVSPropertyOp31
 70
     1
102
RTVSPropertyOp32
 70
     1
102
RTVSPropertyOp33
 70
     1
102
RTVSPropertyOp34
 70
     1
102
RTVSPropertyOp35
 70
     1
102
RTVSPropertyOp36
 70
     1
102
RTVSPropertyOp37
 70
     1
102
RTVSPropertyOp38
 70
     1
102
RTVSPropertyOp39
 70
     1
102
RTVSPropertyOp40
 70
     1
102
RTVSPropertyOp41
 70
     1
102
RTVSPropertyOp42
 70
     1
102
RTVSPropertyOp43
 70
     1
102
RTVSPropertyOp44
 70
     1
102
RTVSPropertyOp45
 70
     1
102
RTVSPropertyOp46
 70
     1
102
RTVSPropertyOp47
 70
     1
102
RTVSPropertyOp48
 70
     1
102
RTVSPropertyOp49
 70
     1
102
RTVSPropertyOp50
 70
     1
102
RTVSPropertyOp51
 70
     0
102
RTVSPropertyOp52
 70
     0
102
RTVSPropertyOp53
 70
     1
102
RTVSPropertyOp54
 70
     1
102
RTVSPropertyOp55
 70
     1
102
RTVSPropertyOp56
 70
     1
102
RTVSPropertyOp57
 70
     1
102
RTVSPost2010Prop28
280
     0
102
RTVSPost2010PropOp28
 70
     1
102
RTVSPost2010Prop29
280
     1
102
RTVSPost2010PropOp29
 70
     1
102
RTVSPost2010Prop30
280
     1
102
RTVSPost2010PropOp30
 70
     1
102
RTVSPost2010Prop31
280
     0
102
RTVSPost2010PropOp31
 70
     1
102
RTVSPost2010Prop32
280
     0
102
RTVSPost2010PropOp32
 70
     1
102
RTVSPost2010Prop33
280
     0
102
RTVSPost2010PropOp33
 70
     1
102
RTVSPost2010Prop34
280
     0
102
RTVSPost2010PropOp34
 70
     1
102
RTVSPost2010Prop35
280
     0
102
RTVSPost2010PropOp35
 70
     1
102
RTVSPost2010Prop36
280
     0
102
RTVSPost2010PropOp36
 70
     1
102
RTVSPost2010Prop37
 90
       50
102
RTVSPost2010PropOp37
 70
     1
102
RTVSPost2010Prop38
140
0.0
102
RTVSPost2010PropOp38
 70
     1
102
RTVSPost2010Prop39
140
1.0
102
RTVSPost2010PropOp39
 70
     1
102
RTVSPost2010Prop40
 90
        0
102
RTVSPost2010PropOp40
 70
     1
102
RTVSPost2010Prop41ColorIndex
 90
       18
102
RTVSPost2010Prop41ColorRGB
 90
        0
102
RTVSPost2010PropOp41
 70
     1
102
RTVSPost2010Prop42
 90
       50
102
RTVSPost2010PropOp42
 70
     1
102
RTVSPost2010Prop43
 90
        3
102
RTVSPost2010PropOp43
 70
     1
102
RTVSPost2010Prop44ColorIndex
 90
        5
102
RTVSPost2010Prop44ColorRGB
 90
      255
102
RTVSPost2010PropOp44
 70
     1
102
RTVSPost2010Prop45
280
     0
102
RTVSPost2010PropOp45
 70
     1
102
RTVSPost2010Prop46
 90
       50
102
RTVSPost2010PropOp46
 70
     1
102
RTVSPost2010Prop47
 90
       50
102
RTVSPost2010PropOp47
 70
     1
102
RTVSPost2010Prop48
 90
       50
102
RTVSPost2010PropOp48
 70
     1
102
RTVSPost2010Prop49
280
     0
102
RTVSPost2010PropOp49
 70
     1
102
RTVSPost2010Prop50
 90
       50
102
RTVSPost2010PropOp50
 70
     1
102
RTVSPost2010Prop51ColorIndex
 90
      256
102
RTVSPost2010Prop51ColorRGB
 90
-16777216
102
RTVSPost2010PropOp51
 70
     0
102
RTVSPost2010Prop52
140
1.0
102
RTVSPost2010PropOp52
 70
     0
102
RTVSPost2010Prop53
 90
        2
102
RTVSPost2010PropOp53
 70
     1
102
RTVSPost2010Prop54
  1
strokes_ogs.tif
102
RTVSPost2010PropOp54
 70
     1
102
RTVSPost2010Prop55
280
     0
102
RTVSPost2010PropOp55
 70
     1
102
RTVSPost2010Prop56
140
1.0
102
RTVSPost2010PropOp56
 70
     1
102
RTVSPost2010Prop57
140
1.0
102
RTVSPost2010PropOp57
 70
     1
  0
XRECORD
  5
651
102
{ACAD_REACTORS
330
650
102
}
330
650
100
AcDbXrecord
280
     1
102
RTVSPropertyOp0
 70
     1
102
RTVSPropertyOp1
 70
     1
102
RTVSPropertyOp2
 70
     1
102
RTVSPropertyOp3
 70
     1
102
RTVSPropertyOp4
 70
     1
102
RTVSPropertyOp5
 70
     1
102
RTVSPropertyOp6
 70
     1
102
RTVSPropertyOp7
 70
     1
102
RTVSPropertyOp8
 70
     1
102
RTVSPropertyOp9
 70
     1
102
RTVSPropertyOp10
 70
     1
102
RTVSPropertyOp11
 70
     1
102
RTVSPropertyOp12
 70
     1
102
RTVSPropertyOp13
 70
     1
102
RTVSPropertyOp14
 70
     1
102
RTVSPropertyOp15
 70
     1
102
RTVSPropertyOp16
 70
     1
102
RTVSPropertyOp17
 70
     1
102
RTVSPropertyOp18
 70
     1
102
RTVSPropertyOp19
 70
     1
102
RTVSPropertyOp20
 70
     1
102
RTVSPropertyOp21
 70
     1
102
RTVSPropertyOp22
 70
     1
102
RTVSPropertyOp23
 70
     1
102
RTVSPropertyOp24
 70
     1
102
RTVSPropertyOp25
 70
     1
102
RTVSPropertyOp26
 70
     1
102
RTVSPropertyOp27
 70
     1
102
RTVSPropertyOp28
 70
     1
102
RTVSPropertyOp29
 70
     1
102
RTVSPropertyOp30
 70
     1
102
RTVSPropertyOp31
 70
     1
102
RTVSPropertyOp32
 70
     1
102
RTVSPropertyOp33
 70
     1
102
RTVSPropertyOp34
 70
     1
102
RTVSPropertyOp35
 70
     1
102
RTVSPropertyOp36
 70
     1
102
RTVSPropertyOp37
 70
     1
102
RTVSPropertyOp38
 70
     1
102
RTVSPropertyOp39
 70
     1
102
RTVSPropertyOp40
 70
     1
102
RTVSPropertyOp41
 70
     1
102
RTVSPropertyOp42
 70
     1
102
RTVSPropertyOp43
 70
     1
102
RTVSPropertyOp44
 70
     1
102
RTVSPropertyOp45
 70
     1
102
RTVSPropertyOp46
 70
     1
102
RTVSPropertyOp47
 70
     1
102
RTVSPropertyOp48
 70
     1
102
RTVSPropertyOp49
 70
     1
102
RTVSPropertyOp50
 70
     1
102
RTVSPropertyOp51
 70
     0
102
RTVSPropertyOp52
 70
     0
102
RTVSPropertyOp53
 70
     1
102
RTVSPropertyOp54
 70
     1
102
RTVSPropertyOp55
 70
     1
102
RTVSPropertyOp56
 70
     1
102
RTVSPropertyOp57
 70
     1
102
RTVSPost2010Prop28
280
     0
102
RTVSPost2010PropOp28
 70
     1
102
RTVSPost2010Prop29
280
     1
102
RTVSPost2010PropOp29
 70
     1
102
RTVSPost2010Prop30
280
     1
102
RTVSPost2010PropOp30
 70
     1
102
RTVSPost2010Prop31
280
     0
102
RTVSPost2010PropOp31
 70
     1
102
RTVSPost2010Prop32
280
     0
102
RTVSPost2010PropOp32
 70
     1
102
RTVSPost2010Prop33
280
     0
102
RTVSPost2010PropOp33
 70
     1
102
RTVSPost2010Prop34
280
     0
102
RTVSPost2010PropOp34
 70
     1
102
RTVSPost2010Prop35
280
     0
102
RTVSPost2010PropOp35
 70
     1
102
RTVSPost2010Prop36
280
     0
102
RTVSPost2010PropOp36
 70
     1
102
RTVSPost2010Prop37
 90
       50
102
RTVSPost2010PropOp37
 70
     1
102
RTVSPost2010Prop38
140
0.0
102
RTVSPost2010PropOp38
 70
     1
102
RTVSPost2010Prop39
140
1.0
102
RTVSPost2010PropOp39
 70
     1
102
RTVSPost2010Prop40
 90
        0
102
RTVSPost2010PropOp40
 70
     1
102
RTVSPost2010Prop41ColorIndex
 90
       18
102
RTVSPost2010Prop41ColorRGB
 90
        0
102
RTVSPost2010PropOp41
 70
     1
102
RTVSPost2010Prop42
 90
       50
102
RTVSPost2010PropOp42
 70
     1
102
RTVSPost2010Prop43
 90
        3
102
RTVSPost2010PropOp43
 70
     1
102
RTVSPost2010Prop44ColorIndex
 90
        5
102
RTVSPost2010Prop44ColorRGB
 90
      255
102
RTVSPost2010PropOp44
 70
     1
102
RTVSPost2010Prop45
280
     0
102
RTVSPost2010PropOp45
 70
     1
102
RTVSPost2010Prop46
 90
       50
102
RTVSPost2010PropOp46
 70
     1
102
RTVSPost2010Prop47
 90
       50
102
RTVSPost2010PropOp47
 70
     1
102
RTVSPost2010Prop48
 90
       50
102
RTVSPost2010PropOp48
 70
     1
102
RTVSPost2010Prop49
280
     0
102
RTVSPost2010PropOp49
 70
     1
102
RTVSPost2010Prop50
 90
       50
102
RTVSPost2010PropOp50
 70
     1
102
RTVSPost2010Prop51ColorIndex
 90
      256
102
RTVSPost2010Prop51ColorRGB
 90
-16777216
102
RTVSPost2010PropOp51
 70
     0
102
RTVSPost2010Prop52
140
1.0
102
RTVSPost2010PropOp52
 70
     0
102
RTVSPost2010Prop53
 90
        2
102
RTVSPost2010PropOp53
 70
     1
102
RTVSPost2010Prop54
  1
strokes_ogs.tif
102
RTVSPost2010PropOp54
 70
     1
102
RTVSPost2010Prop55
280
     0
102
RTVSPost2010PropOp55
 70
     1
102
RTVSPost2010Prop56
140
1.0
102
RTVSPost2010PropOp56
 70
     1
102
RTVSPost2010Prop57
140
1.0
102
RTVSPost2010PropOp57
 70
     1
  0
XRECORD
  5
659
102
{ACAD_REACTORS
330
658
102
}
330
658
100
AcDbXrecord
280
     1
102
RTVSPropertyOp0
 70
     1
102
RTVSPropertyOp1
 70
     1
102
RTVSPropertyOp2
 70
     1
102
RTVSPropertyOp3
 70
     1
102
RTVSPropertyOp4
 70
     1
102
RTVSPropertyOp5
 70
     1
102
RTVSPropertyOp6
 70
     1
102
RTVSPropertyOp7
 70
     1
102
RTVSPropertyOp8
 70
     1
102
RTVSPropertyOp9
 70
     1
102
RTVSPropertyOp10
 70
     1
102
RTVSPropertyOp11
 70
     1
102
RTVSPropertyOp12
 70
     1
102
RTVSPropertyOp13
 70
     1
102
RTVSPropertyOp14
 70
     1
102
RTVSPropertyOp15
 70
     1
102
RTVSPropertyOp16
 70
     1
102
RTVSPropertyOp17
 70
     1
102
RTVSPropertyOp18
 70
     1
102
RTVSPropertyOp19
 70
     1
102
RTVSPropertyOp20
 70
     1
102
RTVSPropertyOp21
 70
     1
102
RTVSPropertyOp22
 70
     1
102
RTVSPropertyOp23
 70
     1
102
RTVSPropertyOp24
 70
     1
102
RTVSPropertyOp25
 70
     1
102
RTVSPropertyOp26
 70
     1
102
RTVSPropertyOp27
 70
     1
102
RTVSPropertyOp28
 70
     1
102
RTVSPropertyOp29
 70
     1
102
RTVSPropertyOp30
 70
     1
102
RTVSPropertyOp31
 70
     1
102
RTVSPropertyOp32
 70
     1
102
RTVSPropertyOp33
 70
     1
102
RTVSPropertyOp34
 70
     1
102
RTVSPropertyOp35
 70
     1
102
RTVSPropertyOp36
 70
     1
102
RTVSPropertyOp37
 70
     1
102
RTVSPropertyOp38
 70
     1
102
RTVSPropertyOp39
 70
     1
102
RTVSPropertyOp40
 70
     1
102
RTVSPropertyOp41
 70
     1
102
RTVSPropertyOp42
 70
     1
102
RTVSPropertyOp43
 70
     1
102
RTVSPropertyOp44
 70
     1
102
RTVSPropertyOp45
 70
     1
102
RTVSPropertyOp46
 70
     1
102
RTVSPropertyOp47
 70
     1
102
RTVSPropertyOp48
 70
     1
102
RTVSPropertyOp49
 70
     1
102
RTVSPropertyOp50
 70
     1
102
RTVSPropertyOp51
 70
     0
102
RTVSPropertyOp52
 70
     0
102
RTVSPropertyOp53
 70
     1
102
RTVSPropertyOp54
 70
     1
102
RTVSPropertyOp55
 70
     1
102
RTVSPropertyOp56
 70
     1
102
RTVSPropertyOp57
 70
     1
102
RTVSPost2010Prop28
280
     0
102
RTVSPost2010PropOp28
 70
     1
102
RTVSPost2010Prop29
280
     1
102
RTVSPost2010PropOp29
 70
     1
102
RTVSPost2010Prop30
280
     1
102
RTVSPost2010PropOp30
 70
     1
102
RTVSPost2010Prop31
280
     0
102
RTVSPost2010PropOp31
 70
     1
102
RTVSPost2010Prop32
280
     0
102
RTVSPost2010PropOp32
 70
     1
102
RTVSPost2010Prop33
280
     0
102
RTVSPost2010PropOp33
 70
     1
102
RTVSPost2010Prop34
280
     0
102
RTVSPost2010PropOp34
 70
     1
102
RTVSPost2010Prop35
280
     0
102
RTVSPost2010PropOp35
 70
     1
102
RTVSPost2010Prop36
280
     0
102
RTVSPost2010PropOp36
 70
     1
102
RTVSPost2010Prop37
 90
       50
102
RTVSPost2010PropOp37
 70
     1
102
RTVSPost2010Prop38
140
0.0
102
RTVSPost2010PropOp38
 70
     1
102
RTVSPost2010Prop39
140
1.0
102
RTVSPost2010PropOp39
 70
     1
102
RTVSPost2010Prop40
 90
        0
102
RTVSPost2010PropOp40
 70
     1
102
RTVSPost2010Prop41ColorIndex
 90
       18
102
RTVSPost2010Prop41ColorRGB
 90
        0
102
RTVSPost2010PropOp41
 70
     1
102
RTVSPost2010Prop42
 90
       50
102
RTVSPost2010PropOp42
 70
     1
102
RTVSPost2010Prop43
 90
        3
102
RTVSPost2010PropOp43
 70
     1
102
RTVSPost2010Prop44ColorIndex
 90
        5
102
RTVSPost2010Prop44ColorRGB
 90
      255
102
RTVSPost2010PropOp44
 70
     1
102
RTVSPost2010Prop45
280
     0
102
RTVSPost2010PropOp45
 70
     1
102
RTVSPost2010Prop46
 90
       50
102
RTVSPost2010PropOp46
 70
     1
102
RTVSPost2010Prop47
 90
       50
102
RTVSPost2010PropOp47
 70
     1
102
RTVSPost2010Prop48
 90
       50
102
RTVSPost2010PropOp48
 70
     1
102
RTVSPost2010Prop49
280
     0
102
RTVSPost2010PropOp49
 70
     1
102
RTVSPost2010Prop50
 90
       50
102
RTVSPost2010PropOp50
 70
     1
102
RTVSPost2010Prop51ColorIndex
 90
      256
102
RTVSPost2010Prop51ColorRGB
 90
-16777216
102
RTVSPost2010PropOp51
 70
     0
102
RTVSPost2010Prop52
140
1.0
102
RTVSPost2010PropOp52
 70
     0
102
RTVSPost2010Prop53
 90
        2
102
RTVSPost2010PropOp53
 70
     1
102
RTVSPost2010Prop54
  1
strokes_ogs.tif
102
RTVSPost2010PropOp54
 70
     1
102
RTVSPost2010Prop55
280
     0
102
RTVSPost2010PropOp55
 70
     1
102
RTVSPost2010Prop56
140
1.0
102
RTVSPost2010PropOp56
 70
     1
102
RTVSPost2010Prop57
140
1.0
102
RTVSPost2010PropOp57
 70
     1
  0
XRECORD
  5
64D
102
{ACAD_REACTORS
330
64C
102
}
330
64C
100
AcDbXrecord
280
     1
102
RTVSPropertyOp0
 70
     1
102
RTVSPropertyOp1
 70
     1
102
RTVSPropertyOp2
 70
     1
102
RTVSPropertyOp3
 70
     1
102
RTVSPropertyOp4
 70
     1
102
RTVSPropertyOp5
 70
     1
102
RTVSPropertyOp6
 70
     1
102
RTVSPropertyOp7
 70
     1
102
RTVSPropertyOp8
 70
     1
102
RTVSPropertyOp9
 70
     1
102
RTVSPropertyOp10
 70
     1
102
RTVSPropertyOp11
 70
     1
102
RTVSPropertyOp12
 70
     1
102
RTVSPropertyOp13
 70
     1
102
RTVSPropertyOp14
 70
     1
102
RTVSPropertyOp15
 70
     1
102
RTVSPropertyOp16
 70
     1
102
RTVSPropertyOp17
 70
     1
102
RTVSPropertyOp18
 70
     1
102
RTVSPropertyOp19
 70
     1
102
RTVSPropertyOp20
 70
     1
102
RTVSPropertyOp21
 70
     1
102
RTVSPropertyOp22
 70
     1
102
RTVSPropertyOp23
 70
     1
102
RTVSPropertyOp24
 70
     1
102
RTVSPropertyOp25
 70
     1
102
RTVSPropertyOp26
 70
     1
102
RTVSPropertyOp27
 70
     1
102
RTVSPropertyOp28
 70
     1
102
RTVSPropertyOp29
 70
     1
102
RTVSPropertyOp30
 70
     1
102
RTVSPropertyOp31
 70
     1
102
RTVSPropertyOp32
 70
     1
102
RTVSPropertyOp33
 70
     1
102
RTVSPropertyOp34
 70
     1
102
RTVSPropertyOp35
 70
     1
102
RTVSPropertyOp36
 70
     1
102
RTVSPropertyOp37
 70
     1
102
RTVSPropertyOp38
 70
     1
102
RTVSPropertyOp39
 70
     1
102
RTVSPropertyOp40
 70
     1
102
RTVSPropertyOp41
 70
     1
102
RTVSPropertyOp42
 70
     1
102
RTVSPropertyOp43
 70
     1
102
RTVSPropertyOp44
 70
     1
102
RTVSPropertyOp45
 70
     1
102
RTVSPropertyOp46
 70
     1
102
RTVSPropertyOp47
 70
     1
102
RTVSPropertyOp48
 70
     1
102
RTVSPropertyOp49
 70
     1
102
RTVSPropertyOp50
 70
     1
102
RTVSPropertyOp51
 70
     0
102
RTVSPropertyOp52
 70
     0
102
RTVSPropertyOp53
 70
     1
102
RTVSPropertyOp54
 70
     1
102
RTVSPropertyOp55
 70
     1
102
RTVSPropertyOp56
 70
     1
102
RTVSPropertyOp57
 70
     1
102
RTVSPost2010Prop28
280
     0
102
RTVSPost2010PropOp28
 70
     1
102
RTVSPost2010Prop29
280
     1
102
RTVSPost2010PropOp29
 70
     1
102
RTVSPost2010Prop30
280
     1
102
RTVSPost2010PropOp30
 70
     1
102
RTVSPost2010Prop31
280
     0
102
RTVSPost2010PropOp31
 70
     1
102
RTVSPost2010Prop32
280
     0
102
RTVSPost2010PropOp32
 70
     1
102
RTVSPost2010Prop33
280
     0
102
RTVSPost2010PropOp33
 70
     1
102
RTVSPost2010Prop34
280
     0
102
RTVSPost2010PropOp34
 70
     1
102
RTVSPost2010Prop35
280
     0
102
RTVSPost2010PropOp35
 70
     1
102
RTVSPost2010Prop36
280
     0
102
RTVSPost2010PropOp36
 70
     1
102
RTVSPost2010Prop37
 90
       50
102
RTVSPost2010PropOp37
 70
     1
102
RTVSPost2010Prop38
140
0.0
102
RTVSPost2010PropOp38
 70
     1
102
RTVSPost2010Prop39
140
1.0
102
RTVSPost2010PropOp39
 70
     1
102
RTVSPost2010Prop40
 90
        0
102
RTVSPost2010PropOp40
 70
     1
102
RTVSPost2010Prop41ColorIndex
 90
       18
102
RTVSPost2010Prop41ColorRGB
 90
        0
102
RTVSPost2010PropOp41
 70
     1
102
RTVSPost2010Prop42
 90
       50
102
RTVSPost2010PropOp42
 70
     1
102
RTVSPost2010Prop43
 90
        3
102
RTVSPost2010PropOp43
 70
     1
102
RTVSPost2010Prop44ColorIndex
 90
        5
102
RTVSPost2010Prop44ColorRGB
 90
      255
102
RTVSPost2010PropOp44
 70
     1
102
RTVSPost2010Prop45
280
     0
102
RTVSPost2010PropOp45
 70
     1
102
RTVSPost2010Prop46
 90
       50
102
RTVSPost2010PropOp46
 70
     1
102
RTVSPost2010Prop47
 90
       50
102
RTVSPost2010PropOp47
 70
     1
102
RTVSPost2010Prop48
 90
       50
102
RTVSPost2010PropOp48
 70
     1
102
RTVSPost2010Prop49
280
     0
102
RTVSPost2010PropOp49
 70
     1
102
RTVSPost2010Prop50
 90
       50
102
RTVSPost2010PropOp50
 70
     1
102
RTVSPost2010Prop51ColorIndex
 90
      256
102
RTVSPost2010Prop51ColorRGB
 90
-16777216
102
RTVSPost2010PropOp51
 70
     0
102
RTVSPost2010Prop52
140
1.0
102
RTVSPost2010PropOp52
 70
     0
102
RTVSPost2010Prop53
 90
        2
102
RTVSPost2010PropOp53
 70
     1
102
RTVSPost2010Prop54
  1
strokes_ogs.tif
102
RTVSPost2010PropOp54
 70
     1
102
RTVSPost2010Prop55
280
     0
102
RTVSPost2010PropOp55
 70
     1
102
RTVSPost2010Prop56
140
1.0
102
RTVSPost2010PropOp56
 70
     1
102
RTVSPost2010Prop57
140
1.0
102
RTVSPost2010PropOp57
 70
     1
  0
XRECORD
  5
64F
102
{ACAD_REACTORS
330
64E
102
}
330
64E
100
AcDbXrecord
280
     1
102
RTVSPropertyOp0
 70
     1
102
RTVSPropertyOp1
 70
     1
102
RTVSPropertyOp2
 70
     1
102
RTVSPropertyOp3
 70
     1
102
RTVSPropertyOp4
 70
     1
102
RTVSPropertyOp5
 70
     1
102
RTVSPropertyOp6
 70
     1
102
RTVSPropertyOp7
 70
     1
102
RTVSPropertyOp8
 70
     1
102
RTVSPropertyOp9
 70
     1
102
RTVSPropertyOp10
 70
     1
102
RTVSPropertyOp11
 70
     1
102
RTVSPropertyOp12
 70
     1
102
RTVSPropertyOp13
 70
     1
102
RTVSPropertyOp14
 70
     1
102
RTVSPropertyOp15
 70
     1
102
RTVSPropertyOp16
 70
     1
102
RTVSPropertyOp17
 70
     1
102
RTVSPropertyOp18
 70
     1
102
RTVSPropertyOp19
 70
     1
102
RTVSPropertyOp20
 70
     1
102
RTVSPropertyOp21
 70
     1
102
RTVSPropertyOp22
 70
     1
102
RTVSPropertyOp23
 70
     1
102
RTVSPropertyOp24
 70
     1
102
RTVSPropertyOp25
 70
     1
102
RTVSPropertyOp26
 70
     1
102
RTVSPropertyOp27
 70
     1
102
RTVSPropertyOp28
 70
     1
102
RTVSPropertyOp29
 70
     1
102
RTVSPropertyOp30
 70
     1
102
RTVSPropertyOp31
 70
     1
102
RTVSPropertyOp32
 70
     1
102
RTVSPropertyOp33
 70
     1
102
RTVSPropertyOp34
 70
     1
102
RTVSPropertyOp35
 70
     1
102
RTVSPropertyOp36
 70
     1
102
RTVSPropertyOp37
 70
     1
102
RTVSPropertyOp38
 70
     1
102
RTVSPropertyOp39
 70
     1
102
RTVSPropertyOp40
 70
     1
102
RTVSPropertyOp41
 70
     1
102
RTVSPropertyOp42
 70
     1
102
RTVSPropertyOp43
 70
     1
102
RTVSPropertyOp44
 70
     1
102
RTVSPropertyOp45
 70
     1
102
RTVSPropertyOp46
 70
     1
102
RTVSPropertyOp47
 70
     1
102
RTVSPropertyOp48
 70
     1
102
RTVSPropertyOp49
 70
     1
102
RTVSPropertyOp50
 70
     1
102
RTVSPropertyOp51
 70
     0
102
RTVSPropertyOp52
 70
     0
102
RTVSPropertyOp53
 70
     1
102
RTVSPropertyOp54
 70
     1
102
RTVSPropertyOp55
 70
     1
102
RTVSPropertyOp56
 70
     1
102
RTVSPropertyOp57
 70
     1
102
RTVSPost2010Prop28
280
     0
102
RTVSPost2010PropOp28
 70
     1
102
RTVSPost2010Prop29
280
     1
102
RTVSPost2010PropOp29
 70
     1
102
RTVSPost2010Prop30
280
     1
102
RTVSPost2010PropOp30
 70
     1
102
RTVSPost2010Prop31
280
     0
102
RTVSPost2010PropOp31
 70
     1
102
RTVSPost2010Prop32
280
     0
102
RTVSPost2010PropOp32
 70
     1
102
RTVSPost2010Prop33
280
     0
102
RTVSPost2010PropOp33
 70
     1
102
RTVSPost2010Prop34
280
     0
102
RTVSPost2010PropOp34
 70
     1
102
RTVSPost2010Prop35
280
     0
102
RTVSPost2010PropOp35
 70
     1
102
RTVSPost2010Prop36
280
     0
102
RTVSPost2010PropOp36
 70
     1
102
RTVSPost2010Prop37
 90
       50
102
RTVSPost2010PropOp37
 70
     1
102
RTVSPost2010Prop38
140
0.0
102
RTVSPost2010PropOp38
 70
     1
102
RTVSPost2010Prop39
140
1.0
102
RTVSPost2010PropOp39
 70
     1
102
RTVSPost2010Prop40
 90
        0
102
RTVSPost2010PropOp40
 70
     1
102
RTVSPost2010Prop41ColorIndex
 90
       18
102
RTVSPost2010Prop41ColorRGB
 90
        0
102
RTVSPost2010PropOp41
 70
     1
102
RTVSPost2010Prop42
 90
       50
102
RTVSPost2010PropOp42
 70
     1
102
RTVSPost2010Prop43
 90
        3
102
RTVSPost2010PropOp43
 70
     1
102
RTVSPost2010Prop44ColorIndex
 90
        5
102
RTVSPost2010Prop44ColorRGB
 90
      255
102
RTVSPost2010PropOp44
 70
     1
102
RTVSPost2010Prop45
280
     0
102
RTVSPost2010PropOp45
 70
     1
102
RTVSPost2010Prop46
 90
       50
102
RTVSPost2010PropOp46
 70
     1
102
RTVSPost2010Prop47
 90
       50
102
RTVSPost2010PropOp47
 70
     1
102
RTVSPost2010Prop48
 90
       50
102
RTVSPost2010PropOp48
 70
     1
102
RTVSPost2010Prop49
280
     0
102
RTVSPost2010PropOp49
 70
     1
102
RTVSPost2010Prop50
 90
       50
102
RTVSPost2010PropOp50
 70
     1
102
RTVSPost2010Prop51ColorIndex
 90
      256
102
RTVSPost2010Prop51ColorRGB
 90
-16777216
102
RTVSPost2010PropOp51
 70
     0
102
RTVSPost2010Prop52
140
1.0
102
RTVSPost2010PropOp52
 70
     0
102
RTVSPost2010Prop53
 90
        2
102
RTVSPost2010PropOp53
 70
     1
102
RTVSPost2010Prop54
  1
strokes_ogs.tif
102
RTVSPost2010PropOp54
 70
     1
102
RTVSPost2010Prop55
280
     0
102
RTVSPost2010PropOp55
 70
     1
102
RTVSPost2010Prop56
140
1.0
102
RTVSPost2010PropOp56
 70
     1
102
RTVSPost2010Prop57
140
1.0
102
RTVSPost2010PropOp57
 70
     1
  0
XRECORD
  5
65F
102
{ACAD_REACTORS
330
65E
102
}
330
65E
100
AcDbXrecord
280
     1
102
RTVSPropertyOp0
 70
     0
102
RTVSPropertyOp1
 70
     0
102
RTVSPropertyOp2
 70
     0
102
RTVSPropertyOp3
 70
     0
102
RTVSPropertyOp4
 70
     0
102
RTVSPropertyOp5
 70
     0
102
RTVSPropertyOp6
 70
     0
102
RTVSPropertyOp7
 70
     0
102
RTVSPropertyOp8
 70
     0
102
RTVSPropertyOp9
 70
     0
102
RTVSPropertyOp10
 70
     0
102
RTVSPropertyOp11
 70
     0
102
RTVSPropertyOp12
 70
     0
102
RTVSPropertyOp13
 70
     0
102
RTVSPropertyOp14
 70
     0
102
RTVSPropertyOp15
 70
     0
102
RTVSPropertyOp16
 70
     0
102
RTVSPropertyOp17
 70
     0
102
RTVSPropertyOp18
 70
     0
102
RTVSPropertyOp19
 70
     0
102
RTVSPropertyOp20
 70
     0
102
RTVSPropertyOp21
 70
     0
102
RTVSPropertyOp22
 70
     0
102
RTVSPropertyOp23
 70
     0
102
RTVSPropertyOp24
 70
     0
102
RTVSPropertyOp25
 70
     0
102
RTVSPropertyOp26
 70
     0
102
RTVSPropertyOp27
 70
     0
102
RTVSPropertyOp28
 70
     1
102
RTVSPropertyOp29
 70
     1
102
RTVSPropertyOp30
 70
     1
102
RTVSPropertyOp31
 70
     1
102
RTVSPropertyOp32
 70
     1
102
RTVSPropertyOp33
 70
     1
102
RTVSPropertyOp34
 70
     1
102
RTVSPropertyOp35
 70
     1
102
RTVSPropertyOp36
 70
     1
102
RTVSPropertyOp37
 70
     1
102
RTVSPropertyOp38
 70
     1
102
RTVSPropertyOp39
 70
     1
102
RTVSPropertyOp40
 70
     1
102
RTVSPropertyOp41
 70
     1
102
RTVSPropertyOp42
 70
     1
102
RTVSPropertyOp43
 70
     1
102
RTVSPropertyOp44
 70
     1
102
RTVSPropertyOp45
 70
     1
102
RTVSPropertyOp46
 70
     1
102
RTVSPropertyOp47
 70
     1
102
RTVSPropertyOp48
 70
     1
102
RTVSPropertyOp49
 70
     1
102
RTVSPropertyOp50
 70
     1
102
RTVSPropertyOp51
 70
     0
102
RTVSPropertyOp52
 70
     0
102
RTVSPropertyOp53
 70
     1
102
RTVSPropertyOp54
 70
     1
102
RTVSPropertyOp55
 70
     1
102
RTVSPropertyOp56
 70
     1
102
RTVSPropertyOp57
 70
     1
102
RTVSPost2010Prop28
280
     0
102
RTVSPost2010PropOp28
 70
     1
102
RTVSPost2010Prop29
280
     1
102
RTVSPost2010PropOp29
 70
     1
102
RTVSPost2010Prop30
280
     1
102
RTVSPost2010PropOp30
 70
     1
102
RTVSPost2010Prop31
280
     0
102
RTVSPost2010PropOp31
 70
     1
102
RTVSPost2010Prop32
280
     0
102
RTVSPost2010PropOp32
 70
     1
102
RTVSPost2010Prop33
280
     0
102
RTVSPost2010PropOp33
 70
     1
102
RTVSPost2010Prop34
280
     0
102
RTVSPost2010PropOp34
 70
     1
102
RTVSPost2010Prop35
280
     0
102
RTVSPost2010PropOp35
 70
     1
102
RTVSPost2010Prop36
280
     0
102
RTVSPost2010PropOp36
 70
     1
102
RTVSPost2010Prop37
 90
       50
102
RTVSPost2010PropOp37
 70
     1
102
RTVSPost2010Prop38
140
0.0
102
RTVSPost2010PropOp38
 70
     1
102
RTVSPost2010Prop39
140
1.0
102
RTVSPost2010PropOp39
 70
     1
102
RTVSPost2010Prop40
 90
        0
102
RTVSPost2010PropOp40
 70
     1
102
RTVSPost2010Prop41ColorIndex
 90
       18
102
RTVSPost2010Prop41ColorRGB
 90
        0
102
RTVSPost2010PropOp41
 70
     1
102
RTVSPost2010Prop42
 90
       50
102
RTVSPost2010PropOp42
 70
     1
102
RTVSPost2010Prop43
 90
        3
102
RTVSPost2010PropOp43
 70
     1
102
RTVSPost2010Prop44ColorIndex
 90
        5
102
RTVSPost2010Prop44ColorRGB
 90
      255
102
RTVSPost2010PropOp44
 70
     1
102
RTVSPost2010Prop45
280
     0
102
RTVSPost2010PropOp45
 70
     1
102
RTVSPost2010Prop46
 90
       50
102
RTVSPost2010PropOp46
 70
     1
102
RTVSPost2010Prop47
 90
       50
102
RTVSPost2010PropOp47
 70
     1
102
RTVSPost2010Prop48
 90
       50
102
RTVSPost2010PropOp48
 70
     1
102
RTVSPost2010Prop49
280
     0
102
RTVSPost2010PropOp49
 70
     1
102
RTVSPost2010Prop50
 90
       50
102
RTVSPost2010PropOp50
 70
     1
102
RTVSPost2010Prop51ColorIndex
 90
      256
102
RTVSPost2010Prop51ColorRGB
 90
-16777216
102
RTVSPost2010PropOp51
 70
     0
102
RTVSPost2010Prop52
140
1.0
102
RTVSPost2010PropOp52
 70
     0
102
RTVSPost2010Prop53
 90
        2
102
RTVSPost2010PropOp53
 70
     1
102
RTVSPost2010Prop54
  1
strokes_ogs.tif
102
RTVSPost2010PropOp54
 70
     1
102
RTVSPost2010Prop55
280
     0
102
RTVSPost2010PropOp55
 70
     1
102
RTVSPost2010Prop56
140
1.0
102
RTVSPost2010PropOp56
 70
     1
102
RTVSPost2010Prop57
140
1.0
102
RTVSPost2010PropOp57
 70
     1
  0
XRECORD
  5
657
102
{ACAD_REACTORS
330
656
102
}
330
656
100
AcDbXrecord
280
     1
102
RTVSPropertyOp0
 70
     1
102
RTVSPropertyOp1
 70
     1
102
RTVSPropertyOp2
 70
     1
102
RTVSPropertyOp3
 70
     1
102
RTVSPropertyOp4
 70
     1
102
RTVSPropertyOp5
 70
     1
102
RTVSPropertyOp6
 70
     1
102
RTVSPropertyOp7
 70
     1
102
RTVSPropertyOp8
 70
     1
102
RTVSPropertyOp9
 70
     1
102
RTVSPropertyOp10
 70
     1
102
RTVSPropertyOp11
 70
     1
102
RTVSPropertyOp12
 70
     1
102
RTVSPropertyOp13
 70
     1
102
RTVSPropertyOp14
 70
     1
102
RTVSPropertyOp15
 70
     1
102
RTVSPropertyOp16
 70
     1
102
RTVSPropertyOp17
 70
     1
102
RTVSPropertyOp18
 70
     1
102
RTVSPropertyOp19
 70
     1
102
RTVSPropertyOp20
 70
     1
102
RTVSPropertyOp21
 70
     1
102
RTVSPropertyOp22
 70
     1
102
RTVSPropertyOp23
 70
     1
102
RTVSPropertyOp24
 70
     1
102
RTVSPropertyOp25
 70
     1
102
RTVSPropertyOp26
 70
     1
102
RTVSPropertyOp27
 70
     1
102
RTVSPropertyOp28
 70
     1
102
RTVSPropertyOp29
 70
     1
102
RTVSPropertyOp30
 70
     1
102
RTVSPropertyOp31
 70
     1
102
RTVSPropertyOp32
 70
     1
102
RTVSPropertyOp33
 70
     1
102
RTVSPropertyOp34
 70
     1
102
RTVSPropertyOp35
 70
     1
102
RTVSPropertyOp36
 70
     1
102
RTVSPropertyOp37
 70
     1
102
RTVSPropertyOp38
 70
     1
102
RTVSPropertyOp39
 70
     1
102
RTVSPropertyOp40
 70
     1
102
RTVSPropertyOp41
 70
     1
102
RTVSPropertyOp42
 70
     1
102
RTVSPropertyOp43
 70
     1
102
RTVSPropertyOp44
 70
     1
102
RTVSPropertyOp45
 70
     1
102
RTVSPropertyOp46
 70
     1
102
RTVSPropertyOp47
 70
     1
102
RTVSPropertyOp48
 70
     1
102
RTVSPropertyOp49
 70
     1
102
RTVSPropertyOp50
 70
     1
102
RTVSPropertyOp51
 70
     0
102
RTVSPropertyOp52
 70
     0
102
RTVSPropertyOp53
 70
     1
102
RTVSPropertyOp54
 70
     1
102
RTVSPropertyOp55
 70
     1
102
RTVSPropertyOp56
 70
     1
102
RTVSPropertyOp57
 70
     1
102
RTVSPost2010Prop28
280
     0
102
RTVSPost2010PropOp28
 70
     1
102
RTVSPost2010Prop29
280
     1
102
RTVSPost2010PropOp29
 70
     1
102
RTVSPost2010Prop30
280
     1
102
RTVSPost2010PropOp30
 70
     1
102
RTVSPost2010Prop31
280
     0
102
RTVSPost2010PropOp31
 70
     1
102
RTVSPost2010Prop32
280
     0
102
RTVSPost2010PropOp32
 70
     1
102
RTVSPost2010Prop33
280
     0
102
RTVSPost2010PropOp33
 70
     1
102
RTVSPost2010Prop34
280
     0
102
RTVSPost2010PropOp34
 70
     1
102
RTVSPost2010Prop35
280
     0
102
RTVSPost2010PropOp35
 70
     1
102
RTVSPost2010Prop36
280
     0
102
RTVSPost2010PropOp36
 70
     1
102
RTVSPost2010Prop37
 90
       50
102
RTVSPost2010PropOp37
 70
     1
102
RTVSPost2010Prop38
140
0.0
102
RTVSPost2010PropOp38
 70
     1
102
RTVSPost2010Prop39
140
1.0
102
RTVSPost2010PropOp39
 70
     1
102
RTVSPost2010Prop40
 90
        0
102
RTVSPost2010PropOp40
 70
     1
102
RTVSPost2010Prop41ColorIndex
 90
       18
102
RTVSPost2010Prop41ColorRGB
 90
        0
102
RTVSPost2010PropOp41
 70
     1
102
RTVSPost2010Prop42
 90
       50
102
RTVSPost2010PropOp42
 70
     1
102
RTVSPost2010Prop43
 90
        3
102
RTVSPost2010PropOp43
 70
     1
102
RTVSPost2010Prop44ColorIndex
 90
        5
102
RTVSPost2010Prop44ColorRGB
 90
      255
102
RTVSPost2010PropOp44
 70
     1
102
RTVSPost2010Prop45
280
     0
102
RTVSPost2010PropOp45
 70
     1
102
RTVSPost2010Prop46
 90
       50
102
RTVSPost2010PropOp46
 70
     1
102
RTVSPost2010Prop47
 90
       50
102
RTVSPost2010PropOp47
 70
     1
102
RTVSPost2010Prop48
 90
       50
102
RTVSPost2010PropOp48
 70
     1
102
RTVSPost2010Prop49
280
     0
102
RTVSPost2010PropOp49
 70
     1
102
RTVSPost2010Prop50
 90
       50
102
RTVSPost2010PropOp50
 70
     1
102
RTVSPost2010Prop51ColorIndex
 90
      256
102
RTVSPost2010Prop51ColorRGB
 90
-16777216
102
RTVSPost2010PropOp51
 70
     0
102
RTVSPost2010Prop52
140
1.0
102
RTVSPost2010PropOp52
 70
     0
102
RTVSPost2010Prop53
 90
        2
102
RTVSPost2010PropOp53
 70
     1
102
RTVSPost2010Prop54
  1
strokes_ogs.tif
102
RTVSPost2010PropOp54
 70
     1
102
RTVSPost2010Prop55
280
     0
102
RTVSPost2010PropOp55
 70
     1
102
RTVSPost2010Prop56
140
1.0
102
RTVSPost2010PropOp56
 70
     1
102
RTVSPost2010Prop57
140
1.0
102
RTVSPost2010PropOp57
 70
     1
  0
XRECORD
  5
63F
102
{ACAD_REACTORS
330
63E
102
}
330
63E
100
AcDbXrecord
280
     1
102
RTVSPropertyOp0
 70
     1
102
RTVSPropertyOp1
 70
     1
102
RTVSPropertyOp2
 70
     1
102
RTVSPropertyOp3
 70
     1
102
RTVSPropertyOp4
 70
     1
102
RTVSPropertyOp5
 70
     1
102
RTVSPropertyOp6
 70
     1
102
RTVSPropertyOp7
 70
     1
102
RTVSPropertyOp8
 70
     1
102
RTVSPropertyOp9
 70
     1
102
RTVSPropertyOp10
 70
     1
102
RTVSPropertyOp11
 70
     1
102
RTVSPropertyOp12
 70
     1
102
RTVSPropertyOp13
 70
     1
102
RTVSPropertyOp14
 70
     1
102
RTVSPropertyOp15
 70
     1
102
RTVSPropertyOp16
 70
     1
102
RTVSPropertyOp17
 70
     1
102
RTVSPropertyOp18
 70
     1
102
RTVSPropertyOp19
 70
     1
102
RTVSPropertyOp20
 70
     1
102
RTVSPropertyOp21
 70
     1
102
RTVSPropertyOp22
 70
     1
102
RTVSPropertyOp23
 70
     1
102
RTVSPropertyOp24
 70
     1
102
RTVSPropertyOp25
 70
     1
102
RTVSPropertyOp26
 70
     1
102
RTVSPropertyOp27
 70
     1
102
RTVSPropertyOp28
 70
     1
102
RTVSPropertyOp29
 70
     1
102
RTVSPropertyOp30
 70
     1
102
RTVSPropertyOp31
 70
     1
102
RTVSPropertyOp32
 70
     1
102
RTVSPropertyOp33
 70
     1
102
RTVSPropertyOp34
 70
     1
102
RTVSPropertyOp35
 70
     1
102
RTVSPropertyOp36
 70
     1
102
RTVSPropertyOp37
 70
     1
102
RTVSPropertyOp38
 70
     1
102
RTVSPropertyOp39
 70
     1
102
RTVSPropertyOp40
 70
     1
102
RTVSPropertyOp41
 70
     1
102
RTVSPropertyOp42
 70
     1
102
RTVSPropertyOp43
 70
     1
102
RTVSPropertyOp44
 70
     1
102
RTVSPropertyOp45
 70
     1
102
RTVSPropertyOp46
 70
     1
102
RTVSPropertyOp47
 70
     1
102
RTVSPropertyOp48
 70
     1
102
RTVSPropertyOp49
 70
     1
102
RTVSPropertyOp50
 70
     1
102
RTVSPropertyOp51
 70
     0
102
RTVSPropertyOp52
 70
     0
102
RTVSPropertyOp53
 70
     1
102
RTVSPropertyOp54
 70
     1
102
RTVSPropertyOp55
 70
     1
102
RTVSPropertyOp56
 70
     1
102
RTVSPropertyOp57
 70
     1
102
RTVSPost2010Prop28
280
     0
102
RTVSPost2010PropOp28
 70
     1
102
RTVSPost2010Prop29
280
     1
102
RTVSPost2010PropOp29
 70
     1
102
RTVSPost2010Prop30
280
     1
102
RTVSPost2010PropOp30
 70
     1
102
RTVSPost2010Prop31
280
     0
102
RTVSPost2010PropOp31
 70
     1
102
RTVSPost2010Prop32
280
     0
102
RTVSPost2010PropOp32
 70
     1
102
RTVSPost2010Prop33
280
     0
102
RTVSPost2010PropOp33
 70
     1
102
RTVSPost2010Prop34
280
     0
102
RTVSPost2010PropOp34
 70
     1
102
RTVSPost2010Prop35
280
     0
102
RTVSPost2010PropOp35
 70
     1
102
RTVSPost2010Prop36
280
     0
102
RTVSPost2010PropOp36
 70
     1
102
RTVSPost2010Prop37
 90
       50
102
RTVSPost2010PropOp37
 70
     1
102
RTVSPost2010Prop38
140
0.0
102
RTVSPost2010PropOp38
 70
     1
102
RTVSPost2010Prop39
140
1.0
102
RTVSPost2010PropOp39
 70
     1
102
RTVSPost2010Prop40
 90
        0
102
RTVSPost2010PropOp40
 70
     1
102
RTVSPost2010Prop41ColorIndex
 90
       18
102
RTVSPost2010Prop41ColorRGB
 90
        0
102
RTVSPost2010PropOp41
 70
     1
102
RTVSPost2010Prop42
 90
       50
102
RTVSPost2010PropOp42
 70
     1
102
RTVSPost2010Prop43
 90
        3
102
RTVSPost2010PropOp43
 70
     1
102
RTVSPost2010Prop44ColorIndex
 90
        5
102
RTVSPost2010Prop44ColorRGB
 90
      255
102
RTVSPost2010PropOp44
 70
     1
102
RTVSPost2010Prop45
280
     0
102
RTVSPost2010PropOp45
 70
     1
102
RTVSPost2010Prop46
 90
       50
102
RTVSPost2010PropOp46
 70
     1
102
RTVSPost2010Prop47
 90
       50
102
RTVSPost2010PropOp47
 70
     1
102
RTVSPost2010Prop48
 90
       50
102
RTVSPost2010PropOp48
 70
     1
102
RTVSPost2010Prop49
280
     0
102
RTVSPost2010PropOp49
 70
     1
102
RTVSPost2010Prop50
 90
       50
102
RTVSPost2010PropOp50
 70
     1
102
RTVSPost2010Prop51ColorIndex
 90
      256
102
RTVSPost2010Prop51ColorRGB
 90
-16777216
102
RTVSPost2010PropOp51
 70
     0
102
RTVSPost2010Prop52
140
1.0
102
RTVSPost2010PropOp52
 70
     0
102
RTVSPost2010Prop53
 90
        2
102
RTVSPost2010PropOp53
 70
     1
102
RTVSPost2010Prop54
  1
strokes_ogs.tif
102
RTVSPost2010PropOp54
 70
     1
102
RTVSPost2010Prop55
280
     0
102
RTVSPost2010PropOp55
 70
     1
102
RTVSPost2010Prop56
140
1.0
102
RTVSPost2010PropOp56
 70
     1
102
RTVSPost2010Prop57
140
1.0
102
RTVSPost2010PropOp57
 70
     1
  0
XRECORD
  5
641
102
{ACAD_REACTORS
330
640
102
}
330
640
100
AcDbXrecord
280
     1
102
RTVSPropertyOp0
 70
     1
102
RTVSPropertyOp1
 70
     1
102
RTVSPropertyOp2
 70
     1
102
RTVSPropertyOp3
 70
     1
102
RTVSPropertyOp4
 70
     1
102
RTVSPropertyOp5
 70
     1
102
RTVSPropertyOp6
 70
     1
102
RTVSPropertyOp7
 70
     1
102
RTVSPropertyOp8
 70
     1
102
RTVSPropertyOp9
 70
     1
102
RTVSPropertyOp10
 70
     1
102
RTVSPropertyOp11
 70
     1
102
RTVSPropertyOp12
 70
     1
102
RTVSPropertyOp13
 70
     1
102
RTVSPropertyOp14
 70
     1
102
RTVSPropertyOp15
 70
     1
102
RTVSPropertyOp16
 70
     1
102
RTVSPropertyOp17
 70
     1
102
RTVSPropertyOp18
 70
     1
102
RTVSPropertyOp19
 70
     1
102
RTVSPropertyOp20
 70
     1
102
RTVSPropertyOp21
 70
     1
102
RTVSPropertyOp22
 70
     1
102
RTVSPropertyOp23
 70
     1
102
RTVSPropertyOp24
 70
     1
102
RTVSPropertyOp25
 70
     1
102
RTVSPropertyOp26
 70
     1
102
RTVSPropertyOp27
 70
     1
102
RTVSPropertyOp28
 70
     1
102
RTVSPropertyOp29
 70
     1
102
RTVSPropertyOp30
 70
     1
102
RTVSPropertyOp31
 70
     1
102
RTVSPropertyOp32
 70
     1
102
RTVSPropertyOp33
 70
     1
102
RTVSPropertyOp34
 70
     1
102
RTVSPropertyOp35
 70
     1
102
RTVSPropertyOp36
 70
     1
102
RTVSPropertyOp37
 70
     1
102
RTVSPropertyOp38
 70
     1
102
RTVSPropertyOp39
 70
     1
102
RTVSPropertyOp40
 70
     1
102
RTVSPropertyOp41
 70
     1
102
RTVSPropertyOp42
 70
     1
102
RTVSPropertyOp43
 70
     1
102
RTVSPropertyOp44
 70
     1
102
RTVSPropertyOp45
 70
     1
102
RTVSPropertyOp46
 70
     1
102
RTVSPropertyOp47
 70
     1
102
RTVSPropertyOp48
 70
     1
102
RTVSPropertyOp49
 70
     1
102
RTVSPropertyOp50
 70
     1
102
RTVSPropertyOp51
 70
     0
102
RTVSPropertyOp52
 70
     0
102
RTVSPropertyOp53
 70
     1
102
RTVSPropertyOp54
 70
     1
102
RTVSPropertyOp55
 70
     1
102
RTVSPropertyOp56
 70
     1
102
RTVSPropertyOp57
 70
     1
102
RTVSPost2010Prop28
280
     0
102
RTVSPost2010PropOp28
 70
     1
102
RTVSPost2010Prop29
280
     1
102
RTVSPost2010PropOp29
 70
     1
102
RTVSPost2010Prop30
280
     1
102
RTVSPost2010PropOp30
 70
     1
102
RTVSPost2010Prop31
280
     0
102
RTVSPost2010PropOp31
 70
     1
102
RTVSPost2010Prop32
280
     0
102
RTVSPost2010PropOp32
 70
     1
102
RTVSPost2010Prop33
280
     0
102
RTVSPost2010PropOp33
 70
     1
102
RTVSPost2010Prop34
280
     0
102
RTVSPost2010PropOp34
 70
     1
102
RTVSPost2010Prop35
280
     0
102
RTVSPost2010PropOp35
 70
     1
102
RTVSPost2010Prop36
280
     0
102
RTVSPost2010PropOp36
 70
     1
102
RTVSPost2010Prop37
 90
       50
102
RTVSPost2010PropOp37
 70
     1
102
RTVSPost2010Prop38
140
0.0
102
RTVSPost2010PropOp38
 70
     1
102
RTVSPost2010Prop39
140
1.0
102
RTVSPost2010PropOp39
 70
     1
102
RTVSPost2010Prop40
 90
        0
102
RTVSPost2010PropOp40
 70
     1
102
RTVSPost2010Prop41ColorIndex
 90
       18
102
RTVSPost2010Prop41ColorRGB
 90
        0
102
RTVSPost2010PropOp41
 70
     1
102
RTVSPost2010Prop42
 90
       50
102
RTVSPost2010PropOp42
 70
     1
102
RTVSPost2010Prop43
 90
        3
102
RTVSPost2010PropOp43
 70
     1
102
RTVSPost2010Prop44ColorIndex
 90
        5
102
RTVSPost2010Prop44ColorRGB
 90
      255
102
RTVSPost2010PropOp44
 70
     1
102
RTVSPost2010Prop45
280
     0
102
RTVSPost2010PropOp45
 70
     1
102
RTVSPost2010Prop46
 90
       50
102
RTVSPost2010PropOp46
 70
     1
102
RTVSPost2010Prop47
 90
       50
102
RTVSPost2010PropOp47
 70
     1
102
RTVSPost2010Prop48
 90
       50
102
RTVSPost2010PropOp48
 70
     1
102
RTVSPost2010Prop49
280
     0
102
RTVSPost2010PropOp49
 70
     1
102
RTVSPost2010Prop50
 90
       50
102
RTVSPost2010PropOp50
 70
     1
102
RTVSPost2010Prop51ColorIndex
 90
      256
102
RTVSPost2010Prop51ColorRGB
 90
-16777216
102
RTVSPost2010PropOp51
 70
     0
102
RTVSPost2010Prop52
140
1.0
102
RTVSPost2010PropOp52
 70
     0
102
RTVSPost2010Prop53
 90
        2
102
RTVSPost2010PropOp53
 70
     1
102
RTVSPost2010Prop54
  1
strokes_ogs.tif
102
RTVSPost2010PropOp54
 70
     1
102
RTVSPost2010Prop55
280
     0
102
RTVSPost2010PropOp55
 70
     1
102
RTVSPost2010Prop56
140
1.0
102
RTVSPost2010PropOp56
 70
     1
102
RTVSPost2010Prop57
140
1.0
102
RTVSPost2010PropOp57
 70
     1
  0
XRECORD
  5
643
102
{ACAD_REACTORS
330
642
102
}
330
642
100
AcDbXrecord
280
     1
102
RTVSPropertyOp0
 70
     1
102
RTVSPropertyOp1
 70
     1
102
RTVSPropertyOp2
 70
     1
102
RTVSPropertyOp3
 70
     1
102
RTVSPropertyOp4
 70
     1
102
RTVSPropertyOp5
 70
     1
102
RTVSPropertyOp6
 70
     1
102
RTVSPropertyOp7
 70
     1
102
RTVSPropertyOp8
 70
     1
102
RTVSPropertyOp9
 70
     1
102
RTVSPropertyOp10
 70
     1
102
RTVSPropertyOp11
 70
     1
102
RTVSPropertyOp12
 70
     1
102
RTVSPropertyOp13
 70
     1
102
RTVSPropertyOp14
 70
     1
102
RTVSPropertyOp15
 70
     1
102
RTVSPropertyOp16
 70
     1
102
RTVSPropertyOp17
 70
     1
102
RTVSPropertyOp18
 70
     1
102
RTVSPropertyOp19
 70
     1
102
RTVSPropertyOp20
 70
     1
102
RTVSPropertyOp21
 70
     1
102
RTVSPropertyOp22
 70
     1
102
RTVSPropertyOp23
 70
     1
102
RTVSPropertyOp24
 70
     1
102
RTVSPropertyOp25
 70
     1
102
RTVSPropertyOp26
 70
     1
102
RTVSPropertyOp27
 70
     1
102
RTVSPropertyOp28
 70
     1
102
RTVSPropertyOp29
 70
     1
102
RTVSPropertyOp30
 70
     1
102
RTVSPropertyOp31
 70
     1
102
RTVSPropertyOp32
 70
     1
102
RTVSPropertyOp33
 70
     1
102
RTVSPropertyOp34
 70
     1
102
RTVSPropertyOp35
 70
     1
102
RTVSPropertyOp36
 70
     1
102
RTVSPropertyOp37
 70
     1
102
RTVSPropertyOp38
 70
     1
102
RTVSPropertyOp39
 70
     1
102
RTVSPropertyOp40
 70
     1
102
RTVSPropertyOp41
 70
     1
102
RTVSPropertyOp42
 70
     1
102
RTVSPropertyOp43
 70
     1
102
RTVSPropertyOp44
 70
     1
102
RTVSPropertyOp45
 70
     1
102
RTVSPropertyOp46
 70
     1
102
RTVSPropertyOp47
 70
     1
102
RTVSPropertyOp48
 70
     1
102
RTVSPropertyOp49
 70
     1
102
RTVSPropertyOp50
 70
     1
102
RTVSPropertyOp51
 70
     0
102
RTVSPropertyOp52
 70
     0
102
RTVSPropertyOp53
 70
     1
102
RTVSPropertyOp54
 70
     1
102
RTVSPropertyOp55
 70
     1
102
RTVSPropertyOp56
 70
     1
102
RTVSPropertyOp57
 70
     1
102
RTVSPost2010Prop28
280
     0
102
RTVSPost2010PropOp28
 70
     1
102
RTVSPost2010Prop29
280
     1
102
RTVSPost2010PropOp29
 70
     1
102
RTVSPost2010Prop30
280
     1
102
RTVSPost2010PropOp30
 70
     1
102
RTVSPost2010Prop31
280
     0
102
RTVSPost2010PropOp31
 70
     1
102
RTVSPost2010Prop32
280
     0
102
RTVSPost2010PropOp32
 70
     1
102
RTVSPost2010Prop33
280
     0
102
RTVSPost2010PropOp33
 70
     1
102
RTVSPost2010Prop34
280
     0
102
RTVSPost2010PropOp34
 70
     1
102
RTVSPost2010Prop35
280
     0
102
RTVSPost2010PropOp35
 70
     1
102
RTVSPost2010Prop36
280
     0
102
RTVSPost2010PropOp36
 70
     1
102
RTVSPost2010Prop37
 90
       50
102
RTVSPost2010PropOp37
 70
     1
102
RTVSPost2010Prop38
140
0.0
102
RTVSPost2010PropOp38
 70
     1
102
RTVSPost2010Prop39
140
1.0
102
RTVSPost2010PropOp39
 70
     1
102
RTVSPost2010Prop40
 90
        0
102
RTVSPost2010PropOp40
 70
     1
102
RTVSPost2010Prop41ColorIndex
 90
       18
102
RTVSPost2010Prop41ColorRGB
 90
        0
102
RTVSPost2010PropOp41
 70
     1
102
RTVSPost2010Prop42
 90
       50
102
RTVSPost2010PropOp42
 70
     1
102
RTVSPost2010Prop43
 90
        3
102
RTVSPost2010PropOp43
 70
     1
102
RTVSPost2010Prop44ColorIndex
 90
        5
102
RTVSPost2010Prop44ColorRGB
 90
      255
102
RTVSPost2010PropOp44
 70
     1
102
RTVSPost2010Prop45
280
     0
102
RTVSPost2010PropOp45
 70
     1
102
RTVSPost2010Prop46
 90
       50
102
RTVSPost2010PropOp46
 70
     1
102
RTVSPost2010Prop47
 90
       50
102
RTVSPost2010PropOp47
 70
     1
102
RTVSPost2010Prop48
 90
       50
102
RTVSPost2010PropOp48
 70
     1
102
RTVSPost2010Prop49
280
     0
102
RTVSPost2010PropOp49
 70
     1
102
RTVSPost2010Prop50
 90
       50
102
RTVSPost2010PropOp50
 70
     1
102
RTVSPost2010Prop51ColorIndex
 90
      256
102
RTVSPost2010Prop51ColorRGB
 90
-16777216
102
RTVSPost2010PropOp51
 70
     0
102
RTVSPost2010Prop52
140
1.0
102
RTVSPost2010PropOp52
 70
     0
102
RTVSPost2010Prop53
 90
        2
102
RTVSPost2010PropOp53
 70
     1
102
RTVSPost2010Prop54
  1
strokes_ogs.tif
102
RTVSPost2010PropOp54
 70
     1
102
RTVSPost2010Prop55
280
     0
102
RTVSPost2010PropOp55
 70
     1
102
RTVSPost2010Prop56
140
1.0
102
RTVSPost2010PropOp56
 70
     1
102
RTVSPost2010Prop57
140
1.0
102
RTVSPost2010PropOp57
 70
     1
  0
XRECORD
  5
645
102
{ACAD_REACTORS
330
644
102
}
330
644
100
AcDbXrecord
280
     1
102
RTVSPropertyOp0
 70
     1
102
RTVSPropertyOp1
 70
     1
102
RTVSPropertyOp2
 70
     1
102
RTVSPropertyOp3
 70
     1
102
RTVSPropertyOp4
 70
     1
102
RTVSPropertyOp5
 70
     1
102
RTVSPropertyOp6
 70
     1
102
RTVSPropertyOp7
 70
     1
102
RTVSPropertyOp8
 70
     1
102
RTVSPropertyOp9
 70
     1
102
RTVSPropertyOp10
 70
     1
102
RTVSPropertyOp11
 70
     1
102
RTVSPropertyOp12
 70
     1
102
RTVSPropertyOp13
 70
     1
102
RTVSPropertyOp14
 70
     1
102
RTVSPropertyOp15
 70
     1
102
RTVSPropertyOp16
 70
     1
102
RTVSPropertyOp17
 70
     1
102
RTVSPropertyOp18
 70
     1
102
RTVSPropertyOp19
 70
     1
102
RTVSPropertyOp20
 70
     1
102
RTVSPropertyOp21
 70
     1
102
RTVSPropertyOp22
 70
     1
102
RTVSPropertyOp23
 70
     1
102
RTVSPropertyOp24
 70
     1
102
RTVSPropertyOp25
 70
     1
102
RTVSPropertyOp26
 70
     1
102
RTVSPropertyOp27
 70
     1
102
RTVSPropertyOp28
 70
     1
102
RTVSPropertyOp29
 70
     1
102
RTVSPropertyOp30
 70
     1
102
RTVSPropertyOp31
 70
     1
102
RTVSPropertyOp32
 70
     1
102
RTVSPropertyOp33
 70
     1
102
RTVSPropertyOp34
 70
     1
102
RTVSPropertyOp35
 70
     1
102
RTVSPropertyOp36
 70
     1
102
RTVSPropertyOp37
 70
     1
102
RTVSPropertyOp38
 70
     1
102
RTVSPropertyOp39
 70
     1
102
RTVSPropertyOp40
 70
     1
102
RTVSPropertyOp41
 70
     1
102
RTVSPropertyOp42
 70
     1
102
RTVSPropertyOp43
 70
     1
102
RTVSPropertyOp44
 70
     1
102
RTVSPropertyOp45
 70
     1
102
RTVSPropertyOp46
 70
     1
102
RTVSPropertyOp47
 70
     1
102
RTVSPropertyOp48
 70
     1
102
RTVSPropertyOp49
 70
     1
102
RTVSPropertyOp50
 70
     1
102
RTVSPropertyOp51
 70
     0
102
RTVSPropertyOp52
 70
     0
102
RTVSPropertyOp53
 70
     1
102
RTVSPropertyOp54
 70
     1
102
RTVSPropertyOp55
 70
     1
102
RTVSPropertyOp56
 70
     1
102
RTVSPropertyOp57
 70
     1
102
RTVSPost2010Prop28
280
     0
102
RTVSPost2010PropOp28
 70
     1
102
RTVSPost2010Prop29
280
     1
102
RTVSPost2010PropOp29
 70
     1
102
RTVSPost2010Prop30
280
     1
102
RTVSPost2010PropOp30
 70
     1
102
RTVSPost2010Prop31
280
     0
102
RTVSPost2010PropOp31
 70
     1
102
RTVSPost2010Prop32
280
     0
102
RTVSPost2010PropOp32
 70
     1
102
RTVSPost2010Prop33
280
     0
102
RTVSPost2010PropOp33
 70
     1
102
RTVSPost2010Prop34
280
     0
102
RTVSPost2010PropOp34
 70
     1
102
RTVSPost2010Prop35
280
     0
102
RTVSPost2010PropOp35
 70
     1
102
RTVSPost2010Prop36
280
     0
102
RTVSPost2010PropOp36
 70
     1
102
RTVSPost2010Prop37
 90
       50
102
RTVSPost2010PropOp37
 70
     1
102
RTVSPost2010Prop38
140
0.0
102
RTVSPost2010PropOp38
 70
     1
102
RTVSPost2010Prop39
140
1.0
102
RTVSPost2010PropOp39
 70
     1
102
RTVSPost2010Prop40
 90
        0
102
RTVSPost2010PropOp40
 70
     1
102
RTVSPost2010Prop41ColorIndex
 90
       18
102
RTVSPost2010Prop41ColorRGB
 90
        0
102
RTVSPost2010PropOp41
 70
     1
102
RTVSPost2010Prop42
 90
       50
102
RTVSPost2010PropOp42
 70
     1
102
RTVSPost2010Prop43
 90
        3
102
RTVSPost2010PropOp43
 70
     1
102
RTVSPost2010Prop44ColorIndex
 90
        5
102
RTVSPost2010Prop44ColorRGB
 90
      255
102
RTVSPost2010PropOp44
 70
     1
102
RTVSPost2010Prop45
280
     0
102
RTVSPost2010PropOp45
 70
     1
102
RTVSPost2010Prop46
 90
       50
102
RTVSPost2010PropOp46
 70
     1
102
RTVSPost2010Prop47
 90
       50
102
RTVSPost2010PropOp47
 70
     1
102
RTVSPost2010Prop48
 90
       50
102
RTVSPost2010PropOp48
 70
     1
102
RTVSPost2010Prop49
280
     0
102
RTVSPost2010PropOp49
 70
     1
102
RTVSPost2010Prop50
 90
       50
102
RTVSPost2010PropOp50
 70
     1
102
RTVSPost2010Prop51ColorIndex
 90
      256
102
RTVSPost2010Prop51ColorRGB
 90
-16777216
102
RTVSPost2010PropOp51
 70
     0
102
RTVSPost2010Prop52
140
1.0
102
RTVSPost2010PropOp52
 70
     0
102
RTVSPost2010Prop53
 90
        2
102
RTVSPost2010PropOp53
 70
     1
102
RTVSPost2010Prop54
  1
strokes_ogs.tif
102
RTVSPost2010PropOp54
 70
     1
102
RTVSPost2010Prop55
280
     0
102
RTVSPost2010PropOp55
 70
     1
102
RTVSPost2010Prop56
140
1.0
102
RTVSPost2010PropOp56
 70
     1
102
RTVSPost2010Prop57
140
1.0
102
RTVSPost2010PropOp57
 70
     1
  0
XRECORD
  5
649
102
{ACAD_REACTORS
330
648
102
}
330
648
100
AcDbXrecord
280
     1
102
RTVSPropertyOp0
 70
     1
102
RTVSPropertyOp1
 70
     1
102
RTVSPropertyOp2
 70
     1
102
RTVSPropertyOp3
 70
     1
102
RTVSPropertyOp4
 70
     1
102
RTVSPropertyOp5
 70
     1
102
RTVSPropertyOp6
 70
     1
102
RTVSPropertyOp7
 70
     1
102
RTVSPropertyOp8
 70
     1
102
RTVSPropertyOp9
 70
     1
102
RTVSPropertyOp10
 70
     1
102
RTVSPropertyOp11
 70
     1
102
RTVSPropertyOp12
 70
     1
102
RTVSPropertyOp13
 70
     1
102
RTVSPropertyOp14
 70
     1
102
RTVSPropertyOp15
 70
     1
102
RTVSPropertyOp16
 70
     1
102
RTVSPropertyOp17
 70
     1
102
RTVSPropertyOp18
 70
     1
102
RTVSPropertyOp19
 70
     1
102
RTVSPropertyOp20
 70
     1
102
RTVSPropertyOp21
 70
     1
102
RTVSPropertyOp22
 70
     1
102
RTVSPropertyOp23
 70
     1
102
RTVSPropertyOp24
 70
     1
102
RTVSPropertyOp25
 70
     1
102
RTVSPropertyOp26
 70
     1
102
RTVSPropertyOp27
 70
     1
102
RTVSPropertyOp28
 70
     1
102
RTVSPropertyOp29
 70
     1
102
RTVSPropertyOp30
 70
     1
102
RTVSPropertyOp31
 70
     1
102
RTVSPropertyOp32
 70
     1
102
RTVSPropertyOp33
 70
     1
102
RTVSPropertyOp34
 70
     1
102
RTVSPropertyOp35
 70
     1
102
RTVSPropertyOp36
 70
     1
102
RTVSPropertyOp37
 70
     1
102
RTVSPropertyOp38
 70
     1
102
RTVSPropertyOp39
 70
     1
102
RTVSPropertyOp40
 70
     1
102
RTVSPropertyOp41
 70
     1
102
RTVSPropertyOp42
 70
     1
102
RTVSPropertyOp43
 70
     1
102
RTVSPropertyOp44
 70
     1
102
RTVSPropertyOp45
 70
     1
102
RTVSPropertyOp46
 70
     1
102
RTVSPropertyOp47
 70
     1
102
RTVSPropertyOp48
 70
     1
102
RTVSPropertyOp49
 70
     1
102
RTVSPropertyOp50
 70
     1
102
RTVSPropertyOp51
 70
     0
102
RTVSPropertyOp52
 70
     0
102
RTVSPropertyOp53
 70
     1
102
RTVSPropertyOp54
 70
     1
102
RTVSPropertyOp55
 70
     1
102
RTVSPropertyOp56
 70
     1
102
RTVSPropertyOp57
 70
     1
102
RTVSPost2010Prop28
280
     0
102
RTVSPost2010PropOp28
 70
     1
102
RTVSPost2010Prop29
280
     1
102
RTVSPost2010PropOp29
 70
     1
102
RTVSPost2010Prop30
280
     1
102
RTVSPost2010PropOp30
 70
     1
102
RTVSPost2010Prop31
280
     0
102
RTVSPost2010PropOp31
 70
     1
102
RTVSPost2010Prop32
280
     0
102
RTVSPost2010PropOp32
 70
     1
102
RTVSPost2010Prop33
280
     0
102
RTVSPost2010PropOp33
 70
     1
102
RTVSPost2010Prop34
280
     0
102
RTVSPost2010PropOp34
 70
     1
102
RTVSPost2010Prop35
280
     0
102
RTVSPost2010PropOp35
 70
     1
102
RTVSPost2010Prop36
280
     0
102
RTVSPost2010PropOp36
 70
     1
102
RTVSPost2010Prop37
 90
       50
102
RTVSPost2010PropOp37
 70
     1
102
RTVSPost2010Prop38
140
0.0
102
RTVSPost2010PropOp38
 70
     1
102
RTVSPost2010Prop39
140
1.0
102
RTVSPost2010PropOp39
 70
     1
102
RTVSPost2010Prop40
 90
        0
102
RTVSPost2010PropOp40
 70
     1
102
RTVSPost2010Prop41ColorIndex
 90
       18
102
RTVSPost2010Prop41ColorRGB
 90
        0
102
RTVSPost2010PropOp41
 70
     1
102
RTVSPost2010Prop42
 90
       50
102
RTVSPost2010PropOp42
 70
     1
102
RTVSPost2010Prop43
 90
        3
102
RTVSPost2010PropOp43
 70
     1
102
RTVSPost2010Prop44ColorIndex
 90
        5
102
RTVSPost2010Prop44ColorRGB
 90
      255
102
RTVSPost2010PropOp44
 70
     1
102
RTVSPost2010Prop45
280
     0
102
RTVSPost2010PropOp45
 70
     1
102
RTVSPost2010Prop46
 90
       50
102
RTVSPost2010PropOp46
 70
     1
102
RTVSPost2010Prop47
 90
       50
102
RTVSPost2010PropOp47
 70
     1
102
RTVSPost2010Prop48
 90
       50
102
RTVSPost2010PropOp48
 70
     1
102
RTVSPost2010Prop49
280
     0
102
RTVSPost2010PropOp49
 70
     1
102
RTVSPost2010Prop50
 90
       50
102
RTVSPost2010PropOp50
 70
     1
102
RTVSPost2010Prop51ColorIndex
 90
      256
102
RTVSPost2010Prop51ColorRGB
 90
-16777216
102
RTVSPost2010PropOp51
 70
     0
102
RTVSPost2010Prop52
140
1.0
102
RTVSPost2010PropOp52
 70
     0
102
RTVSPost2010Prop53
 90
        2
102
RTVSPost2010PropOp53
 70
     1
102
RTVSPost2010Prop54
  1
strokes_ogs.tif
102
RTVSPost2010PropOp54
 70
     1
102
RTVSPost2010Prop55
280
     0
102
RTVSPost2010PropOp55
 70
     1
102
RTVSPost2010Prop56
140
1.0
102
RTVSPost2010PropOp56
 70
     1
102
RTVSPost2010Prop57
140
1.0
102
RTVSPost2010PropOp57
 70
     1
  0
XRECORD
  5
65B
102
{ACAD_REACTORS
330
65A
102
}
330
65A
100
AcDbXrecord
280
     1
102
RTVSPropertyOp0
 70
     0
102
RTVSPropertyOp1
 70
     0
102
RTVSPropertyOp2
 70
     0
102
RTVSPropertyOp3
 70
     0
102
RTVSPropertyOp4
 70
     0
102
RTVSPropertyOp5
 70
     0
102
RTVSPropertyOp6
 70
     0
102
RTVSPropertyOp7
 70
     0
102
RTVSPropertyOp8
 70
     0
102
RTVSPropertyOp9
 70
     0
102
RTVSPropertyOp10
 70
     0
102
RTVSPropertyOp11
 70
     0
102
RTVSPropertyOp12
 70
     0
102
RTVSPropertyOp13
 70
     0
102
RTVSPropertyOp14
 70
     0
102
RTVSPropertyOp15
 70
     0
102
RTVSPropertyOp16
 70
     0
102
RTVSPropertyOp17
 70
     0
102
RTVSPropertyOp18
 70
     0
102
RTVSPropertyOp19
 70
     0
102
RTVSPropertyOp20
 70
     0
102
RTVSPropertyOp21
 70
     0
102
RTVSPropertyOp22
 70
     0
102
RTVSPropertyOp23
 70
     0
102
RTVSPropertyOp24
 70
     0
102
RTVSPropertyOp25
 70
     0
102
RTVSPropertyOp26
 70
     0
102
RTVSPropertyOp27
 70
     0
102
RTVSPropertyOp28
 70
     1
102
RTVSPropertyOp29
 70
     1
102
RTVSPropertyOp30
 70
     1
102
RTVSPropertyOp31
 70
     1
102
RTVSPropertyOp32
 70
     1
102
RTVSPropertyOp33
 70
     1
102
RTVSPropertyOp34
 70
     1
102
RTVSPropertyOp35
 70
     1
102
RTVSPropertyOp36
 70
     1
102
RTVSPropertyOp37
 70
     1
102
RTVSPropertyOp38
 70
     1
102
RTVSPropertyOp39
 70
     1
102
RTVSPropertyOp40
 70
     1
102
RTVSPropertyOp41
 70
     1
102
RTVSPropertyOp42
 70
     1
102
RTVSPropertyOp43
 70
     1
102
RTVSPropertyOp44
 70
     1
102
RTVSPropertyOp45
 70
     1
102
RTVSPropertyOp46
 70
     1
102
RTVSPropertyOp47
 70
     1
102
RTVSPropertyOp48
 70
     1
102
RTVSPropertyOp49
 70
     1
102
RTVSPropertyOp50
 70
     1
102
RTVSPropertyOp51
 70
     0
102
RTVSPropertyOp52
 70
     0
102
RTVSPropertyOp53
 70
     1
102
RTVSPropertyOp54
 70
     1
102
RTVSPropertyOp55
 70
     1
102
RTVSPropertyOp56
 70
     1
102
RTVSPropertyOp57
 70
     1
102
RTVSPost2010Prop28
280
     0
102
RTVSPost2010PropOp28
 70
     1
102
RTVSPost2010Prop29
280
     1
102
RTVSPost2010PropOp29
 70
     1
102
RTVSPost2010Prop30
280
     1
102
RTVSPost2010PropOp30
 70
     1
102
RTVSPost2010Prop31
280
     0
102
RTVSPost2010PropOp31
 70
     1
102
RTVSPost2010Prop32
280
     0
102
RTVSPost2010PropOp32
 70
     1
102
RTVSPost2010Prop33
280
     0
102
RTVSPost2010PropOp33
 70
     1
102
RTVSPost2010Prop34
280
     0
102
RTVSPost2010PropOp34
 70
     1
102
RTVSPost2010Prop35
280
     0
102
RTVSPost2010PropOp35
 70
     1
102
RTVSPost2010Prop36
280
     0
102
RTVSPost2010PropOp36
 70
     1
102
RTVSPost2010Prop37
 90
       50
102
RTVSPost2010PropOp37
 70
     1
102
RTVSPost2010Prop38
140
0.0
102
RTVSPost2010PropOp38
 70
     1
102
RTVSPost2010Prop39
140
1.0
102
RTVSPost2010PropOp39
 70
     1
102
RTVSPost2010Prop40
 90
        0
102
RTVSPost2010PropOp40
 70
     1
102
RTVSPost2010Prop41ColorIndex
 90
       18
102
RTVSPost2010Prop41ColorRGB
 90
        0
102
RTVSPost2010PropOp41
 70
     1
102
RTVSPost2010Prop42
 90
       50
102
RTVSPost2010PropOp42
 70
     1
102
RTVSPost2010Prop43
 90
        3
102
RTVSPost2010PropOp43
 70
     1
102
RTVSPost2010Prop44ColorIndex
 90
        5
102
RTVSPost2010Prop44ColorRGB
 90
      255
102
RTVSPost2010PropOp44
 70
     1
102
RTVSPost2010Prop45
280
     0
102
RTVSPost2010PropOp45
 70
     1
102
RTVSPost2010Prop46
 90
       50
102
RTVSPost2010PropOp46
 70
     1
102
RTVSPost2010Prop47
 90
       50
102
RTVSPost2010PropOp47
 70
     1
102
RTVSPost2010Prop48
 90
       50
102
RTVSPost2010PropOp48
 70
     1
102
RTVSPost2010Prop49
280
     0
102
RTVSPost2010PropOp49
 70
     1
102
RTVSPost2010Prop50
 90
       50
102
RTVSPost2010PropOp50
 70
     1
102
RTVSPost2010Prop51ColorIndex
 90
      256
102
RTVSPost2010Prop51ColorRGB
 90
-16777216
102
RTVSPost2010PropOp51
 70
     0
102
RTVSPost2010Prop52
140
1.0
102
RTVSPost2010PropOp52
 70
     0
102
RTVSPost2010Prop53
 90
        2
102
RTVSPost2010PropOp53
 70
     1
102
RTVSPost2010Prop54
  1
strokes_ogs.tif
102
RTVSPost2010PropOp54
 70
     1
102
RTVSPost2010Prop55
280
     0
102
RTVSPost2010PropOp55
 70
     1
102
RTVSPost2010Prop56
140
1.0
102
RTVSPost2010PropOp56
 70
     1
102
RTVSPost2010Prop57
140
1.0
102
RTVSPost2010PropOp57
 70
     1
  0
XRECORD
  5
655
102
{ACAD_REACTORS
330
654
102
}
330
654
100
AcDbXrecord
280
     1
102
RTVSPropertyOp0
 70
     1
102
RTVSPropertyOp1
 70
     1
102
RTVSPropertyOp2
 70
     1
102
RTVSPropertyOp3
 70
     1
102
RTVSPropertyOp4
 70
     1
102
RTVSPropertyOp5
 70
     1
102
RTVSPropertyOp6
 70
     1
102
RTVSPropertyOp7
 70
     1
102
RTVSPropertyOp8
 70
     1
102
RTVSPropertyOp9
 70
     1
102
RTVSPropertyOp10
 70
     1
102
RTVSPropertyOp11
 70
     1
102
RTVSPropertyOp12
 70
     1
102
RTVSPropertyOp13
 70
     1
102
RTVSPropertyOp14
 70
     1
102
RTVSPropertyOp15
 70
     1
102
RTVSPropertyOp16
 70
     1
102
RTVSPropertyOp17
 70
     1
102
RTVSPropertyOp18
 70
     1
102
RTVSPropertyOp19
 70
     1
102
RTVSPropertyOp20
 70
     1
102
RTVSPropertyOp21
 70
     1
102
RTVSPropertyOp22
 70
     1
102
RTVSPropertyOp23
 70
     1
102
RTVSPropertyOp24
 70
     1
102
RTVSPropertyOp25
 70
     1
102
RTVSPropertyOp26
 70
     1
102
RTVSPropertyOp27
 70
     1
102
RTVSPropertyOp28
 70
     1
102
RTVSPropertyOp29
 70
     1
102
RTVSPropertyOp30
 70
     1
102
RTVSPropertyOp31
 70
     1
102
RTVSPropertyOp32
 70
     1
102
RTVSPropertyOp33
 70
     1
102
RTVSPropertyOp34
 70
     1
102
RTVSPropertyOp35
 70
     1
102
RTVSPropertyOp36
 70
     1
102
RTVSPropertyOp37
 70
     1
102
RTVSPropertyOp38
 70
     1
102
RTVSPropertyOp39
 70
     1
102
RTVSPropertyOp40
 70
     1
102
RTVSPropertyOp41
 70
     1
102
RTVSPropertyOp42
 70
     1
102
RTVSPropertyOp43
 70
     1
102
RTVSPropertyOp44
 70
     1
102
RTVSPropertyOp45
 70
     1
102
RTVSPropertyOp46
 70
     1
102
RTVSPropertyOp47
 70
     1
102
RTVSPropertyOp48
 70
     1
102
RTVSPropertyOp49
 70
     1
102
RTVSPropertyOp50
 70
     1
102
RTVSPropertyOp51
 70
     0
102
RTVSPropertyOp52
 70
     0
102
RTVSPropertyOp53
 70
     1
102
RTVSPropertyOp54
 70
     1
102
RTVSPropertyOp55
 70
     1
102
RTVSPropertyOp56
 70
     1
102
RTVSPropertyOp57
 70
     1
102
RTVSPost2010Prop28
280
     0
102
RTVSPost2010PropOp28
 70
     1
102
RTVSPost2010Prop29
280
     1
102
RTVSPost2010PropOp29
 70
     1
102
RTVSPost2010Prop30
280
     1
102
RTVSPost2010PropOp30
 70
     1
102
RTVSPost2010Prop31
280
     0
102
RTVSPost2010PropOp31
 70
     1
102
RTVSPost2010Prop32
280
     0
102
RTVSPost2010PropOp32
 70
     1
102
RTVSPost2010Prop33
280
     0
102
RTVSPost2010PropOp33
 70
     1
102
RTVSPost2010Prop34
280
     0
102
RTVSPost2010PropOp34
 70
     1
102
RTVSPost2010Prop35
280
     0
102
RTVSPost2010PropOp35
 70
     1
102
RTVSPost2010Prop36
280
     0
102
RTVSPost2010PropOp36
 70
     1
102
RTVSPost2010Prop37
 90
       50
102
RTVSPost2010PropOp37
 70
     1
102
RTVSPost2010Prop38
140
0.0
102
RTVSPost2010PropOp38
 70
     1
102
RTVSPost2010Prop39
140
1.0
102
RTVSPost2010PropOp39
 70
     1
102
RTVSPost2010Prop40
 90
        0
102
RTVSPost2010PropOp40
 70
     1
102
RTVSPost2010Prop41ColorIndex
 90
       18
102
RTVSPost2010Prop41ColorRGB
 90
        0
102
RTVSPost2010PropOp41
 70
     1
102
RTVSPost2010Prop42
 90
       50
102
RTVSPost2010PropOp42
 70
     1
102
RTVSPost2010Prop43
 90
        3
102
RTVSPost2010PropOp43
 70
     1
102
RTVSPost2010Prop44ColorIndex
 90
        5
102
RTVSPost2010Prop44ColorRGB
 90
      255
102
RTVSPost2010PropOp44
 70
     1
102
RTVSPost2010Prop45
280
     0
102
RTVSPost2010PropOp45
 70
     1
102
RTVSPost2010Prop46
 90
       50
102
RTVSPost2010PropOp46
 70
     1
102
RTVSPost2010Prop47
 90
       50
102
RTVSPost2010PropOp47
 70
     1
102
RTVSPost2010Prop48
 90
       50
102
RTVSPost2010PropOp48
 70
     1
102
RTVSPost2010Prop49
280
     0
102
RTVSPost2010PropOp49
 70
     1
102
RTVSPost2010Prop50
 90
       50
102
RTVSPost2010PropOp50
 70
     1
102
RTVSPost2010Prop51ColorIndex
 90
      256
102
RTVSPost2010Prop51ColorRGB
 90
-16777216
102
RTVSPost2010PropOp51
 70
     0
102
RTVSPost2010Prop52
140
1.0
102
RTVSPost2010PropOp52
 70
     0
102
RTVSPost2010Prop53
 90
        2
102
RTVSPost2010PropOp53
 70
     1
102
RTVSPost2010Prop54
  1
strokes_ogs.tif
102
RTVSPost2010PropOp54
 70
     1
102
RTVSPost2010Prop55
280
     0
102
RTVSPost2010PropOp55
 70
     1
102
RTVSPost2010Prop56
140
1.0
102
RTVSPost2010PropOp56
 70
     1
102
RTVSPost2010Prop57
140
1.0
102
RTVSPost2010PropOp57
 70
     1
  0
XRECORD
  5
65D
102
{ACAD_REACTORS
330
65C
102
}
330
65C
100
AcDbXrecord
280
     1
102
RTVSPropertyOp0
 70
     0
102
RTVSPropertyOp1
 70
     0
102
RTVSPropertyOp2
 70
     0
102
RTVSPropertyOp3
 70
     0
102
RTVSPropertyOp4
 70
     0
102
RTVSPropertyOp5
 70
     0
102
RTVSPropertyOp6
 70
     0
102
RTVSPropertyOp7
 70
     0
102
RTVSPropertyOp8
 70
     0
102
RTVSPropertyOp9
 70
     0
102
RTVSPropertyOp10
 70
     0
102
RTVSPropertyOp11
 70
     0
102
RTVSPropertyOp12
 70
     0
102
RTVSPropertyOp13
 70
     0
102
RTVSPropertyOp14
 70
     0
102
RTVSPropertyOp15
 70
     0
102
RTVSPropertyOp16
 70
     0
102
RTVSPropertyOp17
 70
     0
102
RTVSPropertyOp18
 70
     0
102
RTVSPropertyOp19
 70
     0
102
RTVSPropertyOp20
 70
     0
102
RTVSPropertyOp21
 70
     0
102
RTVSPropertyOp22
 70
     0
102
RTVSPropertyOp23
 70
     0
102
RTVSPropertyOp24
 70
     0
102
RTVSPropertyOp25
 70
     0
102
RTVSPropertyOp26
 70
     0
102
RTVSPropertyOp27
 70
     0
102
RTVSPropertyOp28
 70
     1
102
RTVSPropertyOp29
 70
     1
102
RTVSPropertyOp30
 70
     1
102
RTVSPropertyOp31
 70
     1
102
RTVSPropertyOp32
 70
     1
102
RTVSPropertyOp33
 70
     1
102
RTVSPropertyOp34
 70
     1
102
RTVSPropertyOp35
 70
     1
102
RTVSPropertyOp36
 70
     1
102
RTVSPropertyOp37
 70
     1
102
RTVSPropertyOp38
 70
     1
102
RTVSPropertyOp39
 70
     1
102
RTVSPropertyOp40
 70
     1
102
RTVSPropertyOp41
 70
     1
102
RTVSPropertyOp42
 70
     1
102
RTVSPropertyOp43
 70
     1
102
RTVSPropertyOp44
 70
     1
102
RTVSPropertyOp45
 70
     1
102
RTVSPropertyOp46
 70
     1
102
RTVSPropertyOp47
 70
     1
102
RTVSPropertyOp48
 70
     1
102
RTVSPropertyOp49
 70
     1
102
RTVSPropertyOp50
 70
     1
102
RTVSPropertyOp51
 70
     0
102
RTVSPropertyOp52
 70
     0
102
RTVSPropertyOp53
 70
     1
102
RTVSPropertyOp54
 70
     1
102
RTVSPropertyOp55
 70
     1
102
RTVSPropertyOp56
 70
     1
102
RTVSPropertyOp57
 70
     1
102
RTVSPost2010Prop28
280
     0
102
RTVSPost2010PropOp28
 70
     1
102
RTVSPost2010Prop29
280
     1
102
RTVSPost2010PropOp29
 70
     1
102
RTVSPost2010Prop30
280
     1
102
RTVSPost2010PropOp30
 70
     1
102
RTVSPost2010Prop31
280
     0
102
RTVSPost2010PropOp31
 70
     1
102
RTVSPost2010Prop32
280
     0
102
RTVSPost2010PropOp32
 70
     1
102
RTVSPost2010Prop33
280
     0
102
RTVSPost2010PropOp33
 70
     1
102
RTVSPost2010Prop34
280
     0
102
RTVSPost2010PropOp34
 70
     1
102
RTVSPost2010Prop35
280
     0
102
RTVSPost2010PropOp35
 70
     1
102
RTVSPost2010Prop36
280
     0
102
RTVSPost2010PropOp36
 70
     1
102
RTVSPost2010Prop37
 90
       50
102
RTVSPost2010PropOp37
 70
     1
102
RTVSPost2010Prop38
140
0.0
102
RTVSPost2010PropOp38
 70
     1
102
RTVSPost2010Prop39
140
1.0
102
RTVSPost2010PropOp39
 70
     1
102
RTVSPost2010Prop40
 90
        0
102
RTVSPost2010PropOp40
 70
     1
102
RTVSPost2010Prop41ColorIndex
 90
       18
102
RTVSPost2010Prop41ColorRGB
 90
        0
102
RTVSPost2010PropOp41
 70
     1
102
RTVSPost2010Prop42
 90
       50
102
RTVSPost2010PropOp42
 70
     1
102
RTVSPost2010Prop43
 90
        3
102
RTVSPost2010PropOp43
 70
     1
102
RTVSPost2010Prop44ColorIndex
 90
        5
102
RTVSPost2010Prop44ColorRGB
 90
      255
102
RTVSPost2010PropOp44
 70
     1
102
RTVSPost2010Prop45
280
     0
102
RTVSPost2010PropOp45
 70
     1
102
RTVSPost2010Prop46
 90
       50
102
RTVSPost2010PropOp46
 70
     1
102
RTVSPost2010Prop47
 90
       50
102
RTVSPost2010PropOp47
 70
     1
102
RTVSPost2010Prop48
 90
       50
102
RTVSPost2010PropOp48
 70
     1
102
RTVSPost2010Prop49
280
     0
102
RTVSPost2010PropOp49
 70
     1
102
RTVSPost2010Prop50
 90
       50
102
RTVSPost2010PropOp50
 70
     1
102
RTVSPost2010Prop51ColorIndex
 90
      256
102
RTVSPost2010Prop51ColorRGB
 90
-16777216
102
RTVSPost2010PropOp51
 70
     0
102
RTVSPost2010Prop52
140
1.0
102
RTVSPost2010PropOp52
 70
     0
102
RTVSPost2010Prop53
 90
        2
102
RTVSPost2010PropOp53
 70
     1
102
RTVSPost2010Prop54
  1
strokes_ogs.tif
102
RTVSPost2010PropOp54
 70
     1
102
RTVSPost2010Prop55
280
     0
102
RTVSPost2010PropOp55
 70
     1
102
RTVSPost2010Prop56
140
1.0
102
RTVSPost2010PropOp56
 70
     1
102
RTVSPost2010Prop57
140
1.0
102
RTVSPost2010PropOp57
 70
     1
  0
XRECORD
  5
63B
102
{ACAD_REACTORS
330
63A
102
}
330
63A
100
AcDbXrecord
280
     1
102
RTVSPropertyOp0
 70
     1
102
RTVSPropertyOp1
 70
     1
102
RTVSPropertyOp2
 70
     1
102
RTVSPropertyOp3
 70
     1
102
RTVSPropertyOp4
 70
     1
102
RTVSPropertyOp5
 70
     1
102
RTVSPropertyOp6
 70
     1
102
RTVSPropertyOp7
 70
     1
102
RTVSPropertyOp8
 70
     1
102
RTVSPropertyOp9
 70
     1
102
RTVSPropertyOp10
 70
     1
102
RTVSPropertyOp11
 70
     1
102
RTVSPropertyOp12
 70
     1
102
RTVSPropertyOp13
 70
     1
102
RTVSPropertyOp14
 70
     1
102
RTVSPropertyOp15
 70
     1
102
RTVSPropertyOp16
 70
     1
102
RTVSPropertyOp17
 70
     1
102
RTVSPropertyOp18
 70
     1
102
RTVSPropertyOp19
 70
     1
102
RTVSPropertyOp20
 70
     1
102
RTVSPropertyOp21
 70
     1
102
RTVSPropertyOp22
 70
     1
102
RTVSPropertyOp23
 70
     1
102
RTVSPropertyOp24
 70
     1
102
RTVSPropertyOp25
 70
     1
102
RTVSPropertyOp26
 70
     1
102
RTVSPropertyOp27
 70
     1
102
RTVSPropertyOp28
 70
     1
102
RTVSPropertyOp29
 70
     1
102
RTVSPropertyOp30
 70
     1
102
RTVSPropertyOp31
 70
     1
102
RTVSPropertyOp32
 70
     1
102
RTVSPropertyOp33
 70
     1
102
RTVSPropertyOp34
 70
     1
102
RTVSPropertyOp35
 70
     1
102
RTVSPropertyOp36
 70
     1
102
RTVSPropertyOp37
 70
     1
102
RTVSPropertyOp38
 70
     1
102
RTVSPropertyOp39
 70
     1
102
RTVSPropertyOp40
 70
     1
102
RTVSPropertyOp41
 70
     1
102
RTVSPropertyOp42
 70
     1
102
RTVSPropertyOp43
 70
     1
102
RTVSPropertyOp44
 70
     1
102
RTVSPropertyOp45
 70
     1
102
RTVSPropertyOp46
 70
     1
102
RTVSPropertyOp47
 70
     1
102
RTVSPropertyOp48
 70
     1
102
RTVSPropertyOp49
 70
     1
102
RTVSPropertyOp50
 70
     1
102
RTVSPropertyOp51
 70
     0
102
RTVSPropertyOp52
 70
     0
102
RTVSPropertyOp53
 70
     1
102
RTVSPropertyOp54
 70
     1
102
RTVSPropertyOp55
 70
     1
102
RTVSPropertyOp56
 70
     1
102
RTVSPropertyOp57
 70
     1
102
RTVSPost2010Prop28
280
     0
102
RTVSPost2010PropOp28
 70
     1
102
RTVSPost2010Prop29
280
     1
102
RTVSPost2010PropOp29
 70
     1
102
RTVSPost2010Prop30
280
     1
102
RTVSPost2010PropOp30
 70
     1
102
RTVSPost2010Prop31
280
     0
102
RTVSPost2010PropOp31
 70
     1
102
RTVSPost2010Prop32
280
     0
102
RTVSPost2010PropOp32
 70
     1
102
RTVSPost2010Prop33
280
     0
102
RTVSPost2010PropOp33
 70
     1
102
RTVSPost2010Prop34
280
     0
102
RTVSPost2010PropOp34
 70
     1
102
RTVSPost2010Prop35
280
     0
102
RTVSPost2010PropOp35
 70
     1
102
RTVSPost2010Prop36
280
     0
102
RTVSPost2010PropOp36
 70
     1
102
RTVSPost2010Prop37
 90
       50
102
RTVSPost2010PropOp37
 70
     1
102
RTVSPost2010Prop38
140
0.0
102
RTVSPost2010PropOp38
 70
     1
102
RTVSPost2010Prop39
140
1.0
102
RTVSPost2010PropOp39
 70
     1
102
RTVSPost2010Prop40
 90
        0
102
RTVSPost2010PropOp40
 70
     1
102
RTVSPost2010Prop41ColorIndex
 90
       18
102
RTVSPost2010Prop41ColorRGB
 90
        0
102
RTVSPost2010PropOp41
 70
     1
102
RTVSPost2010Prop42
 90
       50
102
RTVSPost2010PropOp42
 70
     1
102
RTVSPost2010Prop43
 90
        3
102
RTVSPost2010PropOp43
 70
     1
102
RTVSPost2010Prop44ColorIndex
 90
        5
102
RTVSPost2010Prop44ColorRGB
 90
      255
102
RTVSPost2010PropOp44
 70
     1
102
RTVSPost2010Prop45
280
     0
102
RTVSPost2010PropOp45
 70
     1
102
RTVSPost2010Prop46
 90
       50
102
RTVSPost2010PropOp46
 70
     1
102
RTVSPost2010Prop47
 90
       50
102
RTVSPost2010PropOp47
 70
     1
102
RTVSPost2010Prop48
 90
       50
102
RTVSPost2010PropOp48
 70
     1
102
RTVSPost2010Prop49
280
     0
102
RTVSPost2010PropOp49
 70
     1
102
RTVSPost2010Prop50
 90
       50
102
RTVSPost2010PropOp50
 70
     1
102
RTVSPost2010Prop51ColorIndex
 90
      256
102
RTVSPost2010Prop51ColorRGB
 90
-16777216
102
RTVSPost2010PropOp51
 70
     0
102
RTVSPost2010Prop52
140
1.0
102
RTVSPost2010PropOp52
 70
     0
102
RTVSPost2010Prop53
 90
        2
102
RTVSPost2010PropOp53
 70
     1
102
RTVSPost2010Prop54
  1
strokes_ogs.tif
102
RTVSPost2010PropOp54
 70
     1
102
RTVSPost2010Prop55
280
     0
102
RTVSPost2010PropOp55
 70
     1
102
RTVSPost2010Prop56
140
1.0
102
RTVSPost2010PropOp56
 70
     1
102
RTVSPost2010Prop57
140
1.0
102
RTVSPost2010PropOp57
 70
     1
  0
XRECORD
  5
669
102
{ACAD_REACTORS
330
668
102
}
330
668
100
AcDbXrecord
280
     1
102
RTVSPropertyOp0
 70
     1
102
RTVSPropertyOp1
 70
     1
102
RTVSPropertyOp2
 70
     1
102
RTVSPropertyOp3
 70
     1
102
RTVSPropertyOp4
 70
     1
102
RTVSPropertyOp5
 70
     1
102
RTVSPropertyOp6
 70
     1
102
RTVSPropertyOp7
 70
     1
102
RTVSPropertyOp8
 70
     1
102
RTVSPropertyOp9
 70
     1
102
RTVSPropertyOp10
 70
     1
102
RTVSPropertyOp11
 70
     1
102
RTVSPropertyOp12
 70
     1
102
RTVSPropertyOp13
 70
     1
102
RTVSPropertyOp14
 70
     1
102
RTVSPropertyOp15
 70
     1
102
RTVSPropertyOp16
 70
     1
102
RTVSPropertyOp17
 70
     1
102
RTVSPropertyOp18
 70
     1
102
RTVSPropertyOp19
 70
     1
102
RTVSPropertyOp20
 70
     1
102
RTVSPropertyOp21
 70
     1
102
RTVSPropertyOp22
 70
     1
102
RTVSPropertyOp23
 70
     1
102
RTVSPropertyOp24
 70
     1
102
RTVSPropertyOp25
 70
     1
102
RTVSPropertyOp26
 70
     1
102
RTVSPropertyOp27
 70
     1
102
RTVSPropertyOp28
 70
     1
102
RTVSPropertyOp29
 70
     1
102
RTVSPropertyOp30
 70
     1
102
RTVSPropertyOp31
 70
     1
102
RTVSPropertyOp32
 70
     1
102
RTVSPropertyOp33
 70
     1
102
RTVSPropertyOp34
 70
     1
102
RTVSPropertyOp35
 70
     1
102
RTVSPropertyOp36
 70
     1
102
RTVSPropertyOp37
 70
     1
102
RTVSPropertyOp38
 70
     1
102
RTVSPropertyOp39
 70
     1
102
RTVSPropertyOp40
 70
     1
102
RTVSPropertyOp41
 70
     1
102
RTVSPropertyOp42
 70
     1
102
RTVSPropertyOp43
 70
     1
102
RTVSPropertyOp44
 70
     1
102
RTVSPropertyOp45
 70
     1
102
RTVSPropertyOp46
 70
     1
102
RTVSPropertyOp47
 70
     1
102
RTVSPropertyOp48
 70
     1
102
RTVSPropertyOp49
 70
     1
102
RTVSPropertyOp50
 70
     1
102
RTVSPropertyOp51
 70
     0
102
RTVSPropertyOp52
 70
     0
102
RTVSPropertyOp53
 70
     1
102
RTVSPropertyOp54
 70
     1
102
RTVSPropertyOp55
 70
     1
102
RTVSPropertyOp56
 70
     1
102
RTVSPropertyOp57
 70
     1
102
RTVSPost2010Prop28
280
     0
102
RTVSPost2010PropOp28
 70
     1
102
RTVSPost2010Prop29
280
     1
102
RTVSPost2010PropOp29
 70
     1
102
RTVSPost2010Prop30
280
     1
102
RTVSPost2010PropOp30
 70
     1
102
RTVSPost2010Prop31
280
     0
102
RTVSPost2010PropOp31
 70
     1
102
RTVSPost2010Prop32
280
     0
102
RTVSPost2010PropOp32
 70
     1
102
RTVSPost2010Prop33
280
     0
102
RTVSPost2010PropOp33
 70
     1
102
RTVSPost2010Prop34
280
     0
102
RTVSPost2010PropOp34
 70
     1
102
RTVSPost2010Prop35
280
     0
102
RTVSPost2010PropOp35
 70
     1
102
RTVSPost2010Prop36
280
     0
102
RTVSPost2010PropOp36
 70
     1
102
RTVSPost2010Prop37
 90
       50
102
RTVSPost2010PropOp37
 70
     1
102
RTVSPost2010Prop38
140
0.0
102
RTVSPost2010PropOp38
 70
     1
102
RTVSPost2010Prop39
140
1.0
102
RTVSPost2010PropOp39
 70
     1
102
RTVSPost2010Prop40
 90
        0
102
RTVSPost2010PropOp40
 70
     1
102
RTVSPost2010Prop41ColorIndex
 90
       18
102
RTVSPost2010Prop41ColorRGB
 90
        0
102
RTVSPost2010PropOp41
 70
     1
102
RTVSPost2010Prop42
 90
       50
102
RTVSPost2010PropOp42
 70
     1
102
RTVSPost2010Prop43
 90
        3
102
RTVSPost2010PropOp43
 70
     1
102
RTVSPost2010Prop44ColorIndex
 90
        5
102
RTVSPost2010Prop44ColorRGB
 90
      255
102
RTVSPost2010PropOp44
 70
     1
102
RTVSPost2010Prop45
280
     0
102
RTVSPost2010PropOp45
 70
     1
102
RTVSPost2010Prop46
 90
       50
102
RTVSPost2010PropOp46
 70
     1
102
RTVSPost2010Prop47
 90
       50
102
RTVSPost2010PropOp47
 70
     1
102
RTVSPost2010Prop48
 90
       50
102
RTVSPost2010PropOp48
 70
     1
102
RTVSPost2010Prop49
280
     0
102
RTVSPost2010PropOp49
 70
     1
102
RTVSPost2010Prop50
 90
       50
102
RTVSPost2010PropOp50
 70
     1
102
RTVSPost2010Prop51ColorIndex
 90
      256
102
RTVSPost2010Prop51ColorRGB
 90
-16777216
102
RTVSPost2010PropOp51
 70
     0
102
RTVSPost2010Prop52
140
1.0
102
RTVSPost2010PropOp52
 70
     0
102
RTVSPost2010Prop53
 90
        2
102
RTVSPost2010PropOp53
 70
     1
102
RTVSPost2010Prop54
  1
strokes_ogs.tif
102
RTVSPost2010PropOp54
 70
     1
102
RTVSPost2010Prop55
280
     0
102
RTVSPost2010PropOp55
 70
     1
102
RTVSPost2010Prop56
140
1.0
102
RTVSPost2010PropOp56
 70
     1
102
RTVSPost2010Prop57
140
1.0
102
RTVSPost2010PropOp57
 70
     1
  0
XRECORD
  5
667
102
{ACAD_REACTORS
330
666
102
}
330
666
100
AcDbXrecord
280
     1
102
RTVSPropertyOp0
 70
     1
102
RTVSPropertyOp1
 70
     1
102
RTVSPropertyOp2
 70
     1
102
RTVSPropertyOp3
 70
     1
102
RTVSPropertyOp4
 70
     1
102
RTVSPropertyOp5
 70
     1
102
RTVSPropertyOp6
 70
     1
102
RTVSPropertyOp7
 70
     1
102
RTVSPropertyOp8
 70
     1
102
RTVSPropertyOp9
 70
     1
102
RTVSPropertyOp10
 70
     1
102
RTVSPropertyOp11
 70
     1
102
RTVSPropertyOp12
 70
     1
102
RTVSPropertyOp13
 70
     1
102
RTVSPropertyOp14
 70
     1
102
RTVSPropertyOp15
 70
     1
102
RTVSPropertyOp16
 70
     1
102
RTVSPropertyOp17
 70
     1
102
RTVSPropertyOp18
 70
     1
102
RTVSPropertyOp19
 70
     1
102
RTVSPropertyOp20
 70
     1
102
RTVSPropertyOp21
 70
     1
102
RTVSPropertyOp22
 70
     1
102
RTVSPropertyOp23
 70
     1
102
RTVSPropertyOp24
 70
     1
102
RTVSPropertyOp25
 70
     1
102
RTVSPropertyOp26
 70
     1
102
RTVSPropertyOp27
 70
     1
102
RTVSPropertyOp28
 70
     1
102
RTVSPropertyOp29
 70
     1
102
RTVSPropertyOp30
 70
     1
102
RTVSPropertyOp31
 70
     1
102
RTVSPropertyOp32
 70
     1
102
RTVSPropertyOp33
 70
     1
102
RTVSPropertyOp34
 70
     1
102
RTVSPropertyOp35
 70
     1
102
RTVSPropertyOp36
 70
     1
102
RTVSPropertyOp37
 70
     1
102
RTVSPropertyOp38
 70
     1
102
RTVSPropertyOp39
 70
     1
102
RTVSPropertyOp40
 70
     1
102
RTVSPropertyOp41
 70
     1
102
RTVSPropertyOp42
 70
     1
102
RTVSPropertyOp43
 70
     1
102
RTVSPropertyOp44
 70
     1
102
RTVSPropertyOp45
 70
     1
102
RTVSPropertyOp46
 70
     1
102
RTVSPropertyOp47
 70
     1
102
RTVSPropertyOp48
 70
     1
102
RTVSPropertyOp49
 70
     1
102
RTVSPropertyOp50
 70
     1
102
RTVSPropertyOp51
 70
     0
102
RTVSPropertyOp52
 70
     0
102
RTVSPropertyOp53
 70
     1
102
RTVSPropertyOp54
 70
     1
102
RTVSPropertyOp55
 70
     1
102
RTVSPropertyOp56
 70
     1
102
RTVSPropertyOp57
 70
     1
102
RTVSPost2010Prop28
280
     0
102
RTVSPost2010PropOp28
 70
     1
102
RTVSPost2010Prop29
280
     1
102
RTVSPost2010PropOp29
 70
     1
102
RTVSPost2010Prop30
280
     1
102
RTVSPost2010PropOp30
 70
     1
102
RTVSPost2010Prop31
280
     0
102
RTVSPost2010PropOp31
 70
     1
102
RTVSPost2010Prop32
280
     0
102
RTVSPost2010PropOp32
 70
     1
102
RTVSPost2010Prop33
280
     0
102
RTVSPost2010PropOp33
 70
     1
102
RTVSPost2010Prop34
280
     0
102
RTVSPost2010PropOp34
 70
     1
102
RTVSPost2010Prop35
280
     0
102
RTVSPost2010PropOp35
 70
     1
102
RTVSPost2010Prop36
280
     0
102
RTVSPost2010PropOp36
 70
     1
102
RTVSPost2010Prop37
 90
       50
102
RTVSPost2010PropOp37
 70
     1
102
RTVSPost2010Prop38
140
0.0
102
RTVSPost2010PropOp38
 70
     1
102
RTVSPost2010Prop39
140
1.0
102
RTVSPost2010PropOp39
 70
     1
102
RTVSPost2010Prop40
 90
        0
102
RTVSPost2010PropOp40
 70
     1
102
RTVSPost2010Prop41ColorIndex
 90
       18
102
RTVSPost2010Prop41ColorRGB
 90
        0
102
RTVSPost2010PropOp41
 70
     1
102
RTVSPost2010Prop42
 90
       50
102
RTVSPost2010PropOp42
 70
     1
102
RTVSPost2010Prop43
 90
        3
102
RTVSPost2010PropOp43
 70
     1
102
RTVSPost2010Prop44ColorIndex
 90
        5
102
RTVSPost2010Prop44ColorRGB
 90
      255
102
RTVSPost2010PropOp44
 70
     1
102
RTVSPost2010Prop45
280
     0
102
RTVSPost2010PropOp45
 70
     1
102
RTVSPost2010Prop46
 90
       50
102
RTVSPost2010PropOp46
 70
     1
102
RTVSPost2010Prop47
 90
       50
102
RTVSPost2010PropOp47
 70
     1
102
RTVSPost2010Prop48
 90
       50
102
RTVSPost2010PropOp48
 70
     1
102
RTVSPost2010Prop49
280
     0
102
RTVSPost2010PropOp49
 70
     1
102
RTVSPost2010Prop50
 90
       50
102
RTVSPost2010PropOp50
 70
     1
102
RTVSPost2010Prop51ColorIndex
 90
      256
102
RTVSPost2010Prop51ColorRGB
 90
-16777216
102
RTVSPost2010PropOp51
 70
     0
102
RTVSPost2010Prop52
140
1.0
102
RTVSPost2010PropOp52
 70
     0
102
RTVSPost2010Prop53
 90
        2
102
RTVSPost2010PropOp53
 70
     1
102
RTVSPost2010Prop54
  1
strokes_ogs.tif
102
RTVSPost2010PropOp54
 70
     1
102
RTVSPost2010Prop55
280
     0
102
RTVSPost2010PropOp55
 70
     1
102
RTVSPost2010Prop56
140
1.0
102
RTVSPost2010PropOp56
 70
     1
102
RTVSPost2010Prop57
140
1.0
102
RTVSPost2010PropOp57
 70
     1
  0
XRECORD
  5
661
102
{ACAD_REACTORS
330
660
102
}
330
660
100
AcDbXrecord
280
     1
102
RTVSPropertyOp0
 70
     1
102
RTVSPropertyOp1
 70
     1
102
RTVSPropertyOp2
 70
     1
102
RTVSPropertyOp3
 70
     1
102
RTVSPropertyOp4
 70
     1
102
RTVSPropertyOp5
 70
     1
102
RTVSPropertyOp6
 70
     1
102
RTVSPropertyOp7
 70
     1
102
RTVSPropertyOp8
 70
     1
102
RTVSPropertyOp9
 70
     1
102
RTVSPropertyOp10
 70
     1
102
RTVSPropertyOp11
 70
     1
102
RTVSPropertyOp12
 70
     1
102
RTVSPropertyOp13
 70
     1
102
RTVSPropertyOp14
 70
     1
102
RTVSPropertyOp15
 70
     1
102
RTVSPropertyOp16
 70
     1
102
RTVSPropertyOp17
 70
     1
102
RTVSPropertyOp18
 70
     1
102
RTVSPropertyOp19
 70
     1
102
RTVSPropertyOp20
 70
     1
102
RTVSPropertyOp21
 70
     1
102
RTVSPropertyOp22
 70
     1
102
RTVSPropertyOp23
 70
     1
102
RTVSPropertyOp24
 70
     1
102
RTVSPropertyOp25
 70
     1
102
RTVSPropertyOp26
 70
     1
102
RTVSPropertyOp27
 70
     1
102
RTVSPropertyOp28
 70
     1
102
RTVSPropertyOp29
 70
     1
102
RTVSPropertyOp30
 70
     1
102
RTVSPropertyOp31
 70
     1
102
RTVSPropertyOp32
 70
     1
102
RTVSPropertyOp33
 70
     1
102
RTVSPropertyOp34
 70
     1
102
RTVSPropertyOp35
 70
     1
102
RTVSPropertyOp36
 70
     1
102
RTVSPropertyOp37
 70
     1
102
RTVSPropertyOp38
 70
     1
102
RTVSPropertyOp39
 70
     1
102
RTVSPropertyOp40
 70
     1
102
RTVSPropertyOp41
 70
     1
102
RTVSPropertyOp42
 70
     1
102
RTVSPropertyOp43
 70
     1
102
RTVSPropertyOp44
 70
     1
102
RTVSPropertyOp45
 70
     1
102
RTVSPropertyOp46
 70
     1
102
RTVSPropertyOp47
 70
     1
102
RTVSPropertyOp48
 70
     1
102
RTVSPropertyOp49
 70
     1
102
RTVSPropertyOp50
 70
     1
102
RTVSPropertyOp51
 70
     0
102
RTVSPropertyOp52
 70
     0
102
RTVSPropertyOp53
 70
     1
102
RTVSPropertyOp54
 70
     1
102
RTVSPropertyOp55
 70
     1
102
RTVSPropertyOp56
 70
     1
102
RTVSPropertyOp57
 70
     1
102
RTVSPost2010Prop28
280
     0
102
RTVSPost2010PropOp28
 70
     1
102
RTVSPost2010Prop29
280
     1
102
RTVSPost2010PropOp29
 70
     1
102
RTVSPost2010Prop30
280
     1
102
RTVSPost2010PropOp30
 70
     1
102
RTVSPost2010Prop31
280
     0
102
RTVSPost2010PropOp31
 70
     1
102
RTVSPost2010Prop32
280
     0
102
RTVSPost2010PropOp32
 70
     1
102
RTVSPost2010Prop33
280
     0
102
RTVSPost2010PropOp33
 70
     1
102
RTVSPost2010Prop34
280
     0
102
RTVSPost2010PropOp34
 70
     1
102
RTVSPost2010Prop35
280
     0
102
RTVSPost2010PropOp35
 70
     1
102
RTVSPost2010Prop36
280
     0
102
RTVSPost2010PropOp36
 70
     1
102
RTVSPost2010Prop37
 90
       50
102
RTVSPost2010PropOp37
 70
     1
102
RTVSPost2010Prop38
140
0.0
102
RTVSPost2010PropOp38
 70
     1
102
RTVSPost2010Prop39
140
1.0
102
RTVSPost2010PropOp39
 70
     1
102
RTVSPost2010Prop40
 90
        0
102
RTVSPost2010PropOp40
 70
     1
102
RTVSPost2010Prop41ColorIndex
 90
       18
102
RTVSPost2010Prop41ColorRGB
 90
        0
102
RTVSPost2010PropOp41
 70
     1
102
RTVSPost2010Prop42
 90
       50
102
RTVSPost2010PropOp42
 70
     1
102
RTVSPost2010Prop43
 90
        3
102
RTVSPost2010PropOp43
 70
     1
102
RTVSPost2010Prop44ColorIndex
 90
        5
102
RTVSPost2010Prop44ColorRGB
 90
      255
102
RTVSPost2010PropOp44
 70
     1
102
RTVSPost2010Prop45
280
     0
102
RTVSPost2010PropOp45
 70
     1
102
RTVSPost2010Prop46
 90
       50
102
RTVSPost2010PropOp46
 70
     1
102
RTVSPost2010Prop47
 90
       50
102
RTVSPost2010PropOp47
 70
     1
102
RTVSPost2010Prop48
 90
       50
102
RTVSPost2010PropOp48
 70
     1
102
RTVSPost2010Prop49
280
     0
102
RTVSPost2010PropOp49
 70
     1
102
RTVSPost2010Prop50
 90
       50
102
RTVSPost2010PropOp50
 70
     1
102
RTVSPost2010Prop51ColorIndex
 90
      256
102
RTVSPost2010Prop51ColorRGB
 90
-16777216
102
RTVSPost2010PropOp51
 70
     0
102
RTVSPost2010Prop52
140
1.0
102
RTVSPost2010PropOp52
 70
     0
102
RTVSPost2010Prop53
 90
        2
102
RTVSPost2010PropOp53
 70
     1
102
RTVSPost2010Prop54
  1
strokes_ogs.tif
102
RTVSPost2010PropOp54
 70
     1
102
RTVSPost2010Prop55
280
     0
102
RTVSPost2010PropOp55
 70
     1
102
RTVSPost2010Prop56
140
1.0
102
RTVSPost2010PropOp56
 70
     1
102
RTVSPost2010Prop57
140
1.0
102
RTVSPost2010PropOp57
 70
     1
  0
XRECORD
  5
663
102
{ACAD_REACTORS
330
662
102
}
330
662
100
AcDbXrecord
280
     1
102
RTVSPropertyOp0
 70
     1
102
RTVSPropertyOp1
 70
     1
102
RTVSPropertyOp2
 70
     1
102
RTVSPropertyOp3
 70
     1
102
RTVSPropertyOp4
 70
     1
102
RTVSPropertyOp5
 70
     1
102
RTVSPropertyOp6
 70
     1
102
RTVSPropertyOp7
 70
     1
102
RTVSPropertyOp8
 70
     1
102
RTVSPropertyOp9
 70
     1
102
RTVSPropertyOp10
 70
     1
102
RTVSPropertyOp11
 70
     1
102
RTVSPropertyOp12
 70
     1
102
RTVSPropertyOp13
 70
     1
102
RTVSPropertyOp14
 70
     1
102
RTVSPropertyOp15
 70
     1
102
RTVSPropertyOp16
 70
     1
102
RTVSPropertyOp17
 70
     1
102
RTVSPropertyOp18
 70
     1
102
RTVSPropertyOp19
 70
     1
102
RTVSPropertyOp20
 70
     1
102
RTVSPropertyOp21
 70
     1
102
RTVSPropertyOp22
 70
     1
102
RTVSPropertyOp23
 70
     1
102
RTVSPropertyOp24
 70
     1
102
RTVSPropertyOp25
 70
     1
102
RTVSPropertyOp26
 70
     1
102
RTVSPropertyOp27
 70
     1
102
RTVSPropertyOp28
 70
     1
102
RTVSPropertyOp29
 70
     1
102
RTVSPropertyOp30
 70
     1
102
RTVSPropertyOp31
 70
     1
102
RTVSPropertyOp32
 70
     1
102
RTVSPropertyOp33
 70
     1
102
RTVSPropertyOp34
 70
     1
102
RTVSPropertyOp35
 70
     1
102
RTVSPropertyOp36
 70
     1
102
RTVSPropertyOp37
 70
     1
102
RTVSPropertyOp38
 70
     1
102
RTVSPropertyOp39
 70
     1
102
RTVSPropertyOp40
 70
     1
102
RTVSPropertyOp41
 70
     1
102
RTVSPropertyOp42
 70
     1
102
RTVSPropertyOp43
 70
     1
102
RTVSPropertyOp44
 70
     1
102
RTVSPropertyOp45
 70
     1
102
RTVSPropertyOp46
 70
     1
102
RTVSPropertyOp47
 70
     1
102
RTVSPropertyOp48
 70
     1
102
RTVSPropertyOp49
 70
     1
102
RTVSPropertyOp50
 70
     1
102
RTVSPropertyOp51
 70
     0
102
RTVSPropertyOp52
 70
     0
102
RTVSPropertyOp53
 70
     1
102
RTVSPropertyOp54
 70
     1
102
RTVSPropertyOp55
 70
     1
102
RTVSPropertyOp56
 70
     1
102
RTVSPropertyOp57
 70
     1
102
RTVSPost2010Prop28
280
     0
102
RTVSPost2010PropOp28
 70
     1
102
RTVSPost2010Prop29
280
     1
102
RTVSPost2010PropOp29
 70
     1
102
RTVSPost2010Prop30
280
     1
102
RTVSPost2010PropOp30
 70
     1
102
RTVSPost2010Prop31
280
     0
102
RTVSPost2010PropOp31
 70
     1
102
RTVSPost2010Prop32
280
     0
102
RTVSPost2010PropOp32
 70
     1
102
RTVSPost2010Prop33
280
     0
102
RTVSPost2010PropOp33
 70
     1
102
RTVSPost2010Prop34
280
     0
102
RTVSPost2010PropOp34
 70
     1
102
RTVSPost2010Prop35
280
     0
102
RTVSPost2010PropOp35
 70
     1
102
RTVSPost2010Prop36
280
     0
102
RTVSPost2010PropOp36
 70
     1
102
RTVSPost2010Prop37
 90
       50
102
RTVSPost2010PropOp37
 70
     1
102
RTVSPost2010Prop38
140
0.0
102
RTVSPost2010PropOp38
 70
     1
102
RTVSPost2010Prop39
140
1.0
102
RTVSPost2010PropOp39
 70
     1
102
RTVSPost2010Prop40
 90
        0
102
RTVSPost2010PropOp40
 70
     1
102
RTVSPost2010Prop41ColorIndex
 90
       18
102
RTVSPost2010Prop41ColorRGB
 90
        0
102
RTVSPost2010PropOp41
 70
     1
102
RTVSPost2010Prop42
 90
       50
102
RTVSPost2010PropOp42
 70
     1
102
RTVSPost2010Prop43
 90
        3
102
RTVSPost2010PropOp43
 70
     1
102
RTVSPost2010Prop44ColorIndex
 90
        5
102
RTVSPost2010Prop44ColorRGB
 90
      255
102
RTVSPost2010PropOp44
 70
     1
102
RTVSPost2010Prop45
280
     0
102
RTVSPost2010PropOp45
 70
     1
102
RTVSPost2010Prop46
 90
       50
102
RTVSPost2010PropOp46
 70
     1
102
RTVSPost2010Prop47
 90
       50
102
RTVSPost2010PropOp47
 70
     1
102
RTVSPost2010Prop48
 90
       50
102
RTVSPost2010PropOp48
 70
     1
102
RTVSPost2010Prop49
280
     0
102
RTVSPost2010PropOp49
 70
     1
102
RTVSPost2010Prop50
 90
       50
102
RTVSPost2010PropOp50
 70
     1
102
RTVSPost2010Prop51ColorIndex
 90
      256
102
RTVSPost2010Prop51ColorRGB
 90
-16777216
102
RTVSPost2010PropOp51
 70
     0
102
RTVSPost2010Prop52
140
1.0
102
RTVSPost2010PropOp52
 70
     0
102
RTVSPost2010Prop53
 90
        2
102
RTVSPost2010PropOp53
 70
     1
102
RTVSPost2010Prop54
  1
strokes_ogs.tif
102
RTVSPost2010PropOp54
 70
     1
102
RTVSPost2010Prop55
280
     0
102
RTVSPost2010PropOp55
 70
     1
102
RTVSPost2010Prop56
140
1.0
102
RTVSPost2010PropOp56
 70
     1
102
RTVSPost2010Prop57
140
1.0
102
RTVSPost2010PropOp57
 70
     1
  0
XRECORD
  5
653
102
{ACAD_REACTORS
330
652
102
}
330
652
100
AcDbXrecord
280
     1
102
RTVSPropertyOp0
 70
     1
102
RTVSPropertyOp1
 70
     1
102
RTVSPropertyOp2
 70
     1
102
RTVSPropertyOp3
 70
     1
102
RTVSPropertyOp4
 70
     1
102
RTVSPropertyOp5
 70
     1
102
RTVSPropertyOp6
 70
     1
102
RTVSPropertyOp7
 70
     1
102
RTVSPropertyOp8
 70
     1
102
RTVSPropertyOp9
 70
     1
102
RTVSPropertyOp10
 70
     1
102
RTVSPropertyOp11
 70
     1
102
RTVSPropertyOp12
 70
     1
102
RTVSPropertyOp13
 70
     1
102
RTVSPropertyOp14
 70
     1
102
RTVSPropertyOp15
 70
     1
102
RTVSPropertyOp16
 70
     1
102
RTVSPropertyOp17
 70
     1
102
RTVSPropertyOp18
 70
     1
102
RTVSPropertyOp19
 70
     1
102
RTVSPropertyOp20
 70
     1
102
RTVSPropertyOp21
 70
     1
102
RTVSPropertyOp22
 70
     1
102
RTVSPropertyOp23
 70
     1
102
RTVSPropertyOp24
 70
     1
102
RTVSPropertyOp25
 70
     1
102
RTVSPropertyOp26
 70
     1
102
RTVSPropertyOp27
 70
     1
102
RTVSPropertyOp28
 70
     1
102
RTVSPropertyOp29
 70
     1
102
RTVSPropertyOp30
 70
     1
102
RTVSPropertyOp31
 70
     1
102
RTVSPropertyOp32
 70
     1
102
RTVSPropertyOp33
 70
     1
102
RTVSPropertyOp34
 70
     1
102
RTVSPropertyOp35
 70
     1
102
RTVSPropertyOp36
 70
     1
102
RTVSPropertyOp37
 70
     1
102
RTVSPropertyOp38
 70
     1
102
RTVSPropertyOp39
 70
     1
102
RTVSPropertyOp40
 70
     1
102
RTVSPropertyOp41
 70
     1
102
RTVSPropertyOp42
 70
     1
102
RTVSPropertyOp43
 70
     1
102
RTVSPropertyOp44
 70
     1
102
RTVSPropertyOp45
 70
     1
102
RTVSPropertyOp46
 70
     1
102
RTVSPropertyOp47
 70
     1
102
RTVSPropertyOp48
 70
     1
102
RTVSPropertyOp49
 70
     1
102
RTVSPropertyOp50
 70
     1
102
RTVSPropertyOp51
 70
     0
102
RTVSPropertyOp52
 70
     0
102
RTVSPropertyOp53
 70
     1
102
RTVSPropertyOp54
 70
     1
102
RTVSPropertyOp55
 70
     1
102
RTVSPropertyOp56
 70
     1
102
RTVSPropertyOp57
 70
     1
102
RTVSPost2010Prop28
280
     0
102
RTVSPost2010PropOp28
 70
     1
102
RTVSPost2010Prop29
280
     1
102
RTVSPost2010PropOp29
 70
     1
102
RTVSPost2010Prop30
280
     1
102
RTVSPost2010PropOp30
 70
     1
102
RTVSPost2010Prop31
280
     0
102
RTVSPost2010PropOp31
 70
     1
102
RTVSPost2010Prop32
280
     0
102
RTVSPost2010PropOp32
 70
     1
102
RTVSPost2010Prop33
280
     0
102
RTVSPost2010PropOp33
 70
     1
102
RTVSPost2010Prop34
280
     0
102
RTVSPost2010PropOp34
 70
     1
102
RTVSPost2010Prop35
280
     0
102
RTVSPost2010PropOp35
 70
     1
102
RTVSPost2010Prop36
280
     0
102
RTVSPost2010PropOp36
 70
     1
102
RTVSPost2010Prop37
 90
       50
102
RTVSPost2010PropOp37
 70
     1
102
RTVSPost2010Prop38
140
0.0
102
RTVSPost2010PropOp38
 70
     1
102
RTVSPost2010Prop39
140
1.0
102
RTVSPost2010PropOp39
 70
     1
102
RTVSPost2010Prop40
 90
        0
102
RTVSPost2010PropOp40
 70
     1
102
RTVSPost2010Prop41ColorIndex
 90
       18
102
RTVSPost2010Prop41ColorRGB
 90
        0
102
RTVSPost2010PropOp41
 70
     1
102
RTVSPost2010Prop42
 90
       50
102
RTVSPost2010PropOp42
 70
     1
102
RTVSPost2010Prop43
 90
        3
102
RTVSPost2010PropOp43
 70
     1
102
RTVSPost2010Prop44ColorIndex
 90
        5
102
RTVSPost2010Prop44ColorRGB
 90
      255
102
RTVSPost2010PropOp44
 70
     1
102
RTVSPost2010Prop45
280
     0
102
RTVSPost2010PropOp45
 70
     1
102
RTVSPost2010Prop46
 90
       50
102
RTVSPost2010PropOp46
 70
     1
102
RTVSPost2010Prop47
 90
       50
102
RTVSPost2010PropOp47
 70
     1
102
RTVSPost2010Prop48
 90
       50
102
RTVSPost2010PropOp48
 70
     1
102
RTVSPost2010Prop49
280
     0
102
RTVSPost2010PropOp49
 70
     1
102
RTVSPost2010Prop50
 90
       50
102
RTVSPost2010PropOp50
 70
     1
102
RTVSPost2010Prop51ColorIndex
 90
      256
102
RTVSPost2010Prop51ColorRGB
 90
-16777216
102
RTVSPost2010PropOp51
 70
     0
102
RTVSPost2010Prop52
140
1.0
102
RTVSPost2010PropOp52
 70
     0
102
RTVSPost2010Prop53
 90
        2
102
RTVSPost2010PropOp53
 70
     1
102
RTVSPost2010Prop54
  1
strokes_ogs.tif
102
RTVSPost2010PropOp54
 70
     1
102
RTVSPost2010Prop55
280
     0
102
RTVSPost2010PropOp55
 70
     1
102
RTVSPost2010Prop56
140
1.0
102
RTVSPost2010PropOp56
 70
     1
102
RTVSPost2010Prop57
140
1.0
102
RTVSPost2010PropOp57
 70
     1
  0
XRECORD
  5
63D
102
{ACAD_REACTORS
330
63C
102
}
330
63C
100
AcDbXrecord
280
     1
102
RTVSPropertyOp0
 70
     1
102
RTVSPropertyOp1
 70
     1
102
RTVSPropertyOp2
 70
     1
102
RTVSPropertyOp3
 70
     1
102
RTVSPropertyOp4
 70
     1
102
RTVSPropertyOp5
 70
     1
102
RTVSPropertyOp6
 70
     1
102
RTVSPropertyOp7
 70
     1
102
RTVSPropertyOp8
 70
     1
102
RTVSPropertyOp9
 70
     1
102
RTVSPropertyOp10
 70
     1
102
RTVSPropertyOp11
 70
     1
102
RTVSPropertyOp12
 70
     1
102
RTVSPropertyOp13
 70
     1
102
RTVSPropertyOp14
 70
     1
102
RTVSPropertyOp15
 70
     1
102
RTVSPropertyOp16
 70
     1
102
RTVSPropertyOp17
 70
     1
102
RTVSPropertyOp18
 70
     1
102
RTVSPropertyOp19
 70
     1
102
RTVSPropertyOp20
 70
     1
102
RTVSPropertyOp21
 70
     1
102
RTVSPropertyOp22
 70
     1
102
RTVSPropertyOp23
 70
     1
102
RTVSPropertyOp24
 70
     1
102
RTVSPropertyOp25
 70
     1
102
RTVSPropertyOp26
 70
     1
102
RTVSPropertyOp27
 70
     1
102
RTVSPropertyOp28
 70
     1
102
RTVSPropertyOp29
 70
     1
102
RTVSPropertyOp30
 70
     1
102
RTVSPropertyOp31
 70
     1
102
RTVSPropertyOp32
 70
     1
102
RTVSPropertyOp33
 70
     1
102
RTVSPropertyOp34
 70
     1
102
RTVSPropertyOp35
 70
     1
102
RTVSPropertyOp36
 70
     1
102
RTVSPropertyOp37
 70
     1
102
RTVSPropertyOp38
 70
     1
102
RTVSPropertyOp39
 70
     1
102
RTVSPropertyOp40
 70
     1
102
RTVSPropertyOp41
 70
     1
102
RTVSPropertyOp42
 70
     1
102
RTVSPropertyOp43
 70
     1
102
RTVSPropertyOp44
 70
     1
102
RTVSPropertyOp45
 70
     1
102
RTVSPropertyOp46
 70
     1
102
RTVSPropertyOp47
 70
     1
102
RTVSPropertyOp48
 70
     1
102
RTVSPropertyOp49
 70
     1
102
RTVSPropertyOp50
 70
     1
102
RTVSPropertyOp51
 70
     0
102
RTVSPropertyOp52
 70
     0
102
RTVSPropertyOp53
 70
     1
102
RTVSPropertyOp54
 70
     1
102
RTVSPropertyOp55
 70
     1
102
RTVSPropertyOp56
 70
     1
102
RTVSPropertyOp57
 70
     1
102
RTVSPost2010Prop28
280
     0
102
RTVSPost2010PropOp28
 70
     1
102
RTVSPost2010Prop29
280
     1
102
RTVSPost2010PropOp29
 70
     1
102
RTVSPost2010Prop30
280
     1
102
RTVSPost2010PropOp30
 70
     1
102
RTVSPost2010Prop31
280
     0
102
RTVSPost2010PropOp31
 70
     1
102
RTVSPost2010Prop32
280
     0
102
RTVSPost2010PropOp32
 70
     1
102
RTVSPost2010Prop33
280
     0
102
RTVSPost2010PropOp33
 70
     1
102
RTVSPost2010Prop34
280
     0
102
RTVSPost2010PropOp34
 70
     1
102
RTVSPost2010Prop35
280
     0
102
RTVSPost2010PropOp35
 70
     1
102
RTVSPost2010Prop36
280
     0
102
RTVSPost2010PropOp36
 70
     1
102
RTVSPost2010Prop37
 90
       50
102
RTVSPost2010PropOp37
 70
     1
102
RTVSPost2010Prop38
140
0.0
102
RTVSPost2010PropOp38
 70
     1
102
RTVSPost2010Prop39
140
1.0
102
RTVSPost2010PropOp39
 70
     1
102
RTVSPost2010Prop40
 90
        0
102
RTVSPost2010PropOp40
 70
     1
102
RTVSPost2010Prop41ColorIndex
 90
       18
102
RTVSPost2010Prop41ColorRGB
 90
        0
102
RTVSPost2010PropOp41
 70
     1
102
RTVSPost2010Prop42
 90
       50
102
RTVSPost2010PropOp42
 70
     1
102
RTVSPost2010Prop43
 90
        3
102
RTVSPost2010PropOp43
 70
     1
102
RTVSPost2010Prop44ColorIndex
 90
        5
102
RTVSPost2010Prop44ColorRGB
 90
      255
102
RTVSPost2010PropOp44
 70
     1
102
RTVSPost2010Prop45
280
     0
102
RTVSPost2010PropOp45
 70
     1
102
RTVSPost2010Prop46
 90
       50
102
RTVSPost2010PropOp46
 70
     1
102
RTVSPost2010Prop47
 90
       50
102
RTVSPost2010PropOp47
 70
     1
102
RTVSPost2010Prop48
 90
       50
102
RTVSPost2010PropOp48
 70
     1
102
RTVSPost2010Prop49
280
     0
102
RTVSPost2010PropOp49
 70
     1
102
RTVSPost2010Prop50
 90
       50
102
RTVSPost2010PropOp50
 70
     1
102
RTVSPost2010Prop51ColorIndex
 90
      256
102
RTVSPost2010Prop51ColorRGB
 90
-16777216
102
RTVSPost2010PropOp51
 70
     0
102
RTVSPost2010Prop52
140
1.0
102
RTVSPost2010PropOp52
 70
     0
102
RTVSPost2010Prop53
 90
        2
102
RTVSPost2010PropOp53
 70
     1
102
RTVSPost2010Prop54
  1
strokes_ogs.tif
102
RTVSPost2010PropOp54
 70
     1
102
RTVSPost2010Prop55
280
     0
102
RTVSPost2010PropOp55
 70
     1
102
RTVSPost2010Prop56
140
1.0
102
RTVSPost2010PropOp56
 70
     1
102
RTVSPost2010Prop57
140
1.0
102
RTVSPost2010PropOp57
 70
     1
  0
XRECORD
  5
665
102
{ACAD_REACTORS
330
664
102
}
330
664
100
AcDbXrecord
280
     1
102
RTVSPropertyOp0
 70
     1
102
RTVSPropertyOp1
 70
     1
102
RTVSPropertyOp2
 70
     1
102
RTVSPropertyOp3
 70
     1
102
RTVSPropertyOp4
 70
     1
102
RTVSPropertyOp5
 70
     1
102
RTVSPropertyOp6
 70
     1
102
RTVSPropertyOp7
 70
     1
102
RTVSPropertyOp8
 70
     1
102
RTVSPropertyOp9
 70
     1
102
RTVSPropertyOp10
 70
     1
102
RTVSPropertyOp11
 70
     1
102
RTVSPropertyOp12
 70
     1
102
RTVSPropertyOp13
 70
     1
102
RTVSPropertyOp14
 70
     1
102
RTVSPropertyOp15
 70
     1
102
RTVSPropertyOp16
 70
     1
102
RTVSPropertyOp17
 70
     1
102
RTVSPropertyOp18
 70
     1
102
RTVSPropertyOp19
 70
     1
102
RTVSPropertyOp20
 70
     1
102
RTVSPropertyOp21
 70
     1
102
RTVSPropertyOp22
 70
     1
102
RTVSPropertyOp23
 70
     1
102
RTVSPropertyOp24
 70
     1
102
RTVSPropertyOp25
 70
     1
102
RTVSPropertyOp26
 70
     1
102
RTVSPropertyOp27
 70
     1
102
RTVSPropertyOp28
 70
     1
102
RTVSPropertyOp29
 70
     1
102
RTVSPropertyOp30
 70
     1
102
RTVSPropertyOp31
 70
     1
102
RTVSPropertyOp32
 70
     1
102
RTVSPropertyOp33
 70
     1
102
RTVSPropertyOp34
 70
     1
102
RTVSPropertyOp35
 70
     1
102
RTVSPropertyOp36
 70
     1
102
RTVSPropertyOp37
 70
     1
102
RTVSPropertyOp38
 70
     1
102
RTVSPropertyOp39
 70
     1
102
RTVSPropertyOp40
 70
     1
102
RTVSPropertyOp41
 70
     1
102
RTVSPropertyOp42
 70
     1
102
RTVSPropertyOp43
 70
     1
102
RTVSPropertyOp44
 70
     1
102
RTVSPropertyOp45
 70
     1
102
RTVSPropertyOp46
 70
     1
102
RTVSPropertyOp47
 70
     1
102
RTVSPropertyOp48
 70
     1
102
RTVSPropertyOp49
 70
     1
102
RTVSPropertyOp50
 70
     1
102
RTVSPropertyOp51
 70
     0
102
RTVSPropertyOp52
 70
     0
102
RTVSPropertyOp53
 70
     1
102
RTVSPropertyOp54
 70
     1
102
RTVSPropertyOp55
 70
     1
102
RTVSPropertyOp56
 70
     1
102
RTVSPropertyOp57
 70
     1
102
RTVSPost2010Prop28
280
     0
102
RTVSPost2010PropOp28
 70
     1
102
RTVSPost2010Prop29
280
     1
102
RTVSPost2010PropOp29
 70
     1
102
RTVSPost2010Prop30
280
     1
102
RTVSPost2010PropOp30
 70
     1
102
RTVSPost2010Prop31
280
     0
102
RTVSPost2010PropOp31
 70
     1
102
RTVSPost2010Prop32
280
     0
102
RTVSPost2010PropOp32
 70
     1
102
RTVSPost2010Prop33
280
     0
102
RTVSPost2010PropOp33
 70
     1
102
RTVSPost2010Prop34
280
     0
102
RTVSPost2010PropOp34
 70
     1
102
RTVSPost2010Prop35
280
     0
102
RTVSPost2010PropOp35
 70
     1
102
RTVSPost2010Prop36
280
     0
102
RTVSPost2010PropOp36
 70
     1
102
RTVSPost2010Prop37
 90
       50
102
RTVSPost2010PropOp37
 70
     1
102
RTVSPost2010Prop38
140
0.0
102
RTVSPost2010PropOp38
 70
     1
102
RTVSPost2010Prop39
140
1.0
102
RTVSPost2010PropOp39
 70
     1
102
RTVSPost2010Prop40
 90
        0
102
RTVSPost2010PropOp40
 70
     1
102
RTVSPost2010Prop41ColorIndex
 90
       18
102
RTVSPost2010Prop41ColorRGB
 90
        0
102
RTVSPost2010PropOp41
 70
     1
102
RTVSPost2010Prop42
 90
       50
102
RTVSPost2010PropOp42
 70
     1
102
RTVSPost2010Prop43
 90
        3
102
RTVSPost2010PropOp43
 70
     1
102
RTVSPost2010Prop44ColorIndex
 90
        5
102
RTVSPost2010Prop44ColorRGB
 90
      255
102
RTVSPost2010PropOp44
 70
     1
102
RTVSPost2010Prop45
280
     0
102
RTVSPost2010PropOp45
 70
     1
102
RTVSPost2010Prop46
 90
       50
102
RTVSPost2010PropOp46
 70
     1
102
RTVSPost2010Prop47
 90
       50
102
RTVSPost2010PropOp47
 70
     1
102
RTVSPost2010Prop48
 90
       50
102
RTVSPost2010PropOp48
 70
     1
102
RTVSPost2010Prop49
280
     0
102
RTVSPost2010PropOp49
 70
     1
102
RTVSPost2010Prop50
 90
       50
102
RTVSPost2010PropOp50
 70
     1
102
RTVSPost2010Prop51ColorIndex
 90
      256
102
RTVSPost2010Prop51ColorRGB
 90
-16777216
102
RTVSPost2010PropOp51
 70
     0
102
RTVSPost2010Prop52
140
1.0
102
RTVSPost2010PropOp52
 70
     0
102
RTVSPost2010Prop53
 90
        2
102
RTVSPost2010PropOp53
 70
     1
102
RTVSPost2010Prop54
  1
strokes_ogs.tif
102
RTVSPost2010PropOp54
 70
     1
102
RTVSPost2010Prop55
280
     0
102
RTVSPost2010PropOp55
 70
     1
102
RTVSPost2010Prop56
140
1.0
102
RTVSPost2010PropOp56
 70
     1
102
RTVSPost2010Prop57
140
1.0
102
RTVSPost2010PropOp57
 70
     1
  0
ENDSEC
  0
EOF
