  0
SECTION
  2
HEADER
  9
$ACADVER
  1
AC1015
  9
$ACADMAINTVER
 70
     6
  9
$DWGCODEPAGE
  3
ANSI_932
  9
$INSBASE
 10
1955.974830285529
 20
746.1177103371888
 30
0.0
  9
$EXTMIN
 10
134.831978265662
 20
36.14762271037523
 30
0.0
  9
$EXTMAX
 10
1472.001240632695
 20
1210.476500795136
 30
0.0
  9
$LIMMIN
 10
-210.0
 20
-148.5
  9
$LIMMAX
 10
210.0
 20
148.5
  9
$ORTHOMODE
 70
     1
  9
$REGENMODE
 70
     1
  9
$FILLMODE
 70
     1
  9
$QTEXTMODE
 70
     0
  9
$MIRRTEXT
 70
     1
  9
$LTSCALE
 40
3.0
  9
$ATTMODE
 70
     1
  9
$TEXTSIZE
 40
12.0
  9
$TRACEWID
 40
0.05
  9
$TEXTSTYLE
  7
KANJI
  9
$CLAYER
  8
2
  9
$CELTYPE
  6
BYLAYER
  9
$CECOLOR
 62
   256
  9
$CELTSCALE
 40
1.0
  9
$DISPSILH
 70
     0
  9
$DIMSCALE
 40
4.0
  9
$DIMASZ
 40
2.0
  9
$DIMEXO
 40
0.5
  9
$DIMDLI
 40
10.0
  9
$DIMRND
 40
0.0
  9
$DIMDLE
 40
0.0
  9
$DIMEXE
 40
1.0
  9
$DIMTP
 40
0.0
  9
$DIMTM
 40
0.0
  9
$DIMTXT
 40
3.0
  9
$DIMCEN
 40
0.09
  9
$DIMTSZ
 40
0.0
  9
$DIMTOL
 70
     0
  9
$DIMLIM
 70
     0
  9
$DIMTIH
 70
     0
  9
$DIMTOH
 70
     0
  9
$DIMSE1
 70
     0
  9
$DIMSE2
 70
     0
  9
$DIMTAD
 70
     0
  9
$DIMZIN
 70
     8
  9
$DIMBLK
  1

  9
$DIMASO
 70
     0
  9
$DIMSHO
 70
     0
  9
$DIMPOST
  1

  9
$DIMAPOST
  1

  9
$DIMALT
 70
     0
  9
$DIMALTD
 70
     2
  9
$DIMALTF
 40
25.4
  9
$DIMLFAC
 40
1.0
  9
$DIMTOFL
 70
     1
  9
$DIMTVP
 40
1.0
  9
$DIMTIX
 70
     1
  9
$DIMSOXD
 70
     1
  9
$DIMSAH
 70
     0
  9
$DIMBLK1
  1

  9
$DIMBLK2
  1

  9
$DIMSTYLE
  2
STANDARD
  9
$DIMCLRD
 70
   256
  9
$DIMCLRE
 70
   256
  9
$DIMCLRT
 70
   256
  9
$DIMTFAC
 40
1.0
  9
$DIMGAP
 40
0.09
  9
$DIMJUST
 70
     0
  9
$DIMSD1
 70
     0
  9
$DIMSD2
 70
     0
  9
$DIMTOLJ
 70
     1
  9
$DIMTZIN
 70
     0
  9
$DIMALTZ
 70
     0
  9
$DIMALTTZ
 70
     0
  9
$DIMUPT
 70
     0
  9
$DIMDEC
 70
     4
  9
$DIMTDEC
 70
     4
  9
$DIMALTU
 70
     2
  9
$DIMALTTD
 70
     2
  9
$DIMTXSTY
  7
STANDARD
  9
$DIMAUNIT
 70
     0
  9
$DIMADEC
 70
     0
  9
$DIMALTRND
 40
0.0
  9
$DIMAZIN
 70
     0
  9
$DIMDSEP
 70
    46
  9
$DIMATFIT
 70
     3
  9
$DIMFRAC
 70
     0
  9
$DIMLDRBLK
  1

  9
$DIMLUNIT
 70
     2
  9
$DIMLWD
 70
    -2
  9
$DIMLWE
 70
    -2
  9
$DIMTMOVE
 70
     0
  9
$LUNITS
 70
     2
  9
$LUPREC
 70
     4
  9
$SKETCHINC
 40
0.1
  9
$FILLETRAD
 40
2.0
  9
$AUNITS
 70
     0
  9
$AUPREC
 70
     0
  9
$MENU
  1
.
  9
$ELEVATION
 40
0.0
  9
$PELEVATION
 40
0.0
  9
$THICKNESS
 40
0.0
  9
$LIMCHECK
 70
     0
  9
$CHAMFERA
 40
0.0
  9
$CHAMFERB
 40
0.0
  9
$CHAMFERC
 40
0.0
  9
$CHAMFERD
 40
0.0
  9
$SKPOLY
 70
     0
  9
$TDCREATE
 40
2457542.815610451
  9
$TDUCREATE
 40
2457542.440610451
  9
$TDUPDATE
 40
2457870.617251308
  9
$TDUUPDATE
 40
2457870.242251308
  9
$TDINDWG
 40
0.0047248727
  9
$TDUSRTIMER
 40
0.0047242014
  9
$USRTIMER
 70
     1
  9
$ANGBASE
 50
0.0
  9
$ANGDIR
 70
     0
  9
$PDMODE
 70
     0
  9
$PDSIZE
 40
0.0
  9
$PLINEWID
 40
0.0
  9
$SPLFRAME
 70
     0
  9
$SPLINETYPE
 70
     6
  9
$SPLINESEGS
 70
     8
  9
$HANDSEED
  5
5EB
  9
$SURFTAB1
 70
     6
  9
$SURFTAB2
 70
     6
  9
$SURFTYPE
 70
     6
  9
$SURFU
 70
     6
  9
$SURFV
 70
     6
  9
$UCSBASE
  2

  9
$UCSNAME
  2

  9
$UCSORG
 10
0.0
 20
0.0
 30
0.0
  9
$UCSXDIR
 10
1.0
 20
0.0
 30
0.0
  9
$UCSYDIR
 10
0.0
 20
1.0
 30
0.0
  9
$UCSORTHOREF
  2

  9
$UCSORTHOVIEW
 70
     0
  9
$UCSORGTOP
 10
0.0
 20
0.0
 30
0.0
  9
$UCSORGBOTTOM
 10
0.0
 20
0.0
 30
0.0
  9
$UCSORGLEFT
 10
0.0
 20
0.0
 30
0.0
  9
$UCSORGRIGHT
 10
0.0
 20
0.0
 30
0.0
  9
$UCSORGFRONT
 10
0.0
 20
0.0
 30
0.0
  9
$UCSORGBACK
 10
0.0
 20
0.0
 30
0.0
  9
$PUCSBASE
  2

  9
$PUCSNAME
  2

  9
$PUCSORG
 10
0.0
 20
0.0
 30
0.0
  9
$PUCSXDIR
 10
1.0
 20
0.0
 30
0.0
  9
$PUCSYDIR
 10
0.0
 20
1.0
 30
0.0
  9
$PUCSORTHOREF
  2

  9
$PUCSORTHOVIEW
 70
     0
  9
$PUCSORGTOP
 10
0.0
 20
0.0
 30
0.0
  9
$PUCSORGBOTTOM
 10
0.0
 20
0.0
 30
0.0
  9
$PUCSORGLEFT
 10
0.0
 20
0.0
 30
0.0
  9
$PUCSORGRIGHT
 10
0.0
 20
0.0
 30
0.0
  9
$PUCSORGFRONT
 10
0.0
 20
0.0
 30
0.0
  9
$PUCSORGBACK
 10
0.0
 20
0.0
 30
0.0
  9
$USERI1
 70
     0
  9
$USERI2
 70
     0
  9
$USERI3
 70
     0
  9
$USERI4
 70
     0
  9
$USERI5
 70
     0
  9
$USERR1
 40
0.0
  9
$USERR2
 40
0.0
  9
$USERR3
 40
0.0
  9
$USERR4
 40
0.0
  9
$USERR5
 40
0.0
  9
$WORLDVIEW
 70
     1
  9
$SHADEDGE
 70
     3
  9
$SHADEDIF
 70
    70
  9
$TILEMODE
 70
     1
  9
$MAXACTVP
 70
    16
  9
$PINSBASE
 10
0.0
 20
0.0
 30
0.0
  9
$PLIMCHECK
 70
     0
  9
$PEXTMIN
 10
1.000000000000000E+20
 20
1.000000000000000E+20
 30
1.000000000000000E+20
  9
$PEXTMAX
 10
-1.000000000000000E+20
 20
-1.000000000000000E+20
 30
-1.000000000000000E+20
  9
$PLIMMIN
 10
0.0
 20
0.0
  9
$PLIMMAX
 10
12.0
 20
9.0
  9
$UNITMODE
 70
     0
  9
$VISRETAIN
 70
     0
  9
$PLINEGEN
 70
     0
  9
$PSLTSCALE
 70
     1
  9
$TREEDEPTH
 70
  3020
  9
$CMLSTYLE
  2
STANDARD
  9
$CMLJUST
 70
     0
  9
$CMLSCALE
 40
1.0
  9
$PROXYGRAPHICS
 70
     1
  9
$MEASUREMENT
 70
     0
  9
$CELWEIGHT
370
    -1
  9
$ENDCAPS
280
     0
  9
$JOINSTYLE
280
     0
  9
$LWDISPLAY
290
     0
  9
$INSUNITS
 70
     0
  9
$HYPERLINKBASE
  1

  9
$STYLESHEET
  1
monochrome.ctb
  9
$XEDIT
290
     1
  9
$CEPSNTYPE
380
     0
  9
$PSTYLEMODE
290
     1
  9
$FINGERPRINTGUID
  2
{EB602474-75B2-4EFB-BB3C-CA6E542901DF}
  9
$VERSIONGUID
  2
{9F24F0C3-BF72-4574-A925-E06DE9172671}
  9
$EXTNAMES
290
     1
  9
$PSVPSCALE
 40
0.0
  9
$OLESTARTUP
290
     0
  0
ENDSEC
  0
SECTION
  2
CLASSES
  0
CLASS
  1
ACDBDICTIONARYWDFLT
  2
AcDbDictionaryWithDefault
  3
ObjectDBX Classes
 90
        0
280
     0
281
     0
  0
CLASS
  1
MATERIAL
  2
AcDbMaterial
  3
ObjectDBX Classes
 90
     1153
280
     0
281
     0
  0
CLASS
  1
SORTENTSTABLE
  2
AcDbSortentsTable
  3
ObjectDBX Classes
 90
        0
280
     0
281
     0
  0
CLASS
  1
VISUALSTYLE
  2
AcDbVisualStyle
  3
ObjectDBX Classes
 90
     4095
280
     0
281
     0
  0
CLASS
  1
SCALE
  2
AcDbScale
  3
ObjectDBX Classes
 90
     1153
280
     0
281
     0
  0
CLASS
  1
DICTIONARYVAR
  2
AcDbDictionaryVar
  3
ObjectDBX Classes
 90
        0
280
     0
281
     0
  0
CLASS
  1
MLEADERSTYLE
  2
AcDbMLeaderStyle
  3
ACDB_MLEADERSTYLE_CLASS
 90
     4095
280
     0
281
     0
  0
CLASS
  1
TABLESTYLE
  2
AcDbTableStyle
  3
ObjectDBX Classes
 90
     4095
280
     0
281
     0
  0
CLASS
  1
ACDBPLACEHOLDER
  2
AcDbPlaceHolder
  3
ObjectDBX Classes
 90
        0
280
     0
281
     0
  0
CLASS
  1
LAYOUT
  2
AcDbLayout
  3
ObjectDBX Classes
 90
        0
280
     0
281
     0
  0
ENDSEC
  0
SECTION
  2
TABLES
  0
TABLE
  2
VPORT
  5
2E
102
{ACAD_XDICTIONARY
360
5B0
102
}
330
0
100
AcDbSymbolTable
 70
     1
  0
VPORT
  5
35
330
2E
100
AcDbSymbolTableRecord
100
AcDbViewportTableRecord
  2
*Active
 70
     0
 10
0.0
 20
0.0
 11
1.0
 21
1.0
 12
1749.154756866214
 22
745.1691876954338
 13
0.0
 23
0.0
 14
1.0
 24
1.0
 15
0.0
 25
0.0
 16
0.0
 26
0.0
 36
1.0
 17
0.0
 27
0.0
 37
0.0
 40
1949.891316484714
 41
2.174107142857143
 42
50.0
 43
0.0
 44
0.0
 50
0.0
 51
0.0
 71
     0
 72
 20000
 73
     1
 74
     0
 75
     0
 76
     0
 77
     0
 78
     0
281
     0
 65
     1
110
0.0
120
0.0
130
0.0
111
1.0
121
0.0
131
0.0
112
0.0
122
1.0
132
0.0
 79
     0
146
0.0
1001
ACAD_NAV_VCDISPLAY
1070
     3
  0
ENDTAB
  0
TABLE
  2
LTYPE
  5
F
330
0
100
AcDbSymbolTable
 70
     4
  0
LTYPE
  5
10
330
F
100
AcDbSymbolTableRecord
100
AcDbLinetypeTableRecord
  2
BYBLOCK
 70
     0
  3

 72
    65
 73
     0
 40
0.0
  0
LTYPE
  5
11
330
F
100
AcDbSymbolTableRecord
100
AcDbLinetypeTableRecord
  2
BYLAYER
 70
     0
  3

 72
    65
 73
     0
 40
0.0
  0
LTYPE
  5
E
330
F
100
AcDbSymbolTableRecord
100
AcDbLinetypeTableRecord
  2
CONTINUOUS
 70
     0
  3
Solid line
 72
    65
 73
     0
 40
0.0
  0
LTYPE
  5
60
330
F
100
AcDbSymbolTableRecord
100
AcDbLinetypeTableRecord
  2
CENTER
 70
     0
  3
Center ____ _ ____ _ ____ _ ____ _ ____ _ ____
 72
    65
 73
     4
 40
2.0
 49
1.25
 74
     0
 49
-0.25
 74
     0
 49
0.25
 74
     0
 49
-0.25
 74
     0
  0
LTYPE
  5
6A
330
F
100
AcDbSymbolTableRecord
100
AcDbLinetypeTableRecord
  2
DASHED
 70
     0
  3
__ __ __ __ __ __ __ __ __ __ __ __ __ __ __ __
 72
    65
 73
     2
 40
0.75
 49
0.5
 74
     0
 49
-0.25
 74
     0
  0
ENDTAB
  0
TABLE
  2
LAYER
  5
2
102
{ACAD_XDICTIONARY
360
3
102
}
330
0
100
AcDbSymbolTable
 70
     8
  0
LAYER
  5
1F
102
{ACAD_XDICTIONARY
360
20
102
}
330
2
100
AcDbSymbolTableRecord
100
AcDbLayerTableRecord
  2
0
 70
     0
 62
     7
  6
CONTINUOUS
370
    -3
390
7
  0
LAYER
  5
DE
102
{ACAD_XDICTIONARY
360
DF
102
}
330
2
100
AcDbSymbolTableRecord
100
AcDbLayerTableRecord
  2
1
 70
     0
 62
     7
  6
CONTINUOUS
370
    -3
390
7
  0
LAYER
  5
1
102
{ACAD_XDICTIONARY
360
5
102
}
330
2
100
AcDbSymbolTableRecord
100
AcDbLayerTableRecord
  2
2
 70
     0
 62
     4
  6
CONTINUOUS
370
    -3
390
7
  0
LAYER
  5
D9
102
{ACAD_XDICTIONARY
360
DA
102
}
330
2
100
AcDbSymbolTableRecord
100
AcDbLayerTableRecord
  2
4
 70
     0
 62
     3
  6
CONTINUOUS
370
    -3
390
7
  0
LAYER
  5
5D
102
{ACAD_XDICTIONARY
360
5E
102
}
330
2
100
AcDbSymbolTableRecord
100
AcDbLayerTableRecord
  2
L-CENTER
 70
     0
 62
     1
  6
CENTER
370
    -3
390
7
  0
LAYER
  5
67
102
{ACAD_XDICTIONARY
360
68
102
}
330
2
100
AcDbSymbolTableRecord
100
AcDbLayerTableRecord
  2
3
 70
     0
 62
     2
  6
DASHED
370
    -3
390
7
  0
LAYER
  5
D4
330
2
100
AcDbSymbolTableRecord
100
AcDbLayerTableRecord
  2
5
 70
     0
 62
     6
  6
CONTINUOUS
370
    -3
390
7
  0
LAYER
  5
579
330
2
100
AcDbSymbolTableRecord
100
AcDbLayerTableRecord
  2
Defpoints
 70
     0
 62
     7
  6
CONTINUOUS
290
     0
370
    -3
390
7
  0
ENDTAB
  0
TABLE
  2
STYLE
  5
13
330
0
100
AcDbSymbolTable
 70
     2
  0
STYLE
  5
17
330
13
100
AcDbSymbolTableRecord
100
AcDbTextStyleTableRecord
  2
STANDARD
 70
     0
 40
0.0
 41
1.0
 50
0.0
 71
     0
 42
7.2
  3
txt
  4

  0
STYLE
  5
12
330
13
100
AcDbSymbolTableRecord
100
AcDbTextStyleTableRecord
  2
KANJI
 70
     0
 40
0.0
 41
1.0
 50
0.0
 71
     0
 42
12.0
  3
TXT
  4
BIGFONT
  0
ENDTAB
  0
TABLE
  2
VIEW
  5
2C
330
0
100
AcDbSymbolTable
 70
     0
  0
ENDTAB
  0
TABLE
  2
UCS
  5
2D
330
0
100
AcDbSymbolTable
 70
     0
  0
ENDTAB
  0
TABLE
  2
APPID
  5
D
330
0
100
AcDbSymbolTable
 70
     4
  0
APPID
  5
C
330
D
100
AcDbSymbolTableRecord
100
AcDbRegAppTableRecord
  2
ACAD
 70
     0
  0
APPID
  5
36
330
D
100
AcDbSymbolTableRecord
100
AcDbRegAppTableRecord
  2
ACAD_NAV_VCDISPLAY
 70
     0
  0
APPID
  5
27
330
D
100
AcDbSymbolTableRecord
100
AcDbRegAppTableRecord
  2
ACAD_PSEXT
 70
     0
  0
APPID
  5
5A4
330
D
100
AcDbSymbolTableRecord
100
AcDbRegAppTableRecord
  2
ACAD_MLEADERVER
 70
     0
  0
ENDTAB
  0
TABLE
  2
DIMSTYLE
  5
16
330
0
100
AcDbSymbolTable
 70
     1
100
AcDbDimStyleTable
  0
DIMSTYLE
105
15
330
16
100
AcDbSymbolTableRecord
100
AcDbDimStyleTableRecord
  2
STANDARD
 70
     0
178
     0
340
17
  0
ENDTAB
  0
TABLE
  2
BLOCK_RECORD
  5
1A
330
0
100
AcDbSymbolTable
 70
     0
  0
BLOCK_RECORD
  5
1B
102
{ACAD_XDICTIONARY
360
1C
102
}
330
1A
100
AcDbSymbolTableRecord
100
AcDbBlockTableRecord
  2
*MODEL_SPACE
340
23
  0
BLOCK_RECORD
  5
28
330
1A
100
AcDbSymbolTableRecord
100
AcDbBlockTableRecord
  2
*PAPER_SPACE
340
2B
  0
ENDTAB
  0
ENDSEC
  0
SECTION
  2
BLOCKS
  0
BLOCK
  5
1E
330
1B
100
AcDbEntity
  8
0
100
AcDbBlockBegin
  2
*MODEL_SPACE
 70
     0
 10
0.0
 20
0.0
 30
0.0
  3
*MODEL_SPACE
  1

  0
ENDBLK
  5
22
330
1B
100
AcDbEntity
  8
0
100
AcDbBlockEnd
  0
BLOCK
  5
29
330
28
100
AcDbEntity
 67
     1
  8
0
100
AcDbBlockBegin
  2
*PAPER_SPACE
 70
     0
 10
0.0
 20
0.0
 30
0.0
  3
*PAPER_SPACE
  1

  0
ENDBLK
  5
2A
330
28
100
AcDbEntity
 67
     1
  8
0
100
AcDbBlockEnd
  0
ENDSEC
  0
SECTION
  2
ENTITIES
  0
LINE
  5
1A8
330
1B
100
AcDbEntity
  8
4
100
AcDbLine
 10
640.8385353362994
 20
130.1367819584912
 30
0.0
 11
628.838535336299
 21
139.1367819584912
 31
0.0
  0
LINE
  5
1A9
330
1B
100
AcDbEntity
  8
4
100
AcDbLine
 10
640.8385353362994
 20
130.1367819584913
 30
0.0
 11
640.8385353362994
 21
139.1367819584912
 31
0.0
  0
ARC
  5
1AA
330
1B
100
AcDbEntity
  8
4
100
AcDbCircle
 10
644.838535336299
 20
141.1367819584912
 30
0.0
 40
2.0
100
AcDbArc
 50
270.0
 51
0.0
  0
LINE
  5
1AB
330
1B
100
AcDbEntity
  8
4
100
AcDbLine
 10
640.8385353362994
 20
300.136781958491
 30
0.0
 11
628.838535336299
 21
291.1367819584912
 31
0.0
  0
LINE
  5
1AC
330
1B
100
AcDbEntity
  8
4
100
AcDbLine
 10
640.8385353362994
 20
300.136781958491
 30
0.0
 11
640.8385353362994
 21
291.1367819584912
 31
0.0
  0
ARC
  5
1AD
330
1B
100
AcDbEntity
  8
4
100
AcDbCircle
 10
644.838535336299
 20
289.1367819584912
 30
0.0
 40
2.0
100
AcDbArc
 50
0.0
 51
90.0
  0
LINE
  5
1AE
330
1B
100
AcDbEntity
  8
4
100
AcDbLine
 10
280.8385353362987
 20
130.1367819584912
 30
0.0
 11
292.8385353362994
 21
139.1367819584912
 31
0.0
  0
LINE
  5
1AF
330
1B
100
AcDbEntity
  8
4
100
AcDbLine
 10
280.8385353362989
 20
130.1367819584913
 30
0.0
 11
280.8385353362989
 21
139.1367819584912
 31
0.0
  0
ARC
  5
1B0
330
1B
100
AcDbEntity
  8
4
100
AcDbCircle
 10
276.8385353362989
 20
141.1367819584912
 30
0.0
 40
2.0
100
AcDbArc
 50
180.0
 51
270.0
  0
LINE
  5
1B1
330
1B
100
AcDbEntity
  8
4
100
AcDbLine
 10
280.8385353362989
 20
300.136781958491
 30
0.0
 11
292.8385353362994
 21
291.1367819584912
 31
0.0
  0
LINE
  5
1B2
330
1B
100
AcDbEntity
  8
4
100
AcDbLine
 10
280.8385353362989
 20
300.136781958491
 30
0.0
 11
280.8385353362989
 21
291.1367819584912
 31
0.0
  0
LINE
  5
1B3
330
1B
100
AcDbEntity
  8
4
100
AcDbLine
 10
488.8385353362989
 20
985.9827264586222
 30
0.0
 11
500.8385353362989
 21
985.9827264586222
 31
0.0
  0
LINE
  5
1B4
330
1B
100
AcDbEntity
  8
4
100
AcDbLine
 10
488.8385353362989
 20
1003.982726458622
 30
0.0
 11
500.8385353362989
 21
1003.982726458622
 31
0.0
  0
LINE
  5
1B5
330
1B
100
AcDbEntity
  8
4
100
AcDbLine
 10
488.8385353362989
 20
994.9827264586222
 30
0.0
 11
488.8385353362989
 21
1003.982726458622
 31
0.0
  0
LINE
  5
1B6
330
1B
100
AcDbEntity
  8
4
100
AcDbLine
 10
488.8385353362989
 20
994.9827264586222
 30
0.0
 11
488.8385353362989
 21
985.9827264586222
 31
0.0
  0
LINE
  5
1B7
330
1B
100
AcDbEntity
  8
4
100
AcDbLine
 10
500.8385353362989
 20
1003.982726458622
 30
0.0
 11
500.8385353362989
 21
985.9827264586222
 31
0.0
  0
ARC
  5
1B8
330
1B
100
AcDbEntity
  8
4
100
AcDbCircle
 10
460.8385353362989
 20
994.9827264586222
 30
0.0
 40
33.999996
100
AcDbArc
 50
15.34947886730766
 51
344.6505199999996
  0
LINE
  5
1B9
330
1B
100
AcDbEntity
  8
4
100
AcDbLine
 10
442.8385353362989
 20
1198.482726458622
 30
0.0
 11
478.8385353362989
 21
1198.482726458622
 31
0.0
  0
LINE
  5
1BA
330
1B
100
AcDbEntity
  8
4
100
AcDbLine
 10
445.2500853362992
 20
1203.482726458622
 30
0.0
 11
476.4269853362987
 21
1203.482726458622
 31
0.0
  0
LINE
  5
1BB
330
1B
100
AcDbEntity
  8
4
100
AcDbLine
 10
476.4269853362987
 20
1203.482726458622
 30
0.0
 11
476.4269853362987
 21
1198.482726458622
 31
0.0
  0
LINE
  5
1BC
330
1B
100
AcDbEntity
  8
4
100
AcDbLine
 10
445.2500853362992
 20
1203.482726458622
 30
0.0
 11
445.2500853362992
 21
1198.482726458622
 31
0.0
  0
LINE
  5
1BD
330
1B
100
AcDbEntity
  8
4
100
AcDbLine
 10
443.8385353362989
 20
1194.982726458622
 30
0.0
 11
477.8385353362989
 21
1194.982726458622
 31
0.0
  0
LINE
  5
1BE
330
1B
100
AcDbEntity
  8
4
100
AcDbLine
 10
442.8385353362989
 20
1196.482726458622
 30
0.0
 11
478.8385353362989
 21
1196.482726458622
 31
0.0
  0
LINE
  5
1BF
330
1B
100
AcDbEntity
  8
4
100
AcDbLine
 10
477.8385353362989
 20
1194.982726458622
 30
0.0
 11
477.8385353362989
 21
1196.482726458622
 31
0.0
  0
LINE
  5
1C0
330
1B
100
AcDbEntity
  8
4
100
AcDbLine
 10
443.8385353362989
 20
1196.482726458622
 30
0.0
 11
443.8385353362989
 21
1194.982726458622
 31
0.0
  0
LINE
  5
1C1
330
1B
100
AcDbEntity
  8
4
100
AcDbLine
 10
442.8385353362989
 20
1196.482726458622
 30
0.0
 11
442.8385353362989
 21
1198.482726458622
 31
0.0
  0
LINE
  5
1C2
330
1B
100
AcDbEntity
  8
4
100
AcDbLine
 10
478.8385353362989
 20
1196.482726458622
 30
0.0
 11
478.8385353362989
 21
1198.482726458622
 31
0.0
  0
LINE
  5
1C3
330
1B
100
AcDbEntity
  8
4
100
AcDbLine
 10
245.3421622821518
 20
738.8155626789064
 30
0.0
 11
251.4386353362995
 21
738.8155626789064
 31
0.0
  0
LINE
  5
1C4
330
1B
100
AcDbEntity
  8
4
100
AcDbLine
 10
253.9386353362995
 20
753.5379945432421
 30
0.0
 11
245.3421622821518
 21
753.5379945432421
 31
0.0
  0
LINE
  5
1C5
330
1B
100
AcDbEntity
  8
4
100
AcDbLine
 10
245.3421622821515
 20
748.6305172551304
 30
0.0
 11
251.4386353362993
 21
748.6305172551304
 31
0.0
  0
ARC
  5
1C6
330
1B
100
AcDbEntity
  8
4
100
AcDbCircle
 10
258.2178006337592
 20
743.7230399670179
 30
0.0
 40
13.77916529745958
100
AcDbArc
 50
159.1359356360806
 51
200.8640643639204
  0
ARC
  5
1C7
330
1B
100
AcDbEntity
  8
4
100
AcDbCircle
 10
248.2222492653586
 20
751.0842558991856
 30
0.0
 40
3.783613929059507
100
AcDbArc
 50
139.5701031551731
 51
220.4298968448269
  0
LINE
  5
1C8
330
1B
100
AcDbEntity
  8
4
100
AcDbLine
 10
245.3421622821518
 20
733.9080853907947
 30
0.0
 11
253.9386353362995
 21
733.9080853907947
 31
0.0
  0
LINE
  5
1C9
330
1B
100
AcDbEntity
  8
4
100
AcDbLine
 10
244.4386353362995
 20
751.084255899186
 30
0.0
 11
244.4386353362995
 21
736.3618240348508
 31
0.0
  0
ARC
  5
1CA
330
1B
100
AcDbEntity
  8
4
100
AcDbCircle
 10
248.2222492653589
 20
736.3618240348503
 30
0.0
 40
3.783613929059507
100
AcDbArc
 50
139.5701031551731
 51
220.4298968448269
  0
LINE
  5
1CB
330
1B
100
AcDbEntity
  8
4
100
AcDbLine
 10
253.9386353362995
 20
733.9080853907947
 30
0.0
 11
253.9386353362995
 21
753.5379945432421
 31
0.0
  0
LINE
  5
1CC
330
1B
100
AcDbEntity
  8
4
100
AcDbLine
 10
251.4386353362995
 20
733.9080853907947
 30
0.0
 11
251.4386353362995
 21
753.5379945432421
 31
0.0
  0
LINE
  5
1CD
330
1B
100
AcDbEntity
  8
L-CENTER
 48
8.0
100
AcDbLine
 10
285.09466883149
 20
743.7230399670184
 30
0.0
 11
241.5706570817194
 21
743.7230399670179
 31
0.0
  0
LINE
  5
1CE
330
1B
100
AcDbEntity
  8
4
100
AcDbLine
 10
251.4386353362991
 20
856.0573675264493
 30
0.0
 11
251.4386353362991
 21
836.4274583740018
 31
0.0
  0
LINE
  5
1CF
330
1B
100
AcDbEntity
  8
4
100
AcDbLine
 10
253.9386353362991
 20
856.0573675264493
 30
0.0
 11
253.9386353362991
 21
836.4274583740018
 31
0.0
  0
ARC
  5
1D0
330
1B
100
AcDbEntity
  8
4
100
AcDbCircle
 10
248.2222492653584
 20
853.6036288823934
 30
0.0
 40
3.783613929059507
100
AcDbArc
 50
139.5701031551731
 51
220.4298968448269
  0
LINE
  5
1D1
330
1B
100
AcDbEntity
  8
4
100
AcDbLine
 10
244.4386353362991
 20
838.881197018058
 30
0.0
 11
244.4386353362991
 21
853.6036288823932
 31
0.0
  0
LINE
  5
1D2
330
1B
100
AcDbEntity
  8
4
100
AcDbLine
 10
245.3421622821513
 20
856.0573675264493
 30
0.0
 11
253.9386353362991
 21
856.0573675264493
 31
0.0
  0
ARC
  5
1D3
330
1B
100
AcDbEntity
  8
4
100
AcDbCircle
 10
248.2222492653584
 20
838.8811970180582
 30
0.0
 40
3.783613929059507
100
AcDbArc
 50
139.5701031551731
 51
220.4298968448269
  0
ARC
  5
1D4
330
1B
100
AcDbEntity
  8
4
100
AcDbCircle
 10
258.2178006337588
 20
846.242412950226
 30
0.0
 40
13.77916529745958
100
AcDbArc
 50
159.1359356360806
 51
200.8640643639194
  0
LINE
  5
1D5
330
1B
100
AcDbEntity
  8
4
100
AcDbLine
 10
245.3421622821513
 20
841.3349356621136
 30
0.0
 11
251.4386353362991
 21
841.3349356621136
 31
0.0
  0
LINE
  5
1D6
330
1B
100
AcDbEntity
  8
4
100
AcDbLine
 10
253.9386353362991
 20
836.4274583740018
 30
0.0
 11
245.3421622821513
 21
836.4274583740018
 31
0.0
  0
LINE
  5
1D7
330
1B
100
AcDbEntity
  8
4
100
AcDbLine
 10
245.3421622821513
 20
851.1498902383375
 30
0.0
 11
251.4386353362991
 21
851.1498902383375
 31
0.0
  0
LINE
  5
1D8
330
1B
100
AcDbEntity
  8
L-CENTER
 48
8.0
100
AcDbLine
 10
285.09466883149
 20
846.2424129502258
 30
0.0
 11
241.570657081719
 21
846.2424129502258
 31
0.0
  0
LINE
  5
1D9
330
1B
100
AcDbEntity
  8
L-CENTER
 48
8.0
100
AcDbLine
 10
636.5824018411079
 20
743.7230399670184
 30
0.0
 11
680.1064135908784
 21
743.7230399670179
 31
0.0
  0
LINE
  5
1DA
330
1B
100
AcDbEntity
  8
4
100
AcDbLine
 10
670.2384353362984
 20
733.9080853907947
 30
0.0
 11
670.2384353362984
 21
753.5379945432421
 31
0.0
  0
LINE
  5
1DB
330
1B
100
AcDbEntity
  8
4
100
AcDbLine
 10
667.7384353362984
 20
733.9080853907947
 30
0.0
 11
667.7384353362984
 21
753.5379945432421
 31
0.0
  0
ARC
  5
1DC
330
1B
100
AcDbEntity
  8
4
100
AcDbCircle
 10
673.454821407239
 20
736.3618240348503
 30
0.0
 40
3.783613929059507
100
AcDbArc
 50
319.5701031551723
 51
40.42989684482771
  0
LINE
  5
1DD
330
1B
100
AcDbEntity
  8
4
100
AcDbLine
 10
677.2384353362984
 20
751.084255899186
 30
0.0
 11
677.2384353362984
 21
736.3618240348508
 31
0.0
  0
LINE
  5
1DE
330
1B
100
AcDbEntity
  8
4
100
AcDbLine
 10
676.3349083904461
 20
733.9080853907947
 30
0.0
 11
667.7384353362984
 21
733.9080853907947
 31
0.0
  0
ARC
  5
1DF
330
1B
100
AcDbEntity
  8
4
100
AcDbCircle
 10
673.454821407239
 20
751.0842558991856
 30
0.0
 40
3.783613929059507
100
AcDbArc
 50
319.5701031551723
 51
40.42989684482771
  0
ARC
  5
1E0
330
1B
100
AcDbEntity
  8
4
100
AcDbCircle
 10
663.4592700388387
 20
743.7230399670179
 30
0.0
 40
13.77916529745958
100
AcDbArc
 50
339.1359356360795
 51
20.86406436391942
  0
LINE
  5
1E1
330
1B
100
AcDbEntity
  8
4
100
AcDbLine
 10
676.3349083904461
 20
748.6305172551304
 30
0.0
 11
670.2384353362984
 21
748.6305172551304
 31
0.0
  0
LINE
  5
1E2
330
1B
100
AcDbEntity
  8
4
100
AcDbLine
 10
667.7384353362984
 20
753.5379945432421
 30
0.0
 11
676.3349083904461
 21
753.5379945432421
 31
0.0
  0
LINE
  5
1E3
330
1B
100
AcDbEntity
  8
4
100
AcDbLine
 10
676.3349083904461
 20
738.8155626789064
 30
0.0
 11
670.2384353362984
 21
738.8155626789064
 31
0.0
  0
LINE
  5
1E4
330
1B
100
AcDbEntity
  8
L-CENTER
 48
8.0
100
AcDbLine
 10
636.5824018411079
 20
846.2424129502258
 30
0.0
 11
680.1064135908789
 21
846.2424129502258
 31
0.0
  0
LINE
  5
1E5
330
1B
100
AcDbEntity
  8
4
100
AcDbLine
 10
676.3349083904466
 20
851.1498902383375
 30
0.0
 11
670.2384353362988
 21
851.1498902383375
 31
0.0
  0
LINE
  5
1E6
330
1B
100
AcDbEntity
  8
4
100
AcDbLine
 10
667.7384353362988
 20
836.4274583740018
 30
0.0
 11
676.3349083904466
 21
836.4274583740018
 31
0.0
  0
LINE
  5
1E7
330
1B
100
AcDbEntity
  8
4
100
AcDbLine
 10
676.3349083904466
 20
841.3349356621136
 30
0.0
 11
670.2384353362988
 21
841.3349356621136
 31
0.0
  0
ARC
  5
1E8
330
1B
100
AcDbEntity
  8
4
100
AcDbCircle
 10
663.4592700388391
 20
846.242412950226
 30
0.0
 40
13.77916529745958
100
AcDbArc
 50
339.1359356360805
 51
20.86406436391942
  0
ARC
  5
1E9
330
1B
100
AcDbEntity
  8
4
100
AcDbCircle
 10
673.4548214072395
 20
838.8811970180582
 30
0.0
 40
3.783613929059507
100
AcDbArc
 50
319.5701031551782
 51
40.42989684482174
  0
LINE
  5
1EA
330
1B
100
AcDbEntity
  8
4
100
AcDbLine
 10
676.3349083904466
 20
856.0573675264493
 30
0.0
 11
667.7384353362988
 21
856.0573675264493
 31
0.0
  0
LINE
  5
1EB
330
1B
100
AcDbEntity
  8
4
100
AcDbLine
 10
677.2384353362988
 20
838.881197018058
 30
0.0
 11
677.2384353362988
 21
853.6036288823932
 31
0.0
  0
ARC
  5
1EC
330
1B
100
AcDbEntity
  8
4
100
AcDbCircle
 10
673.4548214072395
 20
853.6036288823934
 30
0.0
 40
3.783613929059507
100
AcDbArc
 50
319.5701031551782
 51
40.42989684482174
  0
LINE
  5
1ED
330
1B
100
AcDbEntity
  8
4
100
AcDbLine
 10
667.7384353362988
 20
856.0573675264493
 30
0.0
 11
667.7384353362988
 21
836.4274583740018
 31
0.0
  0
LINE
  5
1EE
330
1B
100
AcDbEntity
  8
4
100
AcDbLine
 10
670.2384353362988
 20
856.0573675264493
 30
0.0
 11
670.2384353362988
 21
836.4274583740018
 31
0.0
  0
LINE
  5
1EF
330
1B
100
AcDbEntity
  8
4
100
AcDbLine
 10
676.3349083904461
 20
158.9696181787752
 30
0.0
 11
670.2384353362988
 21
158.9696181787752
 31
0.0
  0
LINE
  5
1F0
330
1B
100
AcDbEntity
  8
4
100
AcDbLine
 10
667.7384353362988
 20
173.692050043111
 30
0.0
 11
676.3349083904461
 21
173.692050043111
 31
0.0
  0
LINE
  5
1F1
330
1B
100
AcDbEntity
  8
4
100
AcDbLine
 10
676.3349083904461
 20
168.7845727549992
 30
0.0
 11
670.2384353362988
 21
168.7845727549992
 31
0.0
  0
ARC
  5
1F2
330
1B
100
AcDbEntity
  8
4
100
AcDbCircle
 10
663.4592700388387
 20
163.8770954668869
 30
0.0
 40
13.77916529745958
100
AcDbArc
 50
339.1359356360801
 51
20.86406436391942
  0
ARC
  5
1F3
330
1B
100
AcDbEntity
  8
4
100
AcDbCircle
 10
673.4548214072395
 20
171.2383113990546
 30
0.0
 40
3.783613929059507
100
AcDbArc
 50
319.5701031551699
 51
40.42989684483014
  0
LINE
  5
1F4
330
1B
100
AcDbEntity
  8
4
100
AcDbLine
 10
676.3349083904461
 20
154.0621408906635
 30
0.0
 11
667.7384353362984
 21
154.0621408906635
 31
0.0
  0
LINE
  5
1F5
330
1B
100
AcDbEntity
  8
4
100
AcDbLine
 10
677.2384353362988
 20
171.2383113990549
 30
0.0
 11
677.2384353362988
 21
156.5158795347196
 31
0.0
  0
ARC
  5
1F6
330
1B
100
AcDbEntity
  8
4
100
AcDbCircle
 10
673.454821407239
 20
156.5158795347194
 30
0.0
 40
3.783613929059507
100
AcDbArc
 50
319.5701031551699
 51
40.42989684483014
  0
LINE
  5
1F7
330
1B
100
AcDbEntity
  8
4
100
AcDbLine
 10
667.7384353362984
 20
154.0621408906635
 30
0.0
 11
667.7384353362988
 21
173.692050043111
 31
0.0
  0
LINE
  5
1F8
330
1B
100
AcDbEntity
  8
4
100
AcDbLine
 10
670.2384353362984
 20
154.0621408906635
 30
0.0
 11
670.2384353362988
 21
173.692050043111
 31
0.0
  0
LINE
  5
1F9
330
1B
100
AcDbEntity
  8
L-CENTER
 48
8.0
100
AcDbLine
 10
636.5824018411079
 20
163.8770954668873
 30
0.0
 11
680.1064135908784
 21
163.8770954668869
 31
0.0
  0
LINE
  5
1FA
330
1B
100
AcDbEntity
  8
4
100
AcDbLine
 10
670.2384353362988
 20
276.2114230263182
 30
0.0
 11
670.2384353362988
 21
256.5815138738708
 31
0.0
  0
LINE
  5
1FB
330
1B
100
AcDbEntity
  8
4
100
AcDbLine
 10
667.7384353362988
 20
276.2114230263182
 30
0.0
 11
667.7384353362988
 21
256.5815138738708
 31
0.0
  0
ARC
  5
1FC
330
1B
100
AcDbEntity
  8
4
100
AcDbCircle
 10
673.4548214072395
 20
273.7576843822624
 30
0.0
 40
3.783613929059507
100
AcDbArc
 50
319.5701031551772
 51
40.42989684482285
  0
LINE
  5
1FD
330
1B
100
AcDbEntity
  8
4
100
AcDbLine
 10
677.2384353362988
 20
259.0352525179269
 30
0.0
 11
677.2384353362988
 21
273.7576843822621
 31
0.0
  0
LINE
  5
1FE
330
1B
100
AcDbEntity
  8
4
100
AcDbLine
 10
676.334908390447
 20
276.2114230263182
 30
0.0
 11
667.7384353362988
 21
276.2114230263182
 31
0.0
  0
ARC
  5
1FF
330
1B
100
AcDbEntity
  8
4
100
AcDbCircle
 10
673.4548214072395
 20
259.0352525179271
 30
0.0
 40
3.783613929059507
100
AcDbArc
 50
319.5701031551772
 51
40.42989684482285
  0
ARC
  5
200
330
1B
100
AcDbEntity
  8
4
100
AcDbCircle
 10
663.4592700388396
 20
266.396468450095
 30
0.0
 40
13.77916529745958
100
AcDbArc
 50
339.1359356360801
 51
20.86406436391987
  0
LINE
  5
201
330
1B
100
AcDbEntity
  8
4
100
AcDbLine
 10
676.334908390447
 20
261.4889911619825
 30
0.0
 11
670.2384353362988
 21
261.4889911619825
 31
0.0
  0
LINE
  5
202
330
1B
100
AcDbEntity
  8
4
100
AcDbLine
 10
667.7384353362988
 20
256.5815138738708
 30
0.0
 11
676.3349083904466
 21
256.5815138738708
 31
0.0
  0
LINE
  5
203
330
1B
100
AcDbEntity
  8
4
100
AcDbLine
 10
676.334908390447
 20
271.3039457382065
 30
0.0
 11
670.2384353362988
 21
271.3039457382065
 31
0.0
  0
LINE
  5
204
330
1B
100
AcDbEntity
  8
L-CENTER
 48
8.0
100
AcDbLine
 10
636.5824018411083
 20
266.3964684500947
 30
0.0
 11
680.1064135908794
 21
266.3964684500947
 31
0.0
  0
LINE
  5
205
330
1B
100
AcDbEntity
  8
4
100
AcDbLine
 10
251.4386353362995
 20
154.0621408906635
 30
0.0
 11
251.4386353362995
 21
173.692050043111
 31
0.0
  0
LINE
  5
206
330
1B
100
AcDbEntity
  8
4
100
AcDbLine
 10
253.9386353362995
 20
154.0621408906635
 30
0.0
 11
253.9386353362995
 21
173.692050043111
 31
0.0
  0
ARC
  5
207
330
1B
100
AcDbEntity
  8
4
100
AcDbCircle
 10
248.2222492653589
 20
156.5158795347194
 30
0.0
 40
3.783613929059507
100
AcDbArc
 50
139.5701031551704
 51
220.4298968448293
  0
LINE
  5
208
330
1B
100
AcDbEntity
  8
4
100
AcDbLine
 10
244.4386353362995
 20
171.2383113990549
 30
0.0
 11
244.4386353362995
 21
156.5158795347196
 31
0.0
  0
LINE
  5
209
330
1B
100
AcDbEntity
  8
4
100
AcDbLine
 10
245.3421622821518
 20
154.0621408906635
 30
0.0
 11
253.9386353362995
 21
154.0621408906635
 31
0.0
  0
ARC
  5
20A
330
1B
100
AcDbEntity
  8
4
100
AcDbCircle
 10
248.2222492653589
 20
171.2383113990546
 30
0.0
 40
3.783613929059507
100
AcDbArc
 50
139.5701031551731
 51
220.4298968448269
  0
ARC
  5
20B
330
1B
100
AcDbEntity
  8
4
100
AcDbCircle
 10
258.2178006337592
 20
163.8770954668869
 30
0.0
 40
13.77916529745958
100
AcDbArc
 50
159.1359356360806
 51
200.8640643639204
  0
LINE
  5
20C
330
1B
100
AcDbEntity
  8
4
100
AcDbLine
 10
245.3421622821518
 20
168.7845727549992
 30
0.0
 11
251.4386353362995
 21
168.7845727549992
 31
0.0
  0
LINE
  5
20D
330
1B
100
AcDbEntity
  8
4
100
AcDbLine
 10
253.9386353362995
 20
173.692050043111
 30
0.0
 11
245.3421622821518
 21
173.692050043111
 31
0.0
  0
LINE
  5
20E
330
1B
100
AcDbEntity
  8
4
100
AcDbLine
 10
245.3421622821518
 20
158.9696181787752
 30
0.0
 11
251.4386353362995
 21
158.9696181787752
 31
0.0
  0
LINE
  5
20F
330
1B
100
AcDbEntity
  8
L-CENTER
 48
8.0
100
AcDbLine
 10
285.0946688314905
 20
163.8770954668873
 30
0.0
 11
241.5706570817194
 21
163.8770954668869
 31
0.0
  0
LINE
  5
210
330
1B
100
AcDbEntity
  8
4
100
AcDbLine
 10
251.4386353362991
 20
276.2114230263182
 30
0.0
 11
251.4386353362991
 21
256.5815138738708
 31
0.0
  0
LINE
  5
211
330
1B
100
AcDbEntity
  8
4
100
AcDbLine
 10
253.9386353362991
 20
276.2114230263182
 30
0.0
 11
253.9386353362991
 21
256.5815138738708
 31
0.0
  0
ARC
  5
212
330
1B
100
AcDbEntity
  8
4
100
AcDbCircle
 10
248.2222492653584
 20
273.7576843822624
 30
0.0
 40
3.783613929059507
100
AcDbArc
 50
139.5701031551731
 51
220.4298968448269
  0
LINE
  5
213
330
1B
100
AcDbEntity
  8
4
100
AcDbLine
 10
244.4386353362991
 20
259.0352525179269
 30
0.0
 11
244.4386353362991
 21
273.7576843822621
 31
0.0
  0
LINE
  5
214
330
1B
100
AcDbEntity
  8
4
100
AcDbLine
 10
245.3421622821513
 20
276.2114230263182
 30
0.0
 11
253.9386353362991
 21
276.2114230263182
 31
0.0
  0
ARC
  5
215
330
1B
100
AcDbEntity
  8
4
100
AcDbCircle
 10
248.2222492653584
 20
259.0352525179271
 30
0.0
 40
3.783613929059507
100
AcDbArc
 50
139.5701031551731
 51
220.4298968448269
  0
ARC
  5
216
330
1B
100
AcDbEntity
  8
4
100
AcDbCircle
 10
258.2178006337588
 20
266.396468450095
 30
0.0
 40
13.77916529745958
100
AcDbArc
 50
159.1359356360801
 51
200.8640643639199
  0
LINE
  5
217
330
1B
100
AcDbEntity
  8
4
100
AcDbLine
 10
245.3421622821513
 20
261.4889911619825
 30
0.0
 11
251.4386353362991
 21
261.4889911619825
 31
0.0
  0
LINE
  5
218
330
1B
100
AcDbEntity
  8
4
100
AcDbLine
 10
253.9386353362991
 20
256.5815138738708
 30
0.0
 11
245.3421622821513
 21
256.5815138738708
 31
0.0
  0
LINE
  5
219
330
1B
100
AcDbEntity
  8
4
100
AcDbLine
 10
245.3421622821513
 20
271.3039457382065
 30
0.0
 11
251.4386353362991
 21
271.3039457382065
 31
0.0
  0
LINE
  5
21A
330
1B
100
AcDbEntity
  8
L-CENTER
 48
8.0
100
AcDbLine
 10
285.09466883149
 20
266.3964684500947
 30
0.0
 11
241.570657081719
 21
266.3964684500947
 31
0.0
  0
LINE
  5
21B
330
1B
100
AcDbEntity
  8
4
100
AcDbLine
 10
1269.483979208919
 20
308.5366859584909
 30
0.0
 11
1269.483979208919
 21
317.1331590126387
 31
0.0
  0
LINE
  5
21C
330
1B
100
AcDbEntity
  8
4
100
AcDbLine
 10
1264.576501920807
 20
317.1331590126388
 30
0.0
 11
1264.576501920807
 21
311.036685958491
 31
0.0
  0
ARC
  5
21D
330
1B
100
AcDbEntity
  8
4
100
AcDbCircle
 10
1267.030240564863
 20
314.2530720294317
 30
0.0
 40
3.783613929059507
100
AcDbArc
 50
49.57010315516856
 51
130.4298968448315
  0
LINE
  5
21E
330
1B
100
AcDbEntity
  8
4
100
AcDbLine
 10
1254.761547344584
 20
317.1331590126388
 30
0.0
 11
1254.761547344584
 21
311.036685958491
 31
0.0
  0
LINE
  5
21F
330
1B
100
AcDbEntity
  8
4
100
AcDbLine
 10
1249.854070056472
 20
317.1331590126388
 30
0.0
 11
1249.854070056472
 21
308.536685958491
 31
0.0
  0
ARC
  5
220
330
1B
100
AcDbEntity
  8
4
100
AcDbCircle
 10
1252.307808700528
 20
314.2530720294317
 30
0.0
 40
3.783613929059507
100
AcDbArc
 50
49.57010315517714
 51
130.4298968448228
  0
ARC
  5
221
330
1B
100
AcDbEntity
  8
4
100
AcDbCircle
 10
1259.669024632695
 20
304.2575206610313
 30
0.0
 40
13.77916529745958
100
AcDbArc
 50
69.13593563608057
 51
110.8640643639194
  0
LINE
  5
222
330
1B
100
AcDbEntity
  8
4
100
AcDbLine
 10
1267.030240564863
 20
318.0366859584909
 30
0.0
 11
1252.307808700528
 21
318.036685958491
 31
0.0
  0
LINE
  5
223
330
1B
100
AcDbEntity
  8
4
100
AcDbLine
 10
1249.854070056472
 20
308.536685958491
 30
0.0
 11
1269.483979208919
 21
308.5366859584909
 31
0.0
  0
LINE
  5
224
330
1B
100
AcDbEntity
  8
4
100
AcDbLine
 10
1249.854070056472
 20
311.036685958491
 30
0.0
 11
1269.483979208919
 21
311.0366859584909
 31
0.0
  0
LINE
  5
225
330
1B
100
AcDbEntity
  8
L-CENTER
 48
8.0
100
AcDbLine
 10
1419.017698929032
 20
277.3806524633002
 30
0.0
 11
1419.017698929032
 21
320.9046642130711
 31
0.0
  0
LINE
  5
226
330
1B
100
AcDbEntity
  8
4
100
AcDbLine
 10
1409.202744352808
 20
308.5366859584909
 30
0.0
 11
1409.202744352808
 21
317.1331590126387
 31
0.0
  0
LINE
  5
227
330
1B
100
AcDbEntity
  8
4
100
AcDbLine
 10
1414.110221640919
 20
317.1331590126388
 30
0.0
 11
1414.110221640919
 21
311.036685958491
 31
0.0
  0
ARC
  5
228
330
1B
100
AcDbEntity
  8
4
100
AcDbCircle
 10
1411.656482996864
 20
314.2530720294317
 30
0.0
 40
3.783613929059507
100
AcDbArc
 50
49.57010315517714
 51
130.4298968448228
  0
LINE
  5
229
330
1B
100
AcDbEntity
  8
4
100
AcDbLine
 10
1423.925176217143
 20
317.1331590126388
 30
0.0
 11
1423.925176217143
 21
311.036685958491
 31
0.0
  0
LINE
  5
22A
330
1B
100
AcDbEntity
  8
4
100
AcDbLine
 10
1428.832653505255
 20
317.1331590126388
 30
0.0
 11
1428.832653505255
 21
308.536685958491
 31
0.0
  0
ARC
  5
22B
330
1B
100
AcDbEntity
  8
4
100
AcDbCircle
 10
1426.378914861199
 20
314.2530720294317
 30
0.0
 40
3.783613929059507
100
AcDbArc
 50
49.57010315516856
 51
130.4298968448315
  0
ARC
  5
22C
330
1B
100
AcDbEntity
  8
4
100
AcDbCircle
 10
1419.017698929032
 20
304.2575206610313
 30
0.0
 40
13.77916529745958
100
AcDbArc
 50
69.13593563608057
 51
110.8640643639194
  0
LINE
  5
22D
330
1B
100
AcDbEntity
  8
4
100
AcDbLine
 10
1411.656482996864
 20
318.0366859584909
 30
0.0
 11
1426.378914861199
 21
318.036685958491
 31
0.0
  0
LINE
  5
22E
330
1B
100
AcDbEntity
  8
4
100
AcDbLine
 10
1428.832653505255
 20
308.536685958491
 30
0.0
 11
1409.202744352808
 21
308.5366859584909
 31
0.0
  0
LINE
  5
22F
330
1B
100
AcDbEntity
  8
4
100
AcDbLine
 10
1428.832653505255
 20
311.036685958491
 30
0.0
 11
1409.202744352808
 21
311.0366859584909
 31
0.0
  0
LINE
  5
230
330
1B
100
AcDbEntity
  8
4
100
AcDbLine
 10
1090.505395760135
 20
311.036685958491
 30
0.0
 11
1110.135304912583
 21
311.0366859584909
 31
0.0
  0
LINE
  5
231
330
1B
100
AcDbEntity
  8
4
100
AcDbLine
 10
1090.505395760135
 20
308.536685958491
 30
0.0
 11
1110.135304912583
 21
308.5366859584909
 31
0.0
  0
ARC
  5
232
330
1B
100
AcDbEntity
  8
4
100
AcDbCircle
 10
1092.959134404191
 20
314.2530720294317
 30
0.0
 40
3.783613929059507
100
AcDbArc
 50
49.57010315517658
 51
130.4298968448315
  0
LINE
  5
233
330
1B
100
AcDbEntity
  8
4
100
AcDbLine
 10
1107.681566268527
 20
318.0366859584909
 30
0.0
 11
1092.959134404191
 21
318.036685958491
 31
0.0
  0
LINE
  5
234
330
1B
100
AcDbEntity
  8
4
100
AcDbLine
 10
1090.505395760135
 20
317.1331590126388
 30
0.0
 11
1090.505395760135
 21
308.536685958491
 31
0.0
  0
ARC
  5
235
330
1B
100
AcDbEntity
  8
4
100
AcDbCircle
 10
1107.681566268527
 20
314.2530720294317
 30
0.0
 40
3.783613929059507
100
AcDbArc
 50
49.57010315517658
 51
130.4298968448315
  0
ARC
  5
236
330
1B
100
AcDbEntity
  8
4
100
AcDbCircle
 10
1100.320350336359
 20
304.2575206610313
 30
0.0
 40
13.77916529745958
100
AcDbArc
 50
69.13593563608057
 51
110.8640643639214
  0
LINE
  5
237
330
1B
100
AcDbEntity
  8
4
100
AcDbLine
 10
1105.227827624471
 20
317.1331590126388
 30
0.0
 11
1105.227827624471
 21
311.036685958491
 31
0.0
  0
LINE
  5
238
330
1B
100
AcDbEntity
  8
4
100
AcDbLine
 10
1110.135304912583
 20
308.5366859584909
 30
0.0
 11
1110.135304912583
 21
317.1331590126387
 31
0.0
  0
LINE
  5
239
330
1B
100
AcDbEntity
  8
4
100
AcDbLine
 10
1095.412873048247
 20
317.1331590126388
 30
0.0
 11
1095.412873048247
 21
311.036685958491
 31
0.0
  0
LINE
  5
23A
330
1B
100
AcDbEntity
  8
L-CENTER
 48
8.0
100
AcDbLine
 10
1100.320350336359
 20
277.3806524633002
 30
0.0
 11
1100.320350336359
 21
320.9046642130711
 31
0.0
  0
LINE
  5
23B
330
1B
100
AcDbEntity
  8
L-CENTER
 48
8.0
100
AcDbLine
 10
644.8385353362994
 20
277.3806524633002
 30
0.0
 11
644.8385353362994
 21
320.9046642130711
 31
0.0
  0
LINE
  5
23C
330
1B
100
AcDbEntity
  8
4
100
AcDbLine
 10
635.023580760075
 20
308.5366859584909
 30
0.0
 11
635.023580760075
 21
317.1331590126387
 31
0.0
  0
LINE
  5
23D
330
1B
100
AcDbEntity
  8
4
100
AcDbLine
 10
639.9310580481872
 20
317.1331590126388
 30
0.0
 11
639.9310580481872
 21
311.036685958491
 31
0.0
  0
ARC
  5
23E
330
1B
100
AcDbEntity
  8
4
100
AcDbCircle
 10
637.4773194041315
 20
314.2530720294317
 30
0.0
 40
3.783613929059507
100
AcDbArc
 50
49.57010315517584
 51
130.4298968448315
  0
LINE
  5
23F
330
1B
100
AcDbEntity
  8
4
100
AcDbLine
 10
649.7460126244107
 20
317.1331590126388
 30
0.0
 11
649.7460126244107
 21
311.036685958491
 31
0.0
  0
LINE
  5
240
330
1B
100
AcDbEntity
  8
4
100
AcDbLine
 10
654.6534899125229
 20
317.1331590126388
 30
0.0
 11
654.6534899125229
 21
308.536685958491
 31
0.0
  0
ARC
  5
241
330
1B
100
AcDbEntity
  8
4
100
AcDbCircle
 10
652.1997512684668
 20
314.2530720294317
 30
0.0
 40
3.783613929059507
100
AcDbArc
 50
49.57010315517584
 51
130.4298968448315
  0
ARC
  5
242
330
1B
100
AcDbEntity
  8
4
100
AcDbCircle
 10
644.8385353362994
 20
304.2575206610313
 30
0.0
 40
13.77916529745958
100
AcDbArc
 50
69.13593563608057
 51
110.8640643639214
  0
LINE
  5
243
330
1B
100
AcDbEntity
  8
4
100
AcDbLine
 10
637.4773194041311
 20
318.0366859584909
 30
0.0
 11
652.1997512684668
 21
318.036685958491
 31
0.0
  0
LINE
  5
244
330
1B
100
AcDbEntity
  8
4
100
AcDbLine
 10
654.6534899125229
 20
308.536685958491
 30
0.0
 11
635.023580760075
 21
308.5366859584909
 31
0.0
  0
LINE
  5
245
330
1B
100
AcDbEntity
  8
4
100
AcDbLine
 10
654.6534899125229
 20
311.036685958491
 30
0.0
 11
635.023580760075
 21
311.0366859584909
 31
0.0
  0
LINE
  5
246
330
1B
100
AcDbEntity
  8
4
100
AcDbLine
 10
557.7460126244107
 20
317.1331590126388
 30
0.0
 11
557.7460126244107
 21
311.036685958491
 31
0.0
  0
LINE
  5
247
330
1B
100
AcDbEntity
  8
4
100
AcDbLine
 10
543.023580760075
 20
308.5366859584909
 30
0.0
 11
543.023580760075
 21
317.1331590126387
 31
0.0
  0
LINE
  5
248
330
1B
100
AcDbEntity
  8
4
100
AcDbLine
 10
547.9310580481872
 20
317.1331590126388
 30
0.0
 11
547.9310580481872
 21
311.036685958491
 31
0.0
  0
ARC
  5
249
330
1B
100
AcDbEntity
  8
4
100
AcDbCircle
 10
552.8385353362994
 20
304.2575206610313
 30
0.0
 40
13.77916529745958
100
AcDbArc
 50
69.13593563608057
 51
110.8640643639214
  0
ARC
  5
24A
330
1B
100
AcDbEntity
  8
4
100
AcDbCircle
 10
545.4773194041311
 20
314.2530720294317
 30
0.0
 40
3.783613929059507
100
AcDbArc
 50
49.57010315516856
 51
130.4298968448242
  0
LINE
  5
24B
330
1B
100
AcDbEntity
  8
4
100
AcDbLine
 10
562.6534899125229
 20
317.1331590126388
 30
0.0
 11
562.6534899125229
 21
308.536685958491
 31
0.0
  0
LINE
  5
24C
330
1B
100
AcDbEntity
  8
4
100
AcDbLine
 10
545.4773194041311
 20
318.0366859584909
 30
0.0
 11
560.1997512684668
 21
318.036685958491
 31
0.0
  0
ARC
  5
24D
330
1B
100
AcDbEntity
  8
4
100
AcDbCircle
 10
560.1997512684668
 20
314.2530720294317
 30
0.0
 40
3.783613929059507
100
AcDbArc
 50
49.57010315517584
 51
130.4298968448315
  0
LINE
  5
24E
330
1B
100
AcDbEntity
  8
4
100
AcDbLine
 10
562.6534899125229
 20
308.536685958491
 30
0.0
 11
543.023580760075
 21
308.5366859584909
 31
0.0
  0
LINE
  5
24F
330
1B
100
AcDbEntity
  8
4
100
AcDbLine
 10
562.6534899125229
 20
311.036685958491
 30
0.0
 11
543.023580760075
 21
311.0366859584909
 31
0.0
  0
LINE
  5
250
330
1B
100
AcDbEntity
  8
L-CENTER
 48
8.0
100
AcDbLine
 10
552.8385353362994
 20
277.3806524633002
 30
0.0
 11
552.8385353362994
 21
320.9046642130711
 31
0.0
  0
LINE
  5
251
330
1B
100
AcDbEntity
  8
4
100
AcDbLine
 10
359.0235807600754
 20
311.036685958491
 30
0.0
 11
378.6534899125229
 21
311.0366859584909
 31
0.0
  0
LINE
  5
252
330
1B
100
AcDbEntity
  8
4
100
AcDbLine
 10
359.0235807600754
 20
308.536685958491
 30
0.0
 11
378.6534899125229
 21
308.5366859584909
 31
0.0
  0
ARC
  5
253
330
1B
100
AcDbEntity
  8
4
100
AcDbCircle
 10
361.4773194041315
 20
314.2530720294317
 30
0.0
 40
3.783613929059507
100
AcDbArc
 50
49.5701031551765
 51
130.4298968448315
  0
LINE
  5
254
330
1B
100
AcDbEntity
  8
4
100
AcDbLine
 10
376.1997512684668
 20
318.0366859584909
 30
0.0
 11
361.4773194041315
 21
318.036685958491
 31
0.0
  0
LINE
  5
255
330
1B
100
AcDbEntity
  8
4
100
AcDbLine
 10
359.0235807600754
 20
317.1331590126388
 30
0.0
 11
359.0235807600754
 21
308.536685958491
 31
0.0
  0
ARC
  5
256
330
1B
100
AcDbEntity
  8
4
100
AcDbCircle
 10
376.1997512684668
 20
314.2530720294317
 30
0.0
 40
3.783613929059507
100
AcDbArc
 50
49.57010315516856
 51
130.4298968448315
  0
ARC
  5
257
330
1B
100
AcDbEntity
  8
4
100
AcDbCircle
 10
368.8385353362989
 20
304.2575206610313
 30
0.0
 40
13.77916529745958
100
AcDbArc
 50
69.13593563608057
 51
110.8640643639194
  0
LINE
  5
258
330
1B
100
AcDbEntity
  8
4
100
AcDbLine
 10
373.7460126244112
 20
317.1331590126388
 30
0.0
 11
373.7460126244112
 21
311.036685958491
 31
0.0
  0
LINE
  5
259
330
1B
100
AcDbEntity
  8
4
100
AcDbLine
 10
378.6534899125229
 20
308.5366859584909
 30
0.0
 11
378.6534899125229
 21
317.1331590126387
 31
0.0
  0
LINE
  5
25A
330
1B
100
AcDbEntity
  8
4
100
AcDbLine
 10
363.9310580481872
 20
317.1331590126388
 30
0.0
 11
363.9310580481872
 21
311.036685958491
 31
0.0
  0
LINE
  5
25B
330
1B
100
AcDbEntity
  8
L-CENTER
 48
8.0
100
AcDbLine
 10
368.8385353362989
 20
277.3806524633002
 30
0.0
 11
368.8385353362989
 21
320.9046642130711
 31
0.0
  0
LINE
  5
25C
330
1B
100
AcDbEntity
  8
4
100
AcDbLine
 10
267.0235807600754
 20
311.036685958491
 30
0.0
 11
286.6534899125229
 21
311.0366859584909
 31
0.0
  0
LINE
  5
25D
330
1B
100
AcDbEntity
  8
4
100
AcDbLine
 10
267.0235807600754
 20
308.536685958491
 30
0.0
 11
286.6534899125229
 21
308.5366859584909
 31
0.0
  0
ARC
  5
25E
330
1B
100
AcDbEntity
  8
4
100
AcDbCircle
 10
269.4773194041315
 20
314.2530720294317
 30
0.0
 40
3.783613929059507
100
AcDbArc
 50
49.57010315517163
 51
130.4298968448315
  0
LINE
  5
25F
330
1B
100
AcDbEntity
  8
4
100
AcDbLine
 10
284.1997512684668
 20
318.0366859584909
 30
0.0
 11
269.4773194041315
 21
318.036685958491
 31
0.0
  0
LINE
  5
260
330
1B
100
AcDbEntity
  8
4
100
AcDbLine
 10
267.0235807600754
 20
317.1331590126388
 30
0.0
 11
267.0235807600754
 21
308.536685958491
 31
0.0
  0
ARC
  5
261
330
1B
100
AcDbEntity
  8
4
100
AcDbCircle
 10
284.1997512684668
 20
314.2530720294317
 30
0.0
 40
3.783613929059507
100
AcDbArc
 50
49.5701031551765
 51
130.4298968448315
  0
ARC
  5
262
330
1B
100
AcDbEntity
  8
4
100
AcDbCircle
 10
276.8385353362989
 20
304.2575206610313
 30
0.0
 40
13.77916529745958
100
AcDbArc
 50
69.13593563608057
 51
110.8640643639205
  0
LINE
  5
263
330
1B
100
AcDbEntity
  8
4
100
AcDbLine
 10
281.7460126244112
 20
317.1331590126388
 30
0.0
 11
281.7460126244112
 21
311.036685958491
 31
0.0
  0
LINE
  5
264
330
1B
100
AcDbEntity
  8
4
100
AcDbLine
 10
286.6534899125229
 20
308.5366859584909
 30
0.0
 11
286.6534899125229
 21
317.1331590126387
 31
0.0
  0
LINE
  5
265
330
1B
100
AcDbEntity
  8
4
100
AcDbLine
 10
271.9310580481872
 20
317.1331590126388
 30
0.0
 11
271.9310580481872
 21
311.036685958491
 31
0.0
  0
LINE
  5
266
330
1B
100
AcDbEntity
  8
L-CENTER
 48
8.0
100
AcDbLine
 10
276.8385353362989
 20
277.3806524633002
 30
0.0
 11
276.8385353362989
 21
320.9046642130711
 31
0.0
  0
LINE
  5
267
330
1B
100
AcDbEntity
  8
4
100
AcDbLine
 10
377.3385353362989
 20
840.5415294503975
 30
0.0
 11
368.8385353362989
 21
845.4490067385093
 31
0.0
  0
LINE
  5
268
330
1B
100
AcDbEntity
  8
4
100
AcDbLine
 10
368.8385353362989
 20
845.4490067385093
 30
0.0
 11
360.3385353362989
 21
840.5415294503975
 31
0.0
  0
LINE
  5
269
330
1B
100
AcDbEntity
  8
4
100
AcDbLine
 10
368.8385353362989
 20
825.8190975860618
 30
0.0
 11
377.3385353362989
 21
830.7265748741736
 31
0.0
  0
LINE
  5
26A
330
1B
100
AcDbEntity
  8
4
100
AcDbLine
 10
360.3385353362989
 20
830.7265748741736
 30
0.0
 11
368.8385353362989
 21
825.8190975860618
 31
0.0
  0
LINE
  5
26B
330
1B
100
AcDbEntity
  8
4
100
AcDbLine
 10
377.3385353362989
 20
830.7265748741736
 30
0.0
 11
377.3385353362989
 21
840.5415294503975
 31
0.0
  0
LINE
  5
26C
330
1B
100
AcDbEntity
  8
4
100
AcDbLine
 10
360.3385353362989
 20
840.5415294503975
 30
0.0
 11
360.3385353362989
 21
830.7265748741736
 31
0.0
  0
CIRCLE
  5
26D
330
1B
100
AcDbEntity
  8
4
100
AcDbCircle
 10
368.8385353362989
 20
835.6340521622853
 30
0.0
 40
8.5
  0
LINE
  5
26E
330
1B
100
AcDbEntity
  8
4
100
AcDbLine
 10
561.3385353362985
 20
840.5415294503975
 30
0.0
 11
552.8385353362985
 21
845.4490067385093
 31
0.0
  0
LINE
  5
26F
330
1B
100
AcDbEntity
  8
4
100
AcDbLine
 10
552.8385353362985
 20
845.4490067385093
 30
0.0
 11
544.3385353362985
 21
840.5415294503975
 31
0.0
  0
LINE
  5
270
330
1B
100
AcDbEntity
  8
4
100
AcDbLine
 10
552.8385353362985
 20
825.8190975860618
 30
0.0
 11
561.3385353362985
 21
830.7265748741736
 31
0.0
  0
LINE
  5
271
330
1B
100
AcDbEntity
  8
4
100
AcDbLine
 10
544.3385353362985
 20
830.7265748741736
 30
0.0
 11
552.8385353362985
 21
825.8190975860618
 31
0.0
  0
LINE
  5
272
330
1B
100
AcDbEntity
  8
4
100
AcDbLine
 10
561.3385353362985
 20
830.7265748741736
 30
0.0
 11
561.3385353362985
 21
840.5415294503975
 31
0.0
  0
LINE
  5
273
330
1B
100
AcDbEntity
  8
4
100
AcDbLine
 10
544.3385353362985
 20
840.5415294503975
 30
0.0
 11
544.3385353362985
 21
830.7265748741736
 31
0.0
  0
CIRCLE
  5
274
330
1B
100
AcDbEntity
  8
4
100
AcDbCircle
 10
552.8385353362985
 20
835.6340521622853
 30
0.0
 40
8.5
  0
LINE
  5
275
330
1B
100
AcDbEntity
  8
4
100
AcDbLine
 10
285.3385353362989
 20
999.8902037467344
 30
0.0
 11
276.8385353362989
 21
1004.797681034846
 31
0.0
  0
LINE
  5
276
330
1B
100
AcDbEntity
  8
4
100
AcDbLine
 10
276.8385353362989
 20
1004.797681034846
 30
0.0
 11
268.3385353362989
 21
999.8902037467344
 31
0.0
  0
LINE
  5
277
330
1B
100
AcDbEntity
  8
4
100
AcDbLine
 10
276.8385353362989
 20
985.1677718823987
 30
0.0
 11
285.3385353362989
 21
990.0752491705105
 31
0.0
  0
LINE
  5
278
330
1B
100
AcDbEntity
  8
4
100
AcDbLine
 10
268.3385353362989
 20
990.0752491705105
 30
0.0
 11
276.8385353362989
 21
985.1677718823987
 31
0.0
  0
LINE
  5
279
330
1B
100
AcDbEntity
  8
4
100
AcDbLine
 10
285.3385353362989
 20
990.0752491705105
 30
0.0
 11
285.3385353362989
 21
999.8902037467344
 31
0.0
  0
LINE
  5
27A
330
1B
100
AcDbEntity
  8
4
100
AcDbLine
 10
268.3385353362989
 20
999.8902037467344
 30
0.0
 11
268.3385353362989
 21
990.0752491705105
 31
0.0
  0
CIRCLE
  5
27B
330
1B
100
AcDbEntity
  8
4
100
AcDbCircle
 10
276.8385353362989
 20
994.9827264586222
 30
0.0
 40
8.5
  0
LINE
  5
27C
330
1B
100
AcDbEntity
  8
4
100
AcDbLine
 10
653.338535336299
 20
999.8902037467344
 30
0.0
 11
644.838535336299
 21
1004.797681034846
 31
0.0
  0
LINE
  5
27D
330
1B
100
AcDbEntity
  8
4
100
AcDbLine
 10
644.838535336299
 20
1004.797681034846
 30
0.0
 11
636.338535336299
 21
999.8902037467344
 31
0.0
  0
LINE
  5
27E
330
1B
100
AcDbEntity
  8
4
100
AcDbLine
 10
644.838535336299
 20
985.1677718823987
 30
0.0
 11
653.338535336299
 21
990.0752491705105
 31
0.0
  0
LINE
  5
27F
330
1B
100
AcDbEntity
  8
4
100
AcDbLine
 10
636.338535336299
 20
990.0752491705105
 30
0.0
 11
644.838535336299
 21
985.1677718823987
 31
0.0
  0
LINE
  5
280
330
1B
100
AcDbEntity
  8
4
100
AcDbLine
 10
653.338535336299
 20
990.0752491705105
 30
0.0
 11
653.338535336299
 21
999.8902037467344
 31
0.0
  0
LINE
  5
281
330
1B
100
AcDbEntity
  8
4
100
AcDbLine
 10
636.338535336299
 20
999.8902037467344
 30
0.0
 11
636.338535336299
 21
990.0752491705105
 31
0.0
  0
CIRCLE
  5
282
330
1B
100
AcDbEntity
  8
4
100
AcDbCircle
 10
644.838535336299
 20
994.9827264586222
 30
0.0
 40
8.5
  0
LINE
  5
283
330
1B
100
AcDbEntity
  8
4
100
AcDbLine
 10
561.338535336299
 20
1159.238878043071
 30
0.0
 11
552.838535336299
 21
1164.146355331183
 31
0.0
  0
LINE
  5
284
330
1B
100
AcDbEntity
  8
4
100
AcDbLine
 10
552.838535336299
 20
1164.146355331183
 30
0.0
 11
544.338535336299
 21
1159.238878043071
 31
0.0
  0
LINE
  5
285
330
1B
100
AcDbEntity
  8
4
100
AcDbLine
 10
552.838535336299
 20
1144.516446178736
 30
0.0
 11
561.338535336299
 21
1149.423923466847
 31
0.0
  0
LINE
  5
286
330
1B
100
AcDbEntity
  8
4
100
AcDbLine
 10
544.338535336299
 20
1149.423923466847
 30
0.0
 11
552.838535336299
 21
1144.516446178736
 31
0.0
  0
LINE
  5
287
330
1B
100
AcDbEntity
  8
4
100
AcDbLine
 10
561.338535336299
 20
1149.423923466847
 30
0.0
 11
561.338535336299
 21
1159.238878043071
 31
0.0
  0
LINE
  5
288
330
1B
100
AcDbEntity
  8
4
100
AcDbLine
 10
544.338535336299
 20
1159.238878043071
 30
0.0
 11
544.338535336299
 21
1149.423923466847
 31
0.0
  0
CIRCLE
  5
289
330
1B
100
AcDbEntity
  8
4
100
AcDbCircle
 10
552.838535336299
 20
1154.331400754959
 30
0.0
 40
8.5
  0
LINE
  5
28A
330
1B
100
AcDbEntity
  8
4
100
AcDbLine
 10
377.3385353362994
 20
1159.238878043071
 30
0.0
 11
368.8385353362994
 21
1164.146355331183
 31
0.0
  0
LINE
  5
28B
330
1B
100
AcDbEntity
  8
4
100
AcDbLine
 10
368.8385353362994
 20
1164.146355331183
 30
0.0
 11
360.3385353362994
 21
1159.238878043071
 31
0.0
  0
LINE
  5
28C
330
1B
100
AcDbEntity
  8
4
100
AcDbLine
 10
368.8385353362994
 20
1144.516446178736
 30
0.0
 11
377.3385353362994
 21
1149.423923466847
 31
0.0
  0
LINE
  5
28D
330
1B
100
AcDbEntity
  8
4
100
AcDbLine
 10
360.3385353362994
 20
1149.423923466847
 30
0.0
 11
368.8385353362994
 21
1144.516446178736
 31
0.0
  0
LINE
  5
28E
330
1B
100
AcDbEntity
  8
4
100
AcDbLine
 10
377.3385353362994
 20
1149.423923466847
 30
0.0
 11
377.3385353362994
 21
1159.238878043071
 31
0.0
  0
LINE
  5
28F
330
1B
100
AcDbEntity
  8
4
100
AcDbLine
 10
360.3385353362994
 20
1159.238878043071
 30
0.0
 11
360.3385353362994
 21
1149.423923466847
 31
0.0
  0
CIRCLE
  5
290
330
1B
100
AcDbEntity
  8
4
100
AcDbCircle
 10
368.8385353362994
 20
1154.331400754959
 30
0.0
 40
8.5
  0
LINE
  5
291
330
1B
100
AcDbEntity
  8
4
100
AcDbLine
 10
667.7384393362988
 20
830.9827264586222
 30
0.0
 11
668.7384393362988
 21
830.9827264586222
 31
0.0
  0
LINE
  5
292
330
1B
100
AcDbEntity
  8
4
100
AcDbLine
 10
667.7384393362988
 20
758.9827264586222
 30
0.0
 11
668.7384393362988
 21
758.9827264586222
 31
0.0
  0
LINE
  5
293
330
1B
100
AcDbEntity
  8
4
100
AcDbLine
 10
668.7384393362988
 20
758.9827264586222
 30
0.0
 11
668.7384393362988
 21
830.9827264586222
 31
0.0
  0
LINE
  5
294
330
1B
100
AcDbEntity
  8
4
100
AcDbLine
 10
680.838535336299
 20
769.9827264586222
 30
0.0
 11
668.7384393362988
 21
769.9827264586222
 31
0.0
  0
LINE
  5
295
330
1B
100
AcDbEntity
  8
4
100
AcDbLine
 10
680.838535336299
 20
819.9827264586222
 30
0.0
 11
668.7384393362988
 21
819.9827264586222
 31
0.0
  0
LINE
  5
296
330
1B
100
AcDbEntity
  8
4
100
AcDbLine
 10
780.838535336299
 20
816.9827264586222
 30
0.0
 11
780.838535336299
 21
772.9827264586222
 31
0.0
  0
LINE
  5
297
330
1B
100
AcDbEntity
  8
4
100
AcDbLine
 10
779.838535336299
 20
788.9827264586222
 30
0.0
 11
779.838535336299
 21
771.9827264586222
 31
0.0
  0
LINE
  5
298
330
1B
100
AcDbEntity
  8
4
100
AcDbLine
 10
780.838535336299
 20
772.9827264586222
 30
0.0
 11
779.838535336299
 21
771.9827264586222
 31
0.0
  0
LINE
  5
299
330
1B
100
AcDbEntity
  8
4
100
AcDbLine
 10
779.838535336299
 20
817.9827264586222
 30
0.0
 11
779.838535336299
 21
800.9827264586222
 31
0.0
  0
LINE
  5
29A
330
1B
100
AcDbEntity
  8
4
100
AcDbLine
 10
779.838535336299
 20
817.9827264586222
 30
0.0
 11
780.838535336299
 21
816.9827264586222
 31
0.0
  0
ARC
  5
29B
330
1B
100
AcDbEntity
  8
4
100
AcDbCircle
 10
696.838535336299
 20
794.9827264586222
 30
0.0
 40
6.0
100
AcDbArc
 50
90.0
 51
270.0
  0
ARC
  5
29C
330
1B
100
AcDbEntity
  8
4
100
AcDbCircle
 10
682.838535336299
 20
819.9827264586222
 30
0.0
 40
2.0
100
AcDbArc
 50
180.0
 51
270.0
  0
LINE
  5
29D
330
1B
100
AcDbEntity
  8
4
100
AcDbLine
 10
680.838535336299
 20
769.9827264586222
 30
0.0
 11
680.838535336299
 21
819.9827264586222
 31
0.0
  0
ARC
  5
29E
330
1B
100
AcDbEntity
  8
4
100
AcDbCircle
 10
682.838535336299
 20
769.9827264586222
 30
0.0
 40
2.0
100
AcDbArc
 50
90.0
 51
180.0
  0
LINE
  5
29F
330
1B
100
AcDbEntity
  8
4
100
AcDbLine
 10
682.838535336299
 20
771.9827264586222
 30
0.0
 11
779.838535336299
 21
771.9827264586222
 31
0.0
  0
LINE
  5
2A0
330
1B
100
AcDbEntity
  8
4
100
AcDbLine
 10
780.838535336299
 20
788.9827264586222
 30
0.0
 11
696.838535336299
 21
788.9827264586222
 31
0.0
  0
LINE
  5
2A1
330
1B
100
AcDbEntity
  8
4
100
AcDbLine
 10
682.838535336299
 20
817.9827264586222
 30
0.0
 11
779.838535336299
 21
817.9827264586222
 31
0.0
  0
LINE
  5
2A2
330
1B
100
AcDbEntity
  8
4
100
AcDbLine
 10
780.838535336299
 20
800.9827264586222
 30
0.0
 11
696.838535336299
 21
800.9827264586222
 31
0.0
  0
LINE
  5
2A3
330
1B
100
AcDbEntity
  8
4
100
AcDbLine
 10
253.9385353362989
 20
879.9827264586222
 30
0.0
 11
253.9385353362989
 21
709.9827264586222
 31
0.0
  0
LINE
  5
2A4
330
1B
100
AcDbEntity
  8
4
100
AcDbLine
 10
667.738535336299
 20
879.9827264586222
 30
0.0
 11
667.738535336299
 21
709.9827264586222
 31
0.0
  0
ARC
  5
2A5
330
1B
100
AcDbEntity
  8
4
100
AcDbCircle
 10
460.8385353362989
 20
1124.982726458622
 30
0.0
 40
20.0
100
AcDbArc
 50
108.209956864283
 51
251.790043135717
  0
ARC
  5
2A6
330
1B
100
AcDbEntity
  8
4
100
AcDbCircle
 10
460.8385353362989
 20
1124.982726458622
 30
0.0
 40
15.0
100
AcDbArc
 50
294.6243183521644
 51
65.37568164783458
  0
ARC
  5
2A7
330
1B
100
AcDbEntity
  8
4
100
AcDbCircle
 10
460.8385353362989
 20
1124.982726458622
 30
0.0
 40
13.5
100
AcDbArc
 50
297.5784679781236
 51
62.42153202187433
  0
ARC
  5
2A8
330
1B
100
AcDbEntity
  8
4
100
AcDbCircle
 10
460.8385353362989
 20
1148.732726458622
 30
0.0
 40
6.25
100
AcDbArc
 50
0.0
 51
180.0
  0
LINE
  5
2A9
330
1B
100
AcDbEntity
  8
4
100
AcDbLine
 10
454.5885353362989
 20
1148.732726458622
 30
0.0
 11
454.5885353362989
 21
1101.232726458622
 31
0.0
  0
LINE
  5
2AA
330
1B
100
AcDbEntity
  8
4
100
AcDbLine
 10
467.0885353362989
 20
1148.732726458622
 30
0.0
 11
467.0885353362989
 21
1101.232726458622
 31
0.0
  0
ARC
  5
2AB
330
1B
100
AcDbEntity
  8
4
100
AcDbCircle
 10
460.8385353362989
 20
1124.982726458622
 30
0.0
 40
20.0
100
AcDbArc
 50
288.209956864283
 51
71.79004313571703
  0
ARC
  5
2AC
330
1B
100
AcDbEntity
  8
4
100
AcDbCircle
 10
460.8385353362989
 20
1124.982726458622
 30
0.0
 40
13.5
100
AcDbArc
 50
117.5784679781214
 51
242.4215320218784
  0
ARC
  5
2AD
330
1B
100
AcDbEntity
  8
4
100
AcDbCircle
 10
460.8385353362989
 20
1124.982726458622
 30
0.0
 40
15.0
100
AcDbArc
 50
114.6243183521623
 51
245.3756816478375
  0
ARC
  5
2AE
330
1B
100
AcDbEntity
  8
4
100
AcDbCircle
 10
460.8385353362989
 20
1101.232726458622
 30
0.0
 40
6.25
100
AcDbArc
 50
180.0
 51
0.0
  0
ARC
  5
2AF
330
1B
100
AcDbEntity
  8
4
100
AcDbCircle
 10
460.8385353362989
 20
864.9827264586222
 30
0.0
 40
20.0
100
AcDbArc
 50
288.209956864283
 51
71.79004313571703
  0
ARC
  5
2B0
330
1B
100
AcDbEntity
  8
4
100
AcDbCircle
 10
460.8385353362989
 20
888.7327264586222
 30
0.0
 40
6.25
100
AcDbArc
 50
0.0
 51
180.0
  0
LINE
  5
2B1
330
1B
100
AcDbEntity
  8
4
100
AcDbLine
 10
467.0885353362989
 20
841.2327264586222
 30
0.0
 11
467.0885353362989
 21
888.7327264586222
 31
0.0
  0
LINE
  5
2B2
330
1B
100
AcDbEntity
  8
4
100
AcDbLine
 10
454.5885353362989
 20
841.2327264586222
 30
0.0
 11
454.5885353362989
 21
888.7327264586222
 31
0.0
  0
ARC
  5
2B3
330
1B
100
AcDbEntity
  8
4
100
AcDbCircle
 10
460.8385353362989
 20
841.2327264586222
 30
0.0
 40
6.25
100
AcDbArc
 50
180.0
 51
0.0
  0
ARC
  5
2B4
330
1B
100
AcDbEntity
  8
4
100
AcDbCircle
 10
460.8385353362989
 20
864.9827264586222
 30
0.0
 40
13.5
100
AcDbArc
 50
297.5784679781257
 51
62.42153202187647
  0
ARC
  5
2B5
330
1B
100
AcDbEntity
  8
4
100
AcDbCircle
 10
460.8385353362989
 20
864.9827264586222
 30
0.0
 40
15.0
100
AcDbArc
 50
294.6243183521652
 51
65.37568164783576
  0
ARC
  5
2B6
330
1B
100
AcDbEntity
  8
4
100
AcDbCircle
 10
460.8385353362989
 20
864.9827264586222
 30
0.0
 40
15.0
100
AcDbArc
 50
114.6243183521621
 51
245.3756816478375
  0
ARC
  5
2B7
330
1B
100
AcDbEntity
  8
4
100
AcDbCircle
 10
460.8385353362989
 20
864.9827264586222
 30
0.0
 40
13.5
100
AcDbArc
 50
117.5784679781214
 51
242.4215320218784
  0
LWPOLYLINE
  5
2B8
330
1B
100
AcDbEntity
  8
4
100
AcDbPolyline
 90
        6
 70
     1
 43
0.0
 10
353.8385353362989
 20
994.9827264586222
 10
342.3385353362989
 20
1014.901310745664
 10
319.3385353362989
 20
1014.901310745664
 10
307.8385353362989
 20
994.9827264586222
 10
319.3385353362989
 20
975.0641421715802
 10
342.3385353362989
 20
975.0641421715802
  0
CIRCLE
  5
2B9
330
1B
100
AcDbEntity
  8
4
100
AcDbCircle
 10
330.8385353362989
 20
994.9827264586222
 30
0.0
 40
23.0
  0
LINE
  5
2BA
330
1B
100
AcDbEntity
  8
L-CENTER
 48
8.0
100
AcDbLine
 10
561.1625984804803
 20
1168.749101046093
 30
0.0
 11
544.5144721921172
 21
1139.913700463825
 31
0.0
  0
ARC
  5
2BB
330
1B
100
AcDbEntity
  8
4
100
AcDbCircle
 10
503.8768581162992
 20
1154.788711241058
 30
0.0
 40
3.5
100
AcDbArc
 50
74.92695388160367
 51
186.3634968358656
  0
ARC
  5
2BC
330
1B
100
AcDbEntity
  8
4
100
AcDbCircle
 10
620.644520118735
 20
1038.021049238622
 30
0.0
 40
3.5
100
AcDbArc
 50
263.636503164138
 51
15.07304611839274
  0
ARC
  5
2BD
330
1B
100
AcDbEntity
  8
4
100
AcDbCircle
 10
533.4636900801745
 20
1052.271605975027
 30
0.0
 40
8.0
100
AcDbArc
 50
190.7196066720562
 51
263.6365031641363
  0
ARC
  5
2BE
330
1B
100
AcDbEntity
  8
4
100
AcDbCircle
 10
521.541004009465
 20
1055.819185160019
 30
0.0
 40
3.0
100
AcDbArc
 50
11.81993167154825
 51
78.40446683456898
  0
ARC
  5
2BF
330
1B
100
AcDbEntity
  8
4
100
AcDbCircle
 10
517.4024603753489
 20
1051.546651497672
 30
0.0
 40
3.0
100
AcDbArc
 50
10.97910089056233
 51
79.02089910943809
  0
ARC
  5
2C0
330
1B
100
AcDbEntity
  8
4
100
AcDbCircle
 10
518.1274148527034
 20
1067.607881202498
 30
0.0
 40
8.0
100
AcDbArc
 50
186.3634968358654
 51
259.2803933279438
  0
LINE
  5
2C1
330
1B
100
AcDbEntity
  8
4
100
AcDbLine
 10
620.256594889833
 20
1034.542613668314
 30
0.0
 11
532.5770038426838
 21
1044.320896100038
 31
0.0
  0
LINE
  5
2C2
330
1B
100
AcDbEntity
  8
4
100
AcDbLine
 10
500.398422545991
 20
1154.400786012156
 30
0.0
 11
510.1767049777147
 21
1066.721194965007
 31
0.0
  0
ARC
  5
2C3
330
1B
100
AcDbEntity
  8
4
100
AcDbCircle
 10
417.8002125562991
 20
1154.788711241058
 30
0.0
 40
3.5
100
AcDbArc
 50
353.6365031641382
 51
105.0730461183892
  0
LINE
  5
2C4
330
1B
100
AcDbEntity
  8
L-CENTER
 48
8.0
100
AcDbLine
 10
360.5144721921176
 20
1168.749101046093
 30
0.0
 11
377.1625984804803
 21
1139.913700463825
 31
0.0
  0
ARC
  5
2C5
330
1B
100
AcDbEntity
  8
4
100
AcDbCircle
 10
400.1360666631329
 20
1055.819185160019
 30
0.0
 40
3.0
100
AcDbArc
 50
101.595533165431
 51
168.1800683284515
  0
ARC
  5
2C6
330
1B
100
AcDbEntity
  8
4
100
AcDbCircle
 10
388.2133805924234
 20
1052.271605975027
 30
0.0
 40
8.0
100
AcDbArc
 50
276.3634968358637
 51
349.2803933279438
  0
ARC
  5
2C7
330
1B
100
AcDbEntity
  8
4
100
AcDbCircle
 10
404.274610297249
 20
1051.546651497672
 30
0.0
 40
3.0
100
AcDbArc
 50
100.9791008905619
 51
169.0208991094379
  0
ARC
  5
2C8
330
1B
100
AcDbEntity
  8
4
100
AcDbCircle
 10
403.5496558198945
 20
1067.607881202498
 30
0.0
 40
8.0
100
AcDbArc
 50
280.7196066720562
 51
353.6365031641347
  0
ARC
  5
2C9
330
1B
100
AcDbEntity
  8
4
100
AcDbCircle
 10
301.0325505538628
 20
1038.021049238622
 30
0.0
 40
3.5
100
AcDbArc
 50
164.9269538816073
 51
276.363496835862
  0
CIRCLE
  5
2CA
330
1B
100
AcDbEntity
  8
4
100
AcDbCircle
 10
330.8385353362989
 20
994.9827264586222
 30
0.0
 40
25.0
  0
LINE
  5
2CB
330
1B
100
AcDbEntity
  8
L-CENTER
 48
8.0
100
AcDbLine
 10
330.8385353362989
 20
1028.211364851187
 30
0.0
 11
330.8385353362989
 21
961.754088066057
 31
0.0
  0
LINE
  5
2CC
330
1B
100
AcDbEntity
  8
4
100
AcDbLine
 10
301.4204757827649
 20
1034.542613668314
 30
0.0
 11
389.1000668299141
 21
1044.320896100038
 31
0.0
  0
LINE
  5
2CD
330
1B
100
AcDbEntity
  8
4
100
AcDbLine
 10
421.2786481266069
 20
1154.400786012156
 30
0.0
 11
411.5003656948832
 21
1066.721194965007
 31
0.0
  0
ARC
  5
2CE
330
1B
100
AcDbEntity
  8
4
100
AcDbCircle
 10
460.8385353362989
 20
759.9827264586222
 30
0.0
 40
305.0
100
AcDbArc
 50
78.4044668345727
 51
101.5955331654273
  0
ARC
  5
2CF
330
1B
100
AcDbEntity
  8
4
100
AcDbCircle
 10
460.8385353362989
 20
759.9827264586222
 30
0.0
 40
300.0
100
AcDbArc
 50
79.02089910943822
 51
100.9791008905618
  0
LINE
  5
2D0
330
1B
100
AcDbEntity
  8
L-CENTER
 48
8.0
100
AcDbLine
 10
433.7818602383616
 20
1124.982726458622
 30
0.0
 11
487.8952104342363
 21
1124.982726458622
 31
0.0
  0
ARC
  5
2D1
330
1B
100
AcDbEntity
  8
4
100
AcDbCircle
 10
518.1274148527034
 20
922.3575717147467
 30
0.0
 40
8.0
100
AcDbArc
 50
100.7196066720562
 51
173.6365031641346
  0
ARC
  5
2D2
330
1B
100
AcDbEntity
  8
4
100
AcDbCircle
 10
517.4024603753489
 20
938.4188014195722
 30
0.0
 40
3.0
100
AcDbArc
 50
280.9791008905623
 51
349.0208991094377
  0
ARC
  5
2D3
330
1B
100
AcDbEntity
  8
4
100
AcDbCircle
 10
521.5641737616581
 20
934.257088033263
 30
0.0
 40
3.0
100
AcDbArc
 50
281.7980905051255
 51
348.2019094948703
  0
ARC
  5
2D4
330
1B
100
AcDbEntity
  8
4
100
AcDbCircle
 10
533.4636900801745
 20
937.6938469422178
 30
0.0
 40
8.0
100
AcDbArc
 50
96.36349683586374
 51
169.2803933279438
  0
LINE
  5
2D5
330
1B
100
AcDbEntity
  8
L-CENTER
 48
8.0
100
AcDbLine
 10
561.1625984804803
 20
821.2163518711513
 30
0.0
 11
544.5144721921172
 21
850.0517524534193
 31
0.0
  0
ARC
  5
2D6
330
1B
100
AcDbEntity
  8
4
100
AcDbCircle
 10
503.8768581162988
 20
835.1767416761861
 30
0.0
 40
3.5
100
AcDbArc
 50
173.6365031641382
 51
285.0730461183891
  0
LINE
  5
2D7
330
1B
100
AcDbEntity
  8
4
100
AcDbLine
 10
500.398422545991
 20
835.5646669050882
 30
0.0
 11
510.1767049777147
 21
923.2442579522374
 31
0.0
  0
ARC
  5
2D8
330
1B
100
AcDbEntity
  8
4
100
AcDbCircle
 10
404.274610297249
 20
938.4188014195722
 30
0.0
 40
3.0
100
AcDbArc
 50
190.9791008905621
 51
259.0208991094377
  0
ARC
  5
2D9
330
1B
100
AcDbEntity
  8
4
100
AcDbCircle
 10
400.1128969109398
 20
934.257088033263
 30
0.0
 40
3.0
100
AcDbArc
 50
191.7980905051255
 51
258.2019094948745
  0
ARC
  5
2DA
330
1B
100
AcDbEntity
  8
4
100
AcDbCircle
 10
403.5496558198945
 20
922.3575717147467
 30
0.0
 40
8.0
100
AcDbArc
 50
6.363496835865358
 51
79.28039332794378
  0
ARC
  5
2DB
330
1B
100
AcDbEntity
  8
4
100
AcDbCircle
 10
388.2133805924234
 20
937.6938469422178
 30
0.0
 40
8.0
100
AcDbArc
 50
10.7196066720562
 51
83.63650316413627
  0
ARC
  5
2DC
330
1B
100
AcDbEntity
  8
4
100
AcDbCircle
 10
417.8002125562987
 20
835.1767416761861
 30
0.0
 40
3.5
100
AcDbArc
 50
254.9269538816031
 51
6.363496835865645
  0
LINE
  5
2DD
330
1B
100
AcDbEntity
  8
4
100
AcDbLine
 10
421.2786481266069
 20
835.5646669050882
 30
0.0
 11
411.5003656948832
 21
923.2442579522374
 31
0.0
  0
ARC
  5
2DE
330
1B
100
AcDbEntity
  8
4
100
AcDbCircle
 10
460.8385353362989
 20
864.9827264586222
 30
0.0
 40
20.0
100
AcDbArc
 50
108.209956864283
 51
251.790043135717
  0
LINE
  5
2DF
330
1B
100
AcDbEntity
  8
L-CENTER
 48
8.0
100
AcDbLine
 10
360.5144721921172
 20
821.2163518711516
 30
0.0
 11
377.1625984804807
 21
850.0517524534191
 31
0.0
  0
ARC
  5
2E0
330
1B
100
AcDbEntity
  8
4
100
AcDbCircle
 10
460.8385353362989
 20
1229.982726458622
 30
0.0
 40
300.0
100
AcDbArc
 50
259.0208991094382
 51
280.9791008905617
  0
ARC
  5
2E1
330
1B
100
AcDbEntity
  8
4
100
AcDbCircle
 10
460.8385353362989
 20
1224.982726458622
 30
0.0
 40
300.0
100
AcDbArc
 50
258.2019094948723
 51
281.7980905051276
  0
LINE
  5
2E2
330
1B
100
AcDbEntity
  8
L-CENTER
 48
8.0
100
AcDbLine
 10
433.7818602383616
 20
864.9827264586222
 30
0.0
 11
487.8952104342363
 21
864.9827264586222
 31
0.0
  0
CIRCLE
  5
2E3
330
1B
100
AcDbEntity
  8
4
100
AcDbCircle
 10
460.8385353362989
 20
994.9827264586222
 30
0.0
 40
50.0
  0
CIRCLE
  5
2E4
330
1B
100
AcDbEntity
  8
4
100
AcDbCircle
 10
460.8385353362989
 20
994.9827264586222
 30
0.0
 40
194.0
  0
CIRCLE
  5
2E5
330
1B
100
AcDbEntity
  8
L-CENTER
 48
8.0
100
AcDbCircle
 10
460.8385353362989
 20
994.9827264586222
 30
0.0
 40
184.0
  0
CIRCLE
  5
2E6
330
1B
100
AcDbEntity
  8
4
100
AcDbCircle
 10
460.8385353362989
 20
994.9827264586222
 30
0.0
 40
169.0
  0
ARC
  5
2E7
330
1B
100
AcDbEntity
  8
4
100
AcDbCircle
 10
695.838535336299
 20
994.9827264586222
 30
0.0
 40
300.0
100
AcDbArc
 50
169.0208991094383
 51
190.9791008905617
  0
ARC
  5
2E8
330
1B
100
AcDbEntity
  8
4
100
AcDbCircle
 10
690.838535336299
 20
994.9827264586222
 30
0.0
 40
300.0
100
AcDbArc
 50
168.1800683284511
 51
191.7980905051275
  0
LINE
  5
2E9
330
1B
100
AcDbEntity
  8
4
100
AcDbLine
 10
301.4204757827649
 20
955.4228392489301
 30
0.0
 11
389.1000668299141
 21
945.6445568172064
 31
0.0
  0
ARC
  5
2EA
330
1B
100
AcDbEntity
  8
4
100
AcDbCircle
 10
301.0325505538628
 20
951.9444036786224
 30
0.0
 40
3.5
100
AcDbArc
 50
83.63650316413818
 51
195.0730461183927
  0
ARC
  5
2EB
330
1B
100
AcDbEntity
  8
4
100
AcDbCircle
 10
225.8385353362989
 20
994.9827264586222
 30
0.0
 40
300.0
100
AcDbArc
 50
349.0208991094382
 51
10.9791008905618
  0
ARC
  5
2EC
330
1B
100
AcDbEntity
  8
4
100
AcDbCircle
 10
230.8385353362989
 20
994.9827264586222
 30
0.0
 40
300.0
100
AcDbArc
 50
348.2019094948723
 51
11.81993167154881
  0
LINE
  5
2ED
330
1B
100
AcDbEntity
  8
4
100
AcDbLine
 10
620.256594889833
 20
955.4228392489301
 30
0.0
 11
532.5770038426838
 21
945.6445568172064
 31
0.0
  0
ARC
  5
2EE
330
1B
100
AcDbEntity
  8
4
100
AcDbCircle
 10
620.644520118735
 20
951.9444036786219
 30
0.0
 40
3.5
100
AcDbArc
 50
344.9269538816073
 51
96.36349683586182
  0
ARC
  5
2EF
330
1B
100
AcDbEntity
  8
4
100
AcDbCircle
 10
470.797525362759
 20
766.4033172568086
 30
0.0
 40
8.75
100
AcDbArc
 50
90.0
 51
164.6531835497858
  0
ARC
  5
2F0
330
1B
100
AcDbEntity
  8
4
100
AcDbCircle
 10
470.797525362759
 20
753.9033172568086
 30
0.0
 40
8.75
100
AcDbArc
 50
194.4440951627979
 51
270.0
  0
ARC
  5
2F1
330
1B
100
AcDbEntity
  8
4
100
AcDbCircle
 10
470.797525362759
 20
753.9033172568086
 30
0.0
 40
15.75
100
AcDbArc
 50
187.9654037623433
 51
270.0
  0
LINE
  5
2F2
330
1B
100
AcDbEntity
  8
4
100
AcDbLine
 10
455.1994825680838
 20
751.7207589012348
 30
0.0
 11
462.3240999028569
 21
751.7207589012348
 31
0.0
  0
ARC
  5
2F3
330
1B
100
AcDbEntity
  8
4
100
AcDbCircle
 10
470.797525362759
 20
766.4033172568086
 30
0.0
 40
15.75
100
AcDbArc
 50
90.0
 51
171.5449217064241
  0
LINE
  5
2F4
330
1B
100
AcDbEntity
  8
4
100
AcDbLine
 10
455.2187050782647
 20
768.7191019064319
 30
0.0
 11
462.3595373646301
 21
768.7191019064319
 31
0.0
  0
LINE
  5
2F5
330
1B
100
AcDbEntity
  8
4
100
AcDbLine
 10
512.2187050782647
 20
738.1533172568086
 30
0.0
 11
512.2187050782647
 21
782.1533172568086
 31
0.0
  0
LINE
  5
2F6
330
1B
100
AcDbEntity
  8
4
100
AcDbLine
 10
505.2187050782647
 20
738.1533172568086
 30
0.0
 11
505.2187050782647
 21
775.1533172568086
 31
0.0
  0
LINE
  5
2F7
330
1B
100
AcDbEntity
  8
4
100
AcDbLine
 10
512.2187050782647
 20
738.1533172568086
 30
0.0
 11
505.2187050782647
 21
738.1533172568086
 31
0.0
  0
ARC
  5
2F8
330
1B
100
AcDbEntity
  8
4
100
AcDbCircle
 10
471.4701366687766
 20
753.9033172568086
 30
0.0
 40
15.75
100
AcDbArc
 50
267.5546421064602
 51
0.1542523760194512
  0
ARC
  5
2F9
330
1B
100
AcDbEntity
  8
4
100
AcDbCircle
 10
471.4701366687766
 20
766.4033172568086
 30
0.0
 40
15.75
100
AcDbArc
 50
1.096141316696869
 51
90.0
  0
LINE
  5
2FA
330
1B
100
AcDbEntity
  8
4
100
AcDbLine
 10
480.2185354427445
 20
766.5707057021498
 30
0.0
 11
480.2201049587754
 21
753.9268740819568
 31
0.0
  0
ARC
  5
2FB
330
1B
100
AcDbEntity
  8
4
100
AcDbCircle
 10
471.4701366687766
 20
753.9033172568086
 30
0.0
 40
8.75
100
AcDbArc
 50
270.0
 51
0.1542523760170885
  0
ARC
  5
2FC
330
1B
100
AcDbEntity
  8
4
100
AcDbCircle
 10
471.4701366687766
 20
766.4033172568086
 30
0.0
 40
8.75
100
AcDbArc
 50
1.096141316697201
 51
90.0
  0
LINE
  5
2FD
330
1B
100
AcDbEntity
  8
4
100
AcDbLine
 10
487.2172544619191
 20
766.7046164584224
 30
0.0
 11
487.220079590775
 21
753.9457195420753
 31
0.0
  0
LINE
  5
2FE
330
1B
100
AcDbEntity
  8
4
100
AcDbLine
 10
489.2187050782647
 20
775.1533172568086
 30
0.0
 11
489.2187050782647
 21
782.1533172568086
 31
0.0
  0
LINE
  5
2FF
330
1B
100
AcDbEntity
  8
4
100
AcDbLine
 10
505.2187050782647
 20
775.1533172568086
 30
0.0
 11
489.2187050782647
 21
775.1533172568086
 31
0.0
  0
LINE
  5
300
330
1B
100
AcDbEntity
  8
4
100
AcDbLine
 10
512.2187050782647
 20
782.1533172568086
 30
0.0
 11
489.2187050782647
 21
782.1533172568086
 31
0.0
  0
LINE
  5
301
330
1B
100
AcDbEntity
  8
4
100
AcDbLine
 10
646.838535336299
 20
871.3744743069151
 30
0.0
 11
646.838535336299
 21
827.1008925043118
 31
0.0
  0
LINE
  5
302
330
1B
100
AcDbEntity
  8
4
100
AcDbLine
 10
640.838535336299
 20
827.1008925043118
 30
0.0
 11
646.838535336299
 21
827.1008925043118
 31
0.0
  0
ARC
  5
303
330
1B
100
AcDbEntity
  8
4
100
AcDbCircle
 10
678.8370937982265
 20
794.6030532712878
 30
0.0
 40
50.0
100
AcDbArc
 50
139.4616562984868
 51
220.5383437015128
  0
LINE
  5
304
330
1B
100
AcDbEntity
  8
4
100
AcDbLine
 10
640.838535336299
 20
762.1052140382637
 30
0.0
 11
640.838535336299
 21
827.1008925043113
 31
0.0
  0
LINE
  5
305
330
1B
100
AcDbEntity
  8
4
100
AcDbLine
 10
646.838535336299
 20
762.2272034415325
 30
0.0
 11
646.838535336299
 21
709.9827264586222
 31
0.0
  0
LINE
  5
306
330
1B
100
AcDbEntity
  8
4
100
AcDbLine
 10
640.838535336299
 20
762.1052140382637
 30
0.0
 11
646.838535336299
 21
762.1052140382637
 31
0.0
  0
ARC
  5
307
330
1B
100
AcDbEntity
  8
4
100
AcDbCircle
 10
631.5473107069677
 20
824.2739510879533
 30
0.0
 40
5.0
100
AcDbArc
 50
284.2187212882588
 51
345.7812787117412
  0
ARC
  5
308
330
1B
100
AcDbEntity
  8
4
100
AcDbCircle
 10
-42.16146466370105
 20
994.9827264586222
 30
0.0
 40
700.0
100
AcDbArc
 50
345.7812787117402
 51
14.21872128825976
  0
ARC
  5
309
330
1B
100
AcDbEntity
  8
4
100
AcDbCircle
 10
631.5473107069677
 20
1165.691501829291
 30
0.0
 40
5.0
100
AcDbArc
 50
14.21872128825886
 51
75.78127871174114
  0
LINE
  5
30A
330
1B
100
AcDbEntity
  8
L-CENTER
 48
8.0
100
AcDbLine
 10
617.6399572998973
 20
1139.982726458624
 30
0.0
 11
674.0371133727006
 21
1139.982726458625
 31
0.0
  0
ARC
  5
30B
330
1B
100
AcDbEntity
  8
4
100
AcDbCircle
 10
675.838535336299
 20
1184.982726458622
 30
0.0
 40
5.0
100
AcDbArc
 50
0.0
 51
90.0
  0
ARC
  5
30C
330
1B
100
AcDbEntity
  8
4
100
AcDbCircle
 10
548.838535336299
 20
1181.982726458622
 30
0.0
 40
8.0
100
AcDbArc
 50
90.0
 51
139.5446399065702
  0
ARC
  5
30D
330
1B
100
AcDbEntity
  8
4
100
AcDbCircle
 10
482.8385353362989
 20
1193.637912429623
 30
0.0
 40
2.0
100
AcDbArc
 50
180.0
 51
268.2041117209929
  0
ARC
  5
30E
330
1B
100
AcDbEntity
  8
4
100
AcDbCircle
 10
482.8385353362989
 20
1193.637912429623
 30
0.0
 40
2.0
100
AcDbArc
 50
180.0
 51
268.2041117209799
  0
LINE
  5
30F
330
1B
100
AcDbEntity
  8
4
100
AcDbLine
 10
480.8385353362989
 20
1193.982726458622
 30
0.0
 11
480.8385353362989
 21
1193.637912429623
 31
0.0
  0
LINE
  5
310
330
1B
100
AcDbEntity
  8
4
100
AcDbLine
 10
480.8385353362989
 20
1194.982726458622
 30
0.0
 11
480.8385353362989
 21
1193.982726458622
 31
0.0
  0
LINE
  5
311
330
1B
100
AcDbEntity
  8
4
100
AcDbLine
 10
480.8385353362989
 20
1193.982726458622
 30
0.0
 11
480.8385353362989
 21
1193.637912429623
 31
0.0
  0
LINE
  5
312
330
1B
100
AcDbEntity
  8
4
100
AcDbLine
 10
675.838535336299
 20
1189.982726458622
 30
0.0
 11
548.838535336299
 21
1189.982726458622
 31
0.0
  0
ARC
  5
313
330
1B
100
AcDbEntity
  8
4
100
AcDbCircle
 10
663.838535336299
 20
1101.982726458622
 30
0.0
 40
2.0
100
AcDbArc
 50
270.0
 51
0.0
  0
LINE
  5
314
330
1B
100
AcDbEntity
  8
4
100
AcDbLine
 10
663.838535336299
 20
1089.982726458622
 30
0.0
 11
651.3621470468158
 21
1089.982726458622
 31
0.0
  0
LINE
  5
315
330
1B
100
AcDbEntity
  8
4
100
AcDbLine
 10
663.838535336299
 20
1099.982726458622
 30
0.0
 11
649.9187330012808
 21
1099.982726458622
 31
0.0
  0
ARC
  5
316
330
1B
100
AcDbEntity
  8
4
100
AcDbCircle
 10
663.838535336299
 20
1087.982726458622
 30
0.0
 40
2.0
100
AcDbArc
 50
0.0
 51
90.0
  0
ARC
  5
317
330
1B
100
AcDbEntity
  8
4
100
AcDbCircle
 10
675.838535336299
 20
1093.513898183228
 30
0.0
 40
5.0
100
AcDbArc
 50
289.5378972703033
 51
0.0
  0
ARC
  5
318
330
1B
100
AcDbEntity
  8
4
100
AcDbCircle
 10
645.838535336299
 20
1139.982726458622
 30
0.0
 40
11.0
100
AcDbArc
 50
270.0
 51
118.7752055090169
  0
LINE
  5
319
330
1B
100
AcDbEntity
  8
4
100
AcDbLine
 10
677.5106867340594
 20
1088.801795711616
 30
0.0
 11
652.6586559430646
 21
1079.982726458622
 31
0.0
  0
LINE
  5
31A
330
1B
100
AcDbEntity
  8
L-CENTER
 48
8.0
100
AcDbLine
 10
645.838535336299
 20
1168.181304495027
 30
0.0
 11
645.838535336299
 21
1111.772179645766
 31
0.0
  0
LINE
  5
31B
330
1B
100
AcDbEntity
  8
4
100
AcDbLine
 10
680.838535336299
 20
1093.513898183228
 30
0.0
 11
680.838535336299
 21
1184.982726458622
 31
0.0
  0
ARC
  5
31C
330
1B
100
AcDbEntity
  8
4
100
AcDbCircle
 10
438.8385353362989
 20
1193.637912429623
 30
0.0
 40
2.0
100
AcDbArc
 50
271.7958882790071
 51
0.0
  0
LINE
  5
31D
330
1B
100
AcDbEntity
  8
4
100
AcDbLine
 10
460.8385353362989
 20
1194.982726458622
 30
0.0
 11
440.8385353362989
 21
1194.982726458622
 31
0.0
  0
LINE
  5
31E
330
1B
100
AcDbEntity
  8
4
100
AcDbLine
 10
440.8385353362989
 20
1194.982726458622
 30
0.0
 11
440.8385353362989
 21
1193.982726458622
 31
0.0
  0
LINE
  5
31F
330
1B
100
AcDbEntity
  8
4
100
AcDbLine
 10
440.8385353362989
 20
1193.982726458622
 30
0.0
 11
440.8385353362989
 21
1193.637912429623
 31
0.0
  0
ARC
  5
320
330
1B
100
AcDbEntity
  8
4
100
AcDbCircle
 10
372.8385353362989
 20
1181.982726458622
 30
0.0
 40
8.0
100
AcDbArc
 50
40.45536009342984
 51
90.0
  0
ARC
  5
321
330
1B
100
AcDbEntity
  8
4
100
AcDbCircle
 10
245.8385353362989
 20
1184.982726458622
 30
0.0
 40
5.0
100
AcDbArc
 50
90.0
 51
180.0
  0
ARC
  5
322
330
1B
100
AcDbEntity
  8
4
100
AcDbCircle
 10
290.1297599656302
 20
1165.691501829291
 30
0.0
 40
5.0
100
AcDbArc
 50
104.2187212882589
 51
165.7812787117413
  0
ARC
  5
323
330
1B
100
AcDbEntity
  8
4
100
AcDbCircle
 10
460.8385353362989
 20
491.9827264586222
 30
0.0
 40
700.0
100
AcDbArc
 50
75.78127871174028
 51
104.2187212882597
  0
LINE
  5
324
330
1B
100
AcDbEntity
  8
4
100
AcDbLine
 10
245.8385353362989
 20
1189.982726458622
 30
0.0
 11
372.8385353362989
 21
1189.982726458622
 31
0.0
  0
LINE
  5
325
330
1B
100
AcDbEntity
  8
4
100
AcDbLine
 10
257.8385353362985
 20
1099.982726458622
 30
0.0
 11
271.7583376713176
 21
1099.982726458622
 31
0.0
  0
LINE
  5
326
330
1B
100
AcDbEntity
  8
4
100
AcDbLine
 10
257.8385353362989
 20
1089.982726458622
 30
0.0
 11
270.3149236257816
 21
1089.982726458622
 31
0.0
  0
ARC
  5
327
330
1B
100
AcDbEntity
  8
4
100
AcDbCircle
 10
257.8385353362985
 20
1101.982726458622
 30
0.0
 40
2.0
100
AcDbArc
 50
180.0
 51
270.0
  0
ARC
  5
328
330
1B
100
AcDbEntity
  8
4
100
AcDbCircle
 10
245.8385353362989
 20
1093.513898183228
 30
0.0
 40
5.0
100
AcDbArc
 50
180.0
 51
250.4621027296967
  0
ARC
  5
329
330
1B
100
AcDbEntity
  8
4
100
AcDbCircle
 10
257.8385353362989
 20
1087.982726458622
 30
0.0
 40
2.0
100
AcDbArc
 50
90.0
 51
180.0
  0
LINE
  5
32A
330
1B
100
AcDbEntity
  8
L-CENTER
 48
8.0
100
AcDbLine
 10
304.0371133727006
 20
1139.982726458622
 30
0.0
 11
247.6399572998971
 21
1139.982726458622
 31
0.0
  0
ARC
  5
32B
330
1B
100
AcDbEntity
  8
4
100
AcDbCircle
 10
275.8385353362989
 20
1139.982726458622
 30
0.0
 40
11.0
100
AcDbArc
 50
61.22479449098236
 51
270.0
  0
LINE
  5
32C
330
1B
100
AcDbEntity
  8
4
100
AcDbLine
 10
244.1663839385385
 20
1088.801795711616
 30
0.0
 11
269.0184147295333
 21
1079.982726458622
 31
0.0
  0
LINE
  5
32D
330
1B
100
AcDbEntity
  8
L-CENTER
 48
8.0
100
AcDbLine
 10
275.8385353362989
 20
1168.181304495024
 30
0.0
 11
275.8385353362989
 21
1111.784148422221
 31
0.0
  0
LINE
  5
32E
330
1B
100
AcDbEntity
  8
4
100
AcDbLine
 10
240.8385353362989
 20
1093.513898183228
 30
0.0
 11
240.8385353362989
 21
1184.982726458622
 31
0.0
  0
LINE
  5
32F
330
1B
100
AcDbEntity
  8
4
100
AcDbLine
 10
460.8385353362989
 20
1194.982726458622
 30
0.0
 11
480.8385353362989
 21
1194.982726458622
 31
0.0
  0
LINE
  5
330
330
1B
100
AcDbEntity
  8
4
100
AcDbLine
 10
648.3274925253334
 20
879.9827264586222
 30
0.0
 11
667.738535336299
 21
879.9827264586222
 31
0.0
  0
LINE
  5
331
330
1B
100
AcDbEntity
  8
4
100
AcDbLine
 10
653.838535336299
 20
879.9827264586224
 30
0.0
 11
651.1877103927548
 21
879.9827264586224
 31
0.0
  0
LINE
  5
332
330
1B
100
AcDbEntity
  8
4
100
AcDbLine
 10
677.5106867340594
 20
901.1636572056286
 30
0.0
 11
652.6586559430646
 21
909.9827264586224
 31
0.0
  0
LINE
  5
333
330
1B
100
AcDbEntity
  8
4
100
AcDbLine
 10
663.838535336299
 20
899.9827264586224
 30
0.0
 11
651.3621470468158
 21
899.9827264586224
 31
0.0
  0
LINE
  5
334
330
1B
100
AcDbEntity
  8
4
100
AcDbLine
 10
663.838535336299
 20
889.9827264586227
 30
0.0
 11
649.9187330012808
 21
889.9827264586224
 31
0.0
  0
ARC
  5
335
330
1B
100
AcDbEntity
  8
4
100
AcDbCircle
 10
663.838535336299
 20
887.9827264586227
 30
0.0
 40
2.0
100
AcDbArc
 50
0.0
 51
90.0
  0
ARC
  5
336
330
1B
100
AcDbEntity
  8
4
100
AcDbCircle
 10
663.838535336299
 20
901.9827264586224
 30
0.0
 40
2.0
100
AcDbArc
 50
270.0
 51
0.0
  0
ARC
  5
337
330
1B
100
AcDbEntity
  8
4
100
AcDbCircle
 10
675.838535336299
 20
896.451554734017
 30
0.0
 40
5.0
100
AcDbArc
 50
0.0
 51
70.46210272969668
  0
LINE
  5
338
330
1B
100
AcDbEntity
  8
4
100
AcDbLine
 10
680.838535336299
 20
896.451554734017
 30
0.0
 11
680.8385353362994
 21
819.9827264586222
 31
0.0
  0
LINE
  5
339
330
1B
100
AcDbEntity
  8
4
100
AcDbLine
 10
653.838535336299
 20
879.9827264586222
 30
0.0
 11
653.838535336299
 21
709.9827264586222
 31
0.0
  0
LINE
  5
33A
330
1B
100
AcDbEntity
  8
4
100
AcDbLine
 10
244.1663839385385
 20
901.1636572056286
 30
0.0
 11
269.0184147295333
 21
909.9827264586224
 31
0.0
  0
LINE
  5
33B
330
1B
100
AcDbEntity
  8
4
100
AcDbLine
 10
257.8385353362989
 20
899.9827264586224
 30
0.0
 11
270.3149236257816
 21
899.9827264586224
 31
0.0
  0
LINE
  5
33C
330
1B
100
AcDbEntity
  8
4
100
AcDbLine
 10
257.8385353362985
 20
889.9827264586227
 30
0.0
 11
271.7583376713176
 21
889.9827264586224
 31
0.0
  0
ARC
  5
33D
330
1B
100
AcDbEntity
  8
4
100
AcDbCircle
 10
245.8385353362989
 20
896.451554734017
 30
0.0
 40
5.0
100
AcDbArc
 50
109.5378972703027
 51
180.0
  0
ARC
  5
33E
330
1B
100
AcDbEntity
  8
4
100
AcDbCircle
 10
257.8385353362989
 20
901.9827264586224
 30
0.0
 40
2.0
100
AcDbArc
 50
180.0
 51
270.0
  0
ARC
  5
33F
330
1B
100
AcDbEntity
  8
4
100
AcDbCircle
 10
257.8385353362985
 20
887.9827264586227
 30
0.0
 40
2.0
100
AcDbArc
 50
90.0
 51
180.0
  0
LINE
  5
340
330
1B
100
AcDbEntity
  8
4
100
AcDbLine
 10
253.9385353362989
 20
879.9827264586222
 30
0.0
 11
273.3495781472645
 21
879.9827264586222
 31
0.0
  0
CIRCLE
  5
341
330
1B
100
AcDbEntity
  8
4
100
AcDbCircle
 10
422.7187050782643
 20
768.6533172568086
 30
0.0
 40
7.5
  0
ARC
  5
342
330
1B
100
AcDbEntity
  8
4
100
AcDbCircle
 10
422.7187050782643
 20
768.63897191719
 30
0.0
 40
13.5
100
AcDbArc
 50
306.789563507821
 51
233.210436492179
  0
ARC
  5
343
330
1B
100
AcDbEntity
  8
4
100
AcDbCircle
 10
422.7187050782643
 20
749.6492877185017
 30
0.0
 40
11.5
100
AcDbArc
 50
134.6706406007723
 51
45.32935939922768
  0
CIRCLE
  5
344
330
1B
100
AcDbEntity
  8
4
100
AcDbCircle
 10
422.7187050782643
 20
749.6533172568086
 30
0.0
 40
5.5
  0
LINE
  5
345
330
1B
100
AcDbEntity
  8
4
100
AcDbLine
 10
453.2187050782643
 20
763.6533172568086
 30
0.0
 11
453.2187050782643
 21
756.6533172568086
 31
0.0
  0
LINE
  5
346
330
1B
100
AcDbEntity
  8
4
100
AcDbLine
 10
443.2187050782643
 20
763.6533172568086
 30
0.0
 11
443.2187050782643
 21
756.6533172568086
 31
0.0
  0
LINE
  5
347
330
1B
100
AcDbEntity
  8
4
100
AcDbLine
 10
453.2187050782643
 20
756.6533172568086
 30
0.0
 11
443.2187050782643
 21
756.6533172568086
 31
0.0
  0
LINE
  5
348
330
1B
100
AcDbEntity
  8
4
100
AcDbLine
 10
453.2187050782643
 20
763.6533172568086
 30
0.0
 11
443.2187050782643
 21
763.6533172568086
 31
0.0
  0
LINE
  5
34B
330
1B
100
AcDbEntity
  8
4
100
AcDbLine
 10
280.8385353362989
 20
827.1008925043118
 30
0.0
 11
274.8385353362989
 21
827.1008925043118
 31
0.0
  0
ARC
  5
34C
330
1B
100
AcDbEntity
  8
4
100
AcDbCircle
 10
290.1297599656302
 20
824.2739510879533
 30
0.0
 40
5.0
100
AcDbArc
 50
194.2187212882587
 51
255.7812787117412
  0
LINE
  5
34D
330
1B
100
AcDbEntity
  8
4
100
AcDbLine
 10
280.8385353362989
 20
762.1052140382637
 30
0.0
 11
274.8385353362989
 21
762.1052140382637
 31
0.0
  0
LINE
  5
34E
330
1B
100
AcDbEntity
  8
4
100
AcDbLine
 10
280.8385353362989
 20
762.1052140382637
 30
0.0
 11
280.8385353362989
 21
827.1008925043113
 31
0.0
  0
ARC
  5
34F
330
1B
100
AcDbEntity
  8
4
100
AcDbCircle
 10
242.8399768743714
 20
794.6030532712878
 30
0.0
 40
50.0
100
AcDbArc
 50
319.4616562984869
 51
40.53834370151315
  0
CIRCLE
  5
350
330
1B
100
AcDbEntity
  8
4
100
AcDbCircle
 10
360.8385353362989
 20
758.9827264586222
 30
0.0
 40
25.0
  0
ARC
  5
351
330
1B
100
AcDbEntity
  8
4
100
AcDbCircle
 10
460.8385353362989
 20
1497.982726458622
 30
0.0
 40
700.0
100
AcDbArc
 50
255.7812787117403
 51
284.2187212882597
  0
LINE
  5
352
330
1B
100
AcDbEntity
  8
4
100
AcDbLine
 10
240.8385353362989
 20
896.451554734017
 30
0.0
 11
240.8385353362985
 21
804.9827264586222
 31
0.0
  0
LINE
  5
353
330
1B
100
AcDbEntity
  8
4
100
AcDbLine
 10
274.8385353362989
 20
871.3744743069151
 30
0.0
 11
274.8385353362989
 21
827.1008925043118
 31
0.0
  0
LINE
  5
354
330
1B
100
AcDbEntity
  8
4
100
AcDbLine
 10
274.8385353362989
 20
762.2272034415325
 30
0.0
 11
274.8385353362989
 21
709.9827264586222
 31
0.0
  0
LINE
  5
355
330
1B
100
AcDbEntity
  8
4
100
AcDbLine
 10
267.8385353362989
 20
879.9827264586222
 30
0.0
 11
267.8385353362989
 21
709.9827264586222
 31
0.0
  0
LINE
  5
356
330
1B
100
AcDbEntity
  8
L-CENTER
 48
8.0
100
AcDbLine
 10
786.8450924069364
 20
794.9827264586222
 30
0.0
 11
134.8319782656615
 21
794.9827264586222
 31
0.0
  0
LINE
  5
357
330
1B
100
AcDbEntity
  8
4
100
AcDbLine
 10
253.9385353362989
 20
709.9827264586222
 30
0.0
 11
667.738535336299
 21
709.9827264586222
 31
0.0
  0
LINE
  5
358
330
1B
100
AcDbEntity
  8
L-CENTER
 48
8.0
100
AcDbLine
 10
671.1970633114308
 20
994.9827264586222
 30
0.0
 11
250.4800073611671
 21
994.9827264586222
 31
0.0
  0
LINE
  5
359
330
1B
100
AcDbEntity
  8
L-CENTER
 48
8.0
100
AcDbLine
 10
460.8385353362989
 20
1210.476500795136
 30
0.0
 11
460.8385353362989
 21
701.8227122544181
 31
0.0
  0
ARC
  5
35A
330
1B
100
AcDbEntity
  8
4
100
AcDbCircle
 10
963.838535336299
 20
994.9827264586222
 30
0.0
 40
700.0
100
AcDbArc
 50
165.7812787117402
 51
194.2187212882597
  0
LINE
  5
361
330
1B
100
AcDbEntity
  8
4
100
AcDbLine
 10
1293.668780632695
 20
484.1367819584912
 30
0.0
 11
1268.668780632695
 21
484.1367819584912
 31
0.0
  0
LINE
  5
362
330
1B
100
AcDbEntity
  8
4
100
AcDbLine
 10
1292.668780632695
 20
485.1367819584912
 30
0.0
 11
1293.668780632695
 21
484.1367819584912
 31
0.0
  0
LINE
  5
367
330
1B
100
AcDbEntity
  8
4
100
AcDbLine
 10
1225.668780632695
 20
484.1367819584912
 30
0.0
 11
1226.668780632695
 21
485.1367819584912
 31
0.0
  0
LINE
  5
368
330
1B
100
AcDbEntity
  8
4
100
AcDbLine
 10
1225.668780632695
 20
484.1367819584912
 30
0.0
 11
1250.668780632695
 21
484.1367819584912
 31
0.0
  0
LINE
  5
369
330
1B
100
AcDbEntity
  8
4
100
AcDbLine
 10
1292.668780632695
 20
485.1367819584912
 30
0.0
 11
1226.668780632695
 21
485.1367819584912
 31
0.0
  0
LINE
  5
371
330
1B
100
AcDbEntity
  8
4
100
AcDbLine
 10
1389.669024632695
 20
337.6367819584912
 30
0.0
 11
1375.245684632695
 21
336.1367819584912
 31
0.0
  0
CIRCLE
  5
373
330
1B
100
AcDbEntity
  8
4
100
AcDbCircle
 10
1389.669024632695
 20
355.1367819584912
 30
0.0
 40
17.5
  0
LINE
  5
374
330
1B
100
AcDbEntity
  8
4
100
AcDbLine
 10
1404.092608632695
 20
336.1367819584912
 30
0.0
 11
1375.245684632695
 21
336.1367819584912
 31
0.0
  0
LINE
  5
375
330
1B
100
AcDbEntity
  8
4
100
AcDbLine
 10
1404.092608632695
 20
336.1367819584912
 30
0.0
 11
1389.669024632695
 21
337.6367819584912
 31
0.0
  0
LINE
  5
376
330
1B
100
AcDbEntity
  8
L-CENTER
 48
8.0
100
AcDbLine
 10
1349.045000632696
 20
355.1367819584912
 30
0.0
 11
1430.293048632695
 21
355.1367819584912
 31
0.0
  0
LINE
  5
377
330
1B
100
AcDbEntity
  8
4
100
AcDbLine
 10
1453.669024632695
 20
292.1367819584912
 30
0.0
 11
1453.669024632695
 21
294.1367819584912
 31
0.0
  0
ARC
  5
378
330
1B
100
AcDbEntity
  8
4
100
AcDbCircle
 10
1452.669024632695
 20
307.536685958491
 30
0.0
 40
1.0
100
AcDbArc
 50
0.0
 51
90.0
  0
LINE
  5
379
330
1B
100
AcDbEntity
  8
4
100
AcDbLine
 10
1453.669024632695
 20
307.536685958491
 30
0.0
 11
1453.669024632695
 21
294.1367819584912
 31
0.0
  0
LINE
  5
37A
330
1B
100
AcDbEntity
  8
4
100
AcDbLine
 10
1409.669024632695
 20
317.4693019584911
 30
0.0
 11
1409.669024632695
 21
325.1367819584912
 31
0.0
  0
LINE
  5
37B
330
1B
100
AcDbEntity
  8
4
100
AcDbLine
 10
1369.669024632695
 20
325.0326099584909
 30
0.0
 11
1369.669024632695
 21
325.1367819584912
 31
0.0
  0
LINE
  5
37C
330
1B
100
AcDbEntity
  8
4
100
AcDbLine
 10
1409.669024632695
 20
325.1367819584912
 30
0.0
 11
1369.669024632695
 21
325.1367819584912
 31
0.0
  0
LINE
  5
37D
330
1B
100
AcDbEntity
  8
4
100
AcDbLine
 10
1366.103972632695
 20
325.1367819584912
 30
0.0
 11
1404.669024632695
 21
325.1367819584912
 31
0.0
  0
LINE
  5
37E
330
1B
100
AcDbEntity
  8
L-CENTER
 48
8.0
100
AcDbLine
 10
1389.669024632695
 20
395.7608059584909
 30
0.0
 11
1389.669024632695
 21
297.4109539584911
 31
0.0
  0
ARC
  5
37F
330
1B
100
AcDbEntity
  8
4
100
AcDbCircle
 10
1389.669024632695
 20
355.1367819584912
 30
0.0
 40
29.99994
100
AcDbArc
 50
299.5510209999997
 51
240.4496160000006
  0
LINE
  5
380
330
1B
100
AcDbEntity
  8
4
100
AcDbLine
 10
1374.669268632696
 20
325.1367819584912
 30
0.0
 11
1375.245684632695
 21
336.1367819584912
 31
0.0
  0
LINE
  5
381
330
1B
100
AcDbEntity
  8
4
100
AcDbLine
 10
1404.669024632695
 20
325.1367819584912
 30
0.0
 11
1404.092608632695
 21
336.1367819584912
 31
0.0
  0
LINE
  5
383
330
1B
100
AcDbEntity
  8
4
100
AcDbLine
 10
1468.169024632695
 20
208.1367819584912
 30
0.0
 11
1468.169024632695
 21
172.1367819584912
 31
0.0
  0
LINE
  5
389
330
1B
100
AcDbEntity
  8
4
100
AcDbLine
 10
1463.169024632695
 20
208.1367819584912
 30
0.0
 11
1463.169024632695
 21
172.1367819584912
 31
0.0
  0
LINE
  5
38A
330
1B
100
AcDbEntity
  8
4
100
AcDbLine
 10
1461.169024632695
 20
208.1367819584912
 30
0.0
 11
1461.169024632695
 21
172.1367819584912
 31
0.0
  0
LINE
  5
38B
330
1B
100
AcDbEntity
  8
4
100
AcDbLine
 10
1459.669024632695
 20
207.1367819584912
 30
0.0
 11
1459.669024632695
 21
173.1367819584912
 31
0.0
  0
LINE
  5
38C
330
1B
100
AcDbEntity
  8
4
100
AcDbLine
 10
1459.669024632695
 20
170.1367819584912
 30
0.0
 11
1459.669024632695
 21
210.1367819584912
 31
0.0
  0
LINE
  5
38D
330
1B
100
AcDbEntity
  8
4
100
AcDbLine
 10
1459.669024632695
 20
173.1367819584912
 30
0.0
 11
1461.169024632695
 21
173.1367819584912
 31
0.0
  0
LINE
  5
38E
330
1B
100
AcDbEntity
  8
4
100
AcDbLine
 10
1457.669024632695
 20
170.1367819584912
 30
0.0
 11
1459.669024632695
 21
170.1367819584912
 31
0.0
  0
ARC
  5
38F
330
1B
100
AcDbEntity
  8
4
100
AcDbCircle
 10
1460.669024632695
 20
187.1367819584912
 30
0.0
 40
3.000032
100
AcDbArc
 50
137.6253050000035
 51
180.0
  0
LINE
  5
390
330
1B
100
AcDbEntity
  8
4
100
AcDbLine
 10
1456.669024632695
 20
210.1367819584912
 30
0.0
 11
1459.669024632695
 21
210.1367819584912
 31
0.0
  0
LINE
  5
391
330
1B
100
AcDbEntity
  8
4
100
AcDbLine
 10
1461.169024632695
 20
207.1367819584912
 30
0.0
 11
1459.669024632695
 21
207.1367819584912
 31
0.0
  0
LINE
  5
392
330
1B
100
AcDbEntity
  8
L-CENTER
 48
8.0
100
AcDbLine
 10
1461.925520632695
 20
116.1367819584912
 30
0.0
 11
1450.609332632695
 21
116.1367819584912
 31
0.0
  0
LINE
  5
393
330
1B
100
AcDbEntity
  8
4
100
AcDbLine
 10
1457.669024632695
 20
122.7124659584911
 30
0.0
 11
1460.168928632695
 21
122.8748179584909
 31
0.0
  0
ARC
  5
394
330
1B
100
AcDbEntity
  8
4
100
AcDbCircle
 10
1404.669024632695
 20
163.283265958491
 30
0.0
 40
14.999944
100
AcDbArc
 50
30.57368000000028
 51
149.4275959999995
  0
LINE
  5
395
330
1B
100
AcDbEntity
  8
4
100
AcDbLine
 10
1456.669024632695
 20
71.13678195849116
 30
0.0
 11
1456.669024632695
 21
101.1367819584912
 31
0.0
  0
LINE
  5
396
330
1B
100
AcDbEntity
  8
4
100
AcDbLine
 10
1456.669024632695
 20
71.13678195849116
 30
0.0
 11
1454.669024632695
 21
71.13678195849116
 31
0.0
  0
ARC
  5
397
330
1B
100
AcDbEntity
  8
4
100
AcDbCircle
 10
1451.669024632695
 20
83.13678195849116
 30
0.0
 40
3.0
100
AcDbArc
 50
0.0
 51
90.0
  0
LINE
  5
398
330
1B
100
AcDbEntity
  8
4
100
AcDbLine
 10
1456.669024632695
 20
101.1367819584912
 30
0.0
 11
1457.669024632695
 21
101.1367819584912
 31
0.0
  0
LINE
  5
399
330
1B
100
AcDbEntity
  8
4
100
AcDbLine
 10
1457.669024632695
 20
109.5610979584912
 30
0.0
 11
1460.168928632695
 21
109.398745958491
 31
0.0
  0
LINE
  5
39A
330
1B
100
AcDbEntity
  8
L-CENTER
 48
8.0
100
AcDbLine
 10
1404.669024632695
 20
39.13678195849116
 30
0.0
 11
1404.669024632695
 21
98.13678195849116
 31
0.0
  0
LINE
  5
39B
330
1B
100
AcDbEntity
  8
4
100
AcDbLine
 10
1454.669024632695
 20
83.13678195849116
 30
0.0
 11
1454.669024632695
 21
51.13678195849116
 31
0.0
  0
ARC
  5
39C
330
1B
100
AcDbEntity
  8
4
100
AcDbCircle
 10
1347.669024632695
 20
83.13678195849116
 30
0.0
 40
3.0
100
AcDbArc
 50
90.0
 51
180.0
  0
ARC
  5
39D
330
1B
100
AcDbEntity
  8
4
100
AcDbCircle
 10
1357.669024632695
 20
83.13678195849116
 30
0.0
 40
3.0
100
AcDbArc
 50
90.0
 51
180.0
  0
LINE
  5
39E
330
1B
100
AcDbEntity
  8
4
100
AcDbLine
 10
1344.669024632695
 20
83.13678195849116
 30
0.0
 11
1344.669024632695
 21
51.13678195849116
 31
0.0
  0
LINE
  5
39F
330
1B
100
AcDbEntity
  8
4
100
AcDbLine
 10
1454.669024632695
 20
51.13678195849116
 30
0.0
 11
1344.669024632695
 21
51.13678195849116
 31
0.0
  0
LINE
  5
3A0
330
1B
100
AcDbEntity
  8
4
100
AcDbLine
 10
1347.669024632695
 20
86.13678195849116
 30
0.0
 11
1451.669024632695
 21
86.13678195849116
 31
0.0
  0
LINE
  5
3A1
330
1B
100
AcDbEntity
  8
4
100
AcDbLine
 10
1457.669024632695
 20
187.1367819584912
 30
0.0
 11
1457.669024632695
 21
101.1367819584912
 31
0.0
  0
ARC
  5
3A2
330
1B
100
AcDbEntity
  8
4
100
AcDbCircle
 10
1245.388996632695
 20
69.18292595849107
 30
0.0
 40
199.999908
100
AcDbArc
 50
4.862760000000098
 51
30.57395799999997
  0
LINE
  5
3A3
330
1B
100
AcDbEntity
  8
4
100
AcDbLine
 10
1354.669024632695
 20
113.8880019584908
 30
0.0
 11
1354.669024632695
 21
51.13678195849116
 31
0.0
  0
LINE
  5
3A4
330
1B
100
AcDbEntity
  8
4
100
AcDbLine
 10
1364.669024632695
 20
114.8364899584908
 30
0.0
 11
1364.669024632695
 21
86.13678195849116
 31
0.0
  0
ARC
  5
3A5
330
1B
100
AcDbEntity
  8
4
100
AcDbCircle
 10
1563.949056632695
 20
69.18292595849107
 30
0.0
 40
199.999956
100
AcDbArc
 50
149.426858
 51
175.1378030000001
  0
LINE
  5
3A6
330
1B
100
AcDbEntity
  8
4
100
AcDbLine
 10
1460.168928632695
 20
122.8748179584909
 30
0.0
 11
1460.168928632695
 21
109.398745958491
 31
0.0
  0
LINE
  5
3A7
330
1B
100
AcDbEntity
  8
L-CENTER
 48
8.0
100
AcDbLine
 10
1472.001240632695
 20
190.1367819584912
 30
0.0
 11
1437.330644632695
 21
190.1367819584912
 31
0.0
  0
LINE
  5
3A8
330
1B
100
AcDbEntity
  8
4
100
AcDbLine
 10
1463.169024632695
 20
199.1367819584912
 30
0.0
 11
1468.169024632695
 21
199.1367819584912
 31
0.0
  0
LINE
  5
3A9
330
1B
100
AcDbEntity
  8
4
100
AcDbLine
 10
1461.169024632695
 20
172.1367819584912
 30
0.0
 11
1468.169024632695
 21
172.1367819584912
 31
0.0
  0
LINE
  5
3AA
330
1B
100
AcDbEntity
  8
4
100
AcDbLine
 10
1463.169024632695
 20
181.1367819584912
 30
0.0
 11
1468.169024632695
 21
181.1367819584912
 31
0.0
  0
LINE
  5
3AB
330
1B
100
AcDbEntity
  8
4
100
AcDbLine
 10
1461.169024632695
 20
208.1367819584912
 30
0.0
 11
1468.169024632695
 21
208.1367819584912
 31
0.0
  0
LINE
  5
3AD
330
1B
100
AcDbEntity
  8
4
100
AcDbLine
 10
1456.669024632695
 20
210.1367819584912
 30
0.0
 11
1456.669024632695
 21
292.1367819584912
 31
0.0
  0
LINE
  5
3B0
330
1B
100
AcDbEntity
  8
4
100
AcDbLine
 10
1309.668780632695
 20
356.1367819584912
 30
0.0
 11
1309.668780632695
 21
355.1367819584912
 31
0.0
  0
LINE
  5
3B1
330
1B
100
AcDbEntity
  8
4
100
AcDbLine
 10
1324.669024632695
 20
355.1367819584912
 30
0.0
 11
1329.669024632695
 21
337.1367819584912
 31
0.0
  0
LINE
  5
3B2
330
1B
100
AcDbEntity
  8
4
100
AcDbLine
 10
1294.668780632695
 20
356.1367819584912
 30
0.0
 11
1294.668780632695
 21
365.1367819584912
 31
0.0
  0
ARC
  5
3B3
330
1B
100
AcDbEntity
  8
4
100
AcDbCircle
 10
1294.668780632695
 20
366.1367819584912
 30
0.0
 40
1.0
100
AcDbArc
 50
180.0
 51
270.0
  0
LINE
  5
3B4
330
1B
100
AcDbEntity
  8
4
100
AcDbLine
 10
1224.668780632695
 20
356.1367819584912
 30
0.0
 11
1224.668780632695
 21
365.1367819584912
 31
0.0
  0
LINE
  5
3B5
330
1B
100
AcDbEntity
  8
4
100
AcDbLine
 10
1209.668780632695
 20
356.1367819584912
 30
0.0
 11
1209.668780632695
 21
355.1367819584912
 31
0.0
  0
ARC
  5
3B6
330
1B
100
AcDbEntity
  8
4
100
AcDbCircle
 10
1224.668780632695
 20
366.1367819584912
 30
0.0
 40
1.0
100
AcDbArc
 50
270.0
 51
0.0
  0
LINE
  5
3B7
330
1B
100
AcDbEntity
  8
4
100
AcDbLine
 10
1209.668780632695
 20
356.1367819584912
 30
0.0
 11
1309.668780632695
 21
356.1367819584912
 31
0.0
  0
LINE
  5
3B8
330
1B
100
AcDbEntity
  8
4
100
AcDbLine
 10
1294.668780632695
 20
365.1367819584912
 30
0.0
 11
1224.668780632695
 21
365.1367819584912
 31
0.0
  0
ARC
  5
3B9
330
1B
100
AcDbEntity
  8
4
100
AcDbCircle
 10
1259.668780632695
 20
384.1367819584912
 30
0.0
 40
9.0
100
AcDbArc
 50
180.0
 51
0.0
  0
LINE
  5
3BA
330
1B
100
AcDbEntity
  8
4
100
AcDbLine
 10
1209.669024632695
 20
337.1367819584912
 30
0.0
 11
1220.669024632695
 21
308.536685958491
 31
0.0
  0
LINE
  5
3BB
330
1B
100
AcDbEntity
  8
4
100
AcDbLine
 10
1309.669024632695
 20
337.1367819584912
 30
0.0
 11
1298.669024632695
 21
308.536685958491
 31
0.0
  0
LINE
  5
3BC
330
1B
100
AcDbEntity
  8
4
100
AcDbLine
 10
1194.669024632695
 20
355.1367819584912
 30
0.0
 11
1189.669024632695
 21
337.1367819584912
 31
0.0
  0
LINE
  5
3BD
330
1B
100
AcDbEntity
  8
4
100
AcDbLine
 10
1115.245440632695
 20
336.1367819584912
 30
0.0
 11
1129.669024632695
 21
337.6367819584912
 31
0.0
  0
CIRCLE
  5
3BE
330
1B
100
AcDbEntity
  8
4
100
AcDbCircle
 10
1129.669024632695
 20
355.1367819584912
 30
0.0
 40
17.5
  0
LINE
  5
3BF
330
1B
100
AcDbEntity
  8
4
100
AcDbLine
 10
1115.245440632695
 20
336.1367819584912
 30
0.0
 11
1144.092364632695
 21
336.1367819584912
 31
0.0
  0
LINE
  5
3C0
330
1B
100
AcDbEntity
  8
4
100
AcDbLine
 10
1129.669024632695
 20
337.6367819584912
 30
0.0
 11
1144.092364632695
 21
336.1367819584912
 31
0.0
  0
LINE
  5
3C1
330
1B
100
AcDbEntity
  8
L-CENTER
 48
8.0
100
AcDbLine
 10
1170.293048632695
 20
355.1367819584912
 30
0.0
 11
1089.045000632696
 21
355.1367819584912
 31
0.0
  0
LINE
  5
3C2
330
1B
100
AcDbEntity
  8
4
100
AcDbLine
 10
1149.669024632695
 20
325.0325779584909
 30
0.0
 11
1149.669024632695
 21
325.1367819584912
 31
0.0
  0
LINE
  5
3C3
330
1B
100
AcDbEntity
  8
4
100
AcDbLine
 10
1109.669024632695
 20
317.4697899584912
 30
0.0
 11
1109.669024632695
 21
325.1367819584912
 31
0.0
  0
LINE
  5
3C4
330
1B
100
AcDbEntity
  8
4
100
AcDbLine
 10
1113.474688632695
 20
256.9214499584909
 30
0.0
 11
1120.414876632695
 21
263.8618819584913
 31
0.0
  0
LINE
  5
3C5
330
1B
100
AcDbEntity
  8
4
100
AcDbLine
 10
1113.474688632695
 20
256.9214499584909
 30
0.0
 11
1103.994220632695
 21
259.4614899584913
 31
0.0
  0
LINE
  5
3C6
330
1B
100
AcDbEntity
  8
4
100
AcDbLine
 10
1120.414876632695
 20
263.8618819584913
 30
0.0
 11
1117.874348632695
 21
273.3421059584912
 31
0.0
  0
LINE
  5
3C7
330
1B
100
AcDbEntity
  8
4
100
AcDbLine
 10
1103.994220632695
 20
259.4614899584913
 30
0.0
 11
1101.453692632695
 21
268.9422019584908
 31
0.0
  0
LINE
  5
3C8
330
1B
100
AcDbEntity
  8
L-CENTER
 48
8.0
100
AcDbLine
 10
1121.901535073012
 20
277.3692923988082
 30
0.0
 11
1099.966997464428
 21
255.4347547902235
 31
0.0
  0
CIRCLE
  5
3C9
330
1B
100
AcDbEntity
  8
4
100
AcDbCircle
 10
1110.934160632695
 20
266.4019179584911
 30
0.0
 40
8.5
  0
LINE
  5
3CA
330
1B
100
AcDbEntity
  8
4
100
AcDbLine
 10
1101.453692632695
 20
268.9422019584908
 30
0.0
 11
1108.393880632696
 21
275.8826339584912
 31
0.0
  0
LINE
  5
3CB
330
1B
100
AcDbEntity
  8
4
100
AcDbLine
 10
1117.874348632695
 20
273.3421059584912
 30
0.0
 11
1108.393880632696
 21
275.8826339584912
 31
0.0
  0
LINE
  5
3CC
330
1B
100
AcDbEntity
  8
4
100
AcDbLine
 10
1109.669024632695
 20
325.1367819584912
 30
0.0
 11
1153.234188632695
 21
325.1367819584912
 31
0.0
  0
LINE
  5
3CD
330
1B
100
AcDbEntity
  8
4
100
AcDbLine
 10
1144.668780632695
 20
325.1367819584912
 30
0.0
 11
1114.669024632695
 21
325.1367819584912
 31
0.0
  0
LINE
  5
3CE
330
1B
100
AcDbEntity
  8
L-CENTER
 48
8.0
100
AcDbLine
 10
1129.669024632695
 20
395.7608059584909
 30
0.0
 11
1129.669024632695
 21
297.4109539584911
 31
0.0
  0
ARC
  5
3CF
330
1B
100
AcDbEntity
  8
4
100
AcDbCircle
 10
1129.669024632695
 20
355.1367819584912
 30
0.0
 40
30.000044
100
AcDbArc
 50
299.5514259999994
 51
240.4502509999994
  0
LINE
  5
3D0
330
1B
100
AcDbEntity
  8
4
100
AcDbLine
 10
1110.135304912583
 20
310.9419426495705
 30
0.0
 11
1189.669024632695
 21
337.1367819584912
 31
0.0
  0
LINE
  5
3D1
330
1B
100
AcDbEntity
  8
4
100
AcDbLine
 10
1114.669024632695
 20
325.1367819584912
 30
0.0
 11
1115.245440632695
 21
336.1367819584912
 31
0.0
  0
LINE
  5
3D2
330
1B
100
AcDbEntity
  8
4
100
AcDbLine
 10
1144.668780632695
 20
325.1367819584912
 30
0.0
 11
1144.092364632695
 21
336.1367819584912
 31
0.0
  0
LINE
  5
3D3
330
1B
100
AcDbEntity
  8
4
100
AcDbLine
 10
1194.669024632695
 20
355.1367819584912
 30
0.0
 11
1324.669024632695
 21
355.1367819584912
 31
0.0
  0
LINE
  5
3D4
330
1B
100
AcDbEntity
  8
4
100
AcDbLine
 10
1189.669024632695
 20
337.1367819584912
 30
0.0
 11
1329.669024632695
 21
337.1367819584912
 31
0.0
  0
LINE
  5
3D5
330
1B
100
AcDbEntity
  8
4
100
AcDbLine
 10
1218.545244632695
 20
291.1367819584912
 30
0.0
 11
1097.734700632695
 21
291.1367819584912
 31
0.0
  0
LINE
  5
3D6
330
1B
100
AcDbEntity
  8
4
100
AcDbLine
 10
1320.669024632695
 20
80.13678195849116
 30
0.0
 11
1315.669024632695
 21
75.13678195849116
 31
0.0
  0
LINE
  5
3D7
330
1B
100
AcDbEntity
  8
4
100
AcDbLine
 10
1300.669024632695
 20
80.13678195849116
 30
0.0
 11
1315.669024632695
 21
95.13678195849116
 31
0.0
  0
LINE
  5
3D8
330
1B
100
AcDbEntity
  8
4
100
AcDbLine
 10
1218.669024632695
 20
80.13678195849116
 30
0.0
 11
1203.669024632695
 21
95.13678195849116
 31
0.0
  0
LINE
  5
3D9
330
1B
100
AcDbEntity
  8
4
100
AcDbLine
 10
1315.669024632695
 20
75.13678195849116
 30
0.0
 11
1203.669024632695
 21
75.13678195849116
 31
0.0
  0
LINE
  5
3DA
330
1B
100
AcDbEntity
  8
4
100
AcDbLine
 10
1120.414632632695
 20
166.411681958491
 30
0.0
 11
1113.474444632695
 21
173.3521139584909
 31
0.0
  0
LINE
  5
3DB
330
1B
100
AcDbEntity
  8
4
100
AcDbLine
 10
1113.474444632695
 20
173.3521139584909
 30
0.0
 11
1103.993976632695
 21
170.8118299584912
 31
0.0
  0
LINE
  5
3DC
330
1B
100
AcDbEntity
  8
4
100
AcDbLine
 10
1117.874104632695
 20
156.9312139584908
 30
0.0
 11
1108.393636632695
 21
154.3909339584911
 31
0.0
  0
LINE
  5
3DD
330
1B
100
AcDbEntity
  8
4
100
AcDbLine
 10
1097.784504632695
 20
139.161681958491
 30
0.0
 11
1129.669024632695
 21
139.161681958491
 31
0.0
  0
LINE
  5
3DE
330
1B
100
AcDbEntity
  8
4
100
AcDbLine
 10
1108.393636632695
 20
154.3909339584911
 30
0.0
 11
1101.453448632695
 21
161.331361958491
 31
0.0
  0
LINE
  5
3DF
330
1B
100
AcDbEntity
  8
4
100
AcDbLine
 10
1103.993976632695
 20
170.8118299584912
 30
0.0
 11
1101.453448632695
 21
161.331361958491
 31
0.0
  0
LINE
  5
3E0
330
1B
100
AcDbEntity
  8
L-CENTER
 48
8.0
100
AcDbLine
 10
1121.901534866026
 20
152.9042713111878
 30
0.0
 11
1099.966999390461
 21
174.8388110527924
 31
0.0
  0
CIRCLE
  5
3E1
330
1B
100
AcDbEntity
  8
4
100
AcDbCircle
 10
1110.934160632695
 20
163.8716459584912
 30
0.0
 40
8.5
  0
LINE
  5
3E2
330
1B
100
AcDbEntity
  8
4
100
AcDbLine
 10
1120.414632632695
 20
166.411681958491
 30
0.0
 11
1117.874104632695
 21
156.9312139584908
 31
0.0
  0
ARC
  5
3E3
330
1B
100
AcDbEntity
  8
4
100
AcDbCircle
 10
1129.669024632695
 20
114.161681958491
 30
0.0
 40
25.0
100
AcDbArc
 50
0.0
 51
90.0
  0
LINE
  5
3E4
330
1B
100
AcDbEntity
  8
4
100
AcDbLine
 10
1198.669024632695
 20
95.13678195849116
 30
0.0
 11
1174.669024632695
 21
71.13678195849116
 31
0.0
  0
ARC
  5
3E5
330
1B
100
AcDbEntity
  8
4
100
AcDbCircle
 10
1171.669024632695
 20
83.13678195849116
 30
0.0
 40
3.0
100
AcDbArc
 50
0.0
 51
90.0
  0
ARC
  5
3E6
330
1B
100
AcDbEntity
  8
4
100
AcDbCircle
 10
1161.669024632695
 20
83.13678195849116
 30
0.0
 40
3.0
100
AcDbArc
 50
0.0
 51
90.0
  0
LINE
  5
3E7
330
1B
100
AcDbEntity
  8
4
100
AcDbLine
 10
1174.669024632695
 20
83.13678195849116
 30
0.0
 11
1174.669024632695
 21
51.13678195849116
 31
0.0
  0
LINE
  5
3E8
330
1B
100
AcDbEntity
  8
L-CENTER
 48
8.0
100
AcDbLine
 10
1114.669024632695
 20
39.13678195849116
 30
0.0
 11
1114.669024632695
 21
98.13678195849116
 31
0.0
  0
LINE
  5
3E9
330
1B
100
AcDbEntity
  8
4
100
AcDbLine
 10
1164.669024632695
 20
114.4592899584909
 30
0.0
 11
1164.669024632695
 21
51.13678195849116
 31
0.0
  0
LINE
  5
3EA
330
1B
100
AcDbEntity
  8
4
100
AcDbLine
 10
1154.669024632695
 20
86.13678195849116
 30
0.0
 11
1154.669024632695
 21
114.161681958491
 31
0.0
  0
LINE
  5
3EB
330
1B
100
AcDbEntity
  8
4
100
AcDbLine
 10
1320.668536632695
 20
95.13678195849116
 30
0.0
 11
1198.669024632695
 21
95.13678195849116
 31
0.0
  0
LINE
  5
3EC
330
1B
100
AcDbEntity
  8
4
100
AcDbLine
 10
1183.669024632695
 20
80.13678195849116
 30
0.0
 11
1218.669024632695
 21
80.13678195849116
 31
0.0
  0
LINE
  5
3ED
330
1B
100
AcDbEntity
  8
4
100
AcDbLine
 10
1198.669024632695
 20
80.13678195849116
 30
0.0
 11
1203.669024632695
 21
75.13678195849116
 31
0.0
  0
LINE
  5
3EE
330
1B
100
AcDbEntity
  8
4
100
AcDbLine
 10
1320.668536632695
 20
95.13678195849116
 30
0.0
 11
1344.669024632695
 21
71.13629395849102
 31
0.0
  0
LINE
  5
3EF
330
1B
100
AcDbEntity
  8
4
100
AcDbLine
 10
1335.668536632695
 20
80.13678195849116
 30
0.0
 11
1300.669024632695
 21
80.13678195849116
 31
0.0
  0
LINE
  5
3F0
330
1B
100
AcDbEntity
  8
4
100
AcDbLine
 10
1091.037676632695
 20
294.1367819584912
 30
0.0
 11
1453.669024632695
 21
294.1367819584912
 31
0.0
  0
LINE
  5
3F1
330
1B
100
AcDbEntity
  8
4
100
AcDbLine
 10
1095.669024632695
 20
292.1367819584912
 30
0.0
 11
1456.669024632695
 21
292.1367819584912
 31
0.0
  0
LINE
  5
3F2
330
1B
100
AcDbEntity
  8
4
100
AcDbLine
 10
1409.202744352807
 20
310.9420265928809
 30
0.0
 11
1329.669024632695
 21
337.1367819584912
 31
0.0
  0
LINE
  5
3F4
330
1B
100
AcDbEntity
  8
L-CENTER
 48
8.0
100
AcDbLine
 10
1259.669024632695
 20
64.93839329242792
 30
0.0
 11
1259.669024632695
 21
494.0038855672897
 31
0.0
  0
LINE
  5
3F5
330
1B
100
AcDbEntity
  8
4
100
AcDbLine
 10
1225.668780632695
 20
366.1367819584912
 30
0.0
 11
1225.668780632695
 21
484.1367819584912
 31
0.0
  0
LINE
  5
3F6
330
1B
100
AcDbEntity
  8
4
100
AcDbLine
 10
1250.668780632695
 20
384.1367819584912
 30
0.0
 11
1250.668780632695
 21
485.1367819584912
 31
0.0
  0
LINE
  5
3F7
330
1B
100
AcDbEntity
  8
4
100
AcDbLine
 10
1268.668780632695
 20
384.1367819584912
 30
0.0
 11
1268.668780632695
 21
485.1367819584912
 31
0.0
  0
LINE
  5
3F8
330
1B
100
AcDbEntity
  8
4
100
AcDbLine
 10
1293.668780632695
 20
366.1367819584912
 30
0.0
 11
1293.668780632695
 21
484.1367819584912
 31
0.0
  0
LINE
  5
407
330
1B
100
AcDbEntity
  8
4
100
AcDbLine
 10
494.8380473362988
 20
484.137025958491
 30
0.0
 11
493.8380473362988
 21
485.137025958491
 31
0.0
  0
ARC
  5
409
330
1B
100
AcDbEntity
  8
4
100
AcDbCircle
 10
1066.669024632695
 20
307.536685958491
 30
0.0
 40
1.0
100
AcDbArc
 50
90.0
 51
180.0
  0
LINE
  5
40A
330
1B
100
AcDbEntity
  8
4
100
AcDbLine
 10
1065.669024632695
 20
299.9248699584909
 30
0.0
 11
1065.669024632695
 21
307.536685958491
 31
0.0
  0
LINE
  5
40B
330
1B
100
AcDbEntity
  8
4
100
AcDbLine
 10
1059.669024632695
 20
233.6367819584912
 30
0.0
 11
1053.669024632695
 21
233.6367819584912
 31
0.0
  0
LINE
  5
40C
330
1B
100
AcDbEntity
  8
4
100
AcDbLine
 10
1059.669024632695
 20
241.6367819584912
 30
0.0
 11
1053.669024632695
 21
241.6367819584912
 31
0.0
  0
LINE
  5
40D
330
1B
100
AcDbEntity
  8
4
100
AcDbLine
 10
1053.669024632695
 20
241.6367819584912
 30
0.0
 11
1053.669024632695
 21
233.6367819584912
 31
0.0
  0
LINE
  5
40E
330
1B
100
AcDbEntity
  8
4
100
AcDbLine
 10
1065.669024632695
 20
241.6367819584912
 30
0.0
 11
1065.669024632695
 21
233.6367819584912
 31
0.0
  0
LINE
  5
40F
330
1B
100
AcDbEntity
  8
4
100
AcDbLine
 10
1059.669024632695
 20
233.6367819584912
 30
0.0
 11
1065.669024632695
 21
233.6367819584912
 31
0.0
  0
LINE
  5
410
330
1B
100
AcDbEntity
  8
4
100
AcDbLine
 10
1059.669024632695
 20
241.6367819584912
 30
0.0
 11
1065.669024632695
 21
241.6367819584912
 31
0.0
  0
LINE
  5
411
330
1B
100
AcDbEntity
  8
4
100
AcDbLine
 10
1017.878740632695
 20
268.9365859584909
 30
0.0
 11
1015.338216632695
 21
259.4561179584912
 31
0.0
  0
LINE
  5
412
330
1B
100
AcDbEntity
  8
4
100
AcDbLine
 10
1015.338216632695
 20
259.4561179584912
 30
0.0
 11
1005.857744632695
 21
256.915833958491
 31
0.0
  0
LINE
  5
413
330
1B
100
AcDbEntity
  8
4
100
AcDbLine
 10
1017.878740632695
 20
268.9365859584909
 30
0.0
 11
1010.938556632695
 21
275.8770179584913
 31
0.0
  0
LINE
  5
414
330
1B
100
AcDbEntity
  8
4
100
AcDbLine
 10
998.6690246326953
 20
287.4019179584911
 30
0.0
 11
998.6690246326953
 21
294.1367819584912
 31
0.0
  0
ARC
  5
415
330
1B
100
AcDbEntity
  8
4
100
AcDbCircle
 10
983.9790846326955
 20
280.3157379584909
 30
0.0
 40
5.000032
100
AcDbArc
 50
98.79679200000551
 51
172.4329050000003
  0
LINE
  5
416
330
1B
100
AcDbEntity
  8
4
100
AcDbLine
 10
1001.458088632695
 20
273.3367339584911
 30
0.0
 11
998.9175606326953
 21
263.8562659584909
 31
0.0
  0
LINE
  5
417
330
1B
100
AcDbEntity
  8
4
100
AcDbLine
 10
1005.857744632695
 20
256.915833958491
 30
0.0
 11
998.9175606326953
 21
263.8562659584909
 31
0.0
  0
LINE
  5
418
330
1B
100
AcDbEntity
  8
L-CENTER
 48
8.0
100
AcDbLine
 10
997.4252842755936
 20
277.3580589416983
 30
0.0
 11
1019.371172632695
 21
255.4348779584911
 31
0.0
  0
CIRCLE
  5
419
330
1B
100
AcDbEntity
  8
4
100
AcDbCircle
 10
1008.398272632695
 20
266.3965499584911
 30
0.0
 40
8.5
  0
ARC
  5
41A
330
1B
100
AcDbEntity
  8
4
100
AcDbCircle
 10
1059.669024632695
 20
-208.8632180415088
 30
0.0
 40
500.0000440000001
100
AcDbArc
 50
94.73870800000003
 51
98.79572599999999
  0
LINE
  5
41B
330
1B
100
AcDbEntity
  8
4
100
AcDbLine
 10
1010.938556632695
 20
275.8770179584913
 30
0.0
 11
1001.458088632695
 21
273.3367339584911
 31
0.0
  0
LINE
  5
41C
330
1B
100
AcDbEntity
  8
4
100
AcDbLine
 10
1028.300372632695
 20
294.1367819584912
 30
0.0
 11
998.6690246326953
 21
294.1367819584912
 31
0.0
  0
LINE
  5
41E
330
1B
100
AcDbEntity
  8
4
100
AcDbLine
 10
780.838535336299
 20
237.1367819584912
 30
0.0
 11
779.838535336299
 21
238.1367819584912
 31
0.0
  0
LINE
  5
420
330
1B
100
AcDbEntity
  8
4
100
AcDbLine
 10
1015.338460632695
 20
170.8172019584908
 30
0.0
 11
1005.857988632695
 21
173.3577299584908
 31
0.0
  0
ARC
  5
421
330
1B
100
AcDbEntity
  8
4
100
AcDbCircle
 10
1049.669024632695
 20
124.2339499584909
 30
0.0
 40
14.999956
100
AcDbArc
 50
0.0
 51
23.51830999999918
  0
LINE
  5
422
330
1B
100
AcDbEntity
  8
4
100
AcDbLine
 10
1010.938800632695
 20
154.3965459584911
 30
0.0
 11
1017.878984632695
 21
161.3369779584909
 31
0.0
  0
LINE
  5
423
330
1B
100
AcDbEntity
  8
4
100
AcDbLine
 10
1017.878984632695
 20
161.3369779584909
 30
0.0
 11
1015.338460632695
 21
170.8172019584908
 31
0.0
  0
ARC
  5
424
330
1B
100
AcDbEntity
  8
4
100
AcDbCircle
 10
983.9790846326955
 20
149.957825958491
 30
0.0
 40
5.000032
100
AcDbArc
 50
187.5670949999997
 51
261.2032079999945
  0
LINE
  5
425
330
1B
100
AcDbEntity
  8
4
100
AcDbLine
 10
1001.458332632695
 20
156.9365859584909
 30
0.0
 11
998.9178046326952
 21
166.417297958491
 31
0.0
  0
LINE
  5
426
330
1B
100
AcDbEntity
  8
4
100
AcDbLine
 10
998.9178046326952
 20
166.417297958491
 30
0.0
 11
1005.857988632695
 21
173.3577299584908
 31
0.0
  0
LINE
  5
427
330
1B
100
AcDbEntity
  8
L-CENTER
 48
8.0
100
AcDbLine
 10
997.4252842755936
 20
152.9155049752841
 30
0.0
 11
1019.371172632695
 21
174.8386859584912
 31
0.0
  0
CIRCLE
  5
428
330
1B
100
AcDbEntity
  8
4
100
AcDbCircle
 10
1008.398272632695
 20
163.8770139584913
 30
0.0
 40
8.5
  0
LINE
  5
429
330
1B
100
AcDbEntity
  8
4
100
AcDbLine
 10
1010.938800632695
 20
154.3965459584911
 30
0.0
 11
1001.458332632695
 21
156.9365859584909
 31
0.0
  0
ARC
  5
42A
330
1B
100
AcDbEntity
  8
4
100
AcDbCircle
 10
1059.669024632695
 20
639.1367819584912
 30
0.0
 40
500.000072
100
AcDbArc
 50
261.205125
 51
265.262359
  0
ARC
  5
42B
330
1B
100
AcDbEntity
  8
4
100
AcDbCircle
 10
1067.669024632695
 20
83.13678195849116
 30
0.0
 40
3.0
100
AcDbArc
 50
90.0
 51
180.0
  0
LINE
  5
42C
330
1B
100
AcDbEntity
  8
4
100
AcDbLine
 10
1064.669024632695
 20
124.2339499584909
 30
0.0
 11
1064.669024632695
 21
51.13678195849116
 31
0.0
  0
LINE
  5
42D
330
1B
100
AcDbEntity
  8
4
100
AcDbLine
 10
779.838535336299
 20
192.1367819584912
 30
0.0
 11
780.838535336299
 21
193.1367819584912
 31
0.0
  0
LINE
  5
42E
330
1B
100
AcDbEntity
  8
4
100
AcDbLine
 10
780.838535336299
 20
241.6367819584912
 30
0.0
 11
780.838535336299
 21
193.1367819584912
 31
0.0
  0
LINE
  5
42F
330
1B
100
AcDbEntity
  8
4
100
AcDbLine
 10
779.838535336299
 20
192.1367819584912
 30
0.0
 11
779.838535336299
 21
238.1367819584912
 31
0.0
  0
ARC
  5
430
330
1B
100
AcDbEntity
  8
4
100
AcDbCircle
 10
1474.669024632695
 20
215.1367819584912
 30
0.0
 40
499.99996
100
AcDbArc
 50
172.434238
 51
187.566724
  0
LINE
  5
431
330
1B
100
AcDbEntity
  8
L-CENTER
 48
8.0
100
AcDbLine
 10
1059.669024632695
 20
120.3511379584911
 30
0.0
 11
1059.669024632695
 21
309.9224259584912
 31
0.0
  0
ARC
  5
434
330
1B
100
AcDbEntity
  8
4
100
AcDbCircle
 10
681.838535336299
 20
239.1367819584912
 30
0.0
 40
1.0
100
AcDbArc
 50
180.0
 51
270.0
  0
LINE
  5
435
330
1B
100
AcDbEntity
  8
4
100
AcDbLine
 10
690.838535336299
 20
241.6367819584912
 30
0.0
 11
690.838535336299
 21
238.1367819584912
 31
0.0
  0
LINE
  5
437
330
1B
100
AcDbEntity
  8
4
100
AcDbLine
 10
666.7384393362993
 20
300.1367819584912
 30
0.0
 11
653.838535336299
 21
300.1367819584912
 31
0.0
  0
ARC
  5
438
330
1B
100
AcDbEntity
  8
4
100
AcDbCircle
 10
653.838535336299
 20
307.536685958491
 30
0.0
 40
1.0
100
AcDbArc
 50
0.0
 51
90.0
  0
LINE
  5
439
330
1B
100
AcDbEntity
  8
4
100
AcDbLine
 10
654.838535336299
 20
300.1367819584912
 30
0.0
 11
654.838535336299
 21
307.536685958491
 31
0.0
  0
ARC
  5
43A
330
1B
100
AcDbEntity
  8
4
100
AcDbCircle
 10
666.7384393362993
 20
299.1367819584912
 30
0.0
 40
1.0
100
AcDbArc
 50
0.0
 51
90.0
  0
LINE
  5
43B
330
1B
100
AcDbEntity
  8
4
100
AcDbLine
 10
640.8385353362994
 20
300.136781958491
 30
0.0
 11
653.838535336299
 21
300.1367819584912
 31
0.0
  0
LINE
  5
43C
330
1B
100
AcDbEntity
  8
4
100
AcDbLine
 10
667.7384393362993
 20
251.1367819584912
 30
0.0
 11
668.7384393362993
 21
251.1367819584912
 31
0.0
  0
LINE
  5
43D
330
1B
100
AcDbEntity
  8
4
100
AcDbLine
 10
680.838535336299
 20
240.1367819584912
 30
0.0
 11
668.7384393362993
 21
240.1367819584912
 31
0.0
  0
LINE
  5
43E
330
1B
100
AcDbEntity
  8
4
100
AcDbLine
 10
525.838535336299
 20
355.1367819584912
 30
0.0
 11
530.838535336299
 21
337.1367819584912
 31
0.0
  0
LINE
  5
43F
330
1B
100
AcDbEntity
  8
4
100
AcDbLine
 10
495.8380473362988
 20
356.137025958491
 30
0.0
 11
495.8380473362988
 21
365.137025958491
 31
0.0
  0
LINE
  5
440
330
1B
100
AcDbEntity
  8
4
100
AcDbLine
 10
510.8380473362988
 20
356.137025958491
 30
0.0
 11
510.8380473362988
 21
355.137025958491
 31
0.0
  0
ARC
  5
441
330
1B
100
AcDbEntity
  8
4
100
AcDbCircle
 10
495.8380473362988
 20
366.137025958491
 30
0.0
 40
1.0
100
AcDbArc
 50
180.0
 51
270.0
  0
LINE
  5
442
330
1B
100
AcDbEntity
  8
4
100
AcDbLine
 10
494.8380473362988
 20
375.137025958491
 30
0.0
 11
500.8380473362988
 21
375.137025958491
 31
0.0
  0
LINE
  5
443
330
1B
100
AcDbEntity
  8
4
100
AcDbLine
 10
510.8385353362989
 20
337.1367819584912
 30
0.0
 11
499.8385353362989
 21
308.536685958491
 31
0.0
  0
LINE
  5
444
330
1B
100
AcDbEntity
  8
4
100
AcDbLine
 10
617.681799336299
 20
308.536685958491
 30
0.0
 11
530.838535336299
 21
337.1367819584912
 31
0.0
  0
ARC
  5
445
330
1B
100
AcDbEntity
  8
4
100
AcDbCircle
 10
681.838535336299
 20
191.1367819584912
 30
0.0
 40
1.0
100
AcDbArc
 50
90.0
 51
180.0
  0
LINE
  5
446
330
1B
100
AcDbEntity
  8
4
100
AcDbLine
 10
667.7384393362993
 20
179.1367819584912
 30
0.0
 11
668.7384393362993
 21
179.1367819584912
 31
0.0
  0
LINE
  5
447
330
1B
100
AcDbEntity
  8
4
100
AcDbLine
 10
666.7384393362993
 20
130.1367819584912
 30
0.0
 11
653.838535336299
 21
130.1367819584912
 31
0.0
  0
ARC
  5
448
330
1B
100
AcDbEntity
  8
4
100
AcDbCircle
 10
666.7384393362993
 20
131.1367819584912
 30
0.0
 40
1.0
100
AcDbArc
 50
270.0
 51
0.0
  0
LINE
  5
449
330
1B
100
AcDbEntity
  8
4
100
AcDbLine
 10
640.8385353362994
 20
130.1367819584912
 30
0.0
 11
653.838535336299
 21
130.1367819584912
 31
0.0
  0
LINE
  5
44A
330
1B
100
AcDbEntity
  8
4
100
AcDbLine
 10
680.838535336299
 20
190.1367819584912
 30
0.0
 11
668.7384393362993
 21
190.1367819584912
 31
0.0
  0
LINE
  5
44B
330
1B
100
AcDbEntity
  8
4
100
AcDbLine
 10
680.838535336299
 20
83.13678195849116
 30
0.0
 11
680.838535336299
 21
51.13678195849116
 31
0.0
  0
ARC
  5
44C
330
1B
100
AcDbEntity
  8
4
100
AcDbCircle
 10
612.2516233362992
 20
82.95782595849096
 30
0.0
 40
4.867612
100
AcDbArc
 50
308.2787669999985
 51
40.77366400000033
  0
ARC
  5
44D
330
1B
100
AcDbEntity
  8
4
100
AcDbCircle
 10
612.2516233362992
 20
82.95782595849096
 30
0.0
 40
4.867612
100
AcDbArc
 50
308.2787669999985
 51
40.77366400000033
  0
LINE
  5
44F
330
1B
100
AcDbEntity
  8
L-CENTER
 48
8.0
100
AcDbLine
 10
645.838535336299
 20
39.13678195849116
 30
0.0
 11
645.838535336299
 21
98.13678195849116
 31
0.0
  0
LINE
  5
450
330
1B
100
AcDbEntity
  8
4
100
AcDbLine
 10
656.838535336299
 20
51.13678195849116
 30
0.0
 11
656.838535336299
 21
86.13678195849116
 31
0.0
  0
LINE
  5
451
330
1B
100
AcDbEntity
  8
4
100
AcDbLine
 10
634.838535336299
 20
51.13678195849116
 30
0.0
 11
634.838535336299
 21
86.13678195849116
 31
0.0
  0
ARC
  5
452
330
1B
100
AcDbEntity
  8
4
100
AcDbCircle
 10
677.838535336299
 20
83.13678195849116
 30
0.0
 40
3.0
100
AcDbArc
 50
0.0
 51
90.0
  0
LINE
  5
453
330
1B
100
AcDbEntity
  8
4
100
AcDbLine
 10
647.838535336299
 20
130.1367819584912
 30
0.0
 11
647.838535336299
 21
86.13678195849116
 31
0.0
  0
LINE
  5
454
330
1B
100
AcDbEntity
  8
4
100
AcDbLine
 10
657.838535336299
 20
99.99322595849117
 30
0.0
 11
657.838535336299
 21
130.1367819584912
 31
0.0
  0
LINE
  5
455
330
1B
100
AcDbEntity
  8
4
100
AcDbLine
 10
647.838535336299
 20
117.3137819584908
 30
0.0
 11
665.838535336299
 21
86.13678195849116
 31
0.0
  0
ARC
  5
456
330
1B
100
AcDbEntity
  8
4
100
AcDbCircle
 10
616.9410753362993
 20
61.3157379584909
 30
0.0
 40
4.867612
100
AcDbArc
 50
128.2787670000048
 51
220.7736559999969
  0
ARC
  5
457
330
1B
100
AcDbEntity
  8
4
100
AcDbCircle
 10
616.9410753362993
 20
61.3157379584909
 30
0.0
 40
4.867612
100
AcDbArc
 50
128.2787670000048
 51
220.7736559999969
  0
LINE
  5
458
330
1B
100
AcDbEntity
  8
4
100
AcDbLine
 10
540.838535336299
 20
76.13629395849102
 30
0.0
 11
521.8380473362988
 21
95.13678195849116
 31
0.0
  0
LINE
  5
459
330
1B
100
AcDbEntity
  8
4
100
AcDbLine
 10
521.838535336299
 20
80.13678195849116
 30
0.0
 11
516.838535336299
 21
75.13678195849116
 31
0.0
  0
ARC
  5
45A
330
1B
100
AcDbEntity
  8
4
100
AcDbCircle
 10
543.838535336299
 20
83.13678195849116
 30
0.0
 40
3.0
100
AcDbArc
 50
90.0
 51
180.0
  0
LINE
  5
45B
330
1B
100
AcDbEntity
  8
4
100
AcDbLine
 10
501.8385353362989
 20
80.13678195849116
 30
0.0
 11
516.838535336299
 21
95.13678195849116
 31
0.0
  0
LINE
  5
45C
330
1B
100
AcDbEntity
  8
4
100
AcDbLine
 10
536.8380473362988
 20
80.13678195849116
 30
0.0
 11
501.8385353362989
 21
80.13678195849116
 31
0.0
  0
LINE
  5
45D
330
1B
100
AcDbEntity
  8
4
100
AcDbLine
 10
540.838535336299
 20
83.13678195849116
 30
0.0
 11
540.838535336299
 21
51.13678195849116
 31
0.0
  0
LINE
  5
45E
330
1B
100
AcDbEntity
  8
4
100
AcDbLine
 10
595.838535336299
 20
139.1367819584912
 30
0.0
 11
595.838535336299
 21
86.13678195849116
 31
0.0
  0
LINE
  5
45F
330
1B
100
AcDbEntity
  8
4
100
AcDbLine
 10
677.838535336299
 20
86.13678195849116
 30
0.0
 11
543.838535336299
 21
86.13678195849116
 31
0.0
  0
LINE
  5
460
330
1B
100
AcDbEntity
  8
4
100
AcDbLine
 10
540.838535336299
 20
51.13678195849116
 30
0.0
 11
680.838535336299
 21
51.13678195849116
 31
0.0
  0
ARC
  5
461
330
1B
100
AcDbEntity
  8
4
100
AcDbCircle
 10
618.2826273362991
 20
75.3157379584909
 30
0.0
 40
4.867612
100
AcDbArc
 50
128.2787669999986
 51
220.7736559999969
  0
ARC
  5
462
330
1B
100
AcDbEntity
  8
4
100
AcDbCircle
 10
618.2826273362991
 20
75.3157379584909
 30
0.0
 40
4.867612
100
AcDbArc
 50
128.2787669999986
 51
220.7736559999969
  0
ARC
  5
463
330
1B
100
AcDbEntity
  8
4
100
AcDbCircle
 10
609.568515336299
 20
54.95782595849096
 30
0.0
 40
4.867612
100
AcDbArc
 50
308.2787669999981
 51
40.77366400000033
  0
ARC
  5
464
330
1B
100
AcDbEntity
  8
4
100
AcDbCircle
 10
609.568515336299
 20
54.95782595849096
 30
0.0
 40
4.867612
100
AcDbArc
 50
308.2787669999981
 51
40.77366400000033
  0
ARC
  5
465
330
1B
100
AcDbEntity
  8
4
100
AcDbCircle
 10
610.9100713362989
 20
68.95782595849096
 30
0.0
 40
4.867612
100
AcDbArc
 50
308.2787670000048
 51
40.77366400000033
  0
ARC
  5
466
330
1B
100
AcDbEntity
  8
4
100
AcDbCircle
 10
610.9100713362989
 20
68.95782595849096
 30
0.0
 40
4.867612
100
AcDbArc
 50
308.2787670000048
 51
40.77366400000033
  0
LINE
  5
467
330
1B
100
AcDbEntity
  8
4
100
AcDbLine
 10
653.838535336299
 20
300.1367819584912
 30
0.0
 11
653.838535336299
 21
130.1367819584912
 31
0.0
  0
LINE
  5
468
330
1B
100
AcDbEntity
  8
4
100
AcDbLine
 10
653.838535336299
 20
130.1367819584912
 30
0.0
 11
653.838535336299
 21
300.1367819584912
 31
0.0
  0
LINE
  5
469
330
1B
100
AcDbEntity
  8
4
100
AcDbLine
 10
646.838535336299
 20
289.1367819584912
 30
0.0
 11
646.838535336299
 21
141.1367819584912
 31
0.0
  0
LINE
  5
46A
330
1B
100
AcDbEntity
  8
4
100
AcDbLine
 10
667.7384393362993
 20
131.1367819584912
 30
0.0
 11
667.7384393362993
 21
299.1367819584912
 31
0.0
  0
LINE
  5
46B
330
1B
100
AcDbEntity
  8
4
100
AcDbLine
 10
668.7384393362993
 20
179.1367819584912
 30
0.0
 11
668.7384393362993
 21
251.1367819584912
 31
0.0
  0
LINE
  5
46C
330
1B
100
AcDbEntity
  8
4
100
AcDbLine
 10
680.838535336299
 20
190.1367819584912
 30
0.0
 11
680.838535336299
 21
240.1367819584912
 31
0.0
  0
LINE
  5
46D
330
1B
100
AcDbEntity
  8
4
100
AcDbLine
 10
681.838535336299
 20
192.1367819584912
 30
0.0
 11
779.838535336299
 21
192.1367819584912
 31
0.0
  0
LINE
  5
46E
330
1B
100
AcDbEntity
  8
4
100
AcDbLine
 10
681.838535336299
 20
238.1367819584912
 30
0.0
 11
779.838535336299
 21
238.1367819584912
 31
0.0
  0
LINE
  5
46F
330
1B
100
AcDbEntity
  8
4
100
AcDbLine
 10
780.838535336299
 20
241.6367819584912
 30
0.0
 11
690.838535336299
 21
241.6367819584912
 31
0.0
  0
LINE
  5
471
330
1B
100
AcDbEntity
  8
4
100
AcDbLine
 10
494.8380473362988
 20
366.137025958491
 30
0.0
 11
494.8380473362988
 21
484.137025958491
 31
0.0
  0
LINE
  5
472
330
1B
100
AcDbEntity
  8
4
100
AcDbLine
 10
500.8380473362988
 20
485.137025958491
 30
0.0
 11
500.8380473362988
 21
375.137025958491
 31
0.0
  0
LINE
  5
478
330
1B
100
AcDbEntity
  8
4
100
AcDbLine
 10
1064.669024632695
 20
51.13678195849116
 30
0.0
 11
1174.669024632695
 21
51.13678195849116
 31
0.0
  0
LINE
  5
479
330
1B
100
AcDbEntity
  8
4
100
AcDbLine
 10
1171.669024632695
 20
86.13678195849116
 30
0.0
 11
1067.669024632695
 21
86.13678195849116
 31
0.0
  0
LINE
  5
47A
330
1B
100
AcDbEntity
  8
4
100
AcDbLine
 10
1452.669024632695
 20
308.536685958491
 30
0.0
 11
1066.669024632695
 21
308.536685958491
 31
0.0
  0
LINE
  5
47B
330
1B
100
AcDbEntity
  8
L-CENTER
 48
8.0
100
AcDbLine
 10
1460.332204559739
 20
215.1367819584912
 30
0.0
 11
964.8833806326952
 21
215.1367819584912
 31
0.0
  0
CIRCLE
  5
47C
330
1B
100
AcDbEntity
  8
4
100
AcDbCircle
 10
1059.669024632695
 20
215.1367819584912
 30
0.0
 40
85.0
  0
CIRCLE
  5
47D
330
1B
100
AcDbEntity
  8
L-CENTER
 48
8.0
100
AcDbCircle
 10
1059.669024632695
 20
215.1367819584912
 30
0.0
 40
72.5
  0
CIRCLE
  5
47E
330
1B
100
AcDbEntity
  8
4
100
AcDbCircle
 10
1059.669024632695
 20
215.1367819584912
 30
0.0
 40
36.0
  0
ARC
  5
47F
330
1B
100
AcDbEntity
  8
4
100
AcDbCircle
 10
1059.669024632695
 20
215.1367819584912
 30
0.0
 40
23.000008
100
AcDbArc
 50
105.1216589999996
 51
74.87834100000039
  0
TEXT
  5
4AD
330
1B
100
AcDbEntity
  8
3
  6
Continuous
100
AcDbText
 10
802.8173855873748
 20
36.14762271037523
 30
0.0
 40
12.0
  1
LC8-04
  7
KANJI
 72
     1
 11
835.8173855873748
 21
36.14762271037523
 31
0.0
100
AcDbText
  0
LINE
  5
4B9
330
1B
100
AcDbEntity
  8
4
100
AcDbLine
 10
427.8380473362988
 20
485.137025958491
 30
0.0
 11
426.8380473362988
 21
484.137025958491
 31
0.0
  0
LINE
  5
4BA
330
1B
100
AcDbEntity
  8
4
100
AcDbLine
 10
426.8380473362988
 20
484.137025958491
 30
0.0
 11
460.8380473362988
 21
484.137025958491
 31
0.0
  0
LINE
  5
4BF
330
1B
100
AcDbEntity
  8
L-CENTER
 48
8.0
100
AcDbLine
 10
448.4179516406887
 20
355.1367819584912
 30
0.0
 11
473.2591190319092
 21
355.1367819584912
 31
0.0
  0
LINE
  5
4C0
330
1B
100
AcDbEntity
  8
4
100
AcDbLine
 10
454.5885353362989
 20
329.6367819584912
 30
0.0
 11
454.5885353362989
 21
378.8867819584912
 31
0.0
  0
LINE
  5
4C1
330
1B
100
AcDbEntity
  8
4
100
AcDbLine
 10
467.0885353362989
 20
329.6367819584912
 30
0.0
 11
467.0885353362989
 21
378.8867819584912
 31
0.0
  0
LINE
  5
4C2
330
1B
100
AcDbEntity
  8
4
100
AcDbLine
 10
467.0885353362989
 20
336.1367819584912
 30
0.0
 11
475.2621193362991
 21
336.1367819584912
 31
0.0
  0
LINE
  5
4C3
330
1B
100
AcDbEntity
  8
4
100
AcDbLine
 10
467.0885353362989
 20
336.9868819584913
 30
0.0
 11
475.2621193362991
 21
336.1367819584912
 31
0.0
  0
LINE
  5
4C4
330
1B
100
AcDbEntity
  8
4
100
AcDbLine
 10
425.8380473362988
 20
356.137025958491
 30
0.0
 11
425.8380473362988
 21
365.137025958491
 31
0.0
  0
ARC
  5
4C5
330
1B
100
AcDbEntity
  8
4
100
AcDbCircle
 10
425.8380473362988
 20
366.137025958491
 30
0.0
 40
1.0
100
AcDbArc
 50
270.0
 51
0.0
  0
LINE
  5
4C6
330
1B
100
AcDbEntity
  8
4
100
AcDbLine
 10
425.8380473362988
 20
365.137025958491
 30
0.0
 11
454.5885353362989
 21
365.137025958491
 31
0.0
  0
LINE
  5
4C7
330
1B
100
AcDbEntity
  8
4
100
AcDbLine
 10
446.4151953362991
 20
336.1367819584912
 30
0.0
 11
454.5885353362989
 21
336.1367819584912
 31
0.0
  0
LINE
  5
4C8
330
1B
100
AcDbEntity
  8
4
100
AcDbLine
 10
454.5885353362989
 20
336.9868819584913
 30
0.0
 11
446.4151953362991
 21
336.1367819584912
 31
0.0
  0
ARC
  5
4C9
330
1B
100
AcDbEntity
  8
4
100
AcDbCircle
 10
460.8385353362989
 20
378.8867819584912
 30
0.0
 40
6.25
100
AcDbArc
 50
0.0
 51
180.0
  0
LINE
  5
4CA
330
1B
100
AcDbEntity
  8
4
100
AcDbLine
 10
395.8385353362989
 20
355.1367819584912
 30
0.0
 11
390.8385353362989
 21
337.1367819584912
 31
0.0
  0
LINE
  5
4CB
330
1B
100
AcDbEntity
  8
4
100
AcDbLine
 10
410.8380473362993
 20
356.137025958491
 30
0.0
 11
410.8380473362993
 21
355.137025958491
 31
0.0
  0
LINE
  5
4CC
330
1B
100
AcDbEntity
  8
4
100
AcDbLine
 10
410.8380473362993
 20
356.137025958491
 30
0.0
 11
454.5885353362989
 21
356.137025958491
 31
0.0
  0
LINE
  5
4CD
330
1B
100
AcDbEntity
  8
4
100
AcDbLine
 10
454.5885353362989
 20
337.1367819584912
 30
0.0
 11
390.8385353362989
 21
337.1367819584912
 31
0.0
  0
LINE
  5
4CE
330
1B
100
AcDbEntity
  8
4
100
AcDbLine
 10
454.5885353362989
 20
355.1367819584912
 30
0.0
 11
395.8385353362989
 21
355.1367819584912
 31
0.0
  0
LINE
  5
4CF
330
1B
100
AcDbEntity
  8
4
100
AcDbLine
 10
480.8385353362989
 20
318.0667139584912
 30
0.0
 11
480.8385353362989
 21
325.1367819584912
 31
0.0
  0
LINE
  5
4D0
330
1B
100
AcDbEntity
  8
4
100
AcDbLine
 10
440.8385353362989
 20
318.0667139584912
 30
0.0
 11
440.8385353362989
 21
325.1367819584912
 31
0.0
  0
ARC
  5
4D1
330
1B
100
AcDbEntity
  8
4
100
AcDbCircle
 10
460.8385353362989
 20
372.1052899584911
 30
0.0
 40
60.000064
100
AcDbArc
 50
250.529536
 51
289.4726760000001
  0
LINE
  5
4D2
330
1B
100
AcDbEntity
  8
4
100
AcDbLine
 10
480.8385353362989
 20
325.1367819584912
 30
0.0
 11
440.8385353362989
 21
325.1367819584912
 31
0.0
  0
LINE
  5
4D3
330
1B
100
AcDbEntity
  8
4
100
AcDbLine
 10
445.8385353362989
 20
325.1367819584912
 30
0.0
 11
475.8385353362989
 21
325.1367819584912
 31
0.0
  0
LINE
  5
4D4
330
1B
100
AcDbEntity
  8
4
100
AcDbLine
 10
385.8385353362989
 20
291.1367819584912
 30
0.0
 11
385.8385353362989
 21
294.1367819584912
 31
0.0
  0
LINE
  5
4D5
330
1B
100
AcDbEntity
  8
4
100
AcDbLine
 10
352.8385353362989
 20
326.1367819584912
 30
0.0
 11
352.8385353362989
 21
324.622237958491
 31
0.0
  0
LINE
  5
4D6
330
1B
100
AcDbEntity
  8
4
100
AcDbLine
 10
353.8385353362989
 20
326.1367819584912
 30
0.0
 11
353.8385353362989
 21
335.1367819584912
 31
0.0
  0
LINE
  5
4D7
330
1B
100
AcDbEntity
  8
4
100
AcDbLine
 10
410.8385353362989
 20
337.1367819584912
 30
0.0
 11
421.8385353362989
 21
308.536685958491
 31
0.0
  0
LINE
  5
4D8
330
1B
100
AcDbEntity
  8
4
100
AcDbLine
 10
445.8385353362989
 20
325.1367819584912
 30
0.0
 11
446.4151953362991
 21
336.1367819584912
 31
0.0
  0
ARC
  5
4D9
330
1B
100
AcDbEntity
  8
4
100
AcDbCircle
 10
452.5885353362989
 20
329.6367819584912
 30
0.0
 40
2.0
100
AcDbArc
 50
270.0
 51
0.0
  0
LINE
  5
4DA
330
1B
100
AcDbEntity
  8
4
100
AcDbLine
 10
475.8385353362989
 20
325.1367819584912
 30
0.0
 11
475.2621193362991
 21
336.1367819584912
 31
0.0
  0
ARC
  5
4DB
330
1B
100
AcDbEntity
  8
4
100
AcDbCircle
 10
469.0885353362989
 20
329.6367819584912
 30
0.0
 40
2.0
100
AcDbArc
 50
180.0
 51
270.0
  0
LINE
  5
4DC
330
1B
100
AcDbEntity
  8
4
100
AcDbLine
 10
319.3385353362989
 20
330.1367819584912
 30
0.0
 11
319.3385353362989
 21
335.1367819584912
 31
0.0
  0
LINE
  5
4DD
330
1B
100
AcDbEntity
  8
4
100
AcDbLine
 10
342.3385353362989
 20
330.1367819584912
 30
0.0
 11
342.3385353362989
 21
335.1367819584912
 31
0.0
  0
LINE
  5
4DE
330
1B
100
AcDbEntity
  8
4
100
AcDbLine
 10
335.8385353362989
 20
294.1367819584912
 30
0.0
 11
335.8385353362989
 21
291.1367819584912
 31
0.0
  0
LINE
  5
4DF
330
1B
100
AcDbEntity
  8
4
100
AcDbLine
 10
308.8385353362989
 20
326.1367819584912
 30
0.0
 11
308.8385353362989
 21
324.1367819584912
 31
0.0
  0
LINE
  5
4E0
330
1B
100
AcDbEntity
  8
4
100
AcDbLine
 10
305.8385353362989
 20
324.1367819584912
 30
0.0
 11
305.8385353362989
 21
309.143129958491
 31
0.0
  0
LINE
  5
4E1
330
1B
100
AcDbEntity
  8
4
100
AcDbLine
 10
280.8385353362989
 20
300.136781958491
 30
0.0
 11
267.8385353362989
 21
300.1367819584912
 31
0.0
  0
LINE
  5
4E2
330
1B
100
AcDbEntity
  8
4
100
AcDbLine
 10
254.9386353362991
 20
300.1367819584912
 30
0.0
 11
267.8385353362989
 21
300.1367819584912
 31
0.0
  0
ARC
  5
4E3
330
1B
100
AcDbEntity
  8
4
100
AcDbCircle
 10
254.9386353362991
 20
299.1367819584912
 30
0.0
 40
1.0
100
AcDbArc
 50
90.0
 51
180.0
  0
ARC
  5
4E4
330
1B
100
AcDbEntity
  8
4
100
AcDbCircle
 10
267.8385353362989
 20
307.536685958491
 30
0.0
 40
1.0
100
AcDbArc
 50
90.0
 51
180.0
  0
LINE
  5
4E5
330
1B
100
AcDbEntity
  8
4
100
AcDbLine
 10
266.8385353362989
 20
300.1367819584912
 30
0.0
 11
266.8385353362989
 21
307.536685958491
 31
0.0
  0
LINE
  5
4E6
330
1B
100
AcDbEntity
  8
4
100
AcDbLine
 10
291.5052020029659
 20
292.1367819584912
 30
0.0
 11
335.8385353362989
 21
292.1367819584912
 31
0.0
  0
LINE
  5
4E7
330
1B
100
AcDbEntity
  8
L-CENTER
 48
8.0
100
AcDbLine
 10
330.8385353362989
 20
340.0210531722014
 30
0.0
 11
330.8385353362989
 21
291.5400971722011
 31
0.0
  0
LINE
  5
4E8
330
1B
100
AcDbEntity
  8
4
100
AcDbLine
 10
307.8385353362989
 20
326.1367819584912
 30
0.0
 11
307.8385353362989
 21
335.1367819584912
 31
0.0
  0
LINE
  5
4E9
330
1B
100
AcDbEntity
  8
4
100
AcDbLine
 10
351.3644633362994
 20
324.1367819584912
 30
0.0
 11
305.8385353362989
 21
324.1367819584912
 31
0.0
  0
LINE
  5
4EA
330
1B
100
AcDbEntity
  8
4
100
AcDbLine
 10
307.8385353362989
 20
335.1367819584912
 30
0.0
 11
353.8385353362989
 21
335.1367819584912
 31
0.0
  0
LINE
  5
4EB
330
1B
100
AcDbEntity
  8
4
100
AcDbLine
 10
307.8385353362989
 20
330.1367819584912
 30
0.0
 11
353.8385353362989
 21
330.1367819584912
 31
0.0
  0
LINE
  5
4EC
330
1B
100
AcDbEntity
  8
4
100
AcDbLine
 10
307.8385353362989
 20
326.1367819584912
 30
0.0
 11
353.8385353362989
 21
326.1367819584912
 31
0.0
  0
LINE
  5
4ED
330
1B
100
AcDbEntity
  8
4
100
AcDbLine
 10
303.9952753362988
 20
308.536685958491
 30
0.0
 11
390.8385353362989
 21
337.1367819584912
 31
0.0
  0
LINE
  5
4EE
330
1B
100
AcDbEntity
  8
4
100
AcDbLine
 10
399.8385353362989
 20
80.13678195849116
 30
0.0
 11
404.8385353362989
 21
75.13678195849116
 31
0.0
  0
ARC
  5
4EF
330
1B
100
AcDbEntity
  8
4
100
AcDbCircle
 10
377.8385353362989
 20
83.13678195849116
 30
0.0
 40
3.0
100
AcDbArc
 50
0.0
 51
90.0
  0
LINE
  5
4F0
330
1B
100
AcDbEntity
  8
4
100
AcDbLine
 10
380.8385353362989
 20
76.13678195849116
 30
0.0
 11
399.8385353362989
 21
95.13678195849116
 31
0.0
  0
LINE
  5
4F1
330
1B
100
AcDbEntity
  8
4
100
AcDbLine
 10
380.8385353362989
 20
83.13678195849116
 30
0.0
 11
380.8385353362989
 21
51.13678195849116
 31
0.0
  0
LINE
  5
4F2
330
1B
100
AcDbEntity
  8
4
100
AcDbLine
 10
384.8385353362989
 20
80.13678195849116
 30
0.0
 11
419.8385353362989
 21
80.13678195849116
 31
0.0
  0
LINE
  5
4F3
330
1B
100
AcDbEntity
  8
4
100
AcDbLine
 10
419.8385353362989
 20
80.13678195849116
 30
0.0
 11
404.8385353362989
 21
95.13678195849116
 31
0.0
  0
LINE
  5
4F4
330
1B
100
AcDbEntity
  8
4
100
AcDbLine
 10
280.8385353362987
 20
130.1367819584912
 30
0.0
 11
267.8385353362989
 21
130.1367819584912
 31
0.0
  0
LINE
  5
4F5
330
1B
100
AcDbEntity
  8
4
100
AcDbLine
 10
254.9386353362991
 20
130.1367819584912
 30
0.0
 11
267.8385353362989
 21
130.1367819584912
 31
0.0
  0
ARC
  5
4F6
330
1B
100
AcDbEntity
  8
4
100
AcDbCircle
 10
254.9386353362991
 20
131.1367819584912
 30
0.0
 40
1.0
100
AcDbArc
 50
180.0
 51
270.0
  0
ARC
  5
4F7
330
1B
100
AcDbEntity
  8
4
100
AcDbCircle
 10
243.8385353362989
 20
83.13678195849116
 30
0.0
 40
3.0
100
AcDbArc
 50
90.0
 51
180.0
  0
LINE
  5
4F8
330
1B
100
AcDbEntity
  8
4
100
AcDbLine
 10
240.8385353362989
 20
83.13678195849116
 30
0.0
 11
240.8385353362989
 21
51.13678195849116
 31
0.0
  0
LINE
  5
4F9
330
1B
100
AcDbEntity
  8
L-CENTER
 48
8.0
100
AcDbLine
 10
275.8385353362989
 20
39.13678195849116
 30
0.0
 11
275.8385353362989
 21
98.13678195849116
 31
0.0
  0
LINE
  5
4FA
330
1B
100
AcDbEntity
  8
4
100
AcDbLine
 10
273.8385353362989
 20
130.1367819584912
 30
0.0
 11
273.8385353362989
 21
86.13678195849116
 31
0.0
  0
LINE
  5
4FB
330
1B
100
AcDbEntity
  8
4
100
AcDbLine
 10
263.8385353362989
 20
99.99322595849117
 30
0.0
 11
263.8385353362989
 21
130.1367819584912
 31
0.0
  0
LINE
  5
4FC
330
1B
100
AcDbEntity
  8
4
100
AcDbLine
 10
273.8385353362989
 20
117.3137819584908
 30
0.0
 11
255.8385353362989
 21
86.13678195849116
 31
0.0
  0
LINE
  5
4FD
330
1B
100
AcDbEntity
  8
4
100
AcDbLine
 10
325.8385353362989
 20
139.1367819584912
 30
0.0
 11
325.8385353362989
 21
86.13678195849116
 31
0.0
  0
LINE
  5
4FE
330
1B
100
AcDbEntity
  8
4
100
AcDbLine
 10
380.8385353362989
 20
51.13678195849116
 30
0.0
 11
240.8385353362989
 21
51.13678195849116
 31
0.0
  0
LINE
  5
4FF
330
1B
100
AcDbEntity
  8
4
100
AcDbLine
 10
243.8385353362989
 20
86.13678195849116
 30
0.0
 11
377.8385353362989
 21
86.13678195849116
 31
0.0
  0
LINE
  5
500
330
1B
100
AcDbEntity
  8
4
100
AcDbLine
 10
253.9386353362991
 20
131.1367819584912
 30
0.0
 11
253.9386353362991
 21
299.1367819584912
 31
0.0
  0
LINE
  5
501
330
1B
100
AcDbEntity
  8
4
100
AcDbLine
 10
267.8385353362989
 20
300.1367819584912
 30
0.0
 11
267.8385353362989
 21
130.1367819584912
 31
0.0
  0
LINE
  5
502
330
1B
100
AcDbEntity
  8
4
100
AcDbLine
 10
274.8385353362989
 20
289.1367819584912
 30
0.0
 11
274.8385353362989
 21
141.1367819584912
 31
0.0
  0
LINE
  5
503
330
1B
100
AcDbEntity
  8
4
100
AcDbLine
 10
267.8385353362989
 20
130.1367819584912
 30
0.0
 11
267.8385353362989
 21
300.1367819584912
 31
0.0
  0
LINE
  5
504
330
1B
100
AcDbEntity
  8
L-CENTER
 48
8.0
100
AcDbLine
 10
460.8385353362989
 20
64.93839329242792
 30
0.0
 11
460.8385353362989
 21
494.0038855672897
 31
0.0
  0
LINE
  5
505
330
1B
100
AcDbEntity
  8
4
100
AcDbLine
 10
426.8380473362988
 20
366.137025958491
 30
0.0
 11
426.8380473362988
 21
484.137025958491
 31
0.0
  0
LINE
  5
531
330
1B
100
AcDbEntity
  8
4
100
AcDbLine
 10
516.838535336299
 20
75.13678195849116
 30
0.0
 11
404.8385353362989
 21
75.13678195849116
 31
0.0
  0
LINE
  5
532
330
1B
100
AcDbEntity
  8
4
100
AcDbLine
 10
521.8380473362988
 20
95.13678195849116
 30
0.0
 11
399.8385353362989
 21
95.13678195849116
 31
0.0
  0
LINE
  5
533
330
1B
100
AcDbEntity
  8
4
100
AcDbLine
 10
427.8380473362988
 20
485.137025958491
 30
0.0
 11
500.8380473362988
 21
485.137025958491
 31
0.0
  0
LINE
  5
534
330
1B
100
AcDbEntity
  8
4
100
AcDbLine
 10
385.8385353362989
 20
292.1367819584912
 30
0.0
 11
630.1718686696324
 21
292.136781958491
 31
0.0
  0
LINE
  5
535
330
1B
100
AcDbEntity
  8
4
100
AcDbLine
 10
653.838535336299
 20
308.536685958491
 30
0.0
 11
267.8385353362989
 21
308.536685958491
 31
0.0
  0
LINE
  5
536
330
1B
100
AcDbEntity
  8
4
100
AcDbLine
 10
632.838535336299
 20
294.1367819584912
 30
0.0
 11
288.8385353362989
 21
294.136781958491
 31
0.0
  0
ARC
  5
537
330
1B
100
AcDbEntity
  8
4
100
AcDbCircle
 10
276.8385353362989
 20
289.1367819584912
 30
0.0
 40
2.0
100
AcDbArc
 50
90.0
 51
180.0
  0
LINE
  5
538
330
1B
100
AcDbEntity
  8
4
100
AcDbLine
 10
644.838535336299
 20
291.1367819584912
 30
0.0
 11
276.8385353362989
 21
291.1367819584912
 31
0.0
  0
LINE
  5
539
330
1B
100
AcDbEntity
  8
L-CENTER
 48
8.0
100
AcDbLine
 10
786.8450924069364
 20
215.1367819584912
 30
0.0
 11
134.8319782656615
 21
215.1367819584912
 31
0.0
  0
LINE
  5
53A
330
1B
100
AcDbEntity
  8
4
100
AcDbLine
 10
644.838535336299
 20
139.1367819584912
 30
0.0
 11
276.8385353362989
 21
139.1367819584912
 31
0.0
  0
LINE
  5
53B
330
1B
100
AcDbEntity
  8
4
100
AcDbLine
 10
467.0885353362989
 20
356.137025958491
 30
0.0
 11
510.8380473362988
 21
356.137025958491
 31
0.0
  0
LINE
  5
53C
330
1B
100
AcDbEntity
  8
4
100
AcDbLine
 10
467.0885353362989
 20
337.1367819584912
 30
0.0
 11
530.838535336299
 21
337.1367819584912
 31
0.0
  0
LINE
  5
53D
330
1B
100
AcDbEntity
  8
4
100
AcDbLine
 10
467.0885353362989
 20
355.1367819584912
 30
0.0
 11
525.838535336299
 21
355.1367819584912
 31
0.0
  0
LINE
  5
53E
330
1B
100
AcDbEntity
  8
4
100
AcDbLine
 10
467.0885353362989
 20
365.137025958491
 30
0.0
 11
495.8380473362988
 21
365.137025958491
 31
0.0
  0
LINE
  5
53F
330
1B
100
AcDbEntity
  8
4
100
AcDbLine
 10
494.8380473362988
 20
484.137025958491
 30
0.0
 11
460.8380473362988
 21
484.137025958491
 31
0.0
  0
LINE
  5
565
330
1B
100
AcDbEntity
  8
4
100
AcDbLine
 10
140.8385353362989
 20
241.6367819584912
 30
0.0
 11
230.8385353362989
 21
241.6367819584912
 31
0.0
  0
LINE
  5
566
330
1B
100
AcDbEntity
  8
4
100
AcDbLine
 10
239.8385353362989
 20
238.1367819584912
 30
0.0
 11
141.8385353362989
 21
238.1367819584912
 31
0.0
  0
LINE
  5
567
330
1B
100
AcDbEntity
  8
4
100
AcDbLine
 10
239.8385353362989
 20
192.1367819584912
 30
0.0
 11
141.8385353362989
 21
192.1367819584912
 31
0.0
  0
LINE
  5
568
330
1B
100
AcDbEntity
  8
4
100
AcDbLine
 10
240.8385353362989
 20
190.1367819584912
 30
0.0
 11
240.8385353362989
 21
240.1367819584912
 31
0.0
  0
LINE
  5
569
330
1B
100
AcDbEntity
  8
4
100
AcDbLine
 10
252.9386313362986
 20
179.1367819584912
 30
0.0
 11
252.9386313362986
 21
251.1367819584912
 31
0.0
  0
LINE
  5
56A
330
1B
100
AcDbEntity
  8
4
100
AcDbLine
 10
240.8385353362989
 20
190.1367819584912
 30
0.0
 11
252.9386313362986
 21
190.1367819584912
 31
0.0
  0
LINE
  5
56B
330
1B
100
AcDbEntity
  8
4
100
AcDbLine
 10
253.9386313362986
 20
179.1367819584912
 30
0.0
 11
252.9386313362986
 21
179.1367819584912
 31
0.0
  0
ARC
  5
56C
330
1B
100
AcDbEntity
  8
4
100
AcDbCircle
 10
239.8385353362989
 20
191.1367819584912
 30
0.0
 40
1.0
100
AcDbArc
 50
0.0
 51
90.0
  0
LINE
  5
56D
330
1B
100
AcDbEntity
  8
4
100
AcDbLine
 10
240.8385353362989
 20
240.1367819584912
 30
0.0
 11
252.9386313362986
 21
240.1367819584912
 31
0.0
  0
LINE
  5
56E
330
1B
100
AcDbEntity
  8
4
100
AcDbLine
 10
253.9386313362986
 20
251.1367819584912
 30
0.0
 11
252.9386313362986
 21
251.1367819584912
 31
0.0
  0
LINE
  5
56F
330
1B
100
AcDbEntity
  8
4
100
AcDbLine
 10
230.8385353362989
 20
241.6367819584912
 30
0.0
 11
230.8385353362989
 21
238.1367819584912
 31
0.0
  0
ARC
  5
570
330
1B
100
AcDbEntity
  8
4
100
AcDbCircle
 10
239.8385353362989
 20
239.1367819584912
 30
0.0
 40
1.0
100
AcDbArc
 50
270.0
 51
0.0
  0
LINE
  5
571
330
1B
100
AcDbEntity
  8
4
100
AcDbLine
 10
141.8385353362989
 20
192.1367819584912
 30
0.0
 11
141.8385353362989
 21
238.1367819584912
 31
0.0
  0
LINE
  5
572
330
1B
100
AcDbEntity
  8
4
100
AcDbLine
 10
140.8385353362989
 20
241.6367819584912
 30
0.0
 11
140.8385353362989
 21
193.1367819584912
 31
0.0
  0
LINE
  5
573
330
1B
100
AcDbEntity
  8
4
100
AcDbLine
 10
141.8385353362989
 20
192.1367819584912
 30
0.0
 11
140.8385353362989
 21
193.1367819584912
 31
0.0
  0
LINE
  5
574
330
1B
100
AcDbEntity
  8
4
100
AcDbLine
 10
140.8385353362989
 20
237.1367819584912
 30
0.0
 11
141.8385353362989
 21
238.1367819584912
 31
0.0
  0
LINE
  5
58E
330
1B
100
AcDbEntity
  8
4
100
AcDbLine
 10
140.8385353362989
 20
800.9827264586222
 30
0.0
 11
224.8385353362989
 21
800.9827264586222
 31
0.0
  0
LINE
  5
58F
330
1B
100
AcDbEntity
  8
4
100
AcDbLine
 10
238.8385353362989
 20
817.9827264586222
 30
0.0
 11
141.8385353362989
 21
817.9827264586222
 31
0.0
  0
LINE
  5
590
330
1B
100
AcDbEntity
  8
4
100
AcDbLine
 10
140.8385353362989
 20
788.9827264586222
 30
0.0
 11
224.8385353362989
 21
788.9827264586222
 31
0.0
  0
LINE
  5
591
330
1B
100
AcDbEntity
  8
4
100
AcDbLine
 10
238.8385353362989
 20
771.9827264586222
 30
0.0
 11
141.8385353362989
 21
771.9827264586222
 31
0.0
  0
ARC
  5
592
330
1B
100
AcDbEntity
  8
4
100
AcDbCircle
 10
238.8385353362989
 20
769.9827264586222
 30
0.0
 40
2.0
100
AcDbArc
 50
0.0
 51
90.0
  0
LINE
  5
593
330
1B
100
AcDbEntity
  8
4
100
AcDbLine
 10
240.8385353362989
 20
769.9827264586222
 30
0.0
 11
240.8385353362989
 21
819.9827264586222
 31
0.0
  0
ARC
  5
594
330
1B
100
AcDbEntity
  8
4
100
AcDbCircle
 10
238.8385353362989
 20
819.9827264586222
 30
0.0
 40
2.0
100
AcDbArc
 50
270.0
 51
0.0
  0
ARC
  5
595
330
1B
100
AcDbEntity
  8
4
100
AcDbCircle
 10
224.8385353362989
 20
794.9827264586222
 30
0.0
 40
6.0
100
AcDbArc
 50
270.0
 51
90.0
  0
LINE
  5
596
330
1B
100
AcDbEntity
  8
4
100
AcDbLine
 10
141.8385353362989
 20
817.9827264586222
 30
0.0
 11
140.8385353362989
 21
816.9827264586222
 31
0.0
  0
LINE
  5
597
330
1B
100
AcDbEntity
  8
4
100
AcDbLine
 10
141.8385353362989
 20
817.9827264586222
 30
0.0
 11
141.8385353362989
 21
800.9827264586222
 31
0.0
  0
LINE
  5
598
330
1B
100
AcDbEntity
  8
4
100
AcDbLine
 10
140.8385353362989
 20
772.9827264586222
 30
0.0
 11
141.8385353362989
 21
771.9827264586222
 31
0.0
  0
LINE
  5
599
330
1B
100
AcDbEntity
  8
4
100
AcDbLine
 10
141.8385353362989
 20
788.9827264586222
 30
0.0
 11
141.8385353362989
 21
771.9827264586222
 31
0.0
  0
LINE
  5
59A
330
1B
100
AcDbEntity
  8
4
100
AcDbLine
 10
140.8385353362989
 20
816.9827264586222
 30
0.0
 11
140.8385353362989
 21
772.9827264586222
 31
0.0
  0
LINE
  5
59B
330
1B
100
AcDbEntity
  8
4
100
AcDbLine
 10
240.8385353362989
 20
819.9827264586222
 30
0.0
 11
252.9386313362991
 21
819.9827264586222
 31
0.0
  0
LINE
  5
59C
330
1B
100
AcDbEntity
  8
4
100
AcDbLine
 10
240.8385353362989
 20
769.9827264586222
 30
0.0
 11
252.9386313362991
 21
769.9827264586222
 31
0.0
  0
LINE
  5
59D
330
1B
100
AcDbEntity
  8
4
100
AcDbLine
 10
252.9386313362991
 20
758.9827264586222
 30
0.0
 11
252.9386313362991
 21
830.9827264586222
 31
0.0
  0
LINE
  5
59E
330
1B
100
AcDbEntity
  8
4
100
AcDbLine
 10
253.9386313362991
 20
758.9827264586222
 30
0.0
 11
252.9386313362991
 21
758.9827264586222
 31
0.0
  0
LINE
  5
59F
330
1B
100
AcDbEntity
  8
4
100
AcDbLine
 10
253.9386313362991
 20
830.9827264586222
 30
0.0
 11
252.9386313362991
 21
830.9827264586222
 31
0.0
  0
ENDSEC
  0
SECTION
  2
OBJECTS
  0
DICTIONARY
  5
9
330
0
100
AcDbDictionary
281
     1
  3
ACAD_COLOR
350
31
  3
ACAD_GROUP
350
2F
  3
ACAD_LAYOUT
350
24
  3
ACAD_MATERIAL
350
B
  3
ACAD_MLEADERSTYLE
350
54B
  3
ACAD_MLINESTYLE
350
19
  3
ACAD_PLOTSETTINGS
350
30
  3
ACAD_PLOTSTYLENAME
350
8
  3
ACAD_SCALELIST
350
38
  3
ACAD_TABLESTYLE
350
54A
  3
ACAD_VISUALSTYLE
350
32
  3
ACDBHEADERROUNDTRIPXREC
350
5AC
  3
AcDbVariableDictionary
350
548
  3
DWGPROPS
350
5AF
  0
DICTIONARY
  5
5B0
330
2E
100
AcDbDictionary
280
     1
281
     1
  3
ACAD_XREC_ROUNDTRIP
360
5B1
  0
DICTIONARY
  5
3
330
2
100
AcDbDictionary
280
     1
281
     1
  3
ACAD_LAYERSTATES
360
4
  0
DICTIONARY
  5
20
330
1F
100
AcDbDictionary
280
     1
281
     1
  3
ADSK_XREC_LAYER_RECONCILED
360
21
  0
DICTIONARY
  5
DF
330
DE
100
AcDbDictionary
280
     1
281
     1
  3
ADSK_XREC_LAYER_RECONCILED
360
E0
  0
DICTIONARY
  5
5
330
1
100
AcDbDictionary
280
     1
281
     1
  3
ADSK_XREC_LAYER_RECONCILED
360
6
  0
DICTIONARY
  5
DA
330
D9
100
AcDbDictionary
280
     1
281
     1
  3
ADSK_XREC_LAYER_RECONCILED
360
DB
  0
DICTIONARY
  5
5E
330
5D
100
AcDbDictionary
280
     1
281
     1
  3
ADSK_XREC_LAYER_RECONCILED
360
5F
  0
DICTIONARY
  5
68
330
67
100
AcDbDictionary
280
     1
281
     1
  3
ADSK_XREC_LAYER_RECONCILED
360
69
  0
DICTIONARY
  5
1C
330
1B
100
AcDbDictionary
280
     1
281
     1
  3
ACAD_SORTENTS
360
1D
  0
DICTIONARY
  5
31
102
{ACAD_REACTORS
330
9
102
}
330
9
100
AcDbDictionary
281
     1
  0
DICTIONARY
  5
2F
102
{ACAD_REACTORS
330
9
102
}
330
9
100
AcDbDictionary
281
     1
  0
DICTIONARY
  5
24
102
{ACAD_REACTORS
330
9
102
}
330
9
100
AcDbDictionary
281
     1
  3
Model
350
23
  3
ﾚｲｱｳﾄ1
350
2B
  0
DICTIONARY
  5
B
102
{ACAD_REACTORS
330
9
102
}
330
9
100
AcDbDictionary
281
     1
  3
ByBlock
350
5B
  3
ByLayer
350
14
  3
Global
350
A
  0
DICTIONARY
  5
54B
102
{ACAD_REACTORS
330
9
102
}
330
9
100
AcDbDictionary
281
     1
  3
Standard
350
5A3
  0
DICTIONARY
  5
19
102
{ACAD_REACTORS
330
9
102
}
330
9
100
AcDbDictionary
281
     1
  3
STANDARD
350
18
  0
DICTIONARY
  5
30
102
{ACAD_REACTORS
330
9
102
}
330
9
100
AcDbDictionary
281
     1
  0
ACDBDICTIONARYWDFLT
  5
8
102
{ACAD_REACTORS
330
9
102
}
330
9
100
AcDbDictionary
281
     1
  3
Normal
350
7
100
AcDbDictionaryWithDefault
340
7
  0
DICTIONARY
  5
38
102
{ACAD_REACTORS
330
9
102
}
330
9
100
AcDbDictionary
281
     1
  3
*A1
350
5A
  0
DICTIONARY
  5
54A
102
{ACAD_REACTORS
330
9
102
}
330
9
100
AcDbDictionary
281
     1
  3
Standard
350
5A8
  0
DICTIONARY
  5
32
102
{ACAD_REACTORS
330
9
102
}
330
9
100
AcDbDictionary
281
     1
  3
2dWireframe
350
553
  3
Basic
350
555
  3
Brighten
350
558
  3
ColorChange
350
55C
  3
Conceptual
350
556
  3
Dim
350
557
  3
EdgeColorOff
350
55F
  3
Facepattern
350
55B
  3
Flat
350
54F
  3
FlatWithEdges
350
550
  3
Gouraud
350
551
  3
GouraudWithEdges
350
552
  3
Hidden
350
554
  3
JitterOff
350
55D
  3
Linepattern
350
55A
  3
OverhangOff
350
55E
  3
Realistic
350
33
  3
Shaded
350
564
  3
Shaded with edges
350
563
  3
Shades of Gray
350
560
  3
Sketchy
350
561
  3
Thicken
350
559
  3
Wireframe
350
34
  3
X-Ray
350
562
  0
DICTIONARY
  5
5AC
102
{ACAD_REACTORS
330
9
102
}
330
9
100
AcDbDictionary
281
     1
  3
COLORDICT
350
5AD
  3
MATERIALDICT
350
5AE
  0
DICTIONARY
  5
548
102
{ACAD_REACTORS
330
9
102
}
330
9
100
AcDbDictionary
281
     1
  3
CANNOSCALE
350
549
  3
CMLEADERSTYLE
350
5A7
  3
CTABLESTYLE
350
5A9
  3
DIMASSOC
350
5AA
  3
HIDETEXT
350
5AB
  3
MSLTSCALE
350
5B2
  3
XCLIPFRAME
350
54C
  0
XRECORD
  5
5AF
102
{ACAD_REACTORS
330
9
102
}
330
9
100
AcDbXrecord
280
     1
  1
DWGPROPS COOKIE
  2

  3

  4

  6

  7

  8
sg-d04
  9

300
=
301
=
302
=
303
=
304
=
305
=
306
=
307
=
308
=
309
=
 40
0.0
 41
2457542.440610451
 42
2457870.242251308
  1

 90
        0
  0
XRECORD
  5
5B1
102
{ACAD_REACTORS
330
5B0
102
}
330
5B0
100
AcDbXrecord
280
     1
102
VTR_0.000_0.000_1.000_1.000_VISUALSTYLE
340
553
102
VTR_0.000_0.000_1.000_1.000_GRIDDISPLAY
 70
     3
102
VTR_0.000_0.000_1.000_1.000_GRIDMAJOR
 70
     5
102
VTR_0.000_0.000_1.000_1.000_DEFAULTLIGHTING
280
     1
102
VTR_0.000_0.000_1.000_1.000_DEFAULTLIGHTINGTYPE
 70
     1
102
VTR_0.000_0.000_1.000_1.000_BRIGHTNESS
141
0.0
102
VTR_0.000_0.000_1.000_1.000_CONTRAST
142
0.0
  0
DICTIONARY
  5
4
102
{ACAD_REACTORS
330
3
102
}
330
3
100
AcDbDictionary
281
     1
  0
XRECORD
  5
21
102
{ACAD_REACTORS
330
20
102
}
330
20
100
AcDbXrecord
280
     1
290
     1
  0
XRECORD
  5
E0
102
{ACAD_REACTORS
330
DF
102
}
330
DF
100
AcDbXrecord
280
     1
290
     1
  0
XRECORD
  5
6
102
{ACAD_REACTORS
330
5
102
}
330
5
100
AcDbXrecord
280
     1
290
     1
  0
XRECORD
  5
DB
102
{ACAD_REACTORS
330
DA
102
}
330
DA
100
AcDbXrecord
280
     1
290
     1
  0
XRECORD
  5
5F
102
{ACAD_REACTORS
330
5E
102
}
330
5E
100
AcDbXrecord
280
     1
290
     1
  0
XRECORD
  5
69
102
{ACAD_REACTORS
330
68
102
}
330
68
100
AcDbXrecord
280
     1
290
     1
  0
SORTENTSTABLE
  5
1D
102
{ACAD_REACTORS
330
1C
102
}
330
1C
100
AcDbSortentsTable
330
1B
331
0
  5
CD
331
1A8
  5
532
331
1A9
  5
531
331
1AA
  5
530
331
1AB
  5
52F
331
1AC
  5
52E
331
1AD
  5
52D
331
1AE
  5
52C
331
1AF
  5
52B
331
1B0
  5
52A
331
1B1
  5
529
331
1B2
  5
528
331
1B3
  5
527
331
1B4
  5
526
331
1B5
  5
525
331
1B6
  5
524
331
1B7
  5
523
331
1B8
  5
522
331
1B9
  5
521
331
1BA
  5
520
331
1BB
  5
51F
331
1BC
  5
51E
331
1BD
  5
51D
331
1BE
  5
51C
331
1BF
  5
51B
331
1C0
  5
51A
331
1C1
  5
519
331
1C2
  5
518
331
1C3
  5
517
331
1C4
  5
516
331
1C5
  5
515
331
1C6
  5
514
331
1C7
  5
513
331
1C8
  5
512
331
1C9
  5
511
331
1CA
  5
510
331
1CB
  5
50F
331
1CC
  5
50E
331
1CD
  5
50D
331
1CE
  5
50C
331
1CF
  5
50B
331
1D0
  5
50A
331
1D1
  5
509
331
1D2
  5
508
331
1D3
  5
507
331
1D4
  5
506
331
1D5
  5
505
331
1D6
  5
504
331
1D7
  5
503
331
1D8
  5
502
331
1D9
  5
501
331
1DA
  5
500
331
1DB
  5
4FF
331
1DC
  5
4FE
331
1DD
  5
4FD
331
1DE
  5
4FC
331
1DF
  5
4FB
331
1E0
  5
4FA
331
1E1
  5
4F9
331
1E2
  5
4F8
331
1E3
  5
4F7
331
1E4
  5
4F6
331
1E5
  5
4F5
331
1E6
  5
4F4
331
1E7
  5
4F3
331
1E8
  5
4F2
331
1E9
  5
4F1
331
1EA
  5
4F0
331
1EB
  5
4EF
331
1EC
  5
4EE
331
1ED
  5
4ED
331
1EE
  5
4EC
331
1EF
  5
4EB
331
1F0
  5
4EA
331
1F1
  5
4E9
331
1F2
  5
4E8
331
1F3
  5
4E7
331
1F4
  5
4E6
331
1F5
  5
4E5
331
1F6
  5
4E4
331
1F7
  5
4E3
331
1F8
  5
4E2
331
1F9
  5
4E1
331
1FA
  5
4E0
331
1FB
  5
4DF
331
1FC
  5
4DE
331
1FD
  5
4DD
331
1FE
  5
4DC
331
1FF
  5
4DB
331
200
  5
4DA
331
201
  5
4D9
331
202
  5
4D8
331
203
  5
4D7
331
204
  5
4D6
331
205
  5
4D5
331
206
  5
4D4
331
207
  5
4D3
331
208
  5
4D2
331
209
  5
4D1
331
20A
  5
4D0
331
20B
  5
4CF
331
20C
  5
4CE
331
20D
  5
4CD
331
20E
  5
4CC
331
20F
  5
4CB
331
210
  5
4CA
331
211
  5
4C9
331
212
  5
4C8
331
213
  5
4C7
331
214
  5
4C6
331
215
  5
4C5
331
216
  5
4C4
331
217
  5
4C3
331
218
  5
4C2
331
219
  5
4C1
331
21A
  5
4C0
331
21B
  5
4BF
331
21C
  5
4BE
331
21D
  5
4BD
331
21E
  5
4BC
331
21F
  5
4BB
331
220
  5
4BA
331
221
  5
4B9
331
222
  5
4B8
331
223
  5
4B7
331
224
  5
4B6
331
225
  5
4B5
331
226
  5
4B4
331
227
  5
4B3
331
228
  5
4B2
331
229
  5
4B1
331
22A
  5
4B0
331
22B
  5
4AF
331
22C
  5
4AE
331
22D
  5
4AD
331
22E
  5
4AC
331
22F
  5
4AB
331
230
  5
4AA
331
231
  5
4A9
331
232
  5
4A8
331
233
  5
4A7
331
234
  5
4A6
331
235
  5
4A5
331
236
  5
4A4
331
237
  5
4A3
331
238
  5
4A2
331
239
  5
4A1
331
23A
  5
4A0
331
23B
  5
49F
331
23C
  5
49E
331
23D
  5
49D
331
23E
  5
49C
331
23F
  5
49B
331
240
  5
49A
331
241
  5
499
331
242
  5
498
331
243
  5
497
331
244
  5
496
331
245
  5
495
331
246
  5
494
331
247
  5
493
331
248
  5
492
331
249
  5
491
331
24A
  5
490
331
24B
  5
48F
331
24C
  5
48E
331
24D
  5
48D
331
24E
  5
48C
331
24F
  5
48B
331
250
  5
48A
331
251
  5
489
331
252
  5
488
331
253
  5
487
331
254
  5
486
331
255
  5
485
331
256
  5
484
331
257
  5
483
331
258
  5
482
331
259
  5
481
331
25A
  5
480
331
25B
  5
47F
331
25C
  5
47E
331
25D
  5
47D
331
25E
  5
47C
331
25F
  5
47B
331
260
  5
47A
331
261
  5
479
331
262
  5
478
331
263
  5
477
331
264
  5
476
331
265
  5
475
331
266
  5
474
331
267
  5
473
331
268
  5
472
331
269
  5
471
331
26A
  5
470
331
26B
  5
46F
331
26C
  5
46E
331
26D
  5
46D
331
26E
  5
46C
331
26F
  5
46B
331
270
  5
46A
331
271
  5
469
331
272
  5
468
331
273
  5
467
331
274
  5
466
331
275
  5
465
331
276
  5
464
331
277
  5
463
331
278
  5
462
331
279
  5
461
331
27A
  5
460
331
27B
  5
45F
331
27C
  5
45E
331
27D
  5
45D
331
27E
  5
45C
331
27F
  5
45B
331
280
  5
45A
331
281
  5
459
331
282
  5
458
331
283
  5
457
331
284
  5
456
331
285
  5
455
331
286
  5
454
331
287
  5
453
331
288
  5
452
331
289
  5
451
331
28A
  5
450
331
28B
  5
44F
331
28C
  5
44E
331
28D
  5
44D
331
28E
  5
44C
331
28F
  5
44B
331
290
  5
44A
331
291
  5
449
331
292
  5
448
331
293
  5
447
331
294
  5
446
331
295
  5
445
331
296
  5
444
331
297
  5
443
331
298
  5
442
331
299
  5
441
331
29A
  5
440
331
29B
  5
43F
331
29C
  5
43E
331
29D
  5
43D
331
29E
  5
43C
331
29F
  5
43B
331
2A0
  5
43A
331
2A1
  5
439
331
2A2
  5
438
331
2A3
  5
437
331
2A4
  5
436
331
2A5
  5
435
331
2A6
  5
434
331
2A7
  5
433
331
2A8
  5
432
331
2A9
  5
431
331
2AA
  5
430
331
2AB
  5
42F
331
2AC
  5
42E
331
2AD
  5
42D
331
2AE
  5
42C
331
2AF
  5
42B
331
2B0
  5
42A
331
2B1
  5
429
331
2B2
  5
428
331
2B3
  5
427
331
2B4
  5
426
331
2B5
  5
425
331
2B6
  5
424
331
2B7
  5
423
331
2B8
  5
422
331
2B9
  5
421
331
2BA
  5
420
331
2BB
  5
41F
331
2BC
  5
41E
331
2BD
  5
41D
331
2BE
  5
41C
331
2BF
  5
41B
331
2C0
  5
41A
331
2C1
  5
419
331
2C2
  5
418
331
2C3
  5
417
331
2C4
  5
416
331
2C5
  5
415
331
2C6
  5
414
331
2C7
  5
413
331
2C8
  5
412
331
2C9
  5
411
331
2CA
  5
410
331
2CB
  5
40F
331
2CC
  5
40E
331
2CD
  5
40D
331
2CE
  5
40C
331
2CF
  5
40B
331
2D0
  5
40A
331
2D1
  5
409
331
2D2
  5
408
331
2D3
  5
407
331
2D4
  5
406
331
2D5
  5
405
331
2D6
  5
404
331
2D7
  5
403
331
2D8
  5
402
331
2D9
  5
401
331
2DA
  5
400
331
2DB
  5
3FF
331
2DC
  5
3FE
331
2DD
  5
3FD
331
2DE
  5
3FC
331
2DF
  5
3FB
331
2E0
  5
3FA
331
2E1
  5
3F9
331
2E2
  5
3F8
331
2E3
  5
3F7
331
2E4
  5
3F6
331
2E5
  5
3F5
331
2E6
  5
3F4
331
2E7
  5
3F3
331
2E8
  5
3F2
331
2E9
  5
3F1
331
2EA
  5
3F0
331
2EB
  5
3EF
331
2EC
  5
3EE
331
2ED
  5
3ED
331
2EE
  5
3EC
331
2EF
  5
3EB
331
2F0
  5
3EA
331
2F1
  5
3E9
331
2F2
  5
3E8
331
2F3
  5
3E7
331
2F4
  5
3E6
331
2F5
  5
3E5
331
2F6
  5
3E4
331
2F7
  5
3E3
331
2F8
  5
3E2
331
2F9
  5
3E1
331
2FA
  5
3E0
331
2FB
  5
3DF
331
2FC
  5
3DE
331
2FD
  5
3DD
331
2FE
  5
3DC
331
2FF
  5
3DB
331
300
  5
3DA
331
301
  5
3D9
331
302
  5
3D8
331
303
  5
3D7
331
304
  5
3D6
331
305
  5
3D5
331
306
  5
3D4
331
307
  5
3D3
331
308
  5
3D2
331
309
  5
3D1
331
30A
  5
3D0
331
30B
  5
3CF
331
30C
  5
3CE
331
30D
  5
3CD
331
30E
  5
3CC
331
30F
  5
3CB
331
310
  5
3CA
331
311
  5
3C9
331
312
  5
3C8
331
313
  5
3C7
331
314
  5
3C6
331
315
  5
3C5
331
316
  5
3C4
331
317
  5
3C3
331
318
  5
3C2
331
319
  5
3C1
331
31A
  5
3C0
331
31B
  5
3BF
331
31C
  5
3BE
331
31D
  5
3BD
331
31E
  5
3BC
331
31F
  5
3BB
331
320
  5
3BA
331
321
  5
3B9
331
322
  5
3B8
331
323
  5
3B7
331
324
  5
3B6
331
325
  5
3B5
331
326
  5
3B4
331
327
  5
3B3
331
328
  5
3B2
331
329
  5
3B1
331
32A
  5
3B0
331
32B
  5
3AF
331
32C
  5
3AE
331
32D
  5
3AD
331
32E
  5
3AC
331
32F
  5
3AB
331
330
  5
3AA
331
331
  5
3A9
331
332
  5
3A8
331
333
  5
3A7
331
334
  5
3A6
331
335
  5
3A5
331
336
  5
3A4
331
337
  5
3A3
331
338
  5
3A2
331
339
  5
3A1
331
33A
  5
3A0
331
33B
  5
39F
331
33C
  5
39E
331
33D
  5
39D
331
33E
  5
39C
331
33F
  5
39B
331
340
  5
39A
331
341
  5
399
331
342
  5
398
331
343
  5
397
331
344
  5
396
331
345
  5
395
331
346
  5
394
331
347
  5
393
331
348
  5
392
331
34B
  5
391
331
34C
  5
390
331
34D
  5
38D
331
34E
  5
38C
331
34F
  5
38B
331
350
  5
38A
331
351
  5
389
331
352
  5
388
331
353
  5
387
331
354
  5
386
331
355
  5
385
331
356
  5
384
331
357
  5
383
331
358
  5
382
331
359
  5
381
331
35A
  5
380
331
361
  5
379
331
362
  5
378
331
367
  5
373
331
368
  5
372
331
369
  5
371
331
371
  5
369
331
373
  5
367
331
374
  5
366
331
375
  5
365
331
376
  5
364
331
377
  5
363
331
378
  5
362
331
379
  5
361
331
37A
  5
360
331
37B
  5
35F
331
37C
  5
35E
331
37D
  5
35D
331
37E
  5
35C
331
37F
  5
35B
331
380
  5
35A
331
381
  5
359
331
383
  5
357
331
389
  5
351
331
38A
  5
350
331
38B
  5
34F
331
38C
  5
34E
331
38D
  5
34D
331
38E
  5
34C
331
38F
  5
34B
331
390
  5
34A
331
391
  5
349
331
392
  5
348
331
393
  5
347
331
394
  5
346
331
395
  5
345
331
396
  5
344
331
397
  5
343
331
398
  5
342
331
399
  5
341
331
39A
  5
340
331
39B
  5
33F
331
39C
  5
33E
331
39D
  5
33D
331
39E
  5
33C
331
39F
  5
33B
331
3A0
  5
33A
331
3A1
  5
339
331
3A2
  5
338
331
3A3
  5
337
331
3A4
  5
336
331
3A5
  5
335
331
3A6
  5
334
331
3A7
  5
333
331
3A8
  5
332
331
3A9
  5
331
331
3AA
  5
330
331
3AB
  5
32F
331
3AD
  5
32D
331
3B0
  5
32A
331
3B1
  5
329
331
3B2
  5
328
331
3B3
  5
327
331
3B4
  5
326
331
3B5
  5
325
331
3B6
  5
324
331
3B7
  5
323
331
3B8
  5
322
331
3B9
  5
321
331
3BA
  5
320
331
3BB
  5
31F
331
3BC
  5
31E
331
3BD
  5
31D
331
3BE
  5
31C
331
3BF
  5
31B
331
3C0
  5
31A
331
3C1
  5
319
331
3C2
  5
318
331
3C3
  5
317
331
3C4
  5
316
331
3C5
  5
315
331
3C6
  5
314
331
3C7
  5
313
331
3C8
  5
312
331
3C9
  5
311
331
3CA
  5
310
331
3CB
  5
30F
331
3CC
  5
30E
331
3CD
  5
30D
331
3CE
  5
30C
331
3CF
  5
30B
331
3D0
  5
30A
331
3D1
  5
309
331
3D2
  5
308
331
3D3
  5
307
331
3D4
  5
306
331
3D5
  5
305
331
3D6
  5
304
331
3D7
  5
303
331
3D8
  5
302
331
3D9
  5
301
331
3DA
  5
300
331
3DB
  5
2FF
331
3DC
  5
2FE
331
3DD
  5
2FD
331
3DE
  5
2FC
331
3DF
  5
2FB
331
3E0
  5
2FA
331
3E1
  5
2F9
331
3E2
  5
2F8
331
3E3
  5
2F7
331
3E4
  5
2F6
331
3E5
  5
2F5
331
3E6
  5
2F4
331
3E7
  5
2F3
331
3E8
  5
2F2
331
3E9
  5
2F1
331
3EA
  5
2F0
331
3EB
  5
2EF
331
3EC
  5
2EE
331
3ED
  5
2ED
331
3EE
  5
2EC
331
3EF
  5
2EB
331
3F0
  5
2EA
331
3F1
  5
2E9
331
3F2
  5
2E8
331
3F4
  5
2E6
331
3F5
  5
2E5
331
3F6
  5
2E4
331
3F7
  5
2E3
331
3F8
  5
2E2
331
407
  5
2D5
331
409
  5
2D1
331
40A
  5
2D0
331
40B
  5
2CF
331
40C
  5
2CE
331
40D
  5
2CD
331
40E
  5
2CC
331
40F
  5
2CB
331
410
  5
2CA
331
411
  5
2C9
331
412
  5
2C8
331
413
  5
2C7
331
414
  5
2C6
331
415
  5
2C5
331
416
  5
2C4
331
417
  5
2C3
331
418
  5
2C2
331
419
  5
2C1
331
41A
  5
2C0
331
41B
  5
2BF
331
41C
  5
2BE
331
41E
  5
2BC
331
420
  5
2BA
331
421
  5
2B9
331
422
  5
2B8
331
423
  5
2B7
331
424
  5
2B6
331
425
  5
2B5
331
426
  5
2B4
331
427
  5
2B3
331
428
  5
2B2
331
429
  5
2B1
331
42A
  5
2B0
331
42B
  5
2AF
331
42C
  5
2AE
331
42D
  5
2AD
331
42E
  5
2AC
331
42F
  5
2AB
331
430
  5
2AA
331
431
  5
2A9
331
434
  5
2A6
331
435
  5
2A5
331
437
  5
2A3
331
438
  5
2A2
331
439
  5
2A1
331
43A
  5
2A0
331
43B
  5
29F
331
43C
  5
29E
331
43D
  5
29D
331
43E
  5
29C
331
43F
  5
29B
331
440
  5
29A
331
441
  5
299
331
442
  5
298
331
443
  5
297
331
444
  5
296
331
445
  5
295
331
446
  5
294
331
447
  5
293
331
448
  5
292
331
449
  5
291
331
44A
  5
290
331
44B
  5
28F
331
44C
  5
28E
331
44D
  5
28D
331
44F
  5
28B
331
450
  5
28A
331
451
  5
289
331
452
  5
288
331
453
  5
287
331
454
  5
286
331
455
  5
285
331
456
  5
284
331
457
  5
283
331
458
  5
282
331
459
  5
281
331
45A
  5
280
331
45B
  5
27F
331
45C
  5
27E
331
45D
  5
27D
331
45E
  5
27C
331
45F
  5
27B
331
460
  5
27A
331
461
  5
279
331
462
  5
278
331
463
  5
277
331
464
  5
276
331
465
  5
275
331
466
  5
274
331
467
  5
273
331
468
  5
272
331
469
  5
271
331
46A
  5
270
331
46B
  5
26F
331
46C
  5
26E
331
46D
  5
26D
331
46E
  5
26C
331
46F
  5
26B
331
471
  5
269
331
472
  5
268
331
478
  5
263
331
479
  5
262
331
47A
  5
260
331
47B
  5
25F
331
47C
  5
25E
331
47D
  5
25D
331
47E
  5
25C
331
47F
  5
25B
331
4AD
  5
22D
331
4B9
  5
222
331
4BA
  5
221
331
4BF
  5
21F
331
4C0
  5
21E
331
4C1
  5
219
331
4C2
  5
218
331
4C3
  5
217
331
4C4
  5
216
331
4C5
  5
215
331
4C6
  5
214
331
4C7
  5
213
331
4C8
  5
212
331
4C9
  5
211
331
4CA
  5
210
331
4CB
  5
20F
331
4CC
  5
20E
331
4CD
  5
20D
331
4CE
  5
20C
331
4CF
  5
20B
331
4D0
  5
20A
331
4D1
  5
209
331
4D2
  5
208
331
4D3
  5
207
331
4D4
  5
206
331
4D5
  5
205
331
4D6
  5
204
331
4D7
  5
203
331
4D8
  5
202
331
4D9
  5
201
331
4DA
  5
200
331
4DB
  5
1FF
331
4DC
  5
1FE
331
4DD
  5
1FD
331
4DE
  5
1FC
331
4DF
  5
1FB
331
4E0
  5
1FA
331
4E1
  5
1F9
331
4E2
  5
1F8
331
4E3
  5
1F7
331
4E4
  5
1F6
331
4E5
  5
1F5
331
4E6
  5
1F4
331
4E7
  5
1F3
331
4E8
  5
1F2
331
4E9
  5
1F1
331
4EA
  5
1F0
331
4EB
  5
1EF
331
4EC
  5
1EE
331
4ED
  5
1ED
331
4EE
  5
1EC
331
4EF
  5
1EB
331
4F0
  5
1EA
331
4F1
  5
1E9
331
4F2
  5
1E8
331
4F3
  5
1E7
331
4F4
  5
1E6
331
4F5
  5
1E5
331
4F6
  5
1E4
331
4F7
  5
1E3
331
4F8
  5
1E2
331
4F9
  5
1E1
331
4FA
  5
1E0
331
4FB
  5
1DF
331
4FC
  5
1DE
331
4FD
  5
1DD
331
4FE
  5
1DC
331
4FF
  5
1DB
331
500
  5
1DA
331
501
  5
1D9
331
502
  5
1D8
331
503
  5
1D7
331
504
  5
1D6
331
505
  5
1D5
331
531
  5
1A9
331
532
  5
1A8
331
533
  5
1A7
331
534
  5
1A6
331
535
  5
1A5
331
536
  5
1A4
331
537
  5
1A3
331
538
  5
53A
331
539
  5
53B
331
53A
  5
53C
331
53B
  5
53D
331
53C
  5
53E
331
53D
  5
53F
331
53E
  5
540
331
53F
  5
541
331
565
  5
567
331
566
  5
568
331
567
  5
569
331
568
  5
56A
331
569
  5
56B
331
56A
  5
56C
331
56B
  5
56D
331
56C
  5
56E
331
56D
  5
56F
331
56E
  5
570
331
56F
  5
571
331
570
  5
572
331
571
  5
573
331
572
  5
574
331
573
  5
575
331
574
  5
576
331
58E
  5
590
331
58F
  5
591
331
590
  5
592
331
591
  5
593
331
592
  5
594
331
593
  5
595
331
594
  5
596
331
595
  5
597
331
596
  5
598
331
597
  5
599
331
598
  5
59A
331
599
  5
59B
331
59A
  5
59C
331
59B
  5
59D
331
59C
  5
59E
331
59D
  5
59F
331
59E
  5
5A1
331
59F
  5
5A2
  0
LAYOUT
  5
23
102
{ACAD_REACTORS
330
24
102
}
102
{ACAD_XDICTIONARY
360
25
102
}
330
24
100
AcDbPlotSettings
  1

  2
Bullzip PDF Printer.pc3
  4
A3
  6

 40
0.2
 41
0.0
 42
0.0
 43
0.0
 44
420.2
 45
297.1
 46
25.0
 47
12.0
 48
79.99999984133319
 49
0.0
140
1607.999996341334
141
1089.999997456667
142
1.0
143
4.0
 70
 11936
 72
     1
 73
     0
 74
     4
  7
monochrome.ctb
 75
    18
147
0.25
148
-79.99999984133319
149
0.0
100
AcDbLayout
  1
Model
 70
     1
 71
     0
 10
0.0
 20
0.0
 11
12.0
 21
9.0
 12
0.0
 22
0.0
 32
0.0
 14
134.831978265662
 24
36.14762271037523
 34
0.0
 15
1472.001240632695
 25
1210.476500795136
 35
0.0
146
0.0
 13
0.0
 23
0.0
 33
0.0
 16
1.0
 26
0.0
 36
0.0
 17
0.0
 27
1.0
 37
0.0
 76
     0
330
1B
331
35
1001
ACAD_PSEXT
1000
Bullzip PDF Printer.pc3
1000
Bullzip PDF Printer
1000
BULLZIP
1000
Bullzip PDF Printer 10.1.0.1871
1070
     0
  0
LAYOUT
  5
2B
102
{ACAD_REACTORS
330
24
102
}
330
24
100
AcDbPlotSettings
  1

  2
SR-LP8000S!1
  4

  6

 40
0.0
 41
0.0
 42
0.0
 43
0.0
 44
0.0
 45
0.0
 46
0.0
 47
0.0
 48
0.0
 49
0.0
140
0.0
141
0.0
142
1.0
143
1.0
 70
   688
 72
     0
 73
     0
 74
     5
  7
monochrome.ctb
 75
    16
147
1.0
148
0.0
149
0.0
100
AcDbLayout
  1
ﾚｲｱｳﾄ1
 70
     1
 71
     1
 10
0.0
 20
0.0
 11
12.0
 21
9.0
 12
0.0
 22
0.0
 32
0.0
 14
1.000000000000000E+20
 24
1.000000000000000E+20
 34
1.000000000000000E+20
 15
-1.000000000000000E+20
 25
-1.000000000000000E+20
 35
-1.000000000000000E+20
146
0.0
 13
0.0
 23
0.0
 33
0.0
 16
1.0
 26
0.0
 36
0.0
 17
0.0
 27
1.0
 37
0.0
 76
     0
330
28
  0
MATERIAL
  5
5B
102
{ACAD_REACTORS
330
B
102
}
102
{ACAD_XDICTIONARY
360
5B7
102
}
330
B
100
AcDbMaterial
  1
ByBlock
 72
     0
 73
     2
 43
0.0208333333333333
 43
0.0
 43
0.0
 43
0.0
 43
0.0
 43
0.0208333333333333
 43
0.0
 43
0.0
 43
0.0
 43
0.0
 43
1.0
 43
0.0
 43
0.0
 43
0.0
 43
0.0
 43
1.0
 77
     0
 78
     2
 47
0.0208333333333333
 47
0.0
 47
0.0
 47
0.0
 47
0.0
 47
0.0208333333333333
 47
0.0
 47
0.0
 47
0.0
 47
0.0
 47
1.0
 47
0.0
 47
0.0
 47
0.0
 47
0.0
 47
1.0
171
     0
172
     2
 49
0.0208333333333333
 49
0.0
 49
0.0
 49
0.0
 49
0.0
 49
0.0208333333333333
 49
0.0
 49
0.0
 49
0.0
 49
0.0
 49
1.0
 49
0.0
 49
0.0
 49
0.0
 49
0.0
 49
1.0
175
     0
176
     2
142
0.0208333333333333
142
0.0
142
0.0
142
0.0
142
0.0
142
0.0208333333333333
142
0.0
142
0.0
142
0.0
142
0.0
142
1.0
142
0.0
142
0.0
142
0.0
142
0.0
142
1.0
179
     0
270
     2
144
0.0208333333333333
144
0.0
144
0.0
144
0.0
144
0.0
144
0.0208333333333333
144
0.0
144
0.0
144
0.0
144
0.0
144
1.0
144
0.0
144
0.0
144
0.0
144
0.0
144
1.0
274
     2
147
0.0208333333333333
147
0.0
147
0.0
147
0.0
147
0.0
147
0.0208333333333333
147
0.0
147
0.0
147
0.0
147
0.0
147
1.0
147
0.0
147
0.0
147
0.0
147
0.0
147
1.0
  0
MATERIAL
  5
14
102
{ACAD_REACTORS
330
B
102
}
102
{ACAD_XDICTIONARY
360
5B3
102
}
330
B
100
AcDbMaterial
  1
ByLayer
 72
     0
 73
     2
 43
0.0208333333333333
 43
0.0
 43
0.0
 43
0.0
 43
0.0
 43
0.0208333333333333
 43
0.0
 43
0.0
 43
0.0
 43
0.0
 43
1.0
 43
0.0
 43
0.0
 43
0.0
 43
0.0
 43
1.0
 77
     0
 78
     2
 47
0.0208333333333333
 47
0.0
 47
0.0
 47
0.0
 47
0.0
 47
0.0208333333333333
 47
0.0
 47
0.0
 47
0.0
 47
0.0
 47
1.0
 47
0.0
 47
0.0
 47
0.0
 47
0.0
 47
1.0
171
     0
172
     2
 49
0.0208333333333333
 49
0.0
 49
0.0
 49
0.0
 49
0.0
 49
0.0208333333333333
 49
0.0
 49
0.0
 49
0.0
 49
0.0
 49
1.0
 49
0.0
 49
0.0
 49
0.0
 49
0.0
 49
1.0
175
     0
176
     2
142
0.0208333333333333
142
0.0
142
0.0
142
0.0
142
0.0
142
0.0208333333333333
142
0.0
142
0.0
142
0.0
142
0.0
142
1.0
142
0.0
142
0.0
142
0.0
142
0.0
142
1.0
179
     0
270
     2
144
0.0208333333333333
144
0.0
144
0.0
144
0.0
144
0.0
144
0.0208333333333333
144
0.0
144
0.0
144
0.0
144
0.0
144
1.0
144
0.0
144
0.0
144
0.0
144
0.0
144
1.0
274
     2
147
0.0208333333333333
147
0.0
147
0.0
147
0.0
147
0.0
147
0.0208333333333333
147
0.0
147
0.0
147
0.0
147
0.0
147
1.0
147
0.0
147
0.0
147
0.0
147
0.0
147
1.0
  0
MATERIAL
  5
A
102
{ACAD_REACTORS
330
B
102
}
102
{ACAD_XDICTIONARY
360
5B5
102
}
330
B
100
AcDbMaterial
  1
Global
 72
     0
 73
     2
 43
0.0208333333333333
 43
0.0
 43
0.0
 43
0.0
 43
0.0
 43
0.0208333333333333
 43
0.0
 43
0.0
 43
0.0
 43
0.0
 43
1.0
 43
0.0
 43
0.0
 43
0.0
 43
0.0
 43
1.0
 77
     0
 78
     2
 47
0.0208333333333333
 47
0.0
 47
0.0
 47
0.0
 47
0.0
 47
0.0208333333333333
 47
0.0
 47
0.0
 47
0.0
 47
0.0
 47
1.0
 47
0.0
 47
0.0
 47
0.0
 47
0.0
 47
1.0
171
     0
172
     2
 49
0.0208333333333333
 49
0.0
 49
0.0
 49
0.0
 49
0.0
 49
0.0208333333333333
 49
0.0
 49
0.0
 49
0.0
 49
0.0
 49
1.0
 49
0.0
 49
0.0
 49
0.0
 49
0.0
 49
1.0
175
     0
176
     2
142
0.0208333333333333
142
0.0
142
0.0
142
0.0
142
0.0
142
0.0208333333333333
142
0.0
142
0.0
142
0.0
142
0.0
142
1.0
142
0.0
142
0.0
142
0.0
142
0.0
142
1.0
179
     0
270
     2
144
0.0208333333333333
144
0.0
144
0.0
144
0.0
144
0.0
144
0.0208333333333333
144
0.0
144
0.0
144
0.0
144
0.0
144
1.0
144
0.0
144
0.0
144
0.0
144
0.0
144
1.0
274
     2
147
0.0208333333333333
147
0.0
147
0.0
147
0.0
147
0.0
147
0.0208333333333333
147
0.0
147
0.0
147
0.0
147
0.0
147
1.0
147
0.0
147
0.0
147
0.0
147
0.0
147
1.0
1001
ACAD
1070
    -1
1070
     3
1070
     0
1000

1071
        0
  0
MLEADERSTYLE
  5
5A3
102
{ACAD_REACTORS
330
54B
102
}
102
{ACAD_XDICTIONARY
360
5E9
102
}
330
54B
100
AcDbMLeaderStyle
170
     2
171
     1
172
     0
 90
        2
 40
0.0
 41
0.0
173
     1
 91
-1056964608
340
11
 92
       -2
290
     1
 42
0.09
291
     1
 43
0.36
  3
Standard
341
0
 44
0.18
300

342
12
174
     1
178
     6
175
     1
176
     0
 93
-1056964608
 45
0.18
292
     0
297
     0
 46
0.18
343
0
 94
-1056964608
 47
1.0
 49
1.0
140
1.0
293
     1
141
0.0
294
     1
177
     0
142
1.0
295
     0
296
     0
143
0.125
1001
ACAD_MLEADERVER
1070
     2
  0
MLINESTYLE
  5
18
102
{ACAD_REACTORS
330
19
102
}
330
19
100
AcDbMlineStyle
  2
STANDARD
 70
     0
  3

 62
     0
 51
90.0
 52
90.0
 71
     2
 49
0.5
 62
   256
  6
BYLAYER
 49
-0.5
 62
   256
  6
BYLAYER
  0
ACDBPLACEHOLDER
  5
7
102
{ACAD_REACTORS
330
8
102
}
330
8
  0
SCALE
  5
5A
102
{ACAD_REACTORS
330
38
102
}
330
38
100
AcDbScale
 70
     0
300
1:1
140
1.0
141
1.0
290
     1
  0
TABLESTYLE
  5
5A8
102
{ACAD_REACTORS
330
54A
102
}
330
54A
100
AcDbTableStyle
  3
Standard
 70
     0
 71
     0
 40
0.06
 41
0.06
280
     0
281
     0
  7
STANDARD
140
0.18
170
     2
 62
     0
 63
   257
283
     0
274
    -2
284
     1
 64
     0
275
    -2
285
     1
 65
     0
276
    -2
286
     1
 66
     0
277
    -2
287
     1
 67
     0
278
    -2
288
     1
 68
     0
279
    -2
289
     1
 69
     0
  7
STANDARD
140
0.25
170
     5
 62
     0
 63
   257
283
     0
274
    -2
284
     1
 64
     0
275
    -2
285
     1
 65
     0
276
    -2
286
     1
 66
     0
277
    -2
287
     1
 67
     0
278
    -2
288
     1
 68
     0
279
    -2
289
     1
 69
     0
  7
STANDARD
140
0.18
170
     5
 62
     0
 63
   257
283
     0
274
    -2
284
     1
 64
     0
275
    -2
285
     1
 65
     0
276
    -2
286
     1
 66
     0
277
    -2
287
     1
 67
     0
278
    -2
288
     1
 68
     0
279
    -2
289
     1
 69
     0
  0
VISUALSTYLE
  5
553
102
{ACAD_REACTORS
330
32
102
}
102
{ACAD_XDICTIONARY
360
5C5
102
}
330
32
100
AcDbVisualStyle
  2
2dWireframe
 70
     4
 71
     0
 72
     2
 73
     0
 90
        0
 40
0.6
 41
30.0
 62
     5
 63
     7
 74
     1
 91
        4
 64
     7
 65
   257
 75
     1
175
     1
 42
1.0
 92
        0
 66
   257
 43
1.0
 76
     1
 77
     6
 78
     2
 67
     7
 79
     5
170
     0
171
     0
290
     0
174
     0
 93
        1
 44
0.0
173
     0
291
     0
 45
0.0
1001
ACAD
1000
AcDbSavedByObjectVersion
1070
     0
  0
VISUALSTYLE
  5
555
102
{ACAD_REACTORS
330
32
102
}
102
{ACAD_XDICTIONARY
360
5C9
102
}
330
32
100
AcDbVisualStyle
  2
Basic
 70
     7
 71
     1
 72
     0
 73
     1
 90
        0
 40
0.6
 41
30.0
 62
     5
 63
     7
 74
     0
 91
        4
 64
     7
 65
   257
 75
     1
175
     1
 42
1.0
 92
        8
 66
     7
 43
1.0
 76
     1
 77
     6
 78
     2
 67
     7
 79
     5
170
     0
171
     0
290
     0
174
     0
 93
        1
 44
0.0
173
     0
291
     1
 45
0.0
1001
ACAD
1000
AcDbSavedByObjectVersion
1070
     0
  0
VISUALSTYLE
  5
558
102
{ACAD_REACTORS
330
32
102
}
102
{ACAD_XDICTIONARY
360
5CF
102
}
330
32
100
AcDbVisualStyle
  2
Brighten
 70
    12
 71
     2
 72
     2
 73
     0
 90
        0
 40
0.6
 41
30.0
 62
     5
 63
     7
 74
     1
 91
        4
 64
     7
 65
   257
 75
     1
175
     1
 42
1.0
 92
        8
 66
     7
 43
1.0
 76
     1
 77
     6
 78
     2
 67
     7
 79
     5
170
     0
171
     0
290
     0
174
     0
 93
        1
 44
50.0
173
     0
291
     1
 45
0.0
1001
ACAD
1000
AcDbSavedByObjectVersion
1070
     0
  0
VISUALSTYLE
  5
55C
102
{ACAD_REACTORS
330
32
102
}
102
{ACAD_XDICTIONARY
360
5D7
102
}
330
32
100
AcDbVisualStyle
  2
ColorChange
 70
    16
 71
     2
 72
     2
 73
     3
 90
        0
 40
0.6
 41
30.0
 62
     5
 63
     8
 74
     1
 91
        4
 64
     7
 65
   257
 75
     1
175
     1
 42
1.0
 92
        8
 66
     8
 43
1.0
 76
     1
 77
     6
 78
     2
 67
     7
 79
     5
170
     0
171
     0
290
     0
174
     0
 93
        1
 44
0.0
173
     0
291
     1
 45
0.0
1001
ACAD
1000
AcDbSavedByObjectVersion
1070
     0
  0
VISUALSTYLE
  5
556
102
{ACAD_REACTORS
330
32
102
}
102
{ACAD_XDICTIONARY
360
5CB
102
}
330
32
100
AcDbVisualStyle
  2
Conceptual
 70
     9
 71
     3
 72
     2
 73
     0
 90
        0
 40
0.6
 41
30.0
 62
     5
 63
     7
 74
     2
 91
        2
 64
     7
 65
   257
 75
     1
175
     1
 42
40.0
 92
        8
 66
     7
 43
1.0
 76
     1
 77
     6
 78
     2
 67
     7
 79
     3
170
     0
171
     0
290
     0
174
     0
 93
        1
 44
0.0
173
     0
291
     0
 45
0.0
1001
ACAD
1000
AcDbSavedByObjectVersion
1070
     0
  0
VISUALSTYLE
  5
557
102
{ACAD_REACTORS
330
32
102
}
102
{ACAD_XDICTIONARY
360
5CD
102
}
330
32
100
AcDbVisualStyle
  2
Dim
 70
    11
 71
     2
 72
     2
 73
     0
 90
        0
 40
0.6
 41
30.0
 62
     5
 63
     7
 74
     1
 91
        4
 64
     7
 65
   257
 75
     1
175
     1
 42
1.0
 92
        8
 66
     7
 43
1.0
 76
     1
 77
     6
 78
     2
 67
     7
 79
     5
170
     0
171
     0
290
     0
174
     0
 93
        1
 44
-50.0
173
     0
291
     1
 45
0.0
1001
ACAD
1000
AcDbSavedByObjectVersion
1070
     0
  0
VISUALSTYLE
  5
55F
102
{ACAD_REACTORS
330
32
102
}
102
{ACAD_XDICTIONARY
360
5DD
102
}
330
32
100
AcDbVisualStyle
  2
EdgeColorOff
 70
    22
 71
     2
 72
     2
 73
     0
 90
        0
 40
0.6
 41
30.0
 62
     5
 63
     7
 74
     1
 91
        4
 64
     7
 65
   257
 75
     1
175
     1
 42
1.0
 92
        8
 66
     7
 43
1.0
 76
     1
 77
     6
 78
     2
 67
     7
 79
     5
170
     0
171
     0
290
     0
174
     0
 93
        1
 44
0.0
173
     0
291
     1
 45
0.0
1001
ACAD
1000
AcDbSavedByObjectVersion
1070
     0
  0
VISUALSTYLE
  5
55B
102
{ACAD_REACTORS
330
32
102
}
102
{ACAD_XDICTIONARY
360
5D5
102
}
330
32
100
AcDbVisualStyle
  2
Facepattern
 70
    15
 71
     2
 72
     2
 73
     0
 90
        0
 40
0.6
 41
30.0
 62
     5
 63
     7
 74
     1
 91
        4
 64
     7
 65
   257
 75
     1
175
     1
 42
1.0
 92
        8
 66
     7
 43
1.0
 76
     1
 77
     6
 78
     2
 67
     7
 79
     5
170
     0
171
     0
290
     0
174
     0
 93
        1
 44
0.0
173
     0
291
     1
 45
0.0
1001
ACAD
1000
AcDbSavedByObjectVersion
1070
     0
  0
VISUALSTYLE
  5
54F
102
{ACAD_REACTORS
330
32
102
}
102
{ACAD_XDICTIONARY
360
5BD
102
}
330
32
100
AcDbVisualStyle
  2
Flat
 70
     0
 71
     2
 72
     1
 73
     1
 90
        2
 40
0.6
 41
30.0
 62
     5
 63
     7
 74
     0
 91
        4
 64
     7
 65
   257
 75
     1
175
     1
 42
1.0
 92
        8
 66
     7
 43
1.0
 76
     1
 77
     6
 78
     2
 67
     7
 79
     5
170
     0
171
     0
290
     0
174
     0
 93
       13
 44
0.0
173
     0
291
     1
 45
0.0
1001
ACAD
1000
AcDbSavedByObjectVersion
1070
     0
  0
VISUALSTYLE
  5
550
102
{ACAD_REACTORS
330
32
102
}
102
{ACAD_XDICTIONARY
360
5BF
102
}
330
32
100
AcDbVisualStyle
  2
FlatWithEdges
 70
     1
 71
     2
 72
     1
 73
     1
 90
        2
 40
0.6
 41
30.0
 62
     5
 63
     7
 74
     1
 91
        4
 64
     7
 65
   257
 75
     1
175
     1
 42
1.0
 92
        0
 66
   257
 43
1.0
 76
     1
 77
     6
 78
     2
 67
     7
 79
     5
170
     0
171
     0
290
     0
174
     0
 93
       13
 44
0.0
173
     0
291
     1
 45
0.0
1001
ACAD
1000
AcDbSavedByObjectVersion
1070
     0
  0
VISUALSTYLE
  5
551
102
{ACAD_REACTORS
330
32
102
}
102
{ACAD_XDICTIONARY
360
5C1
102
}
330
32
100
AcDbVisualStyle
  2
Gouraud
 70
     2
 71
     2
 72
     2
 73
     1
 90
        2
 40
0.6
 41
30.0
 62
     5
 63
     7
 74
     0
 91
        4
 64
     7
 65
   257
 75
     1
175
     1
 42
1.0
 92
        0
 66
     7
 43
1.0
 76
     1
 77
     6
 78
     2
 67
     7
 79
     5
170
     0
171
     0
290
     0
174
     0
 93
       13
 44
0.0
173
     0
291
     1
 45
0.0
1001
ACAD
1000
AcDbSavedByObjectVersion
1070
     0
  0
VISUALSTYLE
  5
552
102
{ACAD_REACTORS
330
32
102
}
102
{ACAD_XDICTIONARY
360
5C3
102
}
330
32
100
AcDbVisualStyle
  2
GouraudWithEdges
 70
     3
 71
     2
 72
     2
 73
     1
 90
        2
 40
0.6
 41
30.0
 62
     5
 63
     7
 74
     1
 91
        4
 64
     7
 65
   257
 75
     1
175
     1
 42
1.0
 92
        0
 66
   257
 43
1.0
 76
     1
 77
     6
 78
     2
 67
     7
 79
     5
170
     0
171
     0
290
     0
174
     0
 93
       13
 44
0.0
173
     0
291
     1
 45
0.0
1001
ACAD
1000
AcDbSavedByObjectVersion
1070
     0
  0
VISUALSTYLE
  5
554
102
{ACAD_REACTORS
330
32
102
}
102
{ACAD_XDICTIONARY
360
5C7
102
}
330
32
100
AcDbVisualStyle
  2
Hidden
 70
     6
 71
     1
 72
     2
 73
     2
 90
        0
 40
0.6
 41
30.0
 62
     5
 63
     7
 74
     2
 91
        2
 64
     7
 65
   257
 75
     2
175
     1
 42
40.0
 92
        0
 66
   257
 43
1.0
 76
     1
 77
     6
 78
     2
 67
     7
 79
     3
170
     0
171
     0
290
     0
174
     0
 93
        1
 44
0.0
173
     0
291
     0
 45
0.0
1001
ACAD
1000
AcDbSavedByObjectVersion
1070
     0
  0
VISUALSTYLE
  5
55D
102
{ACAD_REACTORS
330
32
102
}
102
{ACAD_XDICTIONARY
360
5D9
102
}
330
32
100
AcDbVisualStyle
  2
JitterOff
 70
    20
 71
     2
 72
     2
 73
     0
 90
        0
 40
0.6
 41
30.0
 62
     5
 63
     7
 74
     1
 91
        4
 64
     7
 65
   257
 75
     1
175
     1
 42
1.0
 92
       10
 66
     7
 43
1.0
 76
     1
 77
     6
 78
     2
 67
     7
 79
     5
170
     0
171
     0
290
     0
174
     0
 93
        1
 44
0.0
173
     0
291
     1
 45
0.0
1001
ACAD
1000
AcDbSavedByObjectVersion
1070
     0
  0
VISUALSTYLE
  5
55A
102
{ACAD_REACTORS
330
32
102
}
102
{ACAD_XDICTIONARY
360
5D3
102
}
330
32
100
AcDbVisualStyle
  2
Linepattern
 70
    14
 71
     2
 72
     2
 73
     0
 90
        0
 40
0.6
 41
30.0
 62
     5
 63
     7
 74
     1
 91
        4
 64
     7
 65
   257
 75
     7
175
     7
 42
1.0
 92
        8
 66
     7
 43
1.0
 76
     1
 77
     6
 78
     2
 67
     7
 79
     5
170
     0
171
     0
290
     0
174
     0
 93
        1
 44
0.0
173
     0
291
     1
 45
0.0
1001
ACAD
1000
AcDbSavedByObjectVersion
1070
     0
  0
VISUALSTYLE
  5
55E
102
{ACAD_REACTORS
330
32
102
}
102
{ACAD_XDICTIONARY
360
5DB
102
}
330
32
100
AcDbVisualStyle
  2
OverhangOff
 70
    21
 71
     2
 72
     2
 73
     0
 90
        0
 40
0.6
 41
30.0
 62
     5
 63
     7
 74
     1
 91
        4
 64
     7
 65
   257
 75
     1
175
     1
 42
1.0
 92
        9
 66
     7
 43
1.0
 76
     1
 77
     6
 78
     2
 67
     7
 79
     5
170
     0
171
     0
290
     0
174
     0
 93
        1
 44
0.0
173
     0
291
     1
 45
0.0
1001
ACAD
1000
AcDbSavedByObjectVersion
1070
     0
  0
VISUALSTYLE
  5
33
102
{ACAD_REACTORS
330
32
102
}
102
{ACAD_XDICTIONARY
360
5B9
102
}
330
32
100
AcDbVisualStyle
  2
Realistic
 70
     8
 71
     2
 72
     3
 73
     0
 90
        2
 40
0.6
 41
30.0
 62
     5
 63
     7
 74
     0
 91
        0
 64
     7
 65
   257
 75
     1
175
     1
 42
1.0
 92
        8
 66
   257
 43
1.0
 76
     1
 77
     6
 78
     2
 67
     7
 79
     3
170
     0
171
     0
290
     0
174
     0
 93
       13
 44
0.0
173
     0
291
     0
 45
0.0
1001
ACAD
1000
AcDbSavedByObjectVersion
1070
     0
  0
VISUALSTYLE
  5
564
102
{ACAD_REACTORS
330
32
102
}
102
{ACAD_XDICTIONARY
360
5E7
102
}
330
32
100
AcDbVisualStyle
  2
Shaded
 70
    27
 71
     2
 72
     2
 73
     1
 90
        2
 40
0.6
 41
30.0
 62
     5
 63
     7
 74
     0
 91
        4
 64
     7
 65
   257
 75
     1
175
     1
 42
1.0
 92
        8
 66
   257
 43
1.0
 76
     1
 77
     6
 78
     2
 67
   251
 79
     3
170
     0
171
     0
290
     0
174
     0
 93
        5
 44
0.0
173
     0
291
     0
 45
0.0
1001
ACAD
1000
AcDbSavedByObjectVersion
1070
     0
  0
VISUALSTYLE
  5
563
102
{ACAD_REACTORS
330
32
102
}
102
{ACAD_XDICTIONARY
360
5E5
102
}
330
32
100
AcDbVisualStyle
  2
Shaded with edges
 70
    26
 71
     2
 72
     2
 73
     1
 90
        2
 40
0.6
 41
30.0
 62
     5
 63
     7
 74
     1
 91
       10
 64
     7
 65
   257
 75
     2
175
     1
 42
1.0
 92
        8
 66
   257
 43
1.0
 76
     1
 77
     6
 78
     2
 67
     7
 79
     3
170
     0
171
     0
290
     0
174
     0
 93
        5
 44
0.0
173
     0
291
     0
 45
0.0
1001
ACAD
1000
AcDbSavedByObjectVersion
1070
     0
  0
VISUALSTYLE
  5
560
102
{ACAD_REACTORS
330
32
102
}
102
{ACAD_XDICTIONARY
360
5DF
102
}
330
32
100
AcDbVisualStyle
  2
Shades of Gray
 70
    23
 71
     2
 72
     2
 73
     3
 90
        0
 40
0.6
 41
30.0
 62
     5
 63
     7
 74
     2
 91
        2
 64
     7
 65
     7
 75
     1
175
     1
 42
40.0
 92
        8
 66
     7
 43
1.0
 76
     1
 77
     6
 78
     2
 67
     7
 79
     3
170
     0
171
     0
290
     0
174
     0
 93
        1
 44
0.0
173
     0
291
     0
 45
0.0
1001
ACAD
1000
AcDbSavedByObjectVersion
1070
     0
  0
VISUALSTYLE
  5
561
102
{ACAD_REACTORS
330
32
102
}
102
{ACAD_XDICTIONARY
360
5E1
102
}
330
32
100
AcDbVisualStyle
  2
Sketchy
 70
    24
 71
     1
 72
     2
 73
     2
 90
        0
 40
0.6
 41
30.0
 62
     5
 63
     7
 74
     2
 91
        2
 64
     7
 65
     7
 75
     1
175
     1
 42
40.0
 92
       11
 66
     7
 43
1.0
 76
     1
 77
     6
 78
     2
 67
     7
 79
     6
170
     0
171
     0
290
     0
174
     0
 93
        1
 44
0.0
173
     0
291
     0
 45
0.0
1001
ACAD
1000
AcDbSavedByObjectVersion
1070
     0
  0
VISUALSTYLE
  5
559
102
{ACAD_REACTORS
330
32
102
}
102
{ACAD_XDICTIONARY
360
5D1
102
}
330
32
100
AcDbVisualStyle
  2
Thicken
 70
    13
 71
     2
 72
     2
 73
     0
 90
        0
 40
0.6
 41
30.0
 62
     5
 63
     7
 74
     1
 91
        4
 64
     7
 65
   257
 75
     1
175
     1
 42
1.0
 92
       12
 66
     7
 43
1.0
 76
     1
 77
     6
 78
     2
 67
     7
 79
     5
170
     0
171
     0
290
     0
174
     0
 93
        1
 44
0.0
173
     0
291
     1
 45
0.0
1001
ACAD
1000
AcDbSavedByObjectVersion
1070
     0
  0
VISUALSTYLE
  5
34
102
{ACAD_REACTORS
330
32
102
}
102
{ACAD_XDICTIONARY
360
5BB
102
}
330
32
100
AcDbVisualStyle
  2
Wireframe
 70
     5
 71
     0
 72
     2
 73
     0
 90
        0
 40
0.6
 41
30.0
 62
     5
 63
     7
 74
     1
 91
        4
 64
     7
 65
   257
 75
     1
175
     1
 42
1.0
 92
        0
 66
   257
 43
1.0
 76
     1
 77
     6
 78
     2
 67
     7
 79
     3
170
     0
171
     0
290
     0
174
     0
 93
        1
 44
0.0
173
     0
291
     0
 45
0.0
1001
ACAD
1000
AcDbSavedByObjectVersion
1070
     0
  0
VISUALSTYLE
  5
562
102
{ACAD_REACTORS
330
32
102
}
102
{ACAD_XDICTIONARY
360
5E3
102
}
330
32
100
AcDbVisualStyle
  2
X-Ray
 70
    25
 71
     2
 72
     2
 73
     1
 90
        1
 40
0.5
 41
30.0
 62
     5
 63
     7
 74
     1
 91
        0
 64
     7
 65
   257
 75
     1
175
     1
 42
1.0
 92
        8
 66
     7
 43
1.0
 76
     1
 77
     6
 78
     2
 67
     7
 79
     3
170
     0
171
     0
290
     0
174
     0
 93
       13
 44
0.0
173
     0
291
     0
 45
0.0
1001
ACAD
1000
AcDbSavedByObjectVersion
1070
     0
  0
XRECORD
  5
5AD
102
{ACAD_REACTORS
330
5AC
102
}
330
5AC
100
AcDbXrecord
280
     1
340
31
  0
XRECORD
  5
5AE
102
{ACAD_REACTORS
330
5AC
102
}
330
5AC
100
AcDbXrecord
280
     1
340
B
  0
DICTIONARYVAR
  5
549
102
{ACAD_REACTORS
330
548
102
}
330
548
100
DictionaryVariables
280
     0
  1
1:1
  0
DICTIONARYVAR
  5
5A7
102
{ACAD_REACTORS
330
548
102
}
330
548
100
DictionaryVariables
280
     0
  1
Standard
  0
DICTIONARYVAR
  5
5A9
102
{ACAD_REACTORS
330
548
102
}
330
548
100
DictionaryVariables
280
     0
  1
Standard
  0
DICTIONARYVAR
  5
5AA
102
{ACAD_REACTORS
330
548
102
}
330
548
100
DictionaryVariables
280
     0
  1
0
  0
DICTIONARYVAR
  5
5AB
102
{ACAD_REACTORS
330
548
102
}
330
548
100
DictionaryVariables
280
     0
  1
1
  0
DICTIONARYVAR
  5
5B2
102
{ACAD_REACTORS
330
548
102
}
330
548
100
DictionaryVariables
280
     0
  1
1
  0
DICTIONARYVAR
  5
54C
102
{ACAD_REACTORS
330
548
102
}
330
548
100
DictionaryVariables
280
     0
  1
0
  0
DICTIONARY
  5
25
330
23
100
AcDbDictionary
280
     1
281
     1
  3
ADSK_XREC_LAYOUTTHUMBNAIL
360
26
  0
DICTIONARY
  5
5B7
330
5B
100
AcDbDictionary
280
     1
281
     1
  3
ACAD_XREC_ROUNDTRIP
360
5B8
  0
DICTIONARY
  5
5B3
330
14
100
AcDbDictionary
280
     1
281
     1
  3
ACAD_XREC_ROUNDTRIP
360
5B4
  0
DICTIONARY
  5
5B5
330
A
100
AcDbDictionary
280
     1
281
     1
  3
ACAD_XREC_ROUNDTRIP
360
5B6
  0
DICTIONARY
  5
5E9
330
5A3
100
AcDbDictionary
280
     1
281
     1
  3
ACAD_XREC_ROUNDTRIP
360
5EA
  0
DICTIONARY
  5
5C5
330
553
100
AcDbDictionary
280
     1
281
     1
  3
ACAD_XREC_ROUNDTRIP
360
5C6
  0
DICTIONARY
  5
5C9
330
555
100
AcDbDictionary
280
     1
281
     1
  3
ACAD_XREC_ROUNDTRIP
360
5CA
  0
DICTIONARY
  5
5CF
330
558
100
AcDbDictionary
280
     1
281
     1
  3
ACAD_XREC_ROUNDTRIP
360
5D0
  0
DICTIONARY
  5
5D7
330
55C
100
AcDbDictionary
280
     1
281
     1
  3
ACAD_XREC_ROUNDTRIP
360
5D8
  0
DICTIONARY
  5
5CB
330
556
100
AcDbDictionary
280
     1
281
     1
  3
ACAD_XREC_ROUNDTRIP
360
5CC
  0
DICTIONARY
  5
5CD
330
557
100
AcDbDictionary
280
     1
281
     1
  3
ACAD_XREC_ROUNDTRIP
360
5CE
  0
DICTIONARY
  5
5DD
330
55F
100
AcDbDictionary
280
     1
281
     1
  3
ACAD_XREC_ROUNDTRIP
360
5DE
  0
DICTIONARY
  5
5D5
330
55B
100
AcDbDictionary
280
     1
281
     1
  3
ACAD_XREC_ROUNDTRIP
360
5D6
  0
DICTIONARY
  5
5BD
330
54F
100
AcDbDictionary
280
     1
281
     1
  3
ACAD_XREC_ROUNDTRIP
360
5BE
  0
DICTIONARY
  5
5BF
330
550
100
AcDbDictionary
280
     1
281
     1
  3
ACAD_XREC_ROUNDTRIP
360
5C0
  0
DICTIONARY
  5
5C1
330
551
100
AcDbDictionary
280
     1
281
     1
  3
ACAD_XREC_ROUNDTRIP
360
5C2
  0
DICTIONARY
  5
5C3
330
552
100
AcDbDictionary
280
     1
281
     1
  3
ACAD_XREC_ROUNDTRIP
360
5C4
  0
DICTIONARY
  5
5C7
330
554
100
AcDbDictionary
280
     1
281
     1
  3
ACAD_XREC_ROUNDTRIP
360
5C8
  0
DICTIONARY
  5
5D9
330
55D
100
AcDbDictionary
280
     1
281
     1
  3
ACAD_XREC_ROUNDTRIP
360
5DA
  0
DICTIONARY
  5
5D3
330
55A
100
AcDbDictionary
280
     1
281
     1
  3
ACAD_XREC_ROUNDTRIP
360
5D4
  0
DICTIONARY
  5
5DB
330
55E
100
AcDbDictionary
280
     1
281
     1
  3
ACAD_XREC_ROUNDTRIP
360
5DC
  0
DICTIONARY
  5
5B9
330
33
100
AcDbDictionary
280
     1
281
     1
  3
ACAD_XREC_ROUNDTRIP
360
5BA
  0
DICTIONARY
  5
5E7
330
564
100
AcDbDictionary
280
     1
281
     1
  3
ACAD_XREC_ROUNDTRIP
360
5E8
  0
DICTIONARY
  5
5E5
330
563
100
AcDbDictionary
280
     1
281
     1
  3
ACAD_XREC_ROUNDTRIP
360
5E6
  0
DICTIONARY
  5
5DF
330
560
100
AcDbDictionary
280
     1
281
     1
  3
ACAD_XREC_ROUNDTRIP
360
5E0
  0
DICTIONARY
  5
5E1
330
561
100
AcDbDictionary
280
     1
281
     1
  3
ACAD_XREC_ROUNDTRIP
360
5E2
  0
DICTIONARY
  5
5D1
330
559
100
AcDbDictionary
280
     1
281
     1
  3
ACAD_XREC_ROUNDTRIP
360
5D2
  0
DICTIONARY
  5
5BB
330
34
100
AcDbDictionary
280
     1
281
     1
  3
ACAD_XREC_ROUNDTRIP
360
5BC
  0
DICTIONARY
  5
5E3
330
562
100
AcDbDictionary
280
     1
281
     1
  3
ACAD_XREC_ROUNDTRIP
360
5E4
  0
XRECORD
  5
26
102
{ACAD_REACTORS
330
25
102
}
330
25
100
AcDbXrecord
280
     1
310
280000000001000078000000010008000000000000780000000000000000000000010000000000003028210000000000C8C8C8000000000000000000000000000000000000000000000000000000000000000000330000006600000099000000CC000000FF00000000330000333300006633000099330000CC330000FF3300
310
0000660000336600006666000099660000CC660000FF66000000990000339900006699000099990000CC990000FF99000000CC000033CC000066CC000099CC0000CCCC0000FFCC000000FF000033FF000066FF000099FF0000CCFF0000FFFF000000003300330033006600330099003300CC003300FF003300003333003333
310
33006633330099333300CC333300FF33330000663300336633006666330099663300CC663300FF66330000993300339933006699330099993300CC993300FF99330000CC330033CC330066CC330099CC3300CCCC3300FFCC330000FF330033FF330066FF330099FF3300CCFF3300FFFF330000006600330066006600660099
310
006600CC006600FF00660000336600333366006633660099336600CC336600FF33660000666600336666006666660099666600CC666600FF66660000996600339966006699660099996600CC996600FF99660000CC660033CC660066CC660099CC6600CCCC6600FFCC660000FF660033FF660066FF660099FF6600CCFF6600
310
FFFF660000009900330099006600990099009900CC009900FF00990000339900333399006633990099339900CC339900FF33990000669900336699006666990099669900CC669900FF66990000999900339999006699990099999900CC999900FF99990000CC990033CC990066CC990099CC9900CCCC9900FFCC990000FF99
310
0033FF990066FF990099FF9900CCFF9900FFFF99000000CC003300CC006600CC009900CC00CC00CC00FF00CC000033CC003333CC006633CC009933CC00CC33CC00FF33CC000066CC003366CC006666CC009966CC00CC66CC00FF66CC000099CC003399CC006699CC009999CC00CC99CC00FF99CC0000CCCC0033CCCC0066CC
310
CC0099CCCC00CCCCCC00FFCCCC0000FFCC0033FFCC0066FFCC0099FFCC00CCFFCC00FFFFCC000000FF003300FF006600FF009900FF00CC00FF00FF00FF000033FF003333FF006633FF009933FF00CC33FF00FF33FF000066FF003366FF006666FF009966FF00CC66FF00FF66FF000099FF003399FF006699FF009999FF00CC
310
99FF00FF99FF0000CCFF0033CCFF0066CCFF0099CCFF00CCCCFF00FFCCFF0000FFFF0033FFFF0066FFFF0099FFFF00CCFFFF00FFFFFF00000000000D0D0D001A1A1A00282828003535350043434300505050005D5D5D006B6B6B00787878008686860093939300A1A1A100AEAEAE00BBBBBB00C9C9C900D6D6D600E4E4E400
310
F1F1F100FFFFFF000000000000000000000000000000000000000000000000000000000000000000000000000000000000000000000000000000000000000000000000000000000000000000000000000000000000000000000000000000000000000000000000000000000000000000000000000000000000000000000000
310
00000000000000000000000000000000000000000000000000000000000000000000000000000000000000000000000000000000000000000000000000000000000000000000000000000000000000000000000000000000000000000000000000000000000000000000000000000000000000000000000000000000000000
310
00000000000000000000000000000000000000000000000000000000000000000000000000000000000000000000000000000000000000000000000000000000000000000000000000000000000000000000000000000000000000000000000000000000000000000000000000000000000000000000000000000000000000
310
00000000000000000000000000000000000000000000000000000000000000000000000000000000000000000000000000000000000000000000000000000000000000000000000000000000000000000000000000000000000000000000000000000000000000000000000000000000000000000000000000000000000000
310
00000000000000000000000000000000000000000000000000000000000000000000000000000000000000000000000000000000000000000000000000000000000000000000000000000000000000000000000000000000000000000000000000000000000000000000000000000000000000000000000000000000000000
310
00000000000000000000000000000000000000000000000000000000000000000000000000000000000000000000000000000000000000000000000000000000000000000000000000000000000000000000000000000000000000000000000000000000000000000000000000000000000000000000000000000000000000
310
00000000000000000000000000000000000000000000000000000000000000000000000000000000000000000000000000000000000000000000000000000000000000000000000000000000000000000000000000000000000000000000000000000000000000000000000000000000000000000000000000000000000000
310
00000000000000000000000000000000000000000000000000000000000000000000000000000000000000000000000000000000000000000000000000000000000000000000000000000000000000000000000000000000000000000000000000000000000000000000000000000000000000000000000000000000000000
310
00000000000000000000000000000000000000000000000000000000000000000000000000000000000000000000000000000000000000000000000000000000000000000000000000000000000000000000000000000000000000000000000000000000000000000000000000000000000000000000000000000000000000
310
00000000000000000000000000000000000000000000000000000000000000000000000000000000000000000000000000000000000000000000000000000000000000000000000000000000000000000000000000000000000000000000000000000000000000000000000000000000000000000000000000000000000000
310
00000000000000000000000000000000000000000000000000000000000000000000000000000000000000000000000000000000000000000000000000000000000000000000000000000000000000000000000000000000000000000000000000000000000000000000000000000000000000000000000000000000000000
310
00000000000000000000000000000000000000000000000000000000000000000000000000000000000000000000000000000000000000000000000000000000000000000000000000000000000000000000000000000000000000000000000028282828282828282828282828282828282800000000000000000000000000
310
00000000000000000000000000000000000000000000000000000000000000000000000000000000000000000000000000000000000000000000000000000000000000000000000000000000000000000000000000000000000000000000000000000000000000000000000000000000000000000000000000000000000000
310
00000000000000000000000000000000000000000000000000000000000000000000000000000000000000000000000000000000000000000000000000000000000000000000000000000000000000000028282828282828282828282828282828002828282828282828282828282828282800280000000000000000000000
310
00000000000000000000000000000000000000000000000000000000000000000000000000000000000000000000000000000000000000000000000000000000000000000000000000000000000000000000000000000000000000000000000000000000000000000000000000000000000000000000000000000000000000
310
0000000000000000000000000000000000000000000000000000000000000000000000000000000000000000000000000000000000000000000000000000000000000000000000000000000000000000000000280000F5F500F500F500F5F500000028002800F5F50000F50000F5F50000F500280028000000000000000000
310
00000000000000000000000000000000000000000000000000000000000000000000000000000000000000000000000000000000000000000000000000000000000000000000000000000000000000000000000000000000000000000000000000000000000000000000000000000000000000000000000000000000000000
310
00000000000000000000000000000000000000000000000000000000000000000000000000000000000000000000000000000000000000000000000000000000000000000000000000000000000000000000000000280000F5F50000F50000F5F500000028002800F5F50000F5F500F5F50000F5F528002800000000000000
310
00000000000000000000000000000000000000000000000000000000000000000000000000000000000000000000000000000000000000000000000000000000000000000000000000000000000000000000000000000000000000000000000000000000000000000000000000000000000000000000000000000000000000
310
00000000000000000000000000000000000000000000000000000000000000000000000000000000000000000000000000000000000000000000000000000000000000000000000000000000000000000000000000000028282828282828282828282828282828002828F5282828F5282828F52828F5282800280000000000
310
00000000000000000000000000000000000000000000000000000000000000000000000000000000000000000000000000000000000000000000000000000000000000000000000000000000000000000000000000000000000000000000000000000000000000000000000000000000000000000000000000000000000000
310
00000000000000000000000000000000000000000000000000000000000000000000000000000000000000000000000000000000000000000000000000000000000000000000000000000000000000000000000000000000000000000000000000000000000000000000000000000000000000000000000000000000000000
310
00000000000000000000000000000000000000000000000000000000000000000000000000000000000000000000000000000000000000000000000000000000000000000000000000000000000000000000000000000000000000000000000000000000000000000000000000000000000000000000000000000000000000
310
00000000000000000000000000000000000000000000000000000000000000000000000000000000000000000000000000000000000000000000000000000000000000000000000000000000000000000000000000000000000000000000000000000000000000000000000000000000000000000000000000000000000000
310
00000000000000000000000000000000000000000000000000000000000000000000000000000000000000000000000000000000000000000000000000000000000000000000000000000000000000000000000000000000000000000000000000000000000000000000000000000000000000000000000000000000000000
310
00000000000000000000000000000000000000000000000000000000000000000000000000000000000000000000000000000000000000000000000000000000000000000000000000000000000000000000000000000000000000000000000000000000000000000000000000000000000000000000000000000000000000
310
00000000000000000000000000000000000000000000000000000000000000000000000000000000000000000000000000000000000000000000000000000000000000000000000000000000000000000000000000000000000000000000000000000000000000000000000000000000000000000000000000000000000000
310
00000000000000000000000000000000000000F0F0F0F0F0F0F0F0F0F0F0F0F0F0F0F0F0F0F0F0F0F0F0F0F0F0F0F0F0F0F0F0F0F0F0F0F0F0F0F0F0F0F0F0F0F0F0F0F0F0F0F0F0F0F0F0F0F0F0BEBEBEF0F0F0F0F0F0F0F0F0F0F0F0F0F0F0F0F0F0F0F0F0F0F0F0F0F0F0BEF0F0F0F0F0F0F0F0F0F0F0F0F0F0F0BEF028
310
28F0F000000000000000000000000000000000000000000000000000000000000000000000000000000000000000000000000000000000000000000000000000000000000000000000000000000000000000000000000000000000000000000000000000000000000000000000000000000000000000000000000000000000
310
000000000000000000000000000000000000000000F0000000000000000000000000000000000000000000000000000000000000000000000000000000000000000000000000000000F000000000F000BEBEBEF0F0F0F0F0F0F0F0F0F0F0F0F0F000F0F0F0F0F0F0F0F0F0F00000BE002828282828282828282828282828BE
310
00282800F00000000000000000000000000000000000000000000000000000000000000000000000000000000000000000000000000000000000000000000000000000000000000000000000000000000000000000000000000000000000000000000000000000000000000000000000000000000000000000000000000000
310
0000000000000000000000000000000000000000000000F0000000000000000000000000000000000000000000000000000000000000000000000000000000000000000000000000000000F000BEBEBEF000BEBEBEF0F0F0F0F0F0F0F0F0F0F0F0F0F0F0F0F0F0F0F0F000F0F0F00000BEBEBE000000000000000000000000
310
00BEBEBEBEBEBE000000000000000000000000000000000000000000000000000000000000000000000000000000000000000000000000000000000000000000000000000000000000000000000000000000000000000000000000000000000000000000000000000000000000000000000000000000000000000000000000
310
00000000000000000000000000000000000000000000000000F000000000000000000000002DDCDC2DDCDCDCDCDCDC2D00000000002DDCDC2DDCDCDCDCDCDC2D00000000000000000000000000F000BEBEBEF0F0F0F0F0F0F0F0F0BEF0F0F0F0F0BEF0F0F0F0BEF0F0F0F0F0BEF0F0F0F0F0BEBEBEF0F0F0F0F0F0F0F0F0F0
310
F0F0F0BEBEBEBEBEF000000000000000000000000000000000000000000000000000000000000000000000000000000000000000000000000000000000000000000000000000000000000000000000000000000000000000000000000000000000000000000000000000000000000000000000000000000000000000000000
310
000000000000000000000000000000000000000000000000000000F0000000000000000000000000DCDC00DCDCDCDCDCDC00000000000000DCDC00DCDCDCDCDCDC0000000000000000000000000000F000000000F0BEBEBEBEBEBEBE00BEBE00000000BE00000000BE0000000000BE0000000000BE00000000002828282828
310
28282800000000000000F00000000000000000000000000000000000000000000000000000000000000000000000000000000000000000000000000000000000000000000000000000000000000000000000000000000000000000000000000000000000000000000000000000000000000000000000000000000000000000
310
0000000000000000000000000000000000000000000000000000000000F000000000000000000000000000000000DCDC000000000000002D000000000000DCDC0000000000000000000000000000000000F0F0F0F0F0F0BEBEBEBEBEBEBEBEBE00BEBE0000BEBEBEBEBEBEBEBEBEBEBEBEBEBEBEBEBEBEBEBE000000002828
310
282828282800000000000000F0000000000000000000000000000000000000000000000000000000000000000000000000000000000000000000000000000000000000000000000000000000000000000000000000000000000000000000000000000000000000000000000000000000000000000000000000000000000000
310
00000000000000000000000000000000000000000000000000000000000000F000000000000000000000DC0000000000000000000000000000DCDC000000000000000000000000000000000000000000000000F0BEBEBEBEF0BEBEBEBEBEBEBEBEBE000000BE00BEBEBEBEBEBE00BEBEBEBEBE00BEBEBE00BEBEBE00000028
310
2800282828282800000000000000F000000000000000000000000000000000000000000000000000000000000000000000000000000000000000000000000000000000000000000000000000000000000000000000000000000000000000000000000000000000000000000000000000000000000000000000000000000000
310
000000000000000000000000000000000000000000000000000000000000000000F000000000000000000000DCDCDC000000000000000000000000DCDCDC2D000000BE000000000000000000000000000000000000F0BEBEBEBEF0BE0000BE00F0F0F0BE00000000BEBEBEBEBEBEBE00BEBEBEBEBE00BEBEBE00BEBEBEBEBE
310
BEBEBEBEBEBEBEBEBEBEBEBEBEBEBEBEF00000000000000000000000000000000000000000000000000000000000000000000000000000000000000000000000000000000000000000000000000000000000000000000000000000000000000000000000000000000000000000000000000000000000000000000000000000
310
0000000000000000000000000000000000000000000000000000000000000000000000F00000000000000000000000DCDC2D2D0000BE0000000000000000DCDCDCDC282828282800000000000000000000000000000000F0BEBEBEBEBEBEF0F0F0BEBEBEBEBEBEBEBEBEBEBEBEBEBEBEBEBEBEBEBEBEBEBEBEBEBEBEBEBEBE
310
002828282828282828282828282828282828F0000000000000000000000000000000000000000000000000000000000000000000000000000000000000000000000000000000000000000000000000000000000000000000000000000000000000000000000000000000000000000000000000000000000000000000000000
310
00000000000000000000000000000000000000000000000000000000000000000000000000F0000000000000000000000000DCDCDC2D2828280000000000000000DCDCDC2D2DBE002800000000000000000000000000000000F0BEBEBEBEF0BE00F0F0BEBEBEBEBE00BEBEBE00BEBEBEBEBEBE00BEBEBEBEBE00BEBEBEBEBE
310
BEBE002828282800000000282828000000002800F000000000000000000000000000000000000000000000000000000000000000000000000000000000000000000000000000000000000000000000000000000000000000000000000000000000000000000000000000000000000000000000000000000000000000000000
310
000000000000000000000000000000000000000000000000000000000000000000000000000000F0000000000000000000000000002D00BE2DBEBEDCDC2D00000000000000BEBEBEBEBEBEBEDCDC00000000000000000000000000F0BEBEBEBEBEBEBEBEBEBEBEBEBEBEF0BEF0BEF0BEBEBEBEBEBEBEBEBEF0F0BEF0BEBEBE
310
BEBEBEBEBEBEBEBEBEF0F0F0F0F0F0F0F0F0F0F0F0F0F00000000000000000000000000000000000000000000000000000000000000000000000000000000000000000000000000000000000000000000000000000000000000000000000000000000000000000000000000000000000000000000000000000000000000000
310
0000000000000000000000000000000000000000000000000000000000000000000000000000000000F0000000000000000000000000002D0028002D2DDCDC2D0000000000002D002800BE2D2D28DCDC00000000000000000000000000F0F0F0F0F0F0BEBEBEF0BEBEBEBEBEBEF0F0BEF0F0F0BEBEF0F0BEBEF0F0F0BEF0BE
310
BEBEF0BEBEBEBEBEBEBEBEF0F0F0F0F0F0F0F0F0F0F0F0F0F0000000000000000000000000000000000000000000000000000000000000000000000000000000000000000000000000000000000000000000000000000000000000000000000000000000000000000000000000000000000000000000000000000000000000
310
00000000000000000000000000000000000000000000000000000000000000000000000000000000000000F0000000000000000000000000002D2D2D28282D2D2D2D0000000000002D2D2D2828282D2D2D2D2D0000000000000000000000000000000000F00000BE000000000000000000BE000000000000000000000000BE
310
0000000000BE0000BE000000BE00000000000000000000000000F000000000000000000000000000000000000000000000000000000000000000000000000000000000000000000000000000000000000000000000000000000000000000000000000000000000000000000000000000000000000000000000000000000000
310
000000000000000000000000000000000000000000000000000000000000000000000000000000000000000000F0000000000000000000000000DCDC00002D2D0000002D0000000000002D2D2D2828282D2D2D2D2D0000000000000000000000000000000000F0BEBEBEBEBEBEBEBEBEBEBEBEBEBEBEBEBEBEBEBEBEBEBEBE
310
BEBEBEBEBEBEBEBEBEBEBEBEBEBEBEBEBEBEBEBEBEBEBEBEBEBEBEBEF00000000000000000000000000000000000000000000000000000000000000000000000000000000000000000000000000000000000000000000000000000000000000000000000000000000000000000000000000000000000000000000000000000
310
0000000000000000000000000000000000000000000000000000000000000000000000000000000000000000000000F0000000000000000000000000DCDC00002D2D000000000000000000DC2D00002DBE2D0000002D0000000000000000000000000000000000000000000000000000000000000000000000000000000000
310
000000000000000000000000000000000000000000000000000000000000F0000000000000000000000000000000000000000000000000000000000000000000000000000000000000000000000000000000000000000000000000000000000000000000000000000000000000000000000000000000000000000000000000
310
00000000000000000000000000000000000000000000000000000000000000000000000000000000000000000000000000F0000000000000000000000000DC2D002D2D2D2D2D00000000000000002D00002D002D00000000000000000000000000000000000000000000000000000000000000000000000000000000000000
310
0000000000000000000000000000000000000000000000000000000000000000F000000000000000000000000000000000000000000000000000000000000000000000000000000000000000000000000000000000000000000000000000000000000000000000000000000000000000000000000000000000000000000000
310
000000000000000000000000000000000000000000000000000000000000000000000000000000000000000000000000000000F0000000000000000000000000000000000000DCDC000000000000000000002D2D2D2DDCDC000000000000000000000000000000000000000000000000000000000000000000000000000000
310
00000000000000000000000000000000000000000000000000000000000000000000F00000000000000000000000000000000000000000000000000000000000000000000000000000000000000000000000000000000000000000000000000000000000000000000000000000000000000000000000000000000000000000
310
0000000000000000000000000000000000000000000000000000000000000000000000000000000000000000000000000000000000F000000000000000000000000000000000000000000000000000000000000000000000DCDC00000000000000000000000000000000000000000000000000000000000000000000000000
310
000000000000000000000000000000000000000000000000000000000000000000000000F0000000000000000000000000000000000000000000000000000000000000000000000000000000000000000000000000000000000000000000000000000000000000000000000000000000000000000000000000000000000000
310
00000000000000000000000000000000000000000000000000000000000000000000000000000000000000000000000000000000000000F00000000000000000000000000000000000000000000000000000000000000000000000000000000000000000000000000000000000000000000000000000000000000000000000
310
0000000000000000000000000000000000000000000000000000000000000000000000000000F000000000000000000000000000000000000000000000000000000000000000000000000000000000000000000000000000000000000000000000000000000000000000000000000000000000000000000000000000000000
310
000000000000000000000000000000000000000000000000000000000000000000000000000000000000000000000000000000000000000000F0000000000000000000000000000000000000000000000000000000000000000000000000000000000000000000000000000000000000000000000000000000000000000000
310
00000000000000000000000000000000000000000000000000000000000000000000000000000000F00000000000000000000000000000000000000000000000000000000000000000000000000000000000000000000000000000000000000000000000000000000000000000000000000000000000000000000000000000
310
0000000000000000000000000000000000000000000000000000000000000000000000000000000000000000000000000000000000000000000000F00000000000002D2D2D2D2D2D2D2D2D2D2D2D2D2D2D2D2D2D2D2D2D2D2D2D2D2D2D2D2D2D2D2D2D2D000000000000000000000000000000000000000000002D2D2D2D2D
310
2D2D2D2D2D2D2D2D2D2D2D2D2D2D2D2D2D2D2D2D2D2D2D2D2D0000000000000000000000000000000000F0000000000000000000000000000000000000000000000000000000000000000000000000000000000000000000000000000000000000000000000000000000000000000000000000000000000000000000000000
310
00000000000000000000000000000000000000000000000000000000000000000000000000000000000000000000000000000000000000000000000000F00000000000002D0000000000000000000000000000DCDCDC0000000000000000000000000000002D000000000000000000000000000000000000000000002D0000
310
00000000000000000000DCDCDCDC0000000000000000000000002D0000000000000000000000000000000000F000000000000000000000000000000000000000000000000000000000000000000000000000000000000000000000000000000000000000000000000000000000000000000000000000000000000000000000
310
000000000000000000000000000000000000000000000000000000000000000000000000000000000000000000000000000000000000000000000000000000F00000000000002D000000000000000000000000000000DCDC0000000000000000000000000000002D000000000000000000000000000000000000000000002D
310
00000000000000000000000000DCDC000000000000000000000000002D0000000000000000000000000000000000F00000000000000000000000000000000000000000000000000000000000000000000000000000000000000000000000000000000000000000000000000000000000000000000000000000000000000000
310
0000000000000000000000000000000000000000000000000000000000000000000000000000000000000000000000000000000000000000000000000000000000F00000000000002D00002D2D2D2D2D2D2D2D2D2D2D2DDCDCDC2D2D2D2D2D2D2D2D2D2D2D2D2D00002D000000000000000000000000000000000000000000
310
002D0000002D2D2D2D2D2D2D2D2DDCDCDC2D2D2D2D2D2D2D2D2D2D0000002D0000000000000000000000000000000000F0000000000000000000000000000000000000000000000000000000000000000000000000000000000000000000000000000000000000000000000000000000000000000000000000000000000000
310
00000000000000000000000000000000000000000000000000000000000000000000000000000000000000000000000000000000000000000000000000000000000000F00000000000002D00002D0000000000000000000000DCDCDC0000000000000000000000002D00002D00000000000000000000000000000000000000
310
0000002D0000002D0000000000000000DCDCDCDC00000000000000002D0000002D0000000000000000000000000000000000F000000000000000000000000000000000000000000000000000000000000000000000000000000000000000000000000000000000000000000000000000000000000000000000000000000000
310
000000000000000000000000000000000000000000000000000000000000000000000000000000000000000000000000000000000000000000000000000000000000000000F00000000000002D00002D00000000000000000000000000000000000000000000000000002D00002D0000000000000000000000000000000000
310
00000000002D0000002D00000000000000000000000000000000000000002D0000002D0000000000000000000000000000000000F00000000000000000000000000000000000000000000000000000000000000000000000000000000000000000000000000000000000000000000000000000000000000000000000000000
310
0000000000000000000000000000000000000000000000000000000000000000000000000000000000000000000000000000000000000000000000000000000000000000000000F00000000000002D00002D00000000000000000000000000000000000000000000000000002D00002D2D2D2D2D2D2D2D0000000000000000
310
000000000000002D0000002D00000000000000000000000000000000000000002D0000002D0000000000000000000000000000000000F0000000000000000000000000000000000000000000000000000000000000000000000000000000000000000000000000000000000000000000000000000000000000000000000000
310
00000000000000000000000000000000000000000000000000000000000000000000000000000000000000000000000000000000000000000000000000000000000000000000000000F00000000000002D00002D00000000000000000000000000000000000000000000000000002D00002D00DCDCDCDCDC00000000000000
310
0000000000000000002D0000002D00000000000000000000000000000000000000002D0000002D0000000000000000000000000000000000F000000000000000000000000000000000000000000000000000000000000000000000000000000000000000000000000000000000000000000000000000000000000000000000
310
000000000000000000000000000000000000000000000000000000000000000000000000000000000000000000000000000000000000000000000000000000000000000000000000000000F00000000000002D00002D00000000000000000000000000000000000000000000000000002D002D2D0000000000000000000000
310
00000000000000000000002D0000002D00000000000000000000000000000000000000002D0000002D0000000000000000000000000000000000F00000000000000000000000000000000000000000000000000000000000000000000000000000000000000000000000000000000000000000000000000000000000000000
310
0000000000000000000000000000000000000000000000000000000000000000000000000000000000000000000000000000000000000000000000000000000000000000000000000000000000F00000000000002D00002D00000000000000000000000000000000000000000000000000002D002D2D000000000000000000
310
000000000000000000000000002D0000002D00000000000000000000000000000000000000002D0000002D0000000000000000000000000000000000F0000000000000000000000000000000000000000000000000000000000000000000000000000000000000000000000000000000000000000000000000000000000000
310
00000000000000000000000000000000000000000000000000000000000000000000000000000000000000000000000000000000000000000000000000000000000000000000000000000000000000F00000000000002D0000BE00000000000000000000000000000000000000000000000000002D2D002D00000000000000
310
0000000000000000000000000000002D000000BE0000000000000000000000000000000000000000BE0000002D0000000000000000000000000000000000F000000000000000000000000000000000000000000000000000000000000000000000000000000000000000000000000000000000000000000000000000000000
310
000000000000000000000000000000000000000000000000000000000000000000000000000000000000000000000000000000000000000000000000000000000000000000000000000000000000000000F0000000000000282828BE28282828282828280000000000000000000028282828282828282D2828280000000000
310
000000000000000000000000000000000028282828BE28282828000000000000BE000000000028282828BE282828282D2D2D2D2D2D2D2D2D2D2D000000000000F00000000000000000000000000000000000000000000000000000000000000000000000000000000000000000000000000000000000000000000000000000
310
0000000000000000000000000000000000000000000000000000000000000000000000000000000000000000000000000000000000000000000000000000000000000000000000000000000000000000000000F0000000000000280000BE000000000000002800000000BE00000000002800000000282828BE280028000000
310
0000000000000000000000000000000000000028000000BE00000028000000000000BE000000000028000000BE000000280000000000002D00002D00000000000000F0000000000000000000000000000000000000000000000000000000000000000000000000000000000000000000000000000000000000000000000000
310
00000000000000000000000000000000000000000000000000000000000000000000000000000000000000000000000000000000000000000000000000000000000000000000000000000000000000000000000000F0000000000000282828BE282828282828282828282828BE28282828282828282828282828BE28282800
310
00000000000000000000000000000000000000000028282828BE2828282828282828282828282828282828282828BE282828280000000000002D00002D00000000000000F000000000000000000000000000000000000000000000000000000000000000000000000000000000000000000000000000000000000000000000
310
000000000000000000000000000000000000000000000000000000000000000000000000000000000000000000000000000000000000000000000000000000000000000000000000000000000000000000000000000000F0000000000000000028BE000000280000000028282828BE28282828280000000028000000BE2800
310
000000000000000000000000000000000000000000000028000000BE0000282800282828282828282828280028280000BE000028280000000000002D00002D00000000000000F00000000000000000000000000000000000000000000000000000000000000000000000000000000000000000000000000000000000000000
310
0000000000000000000000000000000000000000000000000000000000000000000000000000000000000000000000000000000000000000000000000000000000000000000000000000000000000000000000000000000000F0000000000000000028BE000000280000000000000000BE00000000000000000028000000BE
310
28000000000000000000000000000000000000000000000000280000000000002828000000000000BE00000000002828280000000028280000000000002D00002D00000000000000F0000000000000000000000000000000000000000000000000000000000000000000000000000000000000000000000000000000000000
310
00000000000000000000000000000000000000000000000000000000000000000000000000000000000000000000000000000000000000000000000000000000000000000000000000000000000000000000000000000000000000F000000000000000002828000000280000000000000000BE000000000000000000280000
310
002828000000000000000000000000000000000000000000000000280000000000282800000000000000BE00000000000000280000002828BE0000000000DCDC00002D00000000000000F000000000000000000000000000000000000000000000000000000000000000000000000000000000000000000000000000000000
310
000000000000000000000000000000000000000000000000000000000000000000000000000000000000000000000000000000000000000000000000000000000000000000000000000000000000000000000000000000000000000000F000000000000000282828282828282828282828282828BE28282828282828282828
310
2828282828280000000000000000000000000000000000002828282828282828282828280000000000000000BE00000000000000280000002800280000000000DCDC00002D00000000000000F00000000000000000000000000000000000000000000000000000000000000000000000000000000000000000000000000000
310
0000000000000000000000000000000000000000000000000000000000000000000000000000000000000000000000000000000000000000000000000000000000000000000000000000000000000000000000000000000000000000000000F000000000000000282828000000000000000000000000BE0000000000000000
310
0000000000282828000000000000000000000000000000000028BE2828BEBEBEBEBE282800000000000000000000BE00000000000000282800002800280000000000DCDC00002D00000000000000F0000000000000000000000000000000000000000000000000000000000000000000000000000000000000000000000000
310
00000000000000000000000000000000000000000000000000000000000000000000000000000000000000000000000000000000000000000000000000000000000000000000000000000000000000000000000000000000000000000000000000F0000000000000BE28BEBEBE0000000000000000000000BE000000000000
310
000000000000BEBEBE2800000000000000000000000000000000002828BE280000BE0000282828000000000000000000BE00000000000000002800282800280000000000002D00002D00000000000000F000000000000000000000000000000000000000000000000000000000000000000000000000000000000000000000
310
000000000000000000000000000000000000000000000000000000000000000000000000000000000000000000000000000000000000000000000000000000000000000000000000000000000000000000000000000000000000000000000000000000F000000000000000282828000000000000000000000000BE00000000
310
0000000000000000002828280000000000000000000000000000000000282828BE0028BE2800BE2828280000000000000000BE00000000000000002828280000282800000000002D00002D00000000000000F00000000000000000000000000000000000000000000000000000000000000000000000000000000000000000
310
0000000000000000000000000000000000000000000000000000000000000000000000000000000000000000000000000000000000000000000000000000000000000000000000000000000000000000000000000000000000000000000000000000000000F000000000000000282828000000000000000000000000BE0000
310
0000000000000000000000282828282828282828282800000000000000000028BE00002828BE28280000BE280000000000000000BE000000000000000000000000BE282800000000002D00002D00000000000000F0000000000000000000000000000000000000000000000000000000000000000000000000000000000000
310
00000000000000000000000000000000000000000000000000000000000000000000000000000000000000000000000000000000000000000000000000000000000000000000000000000000000000000000000000000000000000000000000000000000000000F000000000000000282828000000000000000000000000BE
310
00000000000000000000000000282828280000000000002800000000000000000028BE00282828BE28282800BE280000000000000000BE00000000000000000000000000282800000000002D00002D00000000000000F000000000000000000000000000000000000000000000000000000000000000000000000000000000
310
000000000000000000000000000000000000000000000000000000000000000000000000000000000000000000000000000000000000000000000000000000000000000000000000000000000000000000000000000000000000000000000000000000000000000000F000000000000000282828BEBEBEBEBEBEBEBEBEBEBE
310
BEBEBEBEBEBEBEBEBEBEBEBEBEBEBE28282828BEBEBEBEBEBE282DDCDC2D00000000BE28BEBEBEBEBEBEBEBEBEBEBEBEBEBEBEBEBEBEBEBEBEBEBEBEBEBEBEBEBEBEBEBEBEBE282D2D2D2D2D2D2D2D002D00000000000000F00000000000000000000000000000000000000000000000000000000000000000000000000000
310
0000000000000000000000000000000000000000000000000000000000000000000000000000000000000000000000000000000000000000000000000000000000000000000000000000000000000000000000000000000000000000000000000000000000000000000000F000000000000000282828000000000000000000
310
000000BE00000000000000000000000000282828282828282828282800DCDC00000000000028BE002828282828280000BE280000000000000000BE00000000000000000000000000282D00000000002D00002D00000000000000F0000000000000000000000000000000000000000000000000000000000000000000000000
310
00000000000000000000000000000000000000000000000000000000000000000000000000000000000000000000000000000000000000000000000000000000000000000000000000000000000000000000000000000000000000000000000000000000000000000000000000F00000000000000028282800000000000000
310
0000000000BE00000000000000000000000000282828282828282828282D0000DC00000000000028BE0000282828282800BE28280000000000000000BE00000000000000000000000000282D00000000002D0000DC00000000000000F000000000000000000000000000000000000000000000000000000000000000000000
310
000000000000000000000000000000000000000000000000000000000000000000000000000000000000000000000000000000000000000000000000000000000000000000000000000000000000000000000000000000000000000000000000000000000000000000000000000000F0000000000000BE28BEBEBE00000000
310
00000000000000BE000000000000000000000000BEBEBE282D0000000000002D000000000000000000282828280000BE0000282828000000000000000000BE00000000000000000000000000282D00000000002D00DCDC00000000000000F00000000000000000000000000000000000000000000000000000000000000000
310
0000000000000000000000000000000000000000000000000000000000000000000000000000000000000000000000000000000000000000000000000000000000000000000000000000000000000000000000000000000000000000000000000000000000000000000000000000000000F0000000000000002828BE000000
310
000000BE0000000000BE000000000000BE000000000000BE28282D0000000000002D00000000000000000028BE28280000BE00BEBE2828000000000000000000BE00000000000000000000BE0000282D00000000002D00DCDC00000000000000F0000000000000000000000000000000000000000000000000000000000000
310
00000000000000000000000000000000000000000000000000000000000000000000000000000000000000000000000000000000000000000000000000000000000000000000000000000000000000000000000000000000000000000000000000000000000000000000000000000000000000F00000000000000028282828
310
2828282828BE2828282828BE282828282828BE2828282828282828282D0000000000002D0000000000000000002828282828BEBEBE28BE28282828282828282828282828282828282828282828BE2828282D00000000002D00DCDC00000000000000F000000000000000000000000000000000000000000000000000000000
310
000000000000000000000000000000000000000000000000000000000000000000000000000000000000000000000000000000000000000000000000000000000000000000000000000000000000000000000000000000000000000000000000000000000000000000000000000000000000000000F0000000000000002828
310
28000000BE0000BE0000000000BE000000000000BE0000000000002828282D2DDCDCDC2D2D2D0000000000000000002D0000002828282828BE00BE000000000000000000BE0000000000000000BE00BE0000282D00000000002D00002D00000000000000F00000000000000000000000000000000000000000000000000000
310
0000000000000000000000000000000000000000000000000000000000000000000000000000000000000000000000000000000000000000000000000000000000000000000000000000000000000000000000000000000000000000000000000000000000000000000000000000000000000000000000F000000000000000
310
2D2828282828BE28282828282828282828282828282828282828282828BE28000000DCDCDC00002D0000000000000000002D00000000002828282828BE282828282828282828282828282828282828BE28BE2828282D00000000002D00002D00000000000000F0000000000000000000000000000000000000000000000000
310
00000000000000000000000000000000000000000000000000000000000000000000000000000000000000000000000000000000000000000000000000000000000000000000000000000000000000000000000000000000000000000000000000000000000000000000000000000000000000000000000000F00000000000
310
00002D0000002828BE28280000000028282828280028000000282828000000000000000000000000002D0000000000000000002D00000000002D0000282828282800000000280000BE00002800000028282828280000002D00000000DCDC00002D00000000000000F000000000000000000000000000000000000000000000
310
000000000000000000000000000000000000000000000000000000000000000000000000000000000000000000000000000000000000000000000000000000000000000000000000000000000000000000000000000000000000000000000000000000000000000000000000000000000000000000000000000000F0000000
310
000000002D0000000000BE00002828282828282828282828282828000000000000000000000000000000002D0000000000000000002D00000000002D00002828282828282828282828282828282828282828282828280000002D00000000DCDC00002D00000000000000F00000000000000000000000000000000000000000
310
0000000000000000000000000000000000000000000000000000000000000000000000000000000000000000000000000000000000000000000000000000000000000000000000000000000000000000000000000000000000000000000000000000000000000000000000000000000000000000000000000000000000F000
310
0000000000002D0000000000000000000028282828BEBE282828280000000000000000000000000000000000002D0000000000000000002D00000000002D00BEBE28BE28BEBE002828282828282828282800BEBE28BE28BEBE00002D00000000DCDC00002D00000000000000F0000000000000000000000000000000000000
310
00000000000000000000000000000000000000000000000000000000000000000000000000000000000000000000000000000000000000000000000000000000000000000000000000000000000000000000000000000000000000000000000000000000000000000000000000000000000000000000000000000000000000
310
F0000000000000002D00000000000000000000000028282828282800000000000000000000000000000000000000002D0000000000000000002D00000000002D00002828282828000000002828282828282D2D2D2D28282828280000002D00000000DCDC00002D00000000000000F000000000000000000000000000000000
310
00000000000000000000000000000000000000000000000000000000000000000000000000000000000000000000000000000000000000000000000000000000000000000000000000000000000000000000000000000000000000000000000000000000000000000000000000000000000000000000000000000000000000
310
0000F0000000000000002D00000000000000000000000028002828002800000000000000000000000000000000000000002D0000000000000000002D00000000002D00000028BE28000000000028002828002800002D000028BE28280000002D00000000002D00002D00000000000000F00000000000000000000000000000
310
00000000000000000000000000000000000000000000000000000000000000000000000000000000000000000000000000000000000000000000000000000000000000000000000000000000000000000000000000000000000000000000000000000000000000000000000000000000000000000000000000000000000000
310
00000000F0000000000000002D0000000000000000000000002800BE00002800000000000000000000000000000000000000002D0000000000000000002D00000000002D00000000BE000000000000280028BE002800002D000000BE00000000002D00000000002D00002D00000000000000F0000000000000000000000000
310
00000000000000000000000000000000000000000000000000000000000000000000000000000000000000000000000000000000000000000000000000000000000000000000000000000000000000000000000000000000000000000000000000000000000000000000000000000000000000000000000000000000000000
310
000000000000F0000000000000002D0000000000000000000000002800BE00002800000000000000000000000000000000000000002D0000000000000000002D00000000002D0000000000000000000000280028BE002800DCDC0000000000000000002D00000000002D00002D00000000000000F000000000000000000000
310
00000000000000000000000000000000000000000000000000000000000000000000000000000000000000000000000000000000000000000000000000000000000000000000000000000000000000000000000000000000000000000000000000000000000000000000000000000000000000000000000000000000000000
310
0000000000000000F0000000000000002D0000000000000000000000002800BE00002800000000000000000000000000000000000000002D0000000000000000002D00000000002D0000000000000000000000280028BE002800DCDC0000000000000000002D00000000002D00002D00000000000000F00000000000000000
310
00000000000000000000000000000000000000000000000000000000000000000000000000000000000000000000000000000000000000000000000000000000000000000000000000000000000000000000000000000000000000000000000000000000000000000000000000000000000000000000000000000000000000
310
00000000000000000000F0000000000000002D0000000000000000000000002800BE00002800000000000000000000000000000000000000002D0000000000000000002D00000000002D0000000000000000000000280028BE002800DCDC0000000000000000002D00000000002D00002D00000000000000F0000000000000
310
00000000000000000000000000000000000000000000000000000000000000000000000000000000000000000000000000000000000000000000000000000000000000000000000000000000000000000000000000000000000000000000000000000000000000000000000000000000000000000000000000000000000000
310
000000000000000000000000F0000000000000002D0000000000000000000000002800BE00002800000000000000000000000000000000000000002D0000000000000000002D00000000002D0000000000000000000000280028BE002800002D0000000000000000002D00000000002D00002D00000000000000F000000000
310
00000000000000000000000000000000000000000000000000000000000000000000000000000000000000000000000000000000000000000000000000000000000000000000000000000000000000000000000000000000000000000000000000000000000000000000000000000000000000000000000000000000000000
310
0000000000000000000000000000F0000000000000002D0000000000000000000000002800BE00002800000000000000000000000000000000000000002D0000000000000000002D00000000002D0000000000000000000000280028BE002800002D0000000000000000002D00000000002D00002D00000000000000F00000
310
00000000000000000000000000000000000000000000000000000000000000000000000000000000000000000000000000000000000000000000000000000000000000000000000000000000000000000000000000000000000000000000000000000000000000000000000000000000000000000000000000000000000000
310
00000000000000000000000000000000F0000000000000002D00000000000000000000000028282828282800000000000000000000000000000000000000002D0000000000000000002D00000000002D00000000000000000000002828282828282D2D2D2D2D2D2D2D2D2D2D2D2D2D2D2D2D2D2D2D2D2D2D000000000000F0
310
00000000000000000000000000000000000000000000000000000000000000000000000000000000000000000000000000000000000000000000000000000000000000000000000000000000000000000000000000000000000000000000000000000000000000000000000000000000000000000000000000000000000000
310
000000000000000000000000000000000000F0000000000000002D00000000000000000000000000002D2D000000000000000000000000000000000000000000002D0000000000000000002D00000000002D00000000000000000000000000002D00000000000000000000000000002D000000000000000000000000000000
310
00F00000000000000000000000000000000000000000000000000000000000000000000000000000000000000000000000000000000000000000000000000000000000000000000000000000000000000000000000000000000000000000000000000000000000000000000000000000000000000000000000000000000000
310
0000000000000000000000000000000000000000F0000000000000002D00000000000000000000000000002D2DDCDC00000000000000000000000000000000000000002D0000000000000000002D00000000002D00000000000000000000000000002D00000000000000000000000000002D00000000000000000000000000
310
000000F0000000000000000000000000000000000000000000000000000000000000000000000000000000000000000000000000000000000000000000000000000000000000000000000000000000000000000000000000000000000000000000000000000000000000000000000000000000000000000000000000000000
310
00000000000000000000000000000000000000000000F0000000000000002D00000000000000000000000000002D2DDCDC00000000000000000000000000000000000000002D0000000000000000002D00000000002D00000000000000000000000000002D00000000000000000000000000002D0000000000000000000000
310
0000000000F000000000000000000000000000000000000000000000000000000000000000000000000000000000000000000000000000000000000000000000000000000000000000000000000000000000000000000000000000000000000000000000000000000000000000000000000000000000000000000000000000
310
000000000000000000000000000000000000000000000000F0000000000000002D00000000000000000000000000002D2D000000000000000000000000000000000000000000002D0000000000000000002D00000000002D00000000000000000000000000002D00000000000000000000000000002D000000000000000000
310
00000000000000F00000000000000000000000000000000000000000000000000000000000000000000000000000000000000000000000000000000000000000000000000000000000000000000000000000000000000000000000000000000000000000000000000000000000000000000000000000000000000000000000
310
0000000000000000000000000000000000000000000000000000F0000000000000002D00000000000000000000000000002D00000000000000000000000000000000000000000000002D0000000000000000002D00000000002D00000000000000000000000000002D00000000000000000000000000002D00000000000000
310
000000000000000000F0000000000000000000000000000000000000000000000000000000000000000000000000000000000000000000000000000000000000000000000000000000000000000000000000000000000000000000000000000000000000000000000000000000000000000000000000000000000000000000
310
00000000000000000000000000000000000000000000000000000000F0000000000000002D2D2D2D2D2D2D2D2D2D2D2D2D2D2D2D2D2D2D2D2D2D2D2D2D2DDCDCDC2D2D2D2D2D2D2D2D2D2D2D0000000000000000002D2D2D2D2D2D2D2D2D2D2D2DDCDCDC2D2D2D2D2D2D2D2D2D2D2DDCDCDCDCDC2D2D2D2D2D2D0000000000
310
0000000000000000000000F000000000000000000000000000000000000000000000000000000000000000000000000000000000000000000000000000000000000000000000000000000000000000000000000000000000000000000000000000000000000000000000000000000000000000000000000000000000000000
310
000000000000000000000000000000000000000000000000000000000000F0000000000000002D0000000000DCDCDCDC00000000000000000000000000000000DCDCDC000000000000000000002D0000000000000000002D00DCDCDC00000000000000DCDCDC0000000000000000000000DCDCDCDCDC00000000002D000000
310
00000000000000000000000000F00000000000000000000000000000000000000000000000000000000000000000000000000000000000000000000000000000000000000000000000000000000000000000000000000000000000000000000000000000000000000000000000000000000000000000000000000000000000
310
0000000000000000000000000000000000000000000000000000000000000000F0000000000000002D000000000000000000000000000000000000000000000000000000000000000000000000002D2D0000000000000000002D000000000000000000000000000000000000000000000000000000000000000000002D2D00
310
000000000000000000000000000000F0000000000000000000000000000000000000000000000000000000000000000000000000000000000000000000000000000000000000000000000000000000000000000000000000000000000000000000000000000000000000000000000000000000000000000000000000000000
310
00000000000000000000000000000000000000000000000000000000000000000000F0000000000000002D2D2D2D2D2D2D2D2D2D2D2D2D2D2D2D2DDCDCDCDCDC2D2D2D2D2D2D2D2D2D2D2D2D2D2D2D2D2D2D0000000000000000002D2D2D2D2D2D2D2D2D2D2D2D2D2D2D2DDCDCDCDC2D2D2D2D2D2D2D2D2D2D2D2D2D2D2D2D
310
2D00000000000000000000000000000000F000000000000000000000000000000000000000000000000000000000000000000000000000000000000000000000000000000000000000000000000000000000000000000000000000000000000000000000000000000000000000000000000000000000000000000000000000
310
000000000000000000000000000000000000000000000000000000000000000000000000F0000000000000000000000000000000000000000000000000DCDCDCDCDC00000000000000000000000000000000000000000000000000000000000000000000000000000000000000DCDCDCDC0000000000000000000000000000
310
00000000000000000000000000000000000000F00000000000000000000000000000000000000000000000000000000000000000000000000000000000000000000000000000000000000000000000000000000000000000000000000000000000000000000000000000000000000000000000000000000000000000000000
310
0000000000000000000000000000000000000000000000000000000000000000000000000000F000000000000000000000000000000000000000000000000000000000000000000000000000000000000000000000000000000000000000000000000000000000000000000000000000000000000000000000000000000000
310
000000000000000000000000000000000000000000F0000000000000000000000000000000000000000000000000000000000000000000000000000000000000000000000000000000000000000000000000000000000000000000000000000000000000000000000000000000000000000000000000000000000000000000
310
00000000000000000000000000000000000000000000000000000000000000000000000000000000F00000000000000000000000000000000000000000000000000000000000000000000000000000000000000000000000000000000000000000000000000000000000000000000000000000000000000000000000000000
310
0000000000000000000000000000000000000000000000F000000000000000000000000000000000000000000000000000000000000000000000000000000000000000000000000000000000000000000000000000000000000000000000000000000000000000000000000000000000000000000000000000000000000000
310
000000000000000000000000000000000000000000000000000000000000000000000000000000000000F0000000000000000000000000000000000000000000000000000000000000000000000000000000000000000000000000000000000000000000000000000000000000000000000000000000000000000000000000
310
00000000000000000000000000000000000000000000000000F00000000000000000000000000000000000000000000000000000000000000000000000000000000000000000000000000000000000000000000000000000000000000000000000000000000000000000000000000000000000000000000000000000000000
310
0000000000000000000000000000000000000000000000000000000000000000000000000000000000000000F000000000000000000000000000000000000000000000000000000000000000000000000000000000000000000000000000000000000000000000000000000000000000000000000000000000000000000000
310
000000000000000000000000000000000000000000000000000000F0000000000000000000000000000000000000000000000000000000000000000000000000000000000000000000000000000000000000000000000000000000000000000000000000000000000000000000000000000000000000000000000000000000
310
00000000000000000000000000000000000000000000000000000000000000000000000000000000000000000000F00000000000000000000000000000000000000000000000000000000000000000000000000000000000000000000000000000000000000000000000000000000000000000000000000000000000000000
310
0000000000000000000000000000000000000000000000000000000000F000000000000000000000000000000000000000000000000000000000000000000000000000000000000000000000000000000000000000000000000000000000000000000000000000000000000000000000000000000000000000000000000000
310
000000000000000000000000000000000000000000000000000000000000000000000000000000000000000000000000F0000000000000000000000000000000000000000000000000000000000000000000000000000000000000000000000000000000000000000000000000000000000000000000000000000000000000
310
00000000000000000000000000000000000000000000000000000000000000F00000000000000000000000000000000000000000000000000000000000000000000000000000000000000000000000000000000000000000000000000000000000000000000000000000000000000000000000000000000000000000000000
310
0000000000000000000000000000000000000000000000000000000000000000000000000000000000000000000000000000F0F0F0F0F0F0F0F0F0F0F0F0F0F0F0F0F0F0F0F0F0F0F0F0F0F0F0F0F0F0F0F0F0F0F0F0F0F0F0F0F0F0F0F0F0F0F0F0F0F0F0F0F0F0F0F0F0F0F0F0F0F0F0F0F0F0F0F0F0F0F0F0F0F0F0F0F0
310
F0F0F0F0F0F0F0F0F0F0F0F0F0F0F0F0F0F0F0F0F0F0F0F0F0F0F0F0F0F0F0F0F0F0000000000000000000000000000000000000000000000000000000000000000000000000000000000000000000000000000000000000000000000000000000000000000000000000000000000000000000000000000000000000000000
310
00000000000000000000000000000000000000000000000000000000000000000000000000000000000000000000000000000000000000000000000000000000000000000000000000000000000000000000000000000000000000000000000000000000000000000000000000000000000000000000000000000000000000
310
00000000000000000000000000000000000000000000000000000000000000000000000000000000000000000000000000000000000000000000000000000000000000000000000000000000000000000000000000000000000000000000000000000000000000000000000000000000000000000000000000000000000000
310
00000000000000000000000000000000000000000000000000000000000000000000000000000000000000000000000000000000000000000000000000000000000000000000000000000000000000000000000000000000000000000000000000000000000000000000000000000000000000000000000000000000000000
310
00000000000000000000000000000000000000000000000000000000000000000000000000000000000000000000000000000000000000000000000000000000000000000000000000000000000000000000000000000000000000000000000000000000000000000000000000000000000000000000000000000000000000
310
00000000000000000000000000000000000000000000000000000000000000000000000000000000000000000000000000000000000000000000000000000000000000000000000000000000000000000000000000000000000000000000000000000000000000000000000000000000000000000000000000000000000000
310
00000000000000000000000000000000000000000000000000000000000000000000000000000000000000000000000000000000000000000000000000000000000000000000000000000000000000000000000000000000000000000000000000000000000000000000000000000000000000000000000000000000000000
310
00000000000000000000000000000000000000000000000000000000000000000000000000000000000000000000000000000000000000000000000000000000000000000000000000000000000000000000000000000000000000000000000000000000000000000000000000000000000000000000000000000000000000
310
00000000000000000000000000000000000000000000000000000000000000000000000000000000000000000000000000000000000000000000000000000000000000000000000000000000000000000000000000000000000000000000000000000000000000000000000000000000000000000000000000000000000000
310
00000000000000000000000000000000000000000000000000000000000000000000000000000000000000000000000000000000000000000000000000000000000000000000000000000000000000000000000000000000000000000000000000000000000000000000000000000000000000000000000000000000000000
310
00000000000000000000000000000000000000000000000000000000000000000000000000000000000000000000000000000000000000000000000000000000000000000000000000000000000000000000000000000000000000000000000000000000000000000000000000000000000000000000000000000000000000
310
00000000000000000000000000000000000000000000000000000000000000000000000000000000000000000000000000000000000000000000000000000000000000000000000000000000000000000000000000000000000000000000000000000000000000000000000000000000000000000000000000000000000000
310
00000000000000000000000000000000000000000000000000000000000000000000000000000000000000000000000000000000000000000000000000000000000000000000000000000000000000000000000000000000000000000000000000000000000000000000000000000000000000000000000000000000000000
310
00000000000000000000000000000000000000000000000000000000000000000000000000000000000000000000000000000000000000000000000000000000000000000000000000000000000000000000000000000000000000000000000000000000000000000000000000000000000000000000000000000000000000
310
00000000000000000000000000000000000000000000000000000000000000000000000000000000000000000000000000000000000000000000000000000000000000000000000000000000000000000000000000000000000000000000000000000000000000000000000000000000000000000000000000000000000000
310
00000000000000000000000000000000000000000000000000000000000000000000000000000000000000000000000000000000000000000000000000000000000000000000000000000000000000000000000000000000000000000000000000000000000000000000000000000000000000000000000000000000000000
310
00000000000000000000000000000000000000000000000000000000000000000000000000000000000000000000000000000000000000000000000000000000000000000000000000000000000000000000000000000000000000000000000000000000000000000000000000000000000000000000000000000000000000
310
00000000000000000000000000000000000000000000000000000000000000000000000000000000000000000000000000000000000000000000000000000000000000000000000000000000000000000000000000000000000000000000000000000000000000000000000000000000000000000000000000000000000000
310
00000000000000000000000000000000000000000000000000000000000000000000000000000000000000000000000000000000000000000000000000000000000000000000000000000000000000000000000000000000000000000000000000000000000000000000000000000000000000000000000000000000000000
310
000000000000000000000000000000000000000000000000000000000000000000000000000000000000000000000000000000000000000000000000000000000000000000000000000000000000000000000000000000000000000000BE000000000000000000000000000000000000000000000000000000000000000000
310
00000000000000000000000000000000000000000000000000000000000000000000000000000000000000000000000000000000000000000000000000000000000000000000000000000000000000000000000000000000000000000000000000000000000000000000000000000000000000000000000000000000000000
310
00000000000000000000000000000000000000000000000000000000000000000000000000000000000000000000000000000000000000000000000000000000000000000000000000000000000000002828282828282828282828282828282828282828282828282828282828282828000000000000000000000000000000
310
00000000000000000000000000000000000000000000000000000000000000000000000000000000000000000000000000000000000000000000000000000000000000000000000000000000000000000000000000000000000000000000000000000000000000000000000000000000000000000000000000000000000000
310
000000000000000000000000000000000000000000000000000000000000000000000000000000000000000000000000000000000000000000000000000000000000000000000000000000000000000000002828280000000000BE000000000000BE0000000000000000000000000028282800000000000000000000000000
310
0000000000000000000000000000000000000000000000002D2D2D2828BE282D2D2D000000000000000000000000000000000000000000000000000000000000000000000000000000000000000000000000000000000000000000000000000000000000000000000000000000000000000000000000000000000000000000
310
0000000000000000000000000000000000000000000000000000000000000000000000000000000000000000000000000000000000000000000000000000000000000000000000000000000000000000000000BE28BEBEBE00000028BE28280028280028282800280000000000000000BEBEBEBE0000000000000000000000
310
00000000000000000000000000000000000000000000000000002D2D2D0000BE00282D2D00000000000000000000000000000000000000000000000000000000000000000000000000000000000000000000000000000000000000000000000000000000000000000000000000000000000000000000000000000000000000
310
00000000000000000000000000000000000000000000000000000000000000000000000000000000000000000000000000000000000000000000000000000000000000000000000000000000000000000000000000002828280000002828BE0028002828282828280028000000000000000000282828000000000000000000
310
000000000000000000000000000000000000000000000000000000002D2D2D0000BE002D2D2D0000000000000000000000000000000000000000000000000000000000000000000000000000000000000000000000000000000000000000000000000000000000000000000000000000000000000000000000000000000000
310
000000000000000000000000000000000000000000000000000000000000000000000000000000000000000000000000000000000000000000000000000000000000000000000000000000000000000000000000000000002828282800BE28BEBEBE28BE282828282828002800000000000000002828282828000000000000
310
00000000000000000000000000000000000000000000000000000000000000002D0000BE00282D00000000000000000000000000000000000000000000000000000000000000000000000000000000000000000000000000000000000000000000000000000000000000000000000000000000000000000000000000000000
310
0000000000000000000000000000000000000000000000000000000000000000000000000000000000000000000000000000000000000000000000000000000000000000000000000000000000000000000000000000000000002828282800000028BE28280028282828282828280000000000000000282828282828282828
310
282828000000000000000000000000000000000000000000000000000000000000002D2828BE28282D0000000000000000000000000000000000000000000000000000000000000000000000000000000000000000000000000000000000000000000000000000000000000000000000000000000000000000000000000000
310
000000000000000000000000000000000000000000000000000000000000000000000000000000000000000000000000000000000000000000000000000000000000000000000000000000000000000000000000000000000000000028282828BEBEBEBEBEBEBEBE28282828282828BEBEBEBEBEBEBEBEBE28282828282828
310
28282828280000000000000000000000000000000000000000000000000000000000000028002828280028000000000000000000000000000000000000000000000000000000000000000000000000000000000000000000000000000000000000000000000000000000000000000000000000000000000000000000000000
310
00000000000000000000000000000000000000000000000000000000000000000000000000000000000000000000000000000000000000000000000000000000000000000000000000000000000000000000000000000000000000000028282828280028282828282828282828282828282828282828282828002828282828
310
2828282828282800000000000000000000000000000000000000000000000000000000000000280028BE28002800000000000000000000000000000000000000000000000000000000000000000000000000000000000000000000000000000000000000000000000000000000000000000000000000000000000000000000
310
0000000000000000000000000000000000000000000000000000000000000000000000000000000000000000000000000000000000000000000000000000000000000000000000000000000000000000000000000000000000000000000000282828282828000000BE2828BEBEBE28282800BEBE282828BE00002828282828
310
28282828282828282800000000000000000000000000000000000000000000000000000000000000280028BE2800280000000000000000000000000000000000000000000000000000000000000000000000000000000000000000000000000000000000000000000000000000000000000000000000000000000000000000
310
000000000000000000000000000000000000000000000000000000000000000000000000000000000000000000000000000000000000000000000000000000000000000000000000000000000000000000000000000000000000000000000000002828282800000000282828BE28282828282828282828BE28282800000028
310
282828280000000000000000000000000000000000000000000000000000000000000000000000000000280028BE280028000000000000000000000000000000000000000000000000000000000000000000000000000000000000000000000000000000000000000000000000000000000000000000000000000000000000
310
000000000000000000000000000000000000000000000000000000000000000000000000000000000000000000000000000000000000000000000000000000000000000000000000000000000000000000000000000000000000000000000000000000BE28BEBEBE0000282828282800002828282828280028282828282800
310
00BEBEBEBE280000000000000000000000000000000000000000000000000000000000000000000000000000280028BE28002800000000000000000000000000000000000000000000000000000000000000000000000000000000000000000000000000000000000000000000000000000000000000000000000000000000
310
00000000000000000000000000000000000000000000000000000000000000000000000000000000000000000000000000000000000000000000000000000000000000000000000000000000000000000000000000000000000000000000000000000000002828282800002828BE28280000002828282828280000002828BE
310
28280000282828280000000000000000000000000000000000000000000000000000000000000000000000000000280028282800280000000000000000000000000000000000000000000000000000000000000000000000000000000000000000000000000000000000000000000000000000000000000000000000000000
310
0000000000000000000000000000000000000000000000000000000000000000000000000000000000000000000000000000000000000000000000000000000000000000000000000000000000000000000000000000000000000000000000000000000000000028282828002828BE28000000000028282828282800000000
310
0028BE282800282828280000000000000000000000000000000000000000000000000000000000000000000000000000282828BE282828000000000000000000000000000000000000000000000000000000000000000000000000000000000000000000000000000000000000000000000000000000000000000000000000
310
000000000000000000000000000000000000000000000000000000000000000000000000000000000000000000000000000000000000000000000000000000000000000000000000000000000000000000000000000000000000000000000000000000000000000000282828282828BE280000000000280000282800002800
310
0000000028BE2828282800280000000000000000000000000000000000000000000000000000000000000000000000000000280000BE00002800000000000000000000000000000000000000000000000000000000000000000000000000000000000000000000000000000000000000000000000000000000000000000000
310
00000000000000000000000000000000000000000000000000000000000000000000000000000000000000000000000000000000000000000000000000000000000000000000000000000000000000000000000000000000000000000000000000000000000000000000002828280028BE28000000000000280000BE000000
310
2800000000002828BE28282828280000000000000000000000000000000000000000000000000000000000000000000000000000280000BE0000280000000000000000000000000000000000000000000000000000000000000000000000000000000000000000000000000000000000000000000000000000000000000000
310
0000000000000000000000000000000000000000000000000000000000000000000000000000000000000000000000000000000000000000000000000000000000000000000000000000000000000000000000000000000000000000000000000000000000000000000000000000002828282828000000000000280000BE00
310
00002800000000000028BE28282800000000000000000000000000000000000000000000000000000000000000000000000000002D2D2D2828BE28282D2D0000000000000000000000000000000000000000000000000000000000000000000000000000000000000000000000000000000000000000000000000000000000
310
00000000000000000000000000000000000000000000000000000000000000000000000000000000000000000000000000000000000000000000000000000000000000000000000000000000000000000000000000000000000000000000000000000000000000000000000000000000002828BE2800000000000028282828
310
28282828282800000000000028BE282800000000000000000000000000000000000000000000000000000000000000000000000000002D2D2D2828BE282D2D2D000000000000000000000000000000000000000000000000000000000000000000000000000000000000000000000000000000000000000000000000000000
310
00000000000000000000000000000000000000000000000000000000000000000000
  0
XRECORD
  5
5B8
102
{ACAD_REACTORS
330
5B7
102
}
330
5B7
100
AcDbXrecord
280
     1
102
MATERIAL
148
0.0
149
0.0
149
0.0
 93
        0
 94
      127
282
     0
 72
     0
 77
     0
171
     0
175
     0
179
     0
273
     0
  0
XRECORD
  5
5B4
102
{ACAD_REACTORS
330
5B3
102
}
330
5B3
100
AcDbXrecord
280
     1
102
MATERIAL
148
0.0
149
0.0
149
0.0
 93
        0
 94
      127
282
     0
 72
     0
 77
     0
171
     0
175
     0
179
     0
273
     0
  0
XRECORD
  5
5B6
102
{ACAD_REACTORS
330
5B5
102
}
330
5B5
100
AcDbXrecord
280
     1
102
MATERIAL
148
0.0
149
0.0
149
0.0
 93
        0
 94
      127
282
     0
 72
     0
 77
     0
171
     0
175
     0
179
     0
273
     0
  0
XRECORD
  5
5EA
102
{ACAD_REACTORS
330
5E9
102
}
330
5E9
100
AcDbXrecord
280
     1
102
ACAD_ROUNDTRIP_2010_MLEADER_STYLE
  0
XRECORD
  5
5C6
102
{ACAD_REACTORS
330
5C5
102
}
330
5C5
100
AcDbXrecord
280
     1
102
RTVSPropertyOp0
 70
     1
102
RTVSPropertyOp1
 70
     1
102
RTVSPropertyOp2
 70
     1
102
RTVSPropertyOp3
 70
     1
102
RTVSPropertyOp4
 70
     1
102
RTVSPropertyOp5
 70
     1
102
RTVSPropertyOp6
 70
     1
102
RTVSPropertyOp7
 70
     1
102
RTVSPropertyOp8
 70
     1
102
RTVSPropertyOp9
 70
     1
102
RTVSPropertyOp10
 70
     1
102
RTVSPropertyOp11
 70
     1
102
RTVSPropertyOp12
 70
     1
102
RTVSPropertyOp13
 70
     1
102
RTVSPropertyOp14
 70
     1
102
RTVSPropertyOp15
 70
     1
102
RTVSPropertyOp16
 70
     1
102
RTVSPropertyOp17
 70
     1
102
RTVSPropertyOp18
 70
     1
102
RTVSPropertyOp19
 70
     1
102
RTVSPropertyOp20
 70
     1
102
RTVSPropertyOp21
 70
     1
102
RTVSPropertyOp22
 70
     1
102
RTVSPropertyOp23
 70
     1
102
RTVSPropertyOp24
 70
     1
102
RTVSPropertyOp25
 70
     1
102
RTVSPropertyOp26
 70
     1
102
RTVSPropertyOp27
 70
     1
102
RTVSPropertyOp28
 70
     1
102
RTVSPropertyOp29
 70
     1
102
RTVSPropertyOp30
 70
     1
102
RTVSPropertyOp31
 70
     1
102
RTVSPropertyOp32
 70
     1
102
RTVSPropertyOp33
 70
     1
102
RTVSPropertyOp34
 70
     1
102
RTVSPropertyOp35
 70
     1
102
RTVSPropertyOp36
 70
     1
102
RTVSPropertyOp37
 70
     1
102
RTVSPropertyOp38
 70
     1
102
RTVSPropertyOp39
 70
     1
102
RTVSPropertyOp40
 70
     1
102
RTVSPropertyOp41
 70
     1
102
RTVSPropertyOp42
 70
     1
102
RTVSPropertyOp43
 70
     1
102
RTVSPropertyOp44
 70
     1
102
RTVSPropertyOp45
 70
     1
102
RTVSPropertyOp46
 70
     1
102
RTVSPropertyOp47
 70
     1
102
RTVSPropertyOp48
 70
     1
102
RTVSPropertyOp49
 70
     1
102
RTVSPropertyOp50
 70
     1
102
RTVSPropertyOp51
 70
     0
102
RTVSPropertyOp52
 70
     0
102
RTVSPropertyOp53
 70
     1
102
RTVSPropertyOp54
 70
     1
102
RTVSPropertyOp55
 70
     1
102
RTVSPropertyOp56
 70
     1
102
RTVSPropertyOp57
 70
     1
102
RTVSPost2010Prop28
280
     1
102
RTVSPost2010PropOp28
 70
     1
102
RTVSPost2010Prop29
280
     1
102
RTVSPost2010PropOp29
 70
     1
102
RTVSPost2010Prop30
280
     0
102
RTVSPost2010PropOp30
 70
     1
102
RTVSPost2010Prop31
280
     0
102
RTVSPost2010PropOp31
 70
     1
102
RTVSPost2010Prop32
280
     0
102
RTVSPost2010PropOp32
 70
     1
102
RTVSPost2010Prop33
280
     0
102
RTVSPost2010PropOp33
 70
     1
102
RTVSPost2010Prop34
280
     0
102
RTVSPost2010PropOp34
 70
     1
102
RTVSPost2010Prop35
280
     0
102
RTVSPost2010PropOp35
 70
     1
102
RTVSPost2010Prop36
280
     0
102
RTVSPost2010PropOp36
 70
     1
102
RTVSPost2010Prop37
 90
       50
102
RTVSPost2010PropOp37
 70
     1
102
RTVSPost2010Prop38
140
0.0
102
RTVSPost2010PropOp38
 70
     1
102
RTVSPost2010Prop39
140
1.0
102
RTVSPost2010PropOp39
 70
     1
102
RTVSPost2010Prop40
 90
        0
102
RTVSPost2010PropOp40
 70
     1
102
RTVSPost2010Prop41ColorIndex
 90
       18
102
RTVSPost2010Prop41ColorRGB
 90
        0
102
RTVSPost2010PropOp41
 70
     1
102
RTVSPost2010Prop42
 90
       50
102
RTVSPost2010PropOp42
 70
     1
102
RTVSPost2010Prop43
 90
        3
102
RTVSPost2010PropOp43
 70
     1
102
RTVSPost2010Prop44ColorIndex
 90
        5
102
RTVSPost2010Prop44ColorRGB
 90
      255
102
RTVSPost2010PropOp44
 70
     1
102
RTVSPost2010Prop45
280
     0
102
RTVSPost2010PropOp45
 70
     1
102
RTVSPost2010Prop46
 90
       50
102
RTVSPost2010PropOp46
 70
     1
102
RTVSPost2010Prop47
 90
       50
102
RTVSPost2010PropOp47
 70
     1
102
RTVSPost2010Prop48
 90
       50
102
RTVSPost2010PropOp48
 70
     1
102
RTVSPost2010Prop49
280
     0
102
RTVSPost2010PropOp49
 70
     1
102
RTVSPost2010Prop50
 90
       50
102
RTVSPost2010PropOp50
 70
     1
102
RTVSPost2010Prop51ColorIndex
 90
      256
102
RTVSPost2010Prop51ColorRGB
 90
-16777216
102
RTVSPost2010PropOp51
 70
     0
102
RTVSPost2010Prop52
140
1.0
102
RTVSPost2010PropOp52
 70
     0
102
RTVSPost2010Prop53
 90
        2
102
RTVSPost2010PropOp53
 70
     1
102
RTVSPost2010Prop54
  1
strokes_ogs.tif
102
RTVSPost2010PropOp54
 70
     1
102
RTVSPost2010Prop55
280
     0
102
RTVSPost2010PropOp55
 70
     1
102
RTVSPost2010Prop56
140
1.0
102
RTVSPost2010PropOp56
 70
     1
102
RTVSPost2010Prop57
140
1.0
102
RTVSPost2010PropOp57
 70
     1
  0
XRECORD
  5
5CA
102
{ACAD_REACTORS
330
5C9
102
}
330
5C9
100
AcDbXrecord
280
     1
102
RTVSPropertyOp0
 70
     1
102
RTVSPropertyOp1
 70
     1
102
RTVSPropertyOp2
 70
     1
102
RTVSPropertyOp3
 70
     1
102
RTVSPropertyOp4
 70
     1
102
RTVSPropertyOp5
 70
     1
102
RTVSPropertyOp6
 70
     1
102
RTVSPropertyOp7
 70
     1
102
RTVSPropertyOp8
 70
     1
102
RTVSPropertyOp9
 70
     1
102
RTVSPropertyOp10
 70
     1
102
RTVSPropertyOp11
 70
     1
102
RTVSPropertyOp12
 70
     1
102
RTVSPropertyOp13
 70
     1
102
RTVSPropertyOp14
 70
     1
102
RTVSPropertyOp15
 70
     1
102
RTVSPropertyOp16
 70
     1
102
RTVSPropertyOp17
 70
     1
102
RTVSPropertyOp18
 70
     1
102
RTVSPropertyOp19
 70
     1
102
RTVSPropertyOp20
 70
     1
102
RTVSPropertyOp21
 70
     1
102
RTVSPropertyOp22
 70
     1
102
RTVSPropertyOp23
 70
     1
102
RTVSPropertyOp24
 70
     1
102
RTVSPropertyOp25
 70
     1
102
RTVSPropertyOp26
 70
     1
102
RTVSPropertyOp27
 70
     1
102
RTVSPropertyOp28
 70
     1
102
RTVSPropertyOp29
 70
     1
102
RTVSPropertyOp30
 70
     1
102
RTVSPropertyOp31
 70
     1
102
RTVSPropertyOp32
 70
     1
102
RTVSPropertyOp33
 70
     1
102
RTVSPropertyOp34
 70
     1
102
RTVSPropertyOp35
 70
     1
102
RTVSPropertyOp36
 70
     1
102
RTVSPropertyOp37
 70
     1
102
RTVSPropertyOp38
 70
     1
102
RTVSPropertyOp39
 70
     1
102
RTVSPropertyOp40
 70
     1
102
RTVSPropertyOp41
 70
     1
102
RTVSPropertyOp42
 70
     1
102
RTVSPropertyOp43
 70
     1
102
RTVSPropertyOp44
 70
     1
102
RTVSPropertyOp45
 70
     1
102
RTVSPropertyOp46
 70
     1
102
RTVSPropertyOp47
 70
     1
102
RTVSPropertyOp48
 70
     1
102
RTVSPropertyOp49
 70
     1
102
RTVSPropertyOp50
 70
     1
102
RTVSPropertyOp51
 70
     0
102
RTVSPropertyOp52
 70
     0
102
RTVSPropertyOp53
 70
     1
102
RTVSPropertyOp54
 70
     1
102
RTVSPropertyOp55
 70
     1
102
RTVSPropertyOp56
 70
     1
102
RTVSPropertyOp57
 70
     1
102
RTVSPost2010Prop28
280
     0
102
RTVSPost2010PropOp28
 70
     1
102
RTVSPost2010Prop29
280
     1
102
RTVSPost2010PropOp29
 70
     1
102
RTVSPost2010Prop30
280
     1
102
RTVSPost2010PropOp30
 70
     1
102
RTVSPost2010Prop31
280
     0
102
RTVSPost2010PropOp31
 70
     1
102
RTVSPost2010Prop32
280
     0
102
RTVSPost2010PropOp32
 70
     1
102
RTVSPost2010Prop33
280
     0
102
RTVSPost2010PropOp33
 70
     1
102
RTVSPost2010Prop34
280
     0
102
RTVSPost2010PropOp34
 70
     1
102
RTVSPost2010Prop35
280
     0
102
RTVSPost2010PropOp35
 70
     1
102
RTVSPost2010Prop36
280
     0
102
RTVSPost2010PropOp36
 70
     1
102
RTVSPost2010Prop37
 90
       50
102
RTVSPost2010PropOp37
 70
     1
102
RTVSPost2010Prop38
140
0.0
102
RTVSPost2010PropOp38
 70
     1
102
RTVSPost2010Prop39
140
1.0
102
RTVSPost2010PropOp39
 70
     1
102
RTVSPost2010Prop40
 90
        0
102
RTVSPost2010PropOp40
 70
     1
102
RTVSPost2010Prop41ColorIndex
 90
       18
102
RTVSPost2010Prop41ColorRGB
 90
        0
102
RTVSPost2010PropOp41
 70
     1
102
RTVSPost2010Prop42
 90
       50
102
RTVSPost2010PropOp42
 70
     1
102
RTVSPost2010Prop43
 90
        3
102
RTVSPost2010PropOp43
 70
     1
102
RTVSPost2010Prop44ColorIndex
 90
        5
102
RTVSPost2010Prop44ColorRGB
 90
      255
102
RTVSPost2010PropOp44
 70
     1
102
RTVSPost2010Prop45
280
     0
102
RTVSPost2010PropOp45
 70
     1
102
RTVSPost2010Prop46
 90
       50
102
RTVSPost2010PropOp46
 70
     1
102
RTVSPost2010Prop47
 90
       50
102
RTVSPost2010PropOp47
 70
     1
102
RTVSPost2010Prop48
 90
       50
102
RTVSPost2010PropOp48
 70
     1
102
RTVSPost2010Prop49
280
     0
102
RTVSPost2010PropOp49
 70
     1
102
RTVSPost2010Prop50
 90
       50
102
RTVSPost2010PropOp50
 70
     1
102
RTVSPost2010Prop51ColorIndex
 90
      256
102
RTVSPost2010Prop51ColorRGB
 90
-16777216
102
RTVSPost2010PropOp51
 70
     0
102
RTVSPost2010Prop52
140
1.0
102
RTVSPost2010PropOp52
 70
     0
102
RTVSPost2010Prop53
 90
        2
102
RTVSPost2010PropOp53
 70
     1
102
RTVSPost2010Prop54
  1
strokes_ogs.tif
102
RTVSPost2010PropOp54
 70
     1
102
RTVSPost2010Prop55
280
     0
102
RTVSPost2010PropOp55
 70
     1
102
RTVSPost2010Prop56
140
1.0
102
RTVSPost2010PropOp56
 70
     1
102
RTVSPost2010Prop57
140
1.0
102
RTVSPost2010PropOp57
 70
     1
  0
XRECORD
  5
5D0
102
{ACAD_REACTORS
330
5CF
102
}
330
5CF
100
AcDbXrecord
280
     1
102
RTVSPropertyOp0
 70
     1
102
RTVSPropertyOp1
 70
     1
102
RTVSPropertyOp2
 70
     1
102
RTVSPropertyOp3
 70
     1
102
RTVSPropertyOp4
 70
     1
102
RTVSPropertyOp5
 70
     1
102
RTVSPropertyOp6
 70
     1
102
RTVSPropertyOp7
 70
     1
102
RTVSPropertyOp8
 70
     1
102
RTVSPropertyOp9
 70
     1
102
RTVSPropertyOp10
 70
     1
102
RTVSPropertyOp11
 70
     1
102
RTVSPropertyOp12
 70
     1
102
RTVSPropertyOp13
 70
     1
102
RTVSPropertyOp14
 70
     1
102
RTVSPropertyOp15
 70
     1
102
RTVSPropertyOp16
 70
     1
102
RTVSPropertyOp17
 70
     1
102
RTVSPropertyOp18
 70
     1
102
RTVSPropertyOp19
 70
     1
102
RTVSPropertyOp20
 70
     1
102
RTVSPropertyOp21
 70
     1
102
RTVSPropertyOp22
 70
     1
102
RTVSPropertyOp23
 70
     1
102
RTVSPropertyOp24
 70
     1
102
RTVSPropertyOp25
 70
     1
102
RTVSPropertyOp26
 70
     1
102
RTVSPropertyOp27
 70
     1
102
RTVSPropertyOp28
 70
     1
102
RTVSPropertyOp29
 70
     1
102
RTVSPropertyOp30
 70
     1
102
RTVSPropertyOp31
 70
     1
102
RTVSPropertyOp32
 70
     1
102
RTVSPropertyOp33
 70
     1
102
RTVSPropertyOp34
 70
     1
102
RTVSPropertyOp35
 70
     1
102
RTVSPropertyOp36
 70
     1
102
RTVSPropertyOp37
 70
     1
102
RTVSPropertyOp38
 70
     1
102
RTVSPropertyOp39
 70
     1
102
RTVSPropertyOp40
 70
     1
102
RTVSPropertyOp41
 70
     1
102
RTVSPropertyOp42
 70
     1
102
RTVSPropertyOp43
 70
     1
102
RTVSPropertyOp44
 70
     1
102
RTVSPropertyOp45
 70
     1
102
RTVSPropertyOp46
 70
     1
102
RTVSPropertyOp47
 70
     1
102
RTVSPropertyOp48
 70
     1
102
RTVSPropertyOp49
 70
     1
102
RTVSPropertyOp50
 70
     1
102
RTVSPropertyOp51
 70
     0
102
RTVSPropertyOp52
 70
     0
102
RTVSPropertyOp53
 70
     1
102
RTVSPropertyOp54
 70
     1
102
RTVSPropertyOp55
 70
     1
102
RTVSPropertyOp56
 70
     1
102
RTVSPropertyOp57
 70
     1
102
RTVSPost2010Prop28
280
     0
102
RTVSPost2010PropOp28
 70
     1
102
RTVSPost2010Prop29
280
     1
102
RTVSPost2010PropOp29
 70
     1
102
RTVSPost2010Prop30
280
     1
102
RTVSPost2010PropOp30
 70
     1
102
RTVSPost2010Prop31
280
     0
102
RTVSPost2010PropOp31
 70
     1
102
RTVSPost2010Prop32
280
     0
102
RTVSPost2010PropOp32
 70
     1
102
RTVSPost2010Prop33
280
     0
102
RTVSPost2010PropOp33
 70
     1
102
RTVSPost2010Prop34
280
     0
102
RTVSPost2010PropOp34
 70
     1
102
RTVSPost2010Prop35
280
     0
102
RTVSPost2010PropOp35
 70
     1
102
RTVSPost2010Prop36
280
     0
102
RTVSPost2010PropOp36
 70
     1
102
RTVSPost2010Prop37
 90
       50
102
RTVSPost2010PropOp37
 70
     1
102
RTVSPost2010Prop38
140
0.0
102
RTVSPost2010PropOp38
 70
     1
102
RTVSPost2010Prop39
140
1.0
102
RTVSPost2010PropOp39
 70
     1
102
RTVSPost2010Prop40
 90
        0
102
RTVSPost2010PropOp40
 70
     1
102
RTVSPost2010Prop41ColorIndex
 90
       18
102
RTVSPost2010Prop41ColorRGB
 90
        0
102
RTVSPost2010PropOp41
 70
     1
102
RTVSPost2010Prop42
 90
       50
102
RTVSPost2010PropOp42
 70
     1
102
RTVSPost2010Prop43
 90
        3
102
RTVSPost2010PropOp43
 70
     1
102
RTVSPost2010Prop44ColorIndex
 90
        5
102
RTVSPost2010Prop44ColorRGB
 90
      255
102
RTVSPost2010PropOp44
 70
     1
102
RTVSPost2010Prop45
280
     0
102
RTVSPost2010PropOp45
 70
     1
102
RTVSPost2010Prop46
 90
       50
102
RTVSPost2010PropOp46
 70
     1
102
RTVSPost2010Prop47
 90
       50
102
RTVSPost2010PropOp47
 70
     1
102
RTVSPost2010Prop48
 90
       50
102
RTVSPost2010PropOp48
 70
     1
102
RTVSPost2010Prop49
280
     0
102
RTVSPost2010PropOp49
 70
     1
102
RTVSPost2010Prop50
 90
       50
102
RTVSPost2010PropOp50
 70
     1
102
RTVSPost2010Prop51ColorIndex
 90
      256
102
RTVSPost2010Prop51ColorRGB
 90
-16777216
102
RTVSPost2010PropOp51
 70
     0
102
RTVSPost2010Prop52
140
1.0
102
RTVSPost2010PropOp52
 70
     0
102
RTVSPost2010Prop53
 90
        2
102
RTVSPost2010PropOp53
 70
     1
102
RTVSPost2010Prop54
  1
strokes_ogs.tif
102
RTVSPost2010PropOp54
 70
     1
102
RTVSPost2010Prop55
280
     0
102
RTVSPost2010PropOp55
 70
     1
102
RTVSPost2010Prop56
140
1.0
102
RTVSPost2010PropOp56
 70
     1
102
RTVSPost2010Prop57
140
1.0
102
RTVSPost2010PropOp57
 70
     1
  0
XRECORD
  5
5D8
102
{ACAD_REACTORS
330
5D7
102
}
330
5D7
100
AcDbXrecord
280
     1
102
RTVSPropertyOp0
 70
     1
102
RTVSPropertyOp1
 70
     1
102
RTVSPropertyOp2
 70
     1
102
RTVSPropertyOp3
 70
     1
102
RTVSPropertyOp4
 70
     1
102
RTVSPropertyOp5
 70
     1
102
RTVSPropertyOp6
 70
     1
102
RTVSPropertyOp7
 70
     1
102
RTVSPropertyOp8
 70
     1
102
RTVSPropertyOp9
 70
     1
102
RTVSPropertyOp10
 70
     1
102
RTVSPropertyOp11
 70
     1
102
RTVSPropertyOp12
 70
     1
102
RTVSPropertyOp13
 70
     1
102
RTVSPropertyOp14
 70
     1
102
RTVSPropertyOp15
 70
     1
102
RTVSPropertyOp16
 70
     1
102
RTVSPropertyOp17
 70
     1
102
RTVSPropertyOp18
 70
     1
102
RTVSPropertyOp19
 70
     1
102
RTVSPropertyOp20
 70
     1
102
RTVSPropertyOp21
 70
     1
102
RTVSPropertyOp22
 70
     1
102
RTVSPropertyOp23
 70
     1
102
RTVSPropertyOp24
 70
     1
102
RTVSPropertyOp25
 70
     1
102
RTVSPropertyOp26
 70
     1
102
RTVSPropertyOp27
 70
     1
102
RTVSPropertyOp28
 70
     1
102
RTVSPropertyOp29
 70
     1
102
RTVSPropertyOp30
 70
     1
102
RTVSPropertyOp31
 70
     1
102
RTVSPropertyOp32
 70
     1
102
RTVSPropertyOp33
 70
     1
102
RTVSPropertyOp34
 70
     1
102
RTVSPropertyOp35
 70
     1
102
RTVSPropertyOp36
 70
     1
102
RTVSPropertyOp37
 70
     1
102
RTVSPropertyOp38
 70
     1
102
RTVSPropertyOp39
 70
     1
102
RTVSPropertyOp40
 70
     1
102
RTVSPropertyOp41
 70
     1
102
RTVSPropertyOp42
 70
     1
102
RTVSPropertyOp43
 70
     1
102
RTVSPropertyOp44
 70
     1
102
RTVSPropertyOp45
 70
     1
102
RTVSPropertyOp46
 70
     1
102
RTVSPropertyOp47
 70
     1
102
RTVSPropertyOp48
 70
     1
102
RTVSPropertyOp49
 70
     1
102
RTVSPropertyOp50
 70
     1
102
RTVSPropertyOp51
 70
     0
102
RTVSPropertyOp52
 70
     0
102
RTVSPropertyOp53
 70
     1
102
RTVSPropertyOp54
 70
     1
102
RTVSPropertyOp55
 70
     1
102
RTVSPropertyOp56
 70
     1
102
RTVSPropertyOp57
 70
     1
102
RTVSPost2010Prop28
280
     0
102
RTVSPost2010PropOp28
 70
     1
102
RTVSPost2010Prop29
280
     1
102
RTVSPost2010PropOp29
 70
     1
102
RTVSPost2010Prop30
280
     1
102
RTVSPost2010PropOp30
 70
     1
102
RTVSPost2010Prop31
280
     0
102
RTVSPost2010PropOp31
 70
     1
102
RTVSPost2010Prop32
280
     0
102
RTVSPost2010PropOp32
 70
     1
102
RTVSPost2010Prop33
280
     0
102
RTVSPost2010PropOp33
 70
     1
102
RTVSPost2010Prop34
280
     0
102
RTVSPost2010PropOp34
 70
     1
102
RTVSPost2010Prop35
280
     0
102
RTVSPost2010PropOp35
 70
     1
102
RTVSPost2010Prop36
280
     0
102
RTVSPost2010PropOp36
 70
     1
102
RTVSPost2010Prop37
 90
       50
102
RTVSPost2010PropOp37
 70
     1
102
RTVSPost2010Prop38
140
0.0
102
RTVSPost2010PropOp38
 70
     1
102
RTVSPost2010Prop39
140
1.0
102
RTVSPost2010PropOp39
 70
     1
102
RTVSPost2010Prop40
 90
        0
102
RTVSPost2010PropOp40
 70
     1
102
RTVSPost2010Prop41ColorIndex
 90
       18
102
RTVSPost2010Prop41ColorRGB
 90
        0
102
RTVSPost2010PropOp41
 70
     1
102
RTVSPost2010Prop42
 90
       50
102
RTVSPost2010PropOp42
 70
     1
102
RTVSPost2010Prop43
 90
        3
102
RTVSPost2010PropOp43
 70
     1
102
RTVSPost2010Prop44ColorIndex
 90
        5
102
RTVSPost2010Prop44ColorRGB
 90
      255
102
RTVSPost2010PropOp44
 70
     1
102
RTVSPost2010Prop45
280
     0
102
RTVSPost2010PropOp45
 70
     1
102
RTVSPost2010Prop46
 90
       50
102
RTVSPost2010PropOp46
 70
     1
102
RTVSPost2010Prop47
 90
       50
102
RTVSPost2010PropOp47
 70
     1
102
RTVSPost2010Prop48
 90
       50
102
RTVSPost2010PropOp48
 70
     1
102
RTVSPost2010Prop49
280
     0
102
RTVSPost2010PropOp49
 70
     1
102
RTVSPost2010Prop50
 90
       50
102
RTVSPost2010PropOp50
 70
     1
102
RTVSPost2010Prop51ColorIndex
 90
      256
102
RTVSPost2010Prop51ColorRGB
 90
-16777216
102
RTVSPost2010PropOp51
 70
     0
102
RTVSPost2010Prop52
140
1.0
102
RTVSPost2010PropOp52
 70
     0
102
RTVSPost2010Prop53
 90
        2
102
RTVSPost2010PropOp53
 70
     1
102
RTVSPost2010Prop54
  1
strokes_ogs.tif
102
RTVSPost2010PropOp54
 70
     1
102
RTVSPost2010Prop55
280
     0
102
RTVSPost2010PropOp55
 70
     1
102
RTVSPost2010Prop56
140
1.0
102
RTVSPost2010PropOp56
 70
     1
102
RTVSPost2010Prop57
140
1.0
102
RTVSPost2010PropOp57
 70
     1
  0
XRECORD
  5
5CC
102
{ACAD_REACTORS
330
5CB
102
}
330
5CB
100
AcDbXrecord
280
     1
102
RTVSPropertyOp0
 70
     1
102
RTVSPropertyOp1
 70
     1
102
RTVSPropertyOp2
 70
     1
102
RTVSPropertyOp3
 70
     1
102
RTVSPropertyOp4
 70
     1
102
RTVSPropertyOp5
 70
     1
102
RTVSPropertyOp6
 70
     1
102
RTVSPropertyOp7
 70
     1
102
RTVSPropertyOp8
 70
     1
102
RTVSPropertyOp9
 70
     1
102
RTVSPropertyOp10
 70
     1
102
RTVSPropertyOp11
 70
     1
102
RTVSPropertyOp12
 70
     1
102
RTVSPropertyOp13
 70
     1
102
RTVSPropertyOp14
 70
     1
102
RTVSPropertyOp15
 70
     1
102
RTVSPropertyOp16
 70
     1
102
RTVSPropertyOp17
 70
     1
102
RTVSPropertyOp18
 70
     1
102
RTVSPropertyOp19
 70
     1
102
RTVSPropertyOp20
 70
     1
102
RTVSPropertyOp21
 70
     1
102
RTVSPropertyOp22
 70
     1
102
RTVSPropertyOp23
 70
     1
102
RTVSPropertyOp24
 70
     1
102
RTVSPropertyOp25
 70
     1
102
RTVSPropertyOp26
 70
     1
102
RTVSPropertyOp27
 70
     1
102
RTVSPropertyOp28
 70
     1
102
RTVSPropertyOp29
 70
     1
102
RTVSPropertyOp30
 70
     1
102
RTVSPropertyOp31
 70
     1
102
RTVSPropertyOp32
 70
     1
102
RTVSPropertyOp33
 70
     1
102
RTVSPropertyOp34
 70
     1
102
RTVSPropertyOp35
 70
     1
102
RTVSPropertyOp36
 70
     1
102
RTVSPropertyOp37
 70
     1
102
RTVSPropertyOp38
 70
     1
102
RTVSPropertyOp39
 70
     1
102
RTVSPropertyOp40
 70
     1
102
RTVSPropertyOp41
 70
     1
102
RTVSPropertyOp42
 70
     1
102
RTVSPropertyOp43
 70
     1
102
RTVSPropertyOp44
 70
     1
102
RTVSPropertyOp45
 70
     1
102
RTVSPropertyOp46
 70
     1
102
RTVSPropertyOp47
 70
     1
102
RTVSPropertyOp48
 70
     1
102
RTVSPropertyOp49
 70
     1
102
RTVSPropertyOp50
 70
     1
102
RTVSPropertyOp51
 70
     0
102
RTVSPropertyOp52
 70
     0
102
RTVSPropertyOp53
 70
     1
102
RTVSPropertyOp54
 70
     1
102
RTVSPropertyOp55
 70
     1
102
RTVSPropertyOp56
 70
     1
102
RTVSPropertyOp57
 70
     1
102
RTVSPost2010Prop28
280
     0
102
RTVSPost2010PropOp28
 70
     1
102
RTVSPost2010Prop29
280
     1
102
RTVSPost2010PropOp29
 70
     1
102
RTVSPost2010Prop30
280
     1
102
RTVSPost2010PropOp30
 70
     1
102
RTVSPost2010Prop31
280
     0
102
RTVSPost2010PropOp31
 70
     1
102
RTVSPost2010Prop32
280
     0
102
RTVSPost2010PropOp32
 70
     1
102
RTVSPost2010Prop33
280
     0
102
RTVSPost2010PropOp33
 70
     1
102
RTVSPost2010Prop34
280
     0
102
RTVSPost2010PropOp34
 70
     1
102
RTVSPost2010Prop35
280
     0
102
RTVSPost2010PropOp35
 70
     1
102
RTVSPost2010Prop36
280
     0
102
RTVSPost2010PropOp36
 70
     1
102
RTVSPost2010Prop37
 90
       50
102
RTVSPost2010PropOp37
 70
     1
102
RTVSPost2010Prop38
140
0.0
102
RTVSPost2010PropOp38
 70
     1
102
RTVSPost2010Prop39
140
1.0
102
RTVSPost2010PropOp39
 70
     1
102
RTVSPost2010Prop40
 90
        0
102
RTVSPost2010PropOp40
 70
     1
102
RTVSPost2010Prop41ColorIndex
 90
       18
102
RTVSPost2010Prop41ColorRGB
 90
        0
102
RTVSPost2010PropOp41
 70
     1
102
RTVSPost2010Prop42
 90
       50
102
RTVSPost2010PropOp42
 70
     1
102
RTVSPost2010Prop43
 90
        3
102
RTVSPost2010PropOp43
 70
     1
102
RTVSPost2010Prop44ColorIndex
 90
        5
102
RTVSPost2010Prop44ColorRGB
 90
      255
102
RTVSPost2010PropOp44
 70
     1
102
RTVSPost2010Prop45
280
     0
102
RTVSPost2010PropOp45
 70
     1
102
RTVSPost2010Prop46
 90
       50
102
RTVSPost2010PropOp46
 70
     1
102
RTVSPost2010Prop47
 90
       50
102
RTVSPost2010PropOp47
 70
     1
102
RTVSPost2010Prop48
 90
       50
102
RTVSPost2010PropOp48
 70
     1
102
RTVSPost2010Prop49
280
     0
102
RTVSPost2010PropOp49
 70
     1
102
RTVSPost2010Prop50
 90
       50
102
RTVSPost2010PropOp50
 70
     1
102
RTVSPost2010Prop51ColorIndex
 90
      256
102
RTVSPost2010Prop51ColorRGB
 90
-16777216
102
RTVSPost2010PropOp51
 70
     0
102
RTVSPost2010Prop52
140
1.0
102
RTVSPost2010PropOp52
 70
     0
102
RTVSPost2010Prop53
 90
        2
102
RTVSPost2010PropOp53
 70
     1
102
RTVSPost2010Prop54
  1
strokes_ogs.tif
102
RTVSPost2010PropOp54
 70
     1
102
RTVSPost2010Prop55
280
     0
102
RTVSPost2010PropOp55
 70
     1
102
RTVSPost2010Prop56
140
1.0
102
RTVSPost2010PropOp56
 70
     1
102
RTVSPost2010Prop57
140
1.0
102
RTVSPost2010PropOp57
 70
     1
  0
XRECORD
  5
5CE
102
{ACAD_REACTORS
330
5CD
102
}
330
5CD
100
AcDbXrecord
280
     1
102
RTVSPropertyOp0
 70
     1
102
RTVSPropertyOp1
 70
     1
102
RTVSPropertyOp2
 70
     1
102
RTVSPropertyOp3
 70
     1
102
RTVSPropertyOp4
 70
     1
102
RTVSPropertyOp5
 70
     1
102
RTVSPropertyOp6
 70
     1
102
RTVSPropertyOp7
 70
     1
102
RTVSPropertyOp8
 70
     1
102
RTVSPropertyOp9
 70
     1
102
RTVSPropertyOp10
 70
     1
102
RTVSPropertyOp11
 70
     1
102
RTVSPropertyOp12
 70
     1
102
RTVSPropertyOp13
 70
     1
102
RTVSPropertyOp14
 70
     1
102
RTVSPropertyOp15
 70
     1
102
RTVSPropertyOp16
 70
     1
102
RTVSPropertyOp17
 70
     1
102
RTVSPropertyOp18
 70
     1
102
RTVSPropertyOp19
 70
     1
102
RTVSPropertyOp20
 70
     1
102
RTVSPropertyOp21
 70
     1
102
RTVSPropertyOp22
 70
     1
102
RTVSPropertyOp23
 70
     1
102
RTVSPropertyOp24
 70
     1
102
RTVSPropertyOp25
 70
     1
102
RTVSPropertyOp26
 70
     1
102
RTVSPropertyOp27
 70
     1
102
RTVSPropertyOp28
 70
     1
102
RTVSPropertyOp29
 70
     1
102
RTVSPropertyOp30
 70
     1
102
RTVSPropertyOp31
 70
     1
102
RTVSPropertyOp32
 70
     1
102
RTVSPropertyOp33
 70
     1
102
RTVSPropertyOp34
 70
     1
102
RTVSPropertyOp35
 70
     1
102
RTVSPropertyOp36
 70
     1
102
RTVSPropertyOp37
 70
     1
102
RTVSPropertyOp38
 70
     1
102
RTVSPropertyOp39
 70
     1
102
RTVSPropertyOp40
 70
     1
102
RTVSPropertyOp41
 70
     1
102
RTVSPropertyOp42
 70
     1
102
RTVSPropertyOp43
 70
     1
102
RTVSPropertyOp44
 70
     1
102
RTVSPropertyOp45
 70
     1
102
RTVSPropertyOp46
 70
     1
102
RTVSPropertyOp47
 70
     1
102
RTVSPropertyOp48
 70
     1
102
RTVSPropertyOp49
 70
     1
102
RTVSPropertyOp50
 70
     1
102
RTVSPropertyOp51
 70
     0
102
RTVSPropertyOp52
 70
     0
102
RTVSPropertyOp53
 70
     1
102
RTVSPropertyOp54
 70
     1
102
RTVSPropertyOp55
 70
     1
102
RTVSPropertyOp56
 70
     1
102
RTVSPropertyOp57
 70
     1
102
RTVSPost2010Prop28
280
     0
102
RTVSPost2010PropOp28
 70
     1
102
RTVSPost2010Prop29
280
     1
102
RTVSPost2010PropOp29
 70
     1
102
RTVSPost2010Prop30
280
     1
102
RTVSPost2010PropOp30
 70
     1
102
RTVSPost2010Prop31
280
     0
102
RTVSPost2010PropOp31
 70
     1
102
RTVSPost2010Prop32
280
     0
102
RTVSPost2010PropOp32
 70
     1
102
RTVSPost2010Prop33
280
     0
102
RTVSPost2010PropOp33
 70
     1
102
RTVSPost2010Prop34
280
     0
102
RTVSPost2010PropOp34
 70
     1
102
RTVSPost2010Prop35
280
     0
102
RTVSPost2010PropOp35
 70
     1
102
RTVSPost2010Prop36
280
     0
102
RTVSPost2010PropOp36
 70
     1
102
RTVSPost2010Prop37
 90
       50
102
RTVSPost2010PropOp37
 70
     1
102
RTVSPost2010Prop38
140
0.0
102
RTVSPost2010PropOp38
 70
     1
102
RTVSPost2010Prop39
140
1.0
102
RTVSPost2010PropOp39
 70
     1
102
RTVSPost2010Prop40
 90
        0
102
RTVSPost2010PropOp40
 70
     1
102
RTVSPost2010Prop41ColorIndex
 90
       18
102
RTVSPost2010Prop41ColorRGB
 90
        0
102
RTVSPost2010PropOp41
 70
     1
102
RTVSPost2010Prop42
 90
       50
102
RTVSPost2010PropOp42
 70
     1
102
RTVSPost2010Prop43
 90
        3
102
RTVSPost2010PropOp43
 70
     1
102
RTVSPost2010Prop44ColorIndex
 90
        5
102
RTVSPost2010Prop44ColorRGB
 90
      255
102
RTVSPost2010PropOp44
 70
     1
102
RTVSPost2010Prop45
280
     0
102
RTVSPost2010PropOp45
 70
     1
102
RTVSPost2010Prop46
 90
       50
102
RTVSPost2010PropOp46
 70
     1
102
RTVSPost2010Prop47
 90
       50
102
RTVSPost2010PropOp47
 70
     1
102
RTVSPost2010Prop48
 90
       50
102
RTVSPost2010PropOp48
 70
     1
102
RTVSPost2010Prop49
280
     0
102
RTVSPost2010PropOp49
 70
     1
102
RTVSPost2010Prop50
 90
       50
102
RTVSPost2010PropOp50
 70
     1
102
RTVSPost2010Prop51ColorIndex
 90
      256
102
RTVSPost2010Prop51ColorRGB
 90
-16777216
102
RTVSPost2010PropOp51
 70
     0
102
RTVSPost2010Prop52
140
1.0
102
RTVSPost2010PropOp52
 70
     0
102
RTVSPost2010Prop53
 90
        2
102
RTVSPost2010PropOp53
 70
     1
102
RTVSPost2010Prop54
  1
strokes_ogs.tif
102
RTVSPost2010PropOp54
 70
     1
102
RTVSPost2010Prop55
280
     0
102
RTVSPost2010PropOp55
 70
     1
102
RTVSPost2010Prop56
140
1.0
102
RTVSPost2010PropOp56
 70
     1
102
RTVSPost2010Prop57
140
1.0
102
RTVSPost2010PropOp57
 70
     1
  0
XRECORD
  5
5DE
102
{ACAD_REACTORS
330
5DD
102
}
330
5DD
100
AcDbXrecord
280
     1
102
RTVSPropertyOp0
 70
     0
102
RTVSPropertyOp1
 70
     0
102
RTVSPropertyOp2
 70
     0
102
RTVSPropertyOp3
 70
     0
102
RTVSPropertyOp4
 70
     0
102
RTVSPropertyOp5
 70
     0
102
RTVSPropertyOp6
 70
     0
102
RTVSPropertyOp7
 70
     0
102
RTVSPropertyOp8
 70
     0
102
RTVSPropertyOp9
 70
     0
102
RTVSPropertyOp10
 70
     0
102
RTVSPropertyOp11
 70
     0
102
RTVSPropertyOp12
 70
     0
102
RTVSPropertyOp13
 70
     0
102
RTVSPropertyOp14
 70
     0
102
RTVSPropertyOp15
 70
     0
102
RTVSPropertyOp16
 70
     0
102
RTVSPropertyOp17
 70
     0
102
RTVSPropertyOp18
 70
     0
102
RTVSPropertyOp19
 70
     0
102
RTVSPropertyOp20
 70
     0
102
RTVSPropertyOp21
 70
     0
102
RTVSPropertyOp22
 70
     0
102
RTVSPropertyOp23
 70
     0
102
RTVSPropertyOp24
 70
     0
102
RTVSPropertyOp25
 70
     0
102
RTVSPropertyOp26
 70
     0
102
RTVSPropertyOp27
 70
     0
102
RTVSPropertyOp28
 70
     1
102
RTVSPropertyOp29
 70
     1
102
RTVSPropertyOp30
 70
     1
102
RTVSPropertyOp31
 70
     1
102
RTVSPropertyOp32
 70
     1
102
RTVSPropertyOp33
 70
     1
102
RTVSPropertyOp34
 70
     1
102
RTVSPropertyOp35
 70
     1
102
RTVSPropertyOp36
 70
     1
102
RTVSPropertyOp37
 70
     1
102
RTVSPropertyOp38
 70
     1
102
RTVSPropertyOp39
 70
     1
102
RTVSPropertyOp40
 70
     1
102
RTVSPropertyOp41
 70
     1
102
RTVSPropertyOp42
 70
     1
102
RTVSPropertyOp43
 70
     1
102
RTVSPropertyOp44
 70
     1
102
RTVSPropertyOp45
 70
     1
102
RTVSPropertyOp46
 70
     1
102
RTVSPropertyOp47
 70
     1
102
RTVSPropertyOp48
 70
     1
102
RTVSPropertyOp49
 70
     1
102
RTVSPropertyOp50
 70
     1
102
RTVSPropertyOp51
 70
     0
102
RTVSPropertyOp52
 70
     0
102
RTVSPropertyOp53
 70
     1
102
RTVSPropertyOp54
 70
     1
102
RTVSPropertyOp55
 70
     1
102
RTVSPropertyOp56
 70
     1
102
RTVSPropertyOp57
 70
     1
102
RTVSPost2010Prop28
280
     0
102
RTVSPost2010PropOp28
 70
     1
102
RTVSPost2010Prop29
280
     1
102
RTVSPost2010PropOp29
 70
     1
102
RTVSPost2010Prop30
280
     1
102
RTVSPost2010PropOp30
 70
     1
102
RTVSPost2010Prop31
280
     0
102
RTVSPost2010PropOp31
 70
     1
102
RTVSPost2010Prop32
280
     0
102
RTVSPost2010PropOp32
 70
     1
102
RTVSPost2010Prop33
280
     0
102
RTVSPost2010PropOp33
 70
     1
102
RTVSPost2010Prop34
280
     0
102
RTVSPost2010PropOp34
 70
     1
102
RTVSPost2010Prop35
280
     0
102
RTVSPost2010PropOp35
 70
     1
102
RTVSPost2010Prop36
280
     0
102
RTVSPost2010PropOp36
 70
     1
102
RTVSPost2010Prop37
 90
       50
102
RTVSPost2010PropOp37
 70
     1
102
RTVSPost2010Prop38
140
0.0
102
RTVSPost2010PropOp38
 70
     1
102
RTVSPost2010Prop39
140
1.0
102
RTVSPost2010PropOp39
 70
     1
102
RTVSPost2010Prop40
 90
        0
102
RTVSPost2010PropOp40
 70
     1
102
RTVSPost2010Prop41ColorIndex
 90
       18
102
RTVSPost2010Prop41ColorRGB
 90
        0
102
RTVSPost2010PropOp41
 70
     1
102
RTVSPost2010Prop42
 90
       50
102
RTVSPost2010PropOp42
 70
     1
102
RTVSPost2010Prop43
 90
        3
102
RTVSPost2010PropOp43
 70
     1
102
RTVSPost2010Prop44ColorIndex
 90
        5
102
RTVSPost2010Prop44ColorRGB
 90
      255
102
RTVSPost2010PropOp44
 70
     1
102
RTVSPost2010Prop45
280
     0
102
RTVSPost2010PropOp45
 70
     1
102
RTVSPost2010Prop46
 90
       50
102
RTVSPost2010PropOp46
 70
     1
102
RTVSPost2010Prop47
 90
       50
102
RTVSPost2010PropOp47
 70
     1
102
RTVSPost2010Prop48
 90
       50
102
RTVSPost2010PropOp48
 70
     1
102
RTVSPost2010Prop49
280
     0
102
RTVSPost2010PropOp49
 70
     1
102
RTVSPost2010Prop50
 90
       50
102
RTVSPost2010PropOp50
 70
     1
102
RTVSPost2010Prop51ColorIndex
 90
      256
102
RTVSPost2010Prop51ColorRGB
 90
-16777216
102
RTVSPost2010PropOp51
 70
     0
102
RTVSPost2010Prop52
140
1.0
102
RTVSPost2010PropOp52
 70
     0
102
RTVSPost2010Prop53
 90
        2
102
RTVSPost2010PropOp53
 70
     1
102
RTVSPost2010Prop54
  1
strokes_ogs.tif
102
RTVSPost2010PropOp54
 70
     1
102
RTVSPost2010Prop55
280
     0
102
RTVSPost2010PropOp55
 70
     1
102
RTVSPost2010Prop56
140
1.0
102
RTVSPost2010PropOp56
 70
     1
102
RTVSPost2010Prop57
140
1.0
102
RTVSPost2010PropOp57
 70
     1
  0
XRECORD
  5
5D6
102
{ACAD_REACTORS
330
5D5
102
}
330
5D5
100
AcDbXrecord
280
     1
102
RTVSPropertyOp0
 70
     1
102
RTVSPropertyOp1
 70
     1
102
RTVSPropertyOp2
 70
     1
102
RTVSPropertyOp3
 70
     1
102
RTVSPropertyOp4
 70
     1
102
RTVSPropertyOp5
 70
     1
102
RTVSPropertyOp6
 70
     1
102
RTVSPropertyOp7
 70
     1
102
RTVSPropertyOp8
 70
     1
102
RTVSPropertyOp9
 70
     1
102
RTVSPropertyOp10
 70
     1
102
RTVSPropertyOp11
 70
     1
102
RTVSPropertyOp12
 70
     1
102
RTVSPropertyOp13
 70
     1
102
RTVSPropertyOp14
 70
     1
102
RTVSPropertyOp15
 70
     1
102
RTVSPropertyOp16
 70
     1
102
RTVSPropertyOp17
 70
     1
102
RTVSPropertyOp18
 70
     1
102
RTVSPropertyOp19
 70
     1
102
RTVSPropertyOp20
 70
     1
102
RTVSPropertyOp21
 70
     1
102
RTVSPropertyOp22
 70
     1
102
RTVSPropertyOp23
 70
     1
102
RTVSPropertyOp24
 70
     1
102
RTVSPropertyOp25
 70
     1
102
RTVSPropertyOp26
 70
     1
102
RTVSPropertyOp27
 70
     1
102
RTVSPropertyOp28
 70
     1
102
RTVSPropertyOp29
 70
     1
102
RTVSPropertyOp30
 70
     1
102
RTVSPropertyOp31
 70
     1
102
RTVSPropertyOp32
 70
     1
102
RTVSPropertyOp33
 70
     1
102
RTVSPropertyOp34
 70
     1
102
RTVSPropertyOp35
 70
     1
102
RTVSPropertyOp36
 70
     1
102
RTVSPropertyOp37
 70
     1
102
RTVSPropertyOp38
 70
     1
102
RTVSPropertyOp39
 70
     1
102
RTVSPropertyOp40
 70
     1
102
RTVSPropertyOp41
 70
     1
102
RTVSPropertyOp42
 70
     1
102
RTVSPropertyOp43
 70
     1
102
RTVSPropertyOp44
 70
     1
102
RTVSPropertyOp45
 70
     1
102
RTVSPropertyOp46
 70
     1
102
RTVSPropertyOp47
 70
     1
102
RTVSPropertyOp48
 70
     1
102
RTVSPropertyOp49
 70
     1
102
RTVSPropertyOp50
 70
     1
102
RTVSPropertyOp51
 70
     0
102
RTVSPropertyOp52
 70
     0
102
RTVSPropertyOp53
 70
     1
102
RTVSPropertyOp54
 70
     1
102
RTVSPropertyOp55
 70
     1
102
RTVSPropertyOp56
 70
     1
102
RTVSPropertyOp57
 70
     1
102
RTVSPost2010Prop28
280
     0
102
RTVSPost2010PropOp28
 70
     1
102
RTVSPost2010Prop29
280
     1
102
RTVSPost2010PropOp29
 70
     1
102
RTVSPost2010Prop30
280
     1
102
RTVSPost2010PropOp30
 70
     1
102
RTVSPost2010Prop31
280
     0
102
RTVSPost2010PropOp31
 70
     1
102
RTVSPost2010Prop32
280
     0
102
RTVSPost2010PropOp32
 70
     1
102
RTVSPost2010Prop33
280
     0
102
RTVSPost2010PropOp33
 70
     1
102
RTVSPost2010Prop34
280
     0
102
RTVSPost2010PropOp34
 70
     1
102
RTVSPost2010Prop35
280
     0
102
RTVSPost2010PropOp35
 70
     1
102
RTVSPost2010Prop36
280
     0
102
RTVSPost2010PropOp36
 70
     1
102
RTVSPost2010Prop37
 90
       50
102
RTVSPost2010PropOp37
 70
     1
102
RTVSPost2010Prop38
140
0.0
102
RTVSPost2010PropOp38
 70
     1
102
RTVSPost2010Prop39
140
1.0
102
RTVSPost2010PropOp39
 70
     1
102
RTVSPost2010Prop40
 90
        0
102
RTVSPost2010PropOp40
 70
     1
102
RTVSPost2010Prop41ColorIndex
 90
       18
102
RTVSPost2010Prop41ColorRGB
 90
        0
102
RTVSPost2010PropOp41
 70
     1
102
RTVSPost2010Prop42
 90
       50
102
RTVSPost2010PropOp42
 70
     1
102
RTVSPost2010Prop43
 90
        3
102
RTVSPost2010PropOp43
 70
     1
102
RTVSPost2010Prop44ColorIndex
 90
        5
102
RTVSPost2010Prop44ColorRGB
 90
      255
102
RTVSPost2010PropOp44
 70
     1
102
RTVSPost2010Prop45
280
     0
102
RTVSPost2010PropOp45
 70
     1
102
RTVSPost2010Prop46
 90
       50
102
RTVSPost2010PropOp46
 70
     1
102
RTVSPost2010Prop47
 90
       50
102
RTVSPost2010PropOp47
 70
     1
102
RTVSPost2010Prop48
 90
       50
102
RTVSPost2010PropOp48
 70
     1
102
RTVSPost2010Prop49
280
     0
102
RTVSPost2010PropOp49
 70
     1
102
RTVSPost2010Prop50
 90
       50
102
RTVSPost2010PropOp50
 70
     1
102
RTVSPost2010Prop51ColorIndex
 90
      256
102
RTVSPost2010Prop51ColorRGB
 90
-16777216
102
RTVSPost2010PropOp51
 70
     0
102
RTVSPost2010Prop52
140
1.0
102
RTVSPost2010PropOp52
 70
     0
102
RTVSPost2010Prop53
 90
        2
102
RTVSPost2010PropOp53
 70
     1
102
RTVSPost2010Prop54
  1
strokes_ogs.tif
102
RTVSPost2010PropOp54
 70
     1
102
RTVSPost2010Prop55
280
     0
102
RTVSPost2010PropOp55
 70
     1
102
RTVSPost2010Prop56
140
1.0
102
RTVSPost2010PropOp56
 70
     1
102
RTVSPost2010Prop57
140
1.0
102
RTVSPost2010PropOp57
 70
     1
  0
XRECORD
  5
5BE
102
{ACAD_REACTORS
330
5BD
102
}
330
5BD
100
AcDbXrecord
280
     1
102
RTVSPropertyOp0
 70
     1
102
RTVSPropertyOp1
 70
     1
102
RTVSPropertyOp2
 70
     1
102
RTVSPropertyOp3
 70
     1
102
RTVSPropertyOp4
 70
     1
102
RTVSPropertyOp5
 70
     1
102
RTVSPropertyOp6
 70
     1
102
RTVSPropertyOp7
 70
     1
102
RTVSPropertyOp8
 70
     1
102
RTVSPropertyOp9
 70
     1
102
RTVSPropertyOp10
 70
     1
102
RTVSPropertyOp11
 70
     1
102
RTVSPropertyOp12
 70
     1
102
RTVSPropertyOp13
 70
     1
102
RTVSPropertyOp14
 70
     1
102
RTVSPropertyOp15
 70
     1
102
RTVSPropertyOp16
 70
     1
102
RTVSPropertyOp17
 70
     1
102
RTVSPropertyOp18
 70
     1
102
RTVSPropertyOp19
 70
     1
102
RTVSPropertyOp20
 70
     1
102
RTVSPropertyOp21
 70
     1
102
RTVSPropertyOp22
 70
     1
102
RTVSPropertyOp23
 70
     1
102
RTVSPropertyOp24
 70
     1
102
RTVSPropertyOp25
 70
     1
102
RTVSPropertyOp26
 70
     1
102
RTVSPropertyOp27
 70
     1
102
RTVSPropertyOp28
 70
     1
102
RTVSPropertyOp29
 70
     1
102
RTVSPropertyOp30
 70
     1
102
RTVSPropertyOp31
 70
     1
102
RTVSPropertyOp32
 70
     1
102
RTVSPropertyOp33
 70
     1
102
RTVSPropertyOp34
 70
     1
102
RTVSPropertyOp35
 70
     1
102
RTVSPropertyOp36
 70
     1
102
RTVSPropertyOp37
 70
     1
102
RTVSPropertyOp38
 70
     1
102
RTVSPropertyOp39
 70
     1
102
RTVSPropertyOp40
 70
     1
102
RTVSPropertyOp41
 70
     1
102
RTVSPropertyOp42
 70
     1
102
RTVSPropertyOp43
 70
     1
102
RTVSPropertyOp44
 70
     1
102
RTVSPropertyOp45
 70
     1
102
RTVSPropertyOp46
 70
     1
102
RTVSPropertyOp47
 70
     1
102
RTVSPropertyOp48
 70
     1
102
RTVSPropertyOp49
 70
     1
102
RTVSPropertyOp50
 70
     1
102
RTVSPropertyOp51
 70
     0
102
RTVSPropertyOp52
 70
     0
102
RTVSPropertyOp53
 70
     1
102
RTVSPropertyOp54
 70
     1
102
RTVSPropertyOp55
 70
     1
102
RTVSPropertyOp56
 70
     1
102
RTVSPropertyOp57
 70
     1
102
RTVSPost2010Prop28
280
     0
102
RTVSPost2010PropOp28
 70
     1
102
RTVSPost2010Prop29
280
     1
102
RTVSPost2010PropOp29
 70
     1
102
RTVSPost2010Prop30
280
     1
102
RTVSPost2010PropOp30
 70
     1
102
RTVSPost2010Prop31
280
     0
102
RTVSPost2010PropOp31
 70
     1
102
RTVSPost2010Prop32
280
     0
102
RTVSPost2010PropOp32
 70
     1
102
RTVSPost2010Prop33
280
     0
102
RTVSPost2010PropOp33
 70
     1
102
RTVSPost2010Prop34
280
     0
102
RTVSPost2010PropOp34
 70
     1
102
RTVSPost2010Prop35
280
     0
102
RTVSPost2010PropOp35
 70
     1
102
RTVSPost2010Prop36
280
     0
102
RTVSPost2010PropOp36
 70
     1
102
RTVSPost2010Prop37
 90
       50
102
RTVSPost2010PropOp37
 70
     1
102
RTVSPost2010Prop38
140
0.0
102
RTVSPost2010PropOp38
 70
     1
102
RTVSPost2010Prop39
140
1.0
102
RTVSPost2010PropOp39
 70
     1
102
RTVSPost2010Prop40
 90
        0
102
RTVSPost2010PropOp40
 70
     1
102
RTVSPost2010Prop41ColorIndex
 90
       18
102
RTVSPost2010Prop41ColorRGB
 90
        0
102
RTVSPost2010PropOp41
 70
     1
102
RTVSPost2010Prop42
 90
       50
102
RTVSPost2010PropOp42
 70
     1
102
RTVSPost2010Prop43
 90
        3
102
RTVSPost2010PropOp43
 70
     1
102
RTVSPost2010Prop44ColorIndex
 90
        5
102
RTVSPost2010Prop44ColorRGB
 90
      255
102
RTVSPost2010PropOp44
 70
     1
102
RTVSPost2010Prop45
280
     0
102
RTVSPost2010PropOp45
 70
     1
102
RTVSPost2010Prop46
 90
       50
102
RTVSPost2010PropOp46
 70
     1
102
RTVSPost2010Prop47
 90
       50
102
RTVSPost2010PropOp47
 70
     1
102
RTVSPost2010Prop48
 90
       50
102
RTVSPost2010PropOp48
 70
     1
102
RTVSPost2010Prop49
280
     0
102
RTVSPost2010PropOp49
 70
     1
102
RTVSPost2010Prop50
 90
       50
102
RTVSPost2010PropOp50
 70
     1
102
RTVSPost2010Prop51ColorIndex
 90
      256
102
RTVSPost2010Prop51ColorRGB
 90
-16777216
102
RTVSPost2010PropOp51
 70
     0
102
RTVSPost2010Prop52
140
1.0
102
RTVSPost2010PropOp52
 70
     0
102
RTVSPost2010Prop53
 90
        2
102
RTVSPost2010PropOp53
 70
     1
102
RTVSPost2010Prop54
  1
strokes_ogs.tif
102
RTVSPost2010PropOp54
 70
     1
102
RTVSPost2010Prop55
280
     0
102
RTVSPost2010PropOp55
 70
     1
102
RTVSPost2010Prop56
140
1.0
102
RTVSPost2010PropOp56
 70
     1
102
RTVSPost2010Prop57
140
1.0
102
RTVSPost2010PropOp57
 70
     1
  0
XRECORD
  5
5C0
102
{ACAD_REACTORS
330
5BF
102
}
330
5BF
100
AcDbXrecord
280
     1
102
RTVSPropertyOp0
 70
     1
102
RTVSPropertyOp1
 70
     1
102
RTVSPropertyOp2
 70
     1
102
RTVSPropertyOp3
 70
     1
102
RTVSPropertyOp4
 70
     1
102
RTVSPropertyOp5
 70
     1
102
RTVSPropertyOp6
 70
     1
102
RTVSPropertyOp7
 70
     1
102
RTVSPropertyOp8
 70
     1
102
RTVSPropertyOp9
 70
     1
102
RTVSPropertyOp10
 70
     1
102
RTVSPropertyOp11
 70
     1
102
RTVSPropertyOp12
 70
     1
102
RTVSPropertyOp13
 70
     1
102
RTVSPropertyOp14
 70
     1
102
RTVSPropertyOp15
 70
     1
102
RTVSPropertyOp16
 70
     1
102
RTVSPropertyOp17
 70
     1
102
RTVSPropertyOp18
 70
     1
102
RTVSPropertyOp19
 70
     1
102
RTVSPropertyOp20
 70
     1
102
RTVSPropertyOp21
 70
     1
102
RTVSPropertyOp22
 70
     1
102
RTVSPropertyOp23
 70
     1
102
RTVSPropertyOp24
 70
     1
102
RTVSPropertyOp25
 70
     1
102
RTVSPropertyOp26
 70
     1
102
RTVSPropertyOp27
 70
     1
102
RTVSPropertyOp28
 70
     1
102
RTVSPropertyOp29
 70
     1
102
RTVSPropertyOp30
 70
     1
102
RTVSPropertyOp31
 70
     1
102
RTVSPropertyOp32
 70
     1
102
RTVSPropertyOp33
 70
     1
102
RTVSPropertyOp34
 70
     1
102
RTVSPropertyOp35
 70
     1
102
RTVSPropertyOp36
 70
     1
102
RTVSPropertyOp37
 70
     1
102
RTVSPropertyOp38
 70
     1
102
RTVSPropertyOp39
 70
     1
102
RTVSPropertyOp40
 70
     1
102
RTVSPropertyOp41
 70
     1
102
RTVSPropertyOp42
 70
     1
102
RTVSPropertyOp43
 70
     1
102
RTVSPropertyOp44
 70
     1
102
RTVSPropertyOp45
 70
     1
102
RTVSPropertyOp46
 70
     1
102
RTVSPropertyOp47
 70
     1
102
RTVSPropertyOp48
 70
     1
102
RTVSPropertyOp49
 70
     1
102
RTVSPropertyOp50
 70
     1
102
RTVSPropertyOp51
 70
     0
102
RTVSPropertyOp52
 70
     0
102
RTVSPropertyOp53
 70
     1
102
RTVSPropertyOp54
 70
     1
102
RTVSPropertyOp55
 70
     1
102
RTVSPropertyOp56
 70
     1
102
RTVSPropertyOp57
 70
     1
102
RTVSPost2010Prop28
280
     0
102
RTVSPost2010PropOp28
 70
     1
102
RTVSPost2010Prop29
280
     1
102
RTVSPost2010PropOp29
 70
     1
102
RTVSPost2010Prop30
280
     1
102
RTVSPost2010PropOp30
 70
     1
102
RTVSPost2010Prop31
280
     0
102
RTVSPost2010PropOp31
 70
     1
102
RTVSPost2010Prop32
280
     0
102
RTVSPost2010PropOp32
 70
     1
102
RTVSPost2010Prop33
280
     0
102
RTVSPost2010PropOp33
 70
     1
102
RTVSPost2010Prop34
280
     0
102
RTVSPost2010PropOp34
 70
     1
102
RTVSPost2010Prop35
280
     0
102
RTVSPost2010PropOp35
 70
     1
102
RTVSPost2010Prop36
280
     0
102
RTVSPost2010PropOp36
 70
     1
102
RTVSPost2010Prop37
 90
       50
102
RTVSPost2010PropOp37
 70
     1
102
RTVSPost2010Prop38
140
0.0
102
RTVSPost2010PropOp38
 70
     1
102
RTVSPost2010Prop39
140
1.0
102
RTVSPost2010PropOp39
 70
     1
102
RTVSPost2010Prop40
 90
        0
102
RTVSPost2010PropOp40
 70
     1
102
RTVSPost2010Prop41ColorIndex
 90
       18
102
RTVSPost2010Prop41ColorRGB
 90
        0
102
RTVSPost2010PropOp41
 70
     1
102
RTVSPost2010Prop42
 90
       50
102
RTVSPost2010PropOp42
 70
     1
102
RTVSPost2010Prop43
 90
        3
102
RTVSPost2010PropOp43
 70
     1
102
RTVSPost2010Prop44ColorIndex
 90
        5
102
RTVSPost2010Prop44ColorRGB
 90
      255
102
RTVSPost2010PropOp44
 70
     1
102
RTVSPost2010Prop45
280
     0
102
RTVSPost2010PropOp45
 70
     1
102
RTVSPost2010Prop46
 90
       50
102
RTVSPost2010PropOp46
 70
     1
102
RTVSPost2010Prop47
 90
       50
102
RTVSPost2010PropOp47
 70
     1
102
RTVSPost2010Prop48
 90
       50
102
RTVSPost2010PropOp48
 70
     1
102
RTVSPost2010Prop49
280
     0
102
RTVSPost2010PropOp49
 70
     1
102
RTVSPost2010Prop50
 90
       50
102
RTVSPost2010PropOp50
 70
     1
102
RTVSPost2010Prop51ColorIndex
 90
      256
102
RTVSPost2010Prop51ColorRGB
 90
-16777216
102
RTVSPost2010PropOp51
 70
     0
102
RTVSPost2010Prop52
140
1.0
102
RTVSPost2010PropOp52
 70
     0
102
RTVSPost2010Prop53
 90
        2
102
RTVSPost2010PropOp53
 70
     1
102
RTVSPost2010Prop54
  1
strokes_ogs.tif
102
RTVSPost2010PropOp54
 70
     1
102
RTVSPost2010Prop55
280
     0
102
RTVSPost2010PropOp55
 70
     1
102
RTVSPost2010Prop56
140
1.0
102
RTVSPost2010PropOp56
 70
     1
102
RTVSPost2010Prop57
140
1.0
102
RTVSPost2010PropOp57
 70
     1
  0
XRECORD
  5
5C2
102
{ACAD_REACTORS
330
5C1
102
}
330
5C1
100
AcDbXrecord
280
     1
102
RTVSPropertyOp0
 70
     1
102
RTVSPropertyOp1
 70
     1
102
RTVSPropertyOp2
 70
     1
102
RTVSPropertyOp3
 70
     1
102
RTVSPropertyOp4
 70
     1
102
RTVSPropertyOp5
 70
     1
102
RTVSPropertyOp6
 70
     1
102
RTVSPropertyOp7
 70
     1
102
RTVSPropertyOp8
 70
     1
102
RTVSPropertyOp9
 70
     1
102
RTVSPropertyOp10
 70
     1
102
RTVSPropertyOp11
 70
     1
102
RTVSPropertyOp12
 70
     1
102
RTVSPropertyOp13
 70
     1
102
RTVSPropertyOp14
 70
     1
102
RTVSPropertyOp15
 70
     1
102
RTVSPropertyOp16
 70
     1
102
RTVSPropertyOp17
 70
     1
102
RTVSPropertyOp18
 70
     1
102
RTVSPropertyOp19
 70
     1
102
RTVSPropertyOp20
 70
     1
102
RTVSPropertyOp21
 70
     1
102
RTVSPropertyOp22
 70
     1
102
RTVSPropertyOp23
 70
     1
102
RTVSPropertyOp24
 70
     1
102
RTVSPropertyOp25
 70
     1
102
RTVSPropertyOp26
 70
     1
102
RTVSPropertyOp27
 70
     1
102
RTVSPropertyOp28
 70
     1
102
RTVSPropertyOp29
 70
     1
102
RTVSPropertyOp30
 70
     1
102
RTVSPropertyOp31
 70
     1
102
RTVSPropertyOp32
 70
     1
102
RTVSPropertyOp33
 70
     1
102
RTVSPropertyOp34
 70
     1
102
RTVSPropertyOp35
 70
     1
102
RTVSPropertyOp36
 70
     1
102
RTVSPropertyOp37
 70
     1
102
RTVSPropertyOp38
 70
     1
102
RTVSPropertyOp39
 70
     1
102
RTVSPropertyOp40
 70
     1
102
RTVSPropertyOp41
 70
     1
102
RTVSPropertyOp42
 70
     1
102
RTVSPropertyOp43
 70
     1
102
RTVSPropertyOp44
 70
     1
102
RTVSPropertyOp45
 70
     1
102
RTVSPropertyOp46
 70
     1
102
RTVSPropertyOp47
 70
     1
102
RTVSPropertyOp48
 70
     1
102
RTVSPropertyOp49
 70
     1
102
RTVSPropertyOp50
 70
     1
102
RTVSPropertyOp51
 70
     0
102
RTVSPropertyOp52
 70
     0
102
RTVSPropertyOp53
 70
     1
102
RTVSPropertyOp54
 70
     1
102
RTVSPropertyOp55
 70
     1
102
RTVSPropertyOp56
 70
     1
102
RTVSPropertyOp57
 70
     1
102
RTVSPost2010Prop28
280
     0
102
RTVSPost2010PropOp28
 70
     1
102
RTVSPost2010Prop29
280
     1
102
RTVSPost2010PropOp29
 70
     1
102
RTVSPost2010Prop30
280
     1
102
RTVSPost2010PropOp30
 70
     1
102
RTVSPost2010Prop31
280
     0
102
RTVSPost2010PropOp31
 70
     1
102
RTVSPost2010Prop32
280
     0
102
RTVSPost2010PropOp32
 70
     1
102
RTVSPost2010Prop33
280
     0
102
RTVSPost2010PropOp33
 70
     1
102
RTVSPost2010Prop34
280
     0
102
RTVSPost2010PropOp34
 70
     1
102
RTVSPost2010Prop35
280
     0
102
RTVSPost2010PropOp35
 70
     1
102
RTVSPost2010Prop36
280
     0
102
RTVSPost2010PropOp36
 70
     1
102
RTVSPost2010Prop37
 90
       50
102
RTVSPost2010PropOp37
 70
     1
102
RTVSPost2010Prop38
140
0.0
102
RTVSPost2010PropOp38
 70
     1
102
RTVSPost2010Prop39
140
1.0
102
RTVSPost2010PropOp39
 70
     1
102
RTVSPost2010Prop40
 90
        0
102
RTVSPost2010PropOp40
 70
     1
102
RTVSPost2010Prop41ColorIndex
 90
       18
102
RTVSPost2010Prop41ColorRGB
 90
        0
102
RTVSPost2010PropOp41
 70
     1
102
RTVSPost2010Prop42
 90
       50
102
RTVSPost2010PropOp42
 70
     1
102
RTVSPost2010Prop43
 90
        3
102
RTVSPost2010PropOp43
 70
     1
102
RTVSPost2010Prop44ColorIndex
 90
        5
102
RTVSPost2010Prop44ColorRGB
 90
      255
102
RTVSPost2010PropOp44
 70
     1
102
RTVSPost2010Prop45
280
     0
102
RTVSPost2010PropOp45
 70
     1
102
RTVSPost2010Prop46
 90
       50
102
RTVSPost2010PropOp46
 70
     1
102
RTVSPost2010Prop47
 90
       50
102
RTVSPost2010PropOp47
 70
     1
102
RTVSPost2010Prop48
 90
       50
102
RTVSPost2010PropOp48
 70
     1
102
RTVSPost2010Prop49
280
     0
102
RTVSPost2010PropOp49
 70
     1
102
RTVSPost2010Prop50
 90
       50
102
RTVSPost2010PropOp50
 70
     1
102
RTVSPost2010Prop51ColorIndex
 90
      256
102
RTVSPost2010Prop51ColorRGB
 90
-16777216
102
RTVSPost2010PropOp51
 70
     0
102
RTVSPost2010Prop52
140
1.0
102
RTVSPost2010PropOp52
 70
     0
102
RTVSPost2010Prop53
 90
        2
102
RTVSPost2010PropOp53
 70
     1
102
RTVSPost2010Prop54
  1
strokes_ogs.tif
102
RTVSPost2010PropOp54
 70
     1
102
RTVSPost2010Prop55
280
     0
102
RTVSPost2010PropOp55
 70
     1
102
RTVSPost2010Prop56
140
1.0
102
RTVSPost2010PropOp56
 70
     1
102
RTVSPost2010Prop57
140
1.0
102
RTVSPost2010PropOp57
 70
     1
  0
XRECORD
  5
5C4
102
{ACAD_REACTORS
330
5C3
102
}
330
5C3
100
AcDbXrecord
280
     1
102
RTVSPropertyOp0
 70
     1
102
RTVSPropertyOp1
 70
     1
102
RTVSPropertyOp2
 70
     1
102
RTVSPropertyOp3
 70
     1
102
RTVSPropertyOp4
 70
     1
102
RTVSPropertyOp5
 70
     1
102
RTVSPropertyOp6
 70
     1
102
RTVSPropertyOp7
 70
     1
102
RTVSPropertyOp8
 70
     1
102
RTVSPropertyOp9
 70
     1
102
RTVSPropertyOp10
 70
     1
102
RTVSPropertyOp11
 70
     1
102
RTVSPropertyOp12
 70
     1
102
RTVSPropertyOp13
 70
     1
102
RTVSPropertyOp14
 70
     1
102
RTVSPropertyOp15
 70
     1
102
RTVSPropertyOp16
 70
     1
102
RTVSPropertyOp17
 70
     1
102
RTVSPropertyOp18
 70
     1
102
RTVSPropertyOp19
 70
     1
102
RTVSPropertyOp20
 70
     1
102
RTVSPropertyOp21
 70
     1
102
RTVSPropertyOp22
 70
     1
102
RTVSPropertyOp23
 70
     1
102
RTVSPropertyOp24
 70
     1
102
RTVSPropertyOp25
 70
     1
102
RTVSPropertyOp26
 70
     1
102
RTVSPropertyOp27
 70
     1
102
RTVSPropertyOp28
 70
     1
102
RTVSPropertyOp29
 70
     1
102
RTVSPropertyOp30
 70
     1
102
RTVSPropertyOp31
 70
     1
102
RTVSPropertyOp32
 70
     1
102
RTVSPropertyOp33
 70
     1
102
RTVSPropertyOp34
 70
     1
102
RTVSPropertyOp35
 70
     1
102
RTVSPropertyOp36
 70
     1
102
RTVSPropertyOp37
 70
     1
102
RTVSPropertyOp38
 70
     1
102
RTVSPropertyOp39
 70
     1
102
RTVSPropertyOp40
 70
     1
102
RTVSPropertyOp41
 70
     1
102
RTVSPropertyOp42
 70
     1
102
RTVSPropertyOp43
 70
     1
102
RTVSPropertyOp44
 70
     1
102
RTVSPropertyOp45
 70
     1
102
RTVSPropertyOp46
 70
     1
102
RTVSPropertyOp47
 70
     1
102
RTVSPropertyOp48
 70
     1
102
RTVSPropertyOp49
 70
     1
102
RTVSPropertyOp50
 70
     1
102
RTVSPropertyOp51
 70
     0
102
RTVSPropertyOp52
 70
     0
102
RTVSPropertyOp53
 70
     1
102
RTVSPropertyOp54
 70
     1
102
RTVSPropertyOp55
 70
     1
102
RTVSPropertyOp56
 70
     1
102
RTVSPropertyOp57
 70
     1
102
RTVSPost2010Prop28
280
     0
102
RTVSPost2010PropOp28
 70
     1
102
RTVSPost2010Prop29
280
     1
102
RTVSPost2010PropOp29
 70
     1
102
RTVSPost2010Prop30
280
     1
102
RTVSPost2010PropOp30
 70
     1
102
RTVSPost2010Prop31
280
     0
102
RTVSPost2010PropOp31
 70
     1
102
RTVSPost2010Prop32
280
     0
102
RTVSPost2010PropOp32
 70
     1
102
RTVSPost2010Prop33
280
     0
102
RTVSPost2010PropOp33
 70
     1
102
RTVSPost2010Prop34
280
     0
102
RTVSPost2010PropOp34
 70
     1
102
RTVSPost2010Prop35
280
     0
102
RTVSPost2010PropOp35
 70
     1
102
RTVSPost2010Prop36
280
     0
102
RTVSPost2010PropOp36
 70
     1
102
RTVSPost2010Prop37
 90
       50
102
RTVSPost2010PropOp37
 70
     1
102
RTVSPost2010Prop38
140
0.0
102
RTVSPost2010PropOp38
 70
     1
102
RTVSPost2010Prop39
140
1.0
102
RTVSPost2010PropOp39
 70
     1
102
RTVSPost2010Prop40
 90
        0
102
RTVSPost2010PropOp40
 70
     1
102
RTVSPost2010Prop41ColorIndex
 90
       18
102
RTVSPost2010Prop41ColorRGB
 90
        0
102
RTVSPost2010PropOp41
 70
     1
102
RTVSPost2010Prop42
 90
       50
102
RTVSPost2010PropOp42
 70
     1
102
RTVSPost2010Prop43
 90
        3
102
RTVSPost2010PropOp43
 70
     1
102
RTVSPost2010Prop44ColorIndex
 90
        5
102
RTVSPost2010Prop44ColorRGB
 90
      255
102
RTVSPost2010PropOp44
 70
     1
102
RTVSPost2010Prop45
280
     0
102
RTVSPost2010PropOp45
 70
     1
102
RTVSPost2010Prop46
 90
       50
102
RTVSPost2010PropOp46
 70
     1
102
RTVSPost2010Prop47
 90
       50
102
RTVSPost2010PropOp47
 70
     1
102
RTVSPost2010Prop48
 90
       50
102
RTVSPost2010PropOp48
 70
     1
102
RTVSPost2010Prop49
280
     0
102
RTVSPost2010PropOp49
 70
     1
102
RTVSPost2010Prop50
 90
       50
102
RTVSPost2010PropOp50
 70
     1
102
RTVSPost2010Prop51ColorIndex
 90
      256
102
RTVSPost2010Prop51ColorRGB
 90
-16777216
102
RTVSPost2010PropOp51
 70
     0
102
RTVSPost2010Prop52
140
1.0
102
RTVSPost2010PropOp52
 70
     0
102
RTVSPost2010Prop53
 90
        2
102
RTVSPost2010PropOp53
 70
     1
102
RTVSPost2010Prop54
  1
strokes_ogs.tif
102
RTVSPost2010PropOp54
 70
     1
102
RTVSPost2010Prop55
280
     0
102
RTVSPost2010PropOp55
 70
     1
102
RTVSPost2010Prop56
140
1.0
102
RTVSPost2010PropOp56
 70
     1
102
RTVSPost2010Prop57
140
1.0
102
RTVSPost2010PropOp57
 70
     1
  0
XRECORD
  5
5C8
102
{ACAD_REACTORS
330
5C7
102
}
330
5C7
100
AcDbXrecord
280
     1
102
RTVSPropertyOp0
 70
     1
102
RTVSPropertyOp1
 70
     1
102
RTVSPropertyOp2
 70
     1
102
RTVSPropertyOp3
 70
     1
102
RTVSPropertyOp4
 70
     1
102
RTVSPropertyOp5
 70
     1
102
RTVSPropertyOp6
 70
     1
102
RTVSPropertyOp7
 70
     1
102
RTVSPropertyOp8
 70
     1
102
RTVSPropertyOp9
 70
     1
102
RTVSPropertyOp10
 70
     1
102
RTVSPropertyOp11
 70
     1
102
RTVSPropertyOp12
 70
     1
102
RTVSPropertyOp13
 70
     1
102
RTVSPropertyOp14
 70
     1
102
RTVSPropertyOp15
 70
     1
102
RTVSPropertyOp16
 70
     1
102
RTVSPropertyOp17
 70
     1
102
RTVSPropertyOp18
 70
     1
102
RTVSPropertyOp19
 70
     1
102
RTVSPropertyOp20
 70
     1
102
RTVSPropertyOp21
 70
     1
102
RTVSPropertyOp22
 70
     1
102
RTVSPropertyOp23
 70
     1
102
RTVSPropertyOp24
 70
     1
102
RTVSPropertyOp25
 70
     1
102
RTVSPropertyOp26
 70
     1
102
RTVSPropertyOp27
 70
     1
102
RTVSPropertyOp28
 70
     1
102
RTVSPropertyOp29
 70
     1
102
RTVSPropertyOp30
 70
     1
102
RTVSPropertyOp31
 70
     1
102
RTVSPropertyOp32
 70
     1
102
RTVSPropertyOp33
 70
     1
102
RTVSPropertyOp34
 70
     1
102
RTVSPropertyOp35
 70
     1
102
RTVSPropertyOp36
 70
     1
102
RTVSPropertyOp37
 70
     1
102
RTVSPropertyOp38
 70
     1
102
RTVSPropertyOp39
 70
     1
102
RTVSPropertyOp40
 70
     1
102
RTVSPropertyOp41
 70
     1
102
RTVSPropertyOp42
 70
     1
102
RTVSPropertyOp43
 70
     1
102
RTVSPropertyOp44
 70
     1
102
RTVSPropertyOp45
 70
     1
102
RTVSPropertyOp46
 70
     1
102
RTVSPropertyOp47
 70
     1
102
RTVSPropertyOp48
 70
     1
102
RTVSPropertyOp49
 70
     1
102
RTVSPropertyOp50
 70
     1
102
RTVSPropertyOp51
 70
     0
102
RTVSPropertyOp52
 70
     0
102
RTVSPropertyOp53
 70
     1
102
RTVSPropertyOp54
 70
     1
102
RTVSPropertyOp55
 70
     1
102
RTVSPropertyOp56
 70
     1
102
RTVSPropertyOp57
 70
     1
102
RTVSPost2010Prop28
280
     0
102
RTVSPost2010PropOp28
 70
     1
102
RTVSPost2010Prop29
280
     1
102
RTVSPost2010PropOp29
 70
     1
102
RTVSPost2010Prop30
280
     1
102
RTVSPost2010PropOp30
 70
     1
102
RTVSPost2010Prop31
280
     0
102
RTVSPost2010PropOp31
 70
     1
102
RTVSPost2010Prop32
280
     0
102
RTVSPost2010PropOp32
 70
     1
102
RTVSPost2010Prop33
280
     0
102
RTVSPost2010PropOp33
 70
     1
102
RTVSPost2010Prop34
280
     0
102
RTVSPost2010PropOp34
 70
     1
102
RTVSPost2010Prop35
280
     0
102
RTVSPost2010PropOp35
 70
     1
102
RTVSPost2010Prop36
280
     0
102
RTVSPost2010PropOp36
 70
     1
102
RTVSPost2010Prop37
 90
       50
102
RTVSPost2010PropOp37
 70
     1
102
RTVSPost2010Prop38
140
0.0
102
RTVSPost2010PropOp38
 70
     1
102
RTVSPost2010Prop39
140
1.0
102
RTVSPost2010PropOp39
 70
     1
102
RTVSPost2010Prop40
 90
        0
102
RTVSPost2010PropOp40
 70
     1
102
RTVSPost2010Prop41ColorIndex
 90
       18
102
RTVSPost2010Prop41ColorRGB
 90
        0
102
RTVSPost2010PropOp41
 70
     1
102
RTVSPost2010Prop42
 90
       50
102
RTVSPost2010PropOp42
 70
     1
102
RTVSPost2010Prop43
 90
        3
102
RTVSPost2010PropOp43
 70
     1
102
RTVSPost2010Prop44ColorIndex
 90
        5
102
RTVSPost2010Prop44ColorRGB
 90
      255
102
RTVSPost2010PropOp44
 70
     1
102
RTVSPost2010Prop45
280
     0
102
RTVSPost2010PropOp45
 70
     1
102
RTVSPost2010Prop46
 90
       50
102
RTVSPost2010PropOp46
 70
     1
102
RTVSPost2010Prop47
 90
       50
102
RTVSPost2010PropOp47
 70
     1
102
RTVSPost2010Prop48
 90
       50
102
RTVSPost2010PropOp48
 70
     1
102
RTVSPost2010Prop49
280
     0
102
RTVSPost2010PropOp49
 70
     1
102
RTVSPost2010Prop50
 90
       50
102
RTVSPost2010PropOp50
 70
     1
102
RTVSPost2010Prop51ColorIndex
 90
      256
102
RTVSPost2010Prop51ColorRGB
 90
-16777216
102
RTVSPost2010PropOp51
 70
     0
102
RTVSPost2010Prop52
140
1.0
102
RTVSPost2010PropOp52
 70
     0
102
RTVSPost2010Prop53
 90
        2
102
RTVSPost2010PropOp53
 70
     1
102
RTVSPost2010Prop54
  1
strokes_ogs.tif
102
RTVSPost2010PropOp54
 70
     1
102
RTVSPost2010Prop55
280
     0
102
RTVSPost2010PropOp55
 70
     1
102
RTVSPost2010Prop56
140
1.0
102
RTVSPost2010PropOp56
 70
     1
102
RTVSPost2010Prop57
140
1.0
102
RTVSPost2010PropOp57
 70
     1
  0
XRECORD
  5
5DA
102
{ACAD_REACTORS
330
5D9
102
}
330
5D9
100
AcDbXrecord
280
     1
102
RTVSPropertyOp0
 70
     0
102
RTVSPropertyOp1
 70
     0
102
RTVSPropertyOp2
 70
     0
102
RTVSPropertyOp3
 70
     0
102
RTVSPropertyOp4
 70
     0
102
RTVSPropertyOp5
 70
     0
102
RTVSPropertyOp6
 70
     0
102
RTVSPropertyOp7
 70
     0
102
RTVSPropertyOp8
 70
     0
102
RTVSPropertyOp9
 70
     0
102
RTVSPropertyOp10
 70
     0
102
RTVSPropertyOp11
 70
     0
102
RTVSPropertyOp12
 70
     0
102
RTVSPropertyOp13
 70
     0
102
RTVSPropertyOp14
 70
     0
102
RTVSPropertyOp15
 70
     0
102
RTVSPropertyOp16
 70
     0
102
RTVSPropertyOp17
 70
     0
102
RTVSPropertyOp18
 70
     0
102
RTVSPropertyOp19
 70
     0
102
RTVSPropertyOp20
 70
     0
102
RTVSPropertyOp21
 70
     0
102
RTVSPropertyOp22
 70
     0
102
RTVSPropertyOp23
 70
     0
102
RTVSPropertyOp24
 70
     0
102
RTVSPropertyOp25
 70
     0
102
RTVSPropertyOp26
 70
     0
102
RTVSPropertyOp27
 70
     0
102
RTVSPropertyOp28
 70
     1
102
RTVSPropertyOp29
 70
     1
102
RTVSPropertyOp30
 70
     1
102
RTVSPropertyOp31
 70
     1
102
RTVSPropertyOp32
 70
     1
102
RTVSPropertyOp33
 70
     1
102
RTVSPropertyOp34
 70
     1
102
RTVSPropertyOp35
 70
     1
102
RTVSPropertyOp36
 70
     1
102
RTVSPropertyOp37
 70
     1
102
RTVSPropertyOp38
 70
     1
102
RTVSPropertyOp39
 70
     1
102
RTVSPropertyOp40
 70
     1
102
RTVSPropertyOp41
 70
     1
102
RTVSPropertyOp42
 70
     1
102
RTVSPropertyOp43
 70
     1
102
RTVSPropertyOp44
 70
     1
102
RTVSPropertyOp45
 70
     1
102
RTVSPropertyOp46
 70
     1
102
RTVSPropertyOp47
 70
     1
102
RTVSPropertyOp48
 70
     1
102
RTVSPropertyOp49
 70
     1
102
RTVSPropertyOp50
 70
     1
102
RTVSPropertyOp51
 70
     0
102
RTVSPropertyOp52
 70
     0
102
RTVSPropertyOp53
 70
     1
102
RTVSPropertyOp54
 70
     1
102
RTVSPropertyOp55
 70
     1
102
RTVSPropertyOp56
 70
     1
102
RTVSPropertyOp57
 70
     1
102
RTVSPost2010Prop28
280
     0
102
RTVSPost2010PropOp28
 70
     1
102
RTVSPost2010Prop29
280
     1
102
RTVSPost2010PropOp29
 70
     1
102
RTVSPost2010Prop30
280
     1
102
RTVSPost2010PropOp30
 70
     1
102
RTVSPost2010Prop31
280
     0
102
RTVSPost2010PropOp31
 70
     1
102
RTVSPost2010Prop32
280
     0
102
RTVSPost2010PropOp32
 70
     1
102
RTVSPost2010Prop33
280
     0
102
RTVSPost2010PropOp33
 70
     1
102
RTVSPost2010Prop34
280
     0
102
RTVSPost2010PropOp34
 70
     1
102
RTVSPost2010Prop35
280
     0
102
RTVSPost2010PropOp35
 70
     1
102
RTVSPost2010Prop36
280
     0
102
RTVSPost2010PropOp36
 70
     1
102
RTVSPost2010Prop37
 90
       50
102
RTVSPost2010PropOp37
 70
     1
102
RTVSPost2010Prop38
140
0.0
102
RTVSPost2010PropOp38
 70
     1
102
RTVSPost2010Prop39
140
1.0
102
RTVSPost2010PropOp39
 70
     1
102
RTVSPost2010Prop40
 90
        0
102
RTVSPost2010PropOp40
 70
     1
102
RTVSPost2010Prop41ColorIndex
 90
       18
102
RTVSPost2010Prop41ColorRGB
 90
        0
102
RTVSPost2010PropOp41
 70
     1
102
RTVSPost2010Prop42
 90
       50
102
RTVSPost2010PropOp42
 70
     1
102
RTVSPost2010Prop43
 90
        3
102
RTVSPost2010PropOp43
 70
     1
102
RTVSPost2010Prop44ColorIndex
 90
        5
102
RTVSPost2010Prop44ColorRGB
 90
      255
102
RTVSPost2010PropOp44
 70
     1
102
RTVSPost2010Prop45
280
     0
102
RTVSPost2010PropOp45
 70
     1
102
RTVSPost2010Prop46
 90
       50
102
RTVSPost2010PropOp46
 70
     1
102
RTVSPost2010Prop47
 90
       50
102
RTVSPost2010PropOp47
 70
     1
102
RTVSPost2010Prop48
 90
       50
102
RTVSPost2010PropOp48
 70
     1
102
RTVSPost2010Prop49
280
     0
102
RTVSPost2010PropOp49
 70
     1
102
RTVSPost2010Prop50
 90
       50
102
RTVSPost2010PropOp50
 70
     1
102
RTVSPost2010Prop51ColorIndex
 90
      256
102
RTVSPost2010Prop51ColorRGB
 90
-16777216
102
RTVSPost2010PropOp51
 70
     0
102
RTVSPost2010Prop52
140
1.0
102
RTVSPost2010PropOp52
 70
     0
102
RTVSPost2010Prop53
 90
        2
102
RTVSPost2010PropOp53
 70
     1
102
RTVSPost2010Prop54
  1
strokes_ogs.tif
102
RTVSPost2010PropOp54
 70
     1
102
RTVSPost2010Prop55
280
     0
102
RTVSPost2010PropOp55
 70
     1
102
RTVSPost2010Prop56
140
1.0
102
RTVSPost2010PropOp56
 70
     1
102
RTVSPost2010Prop57
140
1.0
102
RTVSPost2010PropOp57
 70
     1
  0
XRECORD
  5
5D4
102
{ACAD_REACTORS
330
5D3
102
}
330
5D3
100
AcDbXrecord
280
     1
102
RTVSPropertyOp0
 70
     1
102
RTVSPropertyOp1
 70
     1
102
RTVSPropertyOp2
 70
     1
102
RTVSPropertyOp3
 70
     1
102
RTVSPropertyOp4
 70
     1
102
RTVSPropertyOp5
 70
     1
102
RTVSPropertyOp6
 70
     1
102
RTVSPropertyOp7
 70
     1
102
RTVSPropertyOp8
 70
     1
102
RTVSPropertyOp9
 70
     1
102
RTVSPropertyOp10
 70
     1
102
RTVSPropertyOp11
 70
     1
102
RTVSPropertyOp12
 70
     1
102
RTVSPropertyOp13
 70
     1
102
RTVSPropertyOp14
 70
     1
102
RTVSPropertyOp15
 70
     1
102
RTVSPropertyOp16
 70
     1
102
RTVSPropertyOp17
 70
     1
102
RTVSPropertyOp18
 70
     1
102
RTVSPropertyOp19
 70
     1
102
RTVSPropertyOp20
 70
     1
102
RTVSPropertyOp21
 70
     1
102
RTVSPropertyOp22
 70
     1
102
RTVSPropertyOp23
 70
     1
102
RTVSPropertyOp24
 70
     1
102
RTVSPropertyOp25
 70
     1
102
RTVSPropertyOp26
 70
     1
102
RTVSPropertyOp27
 70
     1
102
RTVSPropertyOp28
 70
     1
102
RTVSPropertyOp29
 70
     1
102
RTVSPropertyOp30
 70
     1
102
RTVSPropertyOp31
 70
     1
102
RTVSPropertyOp32
 70
     1
102
RTVSPropertyOp33
 70
     1
102
RTVSPropertyOp34
 70
     1
102
RTVSPropertyOp35
 70
     1
102
RTVSPropertyOp36
 70
     1
102
RTVSPropertyOp37
 70
     1
102
RTVSPropertyOp38
 70
     1
102
RTVSPropertyOp39
 70
     1
102
RTVSPropertyOp40
 70
     1
102
RTVSPropertyOp41
 70
     1
102
RTVSPropertyOp42
 70
     1
102
RTVSPropertyOp43
 70
     1
102
RTVSPropertyOp44
 70
     1
102
RTVSPropertyOp45
 70
     1
102
RTVSPropertyOp46
 70
     1
102
RTVSPropertyOp47
 70
     1
102
RTVSPropertyOp48
 70
     1
102
RTVSPropertyOp49
 70
     1
102
RTVSPropertyOp50
 70
     1
102
RTVSPropertyOp51
 70
     0
102
RTVSPropertyOp52
 70
     0
102
RTVSPropertyOp53
 70
     1
102
RTVSPropertyOp54
 70
     1
102
RTVSPropertyOp55
 70
     1
102
RTVSPropertyOp56
 70
     1
102
RTVSPropertyOp57
 70
     1
102
RTVSPost2010Prop28
280
     0
102
RTVSPost2010PropOp28
 70
     1
102
RTVSPost2010Prop29
280
     1
102
RTVSPost2010PropOp29
 70
     1
102
RTVSPost2010Prop30
280
     1
102
RTVSPost2010PropOp30
 70
     1
102
RTVSPost2010Prop31
280
     0
102
RTVSPost2010PropOp31
 70
     1
102
RTVSPost2010Prop32
280
     0
102
RTVSPost2010PropOp32
 70
     1
102
RTVSPost2010Prop33
280
     0
102
RTVSPost2010PropOp33
 70
     1
102
RTVSPost2010Prop34
280
     0
102
RTVSPost2010PropOp34
 70
     1
102
RTVSPost2010Prop35
280
     0
102
RTVSPost2010PropOp35
 70
     1
102
RTVSPost2010Prop36
280
     0
102
RTVSPost2010PropOp36
 70
     1
102
RTVSPost2010Prop37
 90
       50
102
RTVSPost2010PropOp37
 70
     1
102
RTVSPost2010Prop38
140
0.0
102
RTVSPost2010PropOp38
 70
     1
102
RTVSPost2010Prop39
140
1.0
102
RTVSPost2010PropOp39
 70
     1
102
RTVSPost2010Prop40
 90
        0
102
RTVSPost2010PropOp40
 70
     1
102
RTVSPost2010Prop41ColorIndex
 90
       18
102
RTVSPost2010Prop41ColorRGB
 90
        0
102
RTVSPost2010PropOp41
 70
     1
102
RTVSPost2010Prop42
 90
       50
102
RTVSPost2010PropOp42
 70
     1
102
RTVSPost2010Prop43
 90
        3
102
RTVSPost2010PropOp43
 70
     1
102
RTVSPost2010Prop44ColorIndex
 90
        5
102
RTVSPost2010Prop44ColorRGB
 90
      255
102
RTVSPost2010PropOp44
 70
     1
102
RTVSPost2010Prop45
280
     0
102
RTVSPost2010PropOp45
 70
     1
102
RTVSPost2010Prop46
 90
       50
102
RTVSPost2010PropOp46
 70
     1
102
RTVSPost2010Prop47
 90
       50
102
RTVSPost2010PropOp47
 70
     1
102
RTVSPost2010Prop48
 90
       50
102
RTVSPost2010PropOp48
 70
     1
102
RTVSPost2010Prop49
280
     0
102
RTVSPost2010PropOp49
 70
     1
102
RTVSPost2010Prop50
 90
       50
102
RTVSPost2010PropOp50
 70
     1
102
RTVSPost2010Prop51ColorIndex
 90
      256
102
RTVSPost2010Prop51ColorRGB
 90
-16777216
102
RTVSPost2010PropOp51
 70
     0
102
RTVSPost2010Prop52
140
1.0
102
RTVSPost2010PropOp52
 70
     0
102
RTVSPost2010Prop53
 90
        2
102
RTVSPost2010PropOp53
 70
     1
102
RTVSPost2010Prop54
  1
strokes_ogs.tif
102
RTVSPost2010PropOp54
 70
     1
102
RTVSPost2010Prop55
280
     0
102
RTVSPost2010PropOp55
 70
     1
102
RTVSPost2010Prop56
140
1.0
102
RTVSPost2010PropOp56
 70
     1
102
RTVSPost2010Prop57
140
1.0
102
RTVSPost2010PropOp57
 70
     1
  0
XRECORD
  5
5DC
102
{ACAD_REACTORS
330
5DB
102
}
330
5DB
100
AcDbXrecord
280
     1
102
RTVSPropertyOp0
 70
     0
102
RTVSPropertyOp1
 70
     0
102
RTVSPropertyOp2
 70
     0
102
RTVSPropertyOp3
 70
     0
102
RTVSPropertyOp4
 70
     0
102
RTVSPropertyOp5
 70
     0
102
RTVSPropertyOp6
 70
     0
102
RTVSPropertyOp7
 70
     0
102
RTVSPropertyOp8
 70
     0
102
RTVSPropertyOp9
 70
     0
102
RTVSPropertyOp10
 70
     0
102
RTVSPropertyOp11
 70
     0
102
RTVSPropertyOp12
 70
     0
102
RTVSPropertyOp13
 70
     0
102
RTVSPropertyOp14
 70
     0
102
RTVSPropertyOp15
 70
     0
102
RTVSPropertyOp16
 70
     0
102
RTVSPropertyOp17
 70
     0
102
RTVSPropertyOp18
 70
     0
102
RTVSPropertyOp19
 70
     0
102
RTVSPropertyOp20
 70
     0
102
RTVSPropertyOp21
 70
     0
102
RTVSPropertyOp22
 70
     0
102
RTVSPropertyOp23
 70
     0
102
RTVSPropertyOp24
 70
     0
102
RTVSPropertyOp25
 70
     0
102
RTVSPropertyOp26
 70
     0
102
RTVSPropertyOp27
 70
     0
102
RTVSPropertyOp28
 70
     1
102
RTVSPropertyOp29
 70
     1
102
RTVSPropertyOp30
 70
     1
102
RTVSPropertyOp31
 70
     1
102
RTVSPropertyOp32
 70
     1
102
RTVSPropertyOp33
 70
     1
102
RTVSPropertyOp34
 70
     1
102
RTVSPropertyOp35
 70
     1
102
RTVSPropertyOp36
 70
     1
102
RTVSPropertyOp37
 70
     1
102
RTVSPropertyOp38
 70
     1
102
RTVSPropertyOp39
 70
     1
102
RTVSPropertyOp40
 70
     1
102
RTVSPropertyOp41
 70
     1
102
RTVSPropertyOp42
 70
     1
102
RTVSPropertyOp43
 70
     1
102
RTVSPropertyOp44
 70
     1
102
RTVSPropertyOp45
 70
     1
102
RTVSPropertyOp46
 70
     1
102
RTVSPropertyOp47
 70
     1
102
RTVSPropertyOp48
 70
     1
102
RTVSPropertyOp49
 70
     1
102
RTVSPropertyOp50
 70
     1
102
RTVSPropertyOp51
 70
     0
102
RTVSPropertyOp52
 70
     0
102
RTVSPropertyOp53
 70
     1
102
RTVSPropertyOp54
 70
     1
102
RTVSPropertyOp55
 70
     1
102
RTVSPropertyOp56
 70
     1
102
RTVSPropertyOp57
 70
     1
102
RTVSPost2010Prop28
280
     0
102
RTVSPost2010PropOp28
 70
     1
102
RTVSPost2010Prop29
280
     1
102
RTVSPost2010PropOp29
 70
     1
102
RTVSPost2010Prop30
280
     1
102
RTVSPost2010PropOp30
 70
     1
102
RTVSPost2010Prop31
280
     0
102
RTVSPost2010PropOp31
 70
     1
102
RTVSPost2010Prop32
280
     0
102
RTVSPost2010PropOp32
 70
     1
102
RTVSPost2010Prop33
280
     0
102
RTVSPost2010PropOp33
 70
     1
102
RTVSPost2010Prop34
280
     0
102
RTVSPost2010PropOp34
 70
     1
102
RTVSPost2010Prop35
280
     0
102
RTVSPost2010PropOp35
 70
     1
102
RTVSPost2010Prop36
280
     0
102
RTVSPost2010PropOp36
 70
     1
102
RTVSPost2010Prop37
 90
       50
102
RTVSPost2010PropOp37
 70
     1
102
RTVSPost2010Prop38
140
0.0
102
RTVSPost2010PropOp38
 70
     1
102
RTVSPost2010Prop39
140
1.0
102
RTVSPost2010PropOp39
 70
     1
102
RTVSPost2010Prop40
 90
        0
102
RTVSPost2010PropOp40
 70
     1
102
RTVSPost2010Prop41ColorIndex
 90
       18
102
RTVSPost2010Prop41ColorRGB
 90
        0
102
RTVSPost2010PropOp41
 70
     1
102
RTVSPost2010Prop42
 90
       50
102
RTVSPost2010PropOp42
 70
     1
102
RTVSPost2010Prop43
 90
        3
102
RTVSPost2010PropOp43
 70
     1
102
RTVSPost2010Prop44ColorIndex
 90
        5
102
RTVSPost2010Prop44ColorRGB
 90
      255
102
RTVSPost2010PropOp44
 70
     1
102
RTVSPost2010Prop45
280
     0
102
RTVSPost2010PropOp45
 70
     1
102
RTVSPost2010Prop46
 90
       50
102
RTVSPost2010PropOp46
 70
     1
102
RTVSPost2010Prop47
 90
       50
102
RTVSPost2010PropOp47
 70
     1
102
RTVSPost2010Prop48
 90
       50
102
RTVSPost2010PropOp48
 70
     1
102
RTVSPost2010Prop49
280
     0
102
RTVSPost2010PropOp49
 70
     1
102
RTVSPost2010Prop50
 90
       50
102
RTVSPost2010PropOp50
 70
     1
102
RTVSPost2010Prop51ColorIndex
 90
      256
102
RTVSPost2010Prop51ColorRGB
 90
-16777216
102
RTVSPost2010PropOp51
 70
     0
102
RTVSPost2010Prop52
140
1.0
102
RTVSPost2010PropOp52
 70
     0
102
RTVSPost2010Prop53
 90
        2
102
RTVSPost2010PropOp53
 70
     1
102
RTVSPost2010Prop54
  1
strokes_ogs.tif
102
RTVSPost2010PropOp54
 70
     1
102
RTVSPost2010Prop55
280
     0
102
RTVSPost2010PropOp55
 70
     1
102
RTVSPost2010Prop56
140
1.0
102
RTVSPost2010PropOp56
 70
     1
102
RTVSPost2010Prop57
140
1.0
102
RTVSPost2010PropOp57
 70
     1
  0
XRECORD
  5
5BA
102
{ACAD_REACTORS
330
5B9
102
}
330
5B9
100
AcDbXrecord
280
     1
102
RTVSPropertyOp0
 70
     1
102
RTVSPropertyOp1
 70
     1
102
RTVSPropertyOp2
 70
     1
102
RTVSPropertyOp3
 70
     1
102
RTVSPropertyOp4
 70
     1
102
RTVSPropertyOp5
 70
     1
102
RTVSPropertyOp6
 70
     1
102
RTVSPropertyOp7
 70
     1
102
RTVSPropertyOp8
 70
     1
102
RTVSPropertyOp9
 70
     1
102
RTVSPropertyOp10
 70
     1
102
RTVSPropertyOp11
 70
     1
102
RTVSPropertyOp12
 70
     1
102
RTVSPropertyOp13
 70
     1
102
RTVSPropertyOp14
 70
     1
102
RTVSPropertyOp15
 70
     1
102
RTVSPropertyOp16
 70
     1
102
RTVSPropertyOp17
 70
     1
102
RTVSPropertyOp18
 70
     1
102
RTVSPropertyOp19
 70
     1
102
RTVSPropertyOp20
 70
     1
102
RTVSPropertyOp21
 70
     1
102
RTVSPropertyOp22
 70
     1
102
RTVSPropertyOp23
 70
     1
102
RTVSPropertyOp24
 70
     1
102
RTVSPropertyOp25
 70
     1
102
RTVSPropertyOp26
 70
     1
102
RTVSPropertyOp27
 70
     1
102
RTVSPropertyOp28
 70
     1
102
RTVSPropertyOp29
 70
     1
102
RTVSPropertyOp30
 70
     1
102
RTVSPropertyOp31
 70
     1
102
RTVSPropertyOp32
 70
     1
102
RTVSPropertyOp33
 70
     1
102
RTVSPropertyOp34
 70
     1
102
RTVSPropertyOp35
 70
     1
102
RTVSPropertyOp36
 70
     1
102
RTVSPropertyOp37
 70
     1
102
RTVSPropertyOp38
 70
     1
102
RTVSPropertyOp39
 70
     1
102
RTVSPropertyOp40
 70
     1
102
RTVSPropertyOp41
 70
     1
102
RTVSPropertyOp42
 70
     1
102
RTVSPropertyOp43
 70
     1
102
RTVSPropertyOp44
 70
     1
102
RTVSPropertyOp45
 70
     1
102
RTVSPropertyOp46
 70
     1
102
RTVSPropertyOp47
 70
     1
102
RTVSPropertyOp48
 70
     1
102
RTVSPropertyOp49
 70
     1
102
RTVSPropertyOp50
 70
     1
102
RTVSPropertyOp51
 70
     0
102
RTVSPropertyOp52
 70
     0
102
RTVSPropertyOp53
 70
     1
102
RTVSPropertyOp54
 70
     1
102
RTVSPropertyOp55
 70
     1
102
RTVSPropertyOp56
 70
     1
102
RTVSPropertyOp57
 70
     1
102
RTVSPost2010Prop28
280
     0
102
RTVSPost2010PropOp28
 70
     1
102
RTVSPost2010Prop29
280
     1
102
RTVSPost2010PropOp29
 70
     1
102
RTVSPost2010Prop30
280
     1
102
RTVSPost2010PropOp30
 70
     1
102
RTVSPost2010Prop31
280
     0
102
RTVSPost2010PropOp31
 70
     1
102
RTVSPost2010Prop32
280
     0
102
RTVSPost2010PropOp32
 70
     1
102
RTVSPost2010Prop33
280
     0
102
RTVSPost2010PropOp33
 70
     1
102
RTVSPost2010Prop34
280
     0
102
RTVSPost2010PropOp34
 70
     1
102
RTVSPost2010Prop35
280
     0
102
RTVSPost2010PropOp35
 70
     1
102
RTVSPost2010Prop36
280
     0
102
RTVSPost2010PropOp36
 70
     1
102
RTVSPost2010Prop37
 90
       50
102
RTVSPost2010PropOp37
 70
     1
102
RTVSPost2010Prop38
140
0.0
102
RTVSPost2010PropOp38
 70
     1
102
RTVSPost2010Prop39
140
1.0
102
RTVSPost2010PropOp39
 70
     1
102
RTVSPost2010Prop40
 90
        0
102
RTVSPost2010PropOp40
 70
     1
102
RTVSPost2010Prop41ColorIndex
 90
       18
102
RTVSPost2010Prop41ColorRGB
 90
        0
102
RTVSPost2010PropOp41
 70
     1
102
RTVSPost2010Prop42
 90
       50
102
RTVSPost2010PropOp42
 70
     1
102
RTVSPost2010Prop43
 90
        3
102
RTVSPost2010PropOp43
 70
     1
102
RTVSPost2010Prop44ColorIndex
 90
        5
102
RTVSPost2010Prop44ColorRGB
 90
      255
102
RTVSPost2010PropOp44
 70
     1
102
RTVSPost2010Prop45
280
     0
102
RTVSPost2010PropOp45
 70
     1
102
RTVSPost2010Prop46
 90
       50
102
RTVSPost2010PropOp46
 70
     1
102
RTVSPost2010Prop47
 90
       50
102
RTVSPost2010PropOp47
 70
     1
102
RTVSPost2010Prop48
 90
       50
102
RTVSPost2010PropOp48
 70
     1
102
RTVSPost2010Prop49
280
     0
102
RTVSPost2010PropOp49
 70
     1
102
RTVSPost2010Prop50
 90
       50
102
RTVSPost2010PropOp50
 70
     1
102
RTVSPost2010Prop51ColorIndex
 90
      256
102
RTVSPost2010Prop51ColorRGB
 90
-16777216
102
RTVSPost2010PropOp51
 70
     0
102
RTVSPost2010Prop52
140
1.0
102
RTVSPost2010PropOp52
 70
     0
102
RTVSPost2010Prop53
 90
        2
102
RTVSPost2010PropOp53
 70
     1
102
RTVSPost2010Prop54
  1
strokes_ogs.tif
102
RTVSPost2010PropOp54
 70
     1
102
RTVSPost2010Prop55
280
     0
102
RTVSPost2010PropOp55
 70
     1
102
RTVSPost2010Prop56
140
1.0
102
RTVSPost2010PropOp56
 70
     1
102
RTVSPost2010Prop57
140
1.0
102
RTVSPost2010PropOp57
 70
     1
  0
XRECORD
  5
5E8
102
{ACAD_REACTORS
330
5E7
102
}
330
5E7
100
AcDbXrecord
280
     1
102
RTVSPropertyOp0
 70
     1
102
RTVSPropertyOp1
 70
     1
102
RTVSPropertyOp2
 70
     1
102
RTVSPropertyOp3
 70
     1
102
RTVSPropertyOp4
 70
     1
102
RTVSPropertyOp5
 70
     1
102
RTVSPropertyOp6
 70
     1
102
RTVSPropertyOp7
 70
     1
102
RTVSPropertyOp8
 70
     1
102
RTVSPropertyOp9
 70
     1
102
RTVSPropertyOp10
 70
     1
102
RTVSPropertyOp11
 70
     1
102
RTVSPropertyOp12
 70
     1
102
RTVSPropertyOp13
 70
     1
102
RTVSPropertyOp14
 70
     1
102
RTVSPropertyOp15
 70
     1
102
RTVSPropertyOp16
 70
     1
102
RTVSPropertyOp17
 70
     1
102
RTVSPropertyOp18
 70
     1
102
RTVSPropertyOp19
 70
     1
102
RTVSPropertyOp20
 70
     1
102
RTVSPropertyOp21
 70
     1
102
RTVSPropertyOp22
 70
     1
102
RTVSPropertyOp23
 70
     1
102
RTVSPropertyOp24
 70
     1
102
RTVSPropertyOp25
 70
     1
102
RTVSPropertyOp26
 70
     1
102
RTVSPropertyOp27
 70
     1
102
RTVSPropertyOp28
 70
     1
102
RTVSPropertyOp29
 70
     1
102
RTVSPropertyOp30
 70
     1
102
RTVSPropertyOp31
 70
     1
102
RTVSPropertyOp32
 70
     1
102
RTVSPropertyOp33
 70
     1
102
RTVSPropertyOp34
 70
     1
102
RTVSPropertyOp35
 70
     1
102
RTVSPropertyOp36
 70
     1
102
RTVSPropertyOp37
 70
     1
102
RTVSPropertyOp38
 70
     1
102
RTVSPropertyOp39
 70
     1
102
RTVSPropertyOp40
 70
     1
102
RTVSPropertyOp41
 70
     1
102
RTVSPropertyOp42
 70
     1
102
RTVSPropertyOp43
 70
     1
102
RTVSPropertyOp44
 70
     1
102
RTVSPropertyOp45
 70
     1
102
RTVSPropertyOp46
 70
     1
102
RTVSPropertyOp47
 70
     1
102
RTVSPropertyOp48
 70
     1
102
RTVSPropertyOp49
 70
     1
102
RTVSPropertyOp50
 70
     1
102
RTVSPropertyOp51
 70
     0
102
RTVSPropertyOp52
 70
     0
102
RTVSPropertyOp53
 70
     1
102
RTVSPropertyOp54
 70
     1
102
RTVSPropertyOp55
 70
     1
102
RTVSPropertyOp56
 70
     1
102
RTVSPropertyOp57
 70
     1
102
RTVSPost2010Prop28
280
     0
102
RTVSPost2010PropOp28
 70
     1
102
RTVSPost2010Prop29
280
     1
102
RTVSPost2010PropOp29
 70
     1
102
RTVSPost2010Prop30
280
     1
102
RTVSPost2010PropOp30
 70
     1
102
RTVSPost2010Prop31
280
     0
102
RTVSPost2010PropOp31
 70
     1
102
RTVSPost2010Prop32
280
     0
102
RTVSPost2010PropOp32
 70
     1
102
RTVSPost2010Prop33
280
     0
102
RTVSPost2010PropOp33
 70
     1
102
RTVSPost2010Prop34
280
     0
102
RTVSPost2010PropOp34
 70
     1
102
RTVSPost2010Prop35
280
     0
102
RTVSPost2010PropOp35
 70
     1
102
RTVSPost2010Prop36
280
     0
102
RTVSPost2010PropOp36
 70
     1
102
RTVSPost2010Prop37
 90
       50
102
RTVSPost2010PropOp37
 70
     1
102
RTVSPost2010Prop38
140
0.0
102
RTVSPost2010PropOp38
 70
     1
102
RTVSPost2010Prop39
140
1.0
102
RTVSPost2010PropOp39
 70
     1
102
RTVSPost2010Prop40
 90
        0
102
RTVSPost2010PropOp40
 70
     1
102
RTVSPost2010Prop41ColorIndex
 90
       18
102
RTVSPost2010Prop41ColorRGB
 90
        0
102
RTVSPost2010PropOp41
 70
     1
102
RTVSPost2010Prop42
 90
       50
102
RTVSPost2010PropOp42
 70
     1
102
RTVSPost2010Prop43
 90
        3
102
RTVSPost2010PropOp43
 70
     1
102
RTVSPost2010Prop44ColorIndex
 90
        5
102
RTVSPost2010Prop44ColorRGB
 90
      255
102
RTVSPost2010PropOp44
 70
     1
102
RTVSPost2010Prop45
280
     0
102
RTVSPost2010PropOp45
 70
     1
102
RTVSPost2010Prop46
 90
       50
102
RTVSPost2010PropOp46
 70
     1
102
RTVSPost2010Prop47
 90
       50
102
RTVSPost2010PropOp47
 70
     1
102
RTVSPost2010Prop48
 90
       50
102
RTVSPost2010PropOp48
 70
     1
102
RTVSPost2010Prop49
280
     0
102
RTVSPost2010PropOp49
 70
     1
102
RTVSPost2010Prop50
 90
       50
102
RTVSPost2010PropOp50
 70
     1
102
RTVSPost2010Prop51ColorIndex
 90
      256
102
RTVSPost2010Prop51ColorRGB
 90
-16777216
102
RTVSPost2010PropOp51
 70
     0
102
RTVSPost2010Prop52
140
1.0
102
RTVSPost2010PropOp52
 70
     0
102
RTVSPost2010Prop53
 90
        2
102
RTVSPost2010PropOp53
 70
     1
102
RTVSPost2010Prop54
  1
strokes_ogs.tif
102
RTVSPost2010PropOp54
 70
     1
102
RTVSPost2010Prop55
280
     0
102
RTVSPost2010PropOp55
 70
     1
102
RTVSPost2010Prop56
140
1.0
102
RTVSPost2010PropOp56
 70
     1
102
RTVSPost2010Prop57
140
1.0
102
RTVSPost2010PropOp57
 70
     1
  0
XRECORD
  5
5E6
102
{ACAD_REACTORS
330
5E5
102
}
330
5E5
100
AcDbXrecord
280
     1
102
RTVSPropertyOp0
 70
     1
102
RTVSPropertyOp1
 70
     1
102
RTVSPropertyOp2
 70
     1
102
RTVSPropertyOp3
 70
     1
102
RTVSPropertyOp4
 70
     1
102
RTVSPropertyOp5
 70
     1
102
RTVSPropertyOp6
 70
     1
102
RTVSPropertyOp7
 70
     1
102
RTVSPropertyOp8
 70
     1
102
RTVSPropertyOp9
 70
     1
102
RTVSPropertyOp10
 70
     1
102
RTVSPropertyOp11
 70
     1
102
RTVSPropertyOp12
 70
     1
102
RTVSPropertyOp13
 70
     1
102
RTVSPropertyOp14
 70
     1
102
RTVSPropertyOp15
 70
     1
102
RTVSPropertyOp16
 70
     1
102
RTVSPropertyOp17
 70
     1
102
RTVSPropertyOp18
 70
     1
102
RTVSPropertyOp19
 70
     1
102
RTVSPropertyOp20
 70
     1
102
RTVSPropertyOp21
 70
     1
102
RTVSPropertyOp22
 70
     1
102
RTVSPropertyOp23
 70
     1
102
RTVSPropertyOp24
 70
     1
102
RTVSPropertyOp25
 70
     1
102
RTVSPropertyOp26
 70
     1
102
RTVSPropertyOp27
 70
     1
102
RTVSPropertyOp28
 70
     1
102
RTVSPropertyOp29
 70
     1
102
RTVSPropertyOp30
 70
     1
102
RTVSPropertyOp31
 70
     1
102
RTVSPropertyOp32
 70
     1
102
RTVSPropertyOp33
 70
     1
102
RTVSPropertyOp34
 70
     1
102
RTVSPropertyOp35
 70
     1
102
RTVSPropertyOp36
 70
     1
102
RTVSPropertyOp37
 70
     1
102
RTVSPropertyOp38
 70
     1
102
RTVSPropertyOp39
 70
     1
102
RTVSPropertyOp40
 70
     1
102
RTVSPropertyOp41
 70
     1
102
RTVSPropertyOp42
 70
     1
102
RTVSPropertyOp43
 70
     1
102
RTVSPropertyOp44
 70
     1
102
RTVSPropertyOp45
 70
     1
102
RTVSPropertyOp46
 70
     1
102
RTVSPropertyOp47
 70
     1
102
RTVSPropertyOp48
 70
     1
102
RTVSPropertyOp49
 70
     1
102
RTVSPropertyOp50
 70
     1
102
RTVSPropertyOp51
 70
     0
102
RTVSPropertyOp52
 70
     0
102
RTVSPropertyOp53
 70
     1
102
RTVSPropertyOp54
 70
     1
102
RTVSPropertyOp55
 70
     1
102
RTVSPropertyOp56
 70
     1
102
RTVSPropertyOp57
 70
     1
102
RTVSPost2010Prop28
280
     0
102
RTVSPost2010PropOp28
 70
     1
102
RTVSPost2010Prop29
280
     1
102
RTVSPost2010PropOp29
 70
     1
102
RTVSPost2010Prop30
280
     1
102
RTVSPost2010PropOp30
 70
     1
102
RTVSPost2010Prop31
280
     0
102
RTVSPost2010PropOp31
 70
     1
102
RTVSPost2010Prop32
280
     0
102
RTVSPost2010PropOp32
 70
     1
102
RTVSPost2010Prop33
280
     0
102
RTVSPost2010PropOp33
 70
     1
102
RTVSPost2010Prop34
280
     0
102
RTVSPost2010PropOp34
 70
     1
102
RTVSPost2010Prop35
280
     0
102
RTVSPost2010PropOp35
 70
     1
102
RTVSPost2010Prop36
280
     0
102
RTVSPost2010PropOp36
 70
     1
102
RTVSPost2010Prop37
 90
       50
102
RTVSPost2010PropOp37
 70
     1
102
RTVSPost2010Prop38
140
0.0
102
RTVSPost2010PropOp38
 70
     1
102
RTVSPost2010Prop39
140
1.0
102
RTVSPost2010PropOp39
 70
     1
102
RTVSPost2010Prop40
 90
        0
102
RTVSPost2010PropOp40
 70
     1
102
RTVSPost2010Prop41ColorIndex
 90
       18
102
RTVSPost2010Prop41ColorRGB
 90
        0
102
RTVSPost2010PropOp41
 70
     1
102
RTVSPost2010Prop42
 90
       50
102
RTVSPost2010PropOp42
 70
     1
102
RTVSPost2010Prop43
 90
        3
102
RTVSPost2010PropOp43
 70
     1
102
RTVSPost2010Prop44ColorIndex
 90
        5
102
RTVSPost2010Prop44ColorRGB
 90
      255
102
RTVSPost2010PropOp44
 70
     1
102
RTVSPost2010Prop45
280
     0
102
RTVSPost2010PropOp45
 70
     1
102
RTVSPost2010Prop46
 90
       50
102
RTVSPost2010PropOp46
 70
     1
102
RTVSPost2010Prop47
 90
       50
102
RTVSPost2010PropOp47
 70
     1
102
RTVSPost2010Prop48
 90
       50
102
RTVSPost2010PropOp48
 70
     1
102
RTVSPost2010Prop49
280
     0
102
RTVSPost2010PropOp49
 70
     1
102
RTVSPost2010Prop50
 90
       50
102
RTVSPost2010PropOp50
 70
     1
102
RTVSPost2010Prop51ColorIndex
 90
      256
102
RTVSPost2010Prop51ColorRGB
 90
-16777216
102
RTVSPost2010PropOp51
 70
     0
102
RTVSPost2010Prop52
140
1.0
102
RTVSPost2010PropOp52
 70
     0
102
RTVSPost2010Prop53
 90
        2
102
RTVSPost2010PropOp53
 70
     1
102
RTVSPost2010Prop54
  1
strokes_ogs.tif
102
RTVSPost2010PropOp54
 70
     1
102
RTVSPost2010Prop55
280
     0
102
RTVSPost2010PropOp55
 70
     1
102
RTVSPost2010Prop56
140
1.0
102
RTVSPost2010PropOp56
 70
     1
102
RTVSPost2010Prop57
140
1.0
102
RTVSPost2010PropOp57
 70
     1
  0
XRECORD
  5
5E0
102
{ACAD_REACTORS
330
5DF
102
}
330
5DF
100
AcDbXrecord
280
     1
102
RTVSPropertyOp0
 70
     1
102
RTVSPropertyOp1
 70
     1
102
RTVSPropertyOp2
 70
     1
102
RTVSPropertyOp3
 70
     1
102
RTVSPropertyOp4
 70
     1
102
RTVSPropertyOp5
 70
     1
102
RTVSPropertyOp6
 70
     1
102
RTVSPropertyOp7
 70
     1
102
RTVSPropertyOp8
 70
     1
102
RTVSPropertyOp9
 70
     1
102
RTVSPropertyOp10
 70
     1
102
RTVSPropertyOp11
 70
     1
102
RTVSPropertyOp12
 70
     1
102
RTVSPropertyOp13
 70
     1
102
RTVSPropertyOp14
 70
     1
102
RTVSPropertyOp15
 70
     1
102
RTVSPropertyOp16
 70
     1
102
RTVSPropertyOp17
 70
     1
102
RTVSPropertyOp18
 70
     1
102
RTVSPropertyOp19
 70
     1
102
RTVSPropertyOp20
 70
     1
102
RTVSPropertyOp21
 70
     1
102
RTVSPropertyOp22
 70
     1
102
RTVSPropertyOp23
 70
     1
102
RTVSPropertyOp24
 70
     1
102
RTVSPropertyOp25
 70
     1
102
RTVSPropertyOp26
 70
     1
102
RTVSPropertyOp27
 70
     1
102
RTVSPropertyOp28
 70
     1
102
RTVSPropertyOp29
 70
     1
102
RTVSPropertyOp30
 70
     1
102
RTVSPropertyOp31
 70
     1
102
RTVSPropertyOp32
 70
     1
102
RTVSPropertyOp33
 70
     1
102
RTVSPropertyOp34
 70
     1
102
RTVSPropertyOp35
 70
     1
102
RTVSPropertyOp36
 70
     1
102
RTVSPropertyOp37
 70
     1
102
RTVSPropertyOp38
 70
     1
102
RTVSPropertyOp39
 70
     1
102
RTVSPropertyOp40
 70
     1
102
RTVSPropertyOp41
 70
     1
102
RTVSPropertyOp42
 70
     1
102
RTVSPropertyOp43
 70
     1
102
RTVSPropertyOp44
 70
     1
102
RTVSPropertyOp45
 70
     1
102
RTVSPropertyOp46
 70
     1
102
RTVSPropertyOp47
 70
     1
102
RTVSPropertyOp48
 70
     1
102
RTVSPropertyOp49
 70
     1
102
RTVSPropertyOp50
 70
     1
102
RTVSPropertyOp51
 70
     0
102
RTVSPropertyOp52
 70
     0
102
RTVSPropertyOp53
 70
     1
102
RTVSPropertyOp54
 70
     1
102
RTVSPropertyOp55
 70
     1
102
RTVSPropertyOp56
 70
     1
102
RTVSPropertyOp57
 70
     1
102
RTVSPost2010Prop28
280
     0
102
RTVSPost2010PropOp28
 70
     1
102
RTVSPost2010Prop29
280
     1
102
RTVSPost2010PropOp29
 70
     1
102
RTVSPost2010Prop30
280
     1
102
RTVSPost2010PropOp30
 70
     1
102
RTVSPost2010Prop31
280
     0
102
RTVSPost2010PropOp31
 70
     1
102
RTVSPost2010Prop32
280
     0
102
RTVSPost2010PropOp32
 70
     1
102
RTVSPost2010Prop33
280
     0
102
RTVSPost2010PropOp33
 70
     1
102
RTVSPost2010Prop34
280
     0
102
RTVSPost2010PropOp34
 70
     1
102
RTVSPost2010Prop35
280
     0
102
RTVSPost2010PropOp35
 70
     1
102
RTVSPost2010Prop36
280
     0
102
RTVSPost2010PropOp36
 70
     1
102
RTVSPost2010Prop37
 90
       50
102
RTVSPost2010PropOp37
 70
     1
102
RTVSPost2010Prop38
140
0.0
102
RTVSPost2010PropOp38
 70
     1
102
RTVSPost2010Prop39
140
1.0
102
RTVSPost2010PropOp39
 70
     1
102
RTVSPost2010Prop40
 90
        0
102
RTVSPost2010PropOp40
 70
     1
102
RTVSPost2010Prop41ColorIndex
 90
       18
102
RTVSPost2010Prop41ColorRGB
 90
        0
102
RTVSPost2010PropOp41
 70
     1
102
RTVSPost2010Prop42
 90
       50
102
RTVSPost2010PropOp42
 70
     1
102
RTVSPost2010Prop43
 90
        3
102
RTVSPost2010PropOp43
 70
     1
102
RTVSPost2010Prop44ColorIndex
 90
        5
102
RTVSPost2010Prop44ColorRGB
 90
      255
102
RTVSPost2010PropOp44
 70
     1
102
RTVSPost2010Prop45
280
     0
102
RTVSPost2010PropOp45
 70
     1
102
RTVSPost2010Prop46
 90
       50
102
RTVSPost2010PropOp46
 70
     1
102
RTVSPost2010Prop47
 90
       50
102
RTVSPost2010PropOp47
 70
     1
102
RTVSPost2010Prop48
 90
       50
102
RTVSPost2010PropOp48
 70
     1
102
RTVSPost2010Prop49
280
     0
102
RTVSPost2010PropOp49
 70
     1
102
RTVSPost2010Prop50
 90
       50
102
RTVSPost2010PropOp50
 70
     1
102
RTVSPost2010Prop51ColorIndex
 90
      256
102
RTVSPost2010Prop51ColorRGB
 90
-16777216
102
RTVSPost2010PropOp51
 70
     0
102
RTVSPost2010Prop52
140
1.0
102
RTVSPost2010PropOp52
 70
     0
102
RTVSPost2010Prop53
 90
        2
102
RTVSPost2010PropOp53
 70
     1
102
RTVSPost2010Prop54
  1
strokes_ogs.tif
102
RTVSPost2010PropOp54
 70
     1
102
RTVSPost2010Prop55
280
     0
102
RTVSPost2010PropOp55
 70
     1
102
RTVSPost2010Prop56
140
1.0
102
RTVSPost2010PropOp56
 70
     1
102
RTVSPost2010Prop57
140
1.0
102
RTVSPost2010PropOp57
 70
     1
  0
XRECORD
  5
5E2
102
{ACAD_REACTORS
330
5E1
102
}
330
5E1
100
AcDbXrecord
280
     1
102
RTVSPropertyOp0
 70
     1
102
RTVSPropertyOp1
 70
     1
102
RTVSPropertyOp2
 70
     1
102
RTVSPropertyOp3
 70
     1
102
RTVSPropertyOp4
 70
     1
102
RTVSPropertyOp5
 70
     1
102
RTVSPropertyOp6
 70
     1
102
RTVSPropertyOp7
 70
     1
102
RTVSPropertyOp8
 70
     1
102
RTVSPropertyOp9
 70
     1
102
RTVSPropertyOp10
 70
     1
102
RTVSPropertyOp11
 70
     1
102
RTVSPropertyOp12
 70
     1
102
RTVSPropertyOp13
 70
     1
102
RTVSPropertyOp14
 70
     1
102
RTVSPropertyOp15
 70
     1
102
RTVSPropertyOp16
 70
     1
102
RTVSPropertyOp17
 70
     1
102
RTVSPropertyOp18
 70
     1
102
RTVSPropertyOp19
 70
     1
102
RTVSPropertyOp20
 70
     1
102
RTVSPropertyOp21
 70
     1
102
RTVSPropertyOp22
 70
     1
102
RTVSPropertyOp23
 70
     1
102
RTVSPropertyOp24
 70
     1
102
RTVSPropertyOp25
 70
     1
102
RTVSPropertyOp26
 70
     1
102
RTVSPropertyOp27
 70
     1
102
RTVSPropertyOp28
 70
     1
102
RTVSPropertyOp29
 70
     1
102
RTVSPropertyOp30
 70
     1
102
RTVSPropertyOp31
 70
     1
102
RTVSPropertyOp32
 70
     1
102
RTVSPropertyOp33
 70
     1
102
RTVSPropertyOp34
 70
     1
102
RTVSPropertyOp35
 70
     1
102
RTVSPropertyOp36
 70
     1
102
RTVSPropertyOp37
 70
     1
102
RTVSPropertyOp38
 70
     1
102
RTVSPropertyOp39
 70
     1
102
RTVSPropertyOp40
 70
     1
102
RTVSPropertyOp41
 70
     1
102
RTVSPropertyOp42
 70
     1
102
RTVSPropertyOp43
 70
     1
102
RTVSPropertyOp44
 70
     1
102
RTVSPropertyOp45
 70
     1
102
RTVSPropertyOp46
 70
     1
102
RTVSPropertyOp47
 70
     1
102
RTVSPropertyOp48
 70
     1
102
RTVSPropertyOp49
 70
     1
102
RTVSPropertyOp50
 70
     1
102
RTVSPropertyOp51
 70
     0
102
RTVSPropertyOp52
 70
     0
102
RTVSPropertyOp53
 70
     1
102
RTVSPropertyOp54
 70
     1
102
RTVSPropertyOp55
 70
     1
102
RTVSPropertyOp56
 70
     1
102
RTVSPropertyOp57
 70
     1
102
RTVSPost2010Prop28
280
     0
102
RTVSPost2010PropOp28
 70
     1
102
RTVSPost2010Prop29
280
     1
102
RTVSPost2010PropOp29
 70
     1
102
RTVSPost2010Prop30
280
     1
102
RTVSPost2010PropOp30
 70
     1
102
RTVSPost2010Prop31
280
     0
102
RTVSPost2010PropOp31
 70
     1
102
RTVSPost2010Prop32
280
     0
102
RTVSPost2010PropOp32
 70
     1
102
RTVSPost2010Prop33
280
     0
102
RTVSPost2010PropOp33
 70
     1
102
RTVSPost2010Prop34
280
     0
102
RTVSPost2010PropOp34
 70
     1
102
RTVSPost2010Prop35
280
     0
102
RTVSPost2010PropOp35
 70
     1
102
RTVSPost2010Prop36
280
     0
102
RTVSPost2010PropOp36
 70
     1
102
RTVSPost2010Prop37
 90
       50
102
RTVSPost2010PropOp37
 70
     1
102
RTVSPost2010Prop38
140
0.0
102
RTVSPost2010PropOp38
 70
     1
102
RTVSPost2010Prop39
140
1.0
102
RTVSPost2010PropOp39
 70
     1
102
RTVSPost2010Prop40
 90
        0
102
RTVSPost2010PropOp40
 70
     1
102
RTVSPost2010Prop41ColorIndex
 90
       18
102
RTVSPost2010Prop41ColorRGB
 90
        0
102
RTVSPost2010PropOp41
 70
     1
102
RTVSPost2010Prop42
 90
       50
102
RTVSPost2010PropOp42
 70
     1
102
RTVSPost2010Prop43
 90
        3
102
RTVSPost2010PropOp43
 70
     1
102
RTVSPost2010Prop44ColorIndex
 90
        5
102
RTVSPost2010Prop44ColorRGB
 90
      255
102
RTVSPost2010PropOp44
 70
     1
102
RTVSPost2010Prop45
280
     0
102
RTVSPost2010PropOp45
 70
     1
102
RTVSPost2010Prop46
 90
       50
102
RTVSPost2010PropOp46
 70
     1
102
RTVSPost2010Prop47
 90
       50
102
RTVSPost2010PropOp47
 70
     1
102
RTVSPost2010Prop48
 90
       50
102
RTVSPost2010PropOp48
 70
     1
102
RTVSPost2010Prop49
280
     0
102
RTVSPost2010PropOp49
 70
     1
102
RTVSPost2010Prop50
 90
       50
102
RTVSPost2010PropOp50
 70
     1
102
RTVSPost2010Prop51ColorIndex
 90
      256
102
RTVSPost2010Prop51ColorRGB
 90
-16777216
102
RTVSPost2010PropOp51
 70
     0
102
RTVSPost2010Prop52
140
1.0
102
RTVSPost2010PropOp52
 70
     0
102
RTVSPost2010Prop53
 90
        2
102
RTVSPost2010PropOp53
 70
     1
102
RTVSPost2010Prop54
  1
strokes_ogs.tif
102
RTVSPost2010PropOp54
 70
     1
102
RTVSPost2010Prop55
280
     0
102
RTVSPost2010PropOp55
 70
     1
102
RTVSPost2010Prop56
140
1.0
102
RTVSPost2010PropOp56
 70
     1
102
RTVSPost2010Prop57
140
1.0
102
RTVSPost2010PropOp57
 70
     1
  0
XRECORD
  5
5D2
102
{ACAD_REACTORS
330
5D1
102
}
330
5D1
100
AcDbXrecord
280
     1
102
RTVSPropertyOp0
 70
     1
102
RTVSPropertyOp1
 70
     1
102
RTVSPropertyOp2
 70
     1
102
RTVSPropertyOp3
 70
     1
102
RTVSPropertyOp4
 70
     1
102
RTVSPropertyOp5
 70
     1
102
RTVSPropertyOp6
 70
     1
102
RTVSPropertyOp7
 70
     1
102
RTVSPropertyOp8
 70
     1
102
RTVSPropertyOp9
 70
     1
102
RTVSPropertyOp10
 70
     1
102
RTVSPropertyOp11
 70
     1
102
RTVSPropertyOp12
 70
     1
102
RTVSPropertyOp13
 70
     1
102
RTVSPropertyOp14
 70
     1
102
RTVSPropertyOp15
 70
     1
102
RTVSPropertyOp16
 70
     1
102
RTVSPropertyOp17
 70
     1
102
RTVSPropertyOp18
 70
     1
102
RTVSPropertyOp19
 70
     1
102
RTVSPropertyOp20
 70
     1
102
RTVSPropertyOp21
 70
     1
102
RTVSPropertyOp22
 70
     1
102
RTVSPropertyOp23
 70
     1
102
RTVSPropertyOp24
 70
     1
102
RTVSPropertyOp25
 70
     1
102
RTVSPropertyOp26
 70
     1
102
RTVSPropertyOp27
 70
     1
102
RTVSPropertyOp28
 70
     1
102
RTVSPropertyOp29
 70
     1
102
RTVSPropertyOp30
 70
     1
102
RTVSPropertyOp31
 70
     1
102
RTVSPropertyOp32
 70
     1
102
RTVSPropertyOp33
 70
     1
102
RTVSPropertyOp34
 70
     1
102
RTVSPropertyOp35
 70
     1
102
RTVSPropertyOp36
 70
     1
102
RTVSPropertyOp37
 70
     1
102
RTVSPropertyOp38
 70
     1
102
RTVSPropertyOp39
 70
     1
102
RTVSPropertyOp40
 70
     1
102
RTVSPropertyOp41
 70
     1
102
RTVSPropertyOp42
 70
     1
102
RTVSPropertyOp43
 70
     1
102
RTVSPropertyOp44
 70
     1
102
RTVSPropertyOp45
 70
     1
102
RTVSPropertyOp46
 70
     1
102
RTVSPropertyOp47
 70
     1
102
RTVSPropertyOp48
 70
     1
102
RTVSPropertyOp49
 70
     1
102
RTVSPropertyOp50
 70
     1
102
RTVSPropertyOp51
 70
     0
102
RTVSPropertyOp52
 70
     0
102
RTVSPropertyOp53
 70
     1
102
RTVSPropertyOp54
 70
     1
102
RTVSPropertyOp55
 70
     1
102
RTVSPropertyOp56
 70
     1
102
RTVSPropertyOp57
 70
     1
102
RTVSPost2010Prop28
280
     0
102
RTVSPost2010PropOp28
 70
     1
102
RTVSPost2010Prop29
280
     1
102
RTVSPost2010PropOp29
 70
     1
102
RTVSPost2010Prop30
280
     1
102
RTVSPost2010PropOp30
 70
     1
102
RTVSPost2010Prop31
280
     0
102
RTVSPost2010PropOp31
 70
     1
102
RTVSPost2010Prop32
280
     0
102
RTVSPost2010PropOp32
 70
     1
102
RTVSPost2010Prop33
280
     0
102
RTVSPost2010PropOp33
 70
     1
102
RTVSPost2010Prop34
280
     0
102
RTVSPost2010PropOp34
 70
     1
102
RTVSPost2010Prop35
280
     0
102
RTVSPost2010PropOp35
 70
     1
102
RTVSPost2010Prop36
280
     0
102
RTVSPost2010PropOp36
 70
     1
102
RTVSPost2010Prop37
 90
       50
102
RTVSPost2010PropOp37
 70
     1
102
RTVSPost2010Prop38
140
0.0
102
RTVSPost2010PropOp38
 70
     1
102
RTVSPost2010Prop39
140
1.0
102
RTVSPost2010PropOp39
 70
     1
102
RTVSPost2010Prop40
 90
        0
102
RTVSPost2010PropOp40
 70
     1
102
RTVSPost2010Prop41ColorIndex
 90
       18
102
RTVSPost2010Prop41ColorRGB
 90
        0
102
RTVSPost2010PropOp41
 70
     1
102
RTVSPost2010Prop42
 90
       50
102
RTVSPost2010PropOp42
 70
     1
102
RTVSPost2010Prop43
 90
        3
102
RTVSPost2010PropOp43
 70
     1
102
RTVSPost2010Prop44ColorIndex
 90
        5
102
RTVSPost2010Prop44ColorRGB
 90
      255
102
RTVSPost2010PropOp44
 70
     1
102
RTVSPost2010Prop45
280
     0
102
RTVSPost2010PropOp45
 70
     1
102
RTVSPost2010Prop46
 90
       50
102
RTVSPost2010PropOp46
 70
     1
102
RTVSPost2010Prop47
 90
       50
102
RTVSPost2010PropOp47
 70
     1
102
RTVSPost2010Prop48
 90
       50
102
RTVSPost2010PropOp48
 70
     1
102
RTVSPost2010Prop49
280
     0
102
RTVSPost2010PropOp49
 70
     1
102
RTVSPost2010Prop50
 90
       50
102
RTVSPost2010PropOp50
 70
     1
102
RTVSPost2010Prop51ColorIndex
 90
      256
102
RTVSPost2010Prop51ColorRGB
 90
-16777216
102
RTVSPost2010PropOp51
 70
     0
102
RTVSPost2010Prop52
140
1.0
102
RTVSPost2010PropOp52
 70
     0
102
RTVSPost2010Prop53
 90
        2
102
RTVSPost2010PropOp53
 70
     1
102
RTVSPost2010Prop54
  1
strokes_ogs.tif
102
RTVSPost2010PropOp54
 70
     1
102
RTVSPost2010Prop55
280
     0
102
RTVSPost2010PropOp55
 70
     1
102
RTVSPost2010Prop56
140
1.0
102
RTVSPost2010PropOp56
 70
     1
102
RTVSPost2010Prop57
140
1.0
102
RTVSPost2010PropOp57
 70
     1
  0
XRECORD
  5
5BC
102
{ACAD_REACTORS
330
5BB
102
}
330
5BB
100
AcDbXrecord
280
     1
102
RTVSPropertyOp0
 70
     1
102
RTVSPropertyOp1
 70
     1
102
RTVSPropertyOp2
 70
     1
102
RTVSPropertyOp3
 70
     1
102
RTVSPropertyOp4
 70
     1
102
RTVSPropertyOp5
 70
     1
102
RTVSPropertyOp6
 70
     1
102
RTVSPropertyOp7
 70
     1
102
RTVSPropertyOp8
 70
     1
102
RTVSPropertyOp9
 70
     1
102
RTVSPropertyOp10
 70
     1
102
RTVSPropertyOp11
 70
     1
102
RTVSPropertyOp12
 70
     1
102
RTVSPropertyOp13
 70
     1
102
RTVSPropertyOp14
 70
     1
102
RTVSPropertyOp15
 70
     1
102
RTVSPropertyOp16
 70
     1
102
RTVSPropertyOp17
 70
     1
102
RTVSPropertyOp18
 70
     1
102
RTVSPropertyOp19
 70
     1
102
RTVSPropertyOp20
 70
     1
102
RTVSPropertyOp21
 70
     1
102
RTVSPropertyOp22
 70
     1
102
RTVSPropertyOp23
 70
     1
102
RTVSPropertyOp24
 70
     1
102
RTVSPropertyOp25
 70
     1
102
RTVSPropertyOp26
 70
     1
102
RTVSPropertyOp27
 70
     1
102
RTVSPropertyOp28
 70
     1
102
RTVSPropertyOp29
 70
     1
102
RTVSPropertyOp30
 70
     1
102
RTVSPropertyOp31
 70
     1
102
RTVSPropertyOp32
 70
     1
102
RTVSPropertyOp33
 70
     1
102
RTVSPropertyOp34
 70
     1
102
RTVSPropertyOp35
 70
     1
102
RTVSPropertyOp36
 70
     1
102
RTVSPropertyOp37
 70
     1
102
RTVSPropertyOp38
 70
     1
102
RTVSPropertyOp39
 70
     1
102
RTVSPropertyOp40
 70
     1
102
RTVSPropertyOp41
 70
     1
102
RTVSPropertyOp42
 70
     1
102
RTVSPropertyOp43
 70
     1
102
RTVSPropertyOp44
 70
     1
102
RTVSPropertyOp45
 70
     1
102
RTVSPropertyOp46
 70
     1
102
RTVSPropertyOp47
 70
     1
102
RTVSPropertyOp48
 70
     1
102
RTVSPropertyOp49
 70
     1
102
RTVSPropertyOp50
 70
     1
102
RTVSPropertyOp51
 70
     0
102
RTVSPropertyOp52
 70
     0
102
RTVSPropertyOp53
 70
     1
102
RTVSPropertyOp54
 70
     1
102
RTVSPropertyOp55
 70
     1
102
RTVSPropertyOp56
 70
     1
102
RTVSPropertyOp57
 70
     1
102
RTVSPost2010Prop28
280
     0
102
RTVSPost2010PropOp28
 70
     1
102
RTVSPost2010Prop29
280
     1
102
RTVSPost2010PropOp29
 70
     1
102
RTVSPost2010Prop30
280
     1
102
RTVSPost2010PropOp30
 70
     1
102
RTVSPost2010Prop31
280
     0
102
RTVSPost2010PropOp31
 70
     1
102
RTVSPost2010Prop32
280
     0
102
RTVSPost2010PropOp32
 70
     1
102
RTVSPost2010Prop33
280
     0
102
RTVSPost2010PropOp33
 70
     1
102
RTVSPost2010Prop34
280
     0
102
RTVSPost2010PropOp34
 70
     1
102
RTVSPost2010Prop35
280
     0
102
RTVSPost2010PropOp35
 70
     1
102
RTVSPost2010Prop36
280
     0
102
RTVSPost2010PropOp36
 70
     1
102
RTVSPost2010Prop37
 90
       50
102
RTVSPost2010PropOp37
 70
     1
102
RTVSPost2010Prop38
140
0.0
102
RTVSPost2010PropOp38
 70
     1
102
RTVSPost2010Prop39
140
1.0
102
RTVSPost2010PropOp39
 70
     1
102
RTVSPost2010Prop40
 90
        0
102
RTVSPost2010PropOp40
 70
     1
102
RTVSPost2010Prop41ColorIndex
 90
       18
102
RTVSPost2010Prop41ColorRGB
 90
        0
102
RTVSPost2010PropOp41
 70
     1
102
RTVSPost2010Prop42
 90
       50
102
RTVSPost2010PropOp42
 70
     1
102
RTVSPost2010Prop43
 90
        3
102
RTVSPost2010PropOp43
 70
     1
102
RTVSPost2010Prop44ColorIndex
 90
        5
102
RTVSPost2010Prop44ColorRGB
 90
      255
102
RTVSPost2010PropOp44
 70
     1
102
RTVSPost2010Prop45
280
     0
102
RTVSPost2010PropOp45
 70
     1
102
RTVSPost2010Prop46
 90
       50
102
RTVSPost2010PropOp46
 70
     1
102
RTVSPost2010Prop47
 90
       50
102
RTVSPost2010PropOp47
 70
     1
102
RTVSPost2010Prop48
 90
       50
102
RTVSPost2010PropOp48
 70
     1
102
RTVSPost2010Prop49
280
     0
102
RTVSPost2010PropOp49
 70
     1
102
RTVSPost2010Prop50
 90
       50
102
RTVSPost2010PropOp50
 70
     1
102
RTVSPost2010Prop51ColorIndex
 90
      256
102
RTVSPost2010Prop51ColorRGB
 90
-16777216
102
RTVSPost2010PropOp51
 70
     0
102
RTVSPost2010Prop52
140
1.0
102
RTVSPost2010PropOp52
 70
     0
102
RTVSPost2010Prop53
 90
        2
102
RTVSPost2010PropOp53
 70
     1
102
RTVSPost2010Prop54
  1
strokes_ogs.tif
102
RTVSPost2010PropOp54
 70
     1
102
RTVSPost2010Prop55
280
     0
102
RTVSPost2010PropOp55
 70
     1
102
RTVSPost2010Prop56
140
1.0
102
RTVSPost2010PropOp56
 70
     1
102
RTVSPost2010Prop57
140
1.0
102
RTVSPost2010PropOp57
 70
     1
  0
XRECORD
  5
5E4
102
{ACAD_REACTORS
330
5E3
102
}
330
5E3
100
AcDbXrecord
280
     1
102
RTVSPropertyOp0
 70
     1
102
RTVSPropertyOp1
 70
     1
102
RTVSPropertyOp2
 70
     1
102
RTVSPropertyOp3
 70
     1
102
RTVSPropertyOp4
 70
     1
102
RTVSPropertyOp5
 70
     1
102
RTVSPropertyOp6
 70
     1
102
RTVSPropertyOp7
 70
     1
102
RTVSPropertyOp8
 70
     1
102
RTVSPropertyOp9
 70
     1
102
RTVSPropertyOp10
 70
     1
102
RTVSPropertyOp11
 70
     1
102
RTVSPropertyOp12
 70
     1
102
RTVSPropertyOp13
 70
     1
102
RTVSPropertyOp14
 70
     1
102
RTVSPropertyOp15
 70
     1
102
RTVSPropertyOp16
 70
     1
102
RTVSPropertyOp17
 70
     1
102
RTVSPropertyOp18
 70
     1
102
RTVSPropertyOp19
 70
     1
102
RTVSPropertyOp20
 70
     1
102
RTVSPropertyOp21
 70
     1
102
RTVSPropertyOp22
 70
     1
102
RTVSPropertyOp23
 70
     1
102
RTVSPropertyOp24
 70
     1
102
RTVSPropertyOp25
 70
     1
102
RTVSPropertyOp26
 70
     1
102
RTVSPropertyOp27
 70
     1
102
RTVSPropertyOp28
 70
     1
102
RTVSPropertyOp29
 70
     1
102
RTVSPropertyOp30
 70
     1
102
RTVSPropertyOp31
 70
     1
102
RTVSPropertyOp32
 70
     1
102
RTVSPropertyOp33
 70
     1
102
RTVSPropertyOp34
 70
     1
102
RTVSPropertyOp35
 70
     1
102
RTVSPropertyOp36
 70
     1
102
RTVSPropertyOp37
 70
     1
102
RTVSPropertyOp38
 70
     1
102
RTVSPropertyOp39
 70
     1
102
RTVSPropertyOp40
 70
     1
102
RTVSPropertyOp41
 70
     1
102
RTVSPropertyOp42
 70
     1
102
RTVSPropertyOp43
 70
     1
102
RTVSPropertyOp44
 70
     1
102
RTVSPropertyOp45
 70
     1
102
RTVSPropertyOp46
 70
     1
102
RTVSPropertyOp47
 70
     1
102
RTVSPropertyOp48
 70
     1
102
RTVSPropertyOp49
 70
     1
102
RTVSPropertyOp50
 70
     1
102
RTVSPropertyOp51
 70
     0
102
RTVSPropertyOp52
 70
     0
102
RTVSPropertyOp53
 70
     1
102
RTVSPropertyOp54
 70
     1
102
RTVSPropertyOp55
 70
     1
102
RTVSPropertyOp56
 70
     1
102
RTVSPropertyOp57
 70
     1
102
RTVSPost2010Prop28
280
     0
102
RTVSPost2010PropOp28
 70
     1
102
RTVSPost2010Prop29
280
     1
102
RTVSPost2010PropOp29
 70
     1
102
RTVSPost2010Prop30
280
     1
102
RTVSPost2010PropOp30
 70
     1
102
RTVSPost2010Prop31
280
     0
102
RTVSPost2010PropOp31
 70
     1
102
RTVSPost2010Prop32
280
     0
102
RTVSPost2010PropOp32
 70
     1
102
RTVSPost2010Prop33
280
     0
102
RTVSPost2010PropOp33
 70
     1
102
RTVSPost2010Prop34
280
     0
102
RTVSPost2010PropOp34
 70
     1
102
RTVSPost2010Prop35
280
     0
102
RTVSPost2010PropOp35
 70
     1
102
RTVSPost2010Prop36
280
     0
102
RTVSPost2010PropOp36
 70
     1
102
RTVSPost2010Prop37
 90
       50
102
RTVSPost2010PropOp37
 70
     1
102
RTVSPost2010Prop38
140
0.0
102
RTVSPost2010PropOp38
 70
     1
102
RTVSPost2010Prop39
140
1.0
102
RTVSPost2010PropOp39
 70
     1
102
RTVSPost2010Prop40
 90
        0
102
RTVSPost2010PropOp40
 70
     1
102
RTVSPost2010Prop41ColorIndex
 90
       18
102
RTVSPost2010Prop41ColorRGB
 90
        0
102
RTVSPost2010PropOp41
 70
     1
102
RTVSPost2010Prop42
 90
       50
102
RTVSPost2010PropOp42
 70
     1
102
RTVSPost2010Prop43
 90
        3
102
RTVSPost2010PropOp43
 70
     1
102
RTVSPost2010Prop44ColorIndex
 90
        5
102
RTVSPost2010Prop44ColorRGB
 90
      255
102
RTVSPost2010PropOp44
 70
     1
102
RTVSPost2010Prop45
280
     0
102
RTVSPost2010PropOp45
 70
     1
102
RTVSPost2010Prop46
 90
       50
102
RTVSPost2010PropOp46
 70
     1
102
RTVSPost2010Prop47
 90
       50
102
RTVSPost2010PropOp47
 70
     1
102
RTVSPost2010Prop48
 90
       50
102
RTVSPost2010PropOp48
 70
     1
102
RTVSPost2010Prop49
280
     0
102
RTVSPost2010PropOp49
 70
     1
102
RTVSPost2010Prop50
 90
       50
102
RTVSPost2010PropOp50
 70
     1
102
RTVSPost2010Prop51ColorIndex
 90
      256
102
RTVSPost2010Prop51ColorRGB
 90
-16777216
102
RTVSPost2010PropOp51
 70
     0
102
RTVSPost2010Prop52
140
1.0
102
RTVSPost2010PropOp52
 70
     0
102
RTVSPost2010Prop53
 90
        2
102
RTVSPost2010PropOp53
 70
     1
102
RTVSPost2010Prop54
  1
strokes_ogs.tif
102
RTVSPost2010PropOp54
 70
     1
102
RTVSPost2010Prop55
280
     0
102
RTVSPost2010PropOp55
 70
     1
102
RTVSPost2010Prop56
140
1.0
102
RTVSPost2010PropOp56
 70
     1
102
RTVSPost2010Prop57
140
1.0
102
RTVSPost2010PropOp57
 70
     1
  0
ENDSEC
  0
EOF
