  0
SECTION
  2
HEADER
  9
$ACADVER
  1
AC1015
  9
$ACADMAINTVER
 70
     6
  9
$DWGCODEPAGE
  3
ANSI_932
  9
$INSBASE
 10
1020.192162937447
 20
427.4538871533031
 30
0.0
  9
$EXTMIN
 10
191.679897805453
 20
20.09580344177658
 30
0.0
  9
$EXTMAX
 10
1380.249719856631
 20
1072.121050606681
 30
0.0
  9
$LIMMIN
 10
-210.0
 20
-148.5
  9
$LIMMAX
 10
210.0
 20
148.5
  9
$ORTHOMODE
 70
     1
  9
$REGENMODE
 70
     1
  9
$FILLMODE
 70
     1
  9
$QTEXTMODE
 70
     0
  9
$MIRRTEXT
 70
     1
  9
$LTSCALE
 40
3.0
  9
$ATTMODE
 70
     1
  9
$TEXTSIZE
 40
12.0
  9
$TRACEWID
 40
0.05
  9
$TEXTSTYLE
  7
KANJI
  9
$CLAYER
  8
2
  9
$CELTYPE
  6
BYLAYER
  9
$CECOLOR
 62
   256
  9
$CELTSCALE
 40
1.0
  9
$DISPSILH
 70
     0
  9
$DIMSCALE
 40
4.0
  9
$DIMASZ
 40
2.0
  9
$DIMEXO
 40
0.5
  9
$DIMDLI
 40
10.0
  9
$DIMRND
 40
0.0
  9
$DIMDLE
 40
0.0
  9
$DIMEXE
 40
1.0
  9
$DIMTP
 40
0.0
  9
$DIMTM
 40
0.0
  9
$DIMTXT
 40
3.0
  9
$DIMCEN
 40
0.09
  9
$DIMTSZ
 40
0.0
  9
$DIMTOL
 70
     0
  9
$DIMLIM
 70
     0
  9
$DIMTIH
 70
     0
  9
$DIMTOH
 70
     0
  9
$DIMSE1
 70
     0
  9
$DIMSE2
 70
     0
  9
$DIMTAD
 70
     0
  9
$DIMZIN
 70
     8
  9
$DIMBLK
  1

  9
$DIMASO
 70
     0
  9
$DIMSHO
 70
     0
  9
$DIMPOST
  1

  9
$DIMAPOST
  1

  9
$DIMALT
 70
     0
  9
$DIMALTD
 70
     2
  9
$DIMALTF
 40
25.4
  9
$DIMLFAC
 40
1.0
  9
$DIMTOFL
 70
     1
  9
$DIMTVP
 40
1.0
  9
$DIMTIX
 70
     1
  9
$DIMSOXD
 70
     1
  9
$DIMSAH
 70
     0
  9
$DIMBLK1
  1

  9
$DIMBLK2
  1

  9
$DIMSTYLE
  2
STANDARD
  9
$DIMCLRD
 70
   256
  9
$DIMCLRE
 70
   256
  9
$DIMCLRT
 70
   256
  9
$DIMTFAC
 40
1.0
  9
$DIMGAP
 40
0.09
  9
$DIMJUST
 70
     0
  9
$DIMSD1
 70
     0
  9
$DIMSD2
 70
     0
  9
$DIMTOLJ
 70
     1
  9
$DIMTZIN
 70
     0
  9
$DIMALTZ
 70
     0
  9
$DIMALTTZ
 70
     0
  9
$DIMUPT
 70
     0
  9
$DIMDEC
 70
     4
  9
$DIMTDEC
 70
     4
  9
$DIMALTU
 70
     2
  9
$DIMALTTD
 70
     2
  9
$DIMTXSTY
  7
STANDARD
  9
$DIMAUNIT
 70
     0
  9
$DIMADEC
 70
     0
  9
$DIMALTRND
 40
0.0
  9
$DIMAZIN
 70
     0
  9
$DIMDSEP
 70
    46
  9
$DIMATFIT
 70
     3
  9
$DIMFRAC
 70
     0
  9
$DIMLDRBLK
  1

  9
$DIMLUNIT
 70
     2
  9
$DIMLWD
 70
    -2
  9
$DIMLWE
 70
    -2
  9
$DIMTMOVE
 70
     0
  9
$LUNITS
 70
     2
  9
$LUPREC
 70
     4
  9
$SKETCHINC
 40
0.1
  9
$FILLETRAD
 40
1.0
  9
$AUNITS
 70
     0
  9
$AUPREC
 70
     0
  9
$MENU
  1
.
  9
$ELEVATION
 40
0.0
  9
$PELEVATION
 40
0.0
  9
$THICKNESS
 40
0.0
  9
$LIMCHECK
 70
     0
  9
$CHAMFERA
 40
0.0
  9
$CHAMFERB
 40
0.0
  9
$CHAMFERC
 40
0.0
  9
$CHAMFERD
 40
0.0
  9
$SKPOLY
 70
     0
  9
$TDCREATE
 40
2457541.534460521
  9
$TDUCREATE
 40
2457541.159460521
  9
$TDUPDATE
 40
2457870.619312894
  9
$TDUUPDATE
 40
2457870.244312894
  9
$TDINDWG
 40
0.0211186343
  9
$TDUSRTIMER
 40
0.0211180787
  9
$USRTIMER
 70
     1
  9
$ANGBASE
 50
0.0
  9
$ANGDIR
 70
     0
  9
$PDMODE
 70
     0
  9
$PDSIZE
 40
0.0
  9
$PLINEWID
 40
0.0
  9
$SPLFRAME
 70
     0
  9
$SPLINETYPE
 70
     6
  9
$SPLINESEGS
 70
     8
  9
$HANDSEED
  5
5CC
  9
$SURFTAB1
 70
     6
  9
$SURFTAB2
 70
     6
  9
$SURFTYPE
 70
     6
  9
$SURFU
 70
     6
  9
$SURFV
 70
     6
  9
$UCSBASE
  2

  9
$UCSNAME
  2

  9
$UCSORG
 10
0.0
 20
0.0
 30
0.0
  9
$UCSXDIR
 10
1.0
 20
0.0
 30
0.0
  9
$UCSYDIR
 10
0.0
 20
1.0
 30
0.0
  9
$UCSORTHOREF
  2

  9
$UCSORTHOVIEW
 70
     0
  9
$UCSORGTOP
 10
0.0
 20
0.0
 30
0.0
  9
$UCSORGBOTTOM
 10
0.0
 20
0.0
 30
0.0
  9
$UCSORGLEFT
 10
0.0
 20
0.0
 30
0.0
  9
$UCSORGRIGHT
 10
0.0
 20
0.0
 30
0.0
  9
$UCSORGFRONT
 10
0.0
 20
0.0
 30
0.0
  9
$UCSORGBACK
 10
0.0
 20
0.0
 30
0.0
  9
$PUCSBASE
  2

  9
$PUCSNAME
  2

  9
$PUCSORG
 10
0.0
 20
0.0
 30
0.0
  9
$PUCSXDIR
 10
1.0
 20
0.0
 30
0.0
  9
$PUCSYDIR
 10
0.0
 20
1.0
 30
0.0
  9
$PUCSORTHOREF
  2

  9
$PUCSORTHOVIEW
 70
     0
  9
$PUCSORGTOP
 10
0.0
 20
0.0
 30
0.0
  9
$PUCSORGBOTTOM
 10
0.0
 20
0.0
 30
0.0
  9
$PUCSORGLEFT
 10
0.0
 20
0.0
 30
0.0
  9
$PUCSORGRIGHT
 10
0.0
 20
0.0
 30
0.0
  9
$PUCSORGFRONT
 10
0.0
 20
0.0
 30
0.0
  9
$PUCSORGBACK
 10
0.0
 20
0.0
 30
0.0
  9
$USERI1
 70
     0
  9
$USERI2
 70
     0
  9
$USERI3
 70
     0
  9
$USERI4
 70
     0
  9
$USERI5
 70
     0
  9
$USERR1
 40
0.0
  9
$USERR2
 40
0.0
  9
$USERR3
 40
0.0
  9
$USERR4
 40
0.0
  9
$USERR5
 40
0.0
  9
$WORLDVIEW
 70
     1
  9
$SHADEDGE
 70
     3
  9
$SHADEDIF
 70
    70
  9
$TILEMODE
 70
     1
  9
$MAXACTVP
 70
    16
  9
$PINSBASE
 10
0.0
 20
0.0
 30
0.0
  9
$PLIMCHECK
 70
     0
  9
$PEXTMIN
 10
1.000000000000000E+20
 20
1.000000000000000E+20
 30
1.000000000000000E+20
  9
$PEXTMAX
 10
-1.000000000000000E+20
 20
-1.000000000000000E+20
 30
-1.000000000000000E+20
  9
$PLIMMIN
 10
0.0
 20
0.0
  9
$PLIMMAX
 10
12.0
 20
9.0
  9
$UNITMODE
 70
     0
  9
$VISRETAIN
 70
     0
  9
$PLINEGEN
 70
     0
  9
$PSLTSCALE
 70
     1
  9
$TREEDEPTH
 70
  3020
  9
$CMLSTYLE
  2
STANDARD
  9
$CMLJUST
 70
     0
  9
$CMLSCALE
 40
1.0
  9
$PROXYGRAPHICS
 70
     1
  9
$MEASUREMENT
 70
     0
  9
$CELWEIGHT
370
    -1
  9
$ENDCAPS
280
     0
  9
$JOINSTYLE
280
     0
  9
$LWDISPLAY
290
     0
  9
$INSUNITS
 70
     0
  9
$HYPERLINKBASE
  1

  9
$STYLESHEET
  1

  9
$XEDIT
290
     1
  9
$CEPSNTYPE
380
     0
  9
$PSTYLEMODE
290
     1
  9
$FINGERPRINTGUID
  2
{7FE347E6-6584-4068-9BE8-BB09FFF26CB9}
  9
$VERSIONGUID
  2
{B44DC1C1-3E50-4188-A24D-38C8AED6C681}
  9
$EXTNAMES
290
     1
  9
$PSVPSCALE
 40
0.0
  9
$OLESTARTUP
290
     0
  0
ENDSEC
  0
SECTION
  2
CLASSES
  0
CLASS
  1
ACDBDICTIONARYWDFLT
  2
AcDbDictionaryWithDefault
  3
ObjectDBX Classes
 90
        0
280
     0
281
     0
  0
CLASS
  1
MATERIAL
  2
AcDbMaterial
  3
ObjectDBX Classes
 90
     1153
280
     0
281
     0
  0
CLASS
  1
SORTENTSTABLE
  2
AcDbSortentsTable
  3
ObjectDBX Classes
 90
        0
280
     0
281
     0
  0
CLASS
  1
VISUALSTYLE
  2
AcDbVisualStyle
  3
ObjectDBX Classes
 90
     4095
280
     0
281
     0
  0
CLASS
  1
SCALE
  2
AcDbScale
  3
ObjectDBX Classes
 90
     1153
280
     0
281
     0
  0
CLASS
  1
DICTIONARYVAR
  2
AcDbDictionaryVar
  3
ObjectDBX Classes
 90
        0
280
     0
281
     0
  0
CLASS
  1
MLEADERSTYLE
  2
AcDbMLeaderStyle
  3
ACDB_MLEADERSTYLE_CLASS
 90
     4095
280
     0
281
     0
  0
CLASS
  1
TABLESTYLE
  2
AcDbTableStyle
  3
ObjectDBX Classes
 90
     4095
280
     0
281
     0
  0
CLASS
  1
ACDBPLACEHOLDER
  2
AcDbPlaceHolder
  3
ObjectDBX Classes
 90
        0
280
     0
281
     0
  0
CLASS
  1
LAYOUT
  2
AcDbLayout
  3
ObjectDBX Classes
 90
        0
280
     0
281
     0
  0
ENDSEC
  0
SECTION
  2
TABLES
  0
TABLE
  2
VPORT
  5
26
102
{ACAD_XDICTIONARY
360
591
102
}
330
0
100
AcDbSymbolTable
 70
     1
  0
VPORT
  5
2D
330
26
100
AcDbSymbolTableRecord
100
AcDbViewportTableRecord
  2
*Active
 70
     0
 10
0.0
 20
0.0
 11
1.0
 21
1.0
 12
1379.161101786926
 22
573.4604453630661
 13
0.0
 23
0.0
 14
1.0
 24
1.0
 15
0.0
 25
0.0
 16
0.0
 26
0.0
 36
1.0
 17
0.0
 27
0.0
 37
0.0
 40
1220.702462777986
 41
2.174107142857143
 42
50.0
 43
0.0
 44
0.0
 50
0.0
 51
0.0
 71
     0
 72
 20000
 73
     1
 74
     0
 75
     0
 76
     0
 77
     0
 78
     0
281
     0
 65
     1
110
0.0
120
0.0
130
0.0
111
1.0
121
0.0
131
0.0
112
0.0
122
1.0
132
0.0
 79
     0
146
0.0
1001
ACAD_NAV_VCDISPLAY
1070
     3
  0
ENDTAB
  0
TABLE
  2
LTYPE
  5
B
330
0
100
AcDbSymbolTable
 70
     4
  0
LTYPE
  5
C
330
B
100
AcDbSymbolTableRecord
100
AcDbLinetypeTableRecord
  2
BYBLOCK
 70
     0
  3

 72
    65
 73
     0
 40
0.0
  0
LTYPE
  5
D
330
B
100
AcDbSymbolTableRecord
100
AcDbLinetypeTableRecord
  2
BYLAYER
 70
     0
  3

 72
    65
 73
     0
 40
0.0
  0
LTYPE
  5
A
330
B
100
AcDbSymbolTableRecord
100
AcDbLinetypeTableRecord
  2
CONTINUOUS
 70
     0
  3
Solid line
 72
    65
 73
     0
 40
0.0
  0
LTYPE
  5
56
330
B
100
AcDbSymbolTableRecord
100
AcDbLinetypeTableRecord
  2
CENTER
 70
     0
  3
Center ____ _ ____ _ ____ _ ____ _ ____ _ ____
 72
    65
 73
     4
 40
2.0
 49
1.25
 74
     0
 49
-0.25
 74
     0
 49
0.25
 74
     0
 49
-0.25
 74
     0
  0
LTYPE
  5
1D8
330
B
100
AcDbSymbolTableRecord
100
AcDbLinetypeTableRecord
  2
DASHED
 70
     0
  3
__ __ __ __ __ __ __ __ __ __ __ __ __ __ __ __
 72
    65
 73
     2
 40
0.75
 49
0.5
 74
     0
 49
-0.25
 74
     0
  0
ENDTAB
  0
TABLE
  2
LAYER
  5
2
330
0
100
AcDbSymbolTable
 70
     8
  0
LAYER
  5
1B
330
2
100
AcDbSymbolTableRecord
100
AcDbLayerTableRecord
  2
0
 70
     0
 62
     7
  6
CONTINUOUS
370
    -3
390
3
  0
LAYER
  5
B9
330
2
100
AcDbSymbolTableRecord
100
AcDbLayerTableRecord
  2
1
 70
     0
 62
     7
  6
CONTINUOUS
370
    -3
390
3
  0
LAYER
  5
1
330
2
100
AcDbSymbolTableRecord
100
AcDbLayerTableRecord
  2
2
 70
     0
 62
     4
  6
CONTINUOUS
370
    -3
390
3
  0
LAYER
  5
79
330
2
100
AcDbSymbolTableRecord
100
AcDbLayerTableRecord
  2
4
 70
     0
 62
     3
  6
CONTINUOUS
370
    -3
390
3
  0
LAYER
  5
55
330
2
100
AcDbSymbolTableRecord
100
AcDbLayerTableRecord
  2
L-CENTER
 70
     0
 62
     1
  6
CENTER
370
    -3
390
3
  0
LAYER
  5
62
330
2
100
AcDbSymbolTableRecord
100
AcDbLayerTableRecord
  2
3
 70
     0
 62
     2
  6
CONTINUOUS
370
    -3
390
3
  0
LAYER
  5
B3
330
2
100
AcDbSymbolTableRecord
100
AcDbLayerTableRecord
  2
5
 70
     0
 62
     6
  6
CONTINUOUS
370
    -3
390
3
  0
LAYER
  5
573
330
2
100
AcDbSymbolTableRecord
100
AcDbLayerTableRecord
  2
Defpoints
 70
     0
 62
     7
  6
CONTINUOUS
290
     0
370
    -3
390
3
  0
ENDTAB
  0
TABLE
  2
STYLE
  5
F
330
0
100
AcDbSymbolTable
 70
     2
  0
STYLE
  5
13
330
F
100
AcDbSymbolTableRecord
100
AcDbTextStyleTableRecord
  2
STANDARD
 70
     0
 40
0.0
 41
1.0
 50
0.0
 71
     0
 42
7.2
  3
txt
  4

  0
STYLE
  5
E
330
F
100
AcDbSymbolTableRecord
100
AcDbTextStyleTableRecord
  2
KANJI
 70
     0
 40
0.0
 41
1.0
 50
0.0
 71
     0
 42
12.0
  3
TXT
  4
BIGFONT
  0
ENDTAB
  0
TABLE
  2
VIEW
  5
24
330
0
100
AcDbSymbolTable
 70
     0
  0
ENDTAB
  0
TABLE
  2
UCS
  5
25
330
0
100
AcDbSymbolTable
 70
     0
  0
ENDTAB
  0
TABLE
  2
APPID
  5
9
330
0
100
AcDbSymbolTable
 70
     5
  0
APPID
  5
8
330
9
100
AcDbSymbolTableRecord
100
AcDbRegAppTableRecord
  2
ACAD
 70
     0
  0
APPID
  5
2E
330
9
100
AcDbSymbolTableRecord
100
AcDbRegAppTableRecord
  2
ACAD_NAV_VCDISPLAY
 70
     0
  0
APPID
  5
1F
330
9
100
AcDbSymbolTableRecord
100
AcDbRegAppTableRecord
  2
ACAD_PSEXT
 70
     0
  0
APPID
  5
54A
330
9
100
AcDbSymbolTableRecord
100
AcDbRegAppTableRecord
  2
ACAD_MLEADERVER
 70
     0
  0
ENDTAB
  0
TABLE
  2
DIMSTYLE
  5
12
330
0
100
AcDbSymbolTable
 70
     1
100
AcDbDimStyleTable
  0
DIMSTYLE
105
11
330
12
100
AcDbSymbolTableRecord
100
AcDbDimStyleTableRecord
  2
STANDARD
 70
     0
178
     0
340
13
  0
ENDTAB
  0
TABLE
  2
BLOCK_RECORD
  5
16
330
0
100
AcDbSymbolTable
 70
     0
  0
BLOCK_RECORD
  5
17
102
{ACAD_XDICTIONARY
360
18
102
}
330
16
100
AcDbSymbolTableRecord
100
AcDbBlockTableRecord
  2
*MODEL_SPACE
340
1D
  0
BLOCK_RECORD
  5
20
330
16
100
AcDbSymbolTableRecord
100
AcDbBlockTableRecord
  2
*PAPER_SPACE
340
23
  0
ENDTAB
  0
ENDSEC
  0
SECTION
  2
BLOCKS
  0
BLOCK
  5
1A
330
17
100
AcDbEntity
  8
0
100
AcDbBlockBegin
  2
*MODEL_SPACE
 70
     0
 10
0.0
 20
0.0
 30
0.0
  3
*MODEL_SPACE
  1

  0
ENDBLK
  5
1C
330
17
100
AcDbEntity
  8
0
100
AcDbBlockEnd
  0
BLOCK
  5
21
330
20
100
AcDbEntity
 67
     1
  8
0
100
AcDbBlockBegin
  2
*PAPER_SPACE
 70
     0
 10
0.0
 20
0.0
 30
0.0
  3
*PAPER_SPACE
  1

  0
ENDBLK
  5
22
330
20
100
AcDbEntity
 67
     1
  8
0
100
AcDbBlockEnd
  0
ENDSEC
  0
SECTION
  2
ENTITIES
  0
CIRCLE
  5
1D7
330
17
100
AcDbEntity
  8
2
  6
DASHED
 48
4.0
100
AcDbCircle
 10
654.0363020635082
 20
737.8720494969225
 30
0.0
 40
10.0
  0
CIRCLE
  5
1D9
330
17
100
AcDbEntity
  8
2
  6
DASHED
 48
4.0
100
AcDbCircle
 10
304.0363020635082
 20
737.8720494969225
 30
0.0
 40
10.0
  0
LINE
  5
1DA
330
17
100
AcDbEntity
  8
4
100
AcDbLine
 10
464.0363020635082
 20
1068.372049496922
 30
0.0
 11
464.0363020635082
 21
1063.372049496921
 31
0.0
  0
LINE
  5
1DB
330
17
100
AcDbEntity
  8
4
100
AcDbLine
 10
494.0363020635082
 20
1068.372049496921
 30
0.0
 11
494.0363020635082
 21
1063.372049496921
 31
0.0
  0
LINE
  5
1DC
330
17
100
AcDbEntity
  8
4
100
AcDbLine
 10
461.0363020635091
 20
1061.372049496922
 30
0.0
 11
461.0363020635091
 21
1063.372049496921
 31
0.0
  0
LINE
  5
1DD
330
17
100
AcDbEntity
  8
4
100
AcDbLine
 10
462.0363020635091
 20
1061.372049496922
 30
0.0
 11
462.0363020635091
 21
1059.872049496922
 31
0.0
  0
LINE
  5
1DE
330
17
100
AcDbEntity
  8
4
100
AcDbLine
 10
497.0363020635091
 20
1061.372049496922
 30
0.0
 11
497.0363020635091
 21
1063.372049496921
 31
0.0
  0
LINE
  5
1DF
330
17
100
AcDbEntity
  8
4
100
AcDbLine
 10
496.0363020635091
 20
1059.872049496922
 30
0.0
 11
496.0363020635091
 21
1061.372049496922
 31
0.0
  0
LINE
  5
1E0
330
17
100
AcDbEntity
  8
4
100
AcDbLine
 10
461.0363020635091
 20
1061.372049496922
 30
0.0
 11
497.0363020635091
 21
1061.372049496922
 31
0.0
  0
LINE
  5
1E1
330
17
100
AcDbEntity
  8
4
100
AcDbLine
 10
461.0363020635091
 20
1063.372049496921
 30
0.0
 11
497.0363020635091
 21
1063.372049496921
 31
0.0
  0
LINE
  5
1E2
330
17
100
AcDbEntity
  8
4
100
AcDbLine
 10
464.0363020635082
 20
1068.372049496922
 30
0.0
 11
494.0363020635082
 21
1068.372049496921
 31
0.0
  0
LINE
  5
1E3
330
17
100
AcDbEntity
  8
L-CENTER
 48
8.0
100
AcDbLine
 10
1328.793343322636
 20
95.20795109314247
 30
0.0
 11
1328.793343322636
 21
40.20795109314247
 31
0.0
  0
LINE
  5
1E4
330
17
100
AcDbEntity
  8
L-CENTER
 48
8.0
100
AcDbLine
 10
1038.793343322636
 20
95.20795109314247
 30
0.0
 11
1038.793343322636
 21
40.20795109314247
 31
0.0
  0
LINE
  5
1F1
330
17
100
AcDbEntity
  8
4
100
AcDbLine
 10
1212.793343322636
 20
439.2079510931425
 30
0.0
 11
1211.793343322636
 21
440.2079510931425
 31
0.0
  0
LINE
  5
1F2
330
17
100
AcDbEntity
  8
4
100
AcDbLine
 10
1191.293343322636
 20
439.2079510931425
 30
0.0
 11
1212.793343322636
 21
439.2079510931425
 31
0.0
  0
LINE
  5
1F3
330
17
100
AcDbEntity
  8
4
100
AcDbLine
 10
1154.793343322636
 20
439.2079510931425
 30
0.0
 11
1155.793343322636
 21
440.2079510931425
 31
0.0
  0
LINE
  5
1F4
330
17
100
AcDbEntity
  8
4
100
AcDbLine
 10
1154.793343322636
 20
439.2079510931425
 30
0.0
 11
1176.293343322636
 21
439.2079510931425
 31
0.0
  0
LINE
  5
1F5
330
17
100
AcDbEntity
  8
4
100
AcDbLine
 10
1211.793343322636
 20
440.2079510931425
 30
0.0
 11
1155.793343322636
 21
440.2079510931425
 31
0.0
  0
LINE
  5
1FC
330
17
100
AcDbEntity
  8
4
100
AcDbLine
 10
758.0363020635077
 20
725.8720494969225
 30
0.0
 11
758.0363020635077
 21
712.8720494969225
 31
0.0
  0
LINE
  5
1FD
330
17
100
AcDbEntity
  8
4
100
AcDbLine
 10
758.0363020635082
 20
725.8720494969225
 30
0.0
 11
759.0363020635082
 21
724.8720494969225
 31
0.0
  0
LINE
  5
1FE
330
17
100
AcDbEntity
  8
4
100
AcDbLine
 10
758.0363020635077
 20
702.8720494969225
 30
0.0
 11
758.0363020635077
 21
689.872049496922
 31
0.0
  0
LINE
  5
1FF
330
17
100
AcDbEntity
  8
4
100
AcDbLine
 10
759.0363020635082
 20
690.8720494969225
 30
0.0
 11
758.0363020635082
 21
689.8720494969225
 31
0.0
  0
LINE
  5
200
330
17
100
AcDbEntity
  8
4
100
AcDbLine
 10
759.0363020635082
 20
724.8720494969225
 30
0.0
 11
759.0363020635082
 21
690.8720494969225
 31
0.0
  0
ARC
  5
212
330
17
100
AcDbEntity
  8
4
100
AcDbCircle
 10
1353.793343322636
 20
284.6078550931423
 30
0.0
 40
2.0
100
AcDbArc
 50
0.0
 51
90.0
  0
LINE
  5
213
330
17
100
AcDbEntity
  8
4
100
AcDbLine
 10
1355.793343322636
 20
272.2079510931425
 30
0.0
 11
1355.793343322636
 21
274.2079510931425
 31
0.0
  0
LINE
  5
214
330
17
100
AcDbEntity
  8
4
100
AcDbLine
 10
1355.793343322636
 20
284.6078550931423
 30
0.0
 11
1355.793343322636
 21
274.2079510931425
 31
0.0
  0
LINE
  5
215
330
17
100
AcDbEntity
  8
4
100
AcDbLine
 10
1328.793343322636
 20
296.1078550931423
 30
0.0
 11
1328.793343322636
 21
300.2079510931425
 31
0.0
  0
LINE
  5
216
330
17
100
AcDbEntity
  8
4
100
AcDbLine
 10
1333.038387908154
 20
295.2043281472901
 30
0.0
 11
1333.038387908154
 21
286.6078550931423
 31
0.0
  0
ARC
  5
217
330
17
100
AcDbEntity
  8
4
100
AcDbCircle
 10
1330.584649264098
 20
292.324241164083
 30
0.0
 40
3.783613929059507
100
AcDbArc
 50
49.57010315516856
 51
130.4298968448315
  0
LINE
  5
218
330
17
100
AcDbEntity
  8
4
100
AcDbLine
 10
1318.315956043818
 20
295.2043281472901
 30
0.0
 11
1318.315956043818
 21
289.1078550931423
 31
0.0
  0
LINE
  5
219
330
17
100
AcDbEntity
  8
4
100
AcDbLine
 10
1328.130910620042
 20
295.2043281472901
 30
0.0
 11
1328.130910620042
 21
289.1078550931423
 31
0.0
  0
ARC
  5
21A
330
17
100
AcDbEntity
  8
4
100
AcDbCircle
 10
1323.22343333193
 20
282.3286897956826
 30
0.0
 40
13.77916529745958
100
AcDbArc
 50
69.13593563608057
 51
110.8640643639194
  0
LINE
  5
21B
330
17
100
AcDbEntity
  8
L-CENTER
 48
8.0
100
AcDbLine
 10
1323.22343333193
 20
262.8718757235088
 30
0.0
 11
1323.22343333193
 21
298.9758333477224
 31
0.0
  0
ARC
  5
21C
330
17
100
AcDbEntity
  8
4
100
AcDbCircle
 10
1325.020960184156
 20
302.1733000452138
 30
0.0
 40
4.0
100
AcDbArc
 50
124.0262726602211
 51
189.4623222080256
  0
LINE
  5
21D
330
17
100
AcDbEntity
  8
4
100
AcDbLine
 10
1319.793343322635
 20
309.2079510931425
 30
0.0
 11
1321.293343322636
 21
300.2079510931425
 31
0.0
  0
LINE
  5
21E
330
17
100
AcDbEntity
  8
4
100
AcDbLine
 10
1297.793343322636
 20
309.2079510931425
 30
0.0
 11
1308.793343322636
 21
311.2079510931425
 31
0.0
  0
LINE
  5
220
330
17
100
AcDbEntity
  8
4
100
AcDbLine
 10
1313.408478755706
 20
286.6078550931423
 30
0.0
 11
1313.408478755706
 21
295.2043281472901
 31
0.0
  0
LINE
  5
221
330
17
100
AcDbEntity
  8
4
100
AcDbLine
 10
1288.793343322636
 20
297.8981390931425
 30
0.0
 11
1288.793343322636
 21
300.2079510931425
 31
0.0
  0
LINE
  5
222
330
17
100
AcDbEntity
  8
L-CENTER
 48
8.0
100
AcDbLine
 10
1308.793343322636
 20
278.4730870931425
 30
0.0
 11
1308.793343322636
 21
359.3291302392262
 31
0.0
  0
LINE
  5
223
330
17
100
AcDbEntity
  8
4
100
AcDbLine
 10
1297.793343322636
 20
309.2079510931425
 30
0.0
 11
1296.293343322636
 21
300.2079510931425
 31
0.0
  0
ARC
  5
224
330
17
100
AcDbEntity
  8
4
100
AcDbCircle
 10
1292.565726461116
 20
302.1733000452135
 30
0.0
 40
4.0
100
AcDbArc
 50
350.5376777919744
 51
55.97372733978618
  0
LINE
  5
225
330
17
100
AcDbEntity
  8
4
100
AcDbLine
 10
1328.793343322636
 20
300.2079510931425
 30
0.0
 11
1288.793343322636
 21
300.2079510931425
 31
0.0
  0
LINE
  5
226
330
17
100
AcDbEntity
  8
4
100
AcDbLine
 10
1297.793343322636
 20
309.2079510931425
 30
0.0
 11
1319.793343322635
 21
309.2079510931425
 31
0.0
  0
CIRCLE
  5
227
330
17
100
AcDbEntity
  8
4
100
AcDbCircle
 10
1308.793343322636
 20
326.2079510931425
 30
0.0
 40
15.0
  0
ARC
  5
228
330
17
100
AcDbEntity
  8
4
100
AcDbCircle
 10
1308.793343322636
 20
326.2079510931425
 30
0.0
 40
25.0
100
AcDbArc
 50
304.026272660216
 51
235.973727339784
  0
LINE
  5
229
330
17
100
AcDbEntity
  8
L-CENTER
 48
8.0
100
AcDbLine
 10
1275.672164176552
 20
326.2079510931425
 30
0.0
 11
1341.914522468719
 21
326.2079510931425
 31
0.0
  0
LINE
  5
22A
330
17
100
AcDbEntity
  8
4
100
AcDbLine
 10
1308.793343322636
 20
311.2079510931425
 30
0.0
 11
1319.793343322636
 21
309.2079510931425
 31
0.0
  0
LINE
  5
22B
330
17
100
AcDbEntity
  8
4
100
AcDbLine
 10
1333.038387908154
 20
286.6078550931423
 30
0.0
 11
1313.408478755706
 21
286.6078550931423
 31
0.0
  0
LINE
  5
22C
330
17
100
AcDbEntity
  8
4
100
AcDbLine
 10
1333.038387908154
 20
289.1078550931423
 30
0.0
 11
1313.408478755706
 21
289.1078550931423
 31
0.0
  0
LINE
  5
22D
330
17
100
AcDbEntity
  8
4
100
AcDbLine
 10
1315.862217399762
 20
296.1078550931423
 30
0.0
 11
1330.584649264098
 21
296.1078550931423
 31
0.0
  0
ARC
  5
22E
330
17
100
AcDbEntity
  8
4
100
AcDbCircle
 10
1315.862217399763
 20
292.324241164083
 30
0.0
 40
3.783613929059507
100
AcDbArc
 50
49.57010315517714
 51
130.4298968448228
  0
LINE
  5
22F
330
17
100
AcDbEntity
  8
4
100
AcDbLine
 10
1362.293343322636
 20
198.2079510931425
 30
0.0
 11
1360.793343322636
 21
198.2079510931425
 31
0.0
  0
LINE
  5
230
330
17
100
AcDbEntity
  8
4
100
AcDbLine
 10
1357.793343322636
 20
201.2079510931425
 30
0.0
 11
1360.793343322636
 21
201.2079510931425
 31
0.0
  0
LINE
  5
231
330
17
100
AcDbEntity
  8
4
100
AcDbLine
 10
1362.293343322636
 20
199.2079510931425
 30
0.0
 11
1369.293343322636
 21
199.2079510931425
 31
0.0
  0
LINE
  5
232
330
17
100
AcDbEntity
  8
4
100
AcDbLine
 10
1360.793343322636
 20
164.2079510931425
 30
0.0
 11
1362.293343322636
 21
164.2079510931425
 31
0.0
  0
LINE
  5
233
330
17
100
AcDbEntity
  8
4
100
AcDbLine
 10
1362.293343322636
 20
163.2079510931425
 30
0.0
 11
1369.293343322636
 21
163.2079510931425
 31
0.0
  0
LINE
  5
234
330
17
100
AcDbEntity
  8
4
100
AcDbLine
 10
1364.293343322636
 20
190.2079510931425
 30
0.0
 11
1369.293343322636
 21
190.2079510931425
 31
0.0
  0
LINE
  5
235
330
17
100
AcDbEntity
  8
4
100
AcDbLine
 10
1364.293343322636
 20
172.2079510931425
 30
0.0
 11
1369.293343322636
 21
172.2079510931425
 31
0.0
  0
LINE
  5
236
330
17
100
AcDbEntity
  8
4
100
AcDbLine
 10
1369.293343322636
 20
199.2079510931425
 30
0.0
 11
1369.293343322636
 21
163.2079510931425
 31
0.0
  0
LINE
  5
237
330
17
100
AcDbEntity
  8
4
100
AcDbLine
 10
1364.293343322636
 20
199.2079510931425
 30
0.0
 11
1364.293343322636
 21
163.2079510931425
 31
0.0
  0
LINE
  5
238
330
17
100
AcDbEntity
  8
4
100
AcDbLine
 10
1362.293343322636
 20
199.2079510931425
 30
0.0
 11
1362.293343322636
 21
163.2079510931425
 31
0.0
  0
LINE
  5
239
330
17
100
AcDbEntity
  8
L-CENTER
 48
8.0
100
AcDbLine
 10
1375.359995322636
 20
181.2079510931425
 30
0.0
 11
1346.927863322636
 21
181.2079510931425
 31
0.0
  0
LINE
  5
23A
330
17
100
AcDbEntity
  8
4
100
AcDbLine
 10
1359.293343322636
 20
161.2079510931425
 30
0.0
 11
1360.793343322636
 21
161.2079510931425
 31
0.0
  0
LINE
  5
23B
330
17
100
AcDbEntity
  8
4
100
AcDbLine
 10
1361.793247322636
 20
118.7367590931425
 30
0.0
 11
1359.293343322636
 21
118.5394950931426
 31
0.0
  0
LINE
  5
23C
330
17
100
AcDbEntity
  8
4
100
AcDbLine
 10
1361.793247322636
 20
101.6788990931426
 30
0.0
 11
1359.293343322636
 21
101.8761630931425
 31
0.0
  0
LINE
  5
23D
330
17
100
AcDbEntity
  8
4
100
AcDbLine
 10
1361.793247322636
 20
118.7367590931425
 30
0.0
 11
1361.793247322636
 21
101.6788990931426
 31
0.0
  0
LINE
  5
23E
330
17
100
AcDbEntity
  8
4
100
AcDbLine
 10
1358.793343322636
 20
95.20795109314247
 30
0.0
 11
1359.293343322636
 21
95.20795109314247
 31
0.0
  0
LINE
  5
23F
330
17
100
AcDbEntity
  8
L-CENTER
 48
8.0
100
AcDbLine
 10
1364.309299322636
 20
110.2079510931425
 30
0.0
 11
1354.161507322636
 21
110.2079510931425
 31
0.0
  0
LINE
  5
240
330
17
100
AcDbEntity
  8
4
100
AcDbLine
 10
1360.793343322636
 20
161.2079510931425
 30
0.0
 11
1360.793343322636
 21
201.2079510931425
 31
0.0
  0
LINE
  5
241
330
17
100
AcDbEntity
  8
4
100
AcDbLine
 10
1359.293343322636
 20
95.20795109314247
 30
0.0
 11
1359.293343322636
 21
181.2079510931425
 31
0.0
  0
ARC
  5
242
330
17
100
AcDbEntity
  8
4
100
AcDbCircle
 10
1321.293343322636
 20
149.9459870931427
 30
0.0
 40
9.999932000000001
100
AcDbArc
 50
25.26061199999979
 51
154.7393910000001
  0
LINE
  5
243
330
17
100
AcDbEntity
  8
4
100
AcDbLine
 10
1357.793343322636
 20
201.2079510931425
 30
0.0
 11
1357.793343322636
 21
272.2079510931425
 31
0.0
  0
ARC
  5
249
330
17
100
AcDbEntity
  8
4
100
AcDbCircle
 10
1355.793343322636
 20
82.20795109314247
 30
0.0
 40
3.0
100
AcDbArc
 50
0.0
 51
90.0
  0
ARC
  5
24D
330
17
100
AcDbEntity
  8
4
100
AcDbCircle
 10
1286.793343322636
 20
82.20795109314247
 30
0.0
 40
3.0
100
AcDbArc
 50
90.0
 51
180.0
  0
ARC
  5
24E
330
17
100
AcDbEntity
  8
4
100
AcDbCircle
 10
1268.793343322636
 20
63.13666309314237
 30
0.0
 40
4.999992
100
AcDbArc
 50
0.0
 51
44.99803100000422
  0
ARC
  5
24F
330
17
100
AcDbEntity
  8
4
100
AcDbCircle
 10
1276.793343322636
 20
82.20795109314247
 30
0.0
 40
3.0
100
AcDbArc
 50
90.0
 51
180.0
  0
LINE
  5
250
330
17
100
AcDbEntity
  8
4
100
AcDbLine
 10
1272.328987322636
 20
66.67206309314258
 30
0.0
 11
1249.671763322636
 21
89.32928709314263
 31
0.0
  0
LINE
  5
251
330
17
100
AcDbEntity
  8
4
100
AcDbLine
 10
1273.793343322636
 20
82.20795109314247
 30
0.0
 11
1273.793343322636
 21
50.20795109314247
 31
0.0
  0
LINE
  5
252
330
17
100
AcDbEntity
  8
4
100
AcDbLine
 10
1276.793343322636
 20
85.20795109314247
 30
0.0
 11
1355.793343322636
 21
85.20795109314247
 31
0.0
  0
LINE
  5
253
330
17
100
AcDbEntity
  8
4
100
AcDbLine
 10
1273.793343322636
 20
50.20795109314247
 30
0.0
 11
1358.793343322636
 21
50.20795109314247
 31
0.0
  0
ARC
  5
256
330
17
100
AcDbEntity
  8
4
100
AcDbCircle
 10
1493.124399322636
 20
68.8651790931425
 30
0.0
 40
200.000072
100
AcDbArc
 50
154.739661
 51
175.313266
  0
LINE
  5
257
330
17
100
AcDbEntity
  8
4
100
AcDbLine
 10
1293.793343322636
 20
132.2077070931426
 30
0.0
 11
1293.793343322636
 21
85.20795109314247
 31
0.0
  0
ARC
  5
258
330
17
100
AcDbEntity
  8
4
100
AcDbCircle
 10
1149.462287322636
 20
68.8651790931425
 30
0.0
 40
199.999924
100
AcDbArc
 50
4.687087999999972
 51
25.260901
  0
LINE
  5
259
330
17
100
AcDbEntity
  8
4
100
AcDbLine
 10
1348.793343322636
 20
272.2079510931425
 30
0.0
 11
1348.793343322636
 21
85.20795109314247
 31
0.0
  0
LINE
  5
25A
330
17
100
AcDbEntity
  8
4
100
AcDbLine
 10
1283.793343322636
 20
132.2077070931426
 30
0.0
 11
1283.793343322636
 21
50.20795109314247
 31
0.0
  0
LINE
  5
25B
330
17
100
AcDbEntity
  8
4
100
AcDbLine
 10
1283.793343322636
 20
132.2077070931426
 30
0.0
 11
1283.793343322636
 21
50.20795109314247
 31
0.0
  0
LINE
  5
25C
330
17
100
AcDbEntity
  8
4
100
AcDbLine
 10
1358.793343322636
 20
95.20795109314247
 30
0.0
 11
1358.793343322636
 21
50.20795109314247
 31
0.0
  0
ARC
  5
25D
330
17
100
AcDbEntity
  8
4
100
AcDbCircle
 10
1234.451059322636
 20
327.2079510931425
 30
0.0
 40
2.99998
100
AcDbArc
 50
14.03510899999992
 51
90.0
  0
LINE
  5
25E
330
17
100
AcDbEntity
  8
4
100
AcDbLine
 10
1237.361459322636
 20
327.9354910931423
 30
0.0
 11
1240.793343322636
 21
314.2079510931425
 31
0.0
  0
LINE
  5
25F
330
17
100
AcDbEntity
  8
4
100
AcDbLine
 10
1224.793343322636
 20
331.2079510931425
 30
0.0
 11
1224.793343322636
 21
330.2079510931425
 31
0.0
  0
LINE
  5
260
330
17
100
AcDbEntity
  8
4
100
AcDbLine
 10
1213.793343322636
 20
340.2079510931425
 30
0.0
 11
1213.793343322636
 21
331.2079510931425
 31
0.0
  0
ARC
  5
261
330
17
100
AcDbEntity
  8
4
100
AcDbCircle
 10
1183.793343322636
 20
357.7079510931425
 30
0.0
 40
7.5
100
AcDbArc
 50
270.0
 51
0.0
  0
LINE
  5
262
330
17
100
AcDbEntity
  8
4
100
AcDbLine
 10
1193.608297898859
 20
295.2043281472901
 30
0.0
 11
1193.608297898859
 21
286.6078550931423
 31
0.0
  0
ARC
  5
263
330
17
100
AcDbEntity
  8
4
100
AcDbCircle
 10
1183.793343322636
 20
282.3286897956826
 30
0.0
 40
13.77916529745958
100
AcDbArc
 50
69.13593563608057
 51
110.8640643639194
  0
LINE
  5
264
330
17
100
AcDbEntity
  8
4
100
AcDbLine
 10
1188.700820610748
 20
295.2043281472901
 30
0.0
 11
1188.700820610748
 21
289.1078550931423
 31
0.0
  0
LINE
  5
265
330
17
100
AcDbEntity
  8
4
100
AcDbLine
 10
1178.885866034524
 20
295.2043281472901
 30
0.0
 11
1178.885866034524
 21
289.1078550931423
 31
0.0
  0
ARC
  5
266
330
17
100
AcDbEntity
  8
4
100
AcDbCircle
 10
1191.154559254804
 20
292.324241164083
 30
0.0
 40
3.783613929059507
100
AcDbArc
 50
49.57010315517714
 51
130.4298968448228
  0
LINE
  5
267
330
17
100
AcDbEntity
  8
4
100
AcDbLine
 10
1226.793343322636
 20
314.2079510931425
 30
0.0
 11
1216.793343322636
 21
286.6078550931423
 31
0.0
  0
LINE
  5
268
330
17
100
AcDbEntity
  8
4
100
AcDbLine
 10
1153.793343322636
 20
340.2079510931425
 30
0.0
 11
1153.793343322636
 21
331.2079510931425
 31
0.0
  0
LINE
  5
269
330
17
100
AcDbEntity
  8
4
100
AcDbLine
 10
1142.793343322636
 20
330.2079510931425
 30
0.0
 11
1142.793343322636
 21
331.2079510931425
 31
0.0
  0
ARC
  5
26A
330
17
100
AcDbEntity
  8
4
100
AcDbCircle
 10
1133.135627322636
 20
327.2079510931425
 30
0.0
 40
2.99998
100
AcDbArc
 50
90.0
 51
165.9648910000001
  0
LINE
  5
26B
330
17
100
AcDbEntity
  8
4
100
AcDbLine
 10
1130.225227322636
 20
327.9354910931423
 30
0.0
 11
1126.793343322636
 21
314.2079510931425
 31
0.0
  0
LINE
  5
26C
330
17
100
AcDbEntity
  8
4
100
AcDbLine
 10
1173.978388746412
 20
286.6078550931423
 30
0.0
 11
1173.978388746412
 21
295.2043281472901
 31
0.0
  0
LINE
  5
26D
330
17
100
AcDbEntity
  8
4
100
AcDbLine
 10
1140.793343322636
 20
314.2079510931425
 30
0.0
 11
1150.793343322636
 21
286.6078550931423
 31
0.0
  0
ARC
  5
26E
330
17
100
AcDbEntity
  8
4
100
AcDbCircle
 10
1183.793343322636
 20
357.7079510931425
 30
0.0
 40
7.5
100
AcDbArc
 50
180.0
 51
270.0
  0
LINE
  5
26F
330
17
100
AcDbEntity
  8
4
100
AcDbLine
 10
1133.135627322636
 20
330.2079510931425
 30
0.0
 11
1234.451059322636
 21
330.2079510931425
 31
0.0
  0
LINE
  5
270
330
17
100
AcDbEntity
  8
4
100
AcDbLine
 10
1126.793343322636
 20
314.2079510931425
 30
0.0
 11
1240.793343322636
 21
314.2079510931425
 31
0.0
  0
LINE
  5
271
330
17
100
AcDbEntity
  8
4
100
AcDbLine
 10
1224.793343322636
 20
331.2079510931425
 30
0.0
 11
1142.793343322636
 21
331.2079510931425
 31
0.0
  0
LINE
  5
272
330
17
100
AcDbEntity
  8
4
100
AcDbLine
 10
1213.793343322636
 20
340.2079510931425
 30
0.0
 11
1153.793343322636
 21
340.2079510931425
 31
0.0
  0
LINE
  5
273
330
17
100
AcDbEntity
  8
4
100
AcDbLine
 10
1193.608297898859
 20
286.6078550931423
 30
0.0
 11
1173.978388746412
 21
286.6078550931423
 31
0.0
  0
ARC
  5
274
330
17
100
AcDbEntity
  8
4
100
AcDbCircle
 10
1176.432127390468
 20
292.324241164083
 30
0.0
 40
3.783613929059507
100
AcDbArc
 50
49.57010315516856
 51
130.4298968448315
  0
LINE
  5
275
330
17
100
AcDbEntity
  8
4
100
AcDbLine
 10
1176.432127390468
 20
296.1078550931423
 30
0.0
 11
1191.154559254803
 21
296.1078550931423
 31
0.0
  0
LINE
  5
276
330
17
100
AcDbEntity
  8
4
100
AcDbLine
 10
1193.608297898859
 20
289.1078550931423
 30
0.0
 11
1173.978388746412
 21
289.1078550931423
 31
0.0
  0
LINE
  5
277
330
17
100
AcDbEntity
  8
4
100
AcDbLine
 10
1058.793343322636
 20
311.2079510931425
 30
0.0
 11
1069.793343322636
 21
309.2079510931425
 31
0.0
  0
LINE
  5
278
330
17
100
AcDbEntity
  8
4
100
AcDbLine
 10
1047.793343322636
 20
309.2079510931425
 30
0.0
 11
1058.793343322636
 21
311.2079510931425
 31
0.0
  0
LINE
  5
279
330
17
100
AcDbEntity
  8
4
100
AcDbLine
 10
1047.793343322636
 20
309.2079510931425
 30
0.0
 11
1069.793343322635
 21
309.2079510931425
 31
0.0
  0
CIRCLE
  5
27A
330
17
100
AcDbEntity
  8
4
100
AcDbCircle
 10
1058.793343322636
 20
326.2079510931425
 30
0.0
 40
15.0
  0
LINE
  5
27B
330
17
100
AcDbEntity
  8
4
100
AcDbLine
 10
1078.793343322636
 20
297.8981390931425
 30
0.0
 11
1078.793343322636
 21
300.2079510931425
 31
0.0
  0
LINE
  5
27C
330
17
100
AcDbEntity
  8
4
100
AcDbLine
 10
1038.793343322636
 20
296.1078550931423
 30
0.0
 11
1038.793343322636
 21
300.2079510931425
 31
0.0
  0
ARC
  5
27D
330
17
100
AcDbEntity
  8
4
100
AcDbCircle
 10
1044.363253313341
 20
282.3286897956826
 30
0.0
 40
13.77916529745958
100
AcDbArc
 50
69.13593563608057
 51
110.8640643639194
  0
LINE
  5
27E
330
17
100
AcDbEntity
  8
4
100
AcDbLine
 10
1039.45577602523
 20
295.2043281472901
 30
0.0
 11
1039.45577602523
 21
289.1078550931423
 31
0.0
  0
LINE
  5
27F
330
17
100
AcDbEntity
  8
4
100
AcDbLine
 10
1049.270730601453
 20
295.2043281472901
 30
0.0
 11
1049.270730601453
 21
289.1078550931423
 31
0.0
  0
ARC
  5
280
330
17
100
AcDbEntity
  8
4
100
AcDbCircle
 10
1051.724469245509
 20
292.324241164083
 30
0.0
 40
3.783613929059507
100
AcDbArc
 50
49.57010315517714
 51
130.4298968448228
  0
LINE
  5
281
330
17
100
AcDbEntity
  8
4
100
AcDbLine
 10
1054.178207889565
 20
286.6078550931423
 30
0.0
 11
1054.178207889565
 21
295.2043281472901
 31
0.0
  0
LINE
  5
282
330
17
100
AcDbEntity
  8
4
100
AcDbLine
 10
1058.159971131714
 20
235.6941370264495
 30
0.0
 11
1060.700268302857
 21
245.1746551354778
 31
0.0
  0
LINE
  5
283
330
17
100
AcDbEntity
  8
4
100
AcDbLine
 10
1044.279529255943
 20
249.5745789022207
 30
0.0
 11
1041.7392320848
 21
240.0940607931922
 31
0.0
  0
LINE
  5
284
330
17
100
AcDbEntity
  8
4
100
AcDbLine
 10
1041.7392320848
 20
240.0940607931922
 30
0.0
 11
1048.679453022686
 21
233.1538398553065
 31
0.0
  0
LINE
  5
285
330
17
100
AcDbEntity
  8
4
100
AcDbLine
 10
1053.760047364972
 20
252.1148760733637
 30
0.0
 11
1044.279529255943
 21
249.5745789022207
 31
0.0
  0
CIRCLE
  5
286
330
17
100
AcDbEntity
  8
4
100
AcDbCircle
 10
1051.219750193829
 20
242.634357964335
 30
0.0
 40
8.5
  0
LINE
  5
287
330
17
100
AcDbEntity
  8
4
100
AcDbLine
 10
1048.679453022686
 20
233.1538398553065
 30
0.0
 11
1058.159971131714
 21
235.6941370264495
 31
0.0
  0
LINE
  5
288
330
17
100
AcDbEntity
  8
4
100
AcDbLine
 10
1060.700268302857
 20
245.1746551354778
 30
0.0
 11
1053.760047364972
 21
252.1148760733637
 31
0.0
  0
LINE
  5
289
330
17
100
AcDbEntity
  8
L-CENTER
 48
8.0
100
AcDbLine
 10
1044.363253313341
 20
262.8718757235088
 30
0.0
 11
1044.363253313341
 21
298.9758333477224
 31
0.0
  0
LINE
  5
28A
330
17
100
AcDbEntity
  8
4
100
AcDbLine
 10
1038.793343322636
 20
300.2079510931425
 30
0.0
 11
1078.793343322636
 21
300.2079510931425
 31
0.0
  0
LINE
  5
28B
330
17
100
AcDbEntity
  8
L-CENTER
 48
8.0
100
AcDbLine
 10
1058.793343322636
 20
278.9621030931424
 30
0.0
 11
1058.793343322636
 21
359.3291302392262
 31
0.0
  0
LINE
  5
28C
330
17
100
AcDbEntity
  8
4
100
AcDbLine
 10
1047.793343322636
 20
309.2079510931425
 30
0.0
 11
1046.293343322636
 21
300.2079510931425
 31
0.0
  0
ARC
  5
28D
330
17
100
AcDbEntity
  8
4
100
AcDbCircle
 10
1042.565726461116
 20
302.1733000452135
 30
0.0
 40
4.0
100
AcDbArc
 50
350.5376777919744
 51
55.97372733978618
  0
ARC
  5
28E
330
17
100
AcDbEntity
  8
4
100
AcDbCircle
 10
1075.020960184156
 20
302.1733000452138
 30
0.0
 40
4.0
100
AcDbArc
 50
124.0262726602211
 51
189.4623222080256
  0
LINE
  5
28F
330
17
100
AcDbEntity
  8
4
100
AcDbLine
 10
1069.793343322635
 20
309.2079510931425
 30
0.0
 11
1071.293343322636
 21
300.2079510931425
 31
0.0
  0
LINE
  5
290
330
17
100
AcDbEntity
  8
4
100
AcDbLine
 10
1034.548298737117
 20
295.2043281472901
 30
0.0
 11
1034.548298737117
 21
286.6078550931423
 31
0.0
  0
ARC
  5
291
330
17
100
AcDbEntity
  8
4
100
AcDbCircle
 10
1013.793343322636
 20
284.6078550931423
 30
0.0
 40
2.0
100
AcDbArc
 50
90.0
 51
180.0
  0
LINE
  5
292
330
17
100
AcDbEntity
  8
4
100
AcDbLine
 10
1009.793343322636
 20
270.2069750931422
 30
0.0
 11
1009.793343322636
 21
272.2079510931425
 31
0.0
  0
LINE
  5
293
330
17
100
AcDbEntity
  8
4
100
AcDbLine
 10
1011.793343322636
 20
272.2079510931425
 30
0.0
 11
1011.793343322636
 21
274.2079510931425
 31
0.0
  0
LINE
  5
294
330
17
100
AcDbEntity
  8
4
100
AcDbLine
 10
1011.793343322636
 20
284.6078550931423
 30
0.0
 11
1011.793343322636
 21
274.2079510931425
 31
0.0
  0
LINE
  5
295
330
17
100
AcDbEntity
  8
4
100
AcDbLine
 10
1002.793343322636
 20
270.1632750931425
 30
0.0
 11
1002.793343322636
 21
273.2079510931425
 31
0.0
  0
LINE
  5
296
330
17
100
AcDbEntity
  8
4
100
AcDbLine
 10
975.8474545604713
 20
240.0940607931922
 30
0.0
 11
973.307157389328
 21
249.574578902221
 31
0.0
  0
LINE
  5
297
330
17
100
AcDbEntity
  8
4
100
AcDbLine
 10
968.9072336225854
 20
233.1538398553066
 30
0.0
 11
975.8474545604713
 21
240.0940607931922
 31
0.0
  0
ARC
  5
298
330
17
100
AcDbEntity
  8
4
100
AcDbCircle
 10
1058.793343322636
 20
326.2079510931425
 30
0.0
 40
25.0
100
AcDbArc
 50
304.026272660216
 51
235.973727339784
  0
LINE
  5
299
330
17
100
AcDbEntity
  8
L-CENTER
 48
8.0
100
AcDbLine
 10
1025.672164176552
 20
326.2079510931425
 30
0.0
 11
1091.914522468719
 21
326.2079510931425
 31
0.0
  0
LINE
  5
29A
330
17
100
AcDbEntity
  8
4
100
AcDbLine
 10
1051.724469245509
 20
296.1078550931423
 30
0.0
 11
1037.002037381174
 21
296.1078550931423
 31
0.0
  0
LINE
  5
29B
330
17
100
AcDbEntity
  8
4
100
AcDbLine
 10
1034.548298737117
 20
289.1078550931423
 30
0.0
 11
1054.178207889565
 21
289.1078550931423
 31
0.0
  0
LINE
  5
29C
330
17
100
AcDbEntity
  8
4
100
AcDbLine
 10
1034.548298737117
 20
286.6078550931423
 30
0.0
 11
1054.178207889565
 21
286.6078550931423
 31
0.0
  0
ARC
  5
29D
330
17
100
AcDbEntity
  8
4
100
AcDbCircle
 10
1037.002037381174
 20
292.324241164083
 30
0.0
 40
3.783613929059507
100
AcDbArc
 50
49.57010315516856
 51
130.4298968448315
  0
LINE
  5
29E
330
17
100
AcDbEntity
  8
4
100
AcDbLine
 10
1058.159971131714
 20
164.7217651598356
 30
0.0
 11
1048.679453022686
 21
167.2620623309783
 31
0.0
  0
LINE
  5
29F
330
17
100
AcDbEntity
  8
4
100
AcDbLine
 10
1041.7392320848
 20
160.3218413930928
 30
0.0
 11
1044.279529255943
 21
150.8413232840639
 31
0.0
  0
LINE
  5
2A0
330
17
100
AcDbEntity
  8
4
100
AcDbLine
 10
1044.279529255943
 20
150.8413232840639
 30
0.0
 11
1053.760047364971
 21
148.3010261129212
 31
0.0
  0
LINE
  5
2A1
330
17
100
AcDbEntity
  8
4
100
AcDbLine
 10
1053.760047364971
 20
148.3010261129212
 30
0.0
 11
1060.700268302857
 21
155.2412470508068
 31
0.0
  0
ARC
  5
2A2
330
17
100
AcDbEntity
  8
4
100
AcDbCircle
 10
1048.793343322636
 20
107.2077070931426
 30
0.0
 40
25.0
100
AcDbArc
 50
0.0
 51
90.0
  0
LINE
  5
2A3
330
17
100
AcDbEntity
  8
L-CENTER
 48
8.0
100
AcDbLine
 10
1064.009392461122
 20
144.991901954656
 30
0.0
 11
1038.430107926535
 21
170.5711864892436
 31
0.0
  0
CIRCLE
  5
2A4
330
17
100
AcDbEntity
  8
4
100
AcDbCircle
 10
1051.219750193829
 20
157.7815442219497
 30
0.0
 40
8.5
  0
LINE
  5
2A5
330
17
100
AcDbEntity
  8
4
100
AcDbLine
 10
1060.700268302857
 20
155.2412470508068
 30
0.0
 11
1058.159971131714
 21
164.7217651598356
 31
0.0
  0
LINE
  5
2A6
330
17
100
AcDbEntity
  8
4
100
AcDbLine
 10
1048.679453022686
 20
167.2620623309783
 30
0.0
 11
1041.7392320848
 21
160.3218413930928
 31
0.0
  0
LINE
  5
2A7
330
17
100
AcDbEntity
  8
4
100
AcDbLine
 10
1003.793099322636
 20
221.7079510931425
 30
0.0
 11
1003.793099322636
 21
213.7079510931425
 31
0.0
  0
LINE
  5
2A8
330
17
100
AcDbEntity
  8
4
100
AcDbLine
 10
1013.793099322636
 20
221.7079510931425
 30
0.0
 11
1013.793099322636
 21
213.7079510931425
 31
0.0
  0
LINE
  5
2A9
330
17
100
AcDbEntity
  8
4
100
AcDbLine
 10
1013.793099322636
 20
213.7079510931425
 30
0.0
 11
1003.793099322636
 21
213.7079510931425
 31
0.0
  0
LINE
  5
2AA
330
17
100
AcDbEntity
  8
4
100
AcDbLine
 10
1003.793099322636
 20
221.7079510931425
 30
0.0
 11
1013.793099322636
 21
221.7079510931425
 31
0.0
  0
ARC
  5
2AB
330
17
100
AcDbEntity
  8
4
100
AcDbCircle
 10
1008.793099322636
 20
200.2079510931425
 30
0.0
 40
17.999892
100
AcDbArc
 50
106.1277199999998
 51
73.87228000000022
  0
ARC
  5
2AC
330
17
100
AcDbEntity
  8
4
100
AcDbCircle
 10
1003.793343322636
 20
125.2384670931423
 30
0.0
 40
4.999948000000001
100
AcDbArc
 50
0.0
 51
89.29216899999818
  0
LINE
  5
2AD
330
17
100
AcDbEntity
  8
4
100
AcDbLine
 10
973.3071573893285
 20
150.8413232840642
 30
0.0
 11
975.8474545604713
 21
160.3218413930924
 31
0.0
  0
LINE
  5
2AE
330
17
100
AcDbEntity
  8
4
100
AcDbLine
 10
975.8474545604713
 20
160.3218413930924
 30
0.0
 11
968.9072336225859
 21
167.2620623309783
 31
0.0
  0
CIRCLE
  5
2AF
330
17
100
AcDbEntity
  8
4
100
AcDbCircle
 10
1008.793343322636
 20
200.2079510931425
 30
0.0
 40
31.0
  0
LINE
  5
2B0
330
17
100
AcDbEntity
  8
4
100
AcDbLine
 10
1048.793343322636
 20
132.2077070931426
 30
0.0
 11
1025.405647322636
 21
132.2077070931426
 31
0.0
  0
LINE
  5
2B1
330
17
100
AcDbEntity
  8
L-CENTER
 48
8.0
100
AcDbLine
 10
1008.793343322636
 20
277.1636788039126
 30
0.0
 11
1008.793343322636
 21
123.2522233823723
 31
0.0
  0
LINE
  5
2B2
330
17
100
AcDbEntity
  8
L-CENTER
 48
8.0
100
AcDbLine
 10
1064.009392461122
 20
255.424000231629
 30
0.0
 11
1038.430107926535
 21
229.8447156970414
 31
0.0
  0
LINE
  5
2B3
330
17
100
AcDbEntity
  8
4
100
AcDbLine
 10
1054.178207889565
 20
289.5343159117891
 30
0.0
 11
1126.793343322636
 21
314.2079510931425
 31
0.0
  0
LINE
  5
2B4
330
17
100
AcDbEntity
  8
4
100
AcDbLine
 10
1139.518683322636
 20
270.2081950931423
 30
0.0
 11
1008.793343322636
 21
270.2081950931423
 31
0.0
  0
LINE
  5
2B5
330
17
100
AcDbEntity
  8
4
100
AcDbLine
 10
1237.793343322636
 20
75.20795109314247
 30
0.0
 11
1232.793343322636
 21
70.20795109314247
 31
0.0
  0
LINE
  5
2B6
330
17
100
AcDbEntity
  8
4
100
AcDbLine
 10
1230.722543322636
 20
75.20795109314247
 30
0.0
 11
1245.722543322636
 21
90.20795109314247
 31
0.0
  0
LINE
  5
2B7
330
17
100
AcDbEntity
  8
4
100
AcDbLine
 10
1129.793343322636
 20
75.20795109314247
 30
0.0
 11
1134.793343322636
 21
70.20795109314247
 31
0.0
  0
ARC
  5
2B8
330
17
100
AcDbEntity
  8
4
100
AcDbCircle
 10
1120.036263322636
 20
87.20795109314247
 30
0.0
 40
3.000012
100
AcDbArc
 50
90.0
 51
134.9999859999998
  0
LINE
  5
2B9
330
17
100
AcDbEntity
  8
4
100
AcDbLine
 10
1136.863899322636
 20
75.20795109314247
 30
0.0
 11
1121.863899322636
 21
90.20795109314247
 31
0.0
  0
LINE
  5
2BC
330
17
100
AcDbEntity
  8
4
100
AcDbLine
 10
1232.793343322636
 20
70.20795109314247
 30
0.0
 11
1134.793343322636
 21
70.20795109314247
 31
0.0
  0
LINE
  5
2BD
330
17
100
AcDbEntity
  8
4
100
AcDbLine
 10
1247.550423322636
 20
90.20795109314247
 30
0.0
 11
1120.036263322636
 21
90.20795109314247
 31
0.0
  0
ARC
  5
2BE
330
17
100
AcDbEntity
  8
4
100
AcDbCircle
 10
1098.793343322636
 20
63.13666309314237
 30
0.0
 40
4.999992
100
AcDbArc
 50
135.0019770000035
 51
180.0
  0
ARC
  5
2BF
330
17
100
AcDbEntity
  8
4
100
AcDbCircle
 10
1090.793343322636
 20
82.20795109314247
 30
0.0
 40
3.0
100
AcDbArc
 50
0.0
 51
90.0
  0
ARC
  5
2C0
330
17
100
AcDbEntity
  8
4
100
AcDbCircle
 10
1080.793343322636
 20
82.20795109314247
 30
0.0
 40
3.0
100
AcDbArc
 50
0.0
 51
90.0
  0
LINE
  5
2C1
330
17
100
AcDbEntity
  8
4
100
AcDbLine
 10
1093.793343322636
 20
82.20795109314247
 30
0.0
 11
1093.793343322636
 21
50.20795109314247
 31
0.0
  0
ARC
  5
2C4
330
17
100
AcDbEntity
  8
4
100
AcDbCircle
 10
1011.793343322636
 20
82.20795109314247
 30
0.0
 40
3.0
100
AcDbArc
 50
90.0
 51
180.0
  0
LINE
  5
2C7
330
17
100
AcDbEntity
  8
4
100
AcDbLine
 10
1090.793343322636
 20
85.20795109314247
 30
0.0
 11
1011.793343322636
 21
85.20795109314247
 31
0.0
  0
LINE
  5
2C8
330
17
100
AcDbEntity
  8
4
100
AcDbLine
 10
1093.793343322636
 20
50.20795109314247
 30
0.0
 11
1008.793343322636
 21
50.20795109314247
 31
0.0
  0
LINE
  5
2C9
330
17
100
AcDbEntity
  8
4
100
AcDbLine
 10
1095.257699322636
 20
66.67206309314258
 30
0.0
 11
1117.914927322636
 21
89.32928709314263
 31
0.0
  0
LINE
  5
2CA
330
17
100
AcDbEntity
  8
4
100
AcDbLine
 10
1103.793587322636
 20
75.20795109314247
 30
0.0
 11
1136.863899322636
 21
75.20795109314247
 31
0.0
  0
LINE
  5
2CB
330
17
100
AcDbEntity
  8
4
100
AcDbLine
 10
1073.793343322636
 20
132.2077070931426
 30
0.0
 11
1073.793343322636
 21
85.20795109314247
 31
0.0
  0
LINE
  5
2CC
330
17
100
AcDbEntity
  8
4
100
AcDbLine
 10
1008.793343322636
 20
125.2384670931423
 30
0.0
 11
1008.793343322636
 21
50.20795109314247
 31
0.0
  0
LINE
  5
2CD
330
17
100
AcDbEntity
  8
4
100
AcDbLine
 10
1083.793343322636
 20
132.2077070931426
 30
0.0
 11
1083.793343322636
 21
50.20795109314247
 31
0.0
  0
LINE
  5
2CE
330
17
100
AcDbEntity
  8
4
100
AcDbLine
 10
956.8864183424143
 20
245.1746551354781
 30
0.0
 11
959.4267155135572
 21
235.6941370264493
 31
0.0
  0
LINE
  5
2CF
330
17
100
AcDbEntity
  8
4
100
AcDbLine
 10
963.8266392802998
 20
252.1148760733637
 30
0.0
 11
956.8864183424143
 21
245.1746551354781
 31
0.0
  0
ARC
  5
2D0
330
17
100
AcDbEntity
  8
4
100
AcDbCircle
 10
948.432503322636
 20
260.5690350931426
 30
0.0
 40
5.000004
100
AcDbArc
 50
98.78806199999937
 51
171.2087460000003
  0
LINE
  5
2D1
330
17
100
AcDbEntity
  8
4
100
AcDbLine
 10
952.7933433226358
 20
266.2687430931427
 30
0.0
 11
952.7933433226358
 21
273.2079510931425
 31
0.0
  0
LINE
  5
2D2
330
17
100
AcDbEntity
  8
4
100
AcDbLine
 10
956.8864183424143
 20
155.2412470508068
 30
0.0
 11
963.8266392802998
 21
148.3010261129211
 31
0.0
  0
ARC
  5
2D3
330
17
100
AcDbEntity
  8
4
100
AcDbCircle
 10
948.432503322636
 20
139.8468670931424
 30
0.0
 40
5.000004
100
AcDbArc
 50
188.7912539999997
 51
261.2119359999982
  0
LINE
  5
2D4
330
17
100
AcDbEntity
  8
4
100
AcDbLine
 10
959.4267155135572
 20
164.7217651598353
 30
0.0
 11
956.8864183424143
 21
155.2412470508068
 31
0.0
  0
ARC
  5
2D5
330
17
100
AcDbEntity
  8
4
100
AcDbCircle
 10
1338.793343322636
 20
200.2079510931425
 30
0.0
 40
399.999996
100
AcDbArc
 50
171.210439
 51
188.790021
  0
LINE
  5
2D9
330
17
100
AcDbEntity
  8
4
100
AcDbLine
 10
758.0363020635082
 20
218.2079510931425
 30
0.0
 11
759.0363020635082
 21
217.2079510931425
 31
0.0
  0
LINE
  5
2DA
330
17
100
AcDbEntity
  8
4
100
AcDbLine
 10
758.0363020635082
 20
182.2079510931425
 30
0.0
 11
759.0363020635082
 21
183.2079510931425
 31
0.0
  0
LINE
  5
2DB
330
17
100
AcDbEntity
  8
4
100
AcDbLine
 10
758.0363020635082
 20
218.2079510931425
 30
0.0
 11
758.0363020635082
 21
182.2079510931425
 31
0.0
  0
LINE
  5
2DC
330
17
100
AcDbEntity
  8
4
100
AcDbLine
 10
759.0363020635082
 20
223.7079510931425
 30
0.0
 11
759.0363020635082
 21
183.2079510931425
 31
0.0
  0
TEXT
  5
2E2
330
17
100
AcDbEntity
  8
3
100
AcDbText
 10
806.7393154640389
 20
20.09580344177658
 30
0.0
 40
12.0
  1
LC7-04
  7
KANJI
 72
     1
 11
839.7393154640389
 21
20.09580344177658
 31
0.0
100
AcDbText
  0
CIRCLE
  5
2E4
330
17
100
AcDbEntity
  8
4
100
AcDbCircle
 10
1008.793343322636
 20
200.2079510931425
 30
0.0
 40
70.0
  0
CIRCLE
  5
2E5
330
17
100
AcDbEntity
  8
L-CENTER
 48
8.0
100
AcDbCircle
 10
1008.793343322636
 20
200.2079510931425
 30
0.0
 40
60.0
  0
ARC
  5
2E6
330
17
100
AcDbEntity
  8
4
100
AcDbCircle
 10
1008.793343322636
 20
530.2077070931426
 30
0.0
 40
399.999964
100
AcDbArc
 50
261.2104389999999
 51
269.293052
  0
LINE
  5
2E7
330
17
100
AcDbEntity
  8
L-CENTER
 48
8.0
100
AcDbLine
 10
953.5772941841492
 20
144.9919019546559
 30
0.0
 11
979.1565787187369
 21
170.5711864892434
 31
0.0
  0
ARC
  5
2E8
330
17
100
AcDbEntity
  8
4
100
AcDbCircle
 10
1008.793343322636
 20
-129.7918049068577
 30
0.0
 40
400.000016
100
AcDbArc
 50
89.99996499999996
 51
98.790056
  0
LINE
  5
2E9
330
17
100
AcDbEntity
  8
L-CENTER
 48
8.0
100
AcDbLine
 10
953.5772941841492
 20
255.4240002316291
 30
0.0
 11
979.1565787187369
 21
229.8447156970416
 31
0.0
  0
LINE
  5
2EA
330
17
100
AcDbEntity
  8
4
100
AcDbLine
 10
952.7933433226358
 20
273.2079510931425
 30
0.0
 11
1002.793343322636
 21
273.2079510931425
 31
0.0
  0
CIRCLE
  5
2EB
330
17
100
AcDbEntity
  8
4
100
AcDbCircle
 10
966.3669364514426
 20
242.6343579643351
 30
0.0
 40
8.5
  0
LINE
  5
2EC
330
17
100
AcDbEntity
  8
4
100
AcDbLine
 10
959.4267155135572
 20
235.6941370264493
 30
0.0
 11
968.9072336225854
 21
233.1538398553066
 31
0.0
  0
LINE
  5
2ED
330
17
100
AcDbEntity
  8
4
100
AcDbLine
 10
973.307157389328
 20
249.574578902221
 30
0.0
 11
963.8266392802998
 21
252.1148760733637
 31
0.0
  0
CIRCLE
  5
2EE
330
17
100
AcDbEntity
  8
4
100
AcDbCircle
 10
966.3669364514426
 20
157.7815442219496
 30
0.0
 40
8.5
  0
LINE
  5
2EF
330
17
100
AcDbEntity
  8
4
100
AcDbLine
 10
963.8266392802998
 20
148.3010261129211
 30
0.0
 11
973.3071573893285
 21
150.8413232840642
 31
0.0
  0
LINE
  5
2F0
330
17
100
AcDbEntity
  8
4
100
AcDbLine
 10
968.9072336225859
 20
167.2620623309783
 30
0.0
 11
959.4267155135572
 21
164.7217651598353
 31
0.0
  0
ARC
  5
2F3
330
17
100
AcDbEntity
  8
4
100
AcDbCircle
 10
1247.550423322636
 20
87.20795109314247
 30
0.0
 40
3.000012
100
AcDbArc
 50
44.99999999999232
 51
90.0
  0
LINE
  5
2F4
330
17
100
AcDbEntity
  8
4
100
AcDbLine
 10
1263.793099322636
 20
75.20795109314247
 30
0.0
 11
1230.722543322636
 21
75.20795109314247
 31
0.0
  0
LINE
  5
2F6
330
17
100
AcDbEntity
  8
4
100
AcDbLine
 10
1313.408478755706
 20
289.5343159117892
 30
0.0
 11
1240.793343322636
 21
314.2079510931425
 31
0.0
  0
LINE
  5
2F7
330
17
100
AcDbEntity
  8
4
100
AcDbLine
 10
1357.793343322636
 20
272.2079510931425
 30
0.0
 11
1009.793343322636
 21
272.2079510931425
 31
0.0
  0
LINE
  5
2F8
330
17
100
AcDbEntity
  8
4
100
AcDbLine
 10
1355.793343322636
 20
274.2079510931425
 30
0.0
 11
1011.793343322636
 21
274.2079510931425
 31
0.0
  0
LINE
  5
2F9
330
17
100
AcDbEntity
  8
4
100
AcDbLine
 10
1353.793343322636
 20
286.6078550931423
 30
0.0
 11
1013.793343322636
 21
286.6078550931423
 31
0.0
  0
LINE
  5
2FA
330
17
100
AcDbEntity
  8
L-CENTER
 48
8.0
100
AcDbLine
 10
1380.249719856631
 20
200.2079510931425
 30
0.0
 11
931.8376156118657
 21
200.2079510931425
 31
0.0
  0
LINE
  5
2FC
330
17
100
AcDbEntity
  8
L-CENTER
 48
8.0
100
AcDbLine
 10
1183.793343322636
 20
446.1187328479348
 30
0.0
 11
1183.793343322636
 21
62.25989731076277
 31
0.0
  0
LINE
  5
301
330
17
100
AcDbEntity
  8
4
100
AcDbLine
 10
1212.793343322636
 20
439.2079510931425
 30
0.0
 11
1212.793343322636
 21
340.2079510931425
 31
0.0
  0
LINE
  5
302
330
17
100
AcDbEntity
  8
4
100
AcDbLine
 10
1176.293343322636
 20
357.7079510931425
 30
0.0
 11
1176.293343322636
 21
440.2079510931425
 31
0.0
  0
LINE
  5
303
330
17
100
AcDbEntity
  8
4
100
AcDbLine
 10
1191.293343322636
 20
357.7079510931425
 30
0.0
 11
1191.293343322636
 21
440.2079510931425
 31
0.0
  0
LINE
  5
304
330
17
100
AcDbEntity
  8
4
100
AcDbLine
 10
1154.793343322636
 20
439.2079510931425
 30
0.0
 11
1154.793343322636
 21
340.2079510931425
 31
0.0
  0
ARC
  5
308
330
17
100
AcDbEntity
  8
4
100
AcDbCircle
 10
674.0363020635082
 20
1051.872049496923
 30
0.0
 40
5.0
100
AcDbArc
 50
0.0
 51
90.0
  0
LINE
  5
309
330
17
100
AcDbEntity
  8
4
100
AcDbLine
 10
674.0363020635082
 20
1056.872049496923
 30
0.0
 11
563.977786069117
 21
1056.872049496923
 31
0.0
  0
ARC
  5
30A
330
17
100
AcDbEntity
  8
4
100
AcDbCircle
 10
625.7837798579199
 20
1029.619527291335
 30
0.0
 40
5.0
100
AcDbArc
 50
17.24507909832826
 51
72.75492090167175
  0
LINE
  5
30B
330
17
100
AcDbEntity
  8
4
100
AcDbLine
 10
559.0363020635082
 20
1052.775265860761
 30
0.0
 11
559.0363020635082
 21
1052.872049496923
 31
0.0
  0
ARC
  5
30C
330
17
100
AcDbEntity
  8
4
100
AcDbCircle
 10
557.0363020635082
 20
1052.775265860761
 30
0.0
 40
2.0
100
AcDbArc
 50
261.061252144319
 51
352.5864041388693
  0
LINE
  5
30D
330
17
100
AcDbEntity
  8
4
100
AcDbLine
 10
499.0363020635091
 20
1059.872049496923
 30
0.0
 11
499.0363020635091
 21
1058.389746093962
 31
0.0
  0
ARC
  5
30E
330
17
100
AcDbEntity
  8
4
100
AcDbCircle
 10
501.0363020635091
 20
1058.389746093962
 30
0.0
 40
2.0
100
AcDbArc
 50
180.0
 51
267.4882251241377
  0
LINE
  5
30F
330
17
100
AcDbEntity
  8
4
100
AcDbLine
 10
459.0363020635082
 20
1059.872049496923
 30
0.0
 11
459.0363020635082
 21
1058.389746093962
 31
0.0
  0
ARC
  5
310
330
17
100
AcDbEntity
  8
4
100
AcDbCircle
 10
457.0363020635082
 20
1058.389746093962
 30
0.0
 40
2.0
100
AcDbArc
 50
272.5117748758622
 51
0.0
  0
LINE
  5
311
330
17
100
AcDbEntity
  8
4
100
AcDbLine
 10
479.0363020635082
 20
1059.872049496923
 30
0.0
 11
459.0363020635082
 21
1059.872049496923
 31
0.0
  0
LINE
  5
312
330
17
100
AcDbEntity
  8
4
100
AcDbLine
 10
479.0363020635091
 20
1059.872049496923
 30
0.0
 11
499.0363020635091
 21
1059.872049496923
 31
0.0
  0
ARC
  5
313
330
17
100
AcDbEntity
  8
4
100
AcDbCircle
 10
563.977786069117
 20
1051.872049496923
 30
0.0
 40
5.0
100
AcDbArc
 50
90.0
 51
172.5864041388691
  0
LINE
  5
314
330
17
100
AcDbEntity
  8
4
100
AcDbLine
 10
666.0281764399347
 20
983.743204815747
 30
0.0
 11
666.0281764399347
 21
992.1053436098696
 31
0.0
  0
ARC
  5
315
330
17
100
AcDbEntity
  8
4
100
AcDbCircle
 10
674.0363020635082
 20
986.618394113837
 30
0.0
 40
5.0
100
AcDbArc
 50
286.313839659767
 51
0.0
  0
LINE
  5
316
330
17
100
AcDbEntity
  8
4
100
AcDbLine
 10
640.7368471168943
 20
992.872049496923
 30
0.0
 11
664.0363020635082
 21
992.872049496923
 31
0.0
  0
LINE
  5
317
330
17
100
AcDbEntity
  8
4
100
AcDbLine
 10
642.9342506201451
 20
982.872049496923
 30
0.0
 11
664.0363020635082
 21
982.872049496923
 31
0.0
  0
ARC
  5
318
330
17
100
AcDbEntity
  8
4
100
AcDbCircle
 10
650.579679334513
 20
969.333530711172
 30
0.0
 40
5.0
100
AcDbArc
 50
106.313839659779
 51
189.8582281160408
  0
LINE
  5
319
330
17
100
AcDbEntity
  8
4
100
AcDbLine
 10
649.1751866373893
 20
974.1322180591587
 30
0.0
 11
675.4407947606319
 21
981.8197067658502
 31
0.0
  0
ARC
  5
31A
330
17
100
AcDbEntity
  8
4
100
AcDbCircle
 10
664.0363020635082
 20
980.872049496923
 30
0.0
 40
2.0
100
AcDbArc
 50
9.325796806966256
 51
90.0
  0
ARC
  5
31B
330
17
100
AcDbEntity
  8
4
100
AcDbCircle
 10
664.0363020635082
 20
994.872049496923
 30
0.0
 40
2.0
100
AcDbArc
 50
270.0
 51
350.6742031930337
  0
LINE
  5
31C
330
17
100
AcDbEntity
  8
L-CENTER
 48
8.0
100
AcDbLine
 10
632.6596854080913
 20
1027.872049496923
 30
0.0
 11
675.4129187189242
 21
1027.872049496923
 31
0.0
  0
LINE
  5
31D
330
17
100
AcDbEntity
  8
4
100
AcDbLine
 10
568.0363020635077
 20
1017.394662218106
 30
0.0
 11
568.0363020635077
 21
1027.20961679433
 31
0.0
  0
ARC
  5
31E
330
17
100
AcDbEntity
  8
4
100
AcDbCircle
 10
621.4478291183682
 20
919.3131933031054
 30
0.0
 40
3.0
100
AcDbArc
 50
263.8219690802268
 51
14.35321688727734
  0
LINE
  5
31F
330
17
100
AcDbEntity
  8
4
100
AcDbLine
 10
648.5363020635082
 20
877.9645722088108
 30
0.0
 11
648.5363020635082
 21
887.7795267850347
 31
0.0
  0
LINE
  5
320
330
17
100
AcDbEntity
  8
4
100
AcDbLine
 10
631.5363020635082
 20
887.7795267850347
 30
0.0
 11
631.5363020635082
 21
877.9645722088108
 31
0.0
  0
LINE
  5
321
330
17
100
AcDbEntity
  8
4
100
AcDbLine
 10
631.5363020635082
 20
877.9645722088108
 30
0.0
 11
640.0363020635082
 21
873.057094920699
 31
0.0
  0
LINE
  5
322
330
17
100
AcDbEntity
  8
4
100
AcDbLine
 10
640.0363020635082
 20
873.057094920699
 30
0.0
 11
648.5363020635082
 21
877.9645722088108
 31
0.0
  0
LINE
  5
323
330
17
100
AcDbEntity
  8
4
100
AcDbLine
 10
666.0281764399347
 20
782.0008941780984
 30
0.0
 11
666.0281764399347
 21
773.6387553839759
 31
0.0
  0
ARC
  5
324
330
17
100
AcDbEntity
  8
4
100
AcDbCircle
 10
669.6526881344494
 20
757.6596723002831
 30
0.0
 40
3.783613929059507
100
AcDbArc
 50
319.5701031551734
 51
40.42989684483145
  0
LINE
  5
325
330
17
100
AcDbEntity
  8
4
100
AcDbLine
 10
672.5327751176565
 20
755.2059336562274
 30
0.0
 11
666.4363020635087
 21
755.2059336562274
 31
0.0
  0
ARC
  5
326
330
17
100
AcDbEntity
  8
4
100
AcDbCircle
 10
674.0363020635082
 20
779.1257048800085
 30
0.0
 40
5.0
100
AcDbArc
 50
0.0
 51
73.68616034023333
  0
LINE
  5
327
330
17
100
AcDbEntity
  8
4
100
AcDbLine
 10
643.0363020635073
 20
782.872049496923
 30
0.0
 11
664.0363020635082
 21
782.872049496923
 31
0.0
  0
ARC
  5
328
330
17
100
AcDbEntity
  8
4
100
AcDbCircle
 10
650.579679334513
 20
796.4105682826735
 30
0.0
 40
5.0
100
AcDbArc
 50
170.1417718839646
 51
253.6861603402222
  0
LINE
  5
329
330
17
100
AcDbEntity
  8
4
100
AcDbLine
 10
663.9363020635087
 20
772.872049496923
 30
0.0
 11
664.0363020635082
 21
772.872049496923
 31
0.0
  0
LINE
  5
32A
330
17
100
AcDbEntity
  8
4
100
AcDbLine
 10
648.0363020635073
 20
777.8720494969225
 30
0.0
 11
662.9363020635087
 21
777.8720494969225
 31
0.0
  0
ARC
  5
32B
330
17
100
AcDbEntity
  8
4
100
AcDbCircle
 10
662.9363020635087
 20
776.8720494969225
 30
0.0
 40
1.0
100
AcDbArc
 50
0.0
 51
90.0
  0
ARC
  5
32C
330
17
100
AcDbEntity
  8
4
100
AcDbCircle
 10
648.0363020635073
 20
782.8720494969225
 30
0.0
 40
5.0
100
AcDbArc
 50
168.5788137250024
 51
270.0
  0
ARC
  5
32D
330
17
100
AcDbEntity
  8
4
100
AcDbCircle
 10
664.0363020635082
 20
770.872049496923
 30
0.0
 40
2.0
100
AcDbArc
 50
9.325796806966256
 51
90.0
  0
LINE
  5
32E
330
17
100
AcDbEntity
  8
4
100
AcDbLine
 10
649.1751866373893
 20
791.6118809346867
 30
0.0
 11
675.4407947606319
 21
783.9243922279952
 31
0.0
  0
ARC
  5
32F
330
17
100
AcDbEntity
  8
4
100
AcDbCircle
 10
664.0363020635082
 20
784.872049496923
 30
0.0
 40
2.0
100
AcDbArc
 50
270.0
 51
350.6742031930337
  0
LINE
  5
330
330
17
100
AcDbEntity
  8
4
100
AcDbLine
 10
663.9363020635087
 20
760.1134109443392
 30
0.0
 11
672.5327751176565
 21
760.1134109443392
 31
0.0
  0
LINE
  5
331
330
17
100
AcDbEntity
  8
L-CENTER
 48
8.0
100
AcDbLine
 10
641.6751339547873
 20
750.2984563681157
 30
0.0
 11
676.3042803180888
 21
750.2984563681157
 31
0.0
  0
ARC
  5
332
330
17
100
AcDbEntity
  8
4
100
AcDbCircle
 10
621.4478291183682
 20
846.4309056907396
 30
0.0
 40
3.0
100
AcDbArc
 50
345.6467831127227
 51
96.17803091977315
  0
CIRCLE
  5
333
330
17
100
AcDbEntity
  8
4
100
AcDbCircle
 10
640.0363020635082
 20
882.8720494969225
 30
0.0
 40
8.5
  0
LINE
  5
334
330
17
100
AcDbEntity
  8
4
100
AcDbLine
 10
640.0363020635082
 20
892.6870040731465
 30
0.0
 11
631.5363020635082
 21
887.7795267850347
 31
0.0
  0
LINE
  5
335
330
17
100
AcDbEntity
  8
4
100
AcDbLine
 10
648.5363020635082
 20
887.7795267850347
 30
0.0
 11
640.0363020635082
 21
892.6870040731465
 31
0.0
  0
LINE
  5
336
330
17
100
AcDbEntity
  8
4
100
AcDbLine
 10
551.0363020635077
 20
1027.20961679433
 30
0.0
 11
551.0363020635077
 21
1017.394662218106
 31
0.0
  0
LINE
  5
337
330
17
100
AcDbEntity
  8
4
100
AcDbLine
 10
551.0363020635077
 20
1017.394662218106
 30
0.0
 11
559.5363020635077
 21
1012.487184929994
 31
0.0
  0
ARC
  5
338
330
17
100
AcDbEntity
  8
4
100
AcDbCircle
 10
539.0911487559829
 20
932.2514087744653
 30
0.0
 40
7.0
100
AcDbArc
 50
189.1358623749507
 51
263.8219690802366
  0
ARC
  5
339
330
17
100
AcDbEntity
  8
4
100
AcDbCircle
 10
527.141226235281
 20
930.9769736686958
 30
0.0
 40
5.0
100
AcDbArc
 50
9.25832853322355
 51
80.74167146677668
  0
ARC
  5
33A
330
17
100
AcDbEntity
  8
4
100
AcDbCircle
 10
479.0363020635082
 20
635.8720494969225
 30
0.0
 40
304.0
100
AcDbArc
 50
80.74167146677688
 51
80.86413762504955
  0
ARC
  5
33B
330
17
100
AcDbEntity
  8
4
100
AcDbCircle
 10
232.0363020635082
 20
882.8720494969225
 30
0.0
 40
304.0
100
AcDbArc
 50
9.135862374950445
 51
9.258328533223192
  0
ARC
  5
33C
330
17
100
AcDbEntity
  8
4
100
AcDbCircle
 10
523.6441543488786
 20
927.4799017822934
 30
0.0
 40
5.0
100
AcDbArc
 50
8.69723161564697
 51
81.30276838435324
  0
ARC
  5
33D
330
17
100
AcDbEntity
  8
4
100
AcDbCircle
 10
528.415661341051
 20
942.9268961893977
 30
0.0
 40
7.0
100
AcDbArc
 50
186.178030919767
 51
260.8641376250494
  0
LINE
  5
33E
330
17
100
AcDbEntity
  8
4
100
AcDbLine
 10
512.4948689655375
 20
1024.960722078668
 30
0.0
 11
521.456315231359
 21
942.1735690854644
 31
0.0
  0
ARC
  5
33F
330
17
100
AcDbEntity
  8
4
100
AcDbCircle
 10
479.0363020635082
 20
1007.872049496931
 30
0.0
 40
11.0
100
AcDbArc
 50
117.0356917894128
 51
242.964308210587
  0
ARC
  5
340
330
17
100
AcDbEntity
  8
4
100
AcDbCircle
 10
479.0363020635082
 20
1007.872049496931
 30
0.0
 40
12.5
100
AcDbArc
 50
113.578178478202
 51
246.4218215217978
  0
ARC
  5
341
330
17
100
AcDbEntity
  8
4
100
AcDbCircle
 10
479.0363020635082
 20
987.8720494969311
 30
0.0
 40
5.0
100
AcDbArc
 50
180.0
 51
0.0
  0
LINE
  5
342
330
17
100
AcDbEntity
  8
4
100
AcDbLine
 10
484.0363020635082
 20
1027.872049496931
 30
0.0
 11
484.0363020635082
 21
987.8720494969311
 31
0.0
  0
LINE
  5
343
330
17
100
AcDbEntity
  8
4
100
AcDbLine
 10
474.0363020635082
 20
1027.872049496931
 30
0.0
 11
474.0363020635082
 21
987.8720494969311
 31
0.0
  0
ARC
  5
344
330
17
100
AcDbEntity
  8
4
100
AcDbCircle
 10
479.0363020635082
 20
1007.872049496923
 30
0.0
 40
20.0
100
AcDbArc
 50
104.4775121859298
 51
255.5224878140699
  0
ARC
  5
345
330
17
100
AcDbEntity
  8
4
100
AcDbCircle
 10
434.4284497781373
 20
927.4799017822934
 30
0.0
 40
5.0
100
AcDbArc
 50
98.6972316156461
 51
171.3027683843532
  0
ARC
  5
346
330
17
100
AcDbEntity
  8
4
100
AcDbCircle
 10
726.0363020635082
 20
882.8720494969225
 30
0.0
 40
304.0
100
AcDbArc
 50
170.7416714667768
 51
170.8641376250496
  0
ARC
  5
347
330
17
100
AcDbEntity
  8
4
100
AcDbCircle
 10
430.9313778917349
 20
930.9769736686958
 30
0.0
 40
5.0
100
AcDbArc
 50
96.10583124430215
 51
170.7416714667766
  0
ARC
  5
348
330
17
100
AcDbEntity
  8
4
100
AcDbCircle
 10
429.654994664385
 20
942.908899156937
 30
0.0
 40
7.0
100
AcDbArc
 50
276.1058312442983
 51
353.821969080233
  0
LINE
  5
349
330
17
100
AcDbEntity
  8
4
100
AcDbLine
 10
445.5777351614784
 20
1024.960722078668
 30
0.0
 11
436.6143407740765
 21
942.1555720530037
 31
0.0
  0
ARC
  5
34A
330
17
100
AcDbEntity
  8
4
100
AcDbCircle
 10
479.0363020635082
 20
635.8720494969225
 30
0.0
 40
300.0
100
AcDbArc
 50
81.30276838435314
 51
98.69723161564696
  0
ARC
  5
34B
330
17
100
AcDbEntity
  8
4
100
AcDbCircle
 10
479.0363020635082
 20
635.8720494969225
 30
0.0
 40
304.0
100
AcDbArc
 50
80.98726988084766
 51
99.07963110525684
  0
LINE
  5
34C
330
17
100
AcDbEntity
  8
L-CENTER
 48
8.0
100
AcDbLine
 10
509.2474286559082
 20
1007.872049496923
 30
0.0
 11
448.8251754711082
 21
1007.872049496923
 31
0.0
  0
ARC
  5
34D
330
17
100
AcDbEntity
  8
4
100
AcDbCircle
 10
479.0363020635082
 20
1007.872049496923
 30
0.0
 40
20.0
100
AcDbArc
 50
284.4775121859312
 51
75.52248781407022
  0
ARC
  5
34E
330
17
100
AcDbEntity
  8
4
100
AcDbCircle
 10
479.0363020635082
 20
1007.872049496931
 30
0.0
 40
11.0
100
AcDbArc
 50
297.0356917894127
 51
62.96430821058726
  0
ARC
  5
34F
330
17
100
AcDbEntity
  8
4
100
AcDbCircle
 10
479.0363020635082
 20
1007.872049496931
 30
0.0
 40
12.5
100
AcDbArc
 50
293.5781784782019
 51
66.42182152179805
  0
ARC
  5
350
330
17
100
AcDbEntity
  8
4
100
AcDbCircle
 10
527.141226235281
 20
834.7671253251492
 30
0.0
 40
5.0
100
AcDbArc
 50
276.105831244302
 51
353.8941687557032
  0
ARC
  5
351
330
17
100
AcDbEntity
  8
4
100
AcDbCircle
 10
539.0731517235226
 20
833.4907420977993
 30
0.0
 40
7.0
100
AcDbArc
 50
96.17803091976711
 51
173.8941687556979
  0
ARC
  5
352
330
17
100
AcDbEntity
  8
4
100
AcDbCircle
 10
528.4176094626314
 20
822.835199836908
 30
0.0
 40
7.0
100
AcDbArc
 50
96.1058312443021
 51
173.821969080233
  0
ARC
  5
353
330
17
100
AcDbEntity
  8
4
100
AcDbCircle
 10
523.6441543488786
 20
838.2641972115516
 30
0.0
 40
5.0
100
AcDbArc
 50
278.6972316156469
 51
351.302768384353
  0
LINE
  5
354
330
17
100
AcDbEntity
  8
4
100
AcDbLine
 10
559.5363020635077
 20
753.2569140638516
 30
0.0
 11
551.0363020635077
 21
748.3494367757398
 31
0.0
  0
LINE
  5
355
330
17
100
AcDbEntity
  8
4
100
AcDbLine
 10
503.0363020635082
 20
890.3720494969225
 30
0.0
 11
503.0363020635082
 21
875.3720494969225
 31
0.0
  0
LINE
  5
356
330
17
100
AcDbEntity
  8
4
100
AcDbLine
 10
513.0363020635082
 20
890.3720494969225
 30
0.0
 11
513.0363020635082
 21
875.3720494969225
 31
0.0
  0
LINE
  5
357
330
17
100
AcDbEntity
  8
4
100
AcDbLine
 10
513.0363020635082
 20
890.3720494969225
 30
0.0
 11
503.0363020635082
 21
890.3720494969225
 31
0.0
  0
LINE
  5
358
330
17
100
AcDbEntity
  8
4
100
AcDbLine
 10
503.0363020635082
 20
875.3720494969225
 30
0.0
 11
513.0363020635082
 21
875.3720494969225
 31
0.0
  0
ARC
  5
359
330
17
100
AcDbEntity
  8
4
100
AcDbCircle
 10
479.0363020635082
 20
1129.872049496923
 30
0.0
 40
304.0
100
AcDbArc
 50
260.7416714667768
 51
260.8641376250495
  0
ARC
  5
35A
330
17
100
AcDbEntity
  8
4
100
AcDbCircle
 10
430.9313778917349
 20
834.7671253251492
 30
0.0
 40
5.0
100
AcDbArc
 50
186.1058312442968
 51
260.7416714667765
  0
ARC
  5
35B
330
17
100
AcDbEntity
  8
4
100
AcDbCircle
 10
434.4284497781373
 20
838.2641972115516
 30
0.0
 40
5.0
100
AcDbArc
 50
188.6972316156468
 51
261.3027683843531
  0
ARC
  5
35C
330
17
100
AcDbEntity
  8
4
100
AcDbCircle
 10
429.6569427859654
 20
822.8172028044473
 30
0.0
 40
7.0
100
AcDbArc
 50
6.178030919767034
 51
80.86413762504985
  0
ARC
  5
35D
330
17
100
AcDbEntity
  8
4
100
AcDbCircle
 10
479.0363020635082
 20
757.8720494969148
 30
0.0
 40
11.0
100
AcDbArc
 50
117.0356917894128
 51
242.964308210587
  0
ARC
  5
35E
330
17
100
AcDbEntity
  8
4
100
AcDbCircle
 10
479.0363020635082
 20
777.8720494969148
 30
0.0
 40
5.0
100
AcDbArc
 50
0.0
 51
180.0
  0
ARC
  5
35F
330
17
100
AcDbEntity
  8
4
100
AcDbCircle
 10
479.0363020635082
 20
1129.872049496923
 30
0.0
 40
300.0
100
AcDbArc
 50
261.3027683843531
 51
278.6972316156469
  0
ARC
  5
360
330
17
100
AcDbEntity
  8
4
100
AcDbCircle
 10
479.0363020635082
 20
1129.872049496923
 30
0.0
 40
304.0
100
AcDbArc
 50
261.0002099107622
 51
279.1400523637051
  0
LINE
  5
361
330
17
100
AcDbEntity
  8
L-CENTER
 48
8.0
100
AcDbLine
 10
509.2474286559213
 20
757.872049496918
 30
0.0
 11
448.8251754711082
 21
757.8720494969111
 31
0.0
  0
ARC
  5
362
330
17
100
AcDbEntity
  8
4
100
AcDbCircle
 10
479.0363020635082
 20
757.8720494969148
 30
0.0
 40
11.0
100
AcDbArc
 50
297.0356917894127
 51
62.96430821058726
  0
ARC
  5
363
330
17
100
AcDbEntity
  8
4
100
AcDbCircle
 10
232.0363020635082
 20
882.8720494969225
 30
0.0
 40
300.0
100
AcDbArc
 50
351.3027683843529
 51
8.697231615646887
  0
ARC
  5
364
330
17
100
AcDbEntity
  8
4
100
AcDbCircle
 10
232.0363020635082
 20
882.8720494969225
 30
0.0
 40
304.0
100
AcDbArc
 50
351.0736358343416
 51
8.967030323081637
  0
ARC
  5
365
330
17
100
AcDbEntity
  8
4
100
AcDbCircle
 10
726.0363020635082
 20
882.8720494969225
 30
0.0
 40
300.0
100
AcDbArc
 50
171.3027683843531
 51
188.6972316156469
  0
ARC
  5
366
330
17
100
AcDbEntity
  8
4
100
AcDbCircle
 10
726.0363020635082
 20
882.8720494969225
 30
0.0
 40
304.0
100
AcDbArc
 50
171.0421033218041
 51
189.0426854594578
  0
CIRCLE
  5
367
330
17
100
AcDbEntity
  8
4
100
AcDbCircle
 10
479.0363020635082
 20
882.8720494969239
 30
0.0
 40
42.5
  0
ARC
  5
368
330
17
100
AcDbEntity
  8
4
100
AcDbCircle
 10
479.0363020635082
 20
882.8720494969225
 30
0.0
 40
29.000004
100
AcDbArc
 50
14.98823236647806
 51
345.0117690000001
  0
LINE
  5
369
330
17
100
AcDbEntity
  8
4
100
AcDbLine
 10
621.1249746452536
 20
916.3306163989519
 30
0.0
 11
538.33782165205
 21
925.2920626647738
 31
0.0
  0
LINE
  5
36A
330
17
100
AcDbEntity
  8
4
100
AcDbLine
 10
621.1249746452536
 20
849.4134825948931
 30
0.0
 11
538.3198246195893
 21
840.4500882074908
 31
0.0
  0
LINE
  5
36B
330
17
100
AcDbEntity
  8
4
100
AcDbLine
 10
559.5363020635077
 20
1012.487184929994
 30
0.0
 11
568.0363020635077
 21
1017.394662218106
 31
0.0
  0
LINE
  5
36C
330
17
100
AcDbEntity
  8
4
100
AcDbLine
 10
568.0363020635077
 20
748.3494367757398
 30
0.0
 11
559.5363020635077
 21
753.2569140638516
 31
0.0
  0
LINE
  5
36D
330
17
100
AcDbEntity
  8
4
100
AcDbLine
 10
679.0363020635082
 20
986.618394113837
 30
0.0
 11
679.0363020635082
 21
1051.872049496923
 31
0.0
  0
LINE
  5
36E
330
17
100
AcDbEntity
  8
L-CENTER
 48
8.0
100
AcDbLine
 10
654.0363020635082
 20
1006.495432841506
 30
0.0
 11
654.0363020635082
 21
1049.248666152339
 31
0.0
  0
CIRCLE
  5
36F
330
17
100
AcDbEntity
  8
4
100
AcDbCircle
 10
654.0363020635082
 20
1027.872049496923
 30
0.0
 40
10.0
  0
ARC
  5
370
330
17
100
AcDbEntity
  8
4
100
AcDbCircle
 10
153.0363020635075
 20
882.872049496923
 30
0.0
 40
500.0
100
AcDbArc
 50
0.0
 51
17.24507909832865
  0
ARC
  5
371
330
17
100
AcDbEntity
  8
4
100
AcDbCircle
 10
442.5951582573252
 20
1025.283576551783
 30
0.0
 40
3.0
100
AcDbArc
 50
353.8219690802355
 51
104.3532168872779
  0
ARC
  5
372
330
17
100
AcDbEntity
  8
4
100
AcDbCircle
 10
515.4774458696911
 20
1025.283576551783
 30
0.0
 40
3.0
100
AcDbArc
 50
75.64678311272212
 51
186.1780309197645
  0
LINE
  5
373
330
17
100
AcDbEntity
  8
L-CENTER
 48
8.0
100
AcDbLine
 10
567.799414634725
 20
1036.614270308227
 30
0.0
 11
551.2731894922904
 21
1007.990008704208
 31
0.0
  0
ARC
  5
374
330
17
100
AcDbEntity
  8
4
100
AcDbCircle
 10
479.0363020635082
 20
1027.872049496931
 30
0.0
 40
5.0
100
AcDbArc
 50
0.0
 51
180.0
  0
CIRCLE
  5
375
330
17
100
AcDbEntity
  8
4
100
AcDbCircle
 10
559.5363020635077
 20
1022.302139506217
 30
0.0
 40
8.5
  0
LINE
  5
376
330
17
100
AcDbEntity
  8
4
100
AcDbLine
 10
559.5363020635077
 20
1032.117094082441
 30
0.0
 11
551.0363020635077
 21
1027.20961679433
 31
0.0
  0
LINE
  5
377
330
17
100
AcDbEntity
  8
4
100
AcDbLine
 10
568.0363020635077
 20
1027.20961679433
 30
0.0
 11
559.5363020635077
 21
1032.117094082441
 31
0.0
  0
ARC
  5
378
330
17
100
AcDbEntity
  8
4
100
AcDbCircle
 10
394.094818057903
 20
1051.872049496923
 30
0.0
 40
5.0
100
AcDbArc
 50
7.413595861141392
 51
90.0
  0
ARC
  5
379
330
17
100
AcDbEntity
  8
4
100
AcDbCircle
 10
401.0363020635082
 20
1052.775265860761
 30
0.0
 40
2.0
100
AcDbArc
 50
187.413595861144
 51
278.9387478556665
  0
LINE
  5
37A
330
17
100
AcDbEntity
  8
4
100
AcDbLine
 10
399.0363020635082
 20
1052.775265860761
 30
0.0
 11
399.0363020635082
 21
1052.872049496923
 31
0.0
  0
ARC
  5
37B
330
17
100
AcDbEntity
  8
4
100
AcDbCircle
 10
332.2888242690965
 20
1029.619527291335
 30
0.0
 40
5.0
100
AcDbArc
 50
107.2450790983282
 51
162.7549209016717
  0
LINE
  5
37C
330
17
100
AcDbEntity
  8
4
100
AcDbLine
 10
394.094818057903
 20
1056.872049496923
 30
0.0
 11
284.0363020635082
 21
1056.872049496923
 31
0.0
  0
ARC
  5
37D
330
17
100
AcDbEntity
  8
4
100
AcDbCircle
 10
284.0363020635082
 20
1051.872049496923
 30
0.0
 40
5.0
100
AcDbArc
 50
90.0
 51
180.0
  0
LINE
  5
37E
330
17
100
AcDbEntity
  8
4
100
AcDbLine
 10
407.0363020635077
 20
1017.394662218105
 30
0.0
 11
407.0363020635077
 21
1027.209616794329
 31
0.0
  0
LINE
  5
37F
330
17
100
AcDbEntity
  8
4
100
AcDbLine
 10
390.0363020635077
 20
1027.209616794329
 30
0.0
 11
390.0363020635077
 21
1017.394662218105
 31
0.0
  0
LINE
  5
380
330
17
100
AcDbEntity
  8
4
100
AcDbLine
 10
390.0363020635077
 20
1017.394662218105
 30
0.0
 11
398.5363020635077
 21
1012.487184929993
 31
0.0
  0
LINE
  5
381
330
17
100
AcDbEntity
  8
4
100
AcDbLine
 10
398.5363020635077
 20
1012.487184929993
 30
0.0
 11
407.0363020635077
 21
1017.394662218105
 31
0.0
  0
ARC
  5
382
330
17
100
AcDbEntity
  8
4
100
AcDbCircle
 10
307.4929247925033
 20
969.333530711172
 30
0.0
 40
5.0
100
AcDbArc
 50
350.1417718839593
 51
73.68616034022796
  0
LINE
  5
383
330
17
100
AcDbEntity
  8
4
100
AcDbLine
 10
292.0444276870817
 20
983.7432048157511
 30
0.0
 11
292.0444276870821
 21
992.1053436098737
 31
0.0
  0
ARC
  5
384
330
17
100
AcDbEntity
  8
4
100
AcDbCircle
 10
294.0363020635082
 20
980.8720494969266
 30
0.0
 40
2.0
100
AcDbArc
 50
89.99999999998697
 51
170.674203193034
  0
LINE
  5
385
330
17
100
AcDbEntity
  8
4
100
AcDbLine
 10
308.8974174896271
 20
974.1322180591587
 30
0.0
 11
282.6318093663845
 21
981.8197067658502
 31
0.0
  0
ARC
  5
386
330
17
100
AcDbEntity
  8
4
100
AcDbCircle
 10
294.0363020635086
 20
994.8720494969266
 30
0.0
 40
2.0
100
AcDbArc
 50
189.325796806966
 51
270.0
  0
LINE
  5
387
330
17
100
AcDbEntity
  8
4
100
AcDbLine
 10
315.1383535068717
 20
982.8720494969261
 30
0.0
 11
294.0363020635082
 21
982.8720494969266
 31
0.0
  0
LINE
  5
388
330
17
100
AcDbEntity
  8
4
100
AcDbLine
 10
317.3357570101225
 20
992.8720494969261
 30
0.0
 11
294.0363020635086
 21
992.8720494969266
 31
0.0
  0
LINE
  5
389
330
17
100
AcDbEntity
  8
L-CENTER
 48
8.0
100
AcDbLine
 10
325.4129187189246
 20
1027.872049496923
 30
0.0
 11
282.6596854080917
 21
1027.872049496923
 31
0.0
  0
ARC
  5
38A
330
17
100
AcDbEntity
  8
4
100
AcDbCircle
 10
336.6247750086482
 20
919.3131933031054
 30
0.0
 40
3.0
100
AcDbArc
 50
165.6467831127227
 51
276.1780309197645
  0
LINE
  5
38B
330
17
100
AcDbEntity
  8
4
100
AcDbLine
 10
336.9476294817623
 20
916.3306163989519
 30
0.0
 11
419.7347824749663
 21
925.2920626647738
 31
0.0
  0
LINE
  5
38C
330
17
100
AcDbEntity
  8
4
100
AcDbLine
 10
398.5363020635077
 20
753.256914063852
 30
0.0
 11
390.0363020635077
 21
748.3494367757403
 31
0.0
  0
LINE
  5
38D
330
17
100
AcDbEntity
  8
4
100
AcDbLine
 10
407.0363020635077
 20
748.3494367757403
 30
0.0
 11
398.5363020635077
 21
753.256914063852
 31
0.0
  0
LINE
  5
38E
330
17
100
AcDbEntity
  8
4
100
AcDbLine
 10
326.5363020635082
 20
877.9645722088108
 30
0.0
 11
326.5363020635082
 21
887.7795267850347
 31
0.0
  0
LINE
  5
38F
330
17
100
AcDbEntity
  8
4
100
AcDbLine
 10
318.0363020635082
 20
873.057094920699
 30
0.0
 11
326.5363020635082
 21
877.9645722088108
 31
0.0
  0
ARC
  5
390
330
17
100
AcDbEntity
  8
4
100
AcDbCircle
 10
336.6247750086482
 20
846.4309056907396
 30
0.0
 40
3.0
100
AcDbArc
 50
83.82196908023549
 51
194.3532168872684
  0
LINE
  5
391
330
17
100
AcDbEntity
  8
4
100
AcDbLine
 10
309.5363020635082
 20
887.7795267850347
 30
0.0
 11
309.5363020635082
 21
877.9645722088108
 31
0.0
  0
LINE
  5
392
330
17
100
AcDbEntity
  8
4
100
AcDbLine
 10
309.5363020635082
 20
877.9645722088108
 30
0.0
 11
318.0363020635082
 21
873.057094920699
 31
0.0
  0
ARC
  5
393
330
17
100
AcDbEntity
  8
4
100
AcDbCircle
 10
307.4929247925033
 20
796.4105682826735
 30
0.0
 40
5.0
100
AcDbArc
 50
286.313839659772
 51
9.858228116035441
  0
LINE
  5
394
330
17
100
AcDbEntity
  8
4
100
AcDbLine
 10
315.036302063505
 20
782.8720494969261
 30
0.0
 11
294.0363020635041
 21
782.8720494969266
 31
0.0
  0
LINE
  5
395
330
17
100
AcDbEntity
  8
4
100
AcDbLine
 10
308.8974174896271
 20
791.6118809346867
 30
0.0
 11
282.6318093663845
 21
783.9243922279952
 31
0.0
  0
LINE
  5
396
330
17
100
AcDbEntity
  8
4
100
AcDbLine
 10
306.0363020635091
 20
777.872049496923
 30
0.0
 11
310.0363020635091
 21
777.872049496923
 31
0.0
  0
LINE
  5
397
330
17
100
AcDbEntity
  8
4
100
AcDbLine
 10
292.0444276870776
 20
782.0008941781025
 30
0.0
 11
292.0444276870771
 21
773.63875538398
 31
0.0
  0
ARC
  5
398
330
17
100
AcDbEntity
  8
4
100
AcDbCircle
 10
294.0363020635036
 20
770.8720494969266
 30
0.0
 40
2.0
100
AcDbArc
 50
89.99999999998697
 51
170.674203193034
  0
LINE
  5
399
330
17
100
AcDbEntity
  8
4
100
AcDbLine
 10
294.1363020635076
 20
772.8720494969266
 30
0.0
 11
294.0363020635036
 21
772.8720494969266
 31
0.0
  0
ARC
  5
39A
330
17
100
AcDbEntity
  8
4
100
AcDbCircle
 10
295.1363020635076
 20
776.8720494969225
 30
0.0
 40
1.0
100
AcDbArc
 50
90.0
 51
180.0
  0
LINE
  5
39B
330
17
100
AcDbEntity
  8
4
100
AcDbLine
 10
285.5398290093599
 20
755.2059336562274
 30
0.0
 11
291.6363020635076
 21
755.2059336562274
 31
0.0
  0
LINE
  5
39C
330
17
100
AcDbEntity
  8
4
100
AcDbLine
 10
294.1363020635076
 20
760.1134109443392
 30
0.0
 11
285.5398290093599
 21
760.1134109443392
 31
0.0
  0
ARC
  5
39D
330
17
100
AcDbEntity
  8
4
100
AcDbCircle
 10
288.419915992567
 20
757.6596723002831
 30
0.0
 40
3.783613929059507
100
AcDbArc
 50
139.5701031551685
 51
220.4298968448266
  0
LINE
  5
39E
330
17
100
AcDbEntity
  8
4
100
AcDbLine
 10
310.0363020635091
 20
777.8720494969225
 30
0.0
 11
295.1363020635076
 21
777.8720494969225
 31
0.0
  0
ARC
  5
39F
330
17
100
AcDbEntity
  8
4
100
AcDbCircle
 10
294.0363020635041
 20
784.8720494969266
 30
0.0
 40
2.0
100
AcDbArc
 50
189.325796806966
 51
270.0
  0
ARC
  5
3A0
330
17
100
AcDbEntity
  8
4
100
AcDbCircle
 10
310.0363020635091
 20
782.872049496923
 30
0.0
 40
5.0
100
AcDbArc
 50
270.0
 51
11.42118627499781
  0
LINE
  5
3A1
330
17
100
AcDbEntity
  8
L-CENTER
 48
8.0
100
AcDbLine
 10
316.3974701722291
 20
750.2984563681157
 30
0.0
 11
281.7683238089276
 21
750.2984563681157
 31
0.0
  0
LINE
  5
3A2
330
17
100
AcDbEntity
  8
4
100
AcDbLine
 10
336.9476294817623
 20
849.4134825948931
 30
0.0
 11
419.7527795074266
 21
840.4500882074908
 31
0.0
  0
LINE
  5
3A3
330
17
100
AcDbEntity
  8
L-CENTER
 48
8.0
100
AcDbLine
 10
379.0363020635082
 20
851.5690749572441
 30
0.0
 11
379.0363020635082
 21
914.1750240366009
 31
0.0
  0
CIRCLE
  5
3A4
330
17
100
AcDbEntity
  8
4
100
AcDbCircle
 10
379.0363020635082
 20
882.8720494969225
 30
0.0
 40
25.0
  0
CIRCLE
  5
3A5
330
17
100
AcDbEntity
  8
4
100
AcDbCircle
 10
379.0363020635082
 20
882.8720494969225
 30
0.0
 40
23.0
  0
LWPOLYLINE
  5
3A6
330
17
100
AcDbEntity
  8
4
100
AcDbPolyline
 90
        6
 70
     1
 43
0.0
 10
402.0363020635082
 20
882.8720494969225
 10
390.5363020635082
 20
902.7906337839645
 10
367.5363020635082
 20
902.7906337839645
 10
356.0363020635082
 20
882.8720494969225
 10
367.5363020635082
 20
862.9534652098805
 10
390.5363020635082
 20
862.9534652098805
  0
CIRCLE
  5
3A7
330
17
100
AcDbEntity
  8
4
100
AcDbCircle
 10
318.0363020635082
 20
882.8720494969225
 30
0.0
 40
8.5
  0
LINE
  5
3A8
330
17
100
AcDbEntity
  8
4
100
AcDbLine
 10
318.0363020635082
 20
892.6870040731465
 30
0.0
 11
309.5363020635082
 21
887.7795267850347
 31
0.0
  0
LINE
  5
3A9
330
17
100
AcDbEntity
  8
4
100
AcDbLine
 10
326.5363020635082
 20
887.7795267850347
 30
0.0
 11
318.0363020635082
 21
892.6870040731465
 31
0.0
  0
ARC
  5
3AA
330
17
100
AcDbEntity
  8
4
100
AcDbCircle
 10
284.0363020635082
 20
779.1257048800085
 30
0.0
 40
5.0
100
AcDbArc
 50
106.3138396597724
 51
180.0
  0
ARC
  5
3AB
330
17
100
AcDbEntity
  8
4
100
AcDbCircle
 10
284.0363020635082
 20
986.618394113837
 30
0.0
 40
5.0
100
AcDbArc
 50
180.0
 51
253.6861603402279
  0
ARC
  5
3AC
330
17
100
AcDbEntity
  8
4
100
AcDbCircle
 10
805.0363020635091
 20
882.872049496923
 30
0.0
 40
500.0
100
AcDbArc
 50
162.7549209016714
 51
180.0
  0
LINE
  5
3AD
330
17
100
AcDbEntity
  8
L-CENTER
 48
8.0
100
AcDbLine
 10
304.0363020635082
 20
1006.495432841506
 30
0.0
 11
304.0363020635082
 21
1049.248666152339
 31
0.0
  0
LINE
  5
3AE
330
17
100
AcDbEntity
  8
4
100
AcDbLine
 10
279.0363020635082
 20
986.618394113837
 30
0.0
 11
279.0363020635082
 21
1051.872049496923
 31
0.0
  0
CIRCLE
  5
3AF
330
17
100
AcDbEntity
  8
4
100
AcDbCircle
 10
304.0363020635082
 20
1027.872049496923
 30
0.0
 40
10.0
  0
LINE
  5
3B0
330
17
100
AcDbEntity
  8
L-CENTER
 48
8.0
100
AcDbLine
 10
406.7994146347255
 20
1007.990008704208
 30
0.0
 11
390.2731894922908
 21
1036.614270308226
 31
0.0
  0
CIRCLE
  5
3B1
330
17
100
AcDbEntity
  8
4
100
AcDbCircle
 10
398.5363020635077
 20
1022.302139506217
 30
0.0
 40
8.5
  0
LINE
  5
3B2
330
17
100
AcDbEntity
  8
4
100
AcDbLine
 10
398.5363020635077
 20
1032.117094082441
 30
0.0
 11
390.0363020635077
 21
1027.209616794329
 31
0.0
  0
LINE
  5
3B3
330
17
100
AcDbEntity
  8
4
100
AcDbLine
 10
407.0363020635077
 20
1027.209616794329
 30
0.0
 11
398.5363020635077
 21
1032.117094082441
 31
0.0
  0
LINE
  5
3B4
330
17
100
AcDbEntity
  8
L-CENTER
 48
8.0
100
AcDbLine
 10
660.7775583043617
 20
882.872049496923
 30
0.0
 11
297.2950458226546
 21
882.8720494969225
 31
0.0
  0
ARC
  5
3B5
330
17
100
AcDbEntity
  8
4
100
AcDbCircle
 10
479.0363020635091
 20
556.8720494969225
 30
0.0
 40
500.0
100
AcDbArc
 50
72.75492090167151
 51
107.2450790983287
  0
ARC
  5
3B6
330
17
100
AcDbEntity
  8
4
100
AcDbCircle
 10
418.9994524034933
 20
833.4907420977993
 30
0.0
 40
7.0
100
AcDbArc
 50
6.105831244302114
 51
83.82196908023289
  0
ARC
  5
3B7
330
17
100
AcDbEntity
  8
4
100
AcDbCircle
 10
418.981455371033
 20
932.2514087744653
 30
0.0
 40
7.0
100
AcDbArc
 50
276.1780309197671
 51
350.8641376250494
  0
ARC
  5
3B8
330
17
100
AcDbEntity
  8
4
100
AcDbCircle
 10
669.6526881344494
 20
742.9372404359478
 30
0.0
 40
3.783613929059507
100
AcDbArc
 50
319.5701031551734
 51
40.42989684483145
  0
LINE
  5
3B9
330
17
100
AcDbEntity
  8
4
100
AcDbLine
 10
672.5327751176565
 20
745.3909790800035
 30
0.0
 11
666.4363020635087
 21
745.3909790800035
 31
0.0
  0
ARC
  5
3BA
330
17
100
AcDbEntity
  8
4
100
AcDbCircle
 10
681.0363020635077
 20
727.8720494969225
 30
0.0
 40
2.0
100
AcDbArc
 50
180.0
 51
270.0
  0
LINE
  5
3BB
330
17
100
AcDbEntity
  8
4
100
AcDbLine
 10
664.936206063508
 20
727.8720494969225
 30
0.0
 11
679.0363020635077
 21
727.8720494969225
 31
0.0
  0
ARC
  5
3BC
330
17
100
AcDbEntity
  8
4
100
AcDbCircle
 10
681.0363020635077
 20
687.8720494969225
 30
0.0
 40
2.0
100
AcDbArc
 50
90.0
 51
180.0
  0
LINE
  5
3BD
330
17
100
AcDbEntity
  8
4
100
AcDbLine
 10
664.936206063508
 20
687.8720494969225
 30
0.0
 11
679.0363020635077
 21
687.8720494969225
 31
0.0
  0
LINE
  5
3BE
330
17
100
AcDbEntity
  8
4
100
AcDbLine
 10
679.0363020635077
 20
727.8720494969225
 30
0.0
 11
679.0363020635077
 21
687.8720494969225
 31
0.0
  0
ARC
  5
3BF
330
17
100
AcDbEntity
  8
4
100
AcDbCircle
 10
689.0363020635077
 20
707.8720494969225
 30
0.0
 40
5.0
100
AcDbArc
 50
90.0
 51
270.0
  0
ARC
  5
3C0
330
17
100
AcDbEntity
  8
4
100
AcDbCircle
 10
654.0363020635082
 20
737.8720494969225
 30
0.0
 40
10.0
100
AcDbArc
 50
5.73917047726678
 51
8.109614455955402
  0
ARC
  5
3C1
330
17
100
AcDbEntity
  8
4
100
AcDbCircle
 10
652.0363020635073
 20
697.8720494969184
 30
0.0
 40
5.0
100
AcDbArc
 50
110.9368965316875
 51
180.0
  0
ARC
  5
3C2
330
17
100
AcDbEntity
  8
4
100
AcDbCircle
 10
652.0363020635082
 20
717.8720494969184
 30
0.0
 40
5.0
100
AcDbArc
 50
180.0
 51
249.0631034683072
  0
LINE
  5
3C3
330
17
100
AcDbEntity
  8
L-CENTER
 48
8.0
100
AcDbLine
 10
632.6596854080913
 20
737.8720494969225
 30
0.0
 11
675.4129187189242
 21
737.8720494969225
 31
0.0
  0
LINE
  5
3C4
330
17
100
AcDbEntity
  8
4
100
AcDbLine
 10
672.5327751176565
 20
740.4835017918917
 30
0.0
 11
663.9363020635087
 21
740.4835017918917
 31
0.0
  0
LINE
  5
3C5
330
17
100
AcDbEntity
  8
4
100
AcDbLine
 10
664.936206063508
 20
738.8720494969225
 30
0.0
 11
663.936206063508
 21
738.8720494969225
 31
0.0
  0
LINE
  5
3C6
330
17
100
AcDbEntity
  8
4
100
AcDbLine
 10
673.4363020635087
 20
658.0844266935615
 30
0.0
 11
673.4363020635087
 21
672.8068585578967
 31
0.0
  0
ARC
  5
3C7
330
17
100
AcDbEntity
  8
4
100
AcDbCircle
 10
669.6526881344494
 20
658.0844266935615
 30
0.0
 40
3.783613929059507
100
AcDbArc
 50
319.5701031551734
 51
40.42989684483145
  0
LINE
  5
3C8
330
17
100
AcDbEntity
  8
4
100
AcDbLine
 10
666.4363020635087
 20
675.2605972019528
 30
0.0
 11
666.4363020635087
 21
655.6306880495054
 31
0.0
  0
LINE
  5
3C9
330
17
100
AcDbEntity
  8
4
100
AcDbLine
 10
672.5327751176565
 20
660.5381653376171
 30
0.0
 11
666.4363020635087
 21
660.5381653376171
 31
0.0
  0
LINE
  5
3CA
330
17
100
AcDbEntity
  8
4
100
AcDbLine
 10
672.5327751176565
 20
670.353119913841
 30
0.0
 11
666.4363020635087
 21
670.353119913841
 31
0.0
  0
ARC
  5
3CB
330
17
100
AcDbEntity
  8
4
100
AcDbCircle
 10
659.657136766049
 20
665.4456426257293
 30
0.0
 40
13.77916529745958
100
AcDbArc
 50
339.1359356360805
 51
20.86406436391942
  0
ARC
  5
3CC
330
17
100
AcDbEntity
  8
4
100
AcDbCircle
 10
669.6526881344494
 20
672.8068585578967
 30
0.0
 40
3.783613929059507
100
AcDbArc
 50
319.5701031551734
 51
40.42989684483145
  0
LINE
  5
3CD
330
17
100
AcDbEntity
  8
4
100
AcDbLine
 10
663.9363020635087
 20
675.2605972019528
 30
0.0
 11
663.9363020635087
 21
655.6306880495054
 31
0.0
  0
ARC
  5
3CE
330
17
100
AcDbEntity
  8
4
100
AcDbCircle
 10
662.9363020635087
 20
638.8720494969225
 30
0.0
 40
1.0
100
AcDbArc
 50
270.0
 51
0.0
  0
ARC
  5
3CF
330
17
100
AcDbEntity
  8
4
100
AcDbCircle
 10
644.0363020635059
 20
640.8720494969184
 30
0.0
 40
3.0
100
AcDbArc
 50
270.0
 51
0.0
  0
LINE
  5
3D0
330
17
100
AcDbEntity
  8
L-CENTER
 48
8.0
100
AcDbLine
 10
641.6751339547873
 20
665.4456426257293
 30
0.0
 11
676.3042803180888
 21
665.4456426257293
 31
0.0
  0
LINE
  5
3D1
330
17
100
AcDbEntity
  8
4
100
AcDbLine
 10
663.9363020635087
 20
655.6306880495054
 30
0.0
 11
672.5327751176565
 21
655.6306880495054
 31
0.0
  0
LINE
  5
3D2
330
17
100
AcDbEntity
  8
4
100
AcDbLine
 10
672.5327751176565
 20
675.2605972019528
 30
0.0
 11
663.9363020635087
 21
675.2605972019528
 31
0.0
  0
LINE
  5
3D3
330
17
100
AcDbEntity
  8
4
100
AcDbLine
 10
664.936206063508
 20
676.8720494969225
 30
0.0
 11
663.936206063508
 21
676.8720494969225
 31
0.0
  0
LINE
  5
3D4
330
17
100
AcDbEntity
  8
4
100
AcDbLine
 10
647.0363020635073
 20
697.8720494969184
 30
0.0
 11
647.0363020635059
 21
640.8720494969184
 31
0.0
  0
LINE
  5
3D5
330
17
100
AcDbEntity
  8
4
100
AcDbLine
 10
664.936206063508
 20
738.8720494969225
 30
0.0
 11
664.936206063508
 21
676.8720494969225
 31
0.0
  0
ARC
  5
3D6
330
17
100
AcDbEntity
  8
4
100
AcDbCircle
 10
625.7837798579194
 20
736.1245717025104
 30
0.0
 40
5.0
100
AcDbArc
 50
287.2450790983282
 51
342.7549209016664
  0
LINE
  5
3D7
330
17
100
AcDbEntity
  8
4
100
AcDbLine
 10
551.0363020635077
 20
738.5344821995159
 30
0.0
 11
559.5363020635077
 21
733.6270049114041
 31
0.0
  0
ARC
  5
3D8
330
17
100
AcDbEntity
  8
4
100
AcDbCircle
 10
515.4774458696911
 20
740.4605224420625
 30
0.0
 40
3.0
100
AcDbArc
 50
173.8219690802267
 51
284.3532168872773
  0
ARC
  5
3D9
330
17
100
AcDbEntity
  8
4
100
AcDbCircle
 10
479.0363020635082
 20
737.8720494969148
 30
0.0
 40
5.0
100
AcDbArc
 50
180.0
 51
0.0
  0
ARC
  5
3DA
330
17
100
AcDbEntity
  8
4
100
AcDbCircle
 10
442.5951582573252
 20
740.4605224420625
 30
0.0
 40
3.0
100
AcDbArc
 50
255.6467831127227
 51
6.1780309197733
  0
LINE
  5
3DB
330
17
100
AcDbEntity
  8
4
100
AcDbLine
 10
559.5363020635077
 20
733.6270049114041
 30
0.0
 11
568.0363020635077
 21
738.5344821995159
 31
0.0
  0
LINE
  5
3E1
330
17
100
AcDbEntity
  8
4
100
AcDbLine
 10
508.0363020635082
 20
439.2079510931425
 30
0.0
 11
507.0363020635082
 21
440.2079510931425
 31
0.0
  0
LINE
  5
3E2
330
17
100
AcDbEntity
  8
4
100
AcDbLine
 10
450.0363020635082
 20
439.2079510931425
 30
0.0
 11
451.0363020635082
 21
440.2079510931425
 31
0.0
  0
LINE
  5
3E3
330
17
100
AcDbEntity
  8
4
100
AcDbLine
 10
513.0363020635082
 20
440.2079510931425
 30
0.0
 11
451.0363020635082
 21
440.2079510931425
 31
0.0
  0
LINE
  5
3E4
330
17
100
AcDbEntity
  8
4
100
AcDbLine
 10
450.0363020635082
 20
439.2079510931425
 30
0.0
 11
508.0363020635082
 21
439.2079510931425
 31
0.0
  0
LINE
  5
3E8
330
17
100
AcDbEntity
  8
4
100
AcDbLine
 10
390.0363020635077
 20
738.5344821995163
 30
0.0
 11
398.5363020635077
 21
733.6270049114046
 31
0.0
  0
LINE
  5
3E9
330
17
100
AcDbEntity
  8
4
100
AcDbLine
 10
398.5363020635077
 20
733.6270049114046
 30
0.0
 11
407.0363020635077
 21
738.5344821995163
 31
0.0
  0
CIRCLE
  5
3EA
330
17
100
AcDbEntity
  8
4
100
AcDbCircle
 10
381.0363020635082
 20
676.8720494969225
 30
0.0
 40
25.0
  0
ARC
  5
3EB
330
17
100
AcDbEntity
  8
4
100
AcDbCircle
 10
332.2888242690969
 20
736.1245717025104
 30
0.0
 40
5.0
100
AcDbArc
 50
197.2450790983336
 51
252.7549209016718
  0
ARC
  5
3EC
330
17
100
AcDbEntity
  8
4
100
AcDbCircle
 10
304.0363020635082
 20
737.8720494969225
 30
0.0
 40
10.0
100
AcDbArc
 50
171.890385544034
 51
188.109614455966
  0
LINE
  5
3ED
330
17
100
AcDbEntity
  8
4
100
AcDbLine
 10
285.5398290093599
 20
740.4835017918917
 30
0.0
 11
294.1363020635076
 21
740.4835017918917
 31
0.0
  0
LINE
  5
3EE
330
17
100
AcDbEntity
  8
4
100
AcDbLine
 10
285.5398290093599
 20
745.3909790800035
 30
0.0
 11
291.6363020635076
 21
745.3909790800035
 31
0.0
  0
ARC
  5
3EF
330
17
100
AcDbEntity
  8
4
100
AcDbCircle
 10
288.419915992567
 20
742.9372404359478
 30
0.0
 40
3.783613929059507
100
AcDbArc
 50
139.5701031551685
 51
220.4298968448266
  0
LINE
  5
3F0
330
17
100
AcDbEntity
  8
L-CENTER
 48
8.0
100
AcDbLine
 10
325.4129187189246
 20
737.8720494969225
 30
0.0
 11
282.6596854080917
 21
737.8720494969225
 31
0.0
  0
ARC
  5
3F1
330
17
100
AcDbEntity
  8
4
100
AcDbCircle
 10
306.0363020635091
 20
697.8720494969225
 30
0.0
 40
5.0
100
AcDbArc
 50
0.0
 51
69.06310346830716
  0
ARC
  5
3F3
330
17
100
AcDbEntity
  8
4
100
AcDbCircle
 10
306.0363020635091
 20
717.8720494969225
 30
0.0
 40
5.0
100
AcDbArc
 50
290.9368965316928
 51
0.0
  0
LINE
  5
3F4
330
17
100
AcDbEntity
  8
4
100
AcDbLine
 10
294.1363020635076
 20
675.2605972019528
 30
0.0
 11
294.1363020635076
 21
655.6306880495054
 31
0.0
  0
LINE
  5
3F5
330
17
100
AcDbEntity
  8
4
100
AcDbLine
 10
291.6363020635076
 20
675.2605972019528
 30
0.0
 11
291.6363020635076
 21
655.6306880495054
 31
0.0
  0
ARC
  5
3F6
330
17
100
AcDbEntity
  8
4
100
AcDbCircle
 10
288.419915992567
 20
658.0844266935615
 30
0.0
 40
3.783613929059507
100
AcDbArc
 50
139.5701031551685
 51
220.4298968448266
  0
LINE
  5
3F7
330
17
100
AcDbEntity
  8
4
100
AcDbLine
 10
284.6363020635076
 20
658.0844266935615
 30
0.0
 11
284.6363020635076
 21
672.8068585578967
 31
0.0
  0
ARC
  5
3F8
330
17
100
AcDbEntity
  8
4
100
AcDbCircle
 10
288.419915992567
 20
672.8068585578967
 30
0.0
 40
3.783613929059507
100
AcDbArc
 50
139.5701031551685
 51
220.4298968448266
  0
ARC
  5
3F9
330
17
100
AcDbEntity
  8
4
100
AcDbCircle
 10
298.4154673609673
 20
665.4456426257293
 30
0.0
 40
13.77916529745958
100
AcDbArc
 50
159.1359356360806
 51
200.8640643639194
  0
LINE
  5
3FA
330
17
100
AcDbEntity
  8
4
100
AcDbLine
 10
285.5398290093599
 20
670.353119913841
 30
0.0
 11
291.6363020635076
 21
670.353119913841
 31
0.0
  0
LINE
  5
3FB
330
17
100
AcDbEntity
  8
4
100
AcDbLine
 10
285.5398290093599
 20
660.5381653376171
 30
0.0
 11
291.6363020635076
 21
660.5381653376171
 31
0.0
  0
LINE
  5
3FC
330
17
100
AcDbEntity
  8
4
100
AcDbLine
 10
285.5398290093599
 20
675.2605972019528
 30
0.0
 11
294.1363020635076
 21
675.2605972019528
 31
0.0
  0
LINE
  5
3FD
330
17
100
AcDbEntity
  8
4
100
AcDbLine
 10
294.1363020635076
 20
655.6306880495054
 30
0.0
 11
285.5398290093599
 21
655.6306880495054
 31
0.0
  0
ARC
  5
3FE
330
17
100
AcDbEntity
  8
4
100
AcDbCircle
 10
314.0363020635091
 20
640.8720494969225
 30
0.0
 40
3.0
100
AcDbArc
 50
180.0
 51
270.0
  0
ARC
  5
3FF
330
17
100
AcDbEntity
  8
4
100
AcDbCircle
 10
295.1363020635076
 20
638.8720494969225
 30
0.0
 40
1.0
100
AcDbArc
 50
180.0
 51
270.0
  0
LINE
  5
400
330
17
100
AcDbEntity
  8
L-CENTER
 48
8.0
100
AcDbLine
 10
316.3974701722291
 20
665.4456426257293
 30
0.0
 11
281.7683238089276
 21
665.4456426257293
 31
0.0
  0
LINE
  5
401
330
17
100
AcDbEntity
  8
2
100
AcDbLine
 10
306.0363020635091
 20
707.8720494969225
 30
0.0
 11
306.0363020635091
 21
637.8720494969225
 31
0.0
  0
LINE
  5
402
330
17
100
AcDbEntity
  8
4
100
AcDbLine
 10
311.0363020635091
 20
697.8720494969225
 30
0.0
 11
311.0363020635091
 21
640.8720494969225
 31
0.0
  0
LINE
  5
409
330
17
100
AcDbEntity
  8
4
100
AcDbLine
 10
295.1363020635076
 20
637.8720494969225
 30
0.0
 11
662.9363020635087
 21
637.8720494969225
 31
0.0
  0
ARC
  5
40A
330
17
100
AcDbEntity
  8
4
100
AcDbCircle
 10
479.0363020635086
 20
1208.872049496923
 30
0.0
 40
500.0
100
AcDbArc
 50
252.7549209016714
 51
287.2450790983285
  0
LINE
  5
40B
330
17
100
AcDbEntity
  8
L-CENTER
 48
8.0
100
AcDbLine
 10
479.0363020635082
 20
1072.121050606681
 30
0.0
 11
479.0363020635082
 21
631.6655019198665
 31
0.0
  0
LINE
  5
40C
330
17
100
AcDbEntity
  8
4
100
AcDbLine
 10
311.0363020635091
 20
717.8720494969225
 30
0.0
 11
311.0363020635091
 21
777.872049496923
 31
0.0
  0
LINE
  5
40D
330
17
100
AcDbEntity
  8
2
100
AcDbLine
 10
306.0363020635091
 20
707.8720494969225
 30
0.0
 11
306.0363020635091
 21
777.872049496923
 31
0.0
  0
LINE
  5
40E
330
17
100
AcDbEntity
  8
L-CENTER
 48
8.0
100
AcDbLine
 10
304.0363020635082
 20
759.248666152339
 30
0.0
 11
304.0363020635082
 21
716.495432841506
 31
0.0
  0
ARC
  5
410
330
17
100
AcDbEntity
  8
4
100
AcDbCircle
 10
805.0363020635091
 20
882.872049496923
 30
0.0
 40
500.0
100
AcDbArc
 50
180.0
 51
197.2450790983287
  0
LINE
  5
411
330
17
100
AcDbEntity
  8
L-CENTER
 48
8.0
100
AcDbLine
 10
654.0363020635082
 20
759.248666152339
 30
0.0
 11
654.0363020635082
 21
716.495432841506
 31
0.0
  0
LINE
  5
412
330
17
100
AcDbEntity
  8
4
100
AcDbLine
 10
679.0363020635082
 20
779.1257048800085
 30
0.0
 11
679.0363020635082
 21
727.8720494969225
 31
0.0
  0
LINE
  5
413
330
17
100
AcDbEntity
  8
2
100
AcDbLine
 10
652.0363020635091
 20
777.8720494969225
 30
0.0
 11
652.0363020635091
 21
637.8720494969225
 31
0.0
  0
ARC
  5
414
330
17
100
AcDbEntity
  8
4
100
AcDbCircle
 10
153.0363020635075
 20
882.872049496923
 30
0.0
 40
500.0
100
AcDbArc
 50
342.7549209016713
 51
0.0
  0
LINE
  5
415
330
17
100
AcDbEntity
  8
4
100
AcDbLine
 10
647.0363020635082
 20
717.8720494969184
 30
0.0
 11
647.0363020635091
 21
777.8720494969189
 31
0.0
  0
CIRCLE
  5
416
330
17
100
AcDbEntity
  8
4
100
AcDbCircle
 10
479.0363020635082
 20
882.8720494969225
 30
0.0
 40
172.0
  0
CIRCLE
  5
417
330
17
100
AcDbEntity
  8
4
100
AcDbCircle
 10
479.0363020635082
 20
882.8720494969225
 30
0.0
 40
150.0
  0
CIRCLE
  5
418
330
17
100
AcDbEntity
  8
L-CENTER
 48
8.0
100
AcDbCircle
 10
479.0363020635082
 20
882.8720494969225
 30
0.0
 40
161.0
  0
LINE
  5
419
330
17
100
AcDbEntity
  8
L-CENTER
 48
8.0
100
AcDbLine
 10
406.7994146347251
 20
757.7540902896376
 30
0.0
 11
390.2731894922904
 21
729.1298286856186
 31
0.0
  0
LINE
  5
41A
330
17
100
AcDbEntity
  8
4
100
AcDbLine
 10
512.4948689655375
 20
740.7833769151771
 30
0.0
 11
521.4582633529399
 21
823.5885269408413
 31
0.0
  0
LINE
  5
41B
330
17
100
AcDbEntity
  8
4
100
AcDbLine
 10
445.5777351614784
 20
740.7833769151771
 30
0.0
 11
436.6162888956569
 21
823.5705299083806
 31
0.0
  0
ARC
  5
41C
330
17
100
AcDbEntity
  8
4
100
AcDbCircle
 10
479.0363020635082
 20
757.8720494969225
 30
0.0
 40
20.0
100
AcDbArc
 50
284.4775121859301
 51
75.52248781406888
  0
LINE
  5
41D
330
17
100
AcDbEntity
  8
L-CENTER
 48
8.0
100
AcDbLine
 10
567.799414634725
 20
729.1298286856186
 30
0.0
 11
551.2731894922904
 21
757.7540902896371
 31
0.0
  0
LINE
  5
41E
330
17
100
AcDbEntity
  8
4
100
AcDbLine
 10
663.9363020635087
 20
776.8720494969225
 30
0.0
 11
663.9363020635087
 21
638.8720494969225
 31
0.0
  0
LINE
  5
41F
330
17
100
AcDbEntity
  8
2
100
AcDbLine
 10
652.4363020635087
 20
777.8720494969225
 30
0.0
 11
652.4363020635087
 21
637.8720494969225
 31
0.0
  0
LINE
  5
420
330
17
100
AcDbEntity
  8
4
100
AcDbLine
 10
294.1363020635076
 20
776.8720494969225
 30
0.0
 11
294.1363020635076
 21
638.8720494969225
 31
0.0
  0
LINE
  5
421
330
17
100
AcDbEntity
  8
2
100
AcDbLine
 10
305.6363020635076
 20
777.8720494969225
 30
0.0
 11
305.6363020635076
 21
637.8720494969225
 31
0.0
  0
ARC
  5
422
330
17
100
AcDbEntity
  8
4
100
AcDbCircle
 10
298.4154673609673
 20
750.2984563681157
 30
0.0
 40
13.77916529745958
100
AcDbArc
 50
159.1359356360806
 51
200.8640643639194
  0
LINE
  5
423
330
17
100
AcDbEntity
  8
4
100
AcDbLine
 10
284.6363020635076
 20
757.6596723002831
 30
0.0
 11
284.6363020635076
 21
742.9372404359478
 31
0.0
  0
LINE
  5
424
330
17
100
AcDbEntity
  8
4
100
AcDbLine
 10
291.6363020635076
 20
740.4835017918917
 30
0.0
 11
291.6363020635076
 21
760.1134109443392
 31
0.0
  0
LINE
  5
425
330
17
100
AcDbEntity
  8
4
100
AcDbLine
 10
294.1363020635076
 20
740.4835017918917
 30
0.0
 11
294.1363020635076
 21
760.1134109443392
 31
0.0
  0
LINE
  5
426
330
17
100
AcDbEntity
  8
4
100
AcDbLine
 10
663.9363020635087
 20
740.4835017918917
 30
0.0
 11
663.9363020635087
 21
760.1134109443392
 31
0.0
  0
LINE
  5
427
330
17
100
AcDbEntity
  8
4
100
AcDbLine
 10
666.4363020635087
 20
740.4835017918917
 30
0.0
 11
666.4363020635087
 21
760.1134109443392
 31
0.0
  0
LINE
  5
428
330
17
100
AcDbEntity
  8
4
100
AcDbLine
 10
673.4363020635087
 20
757.6596723002831
 30
0.0
 11
673.4363020635087
 21
742.9372404359478
 31
0.0
  0
ARC
  5
429
330
17
100
AcDbEntity
  8
4
100
AcDbCircle
 10
659.657136766049
 20
750.2984563681157
 30
0.0
 40
13.77916529745958
100
AcDbArc
 50
339.1359356360805
 51
20.86406436391942
  0
ARC
  5
42A
330
17
100
AcDbEntity
  8
4
100
AcDbCircle
 10
479.0363020635082
 20
757.8720494969148
 30
0.0
 40
12.5
100
AcDbArc
 50
113.578178478202
 51
246.4218215217978
  0
ARC
  5
42B
330
17
100
AcDbEntity
  8
4
100
AcDbCircle
 10
479.0363020635082
 20
757.8720494969148
 30
0.0
 40
12.5
100
AcDbArc
 50
293.5781784782019
 51
66.42182152179805
  0
LINE
  5
42C
330
17
100
AcDbEntity
  8
4
100
AcDbLine
 10
474.0363020635082
 20
737.8720494969148
 30
0.0
 11
474.0363020635082
 21
777.8720494969148
 31
0.0
  0
LINE
  5
42D
330
17
100
AcDbEntity
  8
4
100
AcDbLine
 10
484.0363020635082
 20
737.8720494969148
 30
0.0
 11
484.0363020635082
 21
777.8720494969148
 31
0.0
  0
ARC
  5
42E
330
17
100
AcDbEntity
  8
4
100
AcDbCircle
 10
479.0363020635082
 20
757.8720494969225
 30
0.0
 40
20.0
100
AcDbArc
 50
104.4775121859298
 51
255.5224878140699
  0
CIRCLE
  5
42F
330
17
100
AcDbEntity
  8
4
100
AcDbCircle
 10
559.5363020635077
 20
743.4419594876276
 30
0.0
 40
8.5
  0
LINE
  5
430
330
17
100
AcDbEntity
  8
4
100
AcDbLine
 10
551.0363020635077
 20
748.3494367757398
 30
0.0
 11
551.0363020635077
 21
738.5344821995159
 31
0.0
  0
LINE
  5
431
330
17
100
AcDbEntity
  8
4
100
AcDbLine
 10
568.0363020635077
 20
738.5344821995159
 30
0.0
 11
568.0363020635077
 21
748.3494367757398
 31
0.0
  0
CIRCLE
  5
432
330
17
100
AcDbEntity
  8
4
100
AcDbCircle
 10
398.5363020635077
 20
743.4419594876285
 30
0.0
 40
8.5
  0
LINE
  5
433
330
17
100
AcDbEntity
  8
4
100
AcDbLine
 10
390.0363020635077
 20
748.3494367757403
 30
0.0
 11
390.0363020635077
 21
738.5344821995163
 31
0.0
  0
LINE
  5
434
330
17
100
AcDbEntity
  8
4
100
AcDbLine
 10
407.0363020635077
 20
738.5344821995163
 30
0.0
 11
407.0363020635077
 21
748.3494367757403
 31
0.0
  0
LINE
  5
435
330
17
100
AcDbEntity
  8
4
100
AcDbLine
 10
673.4363020635087
 20
249.9955738965034
 30
0.0
 11
673.4363020635087
 21
235.2731420321682
 31
0.0
  0
ARC
  5
436
330
17
100
AcDbEntity
  8
4
100
AcDbCircle
 10
669.6526881344494
 20
249.9955738965034
 30
0.0
 40
3.783613929059507
100
AcDbArc
 50
319.5701031551782
 51
40.42989684482174
  0
LINE
  5
437
330
17
100
AcDbEntity
  8
4
100
AcDbLine
 10
666.4363020635087
 20
232.8194033881121
 30
0.0
 11
666.4363020635087
 21
252.4493125405595
 31
0.0
  0
LINE
  5
438
330
17
100
AcDbEntity
  8
4
100
AcDbLine
 10
672.5327751176565
 20
247.5418352524478
 30
0.0
 11
666.4363020635087
 21
247.5418352524478
 31
0.0
  0
LINE
  5
439
330
17
100
AcDbEntity
  8
4
100
AcDbLine
 10
672.5327751176565
 20
237.7268806762238
 30
0.0
 11
666.4363020635087
 21
237.7268806762238
 31
0.0
  0
ARC
  5
43A
330
17
100
AcDbEntity
  8
4
100
AcDbCircle
 10
659.657136766049
 20
242.6343579643358
 30
0.0
 40
13.77916529745958
100
AcDbArc
 50
339.1359356360801
 51
20.86406436391987
  0
ARC
  5
43B
330
17
100
AcDbEntity
  8
4
100
AcDbCircle
 10
669.6526881344494
 20
235.2731420321682
 30
0.0
 40
3.783613929059507
100
AcDbArc
 50
319.5701031551782
 51
40.42989684482174
  0
ARC
  5
43D
330
17
100
AcDbEntity
  8
4
100
AcDbCircle
 10
649.0363020635082
 20
284.6078550931423
 30
0.0
 40
2.0
100
AcDbArc
 50
0.0
 51
90.0
  0
ARC
  5
43E
330
17
100
AcDbEntity
  8
4
100
AcDbCircle
 10
661.936206063508
 20
268.2079510931425
 30
0.0
 40
2.0
100
AcDbArc
 50
0.0
 51
90.0
  0
LINE
  5
43F
330
17
100
AcDbEntity
  8
4
100
AcDbLine
 10
653.0363020635082
 20
270.2079510931425
 30
0.0
 11
653.0363020635082
 21
272.2079510931425
 31
0.0
  0
LINE
  5
440
330
17
100
AcDbEntity
  8
4
100
AcDbLine
 10
651.0363020635082
 20
272.2079510931425
 30
0.0
 11
651.0363020635082
 21
274.2079510931425
 31
0.0
  0
LINE
  5
441
330
17
100
AcDbEntity
  8
4
100
AcDbLine
 10
661.936206063508
 20
270.2079510931425
 30
0.0
 11
652.0363020635082
 21
270.2079510931425
 31
0.0
  0
LINE
  5
442
330
17
100
AcDbEntity
  8
4
100
AcDbLine
 10
651.0363020635082
 20
284.6078550931423
 30
0.0
 11
651.0363020635082
 21
274.2079510931425
 31
0.0
  0
LINE
  5
443
330
17
100
AcDbEntity
  8
4
100
AcDbLine
 10
649.8512566397321
 20
295.2043281472901
 30
0.0
 11
649.8512566397321
 21
286.6078550931423
 31
0.0
  0
LINE
  5
444
330
17
100
AcDbEntity
  8
4
100
AcDbLine
 10
630.2213474872847
 20
286.6078550931423
 30
0.0
 11
630.2213474872847
 21
295.2043281472901
 31
0.0
  0
ARC
  5
445
330
17
100
AcDbEntity
  8
4
100
AcDbCircle
 10
640.0363020635086
 20
282.3286897956826
 30
0.0
 40
13.77916529745958
100
AcDbArc
 50
69.13593563608057
 51
110.8640643639194
  0
LINE
  5
446
330
17
100
AcDbEntity
  8
4
100
AcDbLine
 10
644.9437793516204
 20
295.2043281472901
 30
0.0
 11
644.9437793516204
 21
289.1078550931423
 31
0.0
  0
ARC
  5
447
330
17
100
AcDbEntity
  8
4
100
AcDbCircle
 10
632.6750861313408
 20
292.324241164083
 30
0.0
 40
3.783613929059507
100
AcDbArc
 50
49.57010315516856
 51
130.4298968448228
  0
LINE
  5
448
330
17
100
AcDbEntity
  8
4
100
AcDbLine
 10
635.1288247753964
 20
295.2043281472901
 30
0.0
 11
635.1288247753964
 21
289.1078550931423
 31
0.0
  0
LINE
  5
449
330
17
100
AcDbEntity
  8
4
100
AcDbLine
 10
632.6750861313408
 20
296.1078550931423
 30
0.0
 11
647.397517995676
 21
296.1078550931423
 31
0.0
  0
LINE
  5
44A
330
17
100
AcDbEntity
  8
4
100
AcDbLine
 10
649.8512566397321
 20
289.1078550931423
 30
0.0
 11
630.2213474872847
 21
289.1078550931423
 31
0.0
  0
ARC
  5
44B
330
17
100
AcDbEntity
  8
4
100
AcDbCircle
 10
647.397517995676
 20
292.324241164083
 30
0.0
 40
3.783613929059507
100
AcDbArc
 50
49.57010315516856
 51
130.4298968448228
  0
LINE
  5
44C
330
17
100
AcDbEntity
  8
4
100
AcDbLine
 10
663.9363020635087
 20
232.8194033881121
 30
0.0
 11
663.9363020635087
 21
252.4493125405595
 31
0.0
  0
LINE
  5
44D
330
17
100
AcDbEntity
  8
L-CENTER
 48
8.0
100
AcDbLine
 10
640.0363020635082
 20
262.8718757235088
 30
0.0
 11
640.0363020635082
 21
298.9758333477224
 31
0.0
  0
LINE
  5
44E
330
17
100
AcDbEntity
  8
L-CENTER
 48
8.0
100
AcDbLine
 10
641.6751339547873
 20
242.6343579643358
 30
0.0
 11
676.3042803180888
 21
242.6343579643358
 31
0.0
  0
LINE
  5
44F
330
17
100
AcDbEntity
  8
4
100
AcDbLine
 10
663.9363020635087
 20
252.4493125405595
 30
0.0
 11
672.5327751176565
 21
252.4493125405595
 31
0.0
  0
LINE
  5
450
330
17
100
AcDbEntity
  8
4
100
AcDbLine
 10
672.5327751176565
 20
232.8194033881121
 30
0.0
 11
663.9363020635087
 21
232.8194033881121
 31
0.0
  0
LINE
  5
451
330
17
100
AcDbEntity
  8
4
100
AcDbLine
 10
569.3512566397326
 20
295.2043281472901
 30
0.0
 11
569.3512566397326
 21
286.6078550931423
 31
0.0
  0
ARC
  5
452
330
17
100
AcDbEntity
  8
4
100
AcDbCircle
 10
566.8975179956765
 20
292.324241164083
 30
0.0
 40
3.783613929059507
100
AcDbArc
 50
49.57010315516856
 51
130.4298968448315
  0
LINE
  5
453
330
17
100
AcDbEntity
  8
4
100
AcDbLine
 10
564.4437793516208
 20
295.2043281472901
 30
0.0
 11
564.4437793516208
 21
289.1078550931423
 31
0.0
  0
LINE
  5
454
330
17
100
AcDbEntity
  8
4
100
AcDbLine
 10
684.0363020635082
 20
218.2079510931425
 30
0.0
 11
684.0363020635082
 21
223.7079510931425
 31
0.0
  0
LINE
  5
455
330
17
100
AcDbEntity
  8
4
100
AcDbLine
 10
679.0363020635082
 20
220.2079510931425
 30
0.0
 11
664.936206063508
 21
220.2079510931425
 31
0.0
  0
LINE
  5
456
330
17
100
AcDbEntity
  8
4
100
AcDbLine
 10
679.0363020635082
 20
180.2079510931425
 30
0.0
 11
664.936206063508
 21
180.2079510931425
 31
0.0
  0
ARC
  5
457
330
17
100
AcDbEntity
  8
4
100
AcDbCircle
 10
669.6526881344494
 20
165.142760154117
 30
0.0
 40
3.783613929059507
100
AcDbArc
 50
319.5701031551782
 51
40.42989684482174
  0
LINE
  5
458
330
17
100
AcDbEntity
  8
4
100
AcDbLine
 10
672.5327751176565
 20
162.6890215100614
 30
0.0
 11
666.4363020635087
 21
162.6890215100614
 31
0.0
  0
LINE
  5
459
330
17
100
AcDbEntity
  8
4
100
AcDbLine
 10
664.936206063508
 20
231.2079510931425
 30
0.0
 11
664.936206063508
 21
169.2079510931425
 31
0.0
  0
LINE
  5
45A
330
17
100
AcDbEntity
  8
4
100
AcDbLine
 10
679.0363020635082
 20
180.2079510931425
 30
0.0
 11
679.0363020635082
 21
220.2079510931425
 31
0.0
  0
LINE
  5
45B
330
17
100
AcDbEntity
  8
4
100
AcDbLine
 10
664.936206063508
 20
169.2079510931425
 30
0.0
 11
663.936206063508
 21
169.2079510931425
 31
0.0
  0
LINE
  5
45C
330
17
100
AcDbEntity
  8
4
100
AcDbLine
 10
664.936206063508
 20
231.2079510931425
 30
0.0
 11
663.936206063508
 21
231.2079510931425
 31
0.0
  0
LINE
  5
45D
330
17
100
AcDbEntity
  8
4
100
AcDbLine
 10
672.5327751176565
 20
167.5964987981731
 30
0.0
 11
663.9363020635087
 21
167.5964987981731
 31
0.0
  0
ARC
  5
45E
330
17
100
AcDbEntity
  8
4
100
AcDbCircle
 10
669.6526881344494
 20
150.4203282897818
 30
0.0
 40
3.783613929059507
100
AcDbArc
 50
319.5701031551782
 51
40.42989684482174
  0
LINE
  5
45F
330
17
100
AcDbEntity
  8
4
100
AcDbLine
 10
672.5327751176565
 20
152.8740669338374
 30
0.0
 11
666.4363020635087
 21
152.8740669338374
 31
0.0
  0
ARC
  5
460
330
17
100
AcDbEntity
  8
4
100
AcDbCircle
 10
661.936206063508
 20
132.2079510931425
 30
0.0
 40
2.0
100
AcDbArc
 50
270.0
 51
0.0
  0
LINE
  5
461
330
17
100
AcDbEntity
  8
4
100
AcDbLine
 10
661.936206063508
 20
130.2079510931425
 30
0.0
 11
652.0363020635082
 21
130.2079510931425
 31
0.0
  0
LINE
  5
462
330
17
100
AcDbEntity
  8
4
100
AcDbLine
 10
663.9363020635087
 20
147.9665896457257
 30
0.0
 11
672.5327751176565
 21
147.9665896457257
 31
0.0
  0
LINE
  5
463
330
17
100
AcDbEntity
  8
L-CENTER
 48
8.0
100
AcDbLine
 10
641.6751339547873
 20
157.7815442219494
 30
0.0
 11
676.3042803180888
 21
157.7815442219494
 31
0.0
  0
LINE
  5
464
330
17
100
AcDbEntity
  8
4
100
AcDbLine
 10
663.9363020635087
 20
167.5964987981731
 30
0.0
 11
663.9363020635087
 21
147.9665896457257
 31
0.0
  0
LINE
  5
465
330
17
100
AcDbEntity
  8
4
100
AcDbLine
 10
666.4363020635087
 20
167.5964987981731
 30
0.0
 11
666.4363020635087
 21
147.9665896457257
 31
0.0
  0
LINE
  5
466
330
17
100
AcDbEntity
  8
4
100
AcDbLine
 10
673.4363020635087
 20
150.4203282897818
 30
0.0
 11
673.4363020635087
 21
165.142760154117
 31
0.0
  0
ARC
  5
467
330
17
100
AcDbEntity
  8
4
100
AcDbCircle
 10
659.657136766049
 20
157.7815442219494
 30
0.0
 40
13.77916529745958
100
AcDbArc
 50
339.1359356360801
 51
20.86406436391987
  0
ARC
  5
468
330
17
100
AcDbEntity
  8
4
100
AcDbCircle
 10
623.0363020635082
 20
125.2079510931425
 30
0.0
 40
5.0
100
AcDbArc
 50
90.0
 51
180.0
  0
LINE
  5
469
330
17
100
AcDbEntity
  8
4
100
AcDbLine
 10
647.0363020635082
 20
270.2079510931425
 30
0.0
 11
647.0363020635082
 21
130.2079510931425
 31
0.0
  0
LINE
  5
46A
330
17
100
AcDbEntity
  8
4
100
AcDbLine
 10
652.0363020635082
 20
270.2079510931425
 30
0.0
 11
652.0363020635082
 21
130.2079510931425
 31
0.0
  0
LINE
  5
46B
330
17
100
AcDbEntity
  8
4
100
AcDbLine
 10
652.0363020635082
 20
270.2079510931425
 30
0.0
 11
652.0363020635082
 21
130.2079510931425
 31
0.0
  0
LINE
  5
46C
330
17
100
AcDbEntity
  8
4
100
AcDbLine
 10
663.936206063508
 20
268.2079510931425
 30
0.0
 11
663.936206063508
 21
132.2079510931425
 31
0.0
  0
ARC
  5
46E
330
17
100
AcDbEntity
  8
4
100
AcDbCircle
 10
529.6940180635083
 20
327.2079510931425
 30
0.0
 40
2.99998
100
AcDbArc
 50
14.03511299999922
 51
90.0
  0
LINE
  5
46F
330
17
100
AcDbEntity
  8
4
100
AcDbLine
 10
532.6044180635085
 20
327.9354910931423
 30
0.0
 11
536.0363020635082
 21
314.2079510931425
 31
0.0
  0
LINE
  5
470
330
17
100
AcDbEntity
  8
4
100
AcDbLine
 10
508.0363020635082
 20
350.2079510931425
 30
0.0
 11
513.0363020635082
 21
350.2079510931425
 31
0.0
  0
LINE
  5
471
330
17
100
AcDbEntity
  8
4
100
AcDbLine
 10
520.0363020635082
 20
331.2079510931425
 30
0.0
 11
520.0363020635082
 21
330.2079510931425
 31
0.0
  0
LINE
  5
472
330
17
100
AcDbEntity
  8
4
100
AcDbLine
 10
509.0363020635082
 20
340.2079510931425
 30
0.0
 11
509.0363020635082
 21
331.2079510931425
 31
0.0
  0
LINE
  5
473
330
17
100
AcDbEntity
  8
4
100
AcDbLine
 10
549.7213474872851
 20
286.6078550931423
 30
0.0
 11
549.7213474872851
 21
295.2043281472901
 31
0.0
  0
ARC
  5
474
330
17
100
AcDbEntity
  8
4
100
AcDbCircle
 10
552.1750861313412
 20
292.324241164083
 30
0.0
 40
3.783613929059507
100
AcDbArc
 50
49.57010315517714
 51
130.4298968448228
  0
LINE
  5
475
330
17
100
AcDbEntity
  8
4
100
AcDbLine
 10
554.6288247753969
 20
295.2043281472901
 30
0.0
 11
554.6288247753969
 21
289.1078550931423
 31
0.0
  0
LINE
  5
476
330
17
100
AcDbEntity
  8
L-CENTER
 48
8.0
100
AcDbLine
 10
559.5363020635086
 20
262.8718757235088
 30
0.0
 11
559.5363020635086
 21
298.9758333477224
 31
0.0
  0
LINE
  5
477
330
17
100
AcDbEntity
  8
4
100
AcDbLine
 10
499.0363020635082
 20
291.5060470931425
 30
0.0
 11
499.0363020635082
 21
300.2079510931425
 31
0.0
  0
LINE
  5
478
330
17
100
AcDbEntity
  8
4
100
AcDbLine
 10
522.0363020635082
 20
314.2079510931425
 30
0.0
 11
512.0363020635082
 21
286.6078550931423
 31
0.0
  0
LINE
  5
479
330
17
100
AcDbEntity
  8
4
100
AcDbLine
 10
490.0363020635073
 20
309.2079510931425
 30
0.0
 11
491.5363020635082
 21
300.2079510931425
 31
0.0
  0
ARC
  5
47A
330
17
100
AcDbEntity
  8
4
100
AcDbCircle
 10
479.0363020635082
 20
346.2079510931425
 30
0.0
 40
5.0
100
AcDbArc
 50
0.0
 51
180.0
  0
LINE
  5
47B
330
17
100
AcDbEntity
  8
L-CENTER
 48
8.0
100
AcDbLine
 10
469.3969271943029
 20
326.2079510931425
 30
0.0
 11
489.6084006792266
 21
326.2079510931425
 31
0.0
  0
LINE
  5
47C
330
17
100
AcDbEntity
  8
4
100
AcDbLine
 10
468.0363020635082
 20
309.2079510931425
 30
0.0
 11
474.0363020635082
 21
310.2988601840515
 31
0.0
  0
LINE
  5
47D
330
17
100
AcDbEntity
  8
4
100
AcDbLine
 10
474.0363020635082
 20
346.2079510931425
 30
0.0
 11
474.0363020635082
 21
307.5157040959924
 31
0.0
  0
LINE
  5
47E
330
17
100
AcDbEntity
  8
4
100
AcDbLine
 10
484.0363020635054
 20
346.2079510931429
 30
0.0
 11
484.0363020635082
 21
307.5157040959929
 31
0.0
  0
LINE
  5
47F
330
17
100
AcDbEntity
  8
4
100
AcDbLine
 10
438.0363020635082
 20
330.2079510931425
 30
0.0
 11
438.0363020635082
 21
331.2079510931425
 31
0.0
  0
ARC
  5
480
330
17
100
AcDbEntity
  8
4
100
AcDbCircle
 10
428.3785860635085
 20
327.2079510931425
 30
0.0
 40
2.99998
100
AcDbArc
 50
90.0
 51
165.9648870000031
  0
LINE
  5
481
330
17
100
AcDbEntity
  8
4
100
AcDbLine
 10
425.4681860635083
 20
327.9354910931423
 30
0.0
 11
422.0363020635082
 21
314.2079510931425
 31
0.0
  0
LINE
  5
482
330
17
100
AcDbEntity
  8
4
100
AcDbLine
 10
449.0363020635082
 20
340.2079510931425
 30
0.0
 11
449.0363020635082
 21
331.2079510931425
 31
0.0
  0
LINE
  5
483
330
17
100
AcDbEntity
  8
4
100
AcDbLine
 10
474.0363020635082
 20
314.2079510931425
 30
0.0
 11
422.0363020635082
 21
314.2079510931425
 31
0.0
  0
LINE
  5
484
330
17
100
AcDbEntity
  8
4
100
AcDbLine
 10
438.0363020635082
 20
331.2079510931425
 30
0.0
 11
474.0363020635082
 21
331.2079510931425
 31
0.0
  0
LINE
  5
485
330
17
100
AcDbEntity
  8
4
100
AcDbLine
 10
474.0363020635082
 20
330.2079510931425
 30
0.0
 11
428.3785860635085
 21
330.2079510931425
 31
0.0
  0
LINE
  5
486
330
17
100
AcDbEntity
  8
4
100
AcDbLine
 10
449.0363020635082
 20
340.2079510931425
 30
0.0
 11
474.0363020635082
 21
340.2079510931425
 31
0.0
  0
LINE
  5
487
330
17
100
AcDbEntity
  8
4
100
AcDbLine
 10
459.0363020635082
 20
291.8815350931426
 30
0.0
 11
459.0363020635082
 21
300.2079510931425
 31
0.0
  0
LINE
  5
488
330
17
100
AcDbEntity
  8
4
100
AcDbLine
 10
436.0363020635082
 20
314.2079510931425
 30
0.0
 11
446.0363020635082
 21
286.6078550931423
 31
0.0
  0
ARC
  5
489
330
17
100
AcDbEntity
  8
4
100
AcDbCircle
 10
468.0363020635082
 20
307.5157040959924
 30
0.0
 40
6.0
100
AcDbArc
 50
270.0
 51
0.0
  0
LINE
  5
48A
330
17
100
AcDbEntity
  8
4
100
AcDbLine
 10
468.0363020635082
 20
309.2079510931425
 30
0.0
 11
466.5363020635082
 21
300.2079510931425
 31
0.0
  0
LINE
  5
48B
330
17
100
AcDbEntity
  8
4
100
AcDbLine
 10
484.0363020635082
 20
314.2079510931425
 30
0.0
 11
536.0363020635082
 21
314.2079510931425
 31
0.0
  0
LINE
  5
48C
330
17
100
AcDbEntity
  8
4
100
AcDbLine
 10
484.0363020635082
 20
331.2079510931425
 30
0.0
 11
520.0363020635082
 21
331.2079510931425
 31
0.0
  0
LINE
  5
48D
330
17
100
AcDbEntity
  8
4
100
AcDbLine
 10
484.0363020635082
 20
330.2079510931425
 30
0.0
 11
529.6940180635083
 21
330.2079510931425
 31
0.0
  0
LINE
  5
48E
330
17
100
AcDbEntity
  8
4
100
AcDbLine
 10
484.0363020635082
 20
340.2079510931425
 30
0.0
 11
509.0363020635082
 21
340.2079510931425
 31
0.0
  0
ARC
  5
48F
330
17
100
AcDbEntity
  8
4
100
AcDbCircle
 10
479.0363020635082
 20
350.1764590931424
 30
0.0
 40
59.999908
100
AcDbArc
 50
250.5292390000002
 51
289.4722360000002
  0
LINE
  5
490
330
17
100
AcDbEntity
  8
4
100
AcDbLine
 10
499.0363020635082
 20
300.2079510931425
 30
0.0
 11
459.0363020635082
 21
300.2079510931425
 31
0.0
  0
ARC
  5
491
330
17
100
AcDbEntity
  8
4
100
AcDbCircle
 10
490.0363020635082
 20
307.5157040959933
 30
0.0
 40
6.0
100
AcDbArc
 50
180.0
 51
270.0000000000043
  0
LINE
  5
492
330
17
100
AcDbEntity
  8
4
100
AcDbLine
 10
484.0363020635082
 20
310.2988601840515
 30
0.0
 11
490.0363020635082
 21
309.2079510931425
 31
0.0
  0
LINE
  5
493
330
17
100
AcDbEntity
  8
4
100
AcDbLine
 10
617.2640860635083
 20
286.6078550931423
 30
0.0
 11
536.0363020635082
 21
314.2079510931425
 31
0.0
  0
LINE
  5
494
330
17
100
AcDbEntity
  8
4
100
AcDbLine
 10
569.3512566397326
 20
286.6078550931423
 30
0.0
 11
549.7213474872851
 21
286.6078550931423
 31
0.0
  0
LINE
  5
495
330
17
100
AcDbEntity
  8
4
100
AcDbLine
 10
569.3512566397326
 20
289.1078550931423
 30
0.0
 11
549.7213474872851
 21
289.1078550931423
 31
0.0
  0
LINE
  5
496
330
17
100
AcDbEntity
  8
4
100
AcDbLine
 10
552.1750861313412
 20
296.1078550931423
 30
0.0
 11
566.8975179956765
 21
296.1078550931423
 31
0.0
  0
ARC
  5
497
330
17
100
AcDbEntity
  8
4
100
AcDbCircle
 10
559.5363020635091
 20
282.3286897956826
 30
0.0
 40
13.77916529745958
100
AcDbArc
 50
69.13593563608057
 51
110.8640643639214
  0
ARC
  5
498
330
17
100
AcDbEntity
  8
4
100
AcDbCircle
 10
676.0363020635082
 20
82.20795109314247
 30
0.0
 40
3.0
100
AcDbArc
 50
0.0
 51
90.0
  0
LINE
  5
499
330
17
100
AcDbEntity
  8
4
100
AcDbLine
 10
679.0363020635082
 20
82.20795109314247
 30
0.0
 11
679.0363020635082
 21
50.20795109314247
 31
0.0
  0
ARC
  5
49A
330
17
100
AcDbEntity
  8
4
100
AcDbCircle
 10
658.0363020635082
 20
90.20795109314247
 30
0.0
 40
5.0
100
AcDbArc
 50
180.0
 51
270.0
  0
LINE
  5
49C
330
17
100
AcDbEntity
  8
4
100
AcDbLine
 10
644.0363020635082
 20
85.20795109314247
 30
0.0
 11
644.0363020635082
 21
50.20795109314247
 31
0.0
  0
LINE
  5
49D
330
17
100
AcDbEntity
  8
4
100
AcDbLine
 10
664.0363020635082
 20
85.20795109314247
 30
0.0
 11
664.0363020635082
 21
50.20795109314247
 31
0.0
  0
ARC
  5
4A1
330
17
100
AcDbEntity
  8
4
100
AcDbCircle
 10
623.0363020635082
 20
90.20795109314247
 30
0.0
 40
5.0
100
AcDbArc
 50
180.0
 51
270.0
  0
LWPOLYLINE
  5
4A2
330
17
100
AcDbEntity
  8
4
100
AcDbPolyline
 90
       34
 70
     0
 43
0.0
 10
629.0251620635086
 20
85.20795109314247
 10
628.4767780635084
 20
84.57294709314272
 10
627.9484140635082
 20
83.93485509314257
 10
627.4472980635082
 20
83.29256309314258
 10
626.1796300635083
 20
81.32935509314245
 10
625.4171540635084
 20
79.28826709314251
 10
625.3089620635083
 20
78.58539909314266
 10
625.2857900635086
 20
77.86942709314269
 10
625.3548580635083
 20
77.1392350931427
 10
625.5223980635083
 20
76.37665109314264
 10
625.7637900635082
 20
75.60407909314233
 10
626.0485380635082
 20
74.82762709314272
 10
626.8579940635082
 20
72.53598309314236
 10
627.0112340635083
 20
71.80501109314253
 10
627.0553620635083
 20
71.10065909314233
 10
626.9598860635083
 20
70.42903509314226
 10
626.4273540635081
 20
69.34805509314253
 10
625.5479340635084
 20
68.34404709314265
 10
624.4862060635082
 20
67.37724309314251
 10
623.4067580635083
 20
66.40787509314248
 10
622.4741660635082
 20
65.39616309314249
 10
621.8530140635085
 20
64.30234309314244
 10
621.6729700635083
 20
63.44909109314256
 10
621.690190063508
 20
62.54539509314225
 10
621.8567900635085
 20
61.60356709314226
 10
622.7740820635086
 20
58.67248309314243
 10
623.059414063508
 20
57.7013150931424
 10
623.2547300635083
 20
56.7536070931427
 10
623.3121500635084
 20
55.84167909314226
 10
623.0777340635082
 20
54.57110709314236
 10
622.4998660635083
 20
53.38945909314259
 10
621.6442300635085
 20
52.27971909314226
 10
620.576522063508
 20
51.22488709314246
 10
619.3624340635083
 20
50.20795109314247
  0
LINE
  5
4A3
330
17
100
AcDbEntity
  8
4
100
AcDbLine
 10
676.0363020635082
 20
85.20795109314247
 30
0.0
 11
562.0363020635082
 21
85.20795109314247
 31
0.0
  0
ARC
  5
4A4
330
17
100
AcDbEntity
  8
4
100
AcDbCircle
 10
542.7933820635085
 20
87.20795109314247
 30
0.0
 40
3.000012
100
AcDbArc
 50
45.00000000000307
 51
90.0
  0
LINE
  5
4A5
330
17
100
AcDbEntity
  8
4
100
AcDbLine
 10
559.0363020635082
 20
75.20770709314263
 30
0.0
 11
544.9147180635082
 21
89.32928709314263
 31
0.0
  0
LINE
  5
4A6
330
17
100
AcDbEntity
  8
4
100
AcDbLine
 10
533.0363020635082
 20
75.20795109314247
 30
0.0
 11
528.0363020635082
 21
70.20795109314247
 31
0.0
  0
LINE
  5
4A7
330
17
100
AcDbEntity
  8
4
100
AcDbLine
 10
525.9655020635082
 20
75.20795109314247
 30
0.0
 11
540.9655020635082
 21
90.20795109314247
 31
0.0
  0
LINE
  5
4A8
330
17
100
AcDbEntity
  8
4
100
AcDbLine
 10
559.0360580635083
 20
75.20795109314247
 30
0.0
 11
525.9655020635082
 21
75.20795109314247
 31
0.0
  0
LINE
  5
4A9
330
17
100
AcDbEntity
  8
4
100
AcDbLine
 10
559.0363020635082
 20
82.20795109314247
 30
0.0
 11
559.0363020635082
 21
50.20795109314247
 31
0.0
  0
LINE
  5
4AA
330
17
100
AcDbEntity
  8
4
100
AcDbLine
 10
425.0363020635082
 20
75.20795109314247
 30
0.0
 11
430.0363020635082
 21
70.20795109314247
 31
0.0
  0
LINE
  5
4AD
330
17
100
AcDbEntity
  8
4
100
AcDbLine
 10
528.0363020635082
 20
70.20795109314247
 30
0.0
 11
430.0363020635082
 21
70.20795109314247
 31
0.0
  0
ARC
  5
4AE
330
17
100
AcDbEntity
  8
4
100
AcDbCircle
 10
562.0363020635082
 20
82.20795109314247
 30
0.0
 40
3.0
100
AcDbArc
 50
90.0
 51
180.0
  0
LINE
  5
4AF
330
17
100
AcDbEntity
  8
4
100
AcDbLine
 10
559.0363020635082
 20
50.20795109314247
 30
0.0
 11
679.0363020635082
 21
50.20795109314247
 31
0.0
  0
LINE
  5
4B0
330
17
100
AcDbEntity
  8
4
100
AcDbLine
 10
653.0363020635082
 20
90.20795109314247
 30
0.0
 11
653.0363020635082
 21
130.2079510931425
 31
0.0
  0
LINE
  5
4B1
330
17
100
AcDbEntity
  8
4
100
AcDbLine
 10
618.0363020635082
 20
90.20795109314247
 30
0.0
 11
618.0363020635082
 21
125.2079510931425
 31
0.0
  0
LINE
  5
4B2
330
17
100
AcDbEntity
  8
L-CENTER
 48
8.0
100
AcDbLine
 10
654.0363020635082
 20
95.20795109314247
 30
0.0
 11
654.0363020635082
 21
40.20795109314247
 31
0.0
  0
LINE
  5
4B3
330
17
100
AcDbEntity
  8
4
100
AcDbLine
 10
404.0363020635082
 20
308.0917390931426
 30
0.0
 11
404.0363020635082
 21
312.2079510931425
 31
0.0
  0
LINE
  5
4B4
330
17
100
AcDbEntity
  8
4
100
AcDbLine
 10
401.0363020635082
 20
314.2079510931425
 30
0.0
 11
401.0363020635082
 21
312.2079510931425
 31
0.0
  0
LINE
  5
4B5
330
17
100
AcDbEntity
  8
4
100
AcDbLine
 10
402.0363020635082
 20
314.2079510931425
 30
0.0
 11
402.0363020635082
 21
323.2079510931425
 31
0.0
  0
LINE
  5
4B6
330
17
100
AcDbEntity
  8
4
100
AcDbLine
 10
390.5363020635082
 20
318.2079510931425
 30
0.0
 11
390.5363020635082
 21
323.2079510931425
 31
0.0
  0
LINE
  5
4B7
330
17
100
AcDbEntity
  8
4
100
AcDbLine
 10
357.0363020635082
 20
314.2079510931425
 30
0.0
 11
357.0363020635082
 21
312.2079510931425
 31
0.0
  0
LINE
  5
4B8
330
17
100
AcDbEntity
  8
4
100
AcDbLine
 10
367.5363020635082
 20
318.2079510931425
 30
0.0
 11
367.5363020635082
 21
323.2079510931425
 31
0.0
  0
LINE
  5
4B9
330
17
100
AcDbEntity
  8
4
100
AcDbLine
 10
356.0363020635082
 20
314.2079510931425
 30
0.0
 11
356.0363020635082
 21
323.2079510931425
 31
0.0
  0
LINE
  5
4BA
330
17
100
AcDbEntity
  8
4
100
AcDbLine
 10
356.0363020635082
 20
314.2079510931425
 30
0.0
 11
402.0363020635082
 21
314.2079510931425
 31
0.0
  0
LINE
  5
4BB
330
17
100
AcDbEntity
  8
4
100
AcDbLine
 10
356.0363020635082
 20
318.2079510931425
 30
0.0
 11
402.0363020635082
 21
318.2079510931425
 31
0.0
  0
LINE
  5
4BC
330
17
100
AcDbEntity
  8
4
100
AcDbLine
 10
356.0363020635082
 20
323.2079510931425
 30
0.0
 11
402.0363020635082
 21
323.2079510931425
 31
0.0
  0
LINE
  5
4BD
330
17
100
AcDbEntity
  8
4
100
AcDbLine
 10
354.0363020635082
 20
312.2079510931425
 30
0.0
 11
404.0363020635082
 21
312.2079510931425
 31
0.0
  0
LINE
  5
4BE
330
17
100
AcDbEntity
  8
4
100
AcDbLine
 10
406.0363020635082
 20
270.2079510931425
 30
0.0
 11
406.0363020635082
 21
272.2079510931425
 31
0.0
  0
LINE
  5
4BF
330
17
100
AcDbEntity
  8
4
100
AcDbLine
 10
403.4437793516199
 20
295.2043281472901
 30
0.0
 11
403.4437793516199
 21
289.1078550931423
 31
0.0
  0
ARC
  5
4C0
330
17
100
AcDbEntity
  8
4
100
AcDbCircle
 10
405.8975179956756
 20
292.324241164083
 30
0.0
 40
3.783613929059507
100
AcDbArc
 50
49.57010315517714
 51
130.4298968448315
  0
LINE
  5
4C1
330
17
100
AcDbEntity
  8
4
100
AcDbLine
 10
408.3512566397317
 20
286.6078550931423
 30
0.0
 11
408.3512566397317
 21
295.2043281472901
 31
0.0
  0
LINE
  5
4C2
330
17
100
AcDbEntity
  8
4
100
AcDbLine
 10
393.628824775396
 20
295.2043281472901
 30
0.0
 11
393.628824775396
 21
289.1078550931423
 31
0.0
  0
ARC
  5
4C3
330
17
100
AcDbEntity
  8
4
100
AcDbCircle
 10
391.1750861313399
 20
292.324241164083
 30
0.0
 40
3.783613929059507
100
AcDbArc
 50
49.57010315516856
 51
130.4298968448228
  0
LINE
  5
4C4
330
17
100
AcDbEntity
  8
4
100
AcDbLine
 10
388.7213474872842
 20
295.2043281472901
 30
0.0
 11
388.7213474872842
 21
286.6078550931423
 31
0.0
  0
ARC
  5
4C5
330
17
100
AcDbEntity
  8
4
100
AcDbCircle
 10
398.5363020635077
 20
282.3286897956826
 30
0.0
 40
13.77916529745958
100
AcDbArc
 50
69.13593563608057
 51
110.8640643639194
  0
LINE
  5
4C6
330
17
100
AcDbEntity
  8
4
100
AcDbLine
 10
405.8975179956756
 20
296.1078550931423
 30
0.0
 11
391.1750861313403
 21
296.1078550931423
 31
0.0
  0
LINE
  5
4C7
330
17
100
AcDbEntity
  8
4
100
AcDbLine
 10
388.7213474872842
 20
289.1078550931423
 30
0.0
 11
408.3512566397317
 21
289.1078550931423
 31
0.0
  0
LINE
  5
4C8
330
17
100
AcDbEntity
  8
4
100
AcDbLine
 10
388.7213474872842
 20
286.6078550931423
 30
0.0
 11
408.3512566397317
 21
286.6078550931423
 31
0.0
  0
LINE
  5
4C9
330
17
100
AcDbEntity
  8
L-CENTER
 48
8.0
100
AcDbLine
 10
398.5363020635077
 20
262.8718757235088
 30
0.0
 11
398.5363020635077
 21
298.9758333477224
 31
0.0
  0
LINE
  5
4CA
330
17
100
AcDbEntity
  8
4
100
AcDbLine
 10
356.0363020635082
 20
270.2079510931425
 30
0.0
 11
356.0363020635082
 21
272.2079510931425
 31
0.0
  0
LINE
  5
4CB
330
17
100
AcDbEntity
  8
L-CENTER
 48
8.0
100
AcDbLine
 10
379.0363020635082
 20
332.6930590931423
 30
0.0
 11
379.0363020635082
 21
277.9838310931426
 31
0.0
  0
LINE
  5
4CC
330
17
100
AcDbEntity
  8
4
100
AcDbLine
 10
354.0363020635082
 20
291.1024830931427
 30
0.0
 11
354.0363020635082
 21
312.2079510931425
 31
0.0
  0
LINE
  5
4CD
330
17
100
AcDbEntity
  8
4
100
AcDbLine
 10
322.9437793516204
 20
295.2043281472901
 30
0.0
 11
322.9437793516204
 21
289.1078550931423
 31
0.0
  0
ARC
  5
4CE
330
17
100
AcDbEntity
  8
4
100
AcDbCircle
 10
325.3975179956756
 20
292.324241164083
 30
0.0
 40
3.783613929059507
100
AcDbArc
 50
49.57010315516856
 51
130.4298968448228
  0
LINE
  5
4CF
330
17
100
AcDbEntity
  8
4
100
AcDbLine
 10
327.8512566397317
 20
286.6078550931423
 30
0.0
 11
327.8512566397317
 21
295.2043281472901
 31
0.0
  0
LINE
  5
4D0
330
17
100
AcDbEntity
  8
L-CENTER
 48
8.0
100
AcDbLine
 10
318.0363020635082
 20
262.8718757235088
 30
0.0
 11
318.0363020635082
 21
298.9758333477224
 31
0.0
  0
ARC
  5
4D1
330
17
100
AcDbEntity
  8
4
100
AcDbCircle
 10
309.0363020635082
 20
284.6078550931423
 30
0.0
 40
2.0
100
AcDbArc
 50
90.0
 51
180.0
  0
LINE
  5
4D2
330
17
100
AcDbEntity
  8
4
100
AcDbLine
 10
307.0363020635082
 20
272.2079510931425
 30
0.0
 11
307.0363020635082
 21
274.2079510931425
 31
0.0
  0
LINE
  5
4D3
330
17
100
AcDbEntity
  8
4
100
AcDbLine
 10
305.0363020635082
 20
270.2079510931425
 30
0.0
 11
305.0363020635082
 21
272.2079510931425
 31
0.0
  0
LINE
  5
4D4
330
17
100
AcDbEntity
  8
4
100
AcDbLine
 10
307.0363020635082
 20
284.6078550931423
 30
0.0
 11
307.0363020635082
 21
274.2079510931425
 31
0.0
  0
LINE
  5
4D5
330
17
100
AcDbEntity
  8
4
100
AcDbLine
 10
313.128824775396
 20
295.2043281472901
 30
0.0
 11
313.128824775396
 21
289.1078550931423
 31
0.0
  0
ARC
  5
4D6
330
17
100
AcDbEntity
  8
4
100
AcDbCircle
 10
310.6750861313403
 20
292.324241164083
 30
0.0
 40
3.783613929059507
100
AcDbArc
 50
49.57010315516856
 51
130.4298968448228
  0
LINE
  5
4D7
330
17
100
AcDbEntity
  8
4
100
AcDbLine
 10
308.2213474872847
 20
295.2043281472901
 30
0.0
 11
308.2213474872847
 21
286.6078550931423
 31
0.0
  0
ARC
  5
4D8
330
17
100
AcDbEntity
  8
4
100
AcDbCircle
 10
296.1363980635083
 20
268.2079510931425
 30
0.0
 40
2.0
100
AcDbArc
 50
90.0
 51
180.0
  0
LINE
  5
4D9
330
17
100
AcDbEntity
  8
4
100
AcDbLine
 10
296.1363980635083
 20
270.2079510931425
 30
0.0
 11
306.0363020635082
 21
270.2079510931425
 31
0.0
  0
LINE
  5
4DA
330
17
100
AcDbEntity
  8
4
100
AcDbLine
 10
294.1363020635076
 20
232.8194033881121
 30
0.0
 11
294.1363020635076
 21
252.4493125405595
 31
0.0
  0
LINE
  5
4DB
330
17
100
AcDbEntity
  8
4
100
AcDbLine
 10
291.6363020635076
 20
232.8194033881121
 30
0.0
 11
291.6363020635076
 21
252.4493125405595
 31
0.0
  0
ARC
  5
4DC
330
17
100
AcDbEntity
  8
4
100
AcDbCircle
 10
288.419915992567
 20
249.9955738965034
 30
0.0
 40
3.783613929059507
100
AcDbArc
 50
139.5701031551704
 51
220.4298968448296
  0
LINE
  5
4DD
330
17
100
AcDbEntity
  8
4
100
AcDbLine
 10
284.6363020635076
 20
249.9955738965034
 30
0.0
 11
284.6363020635076
 21
235.2731420321682
 31
0.0
  0
ARC
  5
4DE
330
17
100
AcDbEntity
  8
4
100
AcDbCircle
 10
288.419915992567
 20
235.2731420321682
 30
0.0
 40
3.783613929059507
100
AcDbArc
 50
139.5701031551704
 51
220.4298968448296
  0
ARC
  5
4DF
330
17
100
AcDbEntity
  8
4
100
AcDbCircle
 10
298.4154673609673
 20
242.6343579643358
 30
0.0
 40
13.77916529745958
100
AcDbArc
 50
159.1359356360801
 51
200.8640643639194
  0
LINE
  5
4E0
330
17
100
AcDbEntity
  8
4
100
AcDbLine
 10
285.5398290093599
 20
237.7268806762238
 30
0.0
 11
291.6363020635076
 21
237.7268806762238
 31
0.0
  0
LINE
  5
4E1
330
17
100
AcDbEntity
  8
4
100
AcDbLine
 10
285.5398290093599
 20
247.5418352524478
 30
0.0
 11
291.6363020635076
 21
247.5418352524478
 31
0.0
  0
LINE
  5
4E2
330
17
100
AcDbEntity
  8
4
100
AcDbLine
 10
285.5398290093599
 20
232.8194033881121
 30
0.0
 11
294.1363020635076
 21
232.8194033881121
 31
0.0
  0
LINE
  5
4E3
330
17
100
AcDbEntity
  8
4
100
AcDbLine
 10
294.1363020635076
 20
252.4493125405595
 30
0.0
 11
285.5398290093599
 21
252.4493125405595
 31
0.0
  0
LINE
  5
4E4
330
17
100
AcDbEntity
  8
L-CENTER
 48
8.0
100
AcDbLine
 10
316.3974701722291
 20
242.6343579643358
 30
0.0
 11
281.7683238089276
 21
242.6343579643358
 31
0.0
  0
ARC
  5
4E5
330
17
100
AcDbEntity
  8
4
100
AcDbCircle
 10
318.0363020635082
 20
282.3286897956826
 30
0.0
 40
13.77916529745958
100
AcDbArc
 50
69.13593563608057
 51
110.8640643639194
  0
LINE
  5
4E6
330
17
100
AcDbEntity
  8
4
100
AcDbLine
 10
325.3975179956756
 20
296.1078550931423
 30
0.0
 11
310.6750861313408
 21
296.1078550931423
 31
0.0
  0
LINE
  5
4E7
330
17
100
AcDbEntity
  8
4
100
AcDbLine
 10
308.2213474872847
 20
289.1078550931423
 30
0.0
 11
327.8512566397317
 21
289.1078550931423
 31
0.0
  0
LINE
  5
4E8
330
17
100
AcDbEntity
  8
4
100
AcDbLine
 10
308.2213474872847
 20
286.6078550931423
 30
0.0
 11
327.8512566397317
 21
286.6078550931423
 31
0.0
  0
LINE
  5
4E9
330
17
100
AcDbEntity
  8
4
100
AcDbLine
 10
285.5398290093599
 20
167.5964987981731
 30
0.0
 11
294.1363020635076
 21
167.5964987981731
 31
0.0
  0
LINE
  5
4EA
330
17
100
AcDbEntity
  8
4
100
AcDbLine
 10
285.5398290093599
 20
162.6890215100614
 30
0.0
 11
291.6363020635076
 21
162.6890215100614
 31
0.0
  0
ARC
  5
4EB
330
17
100
AcDbEntity
  8
4
100
AcDbCircle
 10
288.419915992567
 20
165.142760154117
 30
0.0
 40
3.783613929059507
100
AcDbArc
 50
139.5701031551704
 51
220.4298968448296
  0
ARC
  5
4EC
330
17
100
AcDbEntity
  8
4
100
AcDbCircle
 10
335.0363020635082
 20
125.2079510931425
 30
0.0
 40
5.0
100
AcDbArc
 50
0.0
 51
90.0
  0
ARC
  5
4ED
330
17
100
AcDbEntity
  8
4
100
AcDbCircle
 10
296.1363980635083
 20
132.2079510931425
 30
0.0
 40
2.0
100
AcDbArc
 50
180.0
 51
270.0
  0
ARC
  5
4EE
330
17
100
AcDbEntity
  8
4
100
AcDbCircle
 10
288.419915992567
 20
150.4203282897818
 30
0.0
 40
3.783613929059507
100
AcDbArc
 50
139.5701031551704
 51
220.4298968448296
  0
LINE
  5
4EF
330
17
100
AcDbEntity
  8
4
100
AcDbLine
 10
294.1363020635076
 20
147.9665896457257
 30
0.0
 11
285.5398290093599
 21
147.9665896457257
 31
0.0
  0
LINE
  5
4F0
330
17
100
AcDbEntity
  8
4
100
AcDbLine
 10
285.5398290093599
 20
152.8740669338374
 30
0.0
 11
291.6363020635076
 21
152.8740669338374
 31
0.0
  0
LINE
  5
4F1
330
17
100
AcDbEntity
  8
4
100
AcDbLine
 10
296.1363980635083
 20
130.2079510931425
 30
0.0
 11
306.0363020635082
 21
130.2079510931425
 31
0.0
  0
LINE
  5
4F2
330
17
100
AcDbEntity
  8
L-CENTER
 48
8.0
100
AcDbLine
 10
316.3974701722291
 20
157.7815442219494
 30
0.0
 11
281.7683238089276
 21
157.7815442219494
 31
0.0
  0
LINE
  5
4F3
330
17
100
AcDbEntity
  8
4
100
AcDbLine
 10
284.6363020635076
 20
150.4203282897818
 30
0.0
 11
284.6363020635076
 21
165.142760154117
 31
0.0
  0
LINE
  5
4F4
330
17
100
AcDbEntity
  8
4
100
AcDbLine
 10
291.6363020635076
 20
167.5964987981731
 30
0.0
 11
291.6363020635076
 21
147.9665896457257
 31
0.0
  0
LINE
  5
4F5
330
17
100
AcDbEntity
  8
4
100
AcDbLine
 10
294.1363020635076
 20
167.5964987981731
 30
0.0
 11
294.1363020635076
 21
147.9665896457257
 31
0.0
  0
ARC
  5
4F6
330
17
100
AcDbEntity
  8
4
100
AcDbCircle
 10
298.4154673609673
 20
157.7815442219494
 30
0.0
 40
13.77916529745958
100
AcDbArc
 50
159.1359356360801
 51
200.8640643639194
  0
LINE
  5
4F7
330
17
100
AcDbEntity
  8
4
100
AcDbLine
 10
311.0363020635082
 20
130.2079510931425
 30
0.0
 11
311.0363020635082
 21
270.2079510931425
 31
0.0
  0
LINE
  5
4F8
330
17
100
AcDbEntity
  8
4
100
AcDbLine
 10
306.0363020635082
 20
130.2079510931425
 30
0.0
 11
306.0363020635082
 21
270.2079510931425
 31
0.0
  0
LINE
  5
4F9
330
17
100
AcDbEntity
  8
4
100
AcDbLine
 10
306.0363020635082
 20
130.2079510931425
 30
0.0
 11
306.0363020635082
 21
270.2079510931425
 31
0.0
  0
LINE
  5
4FA
330
17
100
AcDbEntity
  8
4
100
AcDbLine
 10
294.1363980635083
 20
268.2079510931425
 30
0.0
 11
294.1363980635083
 21
132.2079510931425
 31
0.0
  0
ARC
  5
4FB
330
17
100
AcDbEntity
  8
4
100
AcDbCircle
 10
415.2792220635083
 20
87.20795109314247
 30
0.0
 40
3.000012
100
AcDbArc
 50
90.0
 51
134.9999999999969
  0
ARC
  5
4FC
330
17
100
AcDbEntity
  8
4
100
AcDbCircle
 10
396.0363020635082
 20
82.20795109314247
 30
0.0
 40
3.0
100
AcDbArc
 50
0.0
 51
90.0
  0
LINE
  5
4FD
330
17
100
AcDbEntity
  8
4
100
AcDbLine
 10
399.0363020635082
 20
75.20770709314263
 30
0.0
 11
413.1578820635082
 21
89.32928709314263
 31
0.0
  0
LINE
  5
4FE
330
17
100
AcDbEntity
  8
4
100
AcDbLine
 10
399.0363020635082
 20
82.20795109314247
 30
0.0
 11
399.0363020635082
 21
50.20795109314247
 31
0.0
  0
ARC
  5
4FF
330
17
100
AcDbEntity
  8
4
100
AcDbCircle
 10
335.0363020635082
 20
90.20795109314247
 30
0.0
 40
5.0
100
AcDbArc
 50
270.0
 51
0.0
  0
ARC
  5
500
330
17
100
AcDbEntity
  8
4
100
AcDbCircle
 10
300.0363020635082
 20
90.20795109314247
 30
0.0
 40
5.0
100
AcDbArc
 50
270.0
 51
0.0
  0
LINE
  5
503
330
17
100
AcDbEntity
  8
4
100
AcDbLine
 10
282.0363020635082
 20
85.20795109314247
 30
0.0
 11
396.0363020635082
 21
85.20795109314247
 31
0.0
  0
LINE
  5
504
330
17
100
AcDbEntity
  8
4
100
AcDbLine
 10
279.0363020635082
 20
82.20795109314247
 30
0.0
 11
279.0363020635082
 21
50.20795109314247
 31
0.0
  0
ARC
  5
507
330
17
100
AcDbEntity
  8
4
100
AcDbCircle
 10
282.0363020635082
 20
82.20795109314247
 30
0.0
 40
3.0
100
AcDbArc
 50
90.0
 51
180.0
  0
LINE
  5
508
330
17
100
AcDbEntity
  8
4
100
AcDbLine
 10
399.0363020635082
 20
50.20795109314247
 30
0.0
 11
279.0363020635082
 21
50.20795109314247
 31
0.0
  0
LINE
  5
509
330
17
100
AcDbEntity
  8
4
100
AcDbLine
 10
340.0363020635082
 20
125.2079510931425
 30
0.0
 11
340.0363020635082
 21
90.20795109314247
 31
0.0
  0
LINE
  5
50A
330
17
100
AcDbEntity
  8
4
100
AcDbLine
 10
305.0363020635082
 20
90.20795109314247
 30
0.0
 11
305.0363020635082
 21
130.2079510931425
 31
0.0
  0
LINE
  5
50B
330
17
100
AcDbEntity
  8
L-CENTER
 48
8.0
100
AcDbLine
 10
304.0363020635082
 20
95.20795109314247
 30
0.0
 11
304.0363020635082
 21
40.20795109314247
 31
0.0
  0
LINE
  5
50E
330
17
100
AcDbEntity
  8
4
100
AcDbLine
 10
432.1068580635083
 20
75.20795109314247
 30
0.0
 11
417.1068580635083
 21
90.20795109314247
 31
0.0
  0
LINE
  5
50F
330
17
100
AcDbEntity
  8
4
100
AcDbLine
 10
399.0365460635085
 20
75.20795109314247
 30
0.0
 11
432.1068580635083
 21
75.20795109314247
 31
0.0
  0
LINE
  5
510
330
17
100
AcDbEntity
  8
4
100
AcDbLine
 10
542.7933820635085
 20
90.20795109314247
 30
0.0
 11
415.2792220635083
 21
90.20795109314247
 31
0.0
  0
LINE
  5
511
330
17
100
AcDbEntity
  8
4
100
AcDbLine
 10
340.8085180635085
 20
286.6078550931423
 30
0.0
 11
422.0363020635082
 21
314.2079510931425
 31
0.0
  0
LINE
  5
512
330
17
100
AcDbEntity
  8
4
100
AcDbLine
 10
652.0363020635082
 20
130.2079510931425
 30
0.0
 11
306.0363020635082
 21
130.2079510931425
 31
0.0
  0
LINE
  5
513
330
17
100
AcDbEntity
  8
4
100
AcDbLine
 10
651.0363020635082
 20
274.2079510931425
 30
0.0
 11
307.0363020635082
 21
274.2079510931425
 31
0.0
  0
LINE
  5
514
330
17
100
AcDbEntity
  8
4
100
AcDbLine
 10
653.0363020635082
 20
272.2079510931425
 30
0.0
 11
305.0363020635082
 21
272.2079510931425
 31
0.0
  0
LINE
  5
515
330
17
100
AcDbEntity
  8
4
100
AcDbLine
 10
652.0363020635082
 20
270.2079510931425
 30
0.0
 11
306.0363020635082
 21
270.2079510931425
 31
0.0
  0
LINE
  5
516
330
17
100
AcDbEntity
  8
4
100
AcDbLine
 10
649.0363020635082
 20
286.6078550931423
 30
0.0
 11
309.0363020635082
 21
286.6078550931423
 31
0.0
  0
LINE
  5
517
330
17
100
AcDbEntity
  8
L-CENTER
 48
8.0
100
AcDbLine
 10
479.0363020635082
 20
446.1187328479348
 30
0.0
 11
479.0363020635082
 21
62.25989731076277
 31
0.0
  0
LINE
  5
518
330
17
100
AcDbEntity
  8
4
100
AcDbLine
 10
508.0363020635082
 20
439.2079510931425
 30
0.0
 11
508.0363020635082
 21
340.2079510931425
 31
0.0
  0
LINE
  5
519
330
17
100
AcDbEntity
  8
4
100
AcDbLine
 10
450.0363020635082
 20
439.2079510931425
 30
0.0
 11
450.0363020635082
 21
340.2079510931425
 31
0.0
  0
LINE
  5
51A
330
17
100
AcDbEntity
  8
4
100
AcDbLine
 10
513.0363020635082
 20
350.2079510931425
 30
0.0
 11
513.0363020635082
 21
440.2079510931425
 31
0.0
  0
LINE
  5
521
330
17
100
AcDbEntity
  8
4
100
AcDbLine
 10
684.0363020635082
 20
223.7079510931425
 30
0.0
 11
758.0363020635082
 21
223.7079510931425
 31
0.0
  0
LINE
  5
522
330
17
100
AcDbEntity
  8
4
100
AcDbLine
 10
758.0363020635082
 20
218.2079510931425
 30
0.0
 11
679.0363020635082
 21
218.2079510931425
 31
0.0
  0
LINE
  5
523
330
17
100
AcDbEntity
  8
4
100
AcDbLine
 10
759.0363020635082
 20
223.7079510931425
 30
0.0
 11
684.0363020635082
 21
223.7079510931425
 31
0.0
  0
LINE
  5
524
330
17
100
AcDbEntity
  8
4
100
AcDbLine
 10
758.0363020635082
 20
182.2079510931425
 30
0.0
 11
679.0363020635082
 21
182.2079510931425
 31
0.0
  0
LINE
  5
525
330
17
100
AcDbEntity
  8
L-CENTER
 48
8.0
100
AcDbLine
 10
766.3927063215633
 20
200.2079510931425
 30
0.0
 11
191.679897805453
 21
200.2079510931426
 31
0.0
  0
LINE
  5
527
330
17
100
AcDbEntity
  8
L-CENTER
 48
8.0
100
AcDbLine
 10
766.3927063215629
 20
707.8720494969225
 30
0.0
 11
191.679897805453
 21
707.8720494969225
 31
0.0
  0
LINE
  5
528
330
17
100
AcDbEntity
  8
4
100
AcDbLine
 10
689.0363020635077
 20
712.8720494969225
 30
0.0
 11
759.0363020635082
 21
712.8720494969225
 31
0.0
  0
LINE
  5
529
330
17
100
AcDbEntity
  8
4
100
AcDbLine
 10
681.0363020635077
 20
725.8720494969225
 30
0.0
 11
758.0363020635082
 21
725.8720494969225
 31
0.0
  0
LINE
  5
52A
330
17
100
AcDbEntity
  8
4
100
AcDbLine
 10
689.0363020635077
 20
702.8720494969225
 30
0.0
 11
759.0363020635082
 21
702.8720494969225
 31
0.0
  0
LINE
  5
52B
330
17
100
AcDbEntity
  8
4
100
AcDbLine
 10
681.0363020635077
 20
689.8720494969225
 30
0.0
 11
758.0363020635082
 21
689.8720494969225
 31
0.0
  0
LINE
  5
54E
330
17
100
AcDbEntity
  8
4
100
AcDbLine
 10
200.0363020635086
 20
725.8720494969225
 30
0.0
 11
200.0363020635086
 21
712.8720494969225
 31
0.0
  0
LINE
  5
54F
330
17
100
AcDbEntity
  8
4
100
AcDbLine
 10
200.0363020635082
 20
725.8720494969225
 30
0.0
 11
199.0363020635082
 21
724.8720494969225
 31
0.0
  0
LINE
  5
550
330
17
100
AcDbEntity
  8
4
100
AcDbLine
 10
200.0363020635086
 20
702.8720494969225
 30
0.0
 11
200.0363020635086
 21
689.872049496922
 31
0.0
  0
LINE
  5
551
330
17
100
AcDbEntity
  8
4
100
AcDbLine
 10
199.0363020635082
 20
690.8720494969225
 30
0.0
 11
200.0363020635082
 21
689.8720494969225
 31
0.0
  0
LINE
  5
552
330
17
100
AcDbEntity
  8
4
100
AcDbLine
 10
199.0363020635082
 20
724.8720494969225
 30
0.0
 11
199.0363020635082
 21
690.8720494969225
 31
0.0
  0
ARC
  5
553
330
17
100
AcDbEntity
  8
4
100
AcDbCircle
 10
277.0363020635086
 20
727.8720494969225
 30
0.0
 40
2.0
100
AcDbArc
 50
270.0
 51
0.0
  0
LINE
  5
554
330
17
100
AcDbEntity
  8
4
100
AcDbLine
 10
293.1363980635083
 20
727.8720494969225
 30
0.0
 11
279.0363020635086
 21
727.8720494969225
 31
0.0
  0
ARC
  5
555
330
17
100
AcDbEntity
  8
4
100
AcDbCircle
 10
277.0363020635086
 20
687.8720494969225
 30
0.0
 40
2.0
100
AcDbArc
 50
0.0
 51
90.0
  0
LINE
  5
556
330
17
100
AcDbEntity
  8
4
100
AcDbLine
 10
293.1363980635083
 20
687.8720494969225
 30
0.0
 11
279.0363020635086
 21
687.8720494969225
 31
0.0
  0
LINE
  5
557
330
17
100
AcDbEntity
  8
4
100
AcDbLine
 10
279.0363020635086
 20
727.8720494969225
 30
0.0
 11
279.0363020635086
 21
687.8720494969225
 31
0.0
  0
ARC
  5
558
330
17
100
AcDbEntity
  8
4
100
AcDbCircle
 10
269.0363020635086
 20
707.8720494969225
 30
0.0
 40
5.0
100
AcDbArc
 50
270.0
 51
90.0
  0
ARC
  5
559
330
17
100
AcDbEntity
  8
4
100
AcDbCircle
 10
304.0363020635082
 20
737.8720494969225
 30
0.0
 40
10.0
100
AcDbArc
 50
171.8903855440446
 51
174.2608295227332
  0
LINE
  5
55A
330
17
100
AcDbEntity
  8
4
100
AcDbLine
 10
293.1363980635083
 20
738.8720494969225
 30
0.0
 11
294.1363980635083
 21
738.8720494969225
 31
0.0
  0
LINE
  5
55B
330
17
100
AcDbEntity
  8
4
100
AcDbLine
 10
293.1363980635083
 20
676.8720494969225
 30
0.0
 11
294.1363980635083
 21
676.8720494969225
 31
0.0
  0
LINE
  5
55C
330
17
100
AcDbEntity
  8
4
100
AcDbLine
 10
293.1363980635083
 20
738.8720494969225
 30
0.0
 11
293.1363980635083
 21
676.8720494969225
 31
0.0
  0
LINE
  5
55D
330
17
100
AcDbEntity
  8
4
100
AcDbLine
 10
279.0363020635082
 20
779.1257048800085
 30
0.0
 11
279.0363020635082
 21
727.8720494969225
 31
0.0
  0
LINE
  5
55E
330
17
100
AcDbEntity
  8
4
100
AcDbLine
 10
269.0363020635086
 20
712.8720494969225
 30
0.0
 11
199.0363020635082
 21
712.8720494969225
 31
0.0
  0
LINE
  5
55F
330
17
100
AcDbEntity
  8
4
100
AcDbLine
 10
277.0363020635086
 20
725.8720494969225
 30
0.0
 11
200.0363020635082
 21
725.8720494969225
 31
0.0
  0
LINE
  5
560
330
17
100
AcDbEntity
  8
4
100
AcDbLine
 10
269.0363020635086
 20
702.8720494969225
 30
0.0
 11
199.0363020635082
 21
702.8720494969225
 31
0.0
  0
LINE
  5
561
330
17
100
AcDbEntity
  8
4
100
AcDbLine
 10
277.0363020635086
 20
689.8720494969225
 30
0.0
 11
200.0363020635082
 21
689.8720494969225
 31
0.0
  0
LINE
  5
562
330
17
100
AcDbEntity
  8
4
100
AcDbLine
 10
200.0363020635082
 20
218.2079510931425
 30
0.0
 11
199.0363020635082
 21
217.2079510931425
 31
0.0
  0
LINE
  5
563
330
17
100
AcDbEntity
  8
4
100
AcDbLine
 10
200.0363020635082
 20
182.2079510931425
 30
0.0
 11
199.0363020635082
 21
183.2079510931425
 31
0.0
  0
LINE
  5
564
330
17
100
AcDbEntity
  8
4
100
AcDbLine
 10
200.0363020635082
 20
218.2079510931425
 30
0.0
 11
200.0363020635082
 21
182.2079510931425
 31
0.0
  0
LINE
  5
565
330
17
100
AcDbEntity
  8
4
100
AcDbLine
 10
199.0363020635082
 20
223.7079510931425
 30
0.0
 11
199.0363020635082
 21
183.2079510931425
 31
0.0
  0
LINE
  5
566
330
17
100
AcDbEntity
  8
4
100
AcDbLine
 10
274.0363020635082
 20
218.2079510931425
 30
0.0
 11
274.0363020635082
 21
223.7079510931425
 31
0.0
  0
LINE
  5
567
330
17
100
AcDbEntity
  8
4
100
AcDbLine
 10
279.0363020635082
 20
220.2079510931425
 30
0.0
 11
293.1363980635083
 21
220.2079510931425
 31
0.0
  0
LINE
  5
568
330
17
100
AcDbEntity
  8
4
100
AcDbLine
 10
279.0363020635082
 20
180.2079510931425
 30
0.0
 11
293.1363980635083
 21
180.2079510931425
 31
0.0
  0
LINE
  5
569
330
17
100
AcDbEntity
  8
4
100
AcDbLine
 10
293.1363980635083
 20
231.2079510931425
 30
0.0
 11
293.1363980635083
 21
169.2079510931425
 31
0.0
  0
LINE
  5
56A
330
17
100
AcDbEntity
  8
4
100
AcDbLine
 10
279.0363020635082
 20
180.2079510931425
 30
0.0
 11
279.0363020635082
 21
220.2079510931425
 31
0.0
  0
LINE
  5
56B
330
17
100
AcDbEntity
  8
4
100
AcDbLine
 10
293.1363980635083
 20
169.2079510931425
 30
0.0
 11
294.1363980635083
 21
169.2079510931425
 31
0.0
  0
LINE
  5
56C
330
17
100
AcDbEntity
  8
4
100
AcDbLine
 10
293.1363980635083
 20
231.2079510931425
 30
0.0
 11
294.1363980635083
 21
231.2079510931425
 31
0.0
  0
LINE
  5
56D
330
17
100
AcDbEntity
  8
4
100
AcDbLine
 10
274.0363020635082
 20
223.7079510931425
 30
0.0
 11
200.0363020635082
 21
223.7079510931425
 31
0.0
  0
LINE
  5
56E
330
17
100
AcDbEntity
  8
4
100
AcDbLine
 10
200.0363020635082
 20
218.2079510931425
 30
0.0
 11
279.0363020635082
 21
218.2079510931425
 31
0.0
  0
LINE
  5
56F
330
17
100
AcDbEntity
  8
4
100
AcDbLine
 10
199.0363020635082
 20
223.7079510931425
 30
0.0
 11
274.0363020635082
 21
223.7079510931425
 31
0.0
  0
LINE
  5
570
330
17
100
AcDbEntity
  8
4
100
AcDbLine
 10
200.0363020635082
 20
182.2079510931425
 30
0.0
 11
279.0363020635082
 21
182.2079510931425
 31
0.0
  0
ENDSEC
  0
SECTION
  2
OBJECTS
  0
DICTIONARY
  5
5
330
0
100
AcDbDictionary
281
     1
  3
ACAD_COLOR
350
29
  3
ACAD_GROUP
350
27
  3
ACAD_LAYOUT
350
1E
  3
ACAD_MATERIAL
350
7
  3
ACAD_MLEADERSTYLE
350
52F
  3
ACAD_MLINESTYLE
350
15
  3
ACAD_PLOTSETTINGS
350
28
  3
ACAD_PLOTSTYLENAME
350
4
  3
ACAD_SCALELIST
350
30
  3
ACAD_TABLESTYLE
350
52E
  3
ACAD_VISUALSTYLE
350
2A
  3
ACDBHEADERROUNDTRIPXREC
350
58D
  3
AcDbVariableDictionary
350
52C
  3
DWGPROPS
350
590
  0
DICTIONARY
  5
591
330
26
100
AcDbDictionary
280
     1
281
     1
  3
ACAD_XREC_ROUNDTRIP
360
592
  0
DICTIONARY
  5
18
330
17
100
AcDbDictionary
280
     1
281
     1
  3
ACAD_SORTENTS
360
19
  0
DICTIONARY
  5
29
102
{ACAD_REACTORS
330
5
102
}
330
5
100
AcDbDictionary
281
     1
  0
DICTIONARY
  5
27
102
{ACAD_REACTORS
330
5
102
}
330
5
100
AcDbDictionary
281
     1
  0
DICTIONARY
  5
1E
102
{ACAD_REACTORS
330
5
102
}
330
5
100
AcDbDictionary
281
     1
  3
Model
350
1D
  3
ﾚｲｱｳﾄ1
350
23
  0
DICTIONARY
  5
7
102
{ACAD_REACTORS
330
5
102
}
330
5
100
AcDbDictionary
281
     1
  3
ByBlock
350
53
  3
ByLayer
350
10
  3
Global
350
6
  0
DICTIONARY
  5
52F
102
{ACAD_REACTORS
330
5
102
}
330
5
100
AcDbDictionary
281
     1
  3
Standard
350
549
  0
DICTIONARY
  5
15
102
{ACAD_REACTORS
330
5
102
}
330
5
100
AcDbDictionary
281
     1
  3
STANDARD
350
14
  0
DICTIONARY
  5
28
102
{ACAD_REACTORS
330
5
102
}
330
5
100
AcDbDictionary
281
     1
  0
ACDBDICTIONARYWDFLT
  5
4
102
{ACAD_REACTORS
330
5
102
}
330
5
100
AcDbDictionary
281
     1
  3
Normal
350
3
100
AcDbDictionaryWithDefault
340
3
  0
DICTIONARY
  5
30
102
{ACAD_REACTORS
330
5
102
}
330
5
100
AcDbDictionary
281
     1
  3
*A1
350
52
  0
DICTIONARY
  5
52E
102
{ACAD_REACTORS
330
5
102
}
330
5
100
AcDbDictionary
281
     1
  3
Standard
350
589
  0
DICTIONARY
  5
2A
102
{ACAD_REACTORS
330
5
102
}
330
5
100
AcDbDictionary
281
     1
  3
2dWireframe
350
537
  3
Basic
350
539
  3
Brighten
350
53C
  3
ColorChange
350
540
  3
Conceptual
350
53A
  3
Dim
350
53B
  3
EdgeColorOff
350
543
  3
Facepattern
350
53F
  3
Flat
350
533
  3
FlatWithEdges
350
534
  3
Gouraud
350
535
  3
GouraudWithEdges
350
536
  3
Hidden
350
538
  3
JitterOff
350
541
  3
Linepattern
350
53E
  3
OverhangOff
350
542
  3
Realistic
350
2B
  3
Shaded
350
548
  3
Shaded with edges
350
547
  3
Shades of Gray
350
544
  3
Sketchy
350
545
  3
Thicken
350
53D
  3
Wireframe
350
2C
  3
X-Ray
350
546
  0
DICTIONARY
  5
58D
102
{ACAD_REACTORS
330
5
102
}
330
5
100
AcDbDictionary
281
     1
  3
COLORDICT
350
58E
  3
MATERIALDICT
350
58F
  0
DICTIONARY
  5
52C
102
{ACAD_REACTORS
330
5
102
}
330
5
100
AcDbDictionary
281
     1
  3
CANNOSCALE
350
52D
  3
CMLEADERSTYLE
350
54B
  3
CTABLESTYLE
350
58A
  3
DIMASSOC
350
58B
  3
HIDETEXT
350
58C
  3
MSLTSCALE
350
593
  3
XCLIPFRAME
350
530
  0
XRECORD
  5
590
102
{ACAD_REACTORS
330
5
102
}
330
5
100
AcDbXrecord
280
     1
  1
DWGPROPS COOKIE
  2

  3

  4

  6

  7

  8
sg-d04
  9

300
=
301
=
302
=
303
=
304
=
305
=
306
=
307
=
308
=
309
=
 40
0.0
 41
2457541.159460521
 42
2457870.244312894
  1

 90
        0
  0
XRECORD
  5
592
102
{ACAD_REACTORS
330
591
102
}
330
591
100
AcDbXrecord
280
     1
102
VTR_0.000_0.000_1.000_1.000_VISUALSTYLE
340
537
102
VTR_0.000_0.000_1.000_1.000_GRIDDISPLAY
 70
     3
102
VTR_0.000_0.000_1.000_1.000_GRIDMAJOR
 70
     5
102
VTR_0.000_0.000_1.000_1.000_DEFAULTLIGHTING
280
     1
102
VTR_0.000_0.000_1.000_1.000_DEFAULTLIGHTINGTYPE
 70
     1
102
VTR_0.000_0.000_1.000_1.000_BRIGHTNESS
141
0.0
102
VTR_0.000_0.000_1.000_1.000_CONTRAST
142
0.0
  0
SORTENTSTABLE
  5
19
102
{ACAD_REACTORS
330
18
102
}
330
18
100
AcDbSortentsTable
330
17
  0
LAYOUT
  5
1D
102
{ACAD_REACTORS
330
1E
102
}
330
1E
100
AcDbPlotSettings
  1

  2
Bullzip PDF Printer.pc3
  4
A3
  6

 40
0.2
 41
0.0
 42
0.0
 43
0.0
 44
420.2
 45
297.1
 46
25.0
 47
12.0
 48
79.99999984133319
 49
0.0
140
1607.999996341333
141
1089.999997456666
142
1.0
143
4.0
 70
 11936
 72
     1
 73
     0
 74
     4
  7
monochrome.ctb
 75
    18
147
0.25
148
-79.99999984133319
149
0.0
100
AcDbLayout
  1
Model
 70
     1
 71
     0
 10
0.0
 20
0.0
 11
12.0
 21
9.0
 12
0.0
 22
0.0
 32
0.0
 14
191.679897805453
 24
20.09580344177658
 34
0.0
 15
1380.249719856631
 25
1072.121050606681
 35
0.0
146
0.0
 13
0.0
 23
0.0
 33
0.0
 16
1.0
 26
0.0
 36
0.0
 17
0.0
 27
1.0
 37
0.0
 76
     0
330
17
331
2D
1001
ACAD_PSEXT
1000
Bullzip PDF Printer.pc3
1000
Bullzip PDF Printer
1000
BULLZIP
1000
Bullzip PDF Printer 10.1.0.1871
1070
     0
  0
LAYOUT
  5
23
102
{ACAD_REACTORS
330
1E
102
}
330
1E
100
AcDbPlotSettings
  1

  2
SR-LP8300F
  4

  6

 40
0.0
 41
0.0
 42
0.0
 43
0.0
 44
0.0
 45
0.0
 46
0.0
 47
0.0
 48
0.0
 49
0.0
140
0.0
141
0.0
142
1.0
143
1.0
 70
   688
 72
     0
 73
     0
 74
     5
  7
monochrome.ctb
 75
    16
147
1.0
148
0.0
149
0.0
100
AcDbLayout
  1
ﾚｲｱｳﾄ1
 70
     1
 71
     1
 10
0.0
 20
0.0
 11
12.0
 21
9.0
 12
0.0
 22
0.0
 32
0.0
 14
1.000000000000000E+20
 24
1.000000000000000E+20
 34
1.000000000000000E+20
 15
-1.000000000000000E+20
 25
-1.000000000000000E+20
 35
-1.000000000000000E+20
146
0.0
 13
0.0
 23
0.0
 33
0.0
 16
1.0
 26
0.0
 36
0.0
 17
0.0
 27
1.0
 37
0.0
 76
     0
330
20
  0
MATERIAL
  5
53
102
{ACAD_REACTORS
330
7
102
}
102
{ACAD_XDICTIONARY
360
598
102
}
330
7
100
AcDbMaterial
  1
ByBlock
 72
     0
 73
     2
 43
0.0208333333333333
 43
0.0
 43
0.0
 43
0.0
 43
0.0
 43
0.0208333333333333
 43
0.0
 43
0.0
 43
0.0
 43
0.0
 43
1.0
 43
0.0
 43
0.0
 43
0.0
 43
0.0
 43
1.0
 77
     0
 78
     2
 47
0.0208333333333333
 47
0.0
 47
0.0
 47
0.0
 47
0.0
 47
0.0208333333333333
 47
0.0
 47
0.0
 47
0.0
 47
0.0
 47
1.0
 47
0.0
 47
0.0
 47
0.0
 47
0.0
 47
1.0
171
     0
172
     2
 49
0.0208333333333333
 49
0.0
 49
0.0
 49
0.0
 49
0.0
 49
0.0208333333333333
 49
0.0
 49
0.0
 49
0.0
 49
0.0
 49
1.0
 49
0.0
 49
0.0
 49
0.0
 49
0.0
 49
1.0
175
     0
176
     2
142
0.0208333333333333
142
0.0
142
0.0
142
0.0
142
0.0
142
0.0208333333333333
142
0.0
142
0.0
142
0.0
142
0.0
142
1.0
142
0.0
142
0.0
142
0.0
142
0.0
142
1.0
179
     0
270
     2
144
0.0208333333333333
144
0.0
144
0.0
144
0.0
144
0.0
144
0.0208333333333333
144
0.0
144
0.0
144
0.0
144
0.0
144
1.0
144
0.0
144
0.0
144
0.0
144
0.0
144
1.0
274
     2
147
0.0208333333333333
147
0.0
147
0.0
147
0.0
147
0.0
147
0.0208333333333333
147
0.0
147
0.0
147
0.0
147
0.0
147
1.0
147
0.0
147
0.0
147
0.0
147
0.0
147
1.0
  0
MATERIAL
  5
10
102
{ACAD_REACTORS
330
7
102
}
102
{ACAD_XDICTIONARY
360
594
102
}
330
7
100
AcDbMaterial
  1
ByLayer
 72
     0
 73
     2
 43
0.0208333333333333
 43
0.0
 43
0.0
 43
0.0
 43
0.0
 43
0.0208333333333333
 43
0.0
 43
0.0
 43
0.0
 43
0.0
 43
1.0
 43
0.0
 43
0.0
 43
0.0
 43
0.0
 43
1.0
 77
     0
 78
     2
 47
0.0208333333333333
 47
0.0
 47
0.0
 47
0.0
 47
0.0
 47
0.0208333333333333
 47
0.0
 47
0.0
 47
0.0
 47
0.0
 47
1.0
 47
0.0
 47
0.0
 47
0.0
 47
0.0
 47
1.0
171
     0
172
     2
 49
0.0208333333333333
 49
0.0
 49
0.0
 49
0.0
 49
0.0
 49
0.0208333333333333
 49
0.0
 49
0.0
 49
0.0
 49
0.0
 49
1.0
 49
0.0
 49
0.0
 49
0.0
 49
0.0
 49
1.0
175
     0
176
     2
142
0.0208333333333333
142
0.0
142
0.0
142
0.0
142
0.0
142
0.0208333333333333
142
0.0
142
0.0
142
0.0
142
0.0
142
1.0
142
0.0
142
0.0
142
0.0
142
0.0
142
1.0
179
     0
270
     2
144
0.0208333333333333
144
0.0
144
0.0
144
0.0
144
0.0
144
0.0208333333333333
144
0.0
144
0.0
144
0.0
144
0.0
144
1.0
144
0.0
144
0.0
144
0.0
144
0.0
144
1.0
274
     2
147
0.0208333333333333
147
0.0
147
0.0
147
0.0
147
0.0
147
0.0208333333333333
147
0.0
147
0.0
147
0.0
147
0.0
147
1.0
147
0.0
147
0.0
147
0.0
147
0.0
147
1.0
  0
MATERIAL
  5
6
102
{ACAD_REACTORS
330
7
102
}
102
{ACAD_XDICTIONARY
360
596
102
}
330
7
100
AcDbMaterial
  1
Global
 72
     0
 73
     2
 43
0.0208333333333333
 43
0.0
 43
0.0
 43
0.0
 43
0.0
 43
0.0208333333333333
 43
0.0
 43
0.0
 43
0.0
 43
0.0
 43
1.0
 43
0.0
 43
0.0
 43
0.0
 43
0.0
 43
1.0
 77
     0
 78
     2
 47
0.0208333333333333
 47
0.0
 47
0.0
 47
0.0
 47
0.0
 47
0.0208333333333333
 47
0.0
 47
0.0
 47
0.0
 47
0.0
 47
1.0
 47
0.0
 47
0.0
 47
0.0
 47
0.0
 47
1.0
171
     0
172
     2
 49
0.0208333333333333
 49
0.0
 49
0.0
 49
0.0
 49
0.0
 49
0.0208333333333333
 49
0.0
 49
0.0
 49
0.0
 49
0.0
 49
1.0
 49
0.0
 49
0.0
 49
0.0
 49
0.0
 49
1.0
175
     0
176
     2
142
0.0208333333333333
142
0.0
142
0.0
142
0.0
142
0.0
142
0.0208333333333333
142
0.0
142
0.0
142
0.0
142
0.0
142
1.0
142
0.0
142
0.0
142
0.0
142
0.0
142
1.0
179
     0
270
     2
144
0.0208333333333333
144
0.0
144
0.0
144
0.0
144
0.0
144
0.0208333333333333
144
0.0
144
0.0
144
0.0
144
0.0
144
1.0
144
0.0
144
0.0
144
0.0
144
0.0
144
1.0
274
     2
147
0.0208333333333333
147
0.0
147
0.0
147
0.0
147
0.0
147
0.0208333333333333
147
0.0
147
0.0
147
0.0
147
0.0
147
1.0
147
0.0
147
0.0
147
0.0
147
0.0
147
1.0
1001
ACAD
1070
    -1
1070
     3
1070
     0
1000

1071
        0
  0
MLEADERSTYLE
  5
549
102
{ACAD_REACTORS
330
52F
102
}
102
{ACAD_XDICTIONARY
360
5CA
102
}
330
52F
100
AcDbMLeaderStyle
170
     2
171
     1
172
     0
 90
        2
 40
0.0
 41
0.0
173
     1
 91
-1056964608
340
D
 92
       -2
290
     1
 42
0.09
291
     1
 43
0.36
  3
Standard
341
0
 44
0.18
300

342
E
174
     1
178
     6
175
     1
176
     0
 93
-1056964608
 45
0.18
292
     0
297
     0
 46
0.18
343
0
 94
-1056964608
 47
1.0
 49
1.0
140
1.0
293
     1
141
0.0
294
     1
177
     0
142
1.0
295
     0
296
     0
143
0.125
1001
ACAD_MLEADERVER
1070
     2
  0
MLINESTYLE
  5
14
102
{ACAD_REACTORS
330
15
102
}
330
15
100
AcDbMlineStyle
  2
STANDARD
 70
     0
  3

 62
     0
 51
90.0
 52
90.0
 71
     2
 49
0.5
 62
   256
  6
BYLAYER
 49
-0.5
 62
   256
  6
BYLAYER
  0
ACDBPLACEHOLDER
  5
3
102
{ACAD_REACTORS
330
4
102
}
330
4
  0
SCALE
  5
52
102
{ACAD_REACTORS
330
30
102
}
330
30
100
AcDbScale
 70
     0
300
1:1
140
1.0
141
1.0
290
     1
  0
TABLESTYLE
  5
589
102
{ACAD_REACTORS
330
52E
102
}
330
52E
100
AcDbTableStyle
  3
Standard
 70
     0
 71
     0
 40
0.06
 41
0.06
280
     0
281
     0
  7
STANDARD
140
0.18
170
     2
 62
     0
 63
   257
283
     0
274
    -2
284
     1
 64
     0
275
    -2
285
     1
 65
     0
276
    -2
286
     1
 66
     0
277
    -2
287
     1
 67
     0
278
    -2
288
     1
 68
     0
279
    -2
289
     1
 69
     0
  7
STANDARD
140
0.25
170
     5
 62
     0
 63
   257
283
     0
274
    -2
284
     1
 64
     0
275
    -2
285
     1
 65
     0
276
    -2
286
     1
 66
     0
277
    -2
287
     1
 67
     0
278
    -2
288
     1
 68
     0
279
    -2
289
     1
 69
     0
  7
STANDARD
140
0.18
170
     5
 62
     0
 63
   257
283
     0
274
    -2
284
     1
 64
     0
275
    -2
285
     1
 65
     0
276
    -2
286
     1
 66
     0
277
    -2
287
     1
 67
     0
278
    -2
288
     1
 68
     0
279
    -2
289
     1
 69
     0
  0
VISUALSTYLE
  5
537
102
{ACAD_REACTORS
330
2A
102
}
102
{ACAD_XDICTIONARY
360
5A6
102
}
330
2A
100
AcDbVisualStyle
  2
2dWireframe
 70
     4
 71
     0
 72
     2
 73
     0
 90
        0
 40
0.6
 41
30.0
 62
     5
 63
     7
 74
     1
 91
        4
 64
     7
 65
   257
 75
     1
175
     1
 42
1.0
 92
        0
 66
   257
 43
1.0
 76
     1
 77
     6
 78
     2
 67
     7
 79
     5
170
     0
171
     0
290
     0
174
     0
 93
        1
 44
0.0
173
     0
291
     0
 45
0.0
1001
ACAD
1000
AcDbSavedByObjectVersion
1070
     0
  0
VISUALSTYLE
  5
539
102
{ACAD_REACTORS
330
2A
102
}
102
{ACAD_XDICTIONARY
360
5AA
102
}
330
2A
100
AcDbVisualStyle
  2
Basic
 70
     7
 71
     1
 72
     0
 73
     1
 90
        0
 40
0.6
 41
30.0
 62
     5
 63
     7
 74
     0
 91
        4
 64
     7
 65
   257
 75
     1
175
     1
 42
1.0
 92
        8
 66
     7
 43
1.0
 76
     1
 77
     6
 78
     2
 67
     7
 79
     5
170
     0
171
     0
290
     0
174
     0
 93
        1
 44
0.0
173
     0
291
     1
 45
0.0
1001
ACAD
1000
AcDbSavedByObjectVersion
1070
     0
  0
VISUALSTYLE
  5
53C
102
{ACAD_REACTORS
330
2A
102
}
102
{ACAD_XDICTIONARY
360
5B0
102
}
330
2A
100
AcDbVisualStyle
  2
Brighten
 70
    12
 71
     2
 72
     2
 73
     0
 90
        0
 40
0.6
 41
30.0
 62
     5
 63
     7
 74
     1
 91
        4
 64
     7
 65
   257
 75
     1
175
     1
 42
1.0
 92
        8
 66
     7
 43
1.0
 76
     1
 77
     6
 78
     2
 67
     7
 79
     5
170
     0
171
     0
290
     0
174
     0
 93
        1
 44
50.0
173
     0
291
     1
 45
0.0
1001
ACAD
1000
AcDbSavedByObjectVersion
1070
     0
  0
VISUALSTYLE
  5
540
102
{ACAD_REACTORS
330
2A
102
}
102
{ACAD_XDICTIONARY
360
5B8
102
}
330
2A
100
AcDbVisualStyle
  2
ColorChange
 70
    16
 71
     2
 72
     2
 73
     3
 90
        0
 40
0.6
 41
30.0
 62
     5
 63
     8
 74
     1
 91
        4
 64
     7
 65
   257
 75
     1
175
     1
 42
1.0
 92
        8
 66
     8
 43
1.0
 76
     1
 77
     6
 78
     2
 67
     7
 79
     5
170
     0
171
     0
290
     0
174
     0
 93
        1
 44
0.0
173
     0
291
     1
 45
0.0
1001
ACAD
1000
AcDbSavedByObjectVersion
1070
     0
  0
VISUALSTYLE
  5
53A
102
{ACAD_REACTORS
330
2A
102
}
102
{ACAD_XDICTIONARY
360
5AC
102
}
330
2A
100
AcDbVisualStyle
  2
Conceptual
 70
     9
 71
     3
 72
     2
 73
     0
 90
        0
 40
0.6
 41
30.0
 62
     5
 63
     7
 74
     2
 91
        2
 64
     7
 65
   257
 75
     1
175
     1
 42
40.0
 92
        8
 66
     7
 43
1.0
 76
     1
 77
     6
 78
     2
 67
     7
 79
     3
170
     0
171
     0
290
     0
174
     0
 93
        1
 44
0.0
173
     0
291
     0
 45
0.0
1001
ACAD
1000
AcDbSavedByObjectVersion
1070
     0
  0
VISUALSTYLE
  5
53B
102
{ACAD_REACTORS
330
2A
102
}
102
{ACAD_XDICTIONARY
360
5AE
102
}
330
2A
100
AcDbVisualStyle
  2
Dim
 70
    11
 71
     2
 72
     2
 73
     0
 90
        0
 40
0.6
 41
30.0
 62
     5
 63
     7
 74
     1
 91
        4
 64
     7
 65
   257
 75
     1
175
     1
 42
1.0
 92
        8
 66
     7
 43
1.0
 76
     1
 77
     6
 78
     2
 67
     7
 79
     5
170
     0
171
     0
290
     0
174
     0
 93
        1
 44
-50.0
173
     0
291
     1
 45
0.0
1001
ACAD
1000
AcDbSavedByObjectVersion
1070
     0
  0
VISUALSTYLE
  5
543
102
{ACAD_REACTORS
330
2A
102
}
102
{ACAD_XDICTIONARY
360
5BE
102
}
330
2A
100
AcDbVisualStyle
  2
EdgeColorOff
 70
    22
 71
     2
 72
     2
 73
     0
 90
        0
 40
0.6
 41
30.0
 62
     5
 63
     7
 74
     1
 91
        4
 64
     7
 65
   257
 75
     1
175
     1
 42
1.0
 92
        8
 66
     7
 43
1.0
 76
     1
 77
     6
 78
     2
 67
     7
 79
     5
170
     0
171
     0
290
     0
174
     0
 93
        1
 44
0.0
173
     0
291
     1
 45
0.0
1001
ACAD
1000
AcDbSavedByObjectVersion
1070
     0
  0
VISUALSTYLE
  5
53F
102
{ACAD_REACTORS
330
2A
102
}
102
{ACAD_XDICTIONARY
360
5B6
102
}
330
2A
100
AcDbVisualStyle
  2
Facepattern
 70
    15
 71
     2
 72
     2
 73
     0
 90
        0
 40
0.6
 41
30.0
 62
     5
 63
     7
 74
     1
 91
        4
 64
     7
 65
   257
 75
     1
175
     1
 42
1.0
 92
        8
 66
     7
 43
1.0
 76
     1
 77
     6
 78
     2
 67
     7
 79
     5
170
     0
171
     0
290
     0
174
     0
 93
        1
 44
0.0
173
     0
291
     1
 45
0.0
1001
ACAD
1000
AcDbSavedByObjectVersion
1070
     0
  0
VISUALSTYLE
  5
533
102
{ACAD_REACTORS
330
2A
102
}
102
{ACAD_XDICTIONARY
360
59E
102
}
330
2A
100
AcDbVisualStyle
  2
Flat
 70
     0
 71
     2
 72
     1
 73
     1
 90
        2
 40
0.6
 41
30.0
 62
     5
 63
     7
 74
     0
 91
        4
 64
     7
 65
   257
 75
     1
175
     1
 42
1.0
 92
        8
 66
     7
 43
1.0
 76
     1
 77
     6
 78
     2
 67
     7
 79
     5
170
     0
171
     0
290
     0
174
     0
 93
       13
 44
0.0
173
     0
291
     1
 45
0.0
1001
ACAD
1000
AcDbSavedByObjectVersion
1070
     0
  0
VISUALSTYLE
  5
534
102
{ACAD_REACTORS
330
2A
102
}
102
{ACAD_XDICTIONARY
360
5A0
102
}
330
2A
100
AcDbVisualStyle
  2
FlatWithEdges
 70
     1
 71
     2
 72
     1
 73
     1
 90
        2
 40
0.6
 41
30.0
 62
     5
 63
     7
 74
     1
 91
        4
 64
     7
 65
   257
 75
     1
175
     1
 42
1.0
 92
        0
 66
   257
 43
1.0
 76
     1
 77
     6
 78
     2
 67
     7
 79
     5
170
     0
171
     0
290
     0
174
     0
 93
       13
 44
0.0
173
     0
291
     1
 45
0.0
1001
ACAD
1000
AcDbSavedByObjectVersion
1070
     0
  0
VISUALSTYLE
  5
535
102
{ACAD_REACTORS
330
2A
102
}
102
{ACAD_XDICTIONARY
360
5A2
102
}
330
2A
100
AcDbVisualStyle
  2
Gouraud
 70
     2
 71
     2
 72
     2
 73
     1
 90
        2
 40
0.6
 41
30.0
 62
     5
 63
     7
 74
     0
 91
        4
 64
     7
 65
   257
 75
     1
175
     1
 42
1.0
 92
        0
 66
     7
 43
1.0
 76
     1
 77
     6
 78
     2
 67
     7
 79
     5
170
     0
171
     0
290
     0
174
     0
 93
       13
 44
0.0
173
     0
291
     1
 45
0.0
1001
ACAD
1000
AcDbSavedByObjectVersion
1070
     0
  0
VISUALSTYLE
  5
536
102
{ACAD_REACTORS
330
2A
102
}
102
{ACAD_XDICTIONARY
360
5A4
102
}
330
2A
100
AcDbVisualStyle
  2
GouraudWithEdges
 70
     3
 71
     2
 72
     2
 73
     1
 90
        2
 40
0.6
 41
30.0
 62
     5
 63
     7
 74
     1
 91
        4
 64
     7
 65
   257
 75
     1
175
     1
 42
1.0
 92
        0
 66
   257
 43
1.0
 76
     1
 77
     6
 78
     2
 67
     7
 79
     5
170
     0
171
     0
290
     0
174
     0
 93
       13
 44
0.0
173
     0
291
     1
 45
0.0
1001
ACAD
1000
AcDbSavedByObjectVersion
1070
     0
  0
VISUALSTYLE
  5
538
102
{ACAD_REACTORS
330
2A
102
}
102
{ACAD_XDICTIONARY
360
5A8
102
}
330
2A
100
AcDbVisualStyle
  2
Hidden
 70
     6
 71
     1
 72
     2
 73
     2
 90
        0
 40
0.6
 41
30.0
 62
     5
 63
     7
 74
     2
 91
        2
 64
     7
 65
   257
 75
     2
175
     1
 42
40.0
 92
        0
 66
   257
 43
1.0
 76
     1
 77
     6
 78
     2
 67
     7
 79
     3
170
     0
171
     0
290
     0
174
     0
 93
        1
 44
0.0
173
     0
291
     0
 45
0.0
1001
ACAD
1000
AcDbSavedByObjectVersion
1070
     0
  0
VISUALSTYLE
  5
541
102
{ACAD_REACTORS
330
2A
102
}
102
{ACAD_XDICTIONARY
360
5BA
102
}
330
2A
100
AcDbVisualStyle
  2
JitterOff
 70
    20
 71
     2
 72
     2
 73
     0
 90
        0
 40
0.6
 41
30.0
 62
     5
 63
     7
 74
     1
 91
        4
 64
     7
 65
   257
 75
     1
175
     1
 42
1.0
 92
       10
 66
     7
 43
1.0
 76
     1
 77
     6
 78
     2
 67
     7
 79
     5
170
     0
171
     0
290
     0
174
     0
 93
        1
 44
0.0
173
     0
291
     1
 45
0.0
1001
ACAD
1000
AcDbSavedByObjectVersion
1070
     0
  0
VISUALSTYLE
  5
53E
102
{ACAD_REACTORS
330
2A
102
}
102
{ACAD_XDICTIONARY
360
5B4
102
}
330
2A
100
AcDbVisualStyle
  2
Linepattern
 70
    14
 71
     2
 72
     2
 73
     0
 90
        0
 40
0.6
 41
30.0
 62
     5
 63
     7
 74
     1
 91
        4
 64
     7
 65
   257
 75
     7
175
     7
 42
1.0
 92
        8
 66
     7
 43
1.0
 76
     1
 77
     6
 78
     2
 67
     7
 79
     5
170
     0
171
     0
290
     0
174
     0
 93
        1
 44
0.0
173
     0
291
     1
 45
0.0
1001
ACAD
1000
AcDbSavedByObjectVersion
1070
     0
  0
VISUALSTYLE
  5
542
102
{ACAD_REACTORS
330
2A
102
}
102
{ACAD_XDICTIONARY
360
5BC
102
}
330
2A
100
AcDbVisualStyle
  2
OverhangOff
 70
    21
 71
     2
 72
     2
 73
     0
 90
        0
 40
0.6
 41
30.0
 62
     5
 63
     7
 74
     1
 91
        4
 64
     7
 65
   257
 75
     1
175
     1
 42
1.0
 92
        9
 66
     7
 43
1.0
 76
     1
 77
     6
 78
     2
 67
     7
 79
     5
170
     0
171
     0
290
     0
174
     0
 93
        1
 44
0.0
173
     0
291
     1
 45
0.0
1001
ACAD
1000
AcDbSavedByObjectVersion
1070
     0
  0
VISUALSTYLE
  5
2B
102
{ACAD_REACTORS
330
2A
102
}
102
{ACAD_XDICTIONARY
360
59A
102
}
330
2A
100
AcDbVisualStyle
  2
Realistic
 70
     8
 71
     2
 72
     3
 73
     0
 90
        2
 40
0.6
 41
30.0
 62
     5
 63
     7
 74
     0
 91
        0
 64
     7
 65
   257
 75
     1
175
     1
 42
1.0
 92
        8
 66
   257
 43
1.0
 76
     1
 77
     6
 78
     2
 67
     7
 79
     3
170
     0
171
     0
290
     0
174
     0
 93
       13
 44
0.0
173
     0
291
     0
 45
0.0
1001
ACAD
1000
AcDbSavedByObjectVersion
1070
     0
  0
VISUALSTYLE
  5
548
102
{ACAD_REACTORS
330
2A
102
}
102
{ACAD_XDICTIONARY
360
5C8
102
}
330
2A
100
AcDbVisualStyle
  2
Shaded
 70
    27
 71
     2
 72
     2
 73
     1
 90
        2
 40
0.6
 41
30.0
 62
     5
 63
     7
 74
     0
 91
        4
 64
     7
 65
   257
 75
     1
175
     1
 42
1.0
 92
        8
 66
   257
 43
1.0
 76
     1
 77
     6
 78
     2
 67
   251
 79
     3
170
     0
171
     0
290
     0
174
     0
 93
        5
 44
0.0
173
     0
291
     0
 45
0.0
1001
ACAD
1000
AcDbSavedByObjectVersion
1070
     0
  0
VISUALSTYLE
  5
547
102
{ACAD_REACTORS
330
2A
102
}
102
{ACAD_XDICTIONARY
360
5C6
102
}
330
2A
100
AcDbVisualStyle
  2
Shaded with edges
 70
    26
 71
     2
 72
     2
 73
     1
 90
        2
 40
0.6
 41
30.0
 62
     5
 63
     7
 74
     1
 91
       10
 64
     7
 65
   257
 75
     2
175
     1
 42
1.0
 92
        8
 66
   257
 43
1.0
 76
     1
 77
     6
 78
     2
 67
     7
 79
     3
170
     0
171
     0
290
     0
174
     0
 93
        5
 44
0.0
173
     0
291
     0
 45
0.0
1001
ACAD
1000
AcDbSavedByObjectVersion
1070
     0
  0
VISUALSTYLE
  5
544
102
{ACAD_REACTORS
330
2A
102
}
102
{ACAD_XDICTIONARY
360
5C0
102
}
330
2A
100
AcDbVisualStyle
  2
Shades of Gray
 70
    23
 71
     2
 72
     2
 73
     3
 90
        0
 40
0.6
 41
30.0
 62
     5
 63
     7
 74
     2
 91
        2
 64
     7
 65
     7
 75
     1
175
     1
 42
40.0
 92
        8
 66
     7
 43
1.0
 76
     1
 77
     6
 78
     2
 67
     7
 79
     3
170
     0
171
     0
290
     0
174
     0
 93
        1
 44
0.0
173
     0
291
     0
 45
0.0
1001
ACAD
1000
AcDbSavedByObjectVersion
1070
     0
  0
VISUALSTYLE
  5
545
102
{ACAD_REACTORS
330
2A
102
}
102
{ACAD_XDICTIONARY
360
5C2
102
}
330
2A
100
AcDbVisualStyle
  2
Sketchy
 70
    24
 71
     1
 72
     2
 73
     2
 90
        0
 40
0.6
 41
30.0
 62
     5
 63
     7
 74
     2
 91
        2
 64
     7
 65
     7
 75
     1
175
     1
 42
40.0
 92
       11
 66
     7
 43
1.0
 76
     1
 77
     6
 78
     2
 67
     7
 79
     6
170
     0
171
     0
290
     0
174
     0
 93
        1
 44
0.0
173
     0
291
     0
 45
0.0
1001
ACAD
1000
AcDbSavedByObjectVersion
1070
     0
  0
VISUALSTYLE
  5
53D
102
{ACAD_REACTORS
330
2A
102
}
102
{ACAD_XDICTIONARY
360
5B2
102
}
330
2A
100
AcDbVisualStyle
  2
Thicken
 70
    13
 71
     2
 72
     2
 73
     0
 90
        0
 40
0.6
 41
30.0
 62
     5
 63
     7
 74
     1
 91
        4
 64
     7
 65
   257
 75
     1
175
     1
 42
1.0
 92
       12
 66
     7
 43
1.0
 76
     1
 77
     6
 78
     2
 67
     7
 79
     5
170
     0
171
     0
290
     0
174
     0
 93
        1
 44
0.0
173
     0
291
     1
 45
0.0
1001
ACAD
1000
AcDbSavedByObjectVersion
1070
     0
  0
VISUALSTYLE
  5
2C
102
{ACAD_REACTORS
330
2A
102
}
102
{ACAD_XDICTIONARY
360
59C
102
}
330
2A
100
AcDbVisualStyle
  2
Wireframe
 70
     5
 71
     0
 72
     2
 73
     0
 90
        0
 40
0.6
 41
30.0
 62
     5
 63
     7
 74
     1
 91
        4
 64
     7
 65
   257
 75
     1
175
     1
 42
1.0
 92
        0
 66
   257
 43
1.0
 76
     1
 77
     6
 78
     2
 67
     7
 79
     3
170
     0
171
     0
290
     0
174
     0
 93
        1
 44
0.0
173
     0
291
     0
 45
0.0
1001
ACAD
1000
AcDbSavedByObjectVersion
1070
     0
  0
VISUALSTYLE
  5
546
102
{ACAD_REACTORS
330
2A
102
}
102
{ACAD_XDICTIONARY
360
5C4
102
}
330
2A
100
AcDbVisualStyle
  2
X-Ray
 70
    25
 71
     2
 72
     2
 73
     1
 90
        1
 40
0.5
 41
30.0
 62
     5
 63
     7
 74
     1
 91
        0
 64
     7
 65
   257
 75
     1
175
     1
 42
1.0
 92
        8
 66
     7
 43
1.0
 76
     1
 77
     6
 78
     2
 67
     7
 79
     3
170
     0
171
     0
290
     0
174
     0
 93
       13
 44
0.0
173
     0
291
     0
 45
0.0
1001
ACAD
1000
AcDbSavedByObjectVersion
1070
     0
  0
XRECORD
  5
58E
102
{ACAD_REACTORS
330
58D
102
}
330
58D
100
AcDbXrecord
280
     1
340
29
  0
XRECORD
  5
58F
102
{ACAD_REACTORS
330
58D
102
}
330
58D
100
AcDbXrecord
280
     1
340
7
  0
DICTIONARYVAR
  5
52D
102
{ACAD_REACTORS
330
52C
102
}
330
52C
100
DictionaryVariables
280
     0
  1
1:1
  0
DICTIONARYVAR
  5
54B
102
{ACAD_REACTORS
330
52C
102
}
330
52C
100
DictionaryVariables
280
     0
  1
Standard
  0
DICTIONARYVAR
  5
58A
102
{ACAD_REACTORS
330
52C
102
}
330
52C
100
DictionaryVariables
280
     0
  1
Standard
  0
DICTIONARYVAR
  5
58B
102
{ACAD_REACTORS
330
52C
102
}
330
52C
100
DictionaryVariables
280
     0
  1
0
  0
DICTIONARYVAR
  5
58C
102
{ACAD_REACTORS
330
52C
102
}
330
52C
100
DictionaryVariables
280
     0
  1
1
  0
DICTIONARYVAR
  5
593
102
{ACAD_REACTORS
330
52C
102
}
330
52C
100
DictionaryVariables
280
     0
  1
1
  0
DICTIONARYVAR
  5
530
102
{ACAD_REACTORS
330
52C
102
}
330
52C
100
DictionaryVariables
280
     0
  1
0
  0
DICTIONARY
  5
598
330
53
100
AcDbDictionary
280
     1
281
     1
  3
ACAD_XREC_ROUNDTRIP
360
599
  0
DICTIONARY
  5
594
330
10
100
AcDbDictionary
280
     1
281
     1
  3
ACAD_XREC_ROUNDTRIP
360
595
  0
DICTIONARY
  5
596
330
6
100
AcDbDictionary
280
     1
281
     1
  3
ACAD_XREC_ROUNDTRIP
360
597
  0
DICTIONARY
  5
5CA
330
549
100
AcDbDictionary
280
     1
281
     1
  3
ACAD_XREC_ROUNDTRIP
360
5CB
  0
DICTIONARY
  5
5A6
330
537
100
AcDbDictionary
280
     1
281
     1
  3
ACAD_XREC_ROUNDTRIP
360
5A7
  0
DICTIONARY
  5
5AA
330
539
100
AcDbDictionary
280
     1
281
     1
  3
ACAD_XREC_ROUNDTRIP
360
5AB
  0
DICTIONARY
  5
5B0
330
53C
100
AcDbDictionary
280
     1
281
     1
  3
ACAD_XREC_ROUNDTRIP
360
5B1
  0
DICTIONARY
  5
5B8
330
540
100
AcDbDictionary
280
     1
281
     1
  3
ACAD_XREC_ROUNDTRIP
360
5B9
  0
DICTIONARY
  5
5AC
330
53A
100
AcDbDictionary
280
     1
281
     1
  3
ACAD_XREC_ROUNDTRIP
360
5AD
  0
DICTIONARY
  5
5AE
330
53B
100
AcDbDictionary
280
     1
281
     1
  3
ACAD_XREC_ROUNDTRIP
360
5AF
  0
DICTIONARY
  5
5BE
330
543
100
AcDbDictionary
280
     1
281
     1
  3
ACAD_XREC_ROUNDTRIP
360
5BF
  0
DICTIONARY
  5
5B6
330
53F
100
AcDbDictionary
280
     1
281
     1
  3
ACAD_XREC_ROUNDTRIP
360
5B7
  0
DICTIONARY
  5
59E
330
533
100
AcDbDictionary
280
     1
281
     1
  3
ACAD_XREC_ROUNDTRIP
360
59F
  0
DICTIONARY
  5
5A0
330
534
100
AcDbDictionary
280
     1
281
     1
  3
ACAD_XREC_ROUNDTRIP
360
5A1
  0
DICTIONARY
  5
5A2
330
535
100
AcDbDictionary
280
     1
281
     1
  3
ACAD_XREC_ROUNDTRIP
360
5A3
  0
DICTIONARY
  5
5A4
330
536
100
AcDbDictionary
280
     1
281
     1
  3
ACAD_XREC_ROUNDTRIP
360
5A5
  0
DICTIONARY
  5
5A8
330
538
100
AcDbDictionary
280
     1
281
     1
  3
ACAD_XREC_ROUNDTRIP
360
5A9
  0
DICTIONARY
  5
5BA
330
541
100
AcDbDictionary
280
     1
281
     1
  3
ACAD_XREC_ROUNDTRIP
360
5BB
  0
DICTIONARY
  5
5B4
330
53E
100
AcDbDictionary
280
     1
281
     1
  3
ACAD_XREC_ROUNDTRIP
360
5B5
  0
DICTIONARY
  5
5BC
330
542
100
AcDbDictionary
280
     1
281
     1
  3
ACAD_XREC_ROUNDTRIP
360
5BD
  0
DICTIONARY
  5
59A
330
2B
100
AcDbDictionary
280
     1
281
     1
  3
ACAD_XREC_ROUNDTRIP
360
59B
  0
DICTIONARY
  5
5C8
330
548
100
AcDbDictionary
280
     1
281
     1
  3
ACAD_XREC_ROUNDTRIP
360
5C9
  0
DICTIONARY
  5
5C6
330
547
100
AcDbDictionary
280
     1
281
     1
  3
ACAD_XREC_ROUNDTRIP
360
5C7
  0
DICTIONARY
  5
5C0
330
544
100
AcDbDictionary
280
     1
281
     1
  3
ACAD_XREC_ROUNDTRIP
360
5C1
  0
DICTIONARY
  5
5C2
330
545
100
AcDbDictionary
280
     1
281
     1
  3
ACAD_XREC_ROUNDTRIP
360
5C3
  0
DICTIONARY
  5
5B2
330
53D
100
AcDbDictionary
280
     1
281
     1
  3
ACAD_XREC_ROUNDTRIP
360
5B3
  0
DICTIONARY
  5
59C
330
2C
100
AcDbDictionary
280
     1
281
     1
  3
ACAD_XREC_ROUNDTRIP
360
59D
  0
DICTIONARY
  5
5C4
330
546
100
AcDbDictionary
280
     1
281
     1
  3
ACAD_XREC_ROUNDTRIP
360
5C5
  0
XRECORD
  5
599
102
{ACAD_REACTORS
330
598
102
}
330
598
100
AcDbXrecord
280
     1
102
MATERIAL
148
0.0
149
0.0
149
0.0
 93
        0
 94
      127
282
     0
 72
     0
 77
     0
171
     0
175
     0
179
     0
273
     0
  0
XRECORD
  5
595
102
{ACAD_REACTORS
330
594
102
}
330
594
100
AcDbXrecord
280
     1
102
MATERIAL
148
0.0
149
0.0
149
0.0
 93
        0
 94
      127
282
     0
 72
     0
 77
     0
171
     0
175
     0
179
     0
273
     0
  0
XRECORD
  5
597
102
{ACAD_REACTORS
330
596
102
}
330
596
100
AcDbXrecord
280
     1
102
MATERIAL
148
0.0
149
0.0
149
0.0
 93
        0
 94
      127
282
     0
 72
     0
 77
     0
171
     0
175
     0
179
     0
273
     0
  0
XRECORD
  5
5CB
102
{ACAD_REACTORS
330
5CA
102
}
330
5CA
100
AcDbXrecord
280
     1
102
ACAD_ROUNDTRIP_2010_MLEADER_STYLE
  0
XRECORD
  5
5A7
102
{ACAD_REACTORS
330
5A6
102
}
330
5A6
100
AcDbXrecord
280
     1
102
RTVSPropertyOp0
 70
     1
102
RTVSPropertyOp1
 70
     1
102
RTVSPropertyOp2
 70
     1
102
RTVSPropertyOp3
 70
     1
102
RTVSPropertyOp4
 70
     1
102
RTVSPropertyOp5
 70
     1
102
RTVSPropertyOp6
 70
     1
102
RTVSPropertyOp7
 70
     1
102
RTVSPropertyOp8
 70
     1
102
RTVSPropertyOp9
 70
     1
102
RTVSPropertyOp10
 70
     1
102
RTVSPropertyOp11
 70
     1
102
RTVSPropertyOp12
 70
     1
102
RTVSPropertyOp13
 70
     1
102
RTVSPropertyOp14
 70
     1
102
RTVSPropertyOp15
 70
     1
102
RTVSPropertyOp16
 70
     1
102
RTVSPropertyOp17
 70
     1
102
RTVSPropertyOp18
 70
     1
102
RTVSPropertyOp19
 70
     1
102
RTVSPropertyOp20
 70
     1
102
RTVSPropertyOp21
 70
     1
102
RTVSPropertyOp22
 70
     1
102
RTVSPropertyOp23
 70
     1
102
RTVSPropertyOp24
 70
     1
102
RTVSPropertyOp25
 70
     1
102
RTVSPropertyOp26
 70
     1
102
RTVSPropertyOp27
 70
     1
102
RTVSPropertyOp28
 70
     1
102
RTVSPropertyOp29
 70
     1
102
RTVSPropertyOp30
 70
     1
102
RTVSPropertyOp31
 70
     1
102
RTVSPropertyOp32
 70
     1
102
RTVSPropertyOp33
 70
     1
102
RTVSPropertyOp34
 70
     1
102
RTVSPropertyOp35
 70
     1
102
RTVSPropertyOp36
 70
     1
102
RTVSPropertyOp37
 70
     1
102
RTVSPropertyOp38
 70
     1
102
RTVSPropertyOp39
 70
     1
102
RTVSPropertyOp40
 70
     1
102
RTVSPropertyOp41
 70
     1
102
RTVSPropertyOp42
 70
     1
102
RTVSPropertyOp43
 70
     1
102
RTVSPropertyOp44
 70
     1
102
RTVSPropertyOp45
 70
     1
102
RTVSPropertyOp46
 70
     1
102
RTVSPropertyOp47
 70
     1
102
RTVSPropertyOp48
 70
     1
102
RTVSPropertyOp49
 70
     1
102
RTVSPropertyOp50
 70
     1
102
RTVSPropertyOp51
 70
     0
102
RTVSPropertyOp52
 70
     0
102
RTVSPropertyOp53
 70
     1
102
RTVSPropertyOp54
 70
     1
102
RTVSPropertyOp55
 70
     1
102
RTVSPropertyOp56
 70
     1
102
RTVSPropertyOp57
 70
     1
102
RTVSPost2010Prop28
280
     1
102
RTVSPost2010PropOp28
 70
     1
102
RTVSPost2010Prop29
280
     1
102
RTVSPost2010PropOp29
 70
     1
102
RTVSPost2010Prop30
280
     0
102
RTVSPost2010PropOp30
 70
     1
102
RTVSPost2010Prop31
280
     0
102
RTVSPost2010PropOp31
 70
     1
102
RTVSPost2010Prop32
280
     0
102
RTVSPost2010PropOp32
 70
     1
102
RTVSPost2010Prop33
280
     0
102
RTVSPost2010PropOp33
 70
     1
102
RTVSPost2010Prop34
280
     0
102
RTVSPost2010PropOp34
 70
     1
102
RTVSPost2010Prop35
280
     0
102
RTVSPost2010PropOp35
 70
     1
102
RTVSPost2010Prop36
280
     0
102
RTVSPost2010PropOp36
 70
     1
102
RTVSPost2010Prop37
 90
       50
102
RTVSPost2010PropOp37
 70
     1
102
RTVSPost2010Prop38
140
0.0
102
RTVSPost2010PropOp38
 70
     1
102
RTVSPost2010Prop39
140
1.0
102
RTVSPost2010PropOp39
 70
     1
102
RTVSPost2010Prop40
 90
        0
102
RTVSPost2010PropOp40
 70
     1
102
RTVSPost2010Prop41ColorIndex
 90
       18
102
RTVSPost2010Prop41ColorRGB
 90
        0
102
RTVSPost2010PropOp41
 70
     1
102
RTVSPost2010Prop42
 90
       50
102
RTVSPost2010PropOp42
 70
     1
102
RTVSPost2010Prop43
 90
        3
102
RTVSPost2010PropOp43
 70
     1
102
RTVSPost2010Prop44ColorIndex
 90
        5
102
RTVSPost2010Prop44ColorRGB
 90
      255
102
RTVSPost2010PropOp44
 70
     1
102
RTVSPost2010Prop45
280
     0
102
RTVSPost2010PropOp45
 70
     1
102
RTVSPost2010Prop46
 90
       50
102
RTVSPost2010PropOp46
 70
     1
102
RTVSPost2010Prop47
 90
       50
102
RTVSPost2010PropOp47
 70
     1
102
RTVSPost2010Prop48
 90
       50
102
RTVSPost2010PropOp48
 70
     1
102
RTVSPost2010Prop49
280
     0
102
RTVSPost2010PropOp49
 70
     1
102
RTVSPost2010Prop50
 90
       50
102
RTVSPost2010PropOp50
 70
     1
102
RTVSPost2010Prop51ColorIndex
 90
      256
102
RTVSPost2010Prop51ColorRGB
 90
-16777216
102
RTVSPost2010PropOp51
 70
     0
102
RTVSPost2010Prop52
140
1.0
102
RTVSPost2010PropOp52
 70
     0
102
RTVSPost2010Prop53
 90
        2
102
RTVSPost2010PropOp53
 70
     1
102
RTVSPost2010Prop54
  1
strokes_ogs.tif
102
RTVSPost2010PropOp54
 70
     1
102
RTVSPost2010Prop55
280
     0
102
RTVSPost2010PropOp55
 70
     1
102
RTVSPost2010Prop56
140
1.0
102
RTVSPost2010PropOp56
 70
     1
102
RTVSPost2010Prop57
140
1.0
102
RTVSPost2010PropOp57
 70
     1
  0
XRECORD
  5
5AB
102
{ACAD_REACTORS
330
5AA
102
}
330
5AA
100
AcDbXrecord
280
     1
102
RTVSPropertyOp0
 70
     1
102
RTVSPropertyOp1
 70
     1
102
RTVSPropertyOp2
 70
     1
102
RTVSPropertyOp3
 70
     1
102
RTVSPropertyOp4
 70
     1
102
RTVSPropertyOp5
 70
     1
102
RTVSPropertyOp6
 70
     1
102
RTVSPropertyOp7
 70
     1
102
RTVSPropertyOp8
 70
     1
102
RTVSPropertyOp9
 70
     1
102
RTVSPropertyOp10
 70
     1
102
RTVSPropertyOp11
 70
     1
102
RTVSPropertyOp12
 70
     1
102
RTVSPropertyOp13
 70
     1
102
RTVSPropertyOp14
 70
     1
102
RTVSPropertyOp15
 70
     1
102
RTVSPropertyOp16
 70
     1
102
RTVSPropertyOp17
 70
     1
102
RTVSPropertyOp18
 70
     1
102
RTVSPropertyOp19
 70
     1
102
RTVSPropertyOp20
 70
     1
102
RTVSPropertyOp21
 70
     1
102
RTVSPropertyOp22
 70
     1
102
RTVSPropertyOp23
 70
     1
102
RTVSPropertyOp24
 70
     1
102
RTVSPropertyOp25
 70
     1
102
RTVSPropertyOp26
 70
     1
102
RTVSPropertyOp27
 70
     1
102
RTVSPropertyOp28
 70
     1
102
RTVSPropertyOp29
 70
     1
102
RTVSPropertyOp30
 70
     1
102
RTVSPropertyOp31
 70
     1
102
RTVSPropertyOp32
 70
     1
102
RTVSPropertyOp33
 70
     1
102
RTVSPropertyOp34
 70
     1
102
RTVSPropertyOp35
 70
     1
102
RTVSPropertyOp36
 70
     1
102
RTVSPropertyOp37
 70
     1
102
RTVSPropertyOp38
 70
     1
102
RTVSPropertyOp39
 70
     1
102
RTVSPropertyOp40
 70
     1
102
RTVSPropertyOp41
 70
     1
102
RTVSPropertyOp42
 70
     1
102
RTVSPropertyOp43
 70
     1
102
RTVSPropertyOp44
 70
     1
102
RTVSPropertyOp45
 70
     1
102
RTVSPropertyOp46
 70
     1
102
RTVSPropertyOp47
 70
     1
102
RTVSPropertyOp48
 70
     1
102
RTVSPropertyOp49
 70
     1
102
RTVSPropertyOp50
 70
     1
102
RTVSPropertyOp51
 70
     0
102
RTVSPropertyOp52
 70
     0
102
RTVSPropertyOp53
 70
     1
102
RTVSPropertyOp54
 70
     1
102
RTVSPropertyOp55
 70
     1
102
RTVSPropertyOp56
 70
     1
102
RTVSPropertyOp57
 70
     1
102
RTVSPost2010Prop28
280
     0
102
RTVSPost2010PropOp28
 70
     1
102
RTVSPost2010Prop29
280
     1
102
RTVSPost2010PropOp29
 70
     1
102
RTVSPost2010Prop30
280
     1
102
RTVSPost2010PropOp30
 70
     1
102
RTVSPost2010Prop31
280
     0
102
RTVSPost2010PropOp31
 70
     1
102
RTVSPost2010Prop32
280
     0
102
RTVSPost2010PropOp32
 70
     1
102
RTVSPost2010Prop33
280
     0
102
RTVSPost2010PropOp33
 70
     1
102
RTVSPost2010Prop34
280
     0
102
RTVSPost2010PropOp34
 70
     1
102
RTVSPost2010Prop35
280
     0
102
RTVSPost2010PropOp35
 70
     1
102
RTVSPost2010Prop36
280
     0
102
RTVSPost2010PropOp36
 70
     1
102
RTVSPost2010Prop37
 90
       50
102
RTVSPost2010PropOp37
 70
     1
102
RTVSPost2010Prop38
140
0.0
102
RTVSPost2010PropOp38
 70
     1
102
RTVSPost2010Prop39
140
1.0
102
RTVSPost2010PropOp39
 70
     1
102
RTVSPost2010Prop40
 90
        0
102
RTVSPost2010PropOp40
 70
     1
102
RTVSPost2010Prop41ColorIndex
 90
       18
102
RTVSPost2010Prop41ColorRGB
 90
        0
102
RTVSPost2010PropOp41
 70
     1
102
RTVSPost2010Prop42
 90
       50
102
RTVSPost2010PropOp42
 70
     1
102
RTVSPost2010Prop43
 90
        3
102
RTVSPost2010PropOp43
 70
     1
102
RTVSPost2010Prop44ColorIndex
 90
        5
102
RTVSPost2010Prop44ColorRGB
 90
      255
102
RTVSPost2010PropOp44
 70
     1
102
RTVSPost2010Prop45
280
     0
102
RTVSPost2010PropOp45
 70
     1
102
RTVSPost2010Prop46
 90
       50
102
RTVSPost2010PropOp46
 70
     1
102
RTVSPost2010Prop47
 90
       50
102
RTVSPost2010PropOp47
 70
     1
102
RTVSPost2010Prop48
 90
       50
102
RTVSPost2010PropOp48
 70
     1
102
RTVSPost2010Prop49
280
     0
102
RTVSPost2010PropOp49
 70
     1
102
RTVSPost2010Prop50
 90
       50
102
RTVSPost2010PropOp50
 70
     1
102
RTVSPost2010Prop51ColorIndex
 90
      256
102
RTVSPost2010Prop51ColorRGB
 90
-16777216
102
RTVSPost2010PropOp51
 70
     0
102
RTVSPost2010Prop52
140
1.0
102
RTVSPost2010PropOp52
 70
     0
102
RTVSPost2010Prop53
 90
        2
102
RTVSPost2010PropOp53
 70
     1
102
RTVSPost2010Prop54
  1
strokes_ogs.tif
102
RTVSPost2010PropOp54
 70
     1
102
RTVSPost2010Prop55
280
     0
102
RTVSPost2010PropOp55
 70
     1
102
RTVSPost2010Prop56
140
1.0
102
RTVSPost2010PropOp56
 70
     1
102
RTVSPost2010Prop57
140
1.0
102
RTVSPost2010PropOp57
 70
     1
  0
XRECORD
  5
5B1
102
{ACAD_REACTORS
330
5B0
102
}
330
5B0
100
AcDbXrecord
280
     1
102
RTVSPropertyOp0
 70
     1
102
RTVSPropertyOp1
 70
     1
102
RTVSPropertyOp2
 70
     1
102
RTVSPropertyOp3
 70
     1
102
RTVSPropertyOp4
 70
     1
102
RTVSPropertyOp5
 70
     1
102
RTVSPropertyOp6
 70
     1
102
RTVSPropertyOp7
 70
     1
102
RTVSPropertyOp8
 70
     1
102
RTVSPropertyOp9
 70
     1
102
RTVSPropertyOp10
 70
     1
102
RTVSPropertyOp11
 70
     1
102
RTVSPropertyOp12
 70
     1
102
RTVSPropertyOp13
 70
     1
102
RTVSPropertyOp14
 70
     1
102
RTVSPropertyOp15
 70
     1
102
RTVSPropertyOp16
 70
     1
102
RTVSPropertyOp17
 70
     1
102
RTVSPropertyOp18
 70
     1
102
RTVSPropertyOp19
 70
     1
102
RTVSPropertyOp20
 70
     1
102
RTVSPropertyOp21
 70
     1
102
RTVSPropertyOp22
 70
     1
102
RTVSPropertyOp23
 70
     1
102
RTVSPropertyOp24
 70
     1
102
RTVSPropertyOp25
 70
     1
102
RTVSPropertyOp26
 70
     1
102
RTVSPropertyOp27
 70
     1
102
RTVSPropertyOp28
 70
     1
102
RTVSPropertyOp29
 70
     1
102
RTVSPropertyOp30
 70
     1
102
RTVSPropertyOp31
 70
     1
102
RTVSPropertyOp32
 70
     1
102
RTVSPropertyOp33
 70
     1
102
RTVSPropertyOp34
 70
     1
102
RTVSPropertyOp35
 70
     1
102
RTVSPropertyOp36
 70
     1
102
RTVSPropertyOp37
 70
     1
102
RTVSPropertyOp38
 70
     1
102
RTVSPropertyOp39
 70
     1
102
RTVSPropertyOp40
 70
     1
102
RTVSPropertyOp41
 70
     1
102
RTVSPropertyOp42
 70
     1
102
RTVSPropertyOp43
 70
     1
102
RTVSPropertyOp44
 70
     1
102
RTVSPropertyOp45
 70
     1
102
RTVSPropertyOp46
 70
     1
102
RTVSPropertyOp47
 70
     1
102
RTVSPropertyOp48
 70
     1
102
RTVSPropertyOp49
 70
     1
102
RTVSPropertyOp50
 70
     1
102
RTVSPropertyOp51
 70
     0
102
RTVSPropertyOp52
 70
     0
102
RTVSPropertyOp53
 70
     1
102
RTVSPropertyOp54
 70
     1
102
RTVSPropertyOp55
 70
     1
102
RTVSPropertyOp56
 70
     1
102
RTVSPropertyOp57
 70
     1
102
RTVSPost2010Prop28
280
     0
102
RTVSPost2010PropOp28
 70
     1
102
RTVSPost2010Prop29
280
     1
102
RTVSPost2010PropOp29
 70
     1
102
RTVSPost2010Prop30
280
     1
102
RTVSPost2010PropOp30
 70
     1
102
RTVSPost2010Prop31
280
     0
102
RTVSPost2010PropOp31
 70
     1
102
RTVSPost2010Prop32
280
     0
102
RTVSPost2010PropOp32
 70
     1
102
RTVSPost2010Prop33
280
     0
102
RTVSPost2010PropOp33
 70
     1
102
RTVSPost2010Prop34
280
     0
102
RTVSPost2010PropOp34
 70
     1
102
RTVSPost2010Prop35
280
     0
102
RTVSPost2010PropOp35
 70
     1
102
RTVSPost2010Prop36
280
     0
102
RTVSPost2010PropOp36
 70
     1
102
RTVSPost2010Prop37
 90
       50
102
RTVSPost2010PropOp37
 70
     1
102
RTVSPost2010Prop38
140
0.0
102
RTVSPost2010PropOp38
 70
     1
102
RTVSPost2010Prop39
140
1.0
102
RTVSPost2010PropOp39
 70
     1
102
RTVSPost2010Prop40
 90
        0
102
RTVSPost2010PropOp40
 70
     1
102
RTVSPost2010Prop41ColorIndex
 90
       18
102
RTVSPost2010Prop41ColorRGB
 90
        0
102
RTVSPost2010PropOp41
 70
     1
102
RTVSPost2010Prop42
 90
       50
102
RTVSPost2010PropOp42
 70
     1
102
RTVSPost2010Prop43
 90
        3
102
RTVSPost2010PropOp43
 70
     1
102
RTVSPost2010Prop44ColorIndex
 90
        5
102
RTVSPost2010Prop44ColorRGB
 90
      255
102
RTVSPost2010PropOp44
 70
     1
102
RTVSPost2010Prop45
280
     0
102
RTVSPost2010PropOp45
 70
     1
102
RTVSPost2010Prop46
 90
       50
102
RTVSPost2010PropOp46
 70
     1
102
RTVSPost2010Prop47
 90
       50
102
RTVSPost2010PropOp47
 70
     1
102
RTVSPost2010Prop48
 90
       50
102
RTVSPost2010PropOp48
 70
     1
102
RTVSPost2010Prop49
280
     0
102
RTVSPost2010PropOp49
 70
     1
102
RTVSPost2010Prop50
 90
       50
102
RTVSPost2010PropOp50
 70
     1
102
RTVSPost2010Prop51ColorIndex
 90
      256
102
RTVSPost2010Prop51ColorRGB
 90
-16777216
102
RTVSPost2010PropOp51
 70
     0
102
RTVSPost2010Prop52
140
1.0
102
RTVSPost2010PropOp52
 70
     0
102
RTVSPost2010Prop53
 90
        2
102
RTVSPost2010PropOp53
 70
     1
102
RTVSPost2010Prop54
  1
strokes_ogs.tif
102
RTVSPost2010PropOp54
 70
     1
102
RTVSPost2010Prop55
280
     0
102
RTVSPost2010PropOp55
 70
     1
102
RTVSPost2010Prop56
140
1.0
102
RTVSPost2010PropOp56
 70
     1
102
RTVSPost2010Prop57
140
1.0
102
RTVSPost2010PropOp57
 70
     1
  0
XRECORD
  5
5B9
102
{ACAD_REACTORS
330
5B8
102
}
330
5B8
100
AcDbXrecord
280
     1
102
RTVSPropertyOp0
 70
     1
102
RTVSPropertyOp1
 70
     1
102
RTVSPropertyOp2
 70
     1
102
RTVSPropertyOp3
 70
     1
102
RTVSPropertyOp4
 70
     1
102
RTVSPropertyOp5
 70
     1
102
RTVSPropertyOp6
 70
     1
102
RTVSPropertyOp7
 70
     1
102
RTVSPropertyOp8
 70
     1
102
RTVSPropertyOp9
 70
     1
102
RTVSPropertyOp10
 70
     1
102
RTVSPropertyOp11
 70
     1
102
RTVSPropertyOp12
 70
     1
102
RTVSPropertyOp13
 70
     1
102
RTVSPropertyOp14
 70
     1
102
RTVSPropertyOp15
 70
     1
102
RTVSPropertyOp16
 70
     1
102
RTVSPropertyOp17
 70
     1
102
RTVSPropertyOp18
 70
     1
102
RTVSPropertyOp19
 70
     1
102
RTVSPropertyOp20
 70
     1
102
RTVSPropertyOp21
 70
     1
102
RTVSPropertyOp22
 70
     1
102
RTVSPropertyOp23
 70
     1
102
RTVSPropertyOp24
 70
     1
102
RTVSPropertyOp25
 70
     1
102
RTVSPropertyOp26
 70
     1
102
RTVSPropertyOp27
 70
     1
102
RTVSPropertyOp28
 70
     1
102
RTVSPropertyOp29
 70
     1
102
RTVSPropertyOp30
 70
     1
102
RTVSPropertyOp31
 70
     1
102
RTVSPropertyOp32
 70
     1
102
RTVSPropertyOp33
 70
     1
102
RTVSPropertyOp34
 70
     1
102
RTVSPropertyOp35
 70
     1
102
RTVSPropertyOp36
 70
     1
102
RTVSPropertyOp37
 70
     1
102
RTVSPropertyOp38
 70
     1
102
RTVSPropertyOp39
 70
     1
102
RTVSPropertyOp40
 70
     1
102
RTVSPropertyOp41
 70
     1
102
RTVSPropertyOp42
 70
     1
102
RTVSPropertyOp43
 70
     1
102
RTVSPropertyOp44
 70
     1
102
RTVSPropertyOp45
 70
     1
102
RTVSPropertyOp46
 70
     1
102
RTVSPropertyOp47
 70
     1
102
RTVSPropertyOp48
 70
     1
102
RTVSPropertyOp49
 70
     1
102
RTVSPropertyOp50
 70
     1
102
RTVSPropertyOp51
 70
     0
102
RTVSPropertyOp52
 70
     0
102
RTVSPropertyOp53
 70
     1
102
RTVSPropertyOp54
 70
     1
102
RTVSPropertyOp55
 70
     1
102
RTVSPropertyOp56
 70
     1
102
RTVSPropertyOp57
 70
     1
102
RTVSPost2010Prop28
280
     0
102
RTVSPost2010PropOp28
 70
     1
102
RTVSPost2010Prop29
280
     1
102
RTVSPost2010PropOp29
 70
     1
102
RTVSPost2010Prop30
280
     1
102
RTVSPost2010PropOp30
 70
     1
102
RTVSPost2010Prop31
280
     0
102
RTVSPost2010PropOp31
 70
     1
102
RTVSPost2010Prop32
280
     0
102
RTVSPost2010PropOp32
 70
     1
102
RTVSPost2010Prop33
280
     0
102
RTVSPost2010PropOp33
 70
     1
102
RTVSPost2010Prop34
280
     0
102
RTVSPost2010PropOp34
 70
     1
102
RTVSPost2010Prop35
280
     0
102
RTVSPost2010PropOp35
 70
     1
102
RTVSPost2010Prop36
280
     0
102
RTVSPost2010PropOp36
 70
     1
102
RTVSPost2010Prop37
 90
       50
102
RTVSPost2010PropOp37
 70
     1
102
RTVSPost2010Prop38
140
0.0
102
RTVSPost2010PropOp38
 70
     1
102
RTVSPost2010Prop39
140
1.0
102
RTVSPost2010PropOp39
 70
     1
102
RTVSPost2010Prop40
 90
        0
102
RTVSPost2010PropOp40
 70
     1
102
RTVSPost2010Prop41ColorIndex
 90
       18
102
RTVSPost2010Prop41ColorRGB
 90
        0
102
RTVSPost2010PropOp41
 70
     1
102
RTVSPost2010Prop42
 90
       50
102
RTVSPost2010PropOp42
 70
     1
102
RTVSPost2010Prop43
 90
        3
102
RTVSPost2010PropOp43
 70
     1
102
RTVSPost2010Prop44ColorIndex
 90
        5
102
RTVSPost2010Prop44ColorRGB
 90
      255
102
RTVSPost2010PropOp44
 70
     1
102
RTVSPost2010Prop45
280
     0
102
RTVSPost2010PropOp45
 70
     1
102
RTVSPost2010Prop46
 90
       50
102
RTVSPost2010PropOp46
 70
     1
102
RTVSPost2010Prop47
 90
       50
102
RTVSPost2010PropOp47
 70
     1
102
RTVSPost2010Prop48
 90
       50
102
RTVSPost2010PropOp48
 70
     1
102
RTVSPost2010Prop49
280
     0
102
RTVSPost2010PropOp49
 70
     1
102
RTVSPost2010Prop50
 90
       50
102
RTVSPost2010PropOp50
 70
     1
102
RTVSPost2010Prop51ColorIndex
 90
      256
102
RTVSPost2010Prop51ColorRGB
 90
-16777216
102
RTVSPost2010PropOp51
 70
     0
102
RTVSPost2010Prop52
140
1.0
102
RTVSPost2010PropOp52
 70
     0
102
RTVSPost2010Prop53
 90
        2
102
RTVSPost2010PropOp53
 70
     1
102
RTVSPost2010Prop54
  1
strokes_ogs.tif
102
RTVSPost2010PropOp54
 70
     1
102
RTVSPost2010Prop55
280
     0
102
RTVSPost2010PropOp55
 70
     1
102
RTVSPost2010Prop56
140
1.0
102
RTVSPost2010PropOp56
 70
     1
102
RTVSPost2010Prop57
140
1.0
102
RTVSPost2010PropOp57
 70
     1
  0
XRECORD
  5
5AD
102
{ACAD_REACTORS
330
5AC
102
}
330
5AC
100
AcDbXrecord
280
     1
102
RTVSPropertyOp0
 70
     1
102
RTVSPropertyOp1
 70
     1
102
RTVSPropertyOp2
 70
     1
102
RTVSPropertyOp3
 70
     1
102
RTVSPropertyOp4
 70
     1
102
RTVSPropertyOp5
 70
     1
102
RTVSPropertyOp6
 70
     1
102
RTVSPropertyOp7
 70
     1
102
RTVSPropertyOp8
 70
     1
102
RTVSPropertyOp9
 70
     1
102
RTVSPropertyOp10
 70
     1
102
RTVSPropertyOp11
 70
     1
102
RTVSPropertyOp12
 70
     1
102
RTVSPropertyOp13
 70
     1
102
RTVSPropertyOp14
 70
     1
102
RTVSPropertyOp15
 70
     1
102
RTVSPropertyOp16
 70
     1
102
RTVSPropertyOp17
 70
     1
102
RTVSPropertyOp18
 70
     1
102
RTVSPropertyOp19
 70
     1
102
RTVSPropertyOp20
 70
     1
102
RTVSPropertyOp21
 70
     1
102
RTVSPropertyOp22
 70
     1
102
RTVSPropertyOp23
 70
     1
102
RTVSPropertyOp24
 70
     1
102
RTVSPropertyOp25
 70
     1
102
RTVSPropertyOp26
 70
     1
102
RTVSPropertyOp27
 70
     1
102
RTVSPropertyOp28
 70
     1
102
RTVSPropertyOp29
 70
     1
102
RTVSPropertyOp30
 70
     1
102
RTVSPropertyOp31
 70
     1
102
RTVSPropertyOp32
 70
     1
102
RTVSPropertyOp33
 70
     1
102
RTVSPropertyOp34
 70
     1
102
RTVSPropertyOp35
 70
     1
102
RTVSPropertyOp36
 70
     1
102
RTVSPropertyOp37
 70
     1
102
RTVSPropertyOp38
 70
     1
102
RTVSPropertyOp39
 70
     1
102
RTVSPropertyOp40
 70
     1
102
RTVSPropertyOp41
 70
     1
102
RTVSPropertyOp42
 70
     1
102
RTVSPropertyOp43
 70
     1
102
RTVSPropertyOp44
 70
     1
102
RTVSPropertyOp45
 70
     1
102
RTVSPropertyOp46
 70
     1
102
RTVSPropertyOp47
 70
     1
102
RTVSPropertyOp48
 70
     1
102
RTVSPropertyOp49
 70
     1
102
RTVSPropertyOp50
 70
     1
102
RTVSPropertyOp51
 70
     0
102
RTVSPropertyOp52
 70
     0
102
RTVSPropertyOp53
 70
     1
102
RTVSPropertyOp54
 70
     1
102
RTVSPropertyOp55
 70
     1
102
RTVSPropertyOp56
 70
     1
102
RTVSPropertyOp57
 70
     1
102
RTVSPost2010Prop28
280
     0
102
RTVSPost2010PropOp28
 70
     1
102
RTVSPost2010Prop29
280
     1
102
RTVSPost2010PropOp29
 70
     1
102
RTVSPost2010Prop30
280
     1
102
RTVSPost2010PropOp30
 70
     1
102
RTVSPost2010Prop31
280
     0
102
RTVSPost2010PropOp31
 70
     1
102
RTVSPost2010Prop32
280
     0
102
RTVSPost2010PropOp32
 70
     1
102
RTVSPost2010Prop33
280
     0
102
RTVSPost2010PropOp33
 70
     1
102
RTVSPost2010Prop34
280
     0
102
RTVSPost2010PropOp34
 70
     1
102
RTVSPost2010Prop35
280
     0
102
RTVSPost2010PropOp35
 70
     1
102
RTVSPost2010Prop36
280
     0
102
RTVSPost2010PropOp36
 70
     1
102
RTVSPost2010Prop37
 90
       50
102
RTVSPost2010PropOp37
 70
     1
102
RTVSPost2010Prop38
140
0.0
102
RTVSPost2010PropOp38
 70
     1
102
RTVSPost2010Prop39
140
1.0
102
RTVSPost2010PropOp39
 70
     1
102
RTVSPost2010Prop40
 90
        0
102
RTVSPost2010PropOp40
 70
     1
102
RTVSPost2010Prop41ColorIndex
 90
       18
102
RTVSPost2010Prop41ColorRGB
 90
        0
102
RTVSPost2010PropOp41
 70
     1
102
RTVSPost2010Prop42
 90
       50
102
RTVSPost2010PropOp42
 70
     1
102
RTVSPost2010Prop43
 90
        3
102
RTVSPost2010PropOp43
 70
     1
102
RTVSPost2010Prop44ColorIndex
 90
        5
102
RTVSPost2010Prop44ColorRGB
 90
      255
102
RTVSPost2010PropOp44
 70
     1
102
RTVSPost2010Prop45
280
     0
102
RTVSPost2010PropOp45
 70
     1
102
RTVSPost2010Prop46
 90
       50
102
RTVSPost2010PropOp46
 70
     1
102
RTVSPost2010Prop47
 90
       50
102
RTVSPost2010PropOp47
 70
     1
102
RTVSPost2010Prop48
 90
       50
102
RTVSPost2010PropOp48
 70
     1
102
RTVSPost2010Prop49
280
     0
102
RTVSPost2010PropOp49
 70
     1
102
RTVSPost2010Prop50
 90
       50
102
RTVSPost2010PropOp50
 70
     1
102
RTVSPost2010Prop51ColorIndex
 90
      256
102
RTVSPost2010Prop51ColorRGB
 90
-16777216
102
RTVSPost2010PropOp51
 70
     0
102
RTVSPost2010Prop52
140
1.0
102
RTVSPost2010PropOp52
 70
     0
102
RTVSPost2010Prop53
 90
        2
102
RTVSPost2010PropOp53
 70
     1
102
RTVSPost2010Prop54
  1
strokes_ogs.tif
102
RTVSPost2010PropOp54
 70
     1
102
RTVSPost2010Prop55
280
     0
102
RTVSPost2010PropOp55
 70
     1
102
RTVSPost2010Prop56
140
1.0
102
RTVSPost2010PropOp56
 70
     1
102
RTVSPost2010Prop57
140
1.0
102
RTVSPost2010PropOp57
 70
     1
  0
XRECORD
  5
5AF
102
{ACAD_REACTORS
330
5AE
102
}
330
5AE
100
AcDbXrecord
280
     1
102
RTVSPropertyOp0
 70
     1
102
RTVSPropertyOp1
 70
     1
102
RTVSPropertyOp2
 70
     1
102
RTVSPropertyOp3
 70
     1
102
RTVSPropertyOp4
 70
     1
102
RTVSPropertyOp5
 70
     1
102
RTVSPropertyOp6
 70
     1
102
RTVSPropertyOp7
 70
     1
102
RTVSPropertyOp8
 70
     1
102
RTVSPropertyOp9
 70
     1
102
RTVSPropertyOp10
 70
     1
102
RTVSPropertyOp11
 70
     1
102
RTVSPropertyOp12
 70
     1
102
RTVSPropertyOp13
 70
     1
102
RTVSPropertyOp14
 70
     1
102
RTVSPropertyOp15
 70
     1
102
RTVSPropertyOp16
 70
     1
102
RTVSPropertyOp17
 70
     1
102
RTVSPropertyOp18
 70
     1
102
RTVSPropertyOp19
 70
     1
102
RTVSPropertyOp20
 70
     1
102
RTVSPropertyOp21
 70
     1
102
RTVSPropertyOp22
 70
     1
102
RTVSPropertyOp23
 70
     1
102
RTVSPropertyOp24
 70
     1
102
RTVSPropertyOp25
 70
     1
102
RTVSPropertyOp26
 70
     1
102
RTVSPropertyOp27
 70
     1
102
RTVSPropertyOp28
 70
     1
102
RTVSPropertyOp29
 70
     1
102
RTVSPropertyOp30
 70
     1
102
RTVSPropertyOp31
 70
     1
102
RTVSPropertyOp32
 70
     1
102
RTVSPropertyOp33
 70
     1
102
RTVSPropertyOp34
 70
     1
102
RTVSPropertyOp35
 70
     1
102
RTVSPropertyOp36
 70
     1
102
RTVSPropertyOp37
 70
     1
102
RTVSPropertyOp38
 70
     1
102
RTVSPropertyOp39
 70
     1
102
RTVSPropertyOp40
 70
     1
102
RTVSPropertyOp41
 70
     1
102
RTVSPropertyOp42
 70
     1
102
RTVSPropertyOp43
 70
     1
102
RTVSPropertyOp44
 70
     1
102
RTVSPropertyOp45
 70
     1
102
RTVSPropertyOp46
 70
     1
102
RTVSPropertyOp47
 70
     1
102
RTVSPropertyOp48
 70
     1
102
RTVSPropertyOp49
 70
     1
102
RTVSPropertyOp50
 70
     1
102
RTVSPropertyOp51
 70
     0
102
RTVSPropertyOp52
 70
     0
102
RTVSPropertyOp53
 70
     1
102
RTVSPropertyOp54
 70
     1
102
RTVSPropertyOp55
 70
     1
102
RTVSPropertyOp56
 70
     1
102
RTVSPropertyOp57
 70
     1
102
RTVSPost2010Prop28
280
     0
102
RTVSPost2010PropOp28
 70
     1
102
RTVSPost2010Prop29
280
     1
102
RTVSPost2010PropOp29
 70
     1
102
RTVSPost2010Prop30
280
     1
102
RTVSPost2010PropOp30
 70
     1
102
RTVSPost2010Prop31
280
     0
102
RTVSPost2010PropOp31
 70
     1
102
RTVSPost2010Prop32
280
     0
102
RTVSPost2010PropOp32
 70
     1
102
RTVSPost2010Prop33
280
     0
102
RTVSPost2010PropOp33
 70
     1
102
RTVSPost2010Prop34
280
     0
102
RTVSPost2010PropOp34
 70
     1
102
RTVSPost2010Prop35
280
     0
102
RTVSPost2010PropOp35
 70
     1
102
RTVSPost2010Prop36
280
     0
102
RTVSPost2010PropOp36
 70
     1
102
RTVSPost2010Prop37
 90
       50
102
RTVSPost2010PropOp37
 70
     1
102
RTVSPost2010Prop38
140
0.0
102
RTVSPost2010PropOp38
 70
     1
102
RTVSPost2010Prop39
140
1.0
102
RTVSPost2010PropOp39
 70
     1
102
RTVSPost2010Prop40
 90
        0
102
RTVSPost2010PropOp40
 70
     1
102
RTVSPost2010Prop41ColorIndex
 90
       18
102
RTVSPost2010Prop41ColorRGB
 90
        0
102
RTVSPost2010PropOp41
 70
     1
102
RTVSPost2010Prop42
 90
       50
102
RTVSPost2010PropOp42
 70
     1
102
RTVSPost2010Prop43
 90
        3
102
RTVSPost2010PropOp43
 70
     1
102
RTVSPost2010Prop44ColorIndex
 90
        5
102
RTVSPost2010Prop44ColorRGB
 90
      255
102
RTVSPost2010PropOp44
 70
     1
102
RTVSPost2010Prop45
280
     0
102
RTVSPost2010PropOp45
 70
     1
102
RTVSPost2010Prop46
 90
       50
102
RTVSPost2010PropOp46
 70
     1
102
RTVSPost2010Prop47
 90
       50
102
RTVSPost2010PropOp47
 70
     1
102
RTVSPost2010Prop48
 90
       50
102
RTVSPost2010PropOp48
 70
     1
102
RTVSPost2010Prop49
280
     0
102
RTVSPost2010PropOp49
 70
     1
102
RTVSPost2010Prop50
 90
       50
102
RTVSPost2010PropOp50
 70
     1
102
RTVSPost2010Prop51ColorIndex
 90
      256
102
RTVSPost2010Prop51ColorRGB
 90
-16777216
102
RTVSPost2010PropOp51
 70
     0
102
RTVSPost2010Prop52
140
1.0
102
RTVSPost2010PropOp52
 70
     0
102
RTVSPost2010Prop53
 90
        2
102
RTVSPost2010PropOp53
 70
     1
102
RTVSPost2010Prop54
  1
strokes_ogs.tif
102
RTVSPost2010PropOp54
 70
     1
102
RTVSPost2010Prop55
280
     0
102
RTVSPost2010PropOp55
 70
     1
102
RTVSPost2010Prop56
140
1.0
102
RTVSPost2010PropOp56
 70
     1
102
RTVSPost2010Prop57
140
1.0
102
RTVSPost2010PropOp57
 70
     1
  0
XRECORD
  5
5BF
102
{ACAD_REACTORS
330
5BE
102
}
330
5BE
100
AcDbXrecord
280
     1
102
RTVSPropertyOp0
 70
     0
102
RTVSPropertyOp1
 70
     0
102
RTVSPropertyOp2
 70
     0
102
RTVSPropertyOp3
 70
     0
102
RTVSPropertyOp4
 70
     0
102
RTVSPropertyOp5
 70
     0
102
RTVSPropertyOp6
 70
     0
102
RTVSPropertyOp7
 70
     0
102
RTVSPropertyOp8
 70
     0
102
RTVSPropertyOp9
 70
     0
102
RTVSPropertyOp10
 70
     0
102
RTVSPropertyOp11
 70
     0
102
RTVSPropertyOp12
 70
     0
102
RTVSPropertyOp13
 70
     0
102
RTVSPropertyOp14
 70
     0
102
RTVSPropertyOp15
 70
     0
102
RTVSPropertyOp16
 70
     0
102
RTVSPropertyOp17
 70
     0
102
RTVSPropertyOp18
 70
     0
102
RTVSPropertyOp19
 70
     0
102
RTVSPropertyOp20
 70
     0
102
RTVSPropertyOp21
 70
     0
102
RTVSPropertyOp22
 70
     0
102
RTVSPropertyOp23
 70
     0
102
RTVSPropertyOp24
 70
     0
102
RTVSPropertyOp25
 70
     0
102
RTVSPropertyOp26
 70
     0
102
RTVSPropertyOp27
 70
     0
102
RTVSPropertyOp28
 70
     1
102
RTVSPropertyOp29
 70
     1
102
RTVSPropertyOp30
 70
     1
102
RTVSPropertyOp31
 70
     1
102
RTVSPropertyOp32
 70
     1
102
RTVSPropertyOp33
 70
     1
102
RTVSPropertyOp34
 70
     1
102
RTVSPropertyOp35
 70
     1
102
RTVSPropertyOp36
 70
     1
102
RTVSPropertyOp37
 70
     1
102
RTVSPropertyOp38
 70
     1
102
RTVSPropertyOp39
 70
     1
102
RTVSPropertyOp40
 70
     1
102
RTVSPropertyOp41
 70
     1
102
RTVSPropertyOp42
 70
     1
102
RTVSPropertyOp43
 70
     1
102
RTVSPropertyOp44
 70
     1
102
RTVSPropertyOp45
 70
     1
102
RTVSPropertyOp46
 70
     1
102
RTVSPropertyOp47
 70
     1
102
RTVSPropertyOp48
 70
     1
102
RTVSPropertyOp49
 70
     1
102
RTVSPropertyOp50
 70
     1
102
RTVSPropertyOp51
 70
     0
102
RTVSPropertyOp52
 70
     0
102
RTVSPropertyOp53
 70
     1
102
RTVSPropertyOp54
 70
     1
102
RTVSPropertyOp55
 70
     1
102
RTVSPropertyOp56
 70
     1
102
RTVSPropertyOp57
 70
     1
102
RTVSPost2010Prop28
280
     0
102
RTVSPost2010PropOp28
 70
     1
102
RTVSPost2010Prop29
280
     1
102
RTVSPost2010PropOp29
 70
     1
102
RTVSPost2010Prop30
280
     1
102
RTVSPost2010PropOp30
 70
     1
102
RTVSPost2010Prop31
280
     0
102
RTVSPost2010PropOp31
 70
     1
102
RTVSPost2010Prop32
280
     0
102
RTVSPost2010PropOp32
 70
     1
102
RTVSPost2010Prop33
280
     0
102
RTVSPost2010PropOp33
 70
     1
102
RTVSPost2010Prop34
280
     0
102
RTVSPost2010PropOp34
 70
     1
102
RTVSPost2010Prop35
280
     0
102
RTVSPost2010PropOp35
 70
     1
102
RTVSPost2010Prop36
280
     0
102
RTVSPost2010PropOp36
 70
     1
102
RTVSPost2010Prop37
 90
       50
102
RTVSPost2010PropOp37
 70
     1
102
RTVSPost2010Prop38
140
0.0
102
RTVSPost2010PropOp38
 70
     1
102
RTVSPost2010Prop39
140
1.0
102
RTVSPost2010PropOp39
 70
     1
102
RTVSPost2010Prop40
 90
        0
102
RTVSPost2010PropOp40
 70
     1
102
RTVSPost2010Prop41ColorIndex
 90
       18
102
RTVSPost2010Prop41ColorRGB
 90
        0
102
RTVSPost2010PropOp41
 70
     1
102
RTVSPost2010Prop42
 90
       50
102
RTVSPost2010PropOp42
 70
     1
102
RTVSPost2010Prop43
 90
        3
102
RTVSPost2010PropOp43
 70
     1
102
RTVSPost2010Prop44ColorIndex
 90
        5
102
RTVSPost2010Prop44ColorRGB
 90
      255
102
RTVSPost2010PropOp44
 70
     1
102
RTVSPost2010Prop45
280
     0
102
RTVSPost2010PropOp45
 70
     1
102
RTVSPost2010Prop46
 90
       50
102
RTVSPost2010PropOp46
 70
     1
102
RTVSPost2010Prop47
 90
       50
102
RTVSPost2010PropOp47
 70
     1
102
RTVSPost2010Prop48
 90
       50
102
RTVSPost2010PropOp48
 70
     1
102
RTVSPost2010Prop49
280
     0
102
RTVSPost2010PropOp49
 70
     1
102
RTVSPost2010Prop50
 90
       50
102
RTVSPost2010PropOp50
 70
     1
102
RTVSPost2010Prop51ColorIndex
 90
      256
102
RTVSPost2010Prop51ColorRGB
 90
-16777216
102
RTVSPost2010PropOp51
 70
     0
102
RTVSPost2010Prop52
140
1.0
102
RTVSPost2010PropOp52
 70
     0
102
RTVSPost2010Prop53
 90
        2
102
RTVSPost2010PropOp53
 70
     1
102
RTVSPost2010Prop54
  1
strokes_ogs.tif
102
RTVSPost2010PropOp54
 70
     1
102
RTVSPost2010Prop55
280
     0
102
RTVSPost2010PropOp55
 70
     1
102
RTVSPost2010Prop56
140
1.0
102
RTVSPost2010PropOp56
 70
     1
102
RTVSPost2010Prop57
140
1.0
102
RTVSPost2010PropOp57
 70
     1
  0
XRECORD
  5
5B7
102
{ACAD_REACTORS
330
5B6
102
}
330
5B6
100
AcDbXrecord
280
     1
102
RTVSPropertyOp0
 70
     1
102
RTVSPropertyOp1
 70
     1
102
RTVSPropertyOp2
 70
     1
102
RTVSPropertyOp3
 70
     1
102
RTVSPropertyOp4
 70
     1
102
RTVSPropertyOp5
 70
     1
102
RTVSPropertyOp6
 70
     1
102
RTVSPropertyOp7
 70
     1
102
RTVSPropertyOp8
 70
     1
102
RTVSPropertyOp9
 70
     1
102
RTVSPropertyOp10
 70
     1
102
RTVSPropertyOp11
 70
     1
102
RTVSPropertyOp12
 70
     1
102
RTVSPropertyOp13
 70
     1
102
RTVSPropertyOp14
 70
     1
102
RTVSPropertyOp15
 70
     1
102
RTVSPropertyOp16
 70
     1
102
RTVSPropertyOp17
 70
     1
102
RTVSPropertyOp18
 70
     1
102
RTVSPropertyOp19
 70
     1
102
RTVSPropertyOp20
 70
     1
102
RTVSPropertyOp21
 70
     1
102
RTVSPropertyOp22
 70
     1
102
RTVSPropertyOp23
 70
     1
102
RTVSPropertyOp24
 70
     1
102
RTVSPropertyOp25
 70
     1
102
RTVSPropertyOp26
 70
     1
102
RTVSPropertyOp27
 70
     1
102
RTVSPropertyOp28
 70
     1
102
RTVSPropertyOp29
 70
     1
102
RTVSPropertyOp30
 70
     1
102
RTVSPropertyOp31
 70
     1
102
RTVSPropertyOp32
 70
     1
102
RTVSPropertyOp33
 70
     1
102
RTVSPropertyOp34
 70
     1
102
RTVSPropertyOp35
 70
     1
102
RTVSPropertyOp36
 70
     1
102
RTVSPropertyOp37
 70
     1
102
RTVSPropertyOp38
 70
     1
102
RTVSPropertyOp39
 70
     1
102
RTVSPropertyOp40
 70
     1
102
RTVSPropertyOp41
 70
     1
102
RTVSPropertyOp42
 70
     1
102
RTVSPropertyOp43
 70
     1
102
RTVSPropertyOp44
 70
     1
102
RTVSPropertyOp45
 70
     1
102
RTVSPropertyOp46
 70
     1
102
RTVSPropertyOp47
 70
     1
102
RTVSPropertyOp48
 70
     1
102
RTVSPropertyOp49
 70
     1
102
RTVSPropertyOp50
 70
     1
102
RTVSPropertyOp51
 70
     0
102
RTVSPropertyOp52
 70
     0
102
RTVSPropertyOp53
 70
     1
102
RTVSPropertyOp54
 70
     1
102
RTVSPropertyOp55
 70
     1
102
RTVSPropertyOp56
 70
     1
102
RTVSPropertyOp57
 70
     1
102
RTVSPost2010Prop28
280
     0
102
RTVSPost2010PropOp28
 70
     1
102
RTVSPost2010Prop29
280
     1
102
RTVSPost2010PropOp29
 70
     1
102
RTVSPost2010Prop30
280
     1
102
RTVSPost2010PropOp30
 70
     1
102
RTVSPost2010Prop31
280
     0
102
RTVSPost2010PropOp31
 70
     1
102
RTVSPost2010Prop32
280
     0
102
RTVSPost2010PropOp32
 70
     1
102
RTVSPost2010Prop33
280
     0
102
RTVSPost2010PropOp33
 70
     1
102
RTVSPost2010Prop34
280
     0
102
RTVSPost2010PropOp34
 70
     1
102
RTVSPost2010Prop35
280
     0
102
RTVSPost2010PropOp35
 70
     1
102
RTVSPost2010Prop36
280
     0
102
RTVSPost2010PropOp36
 70
     1
102
RTVSPost2010Prop37
 90
       50
102
RTVSPost2010PropOp37
 70
     1
102
RTVSPost2010Prop38
140
0.0
102
RTVSPost2010PropOp38
 70
     1
102
RTVSPost2010Prop39
140
1.0
102
RTVSPost2010PropOp39
 70
     1
102
RTVSPost2010Prop40
 90
        0
102
RTVSPost2010PropOp40
 70
     1
102
RTVSPost2010Prop41ColorIndex
 90
       18
102
RTVSPost2010Prop41ColorRGB
 90
        0
102
RTVSPost2010PropOp41
 70
     1
102
RTVSPost2010Prop42
 90
       50
102
RTVSPost2010PropOp42
 70
     1
102
RTVSPost2010Prop43
 90
        3
102
RTVSPost2010PropOp43
 70
     1
102
RTVSPost2010Prop44ColorIndex
 90
        5
102
RTVSPost2010Prop44ColorRGB
 90
      255
102
RTVSPost2010PropOp44
 70
     1
102
RTVSPost2010Prop45
280
     0
102
RTVSPost2010PropOp45
 70
     1
102
RTVSPost2010Prop46
 90
       50
102
RTVSPost2010PropOp46
 70
     1
102
RTVSPost2010Prop47
 90
       50
102
RTVSPost2010PropOp47
 70
     1
102
RTVSPost2010Prop48
 90
       50
102
RTVSPost2010PropOp48
 70
     1
102
RTVSPost2010Prop49
280
     0
102
RTVSPost2010PropOp49
 70
     1
102
RTVSPost2010Prop50
 90
       50
102
RTVSPost2010PropOp50
 70
     1
102
RTVSPost2010Prop51ColorIndex
 90
      256
102
RTVSPost2010Prop51ColorRGB
 90
-16777216
102
RTVSPost2010PropOp51
 70
     0
102
RTVSPost2010Prop52
140
1.0
102
RTVSPost2010PropOp52
 70
     0
102
RTVSPost2010Prop53
 90
        2
102
RTVSPost2010PropOp53
 70
     1
102
RTVSPost2010Prop54
  1
strokes_ogs.tif
102
RTVSPost2010PropOp54
 70
     1
102
RTVSPost2010Prop55
280
     0
102
RTVSPost2010PropOp55
 70
     1
102
RTVSPost2010Prop56
140
1.0
102
RTVSPost2010PropOp56
 70
     1
102
RTVSPost2010Prop57
140
1.0
102
RTVSPost2010PropOp57
 70
     1
  0
XRECORD
  5
59F
102
{ACAD_REACTORS
330
59E
102
}
330
59E
100
AcDbXrecord
280
     1
102
RTVSPropertyOp0
 70
     1
102
RTVSPropertyOp1
 70
     1
102
RTVSPropertyOp2
 70
     1
102
RTVSPropertyOp3
 70
     1
102
RTVSPropertyOp4
 70
     1
102
RTVSPropertyOp5
 70
     1
102
RTVSPropertyOp6
 70
     1
102
RTVSPropertyOp7
 70
     1
102
RTVSPropertyOp8
 70
     1
102
RTVSPropertyOp9
 70
     1
102
RTVSPropertyOp10
 70
     1
102
RTVSPropertyOp11
 70
     1
102
RTVSPropertyOp12
 70
     1
102
RTVSPropertyOp13
 70
     1
102
RTVSPropertyOp14
 70
     1
102
RTVSPropertyOp15
 70
     1
102
RTVSPropertyOp16
 70
     1
102
RTVSPropertyOp17
 70
     1
102
RTVSPropertyOp18
 70
     1
102
RTVSPropertyOp19
 70
     1
102
RTVSPropertyOp20
 70
     1
102
RTVSPropertyOp21
 70
     1
102
RTVSPropertyOp22
 70
     1
102
RTVSPropertyOp23
 70
     1
102
RTVSPropertyOp24
 70
     1
102
RTVSPropertyOp25
 70
     1
102
RTVSPropertyOp26
 70
     1
102
RTVSPropertyOp27
 70
     1
102
RTVSPropertyOp28
 70
     1
102
RTVSPropertyOp29
 70
     1
102
RTVSPropertyOp30
 70
     1
102
RTVSPropertyOp31
 70
     1
102
RTVSPropertyOp32
 70
     1
102
RTVSPropertyOp33
 70
     1
102
RTVSPropertyOp34
 70
     1
102
RTVSPropertyOp35
 70
     1
102
RTVSPropertyOp36
 70
     1
102
RTVSPropertyOp37
 70
     1
102
RTVSPropertyOp38
 70
     1
102
RTVSPropertyOp39
 70
     1
102
RTVSPropertyOp40
 70
     1
102
RTVSPropertyOp41
 70
     1
102
RTVSPropertyOp42
 70
     1
102
RTVSPropertyOp43
 70
     1
102
RTVSPropertyOp44
 70
     1
102
RTVSPropertyOp45
 70
     1
102
RTVSPropertyOp46
 70
     1
102
RTVSPropertyOp47
 70
     1
102
RTVSPropertyOp48
 70
     1
102
RTVSPropertyOp49
 70
     1
102
RTVSPropertyOp50
 70
     1
102
RTVSPropertyOp51
 70
     0
102
RTVSPropertyOp52
 70
     0
102
RTVSPropertyOp53
 70
     1
102
RTVSPropertyOp54
 70
     1
102
RTVSPropertyOp55
 70
     1
102
RTVSPropertyOp56
 70
     1
102
RTVSPropertyOp57
 70
     1
102
RTVSPost2010Prop28
280
     0
102
RTVSPost2010PropOp28
 70
     1
102
RTVSPost2010Prop29
280
     1
102
RTVSPost2010PropOp29
 70
     1
102
RTVSPost2010Prop30
280
     1
102
RTVSPost2010PropOp30
 70
     1
102
RTVSPost2010Prop31
280
     0
102
RTVSPost2010PropOp31
 70
     1
102
RTVSPost2010Prop32
280
     0
102
RTVSPost2010PropOp32
 70
     1
102
RTVSPost2010Prop33
280
     0
102
RTVSPost2010PropOp33
 70
     1
102
RTVSPost2010Prop34
280
     0
102
RTVSPost2010PropOp34
 70
     1
102
RTVSPost2010Prop35
280
     0
102
RTVSPost2010PropOp35
 70
     1
102
RTVSPost2010Prop36
280
     0
102
RTVSPost2010PropOp36
 70
     1
102
RTVSPost2010Prop37
 90
       50
102
RTVSPost2010PropOp37
 70
     1
102
RTVSPost2010Prop38
140
0.0
102
RTVSPost2010PropOp38
 70
     1
102
RTVSPost2010Prop39
140
1.0
102
RTVSPost2010PropOp39
 70
     1
102
RTVSPost2010Prop40
 90
        0
102
RTVSPost2010PropOp40
 70
     1
102
RTVSPost2010Prop41ColorIndex
 90
       18
102
RTVSPost2010Prop41ColorRGB
 90
        0
102
RTVSPost2010PropOp41
 70
     1
102
RTVSPost2010Prop42
 90
       50
102
RTVSPost2010PropOp42
 70
     1
102
RTVSPost2010Prop43
 90
        3
102
RTVSPost2010PropOp43
 70
     1
102
RTVSPost2010Prop44ColorIndex
 90
        5
102
RTVSPost2010Prop44ColorRGB
 90
      255
102
RTVSPost2010PropOp44
 70
     1
102
RTVSPost2010Prop45
280
     0
102
RTVSPost2010PropOp45
 70
     1
102
RTVSPost2010Prop46
 90
       50
102
RTVSPost2010PropOp46
 70
     1
102
RTVSPost2010Prop47
 90
       50
102
RTVSPost2010PropOp47
 70
     1
102
RTVSPost2010Prop48
 90
       50
102
RTVSPost2010PropOp48
 70
     1
102
RTVSPost2010Prop49
280
     0
102
RTVSPost2010PropOp49
 70
     1
102
RTVSPost2010Prop50
 90
       50
102
RTVSPost2010PropOp50
 70
     1
102
RTVSPost2010Prop51ColorIndex
 90
      256
102
RTVSPost2010Prop51ColorRGB
 90
-16777216
102
RTVSPost2010PropOp51
 70
     0
102
RTVSPost2010Prop52
140
1.0
102
RTVSPost2010PropOp52
 70
     0
102
RTVSPost2010Prop53
 90
        2
102
RTVSPost2010PropOp53
 70
     1
102
RTVSPost2010Prop54
  1
strokes_ogs.tif
102
RTVSPost2010PropOp54
 70
     1
102
RTVSPost2010Prop55
280
     0
102
RTVSPost2010PropOp55
 70
     1
102
RTVSPost2010Prop56
140
1.0
102
RTVSPost2010PropOp56
 70
     1
102
RTVSPost2010Prop57
140
1.0
102
RTVSPost2010PropOp57
 70
     1
  0
XRECORD
  5
5A1
102
{ACAD_REACTORS
330
5A0
102
}
330
5A0
100
AcDbXrecord
280
     1
102
RTVSPropertyOp0
 70
     1
102
RTVSPropertyOp1
 70
     1
102
RTVSPropertyOp2
 70
     1
102
RTVSPropertyOp3
 70
     1
102
RTVSPropertyOp4
 70
     1
102
RTVSPropertyOp5
 70
     1
102
RTVSPropertyOp6
 70
     1
102
RTVSPropertyOp7
 70
     1
102
RTVSPropertyOp8
 70
     1
102
RTVSPropertyOp9
 70
     1
102
RTVSPropertyOp10
 70
     1
102
RTVSPropertyOp11
 70
     1
102
RTVSPropertyOp12
 70
     1
102
RTVSPropertyOp13
 70
     1
102
RTVSPropertyOp14
 70
     1
102
RTVSPropertyOp15
 70
     1
102
RTVSPropertyOp16
 70
     1
102
RTVSPropertyOp17
 70
     1
102
RTVSPropertyOp18
 70
     1
102
RTVSPropertyOp19
 70
     1
102
RTVSPropertyOp20
 70
     1
102
RTVSPropertyOp21
 70
     1
102
RTVSPropertyOp22
 70
     1
102
RTVSPropertyOp23
 70
     1
102
RTVSPropertyOp24
 70
     1
102
RTVSPropertyOp25
 70
     1
102
RTVSPropertyOp26
 70
     1
102
RTVSPropertyOp27
 70
     1
102
RTVSPropertyOp28
 70
     1
102
RTVSPropertyOp29
 70
     1
102
RTVSPropertyOp30
 70
     1
102
RTVSPropertyOp31
 70
     1
102
RTVSPropertyOp32
 70
     1
102
RTVSPropertyOp33
 70
     1
102
RTVSPropertyOp34
 70
     1
102
RTVSPropertyOp35
 70
     1
102
RTVSPropertyOp36
 70
     1
102
RTVSPropertyOp37
 70
     1
102
RTVSPropertyOp38
 70
     1
102
RTVSPropertyOp39
 70
     1
102
RTVSPropertyOp40
 70
     1
102
RTVSPropertyOp41
 70
     1
102
RTVSPropertyOp42
 70
     1
102
RTVSPropertyOp43
 70
     1
102
RTVSPropertyOp44
 70
     1
102
RTVSPropertyOp45
 70
     1
102
RTVSPropertyOp46
 70
     1
102
RTVSPropertyOp47
 70
     1
102
RTVSPropertyOp48
 70
     1
102
RTVSPropertyOp49
 70
     1
102
RTVSPropertyOp50
 70
     1
102
RTVSPropertyOp51
 70
     0
102
RTVSPropertyOp52
 70
     0
102
RTVSPropertyOp53
 70
     1
102
RTVSPropertyOp54
 70
     1
102
RTVSPropertyOp55
 70
     1
102
RTVSPropertyOp56
 70
     1
102
RTVSPropertyOp57
 70
     1
102
RTVSPost2010Prop28
280
     0
102
RTVSPost2010PropOp28
 70
     1
102
RTVSPost2010Prop29
280
     1
102
RTVSPost2010PropOp29
 70
     1
102
RTVSPost2010Prop30
280
     1
102
RTVSPost2010PropOp30
 70
     1
102
RTVSPost2010Prop31
280
     0
102
RTVSPost2010PropOp31
 70
     1
102
RTVSPost2010Prop32
280
     0
102
RTVSPost2010PropOp32
 70
     1
102
RTVSPost2010Prop33
280
     0
102
RTVSPost2010PropOp33
 70
     1
102
RTVSPost2010Prop34
280
     0
102
RTVSPost2010PropOp34
 70
     1
102
RTVSPost2010Prop35
280
     0
102
RTVSPost2010PropOp35
 70
     1
102
RTVSPost2010Prop36
280
     0
102
RTVSPost2010PropOp36
 70
     1
102
RTVSPost2010Prop37
 90
       50
102
RTVSPost2010PropOp37
 70
     1
102
RTVSPost2010Prop38
140
0.0
102
RTVSPost2010PropOp38
 70
     1
102
RTVSPost2010Prop39
140
1.0
102
RTVSPost2010PropOp39
 70
     1
102
RTVSPost2010Prop40
 90
        0
102
RTVSPost2010PropOp40
 70
     1
102
RTVSPost2010Prop41ColorIndex
 90
       18
102
RTVSPost2010Prop41ColorRGB
 90
        0
102
RTVSPost2010PropOp41
 70
     1
102
RTVSPost2010Prop42
 90
       50
102
RTVSPost2010PropOp42
 70
     1
102
RTVSPost2010Prop43
 90
        3
102
RTVSPost2010PropOp43
 70
     1
102
RTVSPost2010Prop44ColorIndex
 90
        5
102
RTVSPost2010Prop44ColorRGB
 90
      255
102
RTVSPost2010PropOp44
 70
     1
102
RTVSPost2010Prop45
280
     0
102
RTVSPost2010PropOp45
 70
     1
102
RTVSPost2010Prop46
 90
       50
102
RTVSPost2010PropOp46
 70
     1
102
RTVSPost2010Prop47
 90
       50
102
RTVSPost2010PropOp47
 70
     1
102
RTVSPost2010Prop48
 90
       50
102
RTVSPost2010PropOp48
 70
     1
102
RTVSPost2010Prop49
280
     0
102
RTVSPost2010PropOp49
 70
     1
102
RTVSPost2010Prop50
 90
       50
102
RTVSPost2010PropOp50
 70
     1
102
RTVSPost2010Prop51ColorIndex
 90
      256
102
RTVSPost2010Prop51ColorRGB
 90
-16777216
102
RTVSPost2010PropOp51
 70
     0
102
RTVSPost2010Prop52
140
1.0
102
RTVSPost2010PropOp52
 70
     0
102
RTVSPost2010Prop53
 90
        2
102
RTVSPost2010PropOp53
 70
     1
102
RTVSPost2010Prop54
  1
strokes_ogs.tif
102
RTVSPost2010PropOp54
 70
     1
102
RTVSPost2010Prop55
280
     0
102
RTVSPost2010PropOp55
 70
     1
102
RTVSPost2010Prop56
140
1.0
102
RTVSPost2010PropOp56
 70
     1
102
RTVSPost2010Prop57
140
1.0
102
RTVSPost2010PropOp57
 70
     1
  0
XRECORD
  5
5A3
102
{ACAD_REACTORS
330
5A2
102
}
330
5A2
100
AcDbXrecord
280
     1
102
RTVSPropertyOp0
 70
     1
102
RTVSPropertyOp1
 70
     1
102
RTVSPropertyOp2
 70
     1
102
RTVSPropertyOp3
 70
     1
102
RTVSPropertyOp4
 70
     1
102
RTVSPropertyOp5
 70
     1
102
RTVSPropertyOp6
 70
     1
102
RTVSPropertyOp7
 70
     1
102
RTVSPropertyOp8
 70
     1
102
RTVSPropertyOp9
 70
     1
102
RTVSPropertyOp10
 70
     1
102
RTVSPropertyOp11
 70
     1
102
RTVSPropertyOp12
 70
     1
102
RTVSPropertyOp13
 70
     1
102
RTVSPropertyOp14
 70
     1
102
RTVSPropertyOp15
 70
     1
102
RTVSPropertyOp16
 70
     1
102
RTVSPropertyOp17
 70
     1
102
RTVSPropertyOp18
 70
     1
102
RTVSPropertyOp19
 70
     1
102
RTVSPropertyOp20
 70
     1
102
RTVSPropertyOp21
 70
     1
102
RTVSPropertyOp22
 70
     1
102
RTVSPropertyOp23
 70
     1
102
RTVSPropertyOp24
 70
     1
102
RTVSPropertyOp25
 70
     1
102
RTVSPropertyOp26
 70
     1
102
RTVSPropertyOp27
 70
     1
102
RTVSPropertyOp28
 70
     1
102
RTVSPropertyOp29
 70
     1
102
RTVSPropertyOp30
 70
     1
102
RTVSPropertyOp31
 70
     1
102
RTVSPropertyOp32
 70
     1
102
RTVSPropertyOp33
 70
     1
102
RTVSPropertyOp34
 70
     1
102
RTVSPropertyOp35
 70
     1
102
RTVSPropertyOp36
 70
     1
102
RTVSPropertyOp37
 70
     1
102
RTVSPropertyOp38
 70
     1
102
RTVSPropertyOp39
 70
     1
102
RTVSPropertyOp40
 70
     1
102
RTVSPropertyOp41
 70
     1
102
RTVSPropertyOp42
 70
     1
102
RTVSPropertyOp43
 70
     1
102
RTVSPropertyOp44
 70
     1
102
RTVSPropertyOp45
 70
     1
102
RTVSPropertyOp46
 70
     1
102
RTVSPropertyOp47
 70
     1
102
RTVSPropertyOp48
 70
     1
102
RTVSPropertyOp49
 70
     1
102
RTVSPropertyOp50
 70
     1
102
RTVSPropertyOp51
 70
     0
102
RTVSPropertyOp52
 70
     0
102
RTVSPropertyOp53
 70
     1
102
RTVSPropertyOp54
 70
     1
102
RTVSPropertyOp55
 70
     1
102
RTVSPropertyOp56
 70
     1
102
RTVSPropertyOp57
 70
     1
102
RTVSPost2010Prop28
280
     0
102
RTVSPost2010PropOp28
 70
     1
102
RTVSPost2010Prop29
280
     1
102
RTVSPost2010PropOp29
 70
     1
102
RTVSPost2010Prop30
280
     1
102
RTVSPost2010PropOp30
 70
     1
102
RTVSPost2010Prop31
280
     0
102
RTVSPost2010PropOp31
 70
     1
102
RTVSPost2010Prop32
280
     0
102
RTVSPost2010PropOp32
 70
     1
102
RTVSPost2010Prop33
280
     0
102
RTVSPost2010PropOp33
 70
     1
102
RTVSPost2010Prop34
280
     0
102
RTVSPost2010PropOp34
 70
     1
102
RTVSPost2010Prop35
280
     0
102
RTVSPost2010PropOp35
 70
     1
102
RTVSPost2010Prop36
280
     0
102
RTVSPost2010PropOp36
 70
     1
102
RTVSPost2010Prop37
 90
       50
102
RTVSPost2010PropOp37
 70
     1
102
RTVSPost2010Prop38
140
0.0
102
RTVSPost2010PropOp38
 70
     1
102
RTVSPost2010Prop39
140
1.0
102
RTVSPost2010PropOp39
 70
     1
102
RTVSPost2010Prop40
 90
        0
102
RTVSPost2010PropOp40
 70
     1
102
RTVSPost2010Prop41ColorIndex
 90
       18
102
RTVSPost2010Prop41ColorRGB
 90
        0
102
RTVSPost2010PropOp41
 70
     1
102
RTVSPost2010Prop42
 90
       50
102
RTVSPost2010PropOp42
 70
     1
102
RTVSPost2010Prop43
 90
        3
102
RTVSPost2010PropOp43
 70
     1
102
RTVSPost2010Prop44ColorIndex
 90
        5
102
RTVSPost2010Prop44ColorRGB
 90
      255
102
RTVSPost2010PropOp44
 70
     1
102
RTVSPost2010Prop45
280
     0
102
RTVSPost2010PropOp45
 70
     1
102
RTVSPost2010Prop46
 90
       50
102
RTVSPost2010PropOp46
 70
     1
102
RTVSPost2010Prop47
 90
       50
102
RTVSPost2010PropOp47
 70
     1
102
RTVSPost2010Prop48
 90
       50
102
RTVSPost2010PropOp48
 70
     1
102
RTVSPost2010Prop49
280
     0
102
RTVSPost2010PropOp49
 70
     1
102
RTVSPost2010Prop50
 90
       50
102
RTVSPost2010PropOp50
 70
     1
102
RTVSPost2010Prop51ColorIndex
 90
      256
102
RTVSPost2010Prop51ColorRGB
 90
-16777216
102
RTVSPost2010PropOp51
 70
     0
102
RTVSPost2010Prop52
140
1.0
102
RTVSPost2010PropOp52
 70
     0
102
RTVSPost2010Prop53
 90
        2
102
RTVSPost2010PropOp53
 70
     1
102
RTVSPost2010Prop54
  1
strokes_ogs.tif
102
RTVSPost2010PropOp54
 70
     1
102
RTVSPost2010Prop55
280
     0
102
RTVSPost2010PropOp55
 70
     1
102
RTVSPost2010Prop56
140
1.0
102
RTVSPost2010PropOp56
 70
     1
102
RTVSPost2010Prop57
140
1.0
102
RTVSPost2010PropOp57
 70
     1
  0
XRECORD
  5
5A5
102
{ACAD_REACTORS
330
5A4
102
}
330
5A4
100
AcDbXrecord
280
     1
102
RTVSPropertyOp0
 70
     1
102
RTVSPropertyOp1
 70
     1
102
RTVSPropertyOp2
 70
     1
102
RTVSPropertyOp3
 70
     1
102
RTVSPropertyOp4
 70
     1
102
RTVSPropertyOp5
 70
     1
102
RTVSPropertyOp6
 70
     1
102
RTVSPropertyOp7
 70
     1
102
RTVSPropertyOp8
 70
     1
102
RTVSPropertyOp9
 70
     1
102
RTVSPropertyOp10
 70
     1
102
RTVSPropertyOp11
 70
     1
102
RTVSPropertyOp12
 70
     1
102
RTVSPropertyOp13
 70
     1
102
RTVSPropertyOp14
 70
     1
102
RTVSPropertyOp15
 70
     1
102
RTVSPropertyOp16
 70
     1
102
RTVSPropertyOp17
 70
     1
102
RTVSPropertyOp18
 70
     1
102
RTVSPropertyOp19
 70
     1
102
RTVSPropertyOp20
 70
     1
102
RTVSPropertyOp21
 70
     1
102
RTVSPropertyOp22
 70
     1
102
RTVSPropertyOp23
 70
     1
102
RTVSPropertyOp24
 70
     1
102
RTVSPropertyOp25
 70
     1
102
RTVSPropertyOp26
 70
     1
102
RTVSPropertyOp27
 70
     1
102
RTVSPropertyOp28
 70
     1
102
RTVSPropertyOp29
 70
     1
102
RTVSPropertyOp30
 70
     1
102
RTVSPropertyOp31
 70
     1
102
RTVSPropertyOp32
 70
     1
102
RTVSPropertyOp33
 70
     1
102
RTVSPropertyOp34
 70
     1
102
RTVSPropertyOp35
 70
     1
102
RTVSPropertyOp36
 70
     1
102
RTVSPropertyOp37
 70
     1
102
RTVSPropertyOp38
 70
     1
102
RTVSPropertyOp39
 70
     1
102
RTVSPropertyOp40
 70
     1
102
RTVSPropertyOp41
 70
     1
102
RTVSPropertyOp42
 70
     1
102
RTVSPropertyOp43
 70
     1
102
RTVSPropertyOp44
 70
     1
102
RTVSPropertyOp45
 70
     1
102
RTVSPropertyOp46
 70
     1
102
RTVSPropertyOp47
 70
     1
102
RTVSPropertyOp48
 70
     1
102
RTVSPropertyOp49
 70
     1
102
RTVSPropertyOp50
 70
     1
102
RTVSPropertyOp51
 70
     0
102
RTVSPropertyOp52
 70
     0
102
RTVSPropertyOp53
 70
     1
102
RTVSPropertyOp54
 70
     1
102
RTVSPropertyOp55
 70
     1
102
RTVSPropertyOp56
 70
     1
102
RTVSPropertyOp57
 70
     1
102
RTVSPost2010Prop28
280
     0
102
RTVSPost2010PropOp28
 70
     1
102
RTVSPost2010Prop29
280
     1
102
RTVSPost2010PropOp29
 70
     1
102
RTVSPost2010Prop30
280
     1
102
RTVSPost2010PropOp30
 70
     1
102
RTVSPost2010Prop31
280
     0
102
RTVSPost2010PropOp31
 70
     1
102
RTVSPost2010Prop32
280
     0
102
RTVSPost2010PropOp32
 70
     1
102
RTVSPost2010Prop33
280
     0
102
RTVSPost2010PropOp33
 70
     1
102
RTVSPost2010Prop34
280
     0
102
RTVSPost2010PropOp34
 70
     1
102
RTVSPost2010Prop35
280
     0
102
RTVSPost2010PropOp35
 70
     1
102
RTVSPost2010Prop36
280
     0
102
RTVSPost2010PropOp36
 70
     1
102
RTVSPost2010Prop37
 90
       50
102
RTVSPost2010PropOp37
 70
     1
102
RTVSPost2010Prop38
140
0.0
102
RTVSPost2010PropOp38
 70
     1
102
RTVSPost2010Prop39
140
1.0
102
RTVSPost2010PropOp39
 70
     1
102
RTVSPost2010Prop40
 90
        0
102
RTVSPost2010PropOp40
 70
     1
102
RTVSPost2010Prop41ColorIndex
 90
       18
102
RTVSPost2010Prop41ColorRGB
 90
        0
102
RTVSPost2010PropOp41
 70
     1
102
RTVSPost2010Prop42
 90
       50
102
RTVSPost2010PropOp42
 70
     1
102
RTVSPost2010Prop43
 90
        3
102
RTVSPost2010PropOp43
 70
     1
102
RTVSPost2010Prop44ColorIndex
 90
        5
102
RTVSPost2010Prop44ColorRGB
 90
      255
102
RTVSPost2010PropOp44
 70
     1
102
RTVSPost2010Prop45
280
     0
102
RTVSPost2010PropOp45
 70
     1
102
RTVSPost2010Prop46
 90
       50
102
RTVSPost2010PropOp46
 70
     1
102
RTVSPost2010Prop47
 90
       50
102
RTVSPost2010PropOp47
 70
     1
102
RTVSPost2010Prop48
 90
       50
102
RTVSPost2010PropOp48
 70
     1
102
RTVSPost2010Prop49
280
     0
102
RTVSPost2010PropOp49
 70
     1
102
RTVSPost2010Prop50
 90
       50
102
RTVSPost2010PropOp50
 70
     1
102
RTVSPost2010Prop51ColorIndex
 90
      256
102
RTVSPost2010Prop51ColorRGB
 90
-16777216
102
RTVSPost2010PropOp51
 70
     0
102
RTVSPost2010Prop52
140
1.0
102
RTVSPost2010PropOp52
 70
     0
102
RTVSPost2010Prop53
 90
        2
102
RTVSPost2010PropOp53
 70
     1
102
RTVSPost2010Prop54
  1
strokes_ogs.tif
102
RTVSPost2010PropOp54
 70
     1
102
RTVSPost2010Prop55
280
     0
102
RTVSPost2010PropOp55
 70
     1
102
RTVSPost2010Prop56
140
1.0
102
RTVSPost2010PropOp56
 70
     1
102
RTVSPost2010Prop57
140
1.0
102
RTVSPost2010PropOp57
 70
     1
  0
XRECORD
  5
5A9
102
{ACAD_REACTORS
330
5A8
102
}
330
5A8
100
AcDbXrecord
280
     1
102
RTVSPropertyOp0
 70
     1
102
RTVSPropertyOp1
 70
     1
102
RTVSPropertyOp2
 70
     1
102
RTVSPropertyOp3
 70
     1
102
RTVSPropertyOp4
 70
     1
102
RTVSPropertyOp5
 70
     1
102
RTVSPropertyOp6
 70
     1
102
RTVSPropertyOp7
 70
     1
102
RTVSPropertyOp8
 70
     1
102
RTVSPropertyOp9
 70
     1
102
RTVSPropertyOp10
 70
     1
102
RTVSPropertyOp11
 70
     1
102
RTVSPropertyOp12
 70
     1
102
RTVSPropertyOp13
 70
     1
102
RTVSPropertyOp14
 70
     1
102
RTVSPropertyOp15
 70
     1
102
RTVSPropertyOp16
 70
     1
102
RTVSPropertyOp17
 70
     1
102
RTVSPropertyOp18
 70
     1
102
RTVSPropertyOp19
 70
     1
102
RTVSPropertyOp20
 70
     1
102
RTVSPropertyOp21
 70
     1
102
RTVSPropertyOp22
 70
     1
102
RTVSPropertyOp23
 70
     1
102
RTVSPropertyOp24
 70
     1
102
RTVSPropertyOp25
 70
     1
102
RTVSPropertyOp26
 70
     1
102
RTVSPropertyOp27
 70
     1
102
RTVSPropertyOp28
 70
     1
102
RTVSPropertyOp29
 70
     1
102
RTVSPropertyOp30
 70
     1
102
RTVSPropertyOp31
 70
     1
102
RTVSPropertyOp32
 70
     1
102
RTVSPropertyOp33
 70
     1
102
RTVSPropertyOp34
 70
     1
102
RTVSPropertyOp35
 70
     1
102
RTVSPropertyOp36
 70
     1
102
RTVSPropertyOp37
 70
     1
102
RTVSPropertyOp38
 70
     1
102
RTVSPropertyOp39
 70
     1
102
RTVSPropertyOp40
 70
     1
102
RTVSPropertyOp41
 70
     1
102
RTVSPropertyOp42
 70
     1
102
RTVSPropertyOp43
 70
     1
102
RTVSPropertyOp44
 70
     1
102
RTVSPropertyOp45
 70
     1
102
RTVSPropertyOp46
 70
     1
102
RTVSPropertyOp47
 70
     1
102
RTVSPropertyOp48
 70
     1
102
RTVSPropertyOp49
 70
     1
102
RTVSPropertyOp50
 70
     1
102
RTVSPropertyOp51
 70
     0
102
RTVSPropertyOp52
 70
     0
102
RTVSPropertyOp53
 70
     1
102
RTVSPropertyOp54
 70
     1
102
RTVSPropertyOp55
 70
     1
102
RTVSPropertyOp56
 70
     1
102
RTVSPropertyOp57
 70
     1
102
RTVSPost2010Prop28
280
     0
102
RTVSPost2010PropOp28
 70
     1
102
RTVSPost2010Prop29
280
     1
102
RTVSPost2010PropOp29
 70
     1
102
RTVSPost2010Prop30
280
     1
102
RTVSPost2010PropOp30
 70
     1
102
RTVSPost2010Prop31
280
     0
102
RTVSPost2010PropOp31
 70
     1
102
RTVSPost2010Prop32
280
     0
102
RTVSPost2010PropOp32
 70
     1
102
RTVSPost2010Prop33
280
     0
102
RTVSPost2010PropOp33
 70
     1
102
RTVSPost2010Prop34
280
     0
102
RTVSPost2010PropOp34
 70
     1
102
RTVSPost2010Prop35
280
     0
102
RTVSPost2010PropOp35
 70
     1
102
RTVSPost2010Prop36
280
     0
102
RTVSPost2010PropOp36
 70
     1
102
RTVSPost2010Prop37
 90
       50
102
RTVSPost2010PropOp37
 70
     1
102
RTVSPost2010Prop38
140
0.0
102
RTVSPost2010PropOp38
 70
     1
102
RTVSPost2010Prop39
140
1.0
102
RTVSPost2010PropOp39
 70
     1
102
RTVSPost2010Prop40
 90
        0
102
RTVSPost2010PropOp40
 70
     1
102
RTVSPost2010Prop41ColorIndex
 90
       18
102
RTVSPost2010Prop41ColorRGB
 90
        0
102
RTVSPost2010PropOp41
 70
     1
102
RTVSPost2010Prop42
 90
       50
102
RTVSPost2010PropOp42
 70
     1
102
RTVSPost2010Prop43
 90
        3
102
RTVSPost2010PropOp43
 70
     1
102
RTVSPost2010Prop44ColorIndex
 90
        5
102
RTVSPost2010Prop44ColorRGB
 90
      255
102
RTVSPost2010PropOp44
 70
     1
102
RTVSPost2010Prop45
280
     0
102
RTVSPost2010PropOp45
 70
     1
102
RTVSPost2010Prop46
 90
       50
102
RTVSPost2010PropOp46
 70
     1
102
RTVSPost2010Prop47
 90
       50
102
RTVSPost2010PropOp47
 70
     1
102
RTVSPost2010Prop48
 90
       50
102
RTVSPost2010PropOp48
 70
     1
102
RTVSPost2010Prop49
280
     0
102
RTVSPost2010PropOp49
 70
     1
102
RTVSPost2010Prop50
 90
       50
102
RTVSPost2010PropOp50
 70
     1
102
RTVSPost2010Prop51ColorIndex
 90
      256
102
RTVSPost2010Prop51ColorRGB
 90
-16777216
102
RTVSPost2010PropOp51
 70
     0
102
RTVSPost2010Prop52
140
1.0
102
RTVSPost2010PropOp52
 70
     0
102
RTVSPost2010Prop53
 90
        2
102
RTVSPost2010PropOp53
 70
     1
102
RTVSPost2010Prop54
  1
strokes_ogs.tif
102
RTVSPost2010PropOp54
 70
     1
102
RTVSPost2010Prop55
280
     0
102
RTVSPost2010PropOp55
 70
     1
102
RTVSPost2010Prop56
140
1.0
102
RTVSPost2010PropOp56
 70
     1
102
RTVSPost2010Prop57
140
1.0
102
RTVSPost2010PropOp57
 70
     1
  0
XRECORD
  5
5BB
102
{ACAD_REACTORS
330
5BA
102
}
330
5BA
100
AcDbXrecord
280
     1
102
RTVSPropertyOp0
 70
     0
102
RTVSPropertyOp1
 70
     0
102
RTVSPropertyOp2
 70
     0
102
RTVSPropertyOp3
 70
     0
102
RTVSPropertyOp4
 70
     0
102
RTVSPropertyOp5
 70
     0
102
RTVSPropertyOp6
 70
     0
102
RTVSPropertyOp7
 70
     0
102
RTVSPropertyOp8
 70
     0
102
RTVSPropertyOp9
 70
     0
102
RTVSPropertyOp10
 70
     0
102
RTVSPropertyOp11
 70
     0
102
RTVSPropertyOp12
 70
     0
102
RTVSPropertyOp13
 70
     0
102
RTVSPropertyOp14
 70
     0
102
RTVSPropertyOp15
 70
     0
102
RTVSPropertyOp16
 70
     0
102
RTVSPropertyOp17
 70
     0
102
RTVSPropertyOp18
 70
     0
102
RTVSPropertyOp19
 70
     0
102
RTVSPropertyOp20
 70
     0
102
RTVSPropertyOp21
 70
     0
102
RTVSPropertyOp22
 70
     0
102
RTVSPropertyOp23
 70
     0
102
RTVSPropertyOp24
 70
     0
102
RTVSPropertyOp25
 70
     0
102
RTVSPropertyOp26
 70
     0
102
RTVSPropertyOp27
 70
     0
102
RTVSPropertyOp28
 70
     1
102
RTVSPropertyOp29
 70
     1
102
RTVSPropertyOp30
 70
     1
102
RTVSPropertyOp31
 70
     1
102
RTVSPropertyOp32
 70
     1
102
RTVSPropertyOp33
 70
     1
102
RTVSPropertyOp34
 70
     1
102
RTVSPropertyOp35
 70
     1
102
RTVSPropertyOp36
 70
     1
102
RTVSPropertyOp37
 70
     1
102
RTVSPropertyOp38
 70
     1
102
RTVSPropertyOp39
 70
     1
102
RTVSPropertyOp40
 70
     1
102
RTVSPropertyOp41
 70
     1
102
RTVSPropertyOp42
 70
     1
102
RTVSPropertyOp43
 70
     1
102
RTVSPropertyOp44
 70
     1
102
RTVSPropertyOp45
 70
     1
102
RTVSPropertyOp46
 70
     1
102
RTVSPropertyOp47
 70
     1
102
RTVSPropertyOp48
 70
     1
102
RTVSPropertyOp49
 70
     1
102
RTVSPropertyOp50
 70
     1
102
RTVSPropertyOp51
 70
     0
102
RTVSPropertyOp52
 70
     0
102
RTVSPropertyOp53
 70
     1
102
RTVSPropertyOp54
 70
     1
102
RTVSPropertyOp55
 70
     1
102
RTVSPropertyOp56
 70
     1
102
RTVSPropertyOp57
 70
     1
102
RTVSPost2010Prop28
280
     0
102
RTVSPost2010PropOp28
 70
     1
102
RTVSPost2010Prop29
280
     1
102
RTVSPost2010PropOp29
 70
     1
102
RTVSPost2010Prop30
280
     1
102
RTVSPost2010PropOp30
 70
     1
102
RTVSPost2010Prop31
280
     0
102
RTVSPost2010PropOp31
 70
     1
102
RTVSPost2010Prop32
280
     0
102
RTVSPost2010PropOp32
 70
     1
102
RTVSPost2010Prop33
280
     0
102
RTVSPost2010PropOp33
 70
     1
102
RTVSPost2010Prop34
280
     0
102
RTVSPost2010PropOp34
 70
     1
102
RTVSPost2010Prop35
280
     0
102
RTVSPost2010PropOp35
 70
     1
102
RTVSPost2010Prop36
280
     0
102
RTVSPost2010PropOp36
 70
     1
102
RTVSPost2010Prop37
 90
       50
102
RTVSPost2010PropOp37
 70
     1
102
RTVSPost2010Prop38
140
0.0
102
RTVSPost2010PropOp38
 70
     1
102
RTVSPost2010Prop39
140
1.0
102
RTVSPost2010PropOp39
 70
     1
102
RTVSPost2010Prop40
 90
        0
102
RTVSPost2010PropOp40
 70
     1
102
RTVSPost2010Prop41ColorIndex
 90
       18
102
RTVSPost2010Prop41ColorRGB
 90
        0
102
RTVSPost2010PropOp41
 70
     1
102
RTVSPost2010Prop42
 90
       50
102
RTVSPost2010PropOp42
 70
     1
102
RTVSPost2010Prop43
 90
        3
102
RTVSPost2010PropOp43
 70
     1
102
RTVSPost2010Prop44ColorIndex
 90
        5
102
RTVSPost2010Prop44ColorRGB
 90
      255
102
RTVSPost2010PropOp44
 70
     1
102
RTVSPost2010Prop45
280
     0
102
RTVSPost2010PropOp45
 70
     1
102
RTVSPost2010Prop46
 90
       50
102
RTVSPost2010PropOp46
 70
     1
102
RTVSPost2010Prop47
 90
       50
102
RTVSPost2010PropOp47
 70
     1
102
RTVSPost2010Prop48
 90
       50
102
RTVSPost2010PropOp48
 70
     1
102
RTVSPost2010Prop49
280
     0
102
RTVSPost2010PropOp49
 70
     1
102
RTVSPost2010Prop50
 90
       50
102
RTVSPost2010PropOp50
 70
     1
102
RTVSPost2010Prop51ColorIndex
 90
      256
102
RTVSPost2010Prop51ColorRGB
 90
-16777216
102
RTVSPost2010PropOp51
 70
     0
102
RTVSPost2010Prop52
140
1.0
102
RTVSPost2010PropOp52
 70
     0
102
RTVSPost2010Prop53
 90
        2
102
RTVSPost2010PropOp53
 70
     1
102
RTVSPost2010Prop54
  1
strokes_ogs.tif
102
RTVSPost2010PropOp54
 70
     1
102
RTVSPost2010Prop55
280
     0
102
RTVSPost2010PropOp55
 70
     1
102
RTVSPost2010Prop56
140
1.0
102
RTVSPost2010PropOp56
 70
     1
102
RTVSPost2010Prop57
140
1.0
102
RTVSPost2010PropOp57
 70
     1
  0
XRECORD
  5
5B5
102
{ACAD_REACTORS
330
5B4
102
}
330
5B4
100
AcDbXrecord
280
     1
102
RTVSPropertyOp0
 70
     1
102
RTVSPropertyOp1
 70
     1
102
RTVSPropertyOp2
 70
     1
102
RTVSPropertyOp3
 70
     1
102
RTVSPropertyOp4
 70
     1
102
RTVSPropertyOp5
 70
     1
102
RTVSPropertyOp6
 70
     1
102
RTVSPropertyOp7
 70
     1
102
RTVSPropertyOp8
 70
     1
102
RTVSPropertyOp9
 70
     1
102
RTVSPropertyOp10
 70
     1
102
RTVSPropertyOp11
 70
     1
102
RTVSPropertyOp12
 70
     1
102
RTVSPropertyOp13
 70
     1
102
RTVSPropertyOp14
 70
     1
102
RTVSPropertyOp15
 70
     1
102
RTVSPropertyOp16
 70
     1
102
RTVSPropertyOp17
 70
     1
102
RTVSPropertyOp18
 70
     1
102
RTVSPropertyOp19
 70
     1
102
RTVSPropertyOp20
 70
     1
102
RTVSPropertyOp21
 70
     1
102
RTVSPropertyOp22
 70
     1
102
RTVSPropertyOp23
 70
     1
102
RTVSPropertyOp24
 70
     1
102
RTVSPropertyOp25
 70
     1
102
RTVSPropertyOp26
 70
     1
102
RTVSPropertyOp27
 70
     1
102
RTVSPropertyOp28
 70
     1
102
RTVSPropertyOp29
 70
     1
102
RTVSPropertyOp30
 70
     1
102
RTVSPropertyOp31
 70
     1
102
RTVSPropertyOp32
 70
     1
102
RTVSPropertyOp33
 70
     1
102
RTVSPropertyOp34
 70
     1
102
RTVSPropertyOp35
 70
     1
102
RTVSPropertyOp36
 70
     1
102
RTVSPropertyOp37
 70
     1
102
RTVSPropertyOp38
 70
     1
102
RTVSPropertyOp39
 70
     1
102
RTVSPropertyOp40
 70
     1
102
RTVSPropertyOp41
 70
     1
102
RTVSPropertyOp42
 70
     1
102
RTVSPropertyOp43
 70
     1
102
RTVSPropertyOp44
 70
     1
102
RTVSPropertyOp45
 70
     1
102
RTVSPropertyOp46
 70
     1
102
RTVSPropertyOp47
 70
     1
102
RTVSPropertyOp48
 70
     1
102
RTVSPropertyOp49
 70
     1
102
RTVSPropertyOp50
 70
     1
102
RTVSPropertyOp51
 70
     0
102
RTVSPropertyOp52
 70
     0
102
RTVSPropertyOp53
 70
     1
102
RTVSPropertyOp54
 70
     1
102
RTVSPropertyOp55
 70
     1
102
RTVSPropertyOp56
 70
     1
102
RTVSPropertyOp57
 70
     1
102
RTVSPost2010Prop28
280
     0
102
RTVSPost2010PropOp28
 70
     1
102
RTVSPost2010Prop29
280
     1
102
RTVSPost2010PropOp29
 70
     1
102
RTVSPost2010Prop30
280
     1
102
RTVSPost2010PropOp30
 70
     1
102
RTVSPost2010Prop31
280
     0
102
RTVSPost2010PropOp31
 70
     1
102
RTVSPost2010Prop32
280
     0
102
RTVSPost2010PropOp32
 70
     1
102
RTVSPost2010Prop33
280
     0
102
RTVSPost2010PropOp33
 70
     1
102
RTVSPost2010Prop34
280
     0
102
RTVSPost2010PropOp34
 70
     1
102
RTVSPost2010Prop35
280
     0
102
RTVSPost2010PropOp35
 70
     1
102
RTVSPost2010Prop36
280
     0
102
RTVSPost2010PropOp36
 70
     1
102
RTVSPost2010Prop37
 90
       50
102
RTVSPost2010PropOp37
 70
     1
102
RTVSPost2010Prop38
140
0.0
102
RTVSPost2010PropOp38
 70
     1
102
RTVSPost2010Prop39
140
1.0
102
RTVSPost2010PropOp39
 70
     1
102
RTVSPost2010Prop40
 90
        0
102
RTVSPost2010PropOp40
 70
     1
102
RTVSPost2010Prop41ColorIndex
 90
       18
102
RTVSPost2010Prop41ColorRGB
 90
        0
102
RTVSPost2010PropOp41
 70
     1
102
RTVSPost2010Prop42
 90
       50
102
RTVSPost2010PropOp42
 70
     1
102
RTVSPost2010Prop43
 90
        3
102
RTVSPost2010PropOp43
 70
     1
102
RTVSPost2010Prop44ColorIndex
 90
        5
102
RTVSPost2010Prop44ColorRGB
 90
      255
102
RTVSPost2010PropOp44
 70
     1
102
RTVSPost2010Prop45
280
     0
102
RTVSPost2010PropOp45
 70
     1
102
RTVSPost2010Prop46
 90
       50
102
RTVSPost2010PropOp46
 70
     1
102
RTVSPost2010Prop47
 90
       50
102
RTVSPost2010PropOp47
 70
     1
102
RTVSPost2010Prop48
 90
       50
102
RTVSPost2010PropOp48
 70
     1
102
RTVSPost2010Prop49
280
     0
102
RTVSPost2010PropOp49
 70
     1
102
RTVSPost2010Prop50
 90
       50
102
RTVSPost2010PropOp50
 70
     1
102
RTVSPost2010Prop51ColorIndex
 90
      256
102
RTVSPost2010Prop51ColorRGB
 90
-16777216
102
RTVSPost2010PropOp51
 70
     0
102
RTVSPost2010Prop52
140
1.0
102
RTVSPost2010PropOp52
 70
     0
102
RTVSPost2010Prop53
 90
        2
102
RTVSPost2010PropOp53
 70
     1
102
RTVSPost2010Prop54
  1
strokes_ogs.tif
102
RTVSPost2010PropOp54
 70
     1
102
RTVSPost2010Prop55
280
     0
102
RTVSPost2010PropOp55
 70
     1
102
RTVSPost2010Prop56
140
1.0
102
RTVSPost2010PropOp56
 70
     1
102
RTVSPost2010Prop57
140
1.0
102
RTVSPost2010PropOp57
 70
     1
  0
XRECORD
  5
5BD
102
{ACAD_REACTORS
330
5BC
102
}
330
5BC
100
AcDbXrecord
280
     1
102
RTVSPropertyOp0
 70
     0
102
RTVSPropertyOp1
 70
     0
102
RTVSPropertyOp2
 70
     0
102
RTVSPropertyOp3
 70
     0
102
RTVSPropertyOp4
 70
     0
102
RTVSPropertyOp5
 70
     0
102
RTVSPropertyOp6
 70
     0
102
RTVSPropertyOp7
 70
     0
102
RTVSPropertyOp8
 70
     0
102
RTVSPropertyOp9
 70
     0
102
RTVSPropertyOp10
 70
     0
102
RTVSPropertyOp11
 70
     0
102
RTVSPropertyOp12
 70
     0
102
RTVSPropertyOp13
 70
     0
102
RTVSPropertyOp14
 70
     0
102
RTVSPropertyOp15
 70
     0
102
RTVSPropertyOp16
 70
     0
102
RTVSPropertyOp17
 70
     0
102
RTVSPropertyOp18
 70
     0
102
RTVSPropertyOp19
 70
     0
102
RTVSPropertyOp20
 70
     0
102
RTVSPropertyOp21
 70
     0
102
RTVSPropertyOp22
 70
     0
102
RTVSPropertyOp23
 70
     0
102
RTVSPropertyOp24
 70
     0
102
RTVSPropertyOp25
 70
     0
102
RTVSPropertyOp26
 70
     0
102
RTVSPropertyOp27
 70
     0
102
RTVSPropertyOp28
 70
     1
102
RTVSPropertyOp29
 70
     1
102
RTVSPropertyOp30
 70
     1
102
RTVSPropertyOp31
 70
     1
102
RTVSPropertyOp32
 70
     1
102
RTVSPropertyOp33
 70
     1
102
RTVSPropertyOp34
 70
     1
102
RTVSPropertyOp35
 70
     1
102
RTVSPropertyOp36
 70
     1
102
RTVSPropertyOp37
 70
     1
102
RTVSPropertyOp38
 70
     1
102
RTVSPropertyOp39
 70
     1
102
RTVSPropertyOp40
 70
     1
102
RTVSPropertyOp41
 70
     1
102
RTVSPropertyOp42
 70
     1
102
RTVSPropertyOp43
 70
     1
102
RTVSPropertyOp44
 70
     1
102
RTVSPropertyOp45
 70
     1
102
RTVSPropertyOp46
 70
     1
102
RTVSPropertyOp47
 70
     1
102
RTVSPropertyOp48
 70
     1
102
RTVSPropertyOp49
 70
     1
102
RTVSPropertyOp50
 70
     1
102
RTVSPropertyOp51
 70
     0
102
RTVSPropertyOp52
 70
     0
102
RTVSPropertyOp53
 70
     1
102
RTVSPropertyOp54
 70
     1
102
RTVSPropertyOp55
 70
     1
102
RTVSPropertyOp56
 70
     1
102
RTVSPropertyOp57
 70
     1
102
RTVSPost2010Prop28
280
     0
102
RTVSPost2010PropOp28
 70
     1
102
RTVSPost2010Prop29
280
     1
102
RTVSPost2010PropOp29
 70
     1
102
RTVSPost2010Prop30
280
     1
102
RTVSPost2010PropOp30
 70
     1
102
RTVSPost2010Prop31
280
     0
102
RTVSPost2010PropOp31
 70
     1
102
RTVSPost2010Prop32
280
     0
102
RTVSPost2010PropOp32
 70
     1
102
RTVSPost2010Prop33
280
     0
102
RTVSPost2010PropOp33
 70
     1
102
RTVSPost2010Prop34
280
     0
102
RTVSPost2010PropOp34
 70
     1
102
RTVSPost2010Prop35
280
     0
102
RTVSPost2010PropOp35
 70
     1
102
RTVSPost2010Prop36
280
     0
102
RTVSPost2010PropOp36
 70
     1
102
RTVSPost2010Prop37
 90
       50
102
RTVSPost2010PropOp37
 70
     1
102
RTVSPost2010Prop38
140
0.0
102
RTVSPost2010PropOp38
 70
     1
102
RTVSPost2010Prop39
140
1.0
102
RTVSPost2010PropOp39
 70
     1
102
RTVSPost2010Prop40
 90
        0
102
RTVSPost2010PropOp40
 70
     1
102
RTVSPost2010Prop41ColorIndex
 90
       18
102
RTVSPost2010Prop41ColorRGB
 90
        0
102
RTVSPost2010PropOp41
 70
     1
102
RTVSPost2010Prop42
 90
       50
102
RTVSPost2010PropOp42
 70
     1
102
RTVSPost2010Prop43
 90
        3
102
RTVSPost2010PropOp43
 70
     1
102
RTVSPost2010Prop44ColorIndex
 90
        5
102
RTVSPost2010Prop44ColorRGB
 90
      255
102
RTVSPost2010PropOp44
 70
     1
102
RTVSPost2010Prop45
280
     0
102
RTVSPost2010PropOp45
 70
     1
102
RTVSPost2010Prop46
 90
       50
102
RTVSPost2010PropOp46
 70
     1
102
RTVSPost2010Prop47
 90
       50
102
RTVSPost2010PropOp47
 70
     1
102
RTVSPost2010Prop48
 90
       50
102
RTVSPost2010PropOp48
 70
     1
102
RTVSPost2010Prop49
280
     0
102
RTVSPost2010PropOp49
 70
     1
102
RTVSPost2010Prop50
 90
       50
102
RTVSPost2010PropOp50
 70
     1
102
RTVSPost2010Prop51ColorIndex
 90
      256
102
RTVSPost2010Prop51ColorRGB
 90
-16777216
102
RTVSPost2010PropOp51
 70
     0
102
RTVSPost2010Prop52
140
1.0
102
RTVSPost2010PropOp52
 70
     0
102
RTVSPost2010Prop53
 90
        2
102
RTVSPost2010PropOp53
 70
     1
102
RTVSPost2010Prop54
  1
strokes_ogs.tif
102
RTVSPost2010PropOp54
 70
     1
102
RTVSPost2010Prop55
280
     0
102
RTVSPost2010PropOp55
 70
     1
102
RTVSPost2010Prop56
140
1.0
102
RTVSPost2010PropOp56
 70
     1
102
RTVSPost2010Prop57
140
1.0
102
RTVSPost2010PropOp57
 70
     1
  0
XRECORD
  5
59B
102
{ACAD_REACTORS
330
59A
102
}
330
59A
100
AcDbXrecord
280
     1
102
RTVSPropertyOp0
 70
     1
102
RTVSPropertyOp1
 70
     1
102
RTVSPropertyOp2
 70
     1
102
RTVSPropertyOp3
 70
     1
102
RTVSPropertyOp4
 70
     1
102
RTVSPropertyOp5
 70
     1
102
RTVSPropertyOp6
 70
     1
102
RTVSPropertyOp7
 70
     1
102
RTVSPropertyOp8
 70
     1
102
RTVSPropertyOp9
 70
     1
102
RTVSPropertyOp10
 70
     1
102
RTVSPropertyOp11
 70
     1
102
RTVSPropertyOp12
 70
     1
102
RTVSPropertyOp13
 70
     1
102
RTVSPropertyOp14
 70
     1
102
RTVSPropertyOp15
 70
     1
102
RTVSPropertyOp16
 70
     1
102
RTVSPropertyOp17
 70
     1
102
RTVSPropertyOp18
 70
     1
102
RTVSPropertyOp19
 70
     1
102
RTVSPropertyOp20
 70
     1
102
RTVSPropertyOp21
 70
     1
102
RTVSPropertyOp22
 70
     1
102
RTVSPropertyOp23
 70
     1
102
RTVSPropertyOp24
 70
     1
102
RTVSPropertyOp25
 70
     1
102
RTVSPropertyOp26
 70
     1
102
RTVSPropertyOp27
 70
     1
102
RTVSPropertyOp28
 70
     1
102
RTVSPropertyOp29
 70
     1
102
RTVSPropertyOp30
 70
     1
102
RTVSPropertyOp31
 70
     1
102
RTVSPropertyOp32
 70
     1
102
RTVSPropertyOp33
 70
     1
102
RTVSPropertyOp34
 70
     1
102
RTVSPropertyOp35
 70
     1
102
RTVSPropertyOp36
 70
     1
102
RTVSPropertyOp37
 70
     1
102
RTVSPropertyOp38
 70
     1
102
RTVSPropertyOp39
 70
     1
102
RTVSPropertyOp40
 70
     1
102
RTVSPropertyOp41
 70
     1
102
RTVSPropertyOp42
 70
     1
102
RTVSPropertyOp43
 70
     1
102
RTVSPropertyOp44
 70
     1
102
RTVSPropertyOp45
 70
     1
102
RTVSPropertyOp46
 70
     1
102
RTVSPropertyOp47
 70
     1
102
RTVSPropertyOp48
 70
     1
102
RTVSPropertyOp49
 70
     1
102
RTVSPropertyOp50
 70
     1
102
RTVSPropertyOp51
 70
     0
102
RTVSPropertyOp52
 70
     0
102
RTVSPropertyOp53
 70
     1
102
RTVSPropertyOp54
 70
     1
102
RTVSPropertyOp55
 70
     1
102
RTVSPropertyOp56
 70
     1
102
RTVSPropertyOp57
 70
     1
102
RTVSPost2010Prop28
280
     0
102
RTVSPost2010PropOp28
 70
     1
102
RTVSPost2010Prop29
280
     1
102
RTVSPost2010PropOp29
 70
     1
102
RTVSPost2010Prop30
280
     1
102
RTVSPost2010PropOp30
 70
     1
102
RTVSPost2010Prop31
280
     0
102
RTVSPost2010PropOp31
 70
     1
102
RTVSPost2010Prop32
280
     0
102
RTVSPost2010PropOp32
 70
     1
102
RTVSPost2010Prop33
280
     0
102
RTVSPost2010PropOp33
 70
     1
102
RTVSPost2010Prop34
280
     0
102
RTVSPost2010PropOp34
 70
     1
102
RTVSPost2010Prop35
280
     0
102
RTVSPost2010PropOp35
 70
     1
102
RTVSPost2010Prop36
280
     0
102
RTVSPost2010PropOp36
 70
     1
102
RTVSPost2010Prop37
 90
       50
102
RTVSPost2010PropOp37
 70
     1
102
RTVSPost2010Prop38
140
0.0
102
RTVSPost2010PropOp38
 70
     1
102
RTVSPost2010Prop39
140
1.0
102
RTVSPost2010PropOp39
 70
     1
102
RTVSPost2010Prop40
 90
        0
102
RTVSPost2010PropOp40
 70
     1
102
RTVSPost2010Prop41ColorIndex
 90
       18
102
RTVSPost2010Prop41ColorRGB
 90
        0
102
RTVSPost2010PropOp41
 70
     1
102
RTVSPost2010Prop42
 90
       50
102
RTVSPost2010PropOp42
 70
     1
102
RTVSPost2010Prop43
 90
        3
102
RTVSPost2010PropOp43
 70
     1
102
RTVSPost2010Prop44ColorIndex
 90
        5
102
RTVSPost2010Prop44ColorRGB
 90
      255
102
RTVSPost2010PropOp44
 70
     1
102
RTVSPost2010Prop45
280
     0
102
RTVSPost2010PropOp45
 70
     1
102
RTVSPost2010Prop46
 90
       50
102
RTVSPost2010PropOp46
 70
     1
102
RTVSPost2010Prop47
 90
       50
102
RTVSPost2010PropOp47
 70
     1
102
RTVSPost2010Prop48
 90
       50
102
RTVSPost2010PropOp48
 70
     1
102
RTVSPost2010Prop49
280
     0
102
RTVSPost2010PropOp49
 70
     1
102
RTVSPost2010Prop50
 90
       50
102
RTVSPost2010PropOp50
 70
     1
102
RTVSPost2010Prop51ColorIndex
 90
      256
102
RTVSPost2010Prop51ColorRGB
 90
-16777216
102
RTVSPost2010PropOp51
 70
     0
102
RTVSPost2010Prop52
140
1.0
102
RTVSPost2010PropOp52
 70
     0
102
RTVSPost2010Prop53
 90
        2
102
RTVSPost2010PropOp53
 70
     1
102
RTVSPost2010Prop54
  1
strokes_ogs.tif
102
RTVSPost2010PropOp54
 70
     1
102
RTVSPost2010Prop55
280
     0
102
RTVSPost2010PropOp55
 70
     1
102
RTVSPost2010Prop56
140
1.0
102
RTVSPost2010PropOp56
 70
     1
102
RTVSPost2010Prop57
140
1.0
102
RTVSPost2010PropOp57
 70
     1
  0
XRECORD
  5
5C9
102
{ACAD_REACTORS
330
5C8
102
}
330
5C8
100
AcDbXrecord
280
     1
102
RTVSPropertyOp0
 70
     1
102
RTVSPropertyOp1
 70
     1
102
RTVSPropertyOp2
 70
     1
102
RTVSPropertyOp3
 70
     1
102
RTVSPropertyOp4
 70
     1
102
RTVSPropertyOp5
 70
     1
102
RTVSPropertyOp6
 70
     1
102
RTVSPropertyOp7
 70
     1
102
RTVSPropertyOp8
 70
     1
102
RTVSPropertyOp9
 70
     1
102
RTVSPropertyOp10
 70
     1
102
RTVSPropertyOp11
 70
     1
102
RTVSPropertyOp12
 70
     1
102
RTVSPropertyOp13
 70
     1
102
RTVSPropertyOp14
 70
     1
102
RTVSPropertyOp15
 70
     1
102
RTVSPropertyOp16
 70
     1
102
RTVSPropertyOp17
 70
     1
102
RTVSPropertyOp18
 70
     1
102
RTVSPropertyOp19
 70
     1
102
RTVSPropertyOp20
 70
     1
102
RTVSPropertyOp21
 70
     1
102
RTVSPropertyOp22
 70
     1
102
RTVSPropertyOp23
 70
     1
102
RTVSPropertyOp24
 70
     1
102
RTVSPropertyOp25
 70
     1
102
RTVSPropertyOp26
 70
     1
102
RTVSPropertyOp27
 70
     1
102
RTVSPropertyOp28
 70
     1
102
RTVSPropertyOp29
 70
     1
102
RTVSPropertyOp30
 70
     1
102
RTVSPropertyOp31
 70
     1
102
RTVSPropertyOp32
 70
     1
102
RTVSPropertyOp33
 70
     1
102
RTVSPropertyOp34
 70
     1
102
RTVSPropertyOp35
 70
     1
102
RTVSPropertyOp36
 70
     1
102
RTVSPropertyOp37
 70
     1
102
RTVSPropertyOp38
 70
     1
102
RTVSPropertyOp39
 70
     1
102
RTVSPropertyOp40
 70
     1
102
RTVSPropertyOp41
 70
     1
102
RTVSPropertyOp42
 70
     1
102
RTVSPropertyOp43
 70
     1
102
RTVSPropertyOp44
 70
     1
102
RTVSPropertyOp45
 70
     1
102
RTVSPropertyOp46
 70
     1
102
RTVSPropertyOp47
 70
     1
102
RTVSPropertyOp48
 70
     1
102
RTVSPropertyOp49
 70
     1
102
RTVSPropertyOp50
 70
     1
102
RTVSPropertyOp51
 70
     0
102
RTVSPropertyOp52
 70
     0
102
RTVSPropertyOp53
 70
     1
102
RTVSPropertyOp54
 70
     1
102
RTVSPropertyOp55
 70
     1
102
RTVSPropertyOp56
 70
     1
102
RTVSPropertyOp57
 70
     1
102
RTVSPost2010Prop28
280
     0
102
RTVSPost2010PropOp28
 70
     1
102
RTVSPost2010Prop29
280
     1
102
RTVSPost2010PropOp29
 70
     1
102
RTVSPost2010Prop30
280
     1
102
RTVSPost2010PropOp30
 70
     1
102
RTVSPost2010Prop31
280
     0
102
RTVSPost2010PropOp31
 70
     1
102
RTVSPost2010Prop32
280
     0
102
RTVSPost2010PropOp32
 70
     1
102
RTVSPost2010Prop33
280
     0
102
RTVSPost2010PropOp33
 70
     1
102
RTVSPost2010Prop34
280
     0
102
RTVSPost2010PropOp34
 70
     1
102
RTVSPost2010Prop35
280
     0
102
RTVSPost2010PropOp35
 70
     1
102
RTVSPost2010Prop36
280
     0
102
RTVSPost2010PropOp36
 70
     1
102
RTVSPost2010Prop37
 90
       50
102
RTVSPost2010PropOp37
 70
     1
102
RTVSPost2010Prop38
140
0.0
102
RTVSPost2010PropOp38
 70
     1
102
RTVSPost2010Prop39
140
1.0
102
RTVSPost2010PropOp39
 70
     1
102
RTVSPost2010Prop40
 90
        0
102
RTVSPost2010PropOp40
 70
     1
102
RTVSPost2010Prop41ColorIndex
 90
       18
102
RTVSPost2010Prop41ColorRGB
 90
        0
102
RTVSPost2010PropOp41
 70
     1
102
RTVSPost2010Prop42
 90
       50
102
RTVSPost2010PropOp42
 70
     1
102
RTVSPost2010Prop43
 90
        3
102
RTVSPost2010PropOp43
 70
     1
102
RTVSPost2010Prop44ColorIndex
 90
        5
102
RTVSPost2010Prop44ColorRGB
 90
      255
102
RTVSPost2010PropOp44
 70
     1
102
RTVSPost2010Prop45
280
     0
102
RTVSPost2010PropOp45
 70
     1
102
RTVSPost2010Prop46
 90
       50
102
RTVSPost2010PropOp46
 70
     1
102
RTVSPost2010Prop47
 90
       50
102
RTVSPost2010PropOp47
 70
     1
102
RTVSPost2010Prop48
 90
       50
102
RTVSPost2010PropOp48
 70
     1
102
RTVSPost2010Prop49
280
     0
102
RTVSPost2010PropOp49
 70
     1
102
RTVSPost2010Prop50
 90
       50
102
RTVSPost2010PropOp50
 70
     1
102
RTVSPost2010Prop51ColorIndex
 90
      256
102
RTVSPost2010Prop51ColorRGB
 90
-16777216
102
RTVSPost2010PropOp51
 70
     0
102
RTVSPost2010Prop52
140
1.0
102
RTVSPost2010PropOp52
 70
     0
102
RTVSPost2010Prop53
 90
        2
102
RTVSPost2010PropOp53
 70
     1
102
RTVSPost2010Prop54
  1
strokes_ogs.tif
102
RTVSPost2010PropOp54
 70
     1
102
RTVSPost2010Prop55
280
     0
102
RTVSPost2010PropOp55
 70
     1
102
RTVSPost2010Prop56
140
1.0
102
RTVSPost2010PropOp56
 70
     1
102
RTVSPost2010Prop57
140
1.0
102
RTVSPost2010PropOp57
 70
     1
  0
XRECORD
  5
5C7
102
{ACAD_REACTORS
330
5C6
102
}
330
5C6
100
AcDbXrecord
280
     1
102
RTVSPropertyOp0
 70
     1
102
RTVSPropertyOp1
 70
     1
102
RTVSPropertyOp2
 70
     1
102
RTVSPropertyOp3
 70
     1
102
RTVSPropertyOp4
 70
     1
102
RTVSPropertyOp5
 70
     1
102
RTVSPropertyOp6
 70
     1
102
RTVSPropertyOp7
 70
     1
102
RTVSPropertyOp8
 70
     1
102
RTVSPropertyOp9
 70
     1
102
RTVSPropertyOp10
 70
     1
102
RTVSPropertyOp11
 70
     1
102
RTVSPropertyOp12
 70
     1
102
RTVSPropertyOp13
 70
     1
102
RTVSPropertyOp14
 70
     1
102
RTVSPropertyOp15
 70
     1
102
RTVSPropertyOp16
 70
     1
102
RTVSPropertyOp17
 70
     1
102
RTVSPropertyOp18
 70
     1
102
RTVSPropertyOp19
 70
     1
102
RTVSPropertyOp20
 70
     1
102
RTVSPropertyOp21
 70
     1
102
RTVSPropertyOp22
 70
     1
102
RTVSPropertyOp23
 70
     1
102
RTVSPropertyOp24
 70
     1
102
RTVSPropertyOp25
 70
     1
102
RTVSPropertyOp26
 70
     1
102
RTVSPropertyOp27
 70
     1
102
RTVSPropertyOp28
 70
     1
102
RTVSPropertyOp29
 70
     1
102
RTVSPropertyOp30
 70
     1
102
RTVSPropertyOp31
 70
     1
102
RTVSPropertyOp32
 70
     1
102
RTVSPropertyOp33
 70
     1
102
RTVSPropertyOp34
 70
     1
102
RTVSPropertyOp35
 70
     1
102
RTVSPropertyOp36
 70
     1
102
RTVSPropertyOp37
 70
     1
102
RTVSPropertyOp38
 70
     1
102
RTVSPropertyOp39
 70
     1
102
RTVSPropertyOp40
 70
     1
102
RTVSPropertyOp41
 70
     1
102
RTVSPropertyOp42
 70
     1
102
RTVSPropertyOp43
 70
     1
102
RTVSPropertyOp44
 70
     1
102
RTVSPropertyOp45
 70
     1
102
RTVSPropertyOp46
 70
     1
102
RTVSPropertyOp47
 70
     1
102
RTVSPropertyOp48
 70
     1
102
RTVSPropertyOp49
 70
     1
102
RTVSPropertyOp50
 70
     1
102
RTVSPropertyOp51
 70
     0
102
RTVSPropertyOp52
 70
     0
102
RTVSPropertyOp53
 70
     1
102
RTVSPropertyOp54
 70
     1
102
RTVSPropertyOp55
 70
     1
102
RTVSPropertyOp56
 70
     1
102
RTVSPropertyOp57
 70
     1
102
RTVSPost2010Prop28
280
     0
102
RTVSPost2010PropOp28
 70
     1
102
RTVSPost2010Prop29
280
     1
102
RTVSPost2010PropOp29
 70
     1
102
RTVSPost2010Prop30
280
     1
102
RTVSPost2010PropOp30
 70
     1
102
RTVSPost2010Prop31
280
     0
102
RTVSPost2010PropOp31
 70
     1
102
RTVSPost2010Prop32
280
     0
102
RTVSPost2010PropOp32
 70
     1
102
RTVSPost2010Prop33
280
     0
102
RTVSPost2010PropOp33
 70
     1
102
RTVSPost2010Prop34
280
     0
102
RTVSPost2010PropOp34
 70
     1
102
RTVSPost2010Prop35
280
     0
102
RTVSPost2010PropOp35
 70
     1
102
RTVSPost2010Prop36
280
     0
102
RTVSPost2010PropOp36
 70
     1
102
RTVSPost2010Prop37
 90
       50
102
RTVSPost2010PropOp37
 70
     1
102
RTVSPost2010Prop38
140
0.0
102
RTVSPost2010PropOp38
 70
     1
102
RTVSPost2010Prop39
140
1.0
102
RTVSPost2010PropOp39
 70
     1
102
RTVSPost2010Prop40
 90
        0
102
RTVSPost2010PropOp40
 70
     1
102
RTVSPost2010Prop41ColorIndex
 90
       18
102
RTVSPost2010Prop41ColorRGB
 90
        0
102
RTVSPost2010PropOp41
 70
     1
102
RTVSPost2010Prop42
 90
       50
102
RTVSPost2010PropOp42
 70
     1
102
RTVSPost2010Prop43
 90
        3
102
RTVSPost2010PropOp43
 70
     1
102
RTVSPost2010Prop44ColorIndex
 90
        5
102
RTVSPost2010Prop44ColorRGB
 90
      255
102
RTVSPost2010PropOp44
 70
     1
102
RTVSPost2010Prop45
280
     0
102
RTVSPost2010PropOp45
 70
     1
102
RTVSPost2010Prop46
 90
       50
102
RTVSPost2010PropOp46
 70
     1
102
RTVSPost2010Prop47
 90
       50
102
RTVSPost2010PropOp47
 70
     1
102
RTVSPost2010Prop48
 90
       50
102
RTVSPost2010PropOp48
 70
     1
102
RTVSPost2010Prop49
280
     0
102
RTVSPost2010PropOp49
 70
     1
102
RTVSPost2010Prop50
 90
       50
102
RTVSPost2010PropOp50
 70
     1
102
RTVSPost2010Prop51ColorIndex
 90
      256
102
RTVSPost2010Prop51ColorRGB
 90
-16777216
102
RTVSPost2010PropOp51
 70
     0
102
RTVSPost2010Prop52
140
1.0
102
RTVSPost2010PropOp52
 70
     0
102
RTVSPost2010Prop53
 90
        2
102
RTVSPost2010PropOp53
 70
     1
102
RTVSPost2010Prop54
  1
strokes_ogs.tif
102
RTVSPost2010PropOp54
 70
     1
102
RTVSPost2010Prop55
280
     0
102
RTVSPost2010PropOp55
 70
     1
102
RTVSPost2010Prop56
140
1.0
102
RTVSPost2010PropOp56
 70
     1
102
RTVSPost2010Prop57
140
1.0
102
RTVSPost2010PropOp57
 70
     1
  0
XRECORD
  5
5C1
102
{ACAD_REACTORS
330
5C0
102
}
330
5C0
100
AcDbXrecord
280
     1
102
RTVSPropertyOp0
 70
     1
102
RTVSPropertyOp1
 70
     1
102
RTVSPropertyOp2
 70
     1
102
RTVSPropertyOp3
 70
     1
102
RTVSPropertyOp4
 70
     1
102
RTVSPropertyOp5
 70
     1
102
RTVSPropertyOp6
 70
     1
102
RTVSPropertyOp7
 70
     1
102
RTVSPropertyOp8
 70
     1
102
RTVSPropertyOp9
 70
     1
102
RTVSPropertyOp10
 70
     1
102
RTVSPropertyOp11
 70
     1
102
RTVSPropertyOp12
 70
     1
102
RTVSPropertyOp13
 70
     1
102
RTVSPropertyOp14
 70
     1
102
RTVSPropertyOp15
 70
     1
102
RTVSPropertyOp16
 70
     1
102
RTVSPropertyOp17
 70
     1
102
RTVSPropertyOp18
 70
     1
102
RTVSPropertyOp19
 70
     1
102
RTVSPropertyOp20
 70
     1
102
RTVSPropertyOp21
 70
     1
102
RTVSPropertyOp22
 70
     1
102
RTVSPropertyOp23
 70
     1
102
RTVSPropertyOp24
 70
     1
102
RTVSPropertyOp25
 70
     1
102
RTVSPropertyOp26
 70
     1
102
RTVSPropertyOp27
 70
     1
102
RTVSPropertyOp28
 70
     1
102
RTVSPropertyOp29
 70
     1
102
RTVSPropertyOp30
 70
     1
102
RTVSPropertyOp31
 70
     1
102
RTVSPropertyOp32
 70
     1
102
RTVSPropertyOp33
 70
     1
102
RTVSPropertyOp34
 70
     1
102
RTVSPropertyOp35
 70
     1
102
RTVSPropertyOp36
 70
     1
102
RTVSPropertyOp37
 70
     1
102
RTVSPropertyOp38
 70
     1
102
RTVSPropertyOp39
 70
     1
102
RTVSPropertyOp40
 70
     1
102
RTVSPropertyOp41
 70
     1
102
RTVSPropertyOp42
 70
     1
102
RTVSPropertyOp43
 70
     1
102
RTVSPropertyOp44
 70
     1
102
RTVSPropertyOp45
 70
     1
102
RTVSPropertyOp46
 70
     1
102
RTVSPropertyOp47
 70
     1
102
RTVSPropertyOp48
 70
     1
102
RTVSPropertyOp49
 70
     1
102
RTVSPropertyOp50
 70
     1
102
RTVSPropertyOp51
 70
     0
102
RTVSPropertyOp52
 70
     0
102
RTVSPropertyOp53
 70
     1
102
RTVSPropertyOp54
 70
     1
102
RTVSPropertyOp55
 70
     1
102
RTVSPropertyOp56
 70
     1
102
RTVSPropertyOp57
 70
     1
102
RTVSPost2010Prop28
280
     0
102
RTVSPost2010PropOp28
 70
     1
102
RTVSPost2010Prop29
280
     1
102
RTVSPost2010PropOp29
 70
     1
102
RTVSPost2010Prop30
280
     1
102
RTVSPost2010PropOp30
 70
     1
102
RTVSPost2010Prop31
280
     0
102
RTVSPost2010PropOp31
 70
     1
102
RTVSPost2010Prop32
280
     0
102
RTVSPost2010PropOp32
 70
     1
102
RTVSPost2010Prop33
280
     0
102
RTVSPost2010PropOp33
 70
     1
102
RTVSPost2010Prop34
280
     0
102
RTVSPost2010PropOp34
 70
     1
102
RTVSPost2010Prop35
280
     0
102
RTVSPost2010PropOp35
 70
     1
102
RTVSPost2010Prop36
280
     0
102
RTVSPost2010PropOp36
 70
     1
102
RTVSPost2010Prop37
 90
       50
102
RTVSPost2010PropOp37
 70
     1
102
RTVSPost2010Prop38
140
0.0
102
RTVSPost2010PropOp38
 70
     1
102
RTVSPost2010Prop39
140
1.0
102
RTVSPost2010PropOp39
 70
     1
102
RTVSPost2010Prop40
 90
        0
102
RTVSPost2010PropOp40
 70
     1
102
RTVSPost2010Prop41ColorIndex
 90
       18
102
RTVSPost2010Prop41ColorRGB
 90
        0
102
RTVSPost2010PropOp41
 70
     1
102
RTVSPost2010Prop42
 90
       50
102
RTVSPost2010PropOp42
 70
     1
102
RTVSPost2010Prop43
 90
        3
102
RTVSPost2010PropOp43
 70
     1
102
RTVSPost2010Prop44ColorIndex
 90
        5
102
RTVSPost2010Prop44ColorRGB
 90
      255
102
RTVSPost2010PropOp44
 70
     1
102
RTVSPost2010Prop45
280
     0
102
RTVSPost2010PropOp45
 70
     1
102
RTVSPost2010Prop46
 90
       50
102
RTVSPost2010PropOp46
 70
     1
102
RTVSPost2010Prop47
 90
       50
102
RTVSPost2010PropOp47
 70
     1
102
RTVSPost2010Prop48
 90
       50
102
RTVSPost2010PropOp48
 70
     1
102
RTVSPost2010Prop49
280
     0
102
RTVSPost2010PropOp49
 70
     1
102
RTVSPost2010Prop50
 90
       50
102
RTVSPost2010PropOp50
 70
     1
102
RTVSPost2010Prop51ColorIndex
 90
      256
102
RTVSPost2010Prop51ColorRGB
 90
-16777216
102
RTVSPost2010PropOp51
 70
     0
102
RTVSPost2010Prop52
140
1.0
102
RTVSPost2010PropOp52
 70
     0
102
RTVSPost2010Prop53
 90
        2
102
RTVSPost2010PropOp53
 70
     1
102
RTVSPost2010Prop54
  1
strokes_ogs.tif
102
RTVSPost2010PropOp54
 70
     1
102
RTVSPost2010Prop55
280
     0
102
RTVSPost2010PropOp55
 70
     1
102
RTVSPost2010Prop56
140
1.0
102
RTVSPost2010PropOp56
 70
     1
102
RTVSPost2010Prop57
140
1.0
102
RTVSPost2010PropOp57
 70
     1
  0
XRECORD
  5
5C3
102
{ACAD_REACTORS
330
5C2
102
}
330
5C2
100
AcDbXrecord
280
     1
102
RTVSPropertyOp0
 70
     1
102
RTVSPropertyOp1
 70
     1
102
RTVSPropertyOp2
 70
     1
102
RTVSPropertyOp3
 70
     1
102
RTVSPropertyOp4
 70
     1
102
RTVSPropertyOp5
 70
     1
102
RTVSPropertyOp6
 70
     1
102
RTVSPropertyOp7
 70
     1
102
RTVSPropertyOp8
 70
     1
102
RTVSPropertyOp9
 70
     1
102
RTVSPropertyOp10
 70
     1
102
RTVSPropertyOp11
 70
     1
102
RTVSPropertyOp12
 70
     1
102
RTVSPropertyOp13
 70
     1
102
RTVSPropertyOp14
 70
     1
102
RTVSPropertyOp15
 70
     1
102
RTVSPropertyOp16
 70
     1
102
RTVSPropertyOp17
 70
     1
102
RTVSPropertyOp18
 70
     1
102
RTVSPropertyOp19
 70
     1
102
RTVSPropertyOp20
 70
     1
102
RTVSPropertyOp21
 70
     1
102
RTVSPropertyOp22
 70
     1
102
RTVSPropertyOp23
 70
     1
102
RTVSPropertyOp24
 70
     1
102
RTVSPropertyOp25
 70
     1
102
RTVSPropertyOp26
 70
     1
102
RTVSPropertyOp27
 70
     1
102
RTVSPropertyOp28
 70
     1
102
RTVSPropertyOp29
 70
     1
102
RTVSPropertyOp30
 70
     1
102
RTVSPropertyOp31
 70
     1
102
RTVSPropertyOp32
 70
     1
102
RTVSPropertyOp33
 70
     1
102
RTVSPropertyOp34
 70
     1
102
RTVSPropertyOp35
 70
     1
102
RTVSPropertyOp36
 70
     1
102
RTVSPropertyOp37
 70
     1
102
RTVSPropertyOp38
 70
     1
102
RTVSPropertyOp39
 70
     1
102
RTVSPropertyOp40
 70
     1
102
RTVSPropertyOp41
 70
     1
102
RTVSPropertyOp42
 70
     1
102
RTVSPropertyOp43
 70
     1
102
RTVSPropertyOp44
 70
     1
102
RTVSPropertyOp45
 70
     1
102
RTVSPropertyOp46
 70
     1
102
RTVSPropertyOp47
 70
     1
102
RTVSPropertyOp48
 70
     1
102
RTVSPropertyOp49
 70
     1
102
RTVSPropertyOp50
 70
     1
102
RTVSPropertyOp51
 70
     0
102
RTVSPropertyOp52
 70
     0
102
RTVSPropertyOp53
 70
     1
102
RTVSPropertyOp54
 70
     1
102
RTVSPropertyOp55
 70
     1
102
RTVSPropertyOp56
 70
     1
102
RTVSPropertyOp57
 70
     1
102
RTVSPost2010Prop28
280
     0
102
RTVSPost2010PropOp28
 70
     1
102
RTVSPost2010Prop29
280
     1
102
RTVSPost2010PropOp29
 70
     1
102
RTVSPost2010Prop30
280
     1
102
RTVSPost2010PropOp30
 70
     1
102
RTVSPost2010Prop31
280
     0
102
RTVSPost2010PropOp31
 70
     1
102
RTVSPost2010Prop32
280
     0
102
RTVSPost2010PropOp32
 70
     1
102
RTVSPost2010Prop33
280
     0
102
RTVSPost2010PropOp33
 70
     1
102
RTVSPost2010Prop34
280
     0
102
RTVSPost2010PropOp34
 70
     1
102
RTVSPost2010Prop35
280
     0
102
RTVSPost2010PropOp35
 70
     1
102
RTVSPost2010Prop36
280
     0
102
RTVSPost2010PropOp36
 70
     1
102
RTVSPost2010Prop37
 90
       50
102
RTVSPost2010PropOp37
 70
     1
102
RTVSPost2010Prop38
140
0.0
102
RTVSPost2010PropOp38
 70
     1
102
RTVSPost2010Prop39
140
1.0
102
RTVSPost2010PropOp39
 70
     1
102
RTVSPost2010Prop40
 90
        0
102
RTVSPost2010PropOp40
 70
     1
102
RTVSPost2010Prop41ColorIndex
 90
       18
102
RTVSPost2010Prop41ColorRGB
 90
        0
102
RTVSPost2010PropOp41
 70
     1
102
RTVSPost2010Prop42
 90
       50
102
RTVSPost2010PropOp42
 70
     1
102
RTVSPost2010Prop43
 90
        3
102
RTVSPost2010PropOp43
 70
     1
102
RTVSPost2010Prop44ColorIndex
 90
        5
102
RTVSPost2010Prop44ColorRGB
 90
      255
102
RTVSPost2010PropOp44
 70
     1
102
RTVSPost2010Prop45
280
     0
102
RTVSPost2010PropOp45
 70
     1
102
RTVSPost2010Prop46
 90
       50
102
RTVSPost2010PropOp46
 70
     1
102
RTVSPost2010Prop47
 90
       50
102
RTVSPost2010PropOp47
 70
     1
102
RTVSPost2010Prop48
 90
       50
102
RTVSPost2010PropOp48
 70
     1
102
RTVSPost2010Prop49
280
     0
102
RTVSPost2010PropOp49
 70
     1
102
RTVSPost2010Prop50
 90
       50
102
RTVSPost2010PropOp50
 70
     1
102
RTVSPost2010Prop51ColorIndex
 90
      256
102
RTVSPost2010Prop51ColorRGB
 90
-16777216
102
RTVSPost2010PropOp51
 70
     0
102
RTVSPost2010Prop52
140
1.0
102
RTVSPost2010PropOp52
 70
     0
102
RTVSPost2010Prop53
 90
        2
102
RTVSPost2010PropOp53
 70
     1
102
RTVSPost2010Prop54
  1
strokes_ogs.tif
102
RTVSPost2010PropOp54
 70
     1
102
RTVSPost2010Prop55
280
     0
102
RTVSPost2010PropOp55
 70
     1
102
RTVSPost2010Prop56
140
1.0
102
RTVSPost2010PropOp56
 70
     1
102
RTVSPost2010Prop57
140
1.0
102
RTVSPost2010PropOp57
 70
     1
  0
XRECORD
  5
5B3
102
{ACAD_REACTORS
330
5B2
102
}
330
5B2
100
AcDbXrecord
280
     1
102
RTVSPropertyOp0
 70
     1
102
RTVSPropertyOp1
 70
     1
102
RTVSPropertyOp2
 70
     1
102
RTVSPropertyOp3
 70
     1
102
RTVSPropertyOp4
 70
     1
102
RTVSPropertyOp5
 70
     1
102
RTVSPropertyOp6
 70
     1
102
RTVSPropertyOp7
 70
     1
102
RTVSPropertyOp8
 70
     1
102
RTVSPropertyOp9
 70
     1
102
RTVSPropertyOp10
 70
     1
102
RTVSPropertyOp11
 70
     1
102
RTVSPropertyOp12
 70
     1
102
RTVSPropertyOp13
 70
     1
102
RTVSPropertyOp14
 70
     1
102
RTVSPropertyOp15
 70
     1
102
RTVSPropertyOp16
 70
     1
102
RTVSPropertyOp17
 70
     1
102
RTVSPropertyOp18
 70
     1
102
RTVSPropertyOp19
 70
     1
102
RTVSPropertyOp20
 70
     1
102
RTVSPropertyOp21
 70
     1
102
RTVSPropertyOp22
 70
     1
102
RTVSPropertyOp23
 70
     1
102
RTVSPropertyOp24
 70
     1
102
RTVSPropertyOp25
 70
     1
102
RTVSPropertyOp26
 70
     1
102
RTVSPropertyOp27
 70
     1
102
RTVSPropertyOp28
 70
     1
102
RTVSPropertyOp29
 70
     1
102
RTVSPropertyOp30
 70
     1
102
RTVSPropertyOp31
 70
     1
102
RTVSPropertyOp32
 70
     1
102
RTVSPropertyOp33
 70
     1
102
RTVSPropertyOp34
 70
     1
102
RTVSPropertyOp35
 70
     1
102
RTVSPropertyOp36
 70
     1
102
RTVSPropertyOp37
 70
     1
102
RTVSPropertyOp38
 70
     1
102
RTVSPropertyOp39
 70
     1
102
RTVSPropertyOp40
 70
     1
102
RTVSPropertyOp41
 70
     1
102
RTVSPropertyOp42
 70
     1
102
RTVSPropertyOp43
 70
     1
102
RTVSPropertyOp44
 70
     1
102
RTVSPropertyOp45
 70
     1
102
RTVSPropertyOp46
 70
     1
102
RTVSPropertyOp47
 70
     1
102
RTVSPropertyOp48
 70
     1
102
RTVSPropertyOp49
 70
     1
102
RTVSPropertyOp50
 70
     1
102
RTVSPropertyOp51
 70
     0
102
RTVSPropertyOp52
 70
     0
102
RTVSPropertyOp53
 70
     1
102
RTVSPropertyOp54
 70
     1
102
RTVSPropertyOp55
 70
     1
102
RTVSPropertyOp56
 70
     1
102
RTVSPropertyOp57
 70
     1
102
RTVSPost2010Prop28
280
     0
102
RTVSPost2010PropOp28
 70
     1
102
RTVSPost2010Prop29
280
     1
102
RTVSPost2010PropOp29
 70
     1
102
RTVSPost2010Prop30
280
     1
102
RTVSPost2010PropOp30
 70
     1
102
RTVSPost2010Prop31
280
     0
102
RTVSPost2010PropOp31
 70
     1
102
RTVSPost2010Prop32
280
     0
102
RTVSPost2010PropOp32
 70
     1
102
RTVSPost2010Prop33
280
     0
102
RTVSPost2010PropOp33
 70
     1
102
RTVSPost2010Prop34
280
     0
102
RTVSPost2010PropOp34
 70
     1
102
RTVSPost2010Prop35
280
     0
102
RTVSPost2010PropOp35
 70
     1
102
RTVSPost2010Prop36
280
     0
102
RTVSPost2010PropOp36
 70
     1
102
RTVSPost2010Prop37
 90
       50
102
RTVSPost2010PropOp37
 70
     1
102
RTVSPost2010Prop38
140
0.0
102
RTVSPost2010PropOp38
 70
     1
102
RTVSPost2010Prop39
140
1.0
102
RTVSPost2010PropOp39
 70
     1
102
RTVSPost2010Prop40
 90
        0
102
RTVSPost2010PropOp40
 70
     1
102
RTVSPost2010Prop41ColorIndex
 90
       18
102
RTVSPost2010Prop41ColorRGB
 90
        0
102
RTVSPost2010PropOp41
 70
     1
102
RTVSPost2010Prop42
 90
       50
102
RTVSPost2010PropOp42
 70
     1
102
RTVSPost2010Prop43
 90
        3
102
RTVSPost2010PropOp43
 70
     1
102
RTVSPost2010Prop44ColorIndex
 90
        5
102
RTVSPost2010Prop44ColorRGB
 90
      255
102
RTVSPost2010PropOp44
 70
     1
102
RTVSPost2010Prop45
280
     0
102
RTVSPost2010PropOp45
 70
     1
102
RTVSPost2010Prop46
 90
       50
102
RTVSPost2010PropOp46
 70
     1
102
RTVSPost2010Prop47
 90
       50
102
RTVSPost2010PropOp47
 70
     1
102
RTVSPost2010Prop48
 90
       50
102
RTVSPost2010PropOp48
 70
     1
102
RTVSPost2010Prop49
280
     0
102
RTVSPost2010PropOp49
 70
     1
102
RTVSPost2010Prop50
 90
       50
102
RTVSPost2010PropOp50
 70
     1
102
RTVSPost2010Prop51ColorIndex
 90
      256
102
RTVSPost2010Prop51ColorRGB
 90
-16777216
102
RTVSPost2010PropOp51
 70
     0
102
RTVSPost2010Prop52
140
1.0
102
RTVSPost2010PropOp52
 70
     0
102
RTVSPost2010Prop53
 90
        2
102
RTVSPost2010PropOp53
 70
     1
102
RTVSPost2010Prop54
  1
strokes_ogs.tif
102
RTVSPost2010PropOp54
 70
     1
102
RTVSPost2010Prop55
280
     0
102
RTVSPost2010PropOp55
 70
     1
102
RTVSPost2010Prop56
140
1.0
102
RTVSPost2010PropOp56
 70
     1
102
RTVSPost2010Prop57
140
1.0
102
RTVSPost2010PropOp57
 70
     1
  0
XRECORD
  5
59D
102
{ACAD_REACTORS
330
59C
102
}
330
59C
100
AcDbXrecord
280
     1
102
RTVSPropertyOp0
 70
     1
102
RTVSPropertyOp1
 70
     1
102
RTVSPropertyOp2
 70
     1
102
RTVSPropertyOp3
 70
     1
102
RTVSPropertyOp4
 70
     1
102
RTVSPropertyOp5
 70
     1
102
RTVSPropertyOp6
 70
     1
102
RTVSPropertyOp7
 70
     1
102
RTVSPropertyOp8
 70
     1
102
RTVSPropertyOp9
 70
     1
102
RTVSPropertyOp10
 70
     1
102
RTVSPropertyOp11
 70
     1
102
RTVSPropertyOp12
 70
     1
102
RTVSPropertyOp13
 70
     1
102
RTVSPropertyOp14
 70
     1
102
RTVSPropertyOp15
 70
     1
102
RTVSPropertyOp16
 70
     1
102
RTVSPropertyOp17
 70
     1
102
RTVSPropertyOp18
 70
     1
102
RTVSPropertyOp19
 70
     1
102
RTVSPropertyOp20
 70
     1
102
RTVSPropertyOp21
 70
     1
102
RTVSPropertyOp22
 70
     1
102
RTVSPropertyOp23
 70
     1
102
RTVSPropertyOp24
 70
     1
102
RTVSPropertyOp25
 70
     1
102
RTVSPropertyOp26
 70
     1
102
RTVSPropertyOp27
 70
     1
102
RTVSPropertyOp28
 70
     1
102
RTVSPropertyOp29
 70
     1
102
RTVSPropertyOp30
 70
     1
102
RTVSPropertyOp31
 70
     1
102
RTVSPropertyOp32
 70
     1
102
RTVSPropertyOp33
 70
     1
102
RTVSPropertyOp34
 70
     1
102
RTVSPropertyOp35
 70
     1
102
RTVSPropertyOp36
 70
     1
102
RTVSPropertyOp37
 70
     1
102
RTVSPropertyOp38
 70
     1
102
RTVSPropertyOp39
 70
     1
102
RTVSPropertyOp40
 70
     1
102
RTVSPropertyOp41
 70
     1
102
RTVSPropertyOp42
 70
     1
102
RTVSPropertyOp43
 70
     1
102
RTVSPropertyOp44
 70
     1
102
RTVSPropertyOp45
 70
     1
102
RTVSPropertyOp46
 70
     1
102
RTVSPropertyOp47
 70
     1
102
RTVSPropertyOp48
 70
     1
102
RTVSPropertyOp49
 70
     1
102
RTVSPropertyOp50
 70
     1
102
RTVSPropertyOp51
 70
     0
102
RTVSPropertyOp52
 70
     0
102
RTVSPropertyOp53
 70
     1
102
RTVSPropertyOp54
 70
     1
102
RTVSPropertyOp55
 70
     1
102
RTVSPropertyOp56
 70
     1
102
RTVSPropertyOp57
 70
     1
102
RTVSPost2010Prop28
280
     0
102
RTVSPost2010PropOp28
 70
     1
102
RTVSPost2010Prop29
280
     1
102
RTVSPost2010PropOp29
 70
     1
102
RTVSPost2010Prop30
280
     1
102
RTVSPost2010PropOp30
 70
     1
102
RTVSPost2010Prop31
280
     0
102
RTVSPost2010PropOp31
 70
     1
102
RTVSPost2010Prop32
280
     0
102
RTVSPost2010PropOp32
 70
     1
102
RTVSPost2010Prop33
280
     0
102
RTVSPost2010PropOp33
 70
     1
102
RTVSPost2010Prop34
280
     0
102
RTVSPost2010PropOp34
 70
     1
102
RTVSPost2010Prop35
280
     0
102
RTVSPost2010PropOp35
 70
     1
102
RTVSPost2010Prop36
280
     0
102
RTVSPost2010PropOp36
 70
     1
102
RTVSPost2010Prop37
 90
       50
102
RTVSPost2010PropOp37
 70
     1
102
RTVSPost2010Prop38
140
0.0
102
RTVSPost2010PropOp38
 70
     1
102
RTVSPost2010Prop39
140
1.0
102
RTVSPost2010PropOp39
 70
     1
102
RTVSPost2010Prop40
 90
        0
102
RTVSPost2010PropOp40
 70
     1
102
RTVSPost2010Prop41ColorIndex
 90
       18
102
RTVSPost2010Prop41ColorRGB
 90
        0
102
RTVSPost2010PropOp41
 70
     1
102
RTVSPost2010Prop42
 90
       50
102
RTVSPost2010PropOp42
 70
     1
102
RTVSPost2010Prop43
 90
        3
102
RTVSPost2010PropOp43
 70
     1
102
RTVSPost2010Prop44ColorIndex
 90
        5
102
RTVSPost2010Prop44ColorRGB
 90
      255
102
RTVSPost2010PropOp44
 70
     1
102
RTVSPost2010Prop45
280
     0
102
RTVSPost2010PropOp45
 70
     1
102
RTVSPost2010Prop46
 90
       50
102
RTVSPost2010PropOp46
 70
     1
102
RTVSPost2010Prop47
 90
       50
102
RTVSPost2010PropOp47
 70
     1
102
RTVSPost2010Prop48
 90
       50
102
RTVSPost2010PropOp48
 70
     1
102
RTVSPost2010Prop49
280
     0
102
RTVSPost2010PropOp49
 70
     1
102
RTVSPost2010Prop50
 90
       50
102
RTVSPost2010PropOp50
 70
     1
102
RTVSPost2010Prop51ColorIndex
 90
      256
102
RTVSPost2010Prop51ColorRGB
 90
-16777216
102
RTVSPost2010PropOp51
 70
     0
102
RTVSPost2010Prop52
140
1.0
102
RTVSPost2010PropOp52
 70
     0
102
RTVSPost2010Prop53
 90
        2
102
RTVSPost2010PropOp53
 70
     1
102
RTVSPost2010Prop54
  1
strokes_ogs.tif
102
RTVSPost2010PropOp54
 70
     1
102
RTVSPost2010Prop55
280
     0
102
RTVSPost2010PropOp55
 70
     1
102
RTVSPost2010Prop56
140
1.0
102
RTVSPost2010PropOp56
 70
     1
102
RTVSPost2010Prop57
140
1.0
102
RTVSPost2010PropOp57
 70
     1
  0
XRECORD
  5
5C5
102
{ACAD_REACTORS
330
5C4
102
}
330
5C4
100
AcDbXrecord
280
     1
102
RTVSPropertyOp0
 70
     1
102
RTVSPropertyOp1
 70
     1
102
RTVSPropertyOp2
 70
     1
102
RTVSPropertyOp3
 70
     1
102
RTVSPropertyOp4
 70
     1
102
RTVSPropertyOp5
 70
     1
102
RTVSPropertyOp6
 70
     1
102
RTVSPropertyOp7
 70
     1
102
RTVSPropertyOp8
 70
     1
102
RTVSPropertyOp9
 70
     1
102
RTVSPropertyOp10
 70
     1
102
RTVSPropertyOp11
 70
     1
102
RTVSPropertyOp12
 70
     1
102
RTVSPropertyOp13
 70
     1
102
RTVSPropertyOp14
 70
     1
102
RTVSPropertyOp15
 70
     1
102
RTVSPropertyOp16
 70
     1
102
RTVSPropertyOp17
 70
     1
102
RTVSPropertyOp18
 70
     1
102
RTVSPropertyOp19
 70
     1
102
RTVSPropertyOp20
 70
     1
102
RTVSPropertyOp21
 70
     1
102
RTVSPropertyOp22
 70
     1
102
RTVSPropertyOp23
 70
     1
102
RTVSPropertyOp24
 70
     1
102
RTVSPropertyOp25
 70
     1
102
RTVSPropertyOp26
 70
     1
102
RTVSPropertyOp27
 70
     1
102
RTVSPropertyOp28
 70
     1
102
RTVSPropertyOp29
 70
     1
102
RTVSPropertyOp30
 70
     1
102
RTVSPropertyOp31
 70
     1
102
RTVSPropertyOp32
 70
     1
102
RTVSPropertyOp33
 70
     1
102
RTVSPropertyOp34
 70
     1
102
RTVSPropertyOp35
 70
     1
102
RTVSPropertyOp36
 70
     1
102
RTVSPropertyOp37
 70
     1
102
RTVSPropertyOp38
 70
     1
102
RTVSPropertyOp39
 70
     1
102
RTVSPropertyOp40
 70
     1
102
RTVSPropertyOp41
 70
     1
102
RTVSPropertyOp42
 70
     1
102
RTVSPropertyOp43
 70
     1
102
RTVSPropertyOp44
 70
     1
102
RTVSPropertyOp45
 70
     1
102
RTVSPropertyOp46
 70
     1
102
RTVSPropertyOp47
 70
     1
102
RTVSPropertyOp48
 70
     1
102
RTVSPropertyOp49
 70
     1
102
RTVSPropertyOp50
 70
     1
102
RTVSPropertyOp51
 70
     0
102
RTVSPropertyOp52
 70
     0
102
RTVSPropertyOp53
 70
     1
102
RTVSPropertyOp54
 70
     1
102
RTVSPropertyOp55
 70
     1
102
RTVSPropertyOp56
 70
     1
102
RTVSPropertyOp57
 70
     1
102
RTVSPost2010Prop28
280
     0
102
RTVSPost2010PropOp28
 70
     1
102
RTVSPost2010Prop29
280
     1
102
RTVSPost2010PropOp29
 70
     1
102
RTVSPost2010Prop30
280
     1
102
RTVSPost2010PropOp30
 70
     1
102
RTVSPost2010Prop31
280
     0
102
RTVSPost2010PropOp31
 70
     1
102
RTVSPost2010Prop32
280
     0
102
RTVSPost2010PropOp32
 70
     1
102
RTVSPost2010Prop33
280
     0
102
RTVSPost2010PropOp33
 70
     1
102
RTVSPost2010Prop34
280
     0
102
RTVSPost2010PropOp34
 70
     1
102
RTVSPost2010Prop35
280
     0
102
RTVSPost2010PropOp35
 70
     1
102
RTVSPost2010Prop36
280
     0
102
RTVSPost2010PropOp36
 70
     1
102
RTVSPost2010Prop37
 90
       50
102
RTVSPost2010PropOp37
 70
     1
102
RTVSPost2010Prop38
140
0.0
102
RTVSPost2010PropOp38
 70
     1
102
RTVSPost2010Prop39
140
1.0
102
RTVSPost2010PropOp39
 70
     1
102
RTVSPost2010Prop40
 90
        0
102
RTVSPost2010PropOp40
 70
     1
102
RTVSPost2010Prop41ColorIndex
 90
       18
102
RTVSPost2010Prop41ColorRGB
 90
        0
102
RTVSPost2010PropOp41
 70
     1
102
RTVSPost2010Prop42
 90
       50
102
RTVSPost2010PropOp42
 70
     1
102
RTVSPost2010Prop43
 90
        3
102
RTVSPost2010PropOp43
 70
     1
102
RTVSPost2010Prop44ColorIndex
 90
        5
102
RTVSPost2010Prop44ColorRGB
 90
      255
102
RTVSPost2010PropOp44
 70
     1
102
RTVSPost2010Prop45
280
     0
102
RTVSPost2010PropOp45
 70
     1
102
RTVSPost2010Prop46
 90
       50
102
RTVSPost2010PropOp46
 70
     1
102
RTVSPost2010Prop47
 90
       50
102
RTVSPost2010PropOp47
 70
     1
102
RTVSPost2010Prop48
 90
       50
102
RTVSPost2010PropOp48
 70
     1
102
RTVSPost2010Prop49
280
     0
102
RTVSPost2010PropOp49
 70
     1
102
RTVSPost2010Prop50
 90
       50
102
RTVSPost2010PropOp50
 70
     1
102
RTVSPost2010Prop51ColorIndex
 90
      256
102
RTVSPost2010Prop51ColorRGB
 90
-16777216
102
RTVSPost2010PropOp51
 70
     0
102
RTVSPost2010Prop52
140
1.0
102
RTVSPost2010PropOp52
 70
     0
102
RTVSPost2010Prop53
 90
        2
102
RTVSPost2010PropOp53
 70
     1
102
RTVSPost2010Prop54
  1
strokes_ogs.tif
102
RTVSPost2010PropOp54
 70
     1
102
RTVSPost2010Prop55
280
     0
102
RTVSPost2010PropOp55
 70
     1
102
RTVSPost2010Prop56
140
1.0
102
RTVSPost2010PropOp56
 70
     1
102
RTVSPost2010Prop57
140
1.0
102
RTVSPost2010PropOp57
 70
     1
  0
ENDSEC
  0
EOF
