  0
SECTION
  2
HEADER
  9
$ACADVER
  1
AC1015
  9
$ACADMAINTVER
 70
     6
  9
$DWGCODEPAGE
  3
ANSI_932
  9
$INSBASE
 10
59.99999938099995
 20
0.0
 30
0.0
  9
$EXTMIN
 10
194.7598048205917
 20
11.16732475439682
 30
0.0
  9
$EXTMAX
 10
1112.640268160914
 20
802.9623619718218
 30
0.0
  9
$LIMMIN
 10
-210.0
 20
-148.5
  9
$LIMMAX
 10
210.0
 20
148.5
  9
$ORTHOMODE
 70
     1
  9
$REGENMODE
 70
     1
  9
$FILLMODE
 70
     1
  9
$QTEXTMODE
 70
     0
  9
$MIRRTEXT
 70
     1
  9
$LTSCALE
 40
3.0
  9
$ATTMODE
 70
     1
  9
$TEXTSIZE
 40
9.0
  9
$TRACEWID
 40
0.05
  9
$TEXTSTYLE
  7
KANJI
  9
$CLAYER
  8
2
  9
$CELTYPE
  6
CONTINUOUS
  9
$CECOLOR
 62
   256
  9
$CELTSCALE
 40
1.0
  9
$DISPSILH
 70
     0
  9
$DIMSCALE
 40
3.0
  9
$DIMASZ
 40
2.0
  9
$DIMEXO
 40
0.5
  9
$DIMDLI
 40
10.0
  9
$DIMRND
 40
0.0
  9
$DIMDLE
 40
0.0
  9
$DIMEXE
 40
1.0
  9
$DIMTP
 40
0.0
  9
$DIMTM
 40
0.0
  9
$DIMTXT
 40
3.0
  9
$DIMCEN
 40
0.09
  9
$DIMTSZ
 40
0.0
  9
$DIMTOL
 70
     0
  9
$DIMLIM
 70
     0
  9
$DIMTIH
 70
     0
  9
$DIMTOH
 70
     0
  9
$DIMSE1
 70
     0
  9
$DIMSE2
 70
     0
  9
$DIMTAD
 70
     0
  9
$DIMZIN
 70
     8
  9
$DIMBLK
  1

  9
$DIMASO
 70
     0
  9
$DIMSHO
 70
     0
  9
$DIMPOST
  1

  9
$DIMAPOST
  1

  9
$DIMALT
 70
     0
  9
$DIMALTD
 70
     2
  9
$DIMALTF
 40
25.4
  9
$DIMLFAC
 40
1.0
  9
$DIMTOFL
 70
     1
  9
$DIMTVP
 40
1.0
  9
$DIMTIX
 70
     1
  9
$DIMSOXD
 70
     1
  9
$DIMSAH
 70
     0
  9
$DIMBLK1
  1

  9
$DIMBLK2
  1

  9
$DIMSTYLE
  2
STANDARD
  9
$DIMCLRD
 70
   256
  9
$DIMCLRE
 70
   256
  9
$DIMCLRT
 70
   256
  9
$DIMTFAC
 40
1.0
  9
$DIMGAP
 40
0.09
  9
$DIMJUST
 70
     0
  9
$DIMSD1
 70
     0
  9
$DIMSD2
 70
     0
  9
$DIMTOLJ
 70
     1
  9
$DIMTZIN
 70
     0
  9
$DIMALTZ
 70
     0
  9
$DIMALTTZ
 70
     0
  9
$DIMUPT
 70
     0
  9
$DIMDEC
 70
     4
  9
$DIMTDEC
 70
     4
  9
$DIMALTU
 70
     2
  9
$DIMALTTD
 70
     2
  9
$DIMTXSTY
  7
STANDARD
  9
$DIMAUNIT
 70
     0
  9
$DIMADEC
 70
     0
  9
$DIMALTRND
 40
0.0
  9
$DIMAZIN
 70
     0
  9
$DIMDSEP
 70
    46
  9
$DIMATFIT
 70
     3
  9
$DIMFRAC
 70
     0
  9
$DIMLDRBLK
  1

  9
$DIMLUNIT
 70
     2
  9
$DIMLWD
 70
    -2
  9
$DIMLWE
 70
    -2
  9
$DIMTMOVE
 70
     0
  9
$LUNITS
 70
     2
  9
$LUPREC
 70
     4
  9
$SKETCHINC
 40
0.1
  9
$FILLETRAD
 40
1.0
  9
$AUNITS
 70
     0
  9
$AUPREC
 70
     0
  9
$MENU
  1
.
  9
$ELEVATION
 40
0.0
  9
$PELEVATION
 40
0.0
  9
$THICKNESS
 40
0.0
  9
$LIMCHECK
 70
     0
  9
$CHAMFERA
 40
0.0
  9
$CHAMFERB
 40
0.0
  9
$CHAMFERC
 40
0.0
  9
$CHAMFERD
 40
0.0
  9
$SKPOLY
 70
     0
  9
$TDCREATE
 40
2457533.680808426
  9
$TDUCREATE
 40
2457533.305808426
  9
$TDUPDATE
 40
2457871.839695127
  9
$TDUUPDATE
 40
2457871.464695127
  9
$TDINDWG
 40
0.0125371528
  9
$TDUSRTIMER
 40
0.0125367477
  9
$USRTIMER
 70
     1
  9
$ANGBASE
 50
0.0
  9
$ANGDIR
 70
     0
  9
$PDMODE
 70
     0
  9
$PDSIZE
 40
0.0
  9
$PLINEWID
 40
0.0
  9
$SPLFRAME
 70
     0
  9
$SPLINETYPE
 70
     6
  9
$SPLINESEGS
 70
     8
  9
$HANDSEED
  5
600
  9
$SURFTAB1
 70
     6
  9
$SURFTAB2
 70
     6
  9
$SURFTYPE
 70
     6
  9
$SURFU
 70
     6
  9
$SURFV
 70
     6
  9
$UCSBASE
  2

  9
$UCSNAME
  2

  9
$UCSORG
 10
0.0
 20
0.0
 30
0.0
  9
$UCSXDIR
 10
1.0
 20
0.0
 30
0.0
  9
$UCSYDIR
 10
0.0
 20
1.0
 30
0.0
  9
$UCSORTHOREF
  2

  9
$UCSORTHOVIEW
 70
     0
  9
$UCSORGTOP
 10
0.0
 20
0.0
 30
0.0
  9
$UCSORGBOTTOM
 10
0.0
 20
0.0
 30
0.0
  9
$UCSORGLEFT
 10
0.0
 20
0.0
 30
0.0
  9
$UCSORGRIGHT
 10
0.0
 20
0.0
 30
0.0
  9
$UCSORGFRONT
 10
0.0
 20
0.0
 30
0.0
  9
$UCSORGBACK
 10
0.0
 20
0.0
 30
0.0
  9
$PUCSBASE
  2

  9
$PUCSNAME
  2

  9
$PUCSORG
 10
0.0
 20
0.0
 30
0.0
  9
$PUCSXDIR
 10
1.0
 20
0.0
 30
0.0
  9
$PUCSYDIR
 10
0.0
 20
1.0
 30
0.0
  9
$PUCSORTHOREF
  2

  9
$PUCSORTHOVIEW
 70
     0
  9
$PUCSORGTOP
 10
0.0
 20
0.0
 30
0.0
  9
$PUCSORGBOTTOM
 10
0.0
 20
0.0
 30
0.0
  9
$PUCSORGLEFT
 10
0.0
 20
0.0
 30
0.0
  9
$PUCSORGRIGHT
 10
0.0
 20
0.0
 30
0.0
  9
$PUCSORGFRONT
 10
0.0
 20
0.0
 30
0.0
  9
$PUCSORGBACK
 10
0.0
 20
0.0
 30
0.0
  9
$USERI1
 70
     0
  9
$USERI2
 70
     0
  9
$USERI3
 70
     0
  9
$USERI4
 70
     0
  9
$USERI5
 70
     0
  9
$USERR1
 40
0.0
  9
$USERR2
 40
0.0
  9
$USERR3
 40
0.0
  9
$USERR4
 40
0.0
  9
$USERR5
 40
0.0
  9
$WORLDVIEW
 70
     1
  9
$SHADEDGE
 70
     3
  9
$SHADEDIF
 70
    70
  9
$TILEMODE
 70
     1
  9
$MAXACTVP
 70
    16
  9
$PINSBASE
 10
0.0
 20
0.0
 30
0.0
  9
$PLIMCHECK
 70
     0
  9
$PEXTMIN
 10
1.000000000000000E+20
 20
1.000000000000000E+20
 30
1.000000000000000E+20
  9
$PEXTMAX
 10
-1.000000000000000E+20
 20
-1.000000000000000E+20
 30
-1.000000000000000E+20
  9
$PLIMMIN
 10
0.0
 20
0.0
  9
$PLIMMAX
 10
12.0
 20
9.0
  9
$UNITMODE
 70
     0
  9
$VISRETAIN
 70
     0
  9
$PLINEGEN
 70
     0
  9
$PSLTSCALE
 70
     1
  9
$TREEDEPTH
 70
  3020
  9
$CMLSTYLE
  2
STANDARD
  9
$CMLJUST
 70
     0
  9
$CMLSCALE
 40
1.0
  9
$PROXYGRAPHICS
 70
     1
  9
$MEASUREMENT
 70
     0
  9
$CELWEIGHT
370
    -1
  9
$ENDCAPS
280
     0
  9
$JOINSTYLE
280
     0
  9
$LWDISPLAY
290
     0
  9
$INSUNITS
 70
     0
  9
$HYPERLINKBASE
  1

  9
$STYLESHEET
  1
monochrome.ctb
  9
$XEDIT
290
     1
  9
$CEPSNTYPE
380
     0
  9
$PSTYLEMODE
290
     1
  9
$FINGERPRINTGUID
  2
{7270618B-4E6C-43E6-B31B-72FEC1F23BF5}
  9
$VERSIONGUID
  2
{D2037B37-42CD-4C20-8D0A-1E4432C8BBF5}
  9
$EXTNAMES
290
     1
  9
$PSVPSCALE
 40
0.0
  9
$OLESTARTUP
290
     0
  0
ENDSEC
  0
SECTION
  2
CLASSES
  0
CLASS
  1
LWPOLYLINE
  2
AcDbPolyline
  3
AutoCAD 2000
 90
        0
280
     0
281
     1
  0
CLASS
  1
ACDBDICTIONARYWDFLT
  2
AcDbDictionaryWithDefault
  3
ObjectDBX Classes
 90
        0
280
     0
281
     0
  0
CLASS
  1
ACDBPLACEHOLDER
  2
AcDbPlaceHolder
  3
ObjectDBX Classes
 90
        0
280
     0
281
     0
  0
CLASS
  1
LAYOUT
  2
AcDbLayout
  3
ObjectDBX Classes
 90
        0
280
     0
281
     0
  0
CLASS
  1
DICTIONARYVAR
  2
AcDbDictionaryVar
  3
ObjectDBX Classes
 90
        0
280
     0
281
     0
  0
CLASS
  1
DUMMY
  2
AcDbLongTransaction
  3
DUMMY
 90
        0
280
     0
281
     0
  0
CLASS
  1
LWPOLYLINE
  2
AcDbPolyline
  3
AutoCAD 2000
 90
        0
280
     0
281
     1
  0
CLASS
  1
HATCH
  2
AcDbHatch
  3
AutoCAD 2000
 90
        0
280
     0
281
     1
  0
CLASS
  1
XRECORD
  2
AcDbXrecord
  3
AutoCAD 2000
 90
        0
280
     0
281
     0
  0
CLASS
  1
DUMMY
  2
AcDbLongTransaction
  3
DUMMY
 90
        0
280
     0
281
     0
  0
CLASS
  1
LWPOLYLINE
  2
AcDbPolyline
  3
AutoCAD 2000
 90
        0
280
     0
281
     1
  0
CLASS
  1
HATCH
  2
AcDbHatch
  3
AutoCAD 2000
 90
        0
280
     0
281
     1
  0
CLASS
  1
XRECORD
  2
AcDbXrecord
  3
AutoCAD 2000
 90
        0
280
     0
281
     0
  0
CLASS
  1
DUMMY
  2
AcDbLongTransaction
  3
DUMMY
 90
        0
280
     0
281
     0
  0
CLASS
  1
LWPOLYLINE
  2
AcDbPolyline
  3
AutoCAD 2000
 90
        0
280
     0
281
     1
  0
CLASS
  1
HATCH
  2
AcDbHatch
  3
AutoCAD 2000
 90
        0
280
     0
281
     1
  0
CLASS
  1
XRECORD
  2
AcDbXrecord
  3
AutoCAD 2000
 90
        0
280
     0
281
     0
  0
CLASS
  1
MATERIAL
  2
AcDbMaterial
  3
ObjectDBX Classes
 90
     1153
280
     0
281
     0
  0
CLASS
  1
VISUALSTYLE
  2
AcDbVisualStyle
  3
ObjectDBX Classes
 90
     4095
280
     0
281
     0
  0
CLASS
  1
TABLESTYLE
  2
AcDbTableStyle
  3
ObjectDBX Classes
 90
     4095
280
     0
281
     0
  0
CLASS
  1
SCALE
  2
AcDbScale
  3
ObjectDBX Classes
 90
     1153
280
     0
281
     0
  0
CLASS
  1
MLEADERSTYLE
  2
AcDbMLeaderStyle
  3
ACDB_MLEADERSTYLE_CLASS
 90
     4095
280
     0
281
     0
  0
CLASS
  1
ACDBSECTIONVIEWSTYLE
  2
AcDbSectionViewStyle
  3
ObjectDBX Classes
 90
     1025
280
     0
281
     0
  0
CLASS
  1
ACDBDETAILVIEWSTYLE
  2
AcDbDetailViewStyle
  3
ObjectDBX Classes
 90
     1025
280
     0
281
     0
  0
CLASS
  1
SORTENTSTABLE
  2
AcDbSortentsTable
  3
ObjectDBX Classes
 90
        0
280
     0
281
     0
  0
ENDSEC
  0
SECTION
  2
TABLES
  0
TABLE
  2
VPORT
  5
2C
102
{ACAD_XDICTIONARY
360
5C4
102
}
330
0
100
AcDbSymbolTable
 70
     1
  0
VPORT
  5
2D
330
2C
100
AcDbSymbolTableRecord
100
AcDbViewportTableRecord
  2
*Active
 70
     0
 10
0.0
 20
0.0
 11
1.0
 21
1.0
 12
978.1259471597682
 22
394.4827920087638
 13
0.0
 23
0.0
 14
1.0
 24
1.0
 15
0.0
 25
0.0
 16
0.0
 26
0.0
 36
1.0
 17
0.0
 27
0.0
 37
0.0
 40
838.8584377933429
 41
2.177611940298507
 42
50.0
 43
0.0
 44
0.0
 50
0.0
 51
0.0
 71
     0
 72
 20000
 73
     1
 74
     0
 75
     0
 76
     0
 77
     0
 78
     0
281
     0
 65
     1
110
0.0
120
0.0
130
0.0
111
1.0
121
0.0
131
0.0
112
0.0
122
1.0
132
0.0
 79
     0
146
0.0
1001
ACAD_NAV_VCDISPLAY
1070
     3
  0
ENDTAB
  0
TABLE
  2
LTYPE
  5
27
330
0
100
AcDbSymbolTable
 70
     2
  0
LTYPE
  5
28
330
27
100
AcDbSymbolTableRecord
100
AcDbLinetypeTableRecord
  2
BYBLOCK
 70
     0
  3

 72
    65
 73
     0
 40
0.0
  0
LTYPE
  5
29
330
27
100
AcDbSymbolTableRecord
100
AcDbLinetypeTableRecord
  2
BYLAYER
 70
     0
  3

 72
    65
 73
     0
 40
0.0
  0
LTYPE
  5
16
330
27
100
AcDbSymbolTableRecord
100
AcDbLinetypeTableRecord
  2
CONTINUOUS
 70
     0
  3
Solid line
 72
    65
 73
     0
 40
0.0
  0
LTYPE
  5
75
330
27
100
AcDbSymbolTableRecord
100
AcDbLinetypeTableRecord
  2
CENTER
 70
     0
  3
____ _ ____ _ ____ _ ____ _ ____ _ ____ _ ____
 72
    65
 73
     4
 40
12.0
 49
9.0
 74
     0
 49
-1.0
 74
     0
 49
1.0
 74
     0
 49
-1.0
 74
     0
  0
ENDTAB
  0
TABLE
  2
LAYER
  5
21
102
{ACAD_XDICTIONARY
360
22
102
}
330
0
100
AcDbSymbolTable
 70
     8
  0
LAYER
  5
7
102
{ACAD_XDICTIONARY
360
8
102
}
330
21
100
AcDbSymbolTableRecord
100
AcDbLayerTableRecord
  2
0
 70
     0
 62
     7
  6
CONTINUOUS
370
    -3
390
A
  0
LAYER
  5
36E
102
{ACAD_XDICTIONARY
360
36F
102
}
330
21
100
AcDbSymbolTableRecord
100
AcDbLayerTableRecord
  2
1
 70
     0
 62
     7
  6
CONTINUOUS
370
    -3
390
A
  0
LAYER
  5
4D
102
{ACAD_XDICTIONARY
360
4E
102
}
330
21
100
AcDbSymbolTableRecord
100
AcDbLayerTableRecord
  2
2
 70
     0
 62
     4
  6
CONTINUOUS
370
    -3
390
A
  0
LAYER
  5
6E
102
{ACAD_XDICTIONARY
360
6F
102
}
330
21
100
AcDbSymbolTableRecord
100
AcDbLayerTableRecord
  2
4
 70
     0
 62
     3
  6
CONTINUOUS
370
    -3
390
A
  0
LAYER
  5
72
102
{ACAD_XDICTIONARY
360
73
102
}
330
21
100
AcDbSymbolTableRecord
100
AcDbLayerTableRecord
  2
L-CENTER
 70
     0
 62
     1
  6
CENTER
370
    -3
390
A
  0
LAYER
  5
366
102
{ACAD_XDICTIONARY
360
367
102
}
330
21
100
AcDbSymbolTableRecord
100
AcDbLayerTableRecord
  2
5
 70
     0
 62
     6
  6
CONTINUOUS
370
    -3
390
A
  0
LAYER
  5
67
102
{ACAD_XDICTIONARY
360
68
102
}
330
21
100
AcDbSymbolTableRecord
100
AcDbLayerTableRecord
  2
3
 70
     0
 62
     2
  6
CONTINUOUS
370
    -3
390
A
  0
LAYER
  5
52B
330
21
100
AcDbSymbolTableRecord
100
AcDbLayerTableRecord
  2
Defpoints
 70
     0
 62
     7
  6
CONTINUOUS
290
     0
370
    -3
390
A
  0
ENDTAB
  0
TABLE
  2
STYLE
  5
24
330
0
100
AcDbSymbolTable
 70
     2
  0
STYLE
  5
25
330
24
100
AcDbSymbolTableRecord
100
AcDbTextStyleTableRecord
  2
STANDARD
 70
     0
 40
0.0
 41
1.0
 50
0.0
 71
     0
 42
5.4
  3
txt
  4

  0
STYLE
  5
50
330
24
100
AcDbSymbolTableRecord
100
AcDbTextStyleTableRecord
  2
KANJI
 70
     0
 40
0.0
 41
1.0
 50
0.0
 71
     0
 42
9.0
  3
TXT
  4
BIGFONT
  0
ENDTAB
  0
TABLE
  2
VIEW
  5
2A
330
0
100
AcDbSymbolTable
 70
     0
  0
ENDTAB
  0
TABLE
  2
UCS
  5
2B
330
0
100
AcDbSymbolTable
 70
     0
  0
ENDTAB
  0
TABLE
  2
APPID
  5
31
330
0
100
AcDbSymbolTable
 70
     5
  0
APPID
  5
32
330
31
100
AcDbSymbolTableRecord
100
AcDbRegAppTableRecord
  2
ACAD
 70
     0
  0
APPID
  5
30
330
31
100
AcDbSymbolTableRecord
100
AcDbRegAppTableRecord
  2
ACAD_NAV_VCDISPLAY
 70
     0
  0
APPID
  5
1A
330
31
100
AcDbSymbolTableRecord
100
AcDbRegAppTableRecord
  2
ACAD_PSEXT
 70
     0
  0
APPID
  5
4C4
330
31
100
AcDbSymbolTableRecord
100
AcDbRegAppTableRecord
  2
ACAD_EXEMPT_FROM_CAD_STANDARDS
 70
     0
  0
APPID
  5
4DE
330
31
100
AcDbSymbolTableRecord
100
AcDbRegAppTableRecord
  2
ACAD_MLEADERVER
 70
     0
  0
ENDTAB
  0
TABLE
  2
DIMSTYLE
  5
33
330
0
100
AcDbSymbolTable
 70
     1
100
AcDbDimStyleTable
  0
DIMSTYLE
105
34
330
33
100
AcDbSymbolTableRecord
100
AcDbDimStyleTableRecord
  2
STANDARD
 70
     0
178
     0
340
25
  0
ENDTAB
  0
TABLE
  2
BLOCK_RECORD
  5
1
330
0
100
AcDbSymbolTable
 70
     0
  0
BLOCK_RECORD
  5
2
102
{ACAD_XDICTIONARY
360
3
102
}
330
1
100
AcDbSymbolTableRecord
100
AcDbBlockTableRecord
  2
*MODEL_SPACE
340
18
  0
BLOCK_RECORD
  5
1B
330
1
100
AcDbSymbolTableRecord
100
AcDbBlockTableRecord
  2
*PAPER_SPACE
340
20
  0
ENDTAB
  0
ENDSEC
  0
SECTION
  2
BLOCKS
  0
BLOCK
  5
6
330
2
100
AcDbEntity
  8
0
100
AcDbBlockBegin
  2
*MODEL_SPACE
 70
     0
 10
0.0
 20
0.0
 30
0.0
  3
*MODEL_SPACE
  1

  0
ENDBLK
  5
17
330
2
100
AcDbEntity
  8
0
100
AcDbBlockEnd
  0
BLOCK
  5
1E
330
1B
100
AcDbEntity
 67
     1
  8
0
100
AcDbBlockBegin
  2
*PAPER_SPACE
 70
     0
 10
0.0
 20
0.0
 30
0.0
  3
*PAPER_SPACE
  1

  0
ENDBLK
  5
1F
330
1B
100
AcDbEntity
 67
     1
  8
0
100
AcDbBlockEnd
  0
ENDSEC
  0
SECTION
  2
ENTITIES
  0
LINE
  5
6D
330
2
100
AcDbEntity
  8
4
100
AcDbLine
 10
280.3033618205917
 20
237.851042126824
 30
0.0
 11
280.3033618205917
 21
138.3464301268239
 31
0.0
  0
LINE
  5
71
330
2
100
AcDbEntity
  8
L-CENTER
100
AcDbLine
 10
410.3033608205918
 20
371.5038729498269
 30
0.0
 11
410.3033608205918
 21
95.26604170314795
 31
0.0
  0
LINE
  5
76
330
2
100
AcDbEntity
  8
4
100
AcDbLine
 10
540.3033598205919
 20
138.3464301268239
 30
0.0
 11
540.3033598205919
 21
172.8510411268242
 31
0.0
  0
LINE
  5
77
330
2
100
AcDbEntity
  8
4
100
AcDbLine
 10
281.3033608205918
 20
221.8510401268243
 30
0.0
 11
281.3033608205918
 21
153.851042126824
 31
0.0
  0
LINE
  5
78
330
2
100
AcDbEntity
  8
4
100
AcDbLine
 10
539.3033608205918
 20
221.8510401268243
 30
0.0
 11
539.3033608205918
 21
153.851042126824
 31
0.0
  0
LINE
  5
79
330
2
100
AcDbEntity
  8
4
100
AcDbLine
 10
534.3033598205919
 20
236.8510401268243
 30
0.0
 11
534.3033598205919
 21
138.851042126824
 31
0.0
  0
LINE
  5
7A
330
2
100
AcDbEntity
  8
4
100
AcDbLine
 10
282.3033598205919
 20
108.851042126824
 30
0.0
 11
282.3033598205919
 21
235.8510411268242
 31
0.0
  0
LINE
  5
7B
330
2
100
AcDbEntity
  8
4
100
AcDbLine
 10
538.3033618205917
 20
108.851042126824
 30
0.0
 11
538.3033618205917
 21
235.8510411268242
 31
0.0
  0
LINE
  5
7C
330
2
100
AcDbEntity
  8
4
100
AcDbLine
 10
286.3033618205917
 20
236.8510401268243
 30
0.0
 11
286.3033618205917
 21
138.851042126824
 31
0.0
  0
LINE
  5
7D
330
2
100
AcDbEntity
  8
4
100
AcDbLine
 10
235.3033618205917
 20
72.85104212682404
 30
0.0
 11
352.3033618205917
 21
72.85104212682404
 31
0.0
  0
LINE
  5
7E
330
2
100
AcDbEntity
  8
4
100
AcDbLine
 10
349.3033618205917
 20
102.851042126824
 30
0.0
 11
238.3033618205917
 21
102.851042126824
 31
0.0
  0
LINE
  5
7F
330
2
100
AcDbEntity
  8
4
100
AcDbLine
 10
286.3033618205917
 20
138.851042126824
 30
0.0
 11
534.3033598205919
 21
138.851042126824
 31
0.0
  0
LINE
  5
80
330
2
100
AcDbEntity
  8
L-CENTER
100
AcDbLine
 10
260.3033608205918
 20
112.851042126824
 30
0.0
 11
260.3033608205918
 21
62.85104212682404
 31
0.0
  0
LINE
  5
81
330
2
100
AcDbEntity
  8
4
100
AcDbLine
 10
235.3033618205917
 20
99.85104212682404
 30
0.0
 11
235.3033618205917
 21
72.85104212682404
 31
0.0
  0
ARC
  5
82
330
2
100
AcDbEntity
  8
4
100
AcDbCircle
 10
238.3033618205917
 20
99.85104212682404
 30
0.0
 40
3.0
100
AcDbArc
 50
90.0
 51
180.0
  0
LINE
  5
83
330
2
100
AcDbEntity
  8
4
100
AcDbLine
 10
261.9615628205919
 20
106.1679351268244
 30
0.0
 11
282.3033598205919
 21
141.8551911268241
 31
0.0
  0
ARC
  5
84
330
2
100
AcDbEntity
  8
4
100
AcDbCircle
 10
256.5948658205917
 20
108.851042126824
 30
0.0
 40
6.0
100
AcDbArc
 50
270.0016040000007
 51
333.4394459999928
  0
ARC
  5
85
330
2
100
AcDbEntity
  8
4
100
AcDbCircle
 10
276.3033598205919
 20
108.851042126824
 30
0.0
 40
6.0
100
AcDbArc
 50
270.0016040000007
 51
0.0
  0
LINE
  5
86
330
2
100
AcDbEntity
  8
4
100
AcDbLine
 10
286.3033618205917
 20
139.8510411268242
 30
0.0
 11
282.3033598205919
 21
139.8510411268242
 31
0.0
  0
LINE
  5
87
330
2
100
AcDbEntity
  8
4
100
AcDbLine
 10
281.3033608205918
 20
153.851042126824
 30
0.0
 11
282.3033598205919
 21
153.851042126824
 31
0.0
  0
LINE
  5
88
330
2
100
AcDbEntity
  8
4
100
AcDbLine
 10
468.3033598205919
 20
72.85104212682404
 30
0.0
 11
585.3033598205919
 21
72.85104212682404
 31
0.0
  0
LINE
  5
89
330
2
100
AcDbEntity
  8
4
100
AcDbLine
 10
471.3033598205919
 20
102.851042126824
 30
0.0
 11
582.3033598205919
 21
102.851042126824
 31
0.0
  0
LINE
  5
8A
330
2
100
AcDbEntity
  8
4
100
AcDbLine
 10
462.3033598205919
 20
119.8510401268243
 30
0.0
 11
358.3033618205917
 21
119.8510401268243
 31
0.0
  0
LINE
  5
8B
330
2
100
AcDbEntity
  8
4
100
AcDbLine
 10
445.6209868205918
 20
101.8510401268243
 30
0.0
 11
374.9857348205918
 21
101.8510401268243
 31
0.0
  0
LINE
  5
8C
330
2
100
AcDbEntity
  8
4
100
AcDbLine
 10
352.3033618205917
 20
113.8510401268243
 30
0.0
 11
352.3033618205917
 21
72.85104212682404
 31
0.0
  0
LINE
  5
8D
330
2
100
AcDbEntity
  8
4
100
AcDbLine
 10
352.3033618205917
 20
107.8510401268243
 30
0.0
 11
371.9803618205918
 21
107.8510401268243
 31
0.0
  0
ARC
  5
8E
330
2
100
AcDbEntity
  8
4
100
AcDbCircle
 10
349.3033618205917
 20
99.85104212682404
 30
0.0
 40
3.0
100
AcDbArc
 50
0.0
 51
90.0
  0
ARC
  5
8F
330
2
100
AcDbEntity
  8
4
100
AcDbCircle
 10
358.3033618205917
 20
113.8510401268243
 30
0.0
 40
6.0
100
AcDbArc
 50
90.0
 51
180.0
  0
LINE
  5
90
330
2
100
AcDbEntity
  8
4
100
AcDbLine
 10
372.4259188205918
 20
103.286588126824
 30
0.0
 11
369.6366118205918
 21
107.8510401268243
 31
0.0
  0
ARC
  5
91
330
2
100
AcDbEntity
  8
4
100
AcDbCircle
 10
374.9857348205918
 20
104.8510401268243
 30
0.0
 40
3.000012
100
AcDbArc
 50
211.4315569999898
 51
270.0
  0
LINE
  5
92
330
2
100
AcDbEntity
  8
4
100
AcDbLine
 10
364.6471108205918
 20
119.8510401268243
 30
0.0
 11
371.9803618205918
 21
107.8510401268243
 31
0.0
  0
LINE
  5
93
330
2
100
AcDbEntity
  8
4
100
AcDbLine
 10
468.3033598205919
 20
113.8510401268243
 30
0.0
 11
468.3033598205919
 21
72.85104212682404
 31
0.0
  0
LINE
  5
94
330
2
100
AcDbEntity
  8
4
100
AcDbLine
 10
468.3033598205919
 20
107.8510401268243
 30
0.0
 11
448.6258708205918
 21
107.8510401268243
 31
0.0
  0
LINE
  5
95
330
2
100
AcDbEntity
  8
4
100
AcDbLine
 10
448.1808028205918
 20
103.286588126824
 30
0.0
 11
450.9701098205918
 21
107.8510401268243
 31
0.0
  0
ARC
  5
96
330
2
100
AcDbEntity
  8
4
100
AcDbCircle
 10
445.6209868205918
 20
104.8510401268243
 30
0.0
 40
2.999949
100
AcDbArc
 50
270.0
 51
328.5724190000086
  0
LINE
  5
97
330
2
100
AcDbEntity
  8
4
100
AcDbLine
 10
448.6261138205917
 20
107.8510401268243
 30
0.0
 11
455.9593678205919
 21
119.8510401268243
 31
0.0
  0
ARC
  5
98
330
2
100
AcDbEntity
  8
4
100
AcDbCircle
 10
471.3033598205919
 20
99.85104212682404
 30
0.0
 40
3.0
100
AcDbArc
 50
90.0
 51
180.0
  0
ARC
  5
99
330
2
100
AcDbEntity
  8
4
100
AcDbCircle
 10
462.3033598205919
 20
113.8510401268243
 30
0.0
 40
6.0
100
AcDbArc
 50
0.0
 51
90.0
  0
LWPOLYLINE
  5
9A
330
2
100
AcDbEntity
  8
4
100
AcDbPolyline
 90
       30
 70
     0
 43
0.0
 10
531.9680488205917
 20
102.6097251268238
 10
532.7611258205919
 20
101.8691451268239
 10
533.5300888205919
 20
101.1275211268239
 10
534.2508268205919
 20
100.3838091268244
 10
535.8825478205916
 20
98.12970512682386
 10
536.1692488205919
 20
97.3671981268244
 10
536.2871578205917
 20
96.5973831268243
 10
536.212160820592
 20
95.81921612682413
 10
535.9900588205918
 20
95.16001712682441
 10
535.6435768205919
 20
94.49668412682422
 10
535.2009208205917
 20
93.83168912682413
 10
533.5780018205918
 20
91.85145212682414
 10
532.1050378205917
 20
89.94526112682411
 10
531.7790128205919
 20
89.33785412682391
 10
531.582488820592
 20
88.74856712682436
 10
531.5436688205917
 20
88.17986912682431
 10
531.7151998205919
 20
87.55757312682385
 10
532.0926418205919
 20
86.96076212682419
 10
532.6395928205919
 20
86.38487612682388
 10
534.933434820592
 20
84.73703312682437
 10
537.4422388205918
 20
83.11297112682382
 10
538.1563828205918
 20
82.55558012682422
 10
538.7487928205918
 20
81.98255312682386
 10
539.1830578205919
 20
81.38932112682437
 10
539.4985048205918
 20
80.07016412682447
 10
539.1017308205918
 20
78.66031712682434
 10
538.1351818205918
 20
77.17791212682391
 10
536.741297820592
 20
75.64109012682411
 10
535.0625248205919
 20
74.06799212682449
 10
533.2413088205918
 20
72.47675612682428
  0
LINE
  5
9B
330
2
100
AcDbEntity
  8
L-CENTER
100
AcDbLine
 10
560.3033608205918
 20
112.851042126824
 30
0.0
 11
560.3033608205918
 21
62.85104212682404
 31
0.0
  0
LINE
  5
9C
330
2
100
AcDbEntity
  8
4
100
AcDbLine
 10
551.3033608205918
 20
102.851042126824
 30
0.0
 11
551.3033608205918
 21
72.85104212682404
 31
0.0
  0
LINE
  5
9D
330
2
100
AcDbEntity
  8
4
100
AcDbLine
 10
569.3033608205918
 20
102.851042126824
 30
0.0
 11
569.3033608205918
 21
72.85104212682404
 31
0.0
  0
LINE
  5
9E
330
2
100
AcDbEntity
  8
4
100
AcDbLine
 10
558.6451588205917
 20
106.1679351268244
 30
0.0
 11
538.3033618205917
 21
141.8551911268241
 31
0.0
  0
ARC
  5
9F
330
2
100
AcDbEntity
  8
4
100
AcDbCircle
 10
544.3033618205917
 20
108.851042126824
 30
0.0
 40
6.0
100
AcDbArc
 50
180.0
 51
270.0023300000006
  0
ARC
  5
A0
330
2
100
AcDbEntity
  8
4
100
AcDbCircle
 10
564.0116128205917
 20
108.851042126824
 30
0.0
 40
6.000021
100
AcDbArc
 50
206.5629630000033
 51
270.0023299999998
  0
LINE
  5
A1
330
2
100
AcDbEntity
  8
4
100
AcDbLine
 10
534.3033598205919
 20
139.8510411268242
 30
0.0
 11
538.3033618205917
 21
139.8510411268242
 31
0.0
  0
LINE
  5
A2
330
2
100
AcDbEntity
  8
4
100
AcDbLine
 10
539.3033608205918
 20
153.851042126824
 30
0.0
 11
538.3033618205917
 21
153.851042126824
 31
0.0
  0
LINE
  5
A3
330
2
100
AcDbEntity
  8
4
100
AcDbLine
 10
585.3033598205919
 20
99.85104212682404
 30
0.0
 11
585.3033598205919
 21
72.85104212682404
 31
0.0
  0
ARC
  5
A4
330
2
100
AcDbEntity
  8
4
100
AcDbCircle
 10
582.3033598205919
 20
99.85104212682404
 30
0.0
 40
3.0
100
AcDbArc
 50
0.0
 51
90.0
  0
LINE
  5
A5
330
2
100
AcDbEntity
  8
4
100
AcDbLine
 10
540.3033598205919
 20
237.851042126824
 30
0.0
 11
280.3033618205917
 21
237.851042126824
 31
0.0
  0
LINE
  5
A6
330
2
100
AcDbEntity
  8
4
100
AcDbLine
 10
534.3033598205919
 20
236.8510401268243
 30
0.0
 11
286.3033618205917
 21
236.8510401268243
 31
0.0
  0
LINE
  5
A7
330
2
100
AcDbEntity
  8
L-CENTER
100
AcDbLine
 10
194.7598048205917
 20
187.8510411268242
 30
0.0
 11
625.8469168205919
 21
187.8510411268242
 31
0.0
  0
LINE
  5
A8
330
2
100
AcDbEntity
  8
4
100
AcDbLine
 10
538.3033618205917
 20
243.851042126824
 30
0.0
 11
282.3033598205919
 21
243.851042126824
 31
0.0
  0
LINE
  5
A9
330
2
100
AcDbEntity
  8
4
100
AcDbLine
 10
283.3033618205917
 20
255.2509431268238
 30
0.0
 11
537.3033598205919
 21
255.2509431268238
 31
0.0
  0
LINE
  5
AA
330
2
100
AcDbEntity
  8
4
100
AcDbLine
 10
281.3033608205918
 20
221.8510401268243
 30
0.0
 11
282.3033598205919
 21
221.8510401268243
 31
0.0
  0
LINE
  5
AB
330
2
100
AcDbEntity
  8
4
100
AcDbLine
 10
282.3033598205919
 20
254.2509441268244
 30
0.0
 11
282.3033598205919
 21
243.851042126824
 31
0.0
  0
LINE
  5
AC
330
2
100
AcDbEntity
  8
4
100
AcDbLine
 10
286.3033618205917
 20
235.8510411268242
 30
0.0
 11
282.3033598205919
 21
235.8510411268242
 31
0.0
  0
LINE
  5
AD
330
2
100
AcDbEntity
  8
4
100
AcDbLine
 10
282.3033598205919
 20
243.851042126824
 30
0.0
 11
282.3033598205919
 21
237.851042126824
 31
0.0
  0
ARC
  5
AE
330
2
100
AcDbEntity
  8
4
100
AcDbCircle
 10
283.3033618205917
 20
254.2509441268244
 30
0.0
 40
0.999999
100
AcDbArc
 50
90.0
 51
180.0
  0
LINE
  5
AF
330
2
100
AcDbEntity
  8
4
100
AcDbLine
 10
476.8037248205918
 20
259.5949641268244
 30
0.0
 11
505.4879308205917
 21
255.2509431268238
 31
0.0
  0
LINE
  5
B0
330
2
100
AcDbEntity
  8
4
100
AcDbLine
 10
383.3033608205918
 20
262.8510411268242
 30
0.0
 11
388.3033618205917
 21
255.2509431268238
 31
0.0
  0
LINE
  5
B1
330
2
100
AcDbEntity
  8
4
100
AcDbLine
 10
365.3033608205918
 20
262.8510411268242
 30
0.0
 11
455.3033608205918
 21
262.8510411268242
 31
0.0
  0
LINE
  5
B2
330
2
100
AcDbEntity
  8
4
100
AcDbLine
 10
369.0672778205918
 20
273.851042126824
 30
0.0
 11
451.5394438205918
 21
273.851042126824
 31
0.0
  0
LINE
  5
B3
330
2
100
AcDbEntity
  8
4
100
AcDbLine
 10
441.3033598205919
 20
274.8510411268242
 30
0.0
 11
379.3033618205917
 21
274.8510411268242
 31
0.0
  0
LINE
  5
B4
330
2
100
AcDbEntity
  8
4
100
AcDbLine
 10
321.3033598205919
 20
260.351042126824
 30
0.0
 11
343.8029608205919
 21
260.351042126824
 31
0.0
  0
LINE
  5
B5
330
2
100
AcDbEntity
  8
4
100
AcDbLine
 10
315.1187908205919
 20
255.2509431268238
 30
0.0
 11
343.8029968205918
 21
259.5949641268244
 31
0.0
  0
LINE
  5
B6
330
2
100
AcDbEntity
  8
4
100
AcDbLine
 10
322.8033598205919
 20
267.851042126824
 30
0.0
 11
347.8033618205917
 21
267.851042126824
 31
0.0
  0
LINE
  5
B7
330
2
100
AcDbEntity
  8
4
100
AcDbLine
 10
322.8033598205919
 20
263.8510401268243
 30
0.0
 11
343.8033608205918
 21
263.8510401268243
 31
0.0
  0
LINE
  5
B8
330
2
100
AcDbEntity
  8
4
100
AcDbLine
 10
322.8033598205919
 20
261.851042126824
 30
0.0
 11
343.8028828205919
 21
261.851042126824
 31
0.0
  0
LINE
  5
B9
330
2
100
AcDbEntity
  8
4
100
AcDbLine
 10
322.8033598205919
 20
261.851042126824
 30
0.0
 11
322.8033598205919
 21
267.851042126824
 31
0.0
  0
LINE
  5
BA
330
2
100
AcDbEntity
  8
L-CENTER
100
AcDbLine
 10
335.3033608205918
 20
271.3461621268243
 30
0.0
 11
335.3033608205918
 21
251.2348311268245
 31
0.0
  0
LINE
  5
BB
330
2
100
AcDbEntity
  8
4
100
AcDbLine
 10
321.3033598205919
 20
256.1875521268244
 30
0.0
 11
321.3033598205919
 21
260.351042126824
 31
0.0
  0
LINE
  5
BC
330
2
100
AcDbEntity
  8
4
100
AcDbLine
 10
323.8033618205917
 20
260.351042126824
 30
0.0
 11
323.8033618205917
 21
261.851042126824
 31
0.0
  0
LINE
  5
BD
330
2
100
AcDbEntity
  8
4
100
AcDbLine
 10
329.0533618205917
 20
263.8510401268243
 30
0.0
 11
329.0533618205917
 21
267.851042126824
 31
0.0
  0
LINE
  5
BE
330
2
100
AcDbEntity
  8
4
100
AcDbLine
 10
356.8028968205919
 20
261.5637051268241
 30
0.0
 11
365.3033608205918
 21
262.8510411268242
 31
0.0
  0
LINE
  5
BF
330
2
100
AcDbEntity
  8
4
100
AcDbLine
 10
347.8033618205917
 20
267.851042126824
 30
0.0
 11
347.8033618205917
 21
265.2510421268241
 31
0.0
  0
LINE
  5
C0
330
2
100
AcDbEntity
  8
4
100
AcDbLine
 10
341.5533598205919
 20
263.8510401268243
 30
0.0
 11
341.5533598205919
 21
267.851042126824
 31
0.0
  0
ARC
  5
C1
330
2
100
AcDbEntity
  8
4
100
AcDbCircle
 10
369.0672778205918
 20
272.8510401268243
 30
0.0
 40
1.000047
100
AcDbArc
 50
90.0
 51
164.742409000015
  0
LINE
  5
C2
330
2
100
AcDbEntity
  8
4
100
AcDbLine
 10
368.1024328205918
 20
273.1142241268242
 30
0.0
 11
365.3033608205918
 21
262.8510411268242
 31
0.0
  0
LINE
  5
C3
330
2
100
AcDbEntity
  8
4
100
AcDbLine
 10
379.3033618205917
 20
273.851042126824
 30
0.0
 11
379.3033618205917
 21
274.8510411268242
 31
0.0
  0
LINE
  5
C4
330
2
100
AcDbEntity
  8
4
100
AcDbLine
 10
437.3033608205918
 20
262.8510411268242
 30
0.0
 11
432.3033598205919
 21
255.2509431268238
 31
0.0
  0
LINE
  5
C5
330
2
100
AcDbEntity
  8
4
100
AcDbLine
 10
455.3033608205918
 20
262.8510411268242
 30
0.0
 11
463.8038248205918
 21
261.5637051268241
 31
0.0
  0
LINE
  5
C6
330
2
100
AcDbEntity
  8
4
100
AcDbLine
 10
441.3033598205919
 20
274.8510411268242
 30
0.0
 11
441.3033598205919
 21
273.851042126824
 31
0.0
  0
LINE
  5
C7
330
2
100
AcDbEntity
  8
4
100
AcDbLine
 10
452.5042888205918
 20
273.1142241268242
 30
0.0
 11
455.3033608205918
 21
262.8510411268242
 31
0.0
  0
ARC
  5
C8
330
2
100
AcDbEntity
  8
4
100
AcDbCircle
 10
451.5394438205918
 20
272.8510401268243
 30
0.0
 40
1.000047
100
AcDbArc
 50
15.25759099998502
 51
90.0
  0
LINE
  5
C9
330
2
100
AcDbEntity
  8
4
100
AcDbLine
 10
565.3033618205917
 20
204.3510411268242
 30
0.0
 11
620.3033608205918
 21
204.3510411268242
 31
0.0
  0
LINE
  5
CA
330
2
100
AcDbEntity
  8
4
100
AcDbLine
 10
560.3033608205918
 20
201.3510411268242
 30
0.0
 11
619.3033618205917
 21
201.3510411268242
 31
0.0
  0
LINE
  5
CB
330
2
100
AcDbEntity
  8
4
100
AcDbLine
 10
560.3033608205918
 20
174.3510411268242
 30
0.0
 11
619.3033618205917
 21
174.3510411268242
 31
0.0
  0
LINE
  5
CC
330
2
100
AcDbEntity
  8
4
100
AcDbLine
 10
540.3033598205919
 20
202.8510411268242
 30
0.0
 11
540.3033598205919
 21
237.851042126824
 31
0.0
  0
LINE
  5
CD
330
2
100
AcDbEntity
  8
4
100
AcDbLine
 10
560.3033608205918
 20
202.8510411268242
 30
0.0
 11
560.3033608205918
 21
172.8510411268242
 31
0.0
  0
LINE
  5
CE
330
2
100
AcDbEntity
  8
4
100
AcDbLine
 10
539.3033608205918
 20
172.8510411268242
 30
0.0
 11
560.3033608205918
 21
172.8510411268242
 31
0.0
  0
LINE
  5
CF
330
2
100
AcDbEntity
  8
4
100
AcDbLine
 10
539.3033608205918
 20
202.8510411268242
 30
0.0
 11
560.3033608205918
 21
202.8510411268242
 31
0.0
  0
LINE
  5
D0
330
2
100
AcDbEntity
  8
4
100
AcDbLine
 10
539.3033608205918
 20
221.8510401268243
 30
0.0
 11
538.3033618205917
 21
221.8510401268243
 31
0.0
  0
LINE
  5
D1
330
2
100
AcDbEntity
  8
4
100
AcDbLine
 10
565.3033618205917
 20
204.3510411268242
 30
0.0
 11
565.3033618205917
 21
201.3510411268242
 31
0.0
  0
LINE
  5
D2
330
2
100
AcDbEntity
  8
4
100
AcDbLine
 10
538.3033618205917
 20
254.2509441268244
 30
0.0
 11
538.3033618205917
 21
243.851042126824
 31
0.0
  0
LINE
  5
D3
330
2
100
AcDbEntity
  8
4
100
AcDbLine
 10
534.3033598205919
 20
235.8510411268242
 30
0.0
 11
538.3033618205917
 21
235.8510411268242
 31
0.0
  0
LINE
  5
D4
330
2
100
AcDbEntity
  8
4
100
AcDbLine
 10
538.3033618205917
 20
237.851042126824
 30
0.0
 11
538.3033618205917
 21
243.851042126824
 31
0.0
  0
ARC
  5
D5
330
2
100
AcDbEntity
  8
4
100
AcDbCircle
 10
537.3033598205919
 20
254.2509441268244
 30
0.0
 40
0.999999
100
AcDbArc
 50
0.0
 51
90.0
  0
LINE
  5
D6
330
2
100
AcDbEntity
  8
4
100
AcDbLine
 10
620.3033608205918
 20
175.3510401268243
 30
0.0
 11
620.3033608205918
 21
204.3510411268242
 31
0.0
  0
LINE
  5
D7
330
2
100
AcDbEntity
  8
4
100
AcDbLine
 10
619.3033618205917
 20
201.3510411268242
 30
0.0
 11
619.3033618205917
 21
174.3510411268242
 31
0.0
  0
LINE
  5
D8
330
2
100
AcDbEntity
  8
4
100
AcDbLine
 10
620.3033608205918
 20
175.3510401268243
 30
0.0
 11
619.3033618205917
 21
174.3510411268242
 31
0.0
  0
LINE
  5
D9
330
2
100
AcDbEntity
  8
4
100
AcDbLine
 10
619.3033618205917
 20
201.3510411268242
 30
0.0
 11
620.3033608205918
 21
200.351042126824
 31
0.0
  0
CIRCLE
  5
DA
330
2
100
AcDbEntity
  8
4
100
AcDbCircle
 10
842.9874257406669
 20
187.8510411268242
 30
0.0
 40
36.0
  0
LINE
  5
DB
330
2
100
AcDbEntity
  8
L-CENTER
100
AcDbLine
 10
965.9874257406673
 20
371.5038729498269
 30
0.0
 11
965.9874257406673
 21
95.26604170314795
 31
0.0
  0
CIRCLE
  5
DC
330
2
100
AcDbEntity
  8
4
100
AcDbCircle
 10
842.9874257406669
 20
187.8510411268242
 30
0.0
 40
48.0
  0
ARC
  5
DD
330
2
100
AcDbEntity
  8
4
100
AcDbCircle
 10
1143.987427740667
 20
187.8510411268242
 30
0.0
 40
349.999968
100
AcDbArc
 50
173.0927989999922
 51
186.9082859999862
  0
LINE
  5
DE
330
2
100
AcDbEntity
  8
4
100
AcDbLine
 10
1096.987426740667
 20
157.8510401268243
 30
0.0
 11
1096.987426740667
 21
123.8510411268242
 31
0.0
  0
LINE
  5
DF
330
2
100
AcDbEntity
  8
4
100
AcDbLine
 10
1095.987427740667
 20
121.8510411268242
 30
0.0
 11
1095.987427740667
 21
237.851042126824
 31
0.0
  0
LINE
  5
E0
330
2
100
AcDbEntity
  8
L-CENTER
100
AcDbLine
 10
842.9874257406669
 20
244.1847801268241
 30
0.0
 11
842.9874257406669
 21
131.5173021268242
 31
0.0
  0
LINE
  5
E1
330
2
100
AcDbEntity
  8
4
100
AcDbLine
 10
905.9874257406668
 20
119.8510401268243
 30
0.0
 11
1025.987425740667
 21
119.8510401268243
 31
0.0
  0
LINE
  5
E2
330
2
100
AcDbEntity
  8
4
100
AcDbLine
 10
1001.305054740667
 20
101.8510401268243
 30
0.0
 11
930.669799740667
 21
101.8510401268243
 31
0.0
  0
LINE
  5
E3
330
2
100
AcDbEntity
  8
4
100
AcDbLine
 10
845.9874257406669
 20
72.85104212682404
 30
0.0
 11
905.9874257406668
 21
72.85104212682404
 31
0.0
  0
LINE
  5
E4
330
2
100
AcDbEntity
  8
4
100
AcDbLine
 10
902.9874257406668
 20
102.851042126824
 30
0.0
 11
848.9874257406669
 21
102.851042126824
 31
0.0
  0
LINE
  5
E5
330
2
100
AcDbEntity
  8
L-CENTER
100
AcDbLine
 10
865.987426740667
 20
112.851042126824
 30
0.0
 11
865.987426740667
 21
62.85104212682404
 31
0.0
  0
LINE
  5
E6
330
2
100
AcDbEntity
  8
4
100
AcDbLine
 10
845.9874257406669
 20
133.8566571268243
 30
0.0
 11
845.9874257406669
 21
72.85104212682404
 31
0.0
  0
ARC
  5
E7
330
2
100
AcDbEntity
  8
4
100
AcDbCircle
 10
840.9874277406672
 20
133.8566571268243
 30
0.0
 40
5.00004
100
AcDbArc
 50
0.0
 51
89.67827600000007
  0
ARC
  5
E8
330
2
100
AcDbEntity
  8
4
100
AcDbCircle
 10
842.9874257406669
 20
488.8510401268243
 30
0.0
 40
349.999938
100
AcDbArc
 50
263.0927599999997
 51
269.6779889999994
  0
ARC
  5
E9
330
2
100
AcDbEntity
  8
4
100
AcDbCircle
 10
801.492064740667
 20
146.3556801268239
 30
0.0
 40
4.999943999999999
100
AcDbArc
 50
186.9102120000095
 51
263.089788000001
  0
ARC
  5
EA
330
2
100
AcDbEntity
  8
4
100
AcDbCircle
 10
848.9874257406669
 20
99.85104212682404
 30
0.0
 40
3.0
100
AcDbArc
 50
90.0
 51
180.0
  0
LINE
  5
EB
330
2
100
AcDbEntity
  8
4
100
AcDbLine
 10
895.9874267406672
 20
141.8551911268241
 30
0.0
 11
895.9874267406672
 21
72.85104212682404
 31
0.0
  0
LINE
  5
EC
330
2
100
AcDbEntity
  8
4
100
AcDbLine
 10
905.9874257406668
 20
141.8551911268241
 30
0.0
 11
905.9874257406668
 21
72.85104212682404
 31
0.0
  0
LINE
  5
ED
330
2
100
AcDbEntity
  8
4
100
AcDbLine
 10
905.9874257406668
 20
107.8510401268243
 30
0.0
 11
927.664429740667
 21
107.8510401268243
 31
0.0
  0
ARC
  5
EE
330
2
100
AcDbEntity
  8
4
100
AcDbCircle
 10
902.9874257406668
 20
99.85104212682404
 30
0.0
 40
3.0
100
AcDbArc
 50
0.0
 51
90.0
  0
ARC
  5
EF
330
2
100
AcDbEntity
  8
4
100
AcDbCircle
 10
892.9874267406672
 20
99.85104212682404
 30
0.0
 40
3.0
100
AcDbArc
 50
0.0
 51
90.0
  0
LINE
  5
F0
330
2
100
AcDbEntity
  8
4
100
AcDbLine
 10
928.1099837406668
 20
103.286588126824
 30
0.0
 11
925.320679740667
 21
107.8510401268243
 31
0.0
  0
ARC
  5
F1
330
2
100
AcDbEntity
  8
4
100
AcDbCircle
 10
930.669799740667
 20
104.8510401268243
 30
0.0
 40
3.000015
100
AcDbArc
 50
211.4315469999988
 51
270.0
  0
LINE
  5
F2
330
2
100
AcDbEntity
  8
4
100
AcDbLine
 10
920.3311757406673
 20
119.8510401268243
 30
0.0
 11
927.664429740667
 21
107.8510401268243
 31
0.0
  0
LINE
  5
F3
330
2
100
AcDbEntity
  8
4
100
AcDbLine
 10
895.9874267406672
 20
141.8551911268241
 30
0.0
 11
905.9874257406668
 21
141.8551911268241
 31
0.0
  0
LINE
  5
F4
330
2
100
AcDbEntity
  8
4
100
AcDbLine
 10
1093.987426740667
 20
119.8510401268243
 30
0.0
 11
1087.987426740667
 21
119.8510401268243
 31
0.0
  0
LINE
  5
F5
330
2
100
AcDbEntity
  8
L-CENTER
100
AcDbLine
 10
1065.987427740667
 20
112.851042126824
 30
0.0
 11
1065.987427740667
 21
62.85104212682404
 31
0.0
  0
LINE
  5
F6
330
2
100
AcDbEntity
  8
4
100
AcDbLine
 10
1025.987425740667
 20
141.8551911268241
 30
0.0
 11
1025.987425740667
 21
72.85104212682404
 31
0.0
  0
LINE
  5
F7
330
2
100
AcDbEntity
  8
4
100
AcDbLine
 10
1035.987427740667
 20
141.8551911268241
 30
0.0
 11
1035.987427740667
 21
72.85104212682404
 31
0.0
  0
LINE
  5
F8
330
2
100
AcDbEntity
  8
4
100
AcDbLine
 10
1085.987425740667
 20
117.851042126824
 30
0.0
 11
1085.987425740667
 21
72.85104212682404
 31
0.0
  0
LINE
  5
F9
330
2
100
AcDbEntity
  8
4
100
AcDbLine
 10
1025.987425740667
 20
72.85104212682404
 30
0.0
 11
1085.987425740667
 21
72.85104212682404
 31
0.0
  0
ARC
  5
FA
330
2
100
AcDbEntity
  8
4
100
AcDbCircle
 10
1038.987427740667
 20
99.85104212682404
 30
0.0
 40
3.0
100
AcDbArc
 50
90.0
 51
180.0
  0
LINE
  5
FB
330
2
100
AcDbEntity
  8
4
100
AcDbLine
 10
1082.987425740667
 20
102.851042126824
 30
0.0
 11
1028.987425740667
 21
102.851042126824
 31
0.0
  0
LINE
  5
FC
330
2
100
AcDbEntity
  8
4
100
AcDbLine
 10
1025.987425740667
 20
107.8510401268243
 30
0.0
 11
1004.309935740667
 21
107.8510401268243
 31
0.0
  0
LINE
  5
FD
330
2
100
AcDbEntity
  8
4
100
AcDbLine
 10
1003.864867740667
 20
103.286588126824
 30
0.0
 11
1006.654174740667
 21
107.8510401268243
 31
0.0
  0
ARC
  5
FE
330
2
100
AcDbEntity
  8
4
100
AcDbCircle
 10
1001.305054740667
 20
104.8510401268243
 30
0.0
 40
2.999949
100
AcDbArc
 50
270.0
 51
328.5724190000086
  0
LINE
  5
FF
330
2
100
AcDbEntity
  8
4
100
AcDbLine
 10
1004.310181740667
 20
107.8510401268243
 30
0.0
 11
1011.643432740667
 21
119.8510401268243
 31
0.0
  0
ARC
  5
100
330
2
100
AcDbEntity
  8
4
100
AcDbCircle
 10
1028.987425740667
 20
99.85104212682404
 30
0.0
 40
3.0
100
AcDbArc
 50
90.0
 51
180.0
  0
LINE
  5
101
330
2
100
AcDbEntity
  8
4
100
AcDbLine
 10
1025.987425740667
 20
141.8551911268241
 30
0.0
 11
1035.987427740667
 21
141.8551911268241
 31
0.0
  0
ARC
  5
102
330
2
100
AcDbEntity
  8
4
100
AcDbCircle
 10
1082.987425740667
 20
99.85104212682404
 30
0.0
 40
3.0
100
AcDbArc
 50
0.0
 51
90.0
  0
ARC
  5
103
330
2
100
AcDbEntity
  8
4
100
AcDbCircle
 10
1087.987426740667
 20
117.851042126824
 30
0.0
 40
2.000001
100
AcDbArc
 50
90.0
 51
180.0
  0
ARC
  5
104
330
2
100
AcDbEntity
  8
4
100
AcDbCircle
 10
1093.987426740667
 20
121.8510411268242
 30
0.0
 40
2.000001
100
AcDbArc
 50
270.0
 51
0.0
  0
LINE
  5
105
330
2
100
AcDbEntity
  8
4
100
AcDbLine
 10
1098.987328740667
 20
141.5890781268242
 30
0.0
 11
1098.987328740667
 21
128.1130031268242
 31
0.0
  0
LINE
  5
106
330
2
100
AcDbEntity
  8
4
100
AcDbLine
 10
1096.987426740667
 20
123.8510411268242
 30
0.0
 11
1095.987427740667
 21
123.8510411268242
 31
0.0
  0
LINE
  5
107
330
2
100
AcDbEntity
  8
4
100
AcDbLine
 10
1096.987426740667
 20
128.2753571268242
 30
0.0
 11
1098.987328740667
 21
128.1130031268242
 31
0.0
  0
LINE
  5
108
330
2
100
AcDbEntity
  8
L-CENTER
100
AcDbLine
 10
1100.629876740667
 20
134.851042126824
 30
0.0
 11
1088.436400740667
 21
134.851042126824
 31
0.0
  0
LINE
  5
109
330
2
100
AcDbEntity
  8
4
100
AcDbLine
 10
1096.987426740667
 20
141.4267241268242
 30
0.0
 11
1098.987328740667
 21
141.5890781268242
 31
0.0
  0
LINE
  5
10A
330
2
100
AcDbEntity
  8
L-CENTER
100
AcDbLine
 10
786.653686740667
 20
187.8510411268242
 30
0.0
 11
1097.000609720286
 21
187.8510411268242
 31
0.0
  0
LINE
  5
10B
330
2
100
AcDbEntity
  8
4
100
AcDbLine
 10
992.9874257406673
 20
262.8510411268242
 30
0.0
 11
987.987427740667
 21
255.2509431268238
 31
0.0
  0
LINE
  5
10C
330
2
100
AcDbEntity
  8
4
100
AcDbLine
 10
835.987426740667
 20
237.851042126824
 30
0.0
 11
1095.987427740667
 21
237.851042126824
 31
0.0
  0
LINE
  5
10D
330
2
100
AcDbEntity
  8
4
100
AcDbLine
 10
837.9874277406672
 20
243.851042126824
 30
0.0
 11
1093.987426740667
 21
243.851042126824
 31
0.0
  0
LINE
  5
10E
330
2
100
AcDbEntity
  8
4
100
AcDbLine
 10
838.987426740667
 20
255.2509431268238
 30
0.0
 11
1092.987427740667
 21
255.2509431268238
 31
0.0
  0
LINE
  5
10F
330
2
100
AcDbEntity
  8
4
100
AcDbLine
 10
924.751342740667
 20
273.851042126824
 30
0.0
 11
1007.223511740667
 21
273.851042126824
 31
0.0
  0
LINE
  5
110
330
2
100
AcDbEntity
  8
4
100
AcDbLine
 10
920.9874257406673
 20
262.8510411268242
 30
0.0
 11
959.4874257406673
 21
262.8510411268242
 31
0.0
  0
LINE
  5
111
330
2
100
AcDbEntity
  8
4
100
AcDbLine
 10
996.987427740667
 20
274.8510411268242
 30
0.0
 11
934.9874267406672
 21
274.8510411268242
 31
0.0
  0
LINE
  5
112
330
2
100
AcDbEntity
  8
4
100
AcDbLine
 10
910.9874267406672
 20
236.8510401268243
 30
0.0
 11
842.9874257406669
 21
236.8510401268243
 31
0.0
  0
LINE
  5
113
330
2
100
AcDbEntity
  8
4
100
AcDbLine
 10
870.802855740667
 20
255.2509431268238
 30
0.0
 11
920.9874257406673
 21
262.8510411268242
 31
0.0
  0
ARC
  5
114
330
2
100
AcDbEntity
  8
4
100
AcDbCircle
 10
842.9874257406669
 20
187.8510411268242
 30
0.0
 40
13.499928
100
AcDbArc
 50
105.0261950000006
 51
74.9738049999994
  0
LINE
  5
115
330
2
100
AcDbEntity
  8
4
100
AcDbLine
 10
846.487426740667
 20
197.351042126824
 30
0.0
 11
839.4874277406672
 21
197.351042126824
 31
0.0
  0
LINE
  5
116
330
2
100
AcDbEntity
  8
4
100
AcDbLine
 10
846.487426740667
 20
204.3510411268242
 30
0.0
 11
839.4874277406672
 21
204.3510411268242
 31
0.0
  0
LINE
  5
117
330
2
100
AcDbEntity
  8
4
100
AcDbLine
 10
839.4874277406672
 20
204.3510411268242
 30
0.0
 11
839.4874277406672
 21
197.351042126824
 31
0.0
  0
LINE
  5
118
330
2
100
AcDbEntity
  8
4
100
AcDbLine
 10
846.487426740667
 20
197.351042126824
 30
0.0
 11
846.487426740667
 21
204.3510411268242
 31
0.0
  0
ARC
  5
119
330
2
100
AcDbEntity
  8
4
100
AcDbCircle
 10
842.9874257406669
 20
-113.148957873176
 30
0.0
 40
350.000013
100
AcDbArc
 50
90.0
 51
96.90832600000019
  0
ARC
  5
11A
330
2
100
AcDbEntity
  8
4
100
AcDbCircle
 10
801.492064740667
 20
229.3464021268244
 30
0.0
 40
4.999943999999999
100
AcDbArc
 50
96.91021199999904
 51
173.0897879999905
  0
LINE
  5
11B
330
2
100
AcDbEntity
  8
4
100
AcDbLine
 10
837.9874277406672
 20
254.2509441268244
 30
0.0
 11
837.9874277406672
 21
243.851042126824
 31
0.0
  0
LINE
  5
11C
330
2
100
AcDbEntity
  8
4
100
AcDbLine
 10
835.987426740667
 20
236.7809721268238
 30
0.0
 11
835.987426740667
 21
237.851042126824
 31
0.0
  0
LINE
  5
11D
330
2
100
AcDbEntity
  8
4
100
AcDbLine
 10
837.9874277406672
 20
237.851042126824
 30
0.0
 11
837.9874277406672
 21
243.851042126824
 31
0.0
  0
ARC
  5
11E
330
2
100
AcDbEntity
  8
4
100
AcDbCircle
 10
838.987426740667
 20
254.2509441268244
 30
0.0
 40
0.999999
100
AcDbArc
 50
90.0
 51
180.0
  0
LINE
  5
11F
330
2
100
AcDbEntity
  8
4
100
AcDbLine
 10
938.9874257406673
 20
262.8510411268242
 30
0.0
 11
943.9874267406672
 21
255.2509431268238
 31
0.0
  0
LINE
  5
120
330
2
100
AcDbEntity
  8
4
100
AcDbLine
 10
910.9874267406672
 20
237.851042126824
 30
0.0
 11
910.9874267406672
 21
236.8510401268243
 31
0.0
  0
LINE
  5
121
330
2
100
AcDbEntity
  8
4
100
AcDbLine
 10
923.7864977406671
 20
273.1142241268242
 30
0.0
 11
920.9874257406673
 21
262.8510411268242
 31
0.0
  0
ARC
  5
122
330
2
100
AcDbEntity
  8
4
100
AcDbCircle
 10
924.751342740667
 20
272.8510401268243
 30
0.0
 40
1.000047
100
AcDbArc
 50
90.0
 51
164.742409000015
  0
LINE
  5
123
330
2
100
AcDbEntity
  8
4
100
AcDbLine
 10
934.9874267406672
 20
273.851042126824
 30
0.0
 11
934.9874267406672
 21
274.8510411268242
 31
0.0
  0
LINE
  5
124
330
2
100
AcDbEntity
  8
4
100
AcDbLine
 10
1061.171995740667
 20
255.2509431268238
 30
0.0
 11
1010.987425740667
 21
262.8510411268242
 31
0.0
  0
LINE
  5
125
330
2
100
AcDbEntity
  8
4
100
AcDbLine
 10
996.987427740667
 20
274.8510411268242
 30
0.0
 11
996.987427740667
 21
273.851042126824
 31
0.0
  0
ARC
  5
126
330
2
100
AcDbEntity
  8
4
100
AcDbCircle
 10
1007.223511740667
 20
272.8510401268243
 30
0.0
 40
1.000047
100
AcDbArc
 50
15.25760599999424
 51
90.0
  0
LINE
  5
127
330
2
100
AcDbEntity
  8
4
100
AcDbLine
 10
1008.188353740667
 20
273.1142241268242
 30
0.0
 11
1010.987425740667
 21
262.8510411268242
 31
0.0
  0
LINE
  5
128
330
2
100
AcDbEntity
  8
4
100
AcDbLine
 10
1097.987425740667
 20
157.8510401268243
 30
0.0
 11
1097.987425740667
 21
197.851042126824
 31
0.0
  0
LINE
  5
129
330
2
100
AcDbEntity
  8
4
100
AcDbLine
 10
1106.487427740667
 20
192.8510411268242
 30
0.0
 11
1106.487427740667
 21
162.8510411268242
 31
0.0
  0
LINE
  5
12A
330
2
100
AcDbEntity
  8
4
100
AcDbLine
 10
1101.487426740667
 20
192.8510411268242
 30
0.0
 11
1101.487426740667
 21
162.8510411268242
 31
0.0
  0
LINE
  5
12B
330
2
100
AcDbEntity
  8
4
100
AcDbLine
 10
1099.487425740667
 20
192.8510411268242
 30
0.0
 11
1099.487425740667
 21
162.8510411268242
 31
0.0
  0
LINE
  5
12C
330
2
100
AcDbEntity
  8
4
100
AcDbLine
 10
1097.987425740667
 20
191.851042126824
 30
0.0
 11
1097.987425740667
 21
163.8510401268243
 31
0.0
  0
LINE
  5
12D
330
2
100
AcDbEntity
  8
4
100
AcDbLine
 10
1106.487427740667
 20
162.8510411268242
 30
0.0
 11
1099.487425740667
 21
162.8510411268242
 31
0.0
  0
LINE
  5
12E
330
2
100
AcDbEntity
  8
4
100
AcDbLine
 10
1096.987426740667
 20
157.8510401268243
 30
0.0
 11
1097.987425740667
 21
157.8510401268243
 31
0.0
  0
LINE
  5
12F
330
2
100
AcDbEntity
  8
4
100
AcDbLine
 10
1099.487425740667
 20
163.8510401268243
 30
0.0
 11
1097.987425740667
 21
163.8510401268243
 31
0.0
  0
LINE
  5
130
330
2
100
AcDbEntity
  8
4
100
AcDbLine
 10
1101.487426740667
 20
170.3510411268242
 30
0.0
 11
1106.487427740667
 21
170.3510411268242
 31
0.0
  0
LINE
  5
131
330
2
100
AcDbEntity
  8
4
100
AcDbLine
 10
1099.487425740667
 20
192.8510411268242
 30
0.0
 11
1106.487427740667
 21
192.8510411268242
 31
0.0
  0
LINE
  5
132
330
2
100
AcDbEntity
  8
4
100
AcDbLine
 10
1095.987427740667
 20
197.851042126824
 30
0.0
 11
1097.987425740667
 21
197.851042126824
 31
0.0
  0
LINE
  5
133
330
2
100
AcDbEntity
  8
4
100
AcDbLine
 10
1099.487425740667
 20
191.851042126824
 30
0.0
 11
1097.987425740667
 21
191.851042126824
 31
0.0
  0
LINE
  5
134
330
2
100
AcDbEntity
  8
4
100
AcDbLine
 10
1101.487426740667
 20
185.3510411268242
 30
0.0
 11
1106.487427740667
 21
185.3510411268242
 31
0.0
  0
LINE
  5
135
330
2
100
AcDbEntity
  8
4
100
AcDbLine
 10
1093.987426740667
 20
254.2509441268244
 30
0.0
 11
1093.987426740667
 21
243.851042126824
 31
0.0
  0
LINE
  5
136
330
2
100
AcDbEntity
  8
4
100
AcDbLine
 10
1093.987426740667
 20
243.851042126824
 30
0.0
 11
1093.987426740667
 21
237.851042126824
 31
0.0
  0
ARC
  5
137
330
2
100
AcDbEntity
  8
4
100
AcDbCircle
 10
1092.987427740667
 20
254.2509441268244
 30
0.0
 40
0.999999
100
AcDbArc
 50
0.0
 51
90.0
  0
LINE
  5
148
330
2
100
AcDbEntity
  8
L-CENTER
 48
0.8
100
AcDbLine
 10
1112.640268160914
 20
177.8510411268242
 30
0.0
 11
1083.736144813933
 21
177.8510411268242
 31
0.0
  0
LINE
  5
15B
330
2
100
AcDbEntity
  8
4
100
AcDbLine
 10
965.9874257406673
 20
366.851042126824
 30
0.0
 11
984.987427740667
 21
366.851042126824
 31
0.0
  0
LINE
  5
15C
330
2
100
AcDbEntity
  8
4
100
AcDbLine
 10
983.9874257406673
 20
367.8510411268242
 30
0.0
 11
943.4874257406673
 21
367.8510411268242
 31
0.0
  0
LINE
  5
15D
330
2
100
AcDbEntity
  8
4
100
AcDbLine
 10
983.9874257406673
 20
367.8510411268242
 30
0.0
 11
943.4874257406673
 21
367.8510411268242
 31
0.0
  0
LINE
  5
15E
330
2
100
AcDbEntity
  8
4
100
AcDbLine
 10
985.9874267406672
 20
292.8510411268242
 30
0.0
 11
945.987427740667
 21
292.8510411268242
 31
0.0
  0
LINE
  5
15F
330
2
100
AcDbEntity
  8
4
100
AcDbLine
 10
984.987427740667
 20
292.8510411268242
 30
0.0
 11
984.987427740667
 21
366.851042126824
 31
0.0
  0
LINE
  5
160
330
2
100
AcDbEntity
  8
4
100
AcDbLine
 10
985.9874267406672
 20
274.8510411268242
 30
0.0
 11
985.9874267406672
 21
292.8510411268242
 31
0.0
  0
LINE
  5
161
330
2
100
AcDbEntity
  8
4
100
AcDbLine
 10
983.9874257406673
 20
367.8510411268242
 30
0.0
 11
984.987427740667
 21
366.851042126824
 31
0.0
  0
LINE
  5
162
330
2
100
AcDbEntity
  8
4
100
AcDbLine
 10
946.9874267406672
 20
292.8510411268242
 30
0.0
 11
946.9874267406672
 21
366.851042126824
 31
0.0
  0
LINE
  5
163
330
2
100
AcDbEntity
  8
4
100
AcDbLine
 10
947.9874257406673
 20
367.8510411268242
 30
0.0
 11
946.9874267406672
 21
366.851042126824
 31
0.0
  0
LINE
  5
164
330
2
100
AcDbEntity
  8
4
100
AcDbLine
 10
946.9874267406672
 20
366.851042126824
 30
0.0
 11
965.9874257406673
 21
366.851042126824
 31
0.0
  0
LINE
  5
165
330
2
100
AcDbEntity
  8
4
100
AcDbLine
 10
943.4874257406673
 20
367.8510411268242
 30
0.0
 11
943.4874257406673
 21
297.851042126824
 31
0.0
  0
LINE
  5
166
330
2
100
AcDbEntity
  8
4
100
AcDbLine
 10
946.9874267406672
 20
297.851042126824
 30
0.0
 11
943.4874257406673
 21
297.851042126824
 31
0.0
  0
LINE
  5
167
330
2
100
AcDbEntity
  8
4
100
AcDbLine
 10
945.987427740667
 20
274.8510411268242
 30
0.0
 11
945.987427740667
 21
292.8510411268242
 31
0.0
  0
LINE
  5
169
330
2
100
AcDbEntity
  8
4
100
AcDbLine
 10
934.9874267406672
 20
273.851042126824
 30
0.0
 11
934.9874267406672
 21
274.8510411268242
 31
0.0
  0
LINE
  5
1D2
330
2
100
AcDbEntity
  8
4
100
AcDbLine
 10
568.8033608205918
 20
530.5019445555636
 30
0.0
 11
620.3033598205919
 21
530.5019445555636
 31
0.0
  0
LINE
  5
1D3
330
2
100
AcDbEntity
  8
4
100
AcDbLine
 10
568.8033608205918
 20
537.5019445555636
 30
0.0
 11
620.3033598205919
 21
537.5019445555636
 31
0.0
  0
LINE
  5
1D4
330
2
100
AcDbEntity
  8
4
100
AcDbLine
 10
560.3033598205919
 20
547.5019445555636
 30
0.0
 11
619.3033608205918
 21
547.5019445555636
 31
0.0
  0
LINE
  5
1D5
330
2
100
AcDbEntity
  8
4
100
AcDbLine
 10
560.3033598205919
 20
520.5019445555636
 30
0.0
 11
619.3033608205918
 21
520.5019445555636
 31
0.0
  0
LINE
  5
1D6
330
2
100
AcDbEntity
  8
L-CENTER
100
AcDbLine
 10
194.7598048205917
 20
534.0019445555636
 30
0.0
 11
625.8469168205918
 21
534.0019445555636
 31
0.0
  0
LINE
  5
20A
330
2
100
AcDbEntity
  8
L-CENTER
100
AcDbLine
 10
290.3033608205918
 20
268.7371585088961
 30
0.0
 11
290.3033608205918
 21
236.269578707854
 31
0.0
  0
LINE
  5
20B
330
2
100
AcDbEntity
  8
L-CENTER
100
AcDbLine
 10
350.3033608205918
 20
268.7371585088961
 30
0.0
 11
350.3033608205918
 21
236.269578707854
 31
0.0
  0
LINE
  5
21D
330
2
100
AcDbEntity
  8
4
100
AcDbLine
 10
281.3033618205917
 20
570.0019435555637
 30
0.0
 11
281.3033618205917
 21
498.0019455555635
 31
0.0
  0
ARC
  5
21E
330
2
100
AcDbEntity
  8
4
100
AcDbCircle
 10
568.8033608205918
 20
534.0019445555636
 30
0.0
 40
3.5
100
AcDbArc
 50
90.0
 51
270.0
  0
LINE
  5
21F
330
2
100
AcDbEntity
  8
4
100
AcDbLine
 10
560.3033598205919
 20
549.0019445555636
 30
0.0
 11
560.3033598205919
 21
519.0019445555636
 31
0.0
  0
LINE
  5
220
330
2
100
AcDbEntity
  8
4
100
AcDbLine
 10
539.3033598205919
 20
570.0019435555637
 30
0.0
 11
539.3033598205919
 21
498.0019455555635
 31
0.0
  0
LINE
  5
221
330
2
100
AcDbEntity
  8
4
100
AcDbLine
 10
534.5713100130232
 20
485.0019445555636
 30
0.0
 11
534.5713100130232
 21
583.7078031911612
 31
0.0
  0
CIRCLE
  5
222
330
2
100
AcDbEntity
  8
L-CENTER
100
AcDbCircle
 10
410.3033608205918
 20
657.0019445555636
 30
0.0
 40
120.0
  0
CIRCLE
  5
223
330
2
100
AcDbEntity
  8
4
100
AcDbCircle
 10
410.3033608205918
 20
657.0019445555636
 30
0.0
 40
128.0
  0
LINE
  5
224
330
2
100
AcDbEntity
  8
4
100
AcDbLine
 10
538.3033608205918
 20
582.0019445555636
 30
0.0
 11
538.3033608205918
 21
486.0019445555636
 31
0.0
  0
LINE
  5
225
330
2
100
AcDbEntity
  8
L-CENTER
100
AcDbLine
 10
410.3033608205918
 20
802.9623619718218
 30
0.0
 11
410.3033608205918
 21
479.655413409543
 31
0.0
  0
ARC
  5
226
330
2
100
AcDbEntity
  8
4
100
AcDbCircle
 10
410.3033608205918
 20
957.0019445555636
 30
0.0
 40
430.0
100
AcDbArc
 50
257.6192010828533
 51
285.0572644549257
  0
LINE
  5
227
330
2
100
AcDbEntity
  8
4
100
AcDbLine
 10
286.0354116281604
 20
485.0019445555636
 30
0.0
 11
286.0354116281604
 21
583.7078031911612
 31
0.0
  0
LINE
  5
229
330
2
100
AcDbEntity
  8
4
100
AcDbLine
 10
282.3033608205918
 20
582.0019445555636
 30
0.0
 11
282.3033608205918
 21
486.0019445555636
 31
0.0
  0
ARC
  5
22A
330
2
100
AcDbEntity
  8
4
100
AcDbCircle
 10
410.3033608205918
 20
957.0019445555636
 30
0.0
 40
430.0
100
AcDbArc
 50
254.9427355450728
 51
257.6192010828533
  0
LINE
  5
22B
330
2
100
AcDbEntity
  8
4
100
AcDbLine
 10
286.0354116281604
 20
485.0019445555636
 30
0.0
 11
534.5713100130232
 21
485.0019445555636
 31
0.0
  0
LINE
  5
22D
330
2
100
AcDbEntity
  8
4
100
AcDbLine
 10
281.3033618205917
 20
498.0019455555635
 30
0.0
 11
282.3033608205918
 21
498.0019455555635
 31
0.0
  0
LINE
  5
22E
330
2
100
AcDbEntity
  8
4
100
AcDbLine
 10
282.3033608205918
 20
486.0019445555636
 30
0.0
 11
284.3033608205918
 21
486.0019445555636
 31
0.0
  0
ARC
  5
22F
330
2
100
AcDbEntity
  8
4
100
AcDbCircle
 10
284.3033608205918
 20
484.0019445555636
 30
0.0
 40
2.0
100
AcDbArc
 50
29.99999999999972
 51
90.0
  0
ARC
  5
230
330
2
100
AcDbEntity
  8
4
100
AcDbCircle
 10
422.8033608205918
 20
511.5019445555636
 30
0.0
 40
1.0
100
AcDbArc
 50
0.0
 51
90.0
  0
ARC
  5
231
330
2
100
AcDbEntity
  8
4
100
AcDbCircle
 10
422.8033608205918
 20
507.5019445555636
 30
0.0
 40
1.0
100
AcDbArc
 50
270.0
 51
0.0
  0
ARC
  5
232
330
2
100
AcDbEntity
  8
4
100
AcDbCircle
 10
402.8033608205918
 20
505.0019445555636
 30
0.0
 40
7.5
100
AcDbArc
 50
180.0
 51
270.0
  0
ARC
  5
233
330
2
100
AcDbEntity
  8
4
100
AcDbCircle
 10
402.8033608205918
 20
514.0019445555636
 30
0.0
 40
7.5
100
AcDbArc
 50
90.0
 51
180.0
  0
LINE
  5
234
330
2
100
AcDbEntity
  8
4
100
AcDbLine
 10
395.3033608205918
 20
505.0019445555636
 30
0.0
 11
395.3033608205918
 21
514.0019445555636
 31
0.0
  0
LINE
  5
235
330
2
100
AcDbEntity
  8
4
100
AcDbLine
 10
380.3033608205918
 20
520.5019445555636
 30
0.0
 11
380.3033608205918
 21
504.5019445555636
 31
0.0
  0
LINE
  5
236
330
2
100
AcDbEntity
  8
4
100
AcDbLine
 10
374.3033608205918
 20
520.5019445555636
 30
0.0
 11
374.3033608205918
 21
498.5019445555636
 31
0.0
  0
LINE
  5
237
330
2
100
AcDbEntity
  8
4
100
AcDbLine
 10
389.8033608205918
 20
503.5019445555636
 30
0.0
 11
381.3033608205918
 21
503.5019445555636
 31
0.0
  0
LINE
  5
238
330
2
100
AcDbEntity
  8
4
100
AcDbLine
 10
389.8033608205918
 20
497.5019445555636
 30
0.0
 11
375.3033608205918
 21
497.5019445555636
 31
0.0
  0
ARC
  5
239
330
2
100
AcDbEntity
  8
4
100
AcDbCircle
 10
381.3033608205918
 20
504.5019445555636
 30
0.0
 40
1.0
100
AcDbArc
 50
180.0
 51
270.0
  0
ARC
  5
23A
330
2
100
AcDbEntity
  8
4
100
AcDbCircle
 10
375.3033608205918
 20
498.5019445555636
 30
0.0
 40
1.0
100
AcDbArc
 50
180.0
 51
270.0
  0
ARC
  5
23B
330
2
100
AcDbEntity
  8
4
100
AcDbCircle
 10
389.8033608205918
 20
502.5019445555636
 30
0.0
 40
1.0
100
AcDbArc
 50
0.0
 51
90.0
  0
ARC
  5
23C
330
2
100
AcDbEntity
  8
4
100
AcDbCircle
 10
389.8033608205918
 20
498.5019445555636
 30
0.0
 40
1.0
100
AcDbArc
 50
270.0
 51
0.0
  0
LINE
  5
23D
330
2
100
AcDbEntity
  8
4
100
AcDbLine
 10
390.8033608205918
 20
502.5019445555636
 30
0.0
 11
390.8033608205918
 21
498.5019445555636
 31
0.0
  0
LINE
  5
23E
330
2
100
AcDbEntity
  8
4
100
AcDbLine
 10
379.3033608205918
 20
521.5019445555636
 30
0.0
 11
375.3033608205918
 21
521.5019445555636
 31
0.0
  0
ARC
  5
23F
330
2
100
AcDbEntity
  8
4
100
AcDbCircle
 10
375.3033608205918
 20
520.5019445555636
 30
0.0
 40
1.0
100
AcDbArc
 50
90.0
 51
180.0
  0
ARC
  5
240
330
2
100
AcDbEntity
  8
4
100
AcDbCircle
 10
379.3033608205918
 20
520.5019445555636
 30
0.0
 40
1.0
100
AcDbArc
 50
0.0
 51
90.0
  0
LINE
  5
241
330
2
100
AcDbEntity
  8
4
100
AcDbLine
 10
417.8033608205918
 20
511.5019445555636
 30
0.0
 11
417.8033608205918
 21
507.5019445555636
 31
0.0
  0
ARC
  5
242
330
2
100
AcDbEntity
  8
4
100
AcDbCircle
 10
410.3033608205918
 20
509.5019445555636
 30
0.0
 40
4.0
100
AcDbArc
 50
180.0
 51
269.9999999999984
  0
ARC
  5
243
330
2
100
AcDbEntity
  8
4
100
AcDbCircle
 10
405.8033608205918
 20
505.0019445555636
 30
0.0
 40
7.5
100
AcDbArc
 50
269.9999999999983
 51
355.5882742142419
  0
LINE
  5
244
330
2
100
AcDbEntity
  8
4
100
AcDbLine
 10
405.8033608205918
 20
497.5019445555636
 30
0.0
 11
402.8033608205918
 21
497.5019445555636
 31
0.0
  0
ARC
  5
245
330
2
100
AcDbEntity
  8
4
100
AcDbCircle
 10
418.8033608205918
 20
507.5019445555636
 30
0.0
 40
1.0
100
AcDbArc
 50
180.0
 51
270.0
  0
LINE
  5
246
330
2
100
AcDbEntity
  8
4
100
AcDbLine
 10
412.2841015190064
 20
505.5019445555636
 30
0.0
 11
410.3033608205918
 21
505.5019445555636
 31
0.0
  0
ARC
  5
247
330
2
100
AcDbEntity
  8
4
100
AcDbCircle
 10
412.2841015190064
 20
504.5019445555636
 30
0.0
 40
1.0
100
AcDbArc
 50
355.5882742142421
 51
89.99999999999349
  0
LINE
  5
248
330
2
100
AcDbEntity
  8
4
100
AcDbLine
 10
422.8033608205918
 20
506.5019445555636
 30
0.0
 11
418.8033608205918
 21
506.5019445555636
 31
0.0
  0
ARC
  5
249
330
2
100
AcDbEntity
  8
4
100
AcDbCircle
 10
405.8033608205918
 20
514.0019445555636
 30
0.0
 40
7.5
100
AcDbArc
 50
4.411725785758124
 51
89.99999999999827
  0
ARC
  5
24A
330
2
100
AcDbEntity
  8
4
100
AcDbCircle
 10
410.3033608205918
 20
509.5019445555636
 30
0.0
 40
4.0
100
AcDbArc
 50
89.99999999999837
 51
180.0
  0
LINE
  5
24B
330
2
100
AcDbEntity
  8
4
100
AcDbLine
 10
405.8033608205927
 20
521.5019445555636
 30
0.0
 11
402.8033608205918
 21
521.5019445555636
 31
0.0
  0
ARC
  5
24C
330
2
100
AcDbEntity
  8
4
100
AcDbCircle
 10
418.8033608205918
 20
511.5019445555636
 30
0.0
 40
1.0
100
AcDbArc
 50
90.0
 51
180.0
  0
LINE
  5
24D
330
2
100
AcDbEntity
  8
4
100
AcDbLine
 10
412.2841015189973
 20
513.5019445555636
 30
0.0
 11
410.3033608205918
 21
513.5019445555636
 31
0.0
  0
ARC
  5
24E
330
2
100
AcDbEntity
  8
4
100
AcDbCircle
 10
412.2841015189973
 20
514.5019445555636
 30
0.0
 40
1.0
100
AcDbArc
 50
269.9999999999935
 51
4.411725785757876
  0
LINE
  5
24F
330
2
100
AcDbEntity
  8
4
100
AcDbLine
 10
422.8033608205918
 20
512.5019445555636
 30
0.0
 11
418.8033608205918
 21
512.5019445555636
 31
0.0
  0
ARC
  5
250
330
2
100
AcDbEntity
  8
4
100
AcDbCircle
 10
443.3033608205927
 20
506.6924695362505
 30
0.0
 40
3.0
100
AcDbArc
 50
0.0
 51
75.52248781407341
  0
LINE
  5
251
330
2
100
AcDbEntity
  8
4
100
AcDbLine
 10
423.8033608205918
 20
511.5019445555636
 30
0.0
 11
423.8033608205918
 21
507.5019445555636
 31
0.0
  0
ARC
  5
252
330
2
100
AcDbEntity
  8
4
100
AcDbCircle
 10
428.3033608205918
 20
508.0019445555636
 30
0.0
 40
4.5
100
AcDbArc
 50
280.475681696392
 51
79.52431830360784
  0
LINE
  5
253
330
2
100
AcDbEntity
  8
4
100
AcDbLine
 10
441.3033608205927
 20
497.5019445555636
 30
0.0
 11
429.3033608205918
 21
497.5019445555636
 31
0.0
  0
LINE
  5
254
330
2
100
AcDbEntity
  8
4
100
AcDbLine
 10
428.3033608205918
 20
498.5019445555636
 30
0.0
 11
428.3033608205918
 21
502.5936176423693
 31
0.0
  0
ARC
  5
255
330
2
100
AcDbEntity
  8
4
100
AcDbCircle
 10
429.3033608205918
 20
498.5019445555636
 30
0.0
 40
1.0
100
AcDbArc
 50
180.0
 51
270.0
  0
ARC
  5
256
330
2
100
AcDbEntity
  8
4
100
AcDbCircle
 10
429.3033608205918
 20
502.5936176423693
 30
0.0
 40
1.0
100
AcDbArc
 50
100.4756816963937
 51
180.0
  0
LINE
  5
257
330
2
100
AcDbEntity
  8
4
100
AcDbLine
 10
446.3033608205927
 20
506.6924695362505
 30
0.0
 11
446.3033608205927
 21
502.5019445555636
 31
0.0
  0
ARC
  5
258
330
2
100
AcDbEntity
  8
4
100
AcDbCircle
 10
441.3033608205927
 20
502.5019445555636
 30
0.0
 40
5.0
100
AcDbArc
 50
270.0
 51
0.0
  0
LINE
  5
259
330
2
100
AcDbEntity
  8
4
100
AcDbLine
 10
445.3033608205927
 20
521.5019445555636
 30
0.0
 11
429.3033608205918
 21
521.5019445555636
 31
0.0
  0
ARC
  5
25A
330
2
100
AcDbEntity
  8
4
100
AcDbCircle
 10
429.3033608205918
 20
520.5019445555636
 30
0.0
 40
1.0
100
AcDbArc
 50
90.0
 51
180.0
  0
ARC
  5
25B
330
2
100
AcDbEntity
  8
4
100
AcDbCircle
 10
429.3033608205918
 20
513.4102714687576
 30
0.0
 40
1.0
100
AcDbArc
 50
180.0
 51
259.5243183036058
  0
LINE
  5
25C
330
2
100
AcDbEntity
  8
4
100
AcDbLine
 10
428.3033608205918
 20
520.5019445555636
 30
0.0
 11
428.3033608205918
 21
513.4102714687576
 31
0.0
  0
LINE
  5
25D
330
2
100
AcDbEntity
  8
4
100
AcDbLine
 10
446.3033608205927
 20
520.5019445555636
 30
0.0
 11
446.3033608205927
 21
516.5019445555636
 31
0.0
  0
LINE
  5
25E
330
2
100
AcDbEntity
  8
4
100
AcDbLine
 10
445.3033608205927
 20
515.5019445555636
 30
0.0
 11
444.8033608205927
 21
515.5019445555636
 31
0.0
  0
ARC
  5
25F
330
2
100
AcDbEntity
  8
4
100
AcDbCircle
 10
445.3033608205927
 20
520.5019445555636
 30
0.0
 40
1.0
100
AcDbArc
 50
0.0
 51
90.0
  0
ARC
  5
260
330
2
100
AcDbEntity
  8
4
100
AcDbCircle
 10
444.8033608205927
 20
512.5019445555636
 30
0.0
 40
3.0
100
AcDbArc
 50
90.0
 51
255.5224878140732
  0
ARC
  5
261
330
2
100
AcDbEntity
  8
4
100
AcDbCircle
 10
445.3033608205927
 20
516.5019445555636
 30
0.0
 40
1.0
100
AcDbArc
 50
270.0
 51
0.0
  0
LINE
  5
262
330
2
100
AcDbEntity
  8
4
100
AcDbLine
 10
539.3033598205919
 20
519.0019445555636
 30
0.0
 11
560.3033598205919
 21
519.0019445555636
 31
0.0
  0
LINE
  5
263
330
2
100
AcDbEntity
  8
4
100
AcDbLine
 10
539.3033598205919
 20
498.0019455555635
 30
0.0
 11
538.3033608205918
 21
498.0019455555635
 31
0.0
  0
ARC
  5
264
330
2
100
AcDbEntity
  8
4
100
AcDbCircle
 10
536.3033608205918
 20
484.0019445555636
 30
0.0
 40
2.0
100
AcDbArc
 50
90.0
 51
150.0000000000025
  0
LINE
  5
265
330
2
100
AcDbEntity
  8
4
100
AcDbLine
 10
538.3033608205918
 20
486.0019445555636
 30
0.0
 11
536.3033608205918
 21
486.0019445555636
 31
0.0
  0
ARC
  5
266
330
2
100
AcDbEntity
  8
4
100
AcDbCircle
 10
372.7086910096012
 20
694.5966143665541
 30
0.0
 40
5.0
100
AcDbArc
 50
97.32165913718056
 51
172.6783408628044
  0
ARC
  5
267
330
2
100
AcDbEntity
  8
4
100
AcDbCircle
 10
372.7086910096012
 20
619.407274744573
 30
0.0
 40
5.0
100
AcDbArc
 50
187.3216591371956
 51
262.6783408628175
  0
ARC
  5
268
330
2
100
AcDbEntity
  8
4
100
AcDbCircle
 10
665.3033608205918
 20
657.0019445555636
 30
0.0
 40
297.0
100
AcDbArc
 50
173.1343562846817
 51
186.8656437153183
  0
CIRCLE
  5
269
330
2
100
AcDbEntity
  8
4
100
AcDbCircle
 10
410.3033608205918
 20
657.0019445555636
 30
0.0
 40
106.0
  0
LINE
  5
26A
330
2
100
AcDbEntity
  8
L-CENTER
100
AcDbLine
 10
270.3033608205918
 20
657.0019445555636
 30
0.0
 11
550.3033608205918
 21
657.0019445555636
 31
0.0
  0
ARC
  5
26B
330
2
100
AcDbEntity
  8
4
100
AcDbCircle
 10
410.3033608205918
 20
357.0019445555636
 30
0.0
 40
430.0
100
AcDbArc
 50
74.94273554507274
 51
102.3807989171467
  0
ARC
  5
26C
330
2
100
AcDbEntity
  8
4
100
AcDbCircle
 10
710.3033608205914
 20
657.0019445555636
 30
0.0
 40
430.0
100
AcDbArc
 50
164.9427355450779
 51
171.9790671247573
  0
CIRCLE
  5
26D
330
2
100
AcDbEntity
  8
4
100
AcDbCircle
 10
260.3033608205923
 20
757.0019445555636
 30
0.0
 40
9.0
  0
LINE
  5
26E
330
2
100
AcDbEntity
  8
4
100
AcDbLine
 10
235.3033608205918
 20
772.0019445555636
 30
0.0
 11
235.3033608205914
 21
731.9052437760042
 31
0.0
  0
LINE
  5
26F
330
2
100
AcDbEntity
  8
4
100
AcDbLine
 10
235.3033608205923
 20
772.0019445555636
 30
0.0
 11
235.3033608205923
 21
731.0880272392637
 31
0.0
  0
LINE
  5
270
330
2
100
AcDbEntity
  8
4
100
AcDbLine
 10
235.3033608205914
 20
772.0019445555636
 30
0.0
 11
235.3033608205914
 21
731.9052437760042
 31
0.0
  0
LINE
  5
271
330
2
100
AcDbEntity
  8
L-CENTER
100
AcDbLine
 10
260.3033608205923
 20
775.2035854485375
 30
0.0
 11
260.3033608205923
 21
738.8003036625896
 31
0.0
  0
LINE
  5
272
330
2
100
AcDbEntity
  8
L-CENTER
100
AcDbLine
 10
278.5050017135663
 20
757.0019445555636
 30
0.0
 11
242.1017199276182
 21
757.0019445555636
 31
0.0
  0
LINE
  5
273
330
2
100
AcDbEntity
  8
4
100
AcDbLine
 10
284.5099836997159
 20
717.0019445555636
 30
0.0
 11
240.1084384266404
 21
726.0254342151052
 31
0.0
  0
LINE
  5
274
330
2
100
AcDbEntity
  8
L-CENTER
100
AcDbLine
 10
278.5050017135659
 20
557.0019445555638
 30
0.0
 11
242.1017199276178
 21
557.0019445555638
 31
0.0
  0
ARC
  5
275
330
2
100
AcDbEntity
  8
4
100
AcDbCircle
 10
260.3033608205918
 20
557.0019445555638
 30
0.0
 40
9.0
100
AcDbArc
 50
297.2660444507296
 51
270.0
  0
LINE
  5
276
330
2
100
AcDbEntity
  8
4
100
AcDbLine
 10
284.5099836997159
 20
597.0019445555638
 30
0.0
 11
240.10843842664
 21
587.978454896022
 31
0.0
  0
LINE
  5
277
330
2
100
AcDbEntity
  8
4
100
AcDbLine
 10
235.3033608205918
 20
547.5019445555636
 30
0.0
 11
235.3033608205918
 21
582.9158618718634
 31
0.0
  0
ARC
  5
278
330
2
100
AcDbEntity
  8
4
100
AcDbCircle
 10
241.3033608205914
 20
582.0986453351236
 30
0.0
 40
6.0
100
AcDbArc
 50
101.4874759734291
 51
180.0
  0
ARC
  5
279
330
2
100
AcDbEntity
  8
4
100
AcDbCircle
 10
241.3033608205914
 20
731.9052437760042
 30
0.0
 40
6.0
100
AcDbArc
 50
180.0
 51
258.5125240265705
  0
LWPOLYLINE
  5
27A
330
2
100
AcDbEntity
  8
4
100
AcDbPolyline
 90
        6
 70
     1
 43
0.0
 10
322.8033608205918
 20
657.0019445555636
 10
329.0533608205918
 20
646.176627008258
 10
341.5533608205918
 20
646.176627008258
 10
347.8033608205918
 20
657.0019445555636
 10
341.5533608205918
 20
667.8272621028691
 10
329.0533608205918
 20
667.8272621028691
  0
CIRCLE
  5
27B
330
2
100
AcDbEntity
  8
4
100
AcDbCircle
 10
335.3033608205918
 20
657.0019445555636
 30
0.0
 40
12.5
  0
CIRCLE
  5
27C
330
2
100
AcDbEntity
  8
4
100
AcDbCircle
 10
335.3033608205918
 20
657.0019445555636
 30
0.0
 40
14.0
  0
LINE
  5
27D
330
2
100
AcDbEntity
  8
L-CENTER
 48
6.0
100
AcDbLine
 10
335.3033608205918
 20
679.4164164926515
 30
0.0
 11
335.3033608205918
 21
634.5874726184757
 31
0.0
  0
ARC
  5
27E
330
2
100
AcDbEntity
  8
4
100
AcDbCircle
 10
665.3033608205918
 20
657.0019445555636
 30
0.0
 40
300.0
100
AcDbArc
 50
173.1343562846817
 51
187.2931236759487
  0
ARC
  5
27F
330
2
100
AcDbEntity
  8
4
100
AcDbCircle
 10
710.3033608205914
 20
657.0019445555636
 30
0.0
 40
430.0
100
AcDbArc
 50
171.9790671247573
 51
188.0209328752427
  0
LINE
  5
280
330
2
100
AcDbEntity
  8
4
100
AcDbLine
 10
360.7178550826364
 20
630.4862578457696
 30
0.0
 11
310.7166115495246
 21
634.6593349418813
 31
0.0
  0
ARC
  5
281
330
2
100
AcDbEntity
  8
4
100
AcDbCircle
 10
710.3033608205914
 20
657.0019445555636
 30
0.0
 40
430.0
100
AcDbArc
 50
188.0209328752427
 51
195.0572644549221
  0
LINE
  5
282
330
2
100
AcDbEntity
  8
L-CENTER
100
AcDbLine
 10
260.3033608205918
 20
538.8003036625898
 30
0.0
 11
260.3033608205918
 21
575.203585448538
 31
0.0
  0
LINE
  5
283
330
2
100
AcDbEntity
  8
4
100
AcDbLine
 10
281.3033618205917
 20
570.0019435555637
 30
0.0
 11
282.3033608205918
 21
570.0019435555637
 31
0.0
  0
ARC
  5
284
330
2
100
AcDbEntity
  8
4
100
AcDbCircle
 10
283.3033608205918
 20
585.0019445555636
 30
0.0
 40
3.0
100
AcDbArc
 50
270.0
 51
0.0
  0
LINE
  5
285
330
2
100
AcDbEntity
  8
4
100
AcDbLine
 10
282.3033608205918
 20
582.0019445555636
 30
0.0
 11
283.3033608205918
 21
582.0019445555636
 31
0.0
  0
ARC
  5
286
330
2
100
AcDbEntity
  8
4
100
AcDbCircle
 10
299.8950276205959
 20
546.5936113555676
 30
0.0
 40
5.0
100
AcDbArc
 50
195.0572644549223
 51
254.942735545074
  0
ARC
  5
287
330
2
100
AcDbEntity
  8
4
100
AcDbCircle
 10
310.4671006248524
 20
631.6697288978562
 30
0.0
 40
3.0
100
AcDbArc
 50
85.229181342159
 51
194.2376186689512
  0
ARC
  5
288
330
2
100
AcDbEntity
  8
4
100
AcDbCircle
 10
665.3033608205918
 20
657.0019445555636
 30
0.0
 40
300.0
100
AcDbArc
 50
186.2630117061209
 51
186.8656437153183
  0
ARC
  5
289
330
2
100
AcDbEntity
  8
4
100
AcDbCircle
 10
360.1356629250673
 20
623.5105104097115
 30
0.0
 40
7.0
100
AcDbArc
 50
6.263011706120841
 51
85.22918134215949
  0
LINE
  5
28A
330
2
100
AcDbEntity
  8
4
100
AcDbLine
 10
310.7166115495246
 20
679.3445541692463
 30
0.0
 11
360.7178550826364
 21
683.517631265358
 31
0.0
  0
ARC
  5
28B
330
2
100
AcDbEntity
  8
4
100
AcDbCircle
 10
310.4671006248524
 20
682.3341602132709
 30
0.0
 40
3.0
100
AcDbArc
 50
165.7623813310488
 51
274.7708186578414
  0
ARC
  5
28C
330
2
100
AcDbEntity
  8
4
100
AcDbCircle
 10
665.3033608205918
 20
657.0019445555636
 30
0.0
 40
300.0
100
AcDbArc
 50
172.6783408628042
 51
173.7369882938791
  0
ARC
  5
28D
330
2
100
AcDbEntity
  8
4
100
AcDbCircle
 10
360.1356629250675
 20
690.4933787014156
 30
0.0
 40
7.0
100
AcDbArc
 50
274.7708186578405
 51
353.7369882938792
  0
LINE
  5
28E
330
2
100
AcDbEntity
  8
4
100
AcDbLine
 10
240.3033608205918
 20
777.0019445555636
 30
0.0
 11
318.107916247663
 21
777.0019445555636
 31
0.0
  0
LINE
  5
28F
330
2
100
AcDbEntity
  8
4
100
AcDbLine
 10
240.3033608205923
 20
777.0019445555636
 30
0.0
 11
318.1079162476634
 21
777.0019445555636
 31
0.0
  0
LINE
  5
290
330
2
100
AcDbEntity
  8
4
100
AcDbLine
 10
240.3033608205914
 20
777.0019445555636
 30
0.0
 11
318.107916247663
 21
777.0019445555636
 31
0.0
  0
ARC
  5
291
330
2
100
AcDbEntity
  8
4
100
AcDbCircle
 10
240.3033608205918
 20
772.0019445555636
 30
0.0
 40
5.0
100
AcDbArc
 50
90.0
 51
180.0
  0
ARC
  5
292
330
2
100
AcDbEntity
  8
4
100
AcDbCircle
 10
240.3033608205923
 20
772.0019445555636
 30
0.0
 40
5.0
100
AcDbArc
 50
90.0
 51
180.0
  0
ARC
  5
293
330
2
100
AcDbEntity
  8
4
100
AcDbCircle
 10
240.3033608205914
 20
772.0019445555636
 30
0.0
 40
5.0
100
AcDbArc
 50
90.0
 51
180.0
  0
ARC
  5
294
330
2
100
AcDbEntity
  8
4
100
AcDbCircle
 10
410.3033608205918
 20
357.0019445555636
 30
0.0
 40
430.0
100
AcDbArc
 50
102.3807989171467
 51
105.0572644549257
  0
ARC
  5
295
330
2
100
AcDbEntity
  8
4
100
AcDbCircle
 10
299.8950276205959
 20
767.410277755559
 30
0.0
 40
5.0
100
AcDbArc
 50
105.0572644549291
 51
164.9427355450777
  0
LINE
  5
296
330
2
100
AcDbEntity
  8
L-CENTER
100
AcDbLine
 10
560.3033608205914
 20
775.2035854485375
 30
0.0
 11
560.3033608205914
 21
738.8003036625896
 31
0.0
  0
LINE
  5
297
330
2
100
AcDbEntity
  8
4
100
AcDbLine
 10
585.3033608205923
 20
772.0019445555636
 30
0.0
 11
585.3033608205923
 21
731.9052437760042
 31
0.0
  0
LINE
  5
298
330
2
100
AcDbEntity
  8
4
100
AcDbLine
 10
585.3033608205914
 20
772.0019445555636
 30
0.0
 11
585.3033608205914
 21
731.0880272392637
 31
0.0
  0
LINE
  5
299
330
2
100
AcDbEntity
  8
4
100
AcDbLine
 10
585.3033608205918
 20
772.0019445555636
 30
0.0
 11
585.3033608205923
 21
731.9052437760042
 31
0.0
  0
CIRCLE
  5
29A
330
2
100
AcDbEntity
  8
4
100
AcDbCircle
 10
560.3033608205914
 20
757.0019445555636
 30
0.0
 40
9.0
  0
ARC
  5
29B
330
2
100
AcDbEntity
  8
4
100
AcDbCircle
 10
110.3033608205923
 20
657.0019445555636
 30
0.0
 40
430.0
100
AcDbArc
 50
8.020932875242671
 51
15.05726445492218
  0
LINE
  5
29C
330
2
100
AcDbEntity
  8
4
100
AcDbLine
 10
509.890110091659
 20
634.6593349418808
 30
0.0
 11
459.8888665585472
 21
630.4862578457696
 31
0.0
  0
LINE
  5
29D
330
2
100
AcDbEntity
  8
4
100
AcDbLine
 10
509.890110091659
 20
679.3445541692463
 30
0.0
 11
459.8888665585474
 21
683.517631265358
 31
0.0
  0
ARC
  5
29E
330
2
100
AcDbEntity
  8
4
100
AcDbCircle
 10
155.3033608205918
 20
657.0019445555636
 30
0.0
 40
300.0
100
AcDbArc
 50
352.7572889055028
 51
6.865643715318248
  0
ARC
  5
29F
330
2
100
AcDbEntity
  8
4
100
AcDbCircle
 10
155.3033608205918
 20
657.0019445555636
 30
0.0
 40
297.0
100
AcDbArc
 50
353.1343562846818
 51
6.865643715318248
  0
CIRCLE
  5
2A0
330
2
100
AcDbEntity
  8
4
100
AcDbCircle
 10
410.3033608205918
 20
657.0019445555636
 30
0.0
 40
31.0
  0
ARC
  5
2A1
330
2
100
AcDbEntity
  8
4
100
AcDbCircle
 10
410.3033608205918
 20
912.0019445555636
 30
0.0
 40
300.0
100
AcDbArc
 50
263.1343562846719
 51
277.3180293403332
  0
ARC
  5
2A2
330
2
100
AcDbEntity
  8
4
100
AcDbCircle
 10
410.3033608205918
 20
912.0019445555636
 30
0.0
 40
297.0
100
AcDbArc
 50
263.1343562846719
 51
276.8656437153265
  0
LINE
  5
2A3
330
2
100
AcDbEntity
  8
4
100
AcDbLine
 10
387.9607512069093
 20
557.4151952844963
 30
0.0
 11
383.7876741107976
 21
607.4164388176082
 31
0.0
  0
ARC
  5
2A4
330
2
100
AcDbEntity
  8
4
100
AcDbCircle
 10
384.9711451628845
 20
557.1656843598239
 30
0.0
 40
3.0
100
AcDbArc
 50
255.762381331052
 51
4.770818657832607
  0
ARC
  5
2A5
330
2
100
AcDbEntity
  8
4
100
AcDbCircle
 10
376.81192667474
 20
606.8342466600393
 30
0.0
 40
7.0
100
AcDbArc
 50
4.770818657832607
 51
83.73698829386932
  0
ARC
  5
2A6
330
2
100
AcDbEntity
  8
4
100
AcDbCircle
 10
410.3033608205918
 20
912.0019445555636
 30
0.0
 40
300.0
100
AcDbArc
 50
262.6783408628191
 51
263.7369882938693
  0
ARC
  5
2A7
330
2
100
AcDbEntity
  8
4
100
AcDbCircle
 10
375.3972340888703
 20
622.095817823842
 30
0.0
 40
5.0
100
AcDbArc
 50
186.8656437153183
 51
263.1343562846749
  0
LINE
  5
2A8
330
2
100
AcDbEntity
  8
4
100
AcDbLine
 10
432.6459704342745
 20
557.4151952844963
 30
0.0
 11
436.819047530386
 21
607.4164388176082
 31
0.0
  0
ARC
  5
2A9
330
2
100
AcDbEntity
  8
4
100
AcDbCircle
 10
435.6355764782992
 20
557.1656843598239
 30
0.0
 40
3.0
100
AcDbArc
 50
175.2291813421674
 51
284.237618668947
  0
ARC
  5
2AA
330
2
100
AcDbEntity
  8
4
100
AcDbCircle
 10
447.8980306315824
 20
619.407274744573
 30
0.0
 40
5.0
100
AcDbArc
 50
277.3216591371812
 51
352.6783408628044
  0
ARC
  5
2AB
330
2
100
AcDbEntity
  8
4
100
AcDbCircle
 10
445.2094875523134
 20
622.095817823842
 30
0.0
 40
5.0
100
AcDbArc
 50
276.8656437153264
 51
353.1343562846816
  0
ARC
  5
2AC
330
2
100
AcDbEntity
  8
4
100
AcDbCircle
 10
443.7947949664436
 20
606.8342466600393
 30
0.0
 40
7.0
100
AcDbArc
 50
96.26301170613068
 51
175.2291813421674
  0
ARC
  5
2AD
330
2
100
AcDbEntity
  8
4
100
AcDbCircle
 10
410.3033608205918
 20
912.0019445555636
 30
0.0
 40
300.0
100
AcDbArc
 50
276.2630117061306
 51
276.8656437153265
  0
ARC
  5
2AE
330
2
100
AcDbEntity
  8
4
100
AcDbCircle
 10
155.3033608205918
 20
657.0019445555636
 30
0.0
 40
300.0
100
AcDbArc
 50
353.1343562846815
 51
353.7369882938791
  0
ARC
  5
2AF
330
2
100
AcDbEntity
  8
4
100
AcDbCircle
 10
460.4710587161161
 20
623.5105104097115
 30
0.0
 40
7.0
100
AcDbArc
 50
94.7708186578405
 51
173.7369882938792
  0
ARC
  5
2B0
330
2
100
AcDbEntity
  8
4
100
AcDbCircle
 10
410.3033608205918
 20
402.0019445555641
 30
0.0
 40
300.0
100
AcDbArc
 50
82.56950389143586
 51
96.86564371532818
  0
ARC
  5
2B1
330
2
100
AcDbEntity
  8
4
100
AcDbCircle
 10
410.3033608205918
 20
402.0019445555641
 30
0.0
 40
297.0
100
AcDbArc
 50
83.13435628467184
 51
96.86564371532818
  0
LINE
  5
2B2
330
2
100
AcDbEntity
  8
4
100
AcDbLine
 10
387.9607512069093
 20
756.5886938266308
 30
0.0
 11
383.7876741107976
 21
706.5874502935189
 31
0.0
  0
ARC
  5
2B3
330
2
100
AcDbEntity
  8
4
100
AcDbCircle
 10
376.81192667474
 20
707.1696424510878
 30
0.0
 40
7.0
100
AcDbArc
 50
276.2630117061307
 51
355.2291813421674
  0
ARC
  5
2B4
330
2
100
AcDbEntity
  8
4
100
AcDbCircle
 10
410.3033608205918
 20
402.0019445555641
 30
0.0
 40
300.0
100
AcDbArc
 50
96.26301170613064
 51
97.32165913718083
  0
ARC
  5
2B5
330
2
100
AcDbEntity
  8
4
100
AcDbCircle
 10
375.3972340888703
 20
691.9080712872851
 30
0.0
 40
5.0
100
AcDbArc
 50
96.86564371532606
 51
173.1343562846816
  0
ARC
  5
2B6
330
2
100
AcDbEntity
  8
4
100
AcDbCircle
 10
384.9711451628845
 20
756.8382047513032
 30
0.0
 40
3.0
100
AcDbArc
 50
355.2291813421674
 51
104.237618668947
  0
LINE
  5
2B7
330
2
100
AcDbEntity
  8
4
100
AcDbLine
 10
432.6459704342745
 20
756.5886938266308
 30
0.0
 11
436.819047530386
 21
706.5874502935189
 31
0.0
  0
ARC
  5
2B8
330
2
100
AcDbEntity
  8
4
100
AcDbCircle
 10
447.8980306315824
 20
694.5966143665541
 30
0.0
 40
5.0
100
AcDbArc
 50
7.321659137169341
 51
82.67834086281879
  0
ARC
  5
2B9
330
2
100
AcDbEntity
  8
4
100
AcDbCircle
 10
445.2094875523134
 20
691.9080712872851
 30
0.0
 40
5.0
100
AcDbArc
 50
6.865643715318355
 51
83.13435628467202
  0
ARC
  5
2BA
330
2
100
AcDbEntity
  8
4
100
AcDbCircle
 10
443.7947949664436
 20
707.1696424510878
 30
0.0
 40
7.0
100
AcDbArc
 50
184.7708186578326
 51
263.7369882938693
  0
ARC
  5
2BB
330
2
100
AcDbEntity
  8
4
100
AcDbCircle
 10
410.3033608205918
 20
402.0019445555641
 30
0.0
 40
300.0
100
AcDbArc
 50
83.13435628467182
 51
83.73698829386936
  0
ARC
  5
2BC
330
2
100
AcDbEntity
  8
4
100
AcDbCircle
 10
155.3033608205918
 20
657.0019445555636
 30
0.0
 40
300.0
100
AcDbArc
 50
6.263011706120957
 51
7.321659137195747
  0
ARC
  5
2BD
330
2
100
AcDbEntity
  8
4
100
AcDbCircle
 10
460.4710587161163
 20
690.4933787014156
 30
0.0
 40
7.0
100
AcDbArc
 50
186.2630117061209
 51
265.2291813421595
  0
ARC
  5
2BE
330
2
100
AcDbEntity
  8
4
100
AcDbCircle
 10
435.6355764782992
 20
756.8382047513032
 30
0.0
 40
3.0
100
AcDbArc
 50
75.76238133105304
 51
184.7708186578326
  0
CIRCLE
  5
2BF
330
2
100
AcDbEntity
  8
4
100
AcDbCircle
 10
530.3033608205918
 20
657.0019445555636
 30
0.0
 40
6.5
  0
ARC
  5
2C2
330
2
100
AcDbEntity
  8
4
100
AcDbCircle
 10
110.3033608205923
 20
657.0019445555636
 30
0.0
 40
430.0
100
AcDbArc
 50
351.9790671247573
 51
8.020932875242671
  0
ARC
  5
2C3
330
2
100
AcDbEntity
  8
4
100
AcDbCircle
 10
110.3033608205923
 20
657.0019445555636
 30
0.0
 40
430.0
100
AcDbArc
 50
344.9427355450778
 51
351.9790671247573
  0
ARC
  5
2C4
330
2
100
AcDbEntity
  8
4
100
AcDbCircle
 10
520.7116940205877
 20
546.5936113555676
 30
0.0
 40
5.0
100
AcDbArc
 50
285.0572644549266
 51
344.9427355450778
  0
ARC
  5
2C5
330
2
100
AcDbEntity
  8
4
100
AcDbCircle
 10
510.1396210163315
 20
631.6697288978562
 30
0.0
 40
3.0
100
AcDbArc
 50
345.7623813310488
 51
94.77081865783994
  0
LINE
  5
2C6
330
2
100
AcDbEntity
  8
4
100
AcDbLine
 10
536.0967379414677
 20
597.0019445555638
 30
0.0
 11
580.4982832145437
 21
587.978454896022
 31
0.0
  0
LINE
  5
2C7
330
2
100
AcDbEntity
  8
4
100
AcDbLine
 10
539.3033598205919
 20
549.0019445555636
 30
0.0
 11
560.3033598205919
 21
549.0019445555636
 31
0.0
  0
ARC
  5
2C8
330
2
100
AcDbEntity
  8
4
100
AcDbCircle
 10
560.3033608205918
 20
557.0019445555638
 30
0.0
 40
9.0
100
AcDbArc
 50
269.9999936338037
 51
242.733955549275
  0
LINE
  5
2C9
330
2
100
AcDbEntity
  8
L-CENTER
100
AcDbLine
 10
542.1017199276178
 20
557.0019445555638
 30
0.0
 11
578.5050017135659
 21
557.0019445555638
 31
0.0
  0
LINE
  5
2CA
330
2
100
AcDbEntity
  8
4
100
AcDbLine
 10
539.3033598205919
 20
570.0019435555637
 30
0.0
 11
538.3033608205918
 21
570.0019435555637
 31
0.0
  0
LINE
  5
2CB
330
2
100
AcDbEntity
  8
4
100
AcDbLine
 10
538.3033608205918
 20
582.0019445555636
 30
0.0
 11
537.3033608205918
 21
582.0019445555636
 31
0.0
  0
ARC
  5
2CC
330
2
100
AcDbEntity
  8
4
100
AcDbCircle
 10
537.3033608205918
 20
585.0019445555636
 30
0.0
 40
3.0
100
AcDbArc
 50
180.0
 51
270.0
  0
LINE
  5
2CD
330
2
100
AcDbEntity
  8
4
100
AcDbLine
 10
585.3033608205923
 20
582.0986453351236
 30
0.0
 11
585.3033608205923
 21
547.5019445555636
 31
0.0
  0
LINE
  5
2CE
330
2
100
AcDbEntity
  8
L-CENTER
100
AcDbLine
 10
560.3033608205918
 20
538.8003036625898
 30
0.0
 11
560.3033608205918
 21
575.203585448538
 31
0.0
  0
ARC
  5
2CF
330
2
100
AcDbEntity
  8
4
100
AcDbCircle
 10
579.3033608205923
 20
582.0986453351236
 30
0.0
 40
6.0
100
AcDbArc
 50
0.0
 51
78.51252402657009
  0
ARC
  5
2D1
330
2
100
AcDbEntity
  8
4
100
AcDbCircle
 10
510.1396210163313
 20
682.3341602132709
 30
0.0
 40
3.0
100
AcDbArc
 50
265.2291813421597
 51
14.23761866895119
  0
LINE
  5
2D5
330
2
100
AcDbEntity
  8
L-CENTER
100
AcDbLine
 10
542.1017199276173
 20
757.0019445555636
 30
0.0
 11
578.5050017135654
 21
757.0019445555636
 31
0.0
  0
LINE
  5
2D6
330
2
100
AcDbEntity
  8
4
100
AcDbLine
 10
536.0967379414677
 20
717.0019445555636
 30
0.0
 11
580.4982832145432
 21
726.0254342151052
 31
0.0
  0
ARC
  5
2D7
330
2
100
AcDbEntity
  8
4
100
AcDbCircle
 10
579.3033608205923
 20
731.9052437760042
 30
0.0
 40
6.0
100
AcDbArc
 50
281.4874759734282
 51
0.0
  0
LINE
  5
2D8
330
2
100
AcDbEntity
  8
4
100
AcDbLine
 10
396.3033598205919
 20
789.0019445555636
 30
0.0
 11
424.3033618205917
 21
789.0019445555636
 31
0.0
  0
LINE
  5
2D9
330
2
100
AcDbEntity
  8
4
100
AcDbLine
 10
391.3033608205918
 20
789.0019445555636
 30
0.0
 11
429.3033608205918
 21
789.0019445555636
 31
0.0
  0
LINE
  5
2DA
330
2
100
AcDbEntity
  8
4
100
AcDbLine
 10
391.3033608205918
 20
789.0019445555636
 30
0.0
 11
391.3033608205918
 21
787.537657359972
 31
0.0
  0
ARC
  5
2DB
330
2
100
AcDbEntity
  8
4
100
AcDbCircle
 10
390.3033608205918
 20
787.537657359972
 30
0.0
 40
1.0
100
AcDbArc
 50
272.6596919724801
 51
0.0
  0
LINE
  5
2DC
330
2
100
AcDbEntity
  8
4
100
AcDbLine
 10
429.3033608205918
 20
789.0019445555636
 30
0.0
 11
429.3033608205918
 21
787.537657359972
 31
0.0
  0
ARC
  5
2DD
330
2
100
AcDbEntity
  8
4
100
AcDbCircle
 10
430.3033608205918
 20
787.537657359972
 30
0.0
 40
1.0
100
AcDbArc
 50
180.0
 51
267.3403080275264
  0
LINE
  5
2DE
330
2
100
AcDbEntity
  8
4
100
AcDbLine
 10
580.3033608205923
 20
777.0019445555636
 30
0.0
 11
502.4988053935207
 21
777.0019445555636
 31
0.0
  0
LINE
  5
2DF
330
2
100
AcDbEntity
  8
4
100
AcDbLine
 10
580.3033608205914
 20
777.0019445555636
 30
0.0
 11
502.4988053935202
 21
777.0019445555636
 31
0.0
  0
LINE
  5
2E0
330
2
100
AcDbEntity
  8
4
100
AcDbLine
 10
580.3033608205918
 20
777.0019445555636
 30
0.0
 11
502.4988053935207
 21
777.0019445555636
 31
0.0
  0
ARC
  5
2E1
330
2
100
AcDbEntity
  8
4
100
AcDbCircle
 10
520.7116940205877
 20
767.410277755559
 30
0.0
 40
5.0
100
AcDbArc
 50
15.05726445492218
 51
74.94273554507086
  0
ARC
  5
2E2
330
2
100
AcDbEntity
  8
4
100
AcDbCircle
 10
580.3033608205923
 20
772.0019445555636
 30
0.0
 40
5.0
100
AcDbArc
 50
0.0
 51
90.0
  0
ARC
  5
2E3
330
2
100
AcDbEntity
  8
4
100
AcDbCircle
 10
580.3033608205914
 20
772.0019445555636
 30
0.0
 40
5.0
100
AcDbArc
 50
0.0
 51
90.0
  0
ARC
  5
2E4
330
2
100
AcDbEntity
  8
4
100
AcDbCircle
 10
580.3033608205918
 20
772.0019445555636
 30
0.0
 40
5.0
100
AcDbArc
 50
0.0
 51
90.0
  0
LINE
  5
2E5
330
2
100
AcDbEntity
  8
4
100
AcDbLine
 10
620.3033598205919
 20
521.5019435555637
 30
0.0
 11
620.3033598205919
 21
546.5019455555635
 31
0.0
  0
LINE
  5
2E6
330
2
100
AcDbEntity
  8
4
100
AcDbLine
 10
619.3033608205918
 20
530.5019445555636
 30
0.0
 11
619.3033608205918
 21
520.5019445555636
 31
0.0
  0
LINE
  5
2E7
330
2
100
AcDbEntity
  8
4
100
AcDbLine
 10
620.3033598205919
 20
521.5019435555637
 30
0.0
 11
619.3033608205918
 21
520.5019445555636
 31
0.0
  0
LINE
  5
2E8
330
2
100
AcDbEntity
  8
4
100
AcDbLine
 10
619.3033608205918
 20
547.5019445555636
 30
0.0
 11
620.3033598205919
 21
546.5019455555635
 31
0.0
  0
LINE
  5
2E9
330
2
100
AcDbEntity
  8
4
100
AcDbLine
 10
619.3033608205918
 20
547.5019445555636
 30
0.0
 11
619.3033608205918
 21
537.5019445555638
 31
0.0
  0
LINE
  5
2EA
330
2
100
AcDbEntity
  8
4
100
AcDbLine
 10
423.2937418773585
 20
797.5019445555636
 30
0.0
 11
397.3129797638252
 21
797.5019445555636
 31
0.0
  0
LINE
  5
2EB
330
2
100
AcDbEntity
  8
4
100
AcDbLine
 10
424.3033608205918
 20
789.0019445555636
 30
0.0
 11
396.3033608205918
 21
789.0019445555636
 31
0.0
  0
LINE
  5
2EC
330
2
100
AcDbEntity
  8
4
100
AcDbLine
 10
425.3033608205918
 20
792.5019445555636
 30
0.0
 11
395.3033608205918
 21
792.5019445555636
 31
0.0
  0
LINE
  5
2ED
330
2
100
AcDbEntity
  8
4
100
AcDbLine
 10
425.3033608205918
 20
790.5019445555636
 30
0.0
 11
395.3033608205918
 21
790.5019445555636
 31
0.0
  0
LINE
  5
2EE
330
2
100
AcDbEntity
  8
4
100
AcDbLine
 10
395.3033608205918
 20
792.5019445555636
 30
0.0
 11
395.3033608205918
 21
790.5019445555636
 31
0.0
  0
LINE
  5
2EF
330
2
100
AcDbEntity
  8
4
100
AcDbLine
 10
396.3033608205918
 20
790.5019445555636
 30
0.0
 11
396.3033608205918
 21
789.0019445555636
 31
0.0
  0
LINE
  5
2F0
330
2
100
AcDbEntity
  8
4
100
AcDbLine
 10
397.3129797638252
 20
797.5019445555636
 30
0.0
 11
397.3129797638252
 21
792.5019445555636
 31
0.0
  0
LINE
  5
2F1
330
2
100
AcDbEntity
  8
4
100
AcDbLine
 10
425.3033608205918
 20
790.5019445555636
 30
0.0
 11
425.3033608205918
 21
792.5019445555636
 31
0.0
  0
LINE
  5
2F2
330
2
100
AcDbEntity
  8
4
100
AcDbLine
 10
424.3033608205918
 20
790.5019445555636
 30
0.0
 11
424.3033608205918
 21
789.0019445555636
 31
0.0
  0
LINE
  5
2F3
330
2
100
AcDbEntity
  8
4
100
AcDbLine
 10
423.2937418773585
 20
797.5019445555636
 30
0.0
 11
423.2937418773585
 21
792.5019445555636
 31
0.0
  0
LINE
  5
2F4
330
2
100
AcDbEntity
  8
4
100
AcDbLine
 10
297.5533608205918
 20
257.2510421268241
 30
0.0
 11
283.0533608205918
 21
257.2510421268241
 31
0.0
  0
LINE
  5
2F5
330
2
100
AcDbEntity
  8
4
100
AcDbLine
 10
297.5533608205918
 20
257.2510421268241
 30
0.0
 11
297.5533608205918
 21
255.2510421268241
 31
0.0
  0
LINE
  5
2F6
330
2
100
AcDbEntity
  8
4
100
AcDbLine
 10
283.0533608205918
 20
257.2510421268241
 30
0.0
 11
283.0533608205918
 21
255.2510421268241
 31
0.0
  0
LINE
  5
2F7
330
2
100
AcDbEntity
  8
4
100
AcDbLine
 10
296.8033608205918
 20
265.2510421268241
 30
0.0
 11
283.8033608205918
 21
265.2510421268241
 31
0.0
  0
LINE
  5
2F8
330
2
100
AcDbEntity
  8
4
100
AcDbLine
 10
296.8033608205918
 20
265.2510421268241
 30
0.0
 11
296.8033608205918
 21
257.2510421268241
 31
0.0
  0
LINE
  5
2F9
330
2
100
AcDbEntity
  8
4
100
AcDbLine
 10
283.8033608205918
 20
265.2510421268241
 30
0.0
 11
283.8033608205918
 21
257.2510421268241
 31
0.0
  0
LINE
  5
2FA
330
2
100
AcDbEntity
  8
4
100
AcDbLine
 10
357.5533608205918
 20
257.2510421268241
 30
0.0
 11
343.0533608205916
 21
257.2510421268241
 31
0.0
  0
LINE
  5
2FB
330
2
100
AcDbEntity
  8
4
100
AcDbLine
 10
356.8033608205918
 20
265.2510421268241
 30
0.0
 11
343.8033608205918
 21
265.2510421268241
 31
0.0
  0
LINE
  5
2FC
330
2
100
AcDbEntity
  8
4
100
AcDbLine
 10
343.8033608205918
 20
265.2510421268241
 30
0.0
 11
343.8033608205918
 21
257.2510421268241
 31
0.0
  0
LINE
  5
2FD
330
2
100
AcDbEntity
  8
4
100
AcDbLine
 10
343.0533608205916
 20
257.2510421268241
 30
0.0
 11
343.0533608205916
 21
255.2510421268241
 31
0.0
  0
LINE
  5
2FE
330
2
100
AcDbEntity
  8
4
100
AcDbLine
 10
357.5533608205918
 20
257.2510421268241
 30
0.0
 11
357.5533608205918
 21
255.2510421268241
 31
0.0
  0
LINE
  5
2FF
330
2
100
AcDbEntity
  8
4
100
AcDbLine
 10
356.8033608205918
 20
265.2510421268241
 30
0.0
 11
356.8033608205918
 21
257.2510421268241
 31
0.0
  0
LINE
  5
300
330
2
100
AcDbEntity
  8
2
100
AcDbLine
 10
292.3033608205918
 20
257.2510421268241
 30
0.0
 11
290.3033608205918
 21
255.2510421268241
 31
0.0
  0
LINE
  5
301
330
2
100
AcDbEntity
  8
2
100
AcDbLine
 10
289.4749336958456
 20
257.2510421268241
 30
0.0
 11
287.4749336958456
 21
255.2510421268241
 31
0.0
  0
LINE
  5
302
330
2
100
AcDbEntity
  8
2
100
AcDbLine
 10
349.4749336958456
 20
257.2510421268241
 30
0.0
 11
347.4749336958456
 21
255.2510421268241
 31
0.0
  0
LINE
  5
303
330
2
100
AcDbEntity
  8
2
100
AcDbLine
 10
352.3033608205918
 20
257.2510421268241
 30
0.0
 11
350.3033608205918
 21
255.2510421268241
 31
0.0
  0
LINE
  5
304
330
2
100
AcDbEntity
  8
4
100
AcDbLine
 10
523.0533608205918
 20
257.2510421268241
 30
0.0
 11
537.5533608205918
 21
257.2510421268241
 31
0.0
  0
LINE
  5
305
330
2
100
AcDbEntity
  8
4
100
AcDbLine
 10
523.8033608205918
 20
265.2510421268241
 30
0.0
 11
536.8033608205918
 21
265.2510421268241
 31
0.0
  0
LINE
  5
306
330
2
100
AcDbEntity
  8
4
100
AcDbLine
 10
536.8033608205918
 20
265.2510421268241
 30
0.0
 11
536.8033608205918
 21
257.2510421268241
 31
0.0
  0
LINE
  5
307
330
2
100
AcDbEntity
  8
4
100
AcDbLine
 10
537.5533608205918
 20
257.2510421268241
 30
0.0
 11
537.5533608205918
 21
255.2510421268241
 31
0.0
  0
LINE
  5
308
330
2
100
AcDbEntity
  8
2
100
AcDbLine
 10
531.131787945338
 20
257.2510421268241
 30
0.0
 11
533.131787945338
 21
255.2510421268241
 31
0.0
  0
LINE
  5
309
330
2
100
AcDbEntity
  8
2
100
AcDbLine
 10
528.3033608205918
 20
257.2510421268241
 30
0.0
 11
530.3033608205918
 21
255.2510421268241
 31
0.0
  0
LINE
  5
30A
330
2
100
AcDbEntity
  8
4
100
AcDbLine
 10
523.0533608205918
 20
257.2510421268241
 30
0.0
 11
523.0533608205918
 21
255.2510421268241
 31
0.0
  0
LINE
  5
30B
330
2
100
AcDbEntity
  8
4
100
AcDbLine
 10
523.8033608205918
 20
265.2510421268241
 30
0.0
 11
523.8033608205918
 21
257.2510421268241
 31
0.0
  0
LINE
  5
30C
330
2
100
AcDbEntity
  8
L-CENTER
100
AcDbLine
 10
530.3033608205918
 20
268.7371585088961
 30
0.0
 11
530.3033608205918
 21
236.269578707854
 31
0.0
  0
LINE
  5
30D
330
2
100
AcDbEntity
  8
4
100
AcDbLine
 10
463.8033608205918
 20
265.2510421268241
 30
0.0
 11
476.8033608205918
 21
265.2510421268241
 31
0.0
  0
LINE
  5
30E
330
2
100
AcDbEntity
  8
4
100
AcDbLine
 10
463.0533608205918
 20
257.2510421268241
 30
0.0
 11
477.5533608205918
 21
257.2510421268241
 31
0.0
  0
LINE
  5
30F
330
2
100
AcDbEntity
  8
2
100
AcDbLine
 10
468.3033608205918
 20
257.2510421268241
 30
0.0
 11
470.3033608205918
 21
255.2510421268241
 31
0.0
  0
LINE
  5
310
330
2
100
AcDbEntity
  8
2
100
AcDbLine
 10
471.131787945338
 20
257.2510421268241
 30
0.0
 11
473.131787945338
 21
255.2510421268241
 31
0.0
  0
LINE
  5
311
330
2
100
AcDbEntity
  8
4
100
AcDbLine
 10
477.5533608205918
 20
257.2510421268241
 30
0.0
 11
477.5533608205918
 21
255.2510421268241
 31
0.0
  0
LINE
  5
312
330
2
100
AcDbEntity
  8
4
100
AcDbLine
 10
476.8033608205918
 20
265.2510421268241
 30
0.0
 11
476.8033608205918
 21
257.2510421268241
 31
0.0
  0
LINE
  5
313
330
2
100
AcDbEntity
  8
4
100
AcDbLine
 10
463.8033608205918
 20
265.2510421268241
 30
0.0
 11
463.8033608205918
 21
257.2510421268241
 31
0.0
  0
LINE
  5
314
330
2
100
AcDbEntity
  8
4
100
AcDbLine
 10
463.0533608205918
 20
257.2510421268241
 30
0.0
 11
463.0533608205918
 21
255.2510421268241
 31
0.0
  0
LINE
  5
315
330
2
100
AcDbEntity
  8
L-CENTER
100
AcDbLine
 10
470.3033608205918
 20
268.7371585088961
 30
0.0
 11
470.3033608205918
 21
236.269578707854
 31
0.0
  0
LINE
  5
316
330
2
100
AcDbEntity
  8
4
100
AcDbLine
 10
854.8143772865345
 20
257.2510421268241
 30
0.0
 11
869.3143772865345
 21
257.2510421268241
 31
0.0
  0
LINE
  5
317
330
2
100
AcDbEntity
  8
4
100
AcDbLine
 10
854.8143772865345
 20
257.2510421268241
 30
0.0
 11
854.8143772865345
 21
255.2510421268241
 31
0.0
  0
LINE
  5
318
330
2
100
AcDbEntity
  8
4
100
AcDbLine
 10
869.3143772865345
 20
257.2510421268241
 30
0.0
 11
869.3143772865345
 21
255.2510421268241
 31
0.0
  0
LINE
  5
319
330
2
100
AcDbEntity
  8
4
100
AcDbLine
 10
855.5643772865345
 20
265.2510421268241
 30
0.0
 11
868.5643772865345
 21
265.2510421268241
 31
0.0
  0
LINE
  5
31A
330
2
100
AcDbEntity
  8
4
100
AcDbLine
 10
855.5643772865345
 20
265.2510421268241
 30
0.0
 11
855.5643772865345
 21
257.2510421268241
 31
0.0
  0
LINE
  5
31B
330
2
100
AcDbEntity
  8
4
100
AcDbLine
 10
868.5643772865345
 20
265.2510421268241
 30
0.0
 11
868.5643772865345
 21
257.2510421268241
 31
0.0
  0
LINE
  5
31C
330
2
100
AcDbEntity
  8
L-CENTER
100
AcDbLine
 10
862.0643772865345
 20
268.7371585088961
 30
0.0
 11
862.0643772865345
 21
236.269578707854
 31
0.0
  0
LINE
  5
31D
330
2
100
AcDbEntity
  8
4
100
AcDbLine
 10
1076.4104741948
 20
265.2510421268241
 30
0.0
 11
1063.4104741948
 21
265.2510421268241
 31
0.0
  0
LINE
  5
31E
330
2
100
AcDbEntity
  8
4
100
AcDbLine
 10
1077.1604741948
 20
257.2510421268241
 30
0.0
 11
1062.6604741948
 21
257.2510421268241
 31
0.0
  0
LINE
  5
31F
330
2
100
AcDbEntity
  8
4
100
AcDbLine
 10
1076.4104741948
 20
265.2510421268241
 30
0.0
 11
1076.4104741948
 21
257.2510421268241
 31
0.0
  0
LINE
  5
320
330
2
100
AcDbEntity
  8
4
100
AcDbLine
 10
1077.1604741948
 20
257.2510421268241
 30
0.0
 11
1077.1604741948
 21
255.2510421268241
 31
0.0
  0
LINE
  5
321
330
2
100
AcDbEntity
  8
4
100
AcDbLine
 10
1063.4104741948
 20
265.2510421268241
 30
0.0
 11
1063.4104741948
 21
257.2510421268241
 31
0.0
  0
LINE
  5
322
330
2
100
AcDbEntity
  8
4
100
AcDbLine
 10
1062.6604741948
 20
257.2510421268241
 30
0.0
 11
1062.6604741948
 21
255.2510421268241
 31
0.0
  0
LINE
  5
323
330
2
100
AcDbEntity
  8
L-CENTER
100
AcDbLine
 10
1069.9104741948
 20
268.7371585088961
 30
0.0
 11
1069.9104741948
 21
236.269578707854
 31
0.0
  0
LINE
  5
324
330
2
100
AcDbEntity
  8
4
100
AcDbLine
 10
959.4874257406673
 20
265.2510421268241
 30
0.0
 11
972.4874257406673
 21
265.2510421268241
 31
0.0
  0
LINE
  5
325
330
2
100
AcDbEntity
  8
4
100
AcDbLine
 10
958.7374257406673
 20
257.2510421268241
 30
0.0
 11
973.2374257406673
 21
257.2510421268241
 31
0.0
  0
LINE
  5
326
330
2
100
AcDbEntity
  8
4
100
AcDbLine
 10
959.4874257406673
 20
265.2510421268241
 30
0.0
 11
959.4874257406673
 21
257.2510421268241
 31
0.0
  0
LINE
  5
327
330
2
100
AcDbEntity
  8
4
100
AcDbLine
 10
958.7374257406673
 20
257.2510421268241
 30
0.0
 11
958.7374257406673
 21
255.2510421268241
 31
0.0
  0
LINE
  5
328
330
2
100
AcDbEntity
  8
4
100
AcDbLine
 10
972.4874257406673
 20
265.2510421268241
 30
0.0
 11
972.4874257406673
 21
257.2510421268241
 31
0.0
  0
LINE
  5
329
330
2
100
AcDbEntity
  8
4
100
AcDbLine
 10
973.2374257406673
 20
257.2510421268241
 30
0.0
 11
973.2374257406673
 21
255.2510421268241
 31
0.0
  0
LINE
  5
32A
330
2
100
AcDbEntity
  8
L-CENTER
100
AcDbLine
 10
343.1076626327264
 20
540.615581244117
 30
0.0
 11
357.499059008457
 21
565.5422109587448
 31
0.0
  0
CIRCLE
  5
32B
330
2
100
AcDbEntity
  8
4
100
AcDbCircle
 10
350.3033608205918
 20
553.0788961014309
 30
0.0
 40
7.25
  0
CIRCLE
  5
32C
330
2
100
AcDbEntity
  8
4
100
AcDbCircle
 10
350.3033608205918
 20
553.0788961014309
 30
0.0
 40
6.5
  0
LINE
  5
32D
330
2
100
AcDbEntity
  8
2
100
AcDbLine
 10
348.571310013023
 20
550.0788961014309
 30
0.0
 11
346.8392592054539
 21
553.0788961014309
 31
0.0
  0
LINE
  5
32E
330
2
100
AcDbEntity
  8
2
100
AcDbLine
 10
353.7674624357295
 20
553.0788961014307
 30
0.0
 11
352.0354116281607
 21
556.0788961014309
 31
0.0
  0
LINE
  5
32F
330
2
100
AcDbEntity
  8
2
100
AcDbLine
 10
352.0354116281607
 20
550.0788961014309
 30
0.0
 11
353.7674624357295
 21
553.0788961014307
 31
0.0
  0
LINE
  5
330
330
2
100
AcDbEntity
  8
2
100
AcDbLine
 10
346.8392592054539
 20
553.0788961014309
 30
0.0
 11
348.571310013023
 21
556.0788961014309
 31
0.0
  0
LINE
  5
331
330
2
100
AcDbEntity
  8
2
100
AcDbLine
 10
348.571310013023
 20
556.0788961014309
 30
0.0
 11
352.0354116281607
 21
556.0788961014309
 31
0.0
  0
LINE
  5
332
330
2
100
AcDbEntity
  8
2
100
AcDbLine
 10
348.571310013023
 20
550.0788961014309
 30
0.0
 11
352.0354116281607
 21
550.0788961014309
 31
0.0
  0
LINE
  5
333
330
2
100
AcDbEntity
  8
L-CENTER
100
AcDbLine
 10
477.499059008457
 20
540.615581244117
 30
0.0
 11
463.1076626327266
 21
565.5422109587448
 31
0.0
  0
CIRCLE
  5
334
330
2
100
AcDbEntity
  8
4
100
AcDbCircle
 10
470.3033608205918
 20
553.0788961014309
 30
0.0
 40
6.5
  0
CIRCLE
  5
335
330
2
100
AcDbEntity
  8
4
100
AcDbCircle
 10
470.3033608205918
 20
553.0788961014309
 30
0.0
 40
7.25
  0
LINE
  5
336
330
2
100
AcDbEntity
  8
2
100
AcDbLine
 10
472.0354116281609
 20
550.0788961014309
 30
0.0
 11
468.571310013023
 21
550.0788961014309
 31
0.0
  0
LINE
  5
337
330
2
100
AcDbEntity
  8
2
100
AcDbLine
 10
472.0354116281607
 20
556.0788961014309
 30
0.0
 11
468.5713100130232
 21
556.0788961014309
 31
0.0
  0
LINE
  5
338
330
2
100
AcDbEntity
  8
2
100
AcDbLine
 10
473.7674624357297
 20
553.0788961014309
 30
0.0
 11
472.0354116281607
 21
556.0788961014309
 31
0.0
  0
LINE
  5
339
330
2
100
AcDbEntity
  8
2
100
AcDbLine
 10
468.571310013023
 20
550.0788961014309
 30
0.0
 11
466.8392592054541
 21
553.0788961014307
 31
0.0
  0
LINE
  5
33A
330
2
100
AcDbEntity
  8
2
100
AcDbLine
 10
466.8392592054541
 20
553.0788961014307
 30
0.0
 11
468.5713100130232
 21
556.0788961014309
 31
0.0
  0
LINE
  5
33B
330
2
100
AcDbEntity
  8
2
100
AcDbLine
 10
472.0354116281609
 20
550.0788961014309
 30
0.0
 11
473.7674624357297
 21
553.0788961014309
 31
0.0
  0
LINE
  5
33C
330
2
100
AcDbEntity
  8
L-CENTER
100
AcDbLine
 10
343.1076626327264
 20
773.3883078670101
 30
0.0
 11
357.499059008457
 21
748.4616781523823
 31
0.0
  0
CIRCLE
  5
33D
330
2
100
AcDbEntity
  8
4
100
AcDbCircle
 10
350.3033608205918
 20
760.9249930096962
 30
0.0
 40
6.5
  0
CIRCLE
  5
33E
330
2
100
AcDbEntity
  8
4
100
AcDbCircle
 10
350.3033608205918
 20
760.9249930096962
 30
0.0
 40
7.25
  0
LINE
  5
33F
330
2
100
AcDbEntity
  8
2
100
AcDbLine
 10
348.571310013023
 20
763.9249930096962
 30
0.0
 11
352.0354116281607
 21
763.9249930096962
 31
0.0
  0
LINE
  5
340
330
2
100
AcDbEntity
  8
2
100
AcDbLine
 10
348.571310013023
 20
757.9249930096962
 30
0.0
 11
352.0354116281607
 21
757.9249930096962
 31
0.0
  0
LINE
  5
341
330
2
100
AcDbEntity
  8
2
100
AcDbLine
 10
346.8392592054539
 20
760.9249930096962
 30
0.0
 11
348.571310013023
 21
757.9249930096962
 31
0.0
  0
LINE
  5
342
330
2
100
AcDbEntity
  8
2
100
AcDbLine
 10
352.0354116281607
 20
763.9249930096962
 30
0.0
 11
353.7674624357295
 21
760.9249930096962
 31
0.0
  0
LINE
  5
343
330
2
100
AcDbEntity
  8
2
100
AcDbLine
 10
353.7674624357295
 20
760.9249930096962
 30
0.0
 11
352.0354116281607
 21
757.9249930096962
 31
0.0
  0
LINE
  5
344
330
2
100
AcDbEntity
  8
2
100
AcDbLine
 10
348.571310013023
 20
763.9249930096962
 30
0.0
 11
346.8392592054539
 21
760.9249930096962
 31
0.0
  0
CIRCLE
  5
345
330
2
100
AcDbEntity
  8
4
100
AcDbCircle
 10
470.3033608205918
 20
760.9249930096962
 30
0.0
 40
7.25
  0
CIRCLE
  5
346
330
2
100
AcDbEntity
  8
4
100
AcDbCircle
 10
470.3033608205918
 20
760.9249930096962
 30
0.0
 40
6.5
  0
LINE
  5
347
330
2
100
AcDbEntity
  8
L-CENTER
100
AcDbLine
 10
477.499059008457
 20
773.3883078670101
 30
0.0
 11
463.1076626327266
 21
748.4616781523823
 31
0.0
  0
LINE
  5
348
330
2
100
AcDbEntity
  8
2
100
AcDbLine
 10
472.0354116281609
 20
763.9249930096962
 30
0.0
 11
473.7674624357297
 21
760.9249930096962
 31
0.0
  0
LINE
  5
349
330
2
100
AcDbEntity
  8
2
100
AcDbLine
 10
466.8392592054541
 20
760.9249930096962
 30
0.0
 11
468.5713100130232
 21
757.9249930096962
 31
0.0
  0
LINE
  5
34A
330
2
100
AcDbEntity
  8
2
100
AcDbLine
 10
468.571310013023
 20
763.9249930096962
 30
0.0
 11
466.8392592054541
 21
760.9249930096962
 31
0.0
  0
LINE
  5
34B
330
2
100
AcDbEntity
  8
2
100
AcDbLine
 10
473.7674624357297
 20
760.9249930096962
 30
0.0
 11
472.0354116281607
 21
757.9249930096962
 31
0.0
  0
LINE
  5
34C
330
2
100
AcDbEntity
  8
2
100
AcDbLine
 10
472.0354116281607
 20
757.9249930096962
 30
0.0
 11
468.5713100130232
 21
757.9249930096962
 31
0.0
  0
LINE
  5
34D
330
2
100
AcDbEntity
  8
2
100
AcDbLine
 10
472.0354116281609
 20
763.9249930096962
 30
0.0
 11
468.571310013023
 21
763.9249930096962
 31
0.0
  0
CIRCLE
  5
34E
330
2
100
AcDbEntity
  8
4
100
AcDbCircle
 10
290.3033608205918
 20
657.0019445555636
 30
0.0
 40
6.5
  0
CIRCLE
  5
34F
330
2
100
AcDbEntity
  8
4
100
AcDbCircle
 10
290.3033608205918
 20
657.0019445555636
 30
0.0
 40
7.25
  0
LINE
  5
350
330
2
100
AcDbEntity
  8
2
100
AcDbLine
 10
288.5713100130228
 20
654.0019445555636
 30
0.0
 11
292.0354116281607
 21
654.0019445555636
 31
0.0
  0
LINE
  5
351
330
2
100
AcDbEntity
  8
2
100
AcDbLine
 10
288.571310013023
 20
660.0019445555636
 30
0.0
 11
292.0354116281604
 21
660.0019445555636
 31
0.0
  0
LINE
  5
352
330
2
100
AcDbEntity
  8
2
100
AcDbLine
 10
286.8392592054539
 20
657.0019445555636
 30
0.0
 11
288.571310013023
 21
660.0019445555636
 31
0.0
  0
LINE
  5
353
330
2
100
AcDbEntity
  8
2
100
AcDbLine
 10
292.0354116281607
 20
654.0019445555636
 30
0.0
 11
293.7674624357295
 21
657.0019445555631
 31
0.0
  0
LINE
  5
354
330
2
100
AcDbEntity
  8
2
100
AcDbLine
 10
293.7674624357295
 20
657.0019445555631
 30
0.0
 11
292.0354116281604
 21
660.0019445555636
 31
0.0
  0
LINE
  5
355
330
2
100
AcDbEntity
  8
2
100
AcDbLine
 10
288.5713100130228
 20
654.0019445555636
 30
0.0
 11
286.8392592054539
 21
657.0019445555636
 31
0.0
  0
CIRCLE
  5
356
330
2
100
AcDbEntity
  8
4
100
AcDbCircle
 10
530.3033608205918
 20
657.0019445555636
 30
0.0
 40
7.25
  0
CIRCLE
  5
357
330
2
100
AcDbEntity
  8
4
100
AcDbCircle
 10
530.3033608205918
 20
657.0019445555636
 30
0.0
 40
6.5
  0
LINE
  5
358
330
2
100
AcDbEntity
  8
2
100
AcDbLine
 10
532.0354116281609
 20
654.0019445555636
 30
0.0
 11
533.7674624357297
 21
657.0019445555636
 31
0.0
  0
LINE
  5
359
330
2
100
AcDbEntity
  8
2
100
AcDbLine
 10
533.7674624357297
 20
657.0019445555636
 30
0.0
 11
532.0354116281609
 21
660.0019445555636
 31
0.0
  0
LINE
  5
35A
330
2
100
AcDbEntity
  8
2
100
AcDbLine
 10
526.8392592054541
 20
657.0019445555631
 30
0.0
 11
528.5713100130232
 21
660.0019445555636
 31
0.0
  0
LINE
  5
35B
330
2
100
AcDbEntity
  8
2
100
AcDbLine
 10
528.571310013023
 20
654.0019445555636
 30
0.0
 11
526.8392592054541
 21
657.0019445555631
 31
0.0
  0
LINE
  5
35C
330
2
100
AcDbEntity
  8
2
100
AcDbLine
 10
532.0354116281609
 20
660.0019445555636
 30
0.0
 11
528.5713100130232
 21
660.0019445555636
 31
0.0
  0
LINE
  5
35D
330
2
100
AcDbEntity
  8
2
100
AcDbLine
 10
532.0354116281609
 20
654.0019445555636
 30
0.0
 11
528.571310013023
 21
654.0019445555636
 31
0.0
  0
LINE
  5
35E
330
2
100
AcDbEntity
  8
4
100
AcDbLine
 10
972.4874257406673
 20
262.8510411268242
 30
0.0
 11
1010.987425740667
 21
262.8510411268242
 31
0.0
  0
ARC
  5
4F6
330
2
100
AcDbEntity
  8
4
100
AcDbCircle
 10
410.3033780573872
 20
657.0019445555636
 30
0.0
 40
19.000008
100
AcDbArc
 50
285.2582793918033
 51
254.7424920000021
  0
LINE
  5
4F7
330
2
100
AcDbEntity
  8
4
100
AcDbLine
 10
405.3036200573873
 20
642.5019455555635
 30
0.0
 11
405.3036200573873
 21
634.5019445555636
 31
0.0
  0
LINE
  5
4F8
330
2
100
AcDbEntity
  8
4
100
AcDbLine
 10
415.3036220573873
 20
634.5019445555636
 30
0.0
 11
415.3036220573873
 21
642.5019455555635
 31
0.0
  0
LINE
  5
4F9
330
2
100
AcDbEntity
  8
4
100
AcDbLine
 10
405.3036200573873
 20
634.5019445555636
 30
0.0
 11
415.3036220573873
 21
634.5019445555636
 31
0.0
  0
LINE
  5
4FA
330
2
100
AcDbEntity
  8
4
100
AcDbLine
 10
405.3036200573873
 20
642.5019455555635
 30
0.0
 11
415.3036220573873
 21
642.5019455555635
 31
0.0
  0
LINE
  5
4FB
330
2
100
AcDbEntity
  8
4
100
AcDbLine
 10
391.3033618205917
 20
292.8510411268242
 30
0.0
 11
391.3033618205917
 21
366.851042126824
 31
0.0
  0
LINE
  5
4FC
330
2
100
AcDbEntity
  8
4
100
AcDbLine
 10
390.3033598205919
 20
274.8510411268242
 30
0.0
 11
390.3033598205919
 21
292.8510411268242
 31
0.0
  0
LINE
  5
4FD
330
2
100
AcDbEntity
  8
4
100
AcDbLine
 10
430.3033618205917
 20
292.8510411268242
 30
0.0
 11
390.3033598205919
 21
292.8510411268242
 31
0.0
  0
LINE
  5
4FE
330
2
100
AcDbEntity
  8
4
100
AcDbLine
 10
391.3033618205917
 20
366.851042126824
 30
0.0
 11
405.3033598205919
 21
366.851042126824
 31
0.0
  0
LINE
  5
4FF
330
2
100
AcDbEntity
  8
4
100
AcDbLine
 10
392.3033608205918
 20
367.8510411268242
 30
0.0
 11
391.3033618205917
 21
366.851042126824
 31
0.0
  0
LINE
  5
500
330
2
100
AcDbEntity
  8
4
100
AcDbLine
 10
405.3033598205919
 20
302.8510401268243
 30
0.0
 11
405.3033598205919
 21
367.8510411268242
 31
0.0
  0
LINE
  5
501
330
2
100
AcDbEntity
  8
4
100
AcDbLine
 10
415.3033618205917
 20
302.8510401268243
 30
0.0
 11
415.3033618205917
 21
367.8510411268242
 31
0.0
  0
LINE
  5
502
330
2
100
AcDbEntity
  8
4
100
AcDbLine
 10
429.3033598205919
 20
292.8510411268242
 30
0.0
 11
429.3033598205919
 21
366.851042126824
 31
0.0
  0
ARC
  5
503
330
2
100
AcDbEntity
  8
4
100
AcDbCircle
 10
410.3033608205918
 20
302.8510401268243
 30
0.0
 40
5.000000999999999
100
AcDbArc
 50
180.0
 51
0.0
  0
LINE
  5
504
330
2
100
AcDbEntity
  8
4
100
AcDbLine
 10
415.3033618205917
 20
366.851042126824
 30
0.0
 11
429.3033598205919
 21
366.851042126824
 31
0.0
  0
LINE
  5
505
330
2
100
AcDbEntity
  8
4
100
AcDbLine
 10
428.3033608205918
 20
367.8510411268242
 30
0.0
 11
429.3033598205919
 21
366.851042126824
 31
0.0
  0
LINE
  5
506
330
2
100
AcDbEntity
  8
4
100
AcDbLine
 10
392.3033608205918
 20
367.8510411268242
 30
0.0
 11
428.3033608205918
 21
367.8510411268242
 31
0.0
  0
LINE
  5
507
330
2
100
AcDbEntity
  8
4
100
AcDbLine
 10
430.3033618205917
 20
274.8510411268242
 30
0.0
 11
430.3033618205917
 21
292.8510411268242
 31
0.0
  0
LINE
  5
508
330
2
100
AcDbEntity
  8
4
100
AcDbLine
 10
441.3033598205919
 20
274.8510411268242
 30
0.0
 11
379.3033618205917
 21
274.8510411268242
 31
0.0
  0
LINE
  5
509
330
2
100
AcDbEntity
  8
4
100
AcDbLine
 10
379.3033618205917
 20
273.851042126824
 30
0.0
 11
379.3033618205917
 21
274.8510411268242
 31
0.0
  0
LINE
  5
50A
330
2
100
AcDbEntity
  8
4
100
AcDbLine
 10
441.3033598205919
 20
274.8510411268242
 30
0.0
 11
441.3033598205919
 21
273.851042126824
 31
0.0
  0
LINE
  5
571
330
2
100
AcDbEntity
  8
4
100
AcDbLine
 10
255.3033598205919
 20
204.3510411268242
 30
0.0
 11
200.3033608205918
 21
204.3510411268242
 31
0.0
  0
LINE
  5
572
330
2
100
AcDbEntity
  8
4
100
AcDbLine
 10
260.3033608205918
 20
201.3510411268242
 30
0.0
 11
201.3033598205919
 21
201.3510411268242
 31
0.0
  0
LINE
  5
573
330
2
100
AcDbEntity
  8
4
100
AcDbLine
 10
260.3033608205918
 20
174.3510411268242
 30
0.0
 11
201.3033598205919
 21
174.3510411268242
 31
0.0
  0
LINE
  5
574
330
2
100
AcDbEntity
  8
4
100
AcDbLine
 10
260.3033608205918
 20
202.8510411268242
 30
0.0
 11
260.3033608205918
 21
172.8510411268242
 31
0.0
  0
LINE
  5
575
330
2
100
AcDbEntity
  8
4
100
AcDbLine
 10
281.3033608205918
 20
172.8510411268242
 30
0.0
 11
260.3033608205918
 21
172.8510411268242
 31
0.0
  0
LINE
  5
576
330
2
100
AcDbEntity
  8
4
100
AcDbLine
 10
281.3033608205918
 20
202.8510411268242
 30
0.0
 11
260.3033608205918
 21
202.8510411268242
 31
0.0
  0
LINE
  5
577
330
2
100
AcDbEntity
  8
4
100
AcDbLine
 10
255.3033598205919
 20
204.3510411268242
 30
0.0
 11
255.3033598205919
 21
201.3510411268242
 31
0.0
  0
LINE
  5
578
330
2
100
AcDbEntity
  8
4
100
AcDbLine
 10
200.3033608205918
 20
175.3510401268243
 30
0.0
 11
200.3033608205918
 21
204.3510411268242
 31
0.0
  0
LINE
  5
579
330
2
100
AcDbEntity
  8
4
100
AcDbLine
 10
201.3033598205919
 20
201.3510411268242
 30
0.0
 11
201.3033598205919
 21
174.3510411268242
 31
0.0
  0
LINE
  5
57A
330
2
100
AcDbEntity
  8
4
100
AcDbLine
 10
200.3033608205918
 20
175.3510401268243
 30
0.0
 11
201.3033598205919
 21
174.3510411268242
 31
0.0
  0
LINE
  5
57B
330
2
100
AcDbEntity
  8
4
100
AcDbLine
 10
201.3033598205919
 20
201.3510411268242
 30
0.0
 11
200.3033608205918
 21
200.351042126824
 31
0.0
  0
LINE
  5
57F
330
2
100
AcDbEntity
  8
4
100
AcDbLine
 10
251.8033608205918
 20
530.5019445555636
 30
0.0
 11
200.3033618205917
 21
530.5019445555636
 31
0.0
  0
LINE
  5
580
330
2
100
AcDbEntity
  8
4
100
AcDbLine
 10
251.8033608205918
 20
537.5019445555636
 30
0.0
 11
200.3033618205917
 21
537.5019445555636
 31
0.0
  0
LINE
  5
581
330
2
100
AcDbEntity
  8
4
100
AcDbLine
 10
260.3033618205917
 20
547.5019445555636
 30
0.0
 11
201.3033608205918
 21
547.5019445555636
 31
0.0
  0
LINE
  5
582
330
2
100
AcDbEntity
  8
4
100
AcDbLine
 10
260.3033618205917
 20
520.5019445555636
 30
0.0
 11
201.3033608205918
 21
520.5019445555636
 31
0.0
  0
ARC
  5
583
330
2
100
AcDbEntity
  8
4
100
AcDbCircle
 10
251.8033608205918
 20
534.0019445555636
 30
0.0
 40
3.5
100
AcDbArc
 50
270.0
 51
90.0
  0
LINE
  5
584
330
2
100
AcDbEntity
  8
4
100
AcDbLine
 10
260.3033618205917
 20
549.0019445555636
 30
0.0
 11
260.3033618205917
 21
519.0019445555636
 31
0.0
  0
LINE
  5
585
330
2
100
AcDbEntity
  8
4
100
AcDbLine
 10
281.3033618205917
 20
519.0019445555636
 30
0.0
 11
260.3033618205917
 21
519.0019445555636
 31
0.0
  0
LINE
  5
586
330
2
100
AcDbEntity
  8
4
100
AcDbLine
 10
281.3033618205917
 20
549.0019445555636
 30
0.0
 11
260.3033618205917
 21
549.0019445555636
 31
0.0
  0
LINE
  5
587
330
2
100
AcDbEntity
  8
4
100
AcDbLine
 10
200.3033618205917
 20
521.5019435555637
 30
0.0
 11
200.3033618205917
 21
546.5019455555635
 31
0.0
  0
LINE
  5
588
330
2
100
AcDbEntity
  8
4
100
AcDbLine
 10
201.3033608205918
 20
530.5019445555636
 30
0.0
 11
201.3033608205918
 21
520.5019445555636
 31
0.0
  0
LINE
  5
589
330
2
100
AcDbEntity
  8
4
100
AcDbLine
 10
200.3033618205917
 20
521.5019435555637
 30
0.0
 11
201.3033608205918
 21
520.5019445555636
 31
0.0
  0
LINE
  5
58A
330
2
100
AcDbEntity
  8
4
100
AcDbLine
 10
201.3033608205918
 20
547.5019445555636
 30
0.0
 11
200.3033618205917
 21
546.5019455555635
 31
0.0
  0
LINE
  5
58B
330
2
100
AcDbEntity
  8
4
100
AcDbLine
 10
201.3033608205918
 20
547.5019445555636
 30
0.0
 11
201.3033608205918
 21
537.5019445555638
 31
0.0
  0
TEXT
  5
5BD
330
2
100
AcDbEntity
  8
3
100
AcDbText
 10
668.3537597317578
 20
11.16732475439682
 30
0.0
 40
12.0
  1
LC5-04
  7
KANJI
100
AcDbText
  0
ENDSEC
  0
SECTION
  2
OBJECTS
  0
DICTIONARY
  5
C
330
0
100
AcDbDictionary
281
     1
  3
ACAD_CIP_PREVIOUS_PRODUCT_INFO
350
4C3
  3
ACAD_COLOR
350
49
  3
ACAD_DETAILVIEWSTYLE
350
4BD
  3
ACAD_GROUP
350
36
  3
ACAD_LAYOUT
350
19
  3
ACAD_MATERIAL
350
E
  3
ACAD_MLEADERSTYLE
350
4C
  3
ACAD_MLINESTYLE
350
37
  3
ACAD_PLOTSETTINGS
350
38
  3
ACAD_PLOTSTYLENAME
350
B
  3
ACAD_SCALELIST
350
4A
  3
ACAD_SECTIONVIEWSTYLE
350
4BB
  3
ACAD_TABLESTYLE
350
4B
  3
ACAD_VISUALSTYLE
350
2F
  3
ACDBHEADERROUNDTRIPXREC
350
5C0
  3
AcDbVariableDictionary
350
49A
  3
DWGPROPS
350
5C3
  0
DICTIONARY
  5
5C4
330
2C
100
AcDbDictionary
280
     1
281
     1
  3
ACAD_XREC_ROUNDTRIP
360
5C5
  0
DICTIONARY
  5
22
330
21
100
AcDbDictionary
280
     1
281
     1
  3
ACAD_LAYERSTATES
360
23
  0
DICTIONARY
  5
8
330
7
100
AcDbDictionary
280
     1
281
     1
  3
ADSK_XREC_LAYER_RECONCILED
360
9
  0
DICTIONARY
  5
36F
330
36E
100
AcDbDictionary
280
     1
281
     1
  3
ADSK_XREC_LAYER_RECONCILED
360
370
  0
DICTIONARY
  5
4E
330
4D
100
AcDbDictionary
280
     1
281
     1
  3
ADSK_XREC_LAYER_RECONCILED
360
4F
  0
DICTIONARY
  5
6F
330
6E
100
AcDbDictionary
280
     1
281
     1
  3
ADSK_XREC_LAYER_RECONCILED
360
70
  0
DICTIONARY
  5
73
330
72
100
AcDbDictionary
280
     1
281
     1
  3
ADSK_XREC_LAYER_RECONCILED
360
74
  0
DICTIONARY
  5
367
330
366
100
AcDbDictionary
280
     1
281
     1
  3
ADSK_XREC_LAYER_RECONCILED
360
368
  0
DICTIONARY
  5
68
330
67
100
AcDbDictionary
280
     1
281
     1
  3
ADSK_XREC_LAYER_RECONCILED
360
69
  0
DICTIONARY
  5
3
330
2
100
AcDbDictionary
280
     1
281
     1
  3
ACAD_SORTENTS
360
498
  0
XRECORD
  5
4C3
102
{ACAD_REACTORS
330
C
102
}
330
C
100
AcDbXrecord
280
     1
300
ACD
300
2014
300
ACD_F_S
  0
DICTIONARY
  5
49
102
{ACAD_REACTORS
330
C
102
}
330
C
100
AcDbDictionary
281
     1
  0
DICTIONARY
  5
4BD
102
{ACAD_REACTORS
330
C
102
}
330
C
100
AcDbDictionary
281
     1
  3
Imperial24
350
4BE
  0
DICTIONARY
  5
36
102
{ACAD_REACTORS
330
C
102
}
330
C
100
AcDbDictionary
281
     1
  0
DICTIONARY
  5
19
102
{ACAD_REACTORS
330
C
102
}
330
C
100
AcDbDictionary
281
     1
  3
Model
350
18
  3
ﾚｲｱｳﾄ1
350
20
  0
DICTIONARY
  5
E
102
{ACAD_REACTORS
330
C
102
}
330
C
100
AcDbDictionary
281
     1
  3
ByBlock
350
41
  3
ByLayer
350
39
  3
Global
350
D
  0
DICTIONARY
  5
4C
102
{ACAD_REACTORS
330
C
102
}
330
C
100
AcDbDictionary
281
     1
  3
Standard
350
4BA
  0
DICTIONARY
  5
37
102
{ACAD_REACTORS
330
C
102
}
330
C
100
AcDbDictionary
281
     1
  3
STANDARD
350
51
  0
DICTIONARY
  5
38
102
{ACAD_REACTORS
330
C
102
}
330
C
100
AcDbDictionary
281
     1
  0
ACDBDICTIONARYWDFLT
  5
B
102
{ACAD_REACTORS
330
C
102
}
330
C
100
AcDbDictionary
281
     1
  3
Normal
350
A
100
AcDbDictionaryWithDefault
340
A
  0
DICTIONARY
  5
4A
102
{ACAD_REACTORS
330
C
102
}
330
C
100
AcDbDictionary
281
     1
  3
A0
350
55
  3
A1
350
56
  3
A2
350
57
  3
A3
350
58
  3
A4
350
59
  3
A5
350
5A
  3
A6
350
5B
  3
A7
350
5C
  3
A8
350
5D
  3
A9
350
5E
  3
B0
350
5F
  3
B1
350
60
  3
B2
350
61
  3
B3
350
62
  3
B4
350
63
  3
B5
350
64
  3
B6
350
65
  0
DICTIONARY
  5
4BB
102
{ACAD_REACTORS
330
C
102
}
330
C
100
AcDbDictionary
281
     1
  3
Imperial24
350
4BC
  0
DICTIONARY
  5
4B
102
{ACAD_REACTORS
330
C
102
}
330
C
100
AcDbDictionary
281
     1
  3
Standard
350
52
  0
DICTIONARY
  5
2F
102
{ACAD_REACTORS
330
C
102
}
330
C
100
AcDbDictionary
281
     1
  3
2dWireframe
350
2E
  3
Basic
350
4A9
  3
Brighten
350
4AD
  3
ColorChange
350
4B1
  3
Conceptual
350
4AB
  3
Dim
350
4AC
  3
EdgeColorOff
350
4B9
  3
Facepattern
350
4B0
  3
Flat
350
4A5
  3
FlatWithEdges
350
4A6
  3
Gouraud
350
4A7
  3
GouraudWithEdges
350
4A8
  3
Hidden
350
4AA
  3
JitterOff
350
4B7
  3
Linepattern
350
4AF
  3
OverhangOff
350
4B8
  3
Realistic
350
53
  3
Shaded
350
4B6
  3
Shaded with edges
350
4B5
  3
Shades of Gray
350
4B2
  3
Sketchy
350
4B3
  3
Thicken
350
4AE
  3
Wireframe
350
54
  3
X-Ray
350
4B4
  0
DICTIONARY
  5
5C0
102
{ACAD_REACTORS
330
C
102
}
330
C
100
AcDbDictionary
281
     1
  3
COLORDICT
350
5C1
  3
MATERIALDICT
350
5C2
  0
DICTIONARY
  5
49A
102
{ACAD_REACTORS
330
C
102
}
330
C
100
AcDbDictionary
281
     1
  3
CANNOSCALE
350
4A0
  3
CMLEADERSTYLE
350
49C
  3
CTABLESTYLE
350
49B
  3
CVIEWDETAILSTYLE
350
49D
  3
CVIEWSECTIONSTYLE
350
49E
  3
DIMASSOC
350
5BE
  3
HIDETEXT
350
5BF
  3
LAYEREVAL
350
4A2
  3
LAYERNOTIFY
350
4A3
  3
LIGHTINGUNITS
350
4A1
  3
MSLTSCALE
350
49F
  3
XCLIPFRAME
350
4F2
  0
XRECORD
  5
5C3
102
{ACAD_REACTORS
330
C
102
}
330
C
100
AcDbXrecord
280
     1
  1
DWGPROPS COOKIE
  2

  3

  4

  6

  7

  8
sg-d04
  9

300
=
301
=
302
=
303
=
304
=
305
=
306
=
307
=
308
=
309
=
 40
0.0
 41
2457533.305808426
 42
2457871.464695127
  1

 90
        0
  0
XRECORD
  5
5C5
102
{ACAD_REACTORS
330
5C4
102
}
330
5C4
100
AcDbXrecord
280
     1
102
VTR_0.000_0.000_1.000_1.000_VISUALSTYLE
340
2E
102
VTR_0.000_0.000_1.000_1.000_GRIDDISPLAY
 70
     3
102
VTR_0.000_0.000_1.000_1.000_GRIDMAJOR
 70
     5
102
VTR_0.000_0.000_1.000_1.000_DEFAULTLIGHTING
280
     1
102
VTR_0.000_0.000_1.000_1.000_DEFAULTLIGHTINGTYPE
 70
     1
102
VTR_0.000_0.000_1.000_1.000_BRIGHTNESS
141
0.0
102
VTR_0.000_0.000_1.000_1.000_CONTRAST
142
0.0
  0
DICTIONARY
  5
23
102
{ACAD_REACTORS
330
22
102
}
330
22
100
AcDbDictionary
281
     1
  0
XRECORD
  5
9
102
{ACAD_REACTORS
330
8
102
}
330
8
100
AcDbXrecord
280
     1
290
     1
  0
XRECORD
  5
370
102
{ACAD_REACTORS
330
36F
102
}
330
36F
100
AcDbXrecord
280
     1
290
     1
  0
XRECORD
  5
4F
102
{ACAD_REACTORS
330
4E
102
}
330
4E
100
AcDbXrecord
280
     1
290
     1
  0
XRECORD
  5
70
102
{ACAD_REACTORS
330
6F
102
}
330
6F
100
AcDbXrecord
280
     1
290
     1
  0
XRECORD
  5
74
102
{ACAD_REACTORS
330
73
102
}
330
73
100
AcDbXrecord
280
     1
290
     1
  0
XRECORD
  5
368
102
{ACAD_REACTORS
330
367
102
}
330
367
100
AcDbXrecord
280
     1
290
     1
  0
XRECORD
  5
69
102
{ACAD_REACTORS
330
68
102
}
330
68
100
AcDbXrecord
280
     1
290
     1
  0
SORTENTSTABLE
  5
498
102
{ACAD_REACTORS
330
3
102
}
330
3
100
AcDbSortentsTable
330
2
331
0
  5
171
331
7E
  5
7F
331
7F
  5
81
331
80
  5
82
331
81
  5
83
331
82
  5
84
331
83
  5
85
331
84
  5
86
331
85
  5
87
331
86
  5
88
331
87
  5
89
331
88
  5
8A
331
89
  5
8C
331
8A
  5
8D
331
8B
  5
8E
331
8C
  5
8F
331
8D
  5
90
331
8E
  5
91
331
8F
  5
92
331
90
  5
93
331
91
  5
94
331
92
  5
95
331
93
  5
96
331
94
  5
97
331
95
  5
98
331
96
  5
99
331
97
  5
9A
331
98
  5
9B
331
99
  5
9C
331
9A
  5
9D
331
9B
  5
9E
331
9C
  5
9F
331
9D
  5
A0
331
9E
  5
A1
331
9F
  5
A2
331
A0
  5
A3
331
A1
  5
A4
331
A2
  5
A5
331
A3
  5
A6
331
A4
  5
A7
331
A5
  5
A8
331
A6
  5
A9
331
A7
  5
AA
331
A8
  5
AB
331
A9
  5
AC
331
AA
  5
AD
331
AB
  5
AE
331
AC
  5
AF
331
AD
  5
B0
331
AE
  5
B1
331
AF
  5
B2
331
B0
  5
B3
331
B1
  5
B4
331
B2
  5
B5
331
B3
  5
B6
331
B4
  5
B7
331
B5
  5
B8
331
B6
  5
B9
331
B7
  5
BA
331
B8
  5
BB
331
B9
  5
BC
331
BA
  5
BD
331
BB
  5
BE
331
BC
  5
BF
331
BD
  5
C0
331
BE
  5
C1
331
BF
  5
C2
331
C0
  5
C3
331
C1
  5
C4
331
C2
  5
C5
331
C3
  5
C6
331
C4
  5
C7
331
C5
  5
C8
331
C6
  5
C9
331
C7
  5
CA
331
C8
  5
CB
331
C9
  5
CC
331
CA
  5
CD
331
CB
  5
CE
331
CC
  5
CF
331
CD
  5
D0
331
CE
  5
D1
331
CF
  5
D2
331
D0
  5
D3
331
D1
  5
D4
331
D2
  5
D5
331
D3
  5
D6
331
D4
  5
D7
331
D5
  5
D8
331
D6
  5
D9
331
D7
  5
DA
331
D8
  5
DB
331
D9
  5
DC
331
DA
  5
DD
331
DB
  5
DE
331
DC
  5
E1
331
DD
  5
E2
331
DE
  5
E3
331
DF
  5
E4
331
E0
  5
E5
331
E1
  5
E6
331
E2
  5
E7
331
E3
  5
E8
331
E4
  5
E9
331
E5
  5
EA
331
E6
  5
EB
331
E7
  5
EC
331
E8
  5
ED
331
E9
  5
EE
331
EA
  5
EF
331
EB
  5
F0
331
EC
  5
F1
331
ED
  5
F2
331
EE
  5
F3
331
EF
  5
F4
331
F0
  5
F5
331
F1
  5
F6
331
F2
  5
F7
331
F3
  5
F8
331
F4
  5
F9
331
F5
  5
FA
331
F6
  5
FB
331
F7
  5
FC
331
F8
  5
FD
331
F9
  5
FE
331
FA
  5
FF
331
FB
  5
100
331
FC
  5
101
331
FD
  5
102
331
FE
  5
103
331
FF
  5
104
331
100
  5
105
331
101
  5
106
331
102
  5
107
331
103
  5
108
331
104
  5
109
331
105
  5
10A
331
106
  5
10B
331
107
  5
10C
331
108
  5
10D
331
109
  5
10E
331
10A
  5
10F
331
10B
  5
110
331
10C
  5
111
331
10D
  5
112
331
10E
  5
113
331
10F
  5
114
331
110
  5
115
331
111
  5
116
331
112
  5
117
331
113
  5
118
331
114
  5
119
331
115
  5
11A
331
116
  5
11B
331
117
  5
11C
331
118
  5
11D
331
119
  5
11E
331
11A
  5
11F
331
11B
  5
120
331
11C
  5
121
331
11D
  5
122
331
11E
  5
123
331
11F
  5
124
331
120
  5
125
331
121
  5
126
331
122
  5
127
331
123
  5
128
331
124
  5
129
331
125
  5
12A
331
126
  5
12B
331
127
  5
12C
331
128
  5
12D
331
129
  5
12E
331
12A
  5
12F
331
12B
  5
130
331
12C
  5
131
331
12D
  5
132
331
12E
  5
133
331
12F
  5
134
331
130
  5
135
331
131
  5
136
331
132
  5
137
331
133
  5
138
331
134
  5
139
331
135
  5
13A
331
136
  5
13B
331
137
  5
13C
331
148
  5
14D
331
15B
  5
161
331
15C
  5
162
331
15D
  5
163
331
15E
  5
164
331
15F
  5
165
331
160
  5
166
331
161
  5
167
331
162
  5
168
331
163
  5
169
331
164
  5
16A
331
165
  5
16B
331
166
  5
16C
331
167
  5
16D
331
169
  5
16F
331
1D2
  5
1D8
331
1D3
  5
1D9
331
1D4
  5
1DA
331
1D5
  5
1DB
331
1D6
  5
1DC
331
20A
  5
210
331
20B
  5
211
331
21D
  5
223
331
21E
  5
224
331
21F
  5
225
331
220
  5
226
331
221
  5
227
331
222
  5
228
331
223
  5
229
331
224
  5
22A
331
225
  5
22B
331
226
  5
22C
331
227
  5
22D
331
229
  5
22F
331
22A
  5
230
331
22B
  5
231
331
22D
  5
233
331
22E
  5
234
331
22F
  5
235
331
230
  5
236
331
231
  5
237
331
232
  5
238
331
233
  5
239
331
234
  5
23A
331
235
  5
23B
331
236
  5
23C
331
237
  5
23D
331
238
  5
23E
331
239
  5
23F
331
23A
  5
240
331
23B
  5
241
331
23C
  5
242
331
23D
  5
243
331
23E
  5
244
331
23F
  5
245
331
240
  5
246
331
241
  5
247
331
242
  5
248
331
243
  5
249
331
244
  5
24A
331
245
  5
24B
331
246
  5
24C
331
247
  5
24D
331
248
  5
24E
331
249
  5
24F
331
24A
  5
250
331
24B
  5
251
331
24C
  5
252
331
24D
  5
253
331
24E
  5
254
331
24F
  5
255
331
250
  5
256
331
251
  5
257
331
252
  5
258
331
253
  5
259
331
254
  5
25A
331
255
  5
25B
331
256
  5
25C
331
257
  5
25D
331
258
  5
25E
331
259
  5
25F
331
25A
  5
260
331
25B
  5
261
331
25C
  5
262
331
25D
  5
263
331
25E
  5
264
331
25F
  5
265
331
260
  5
266
331
261
  5
267
331
262
  5
268
331
263
  5
269
331
264
  5
26A
331
265
  5
26B
331
266
  5
26C
331
267
  5
26D
331
268
  5
26E
331
269
  5
26F
331
26A
  5
270
331
26B
  5
271
331
26C
  5
272
331
26D
  5
273
331
26E
  5
274
331
26F
  5
275
331
270
  5
276
331
271
  5
277
331
272
  5
278
331
273
  5
279
331
274
  5
27A
331
275
  5
27B
331
276
  5
27C
331
277
  5
27D
331
278
  5
27E
331
279
  5
27F
331
27A
  5
280
331
27B
  5
281
331
27C
  5
282
331
27D
  5
283
331
27E
  5
284
331
27F
  5
285
331
280
  5
286
331
281
  5
287
331
282
  5
288
331
283
  5
289
331
284
  5
28A
331
285
  5
28B
331
286
  5
28C
331
287
  5
28D
331
288
  5
28E
331
289
  5
28F
331
28A
  5
290
331
28B
  5
291
331
28C
  5
292
331
28D
  5
293
331
28E
  5
294
331
28F
  5
295
331
290
  5
296
331
291
  5
297
331
292
  5
298
331
293
  5
299
331
294
  5
29A
331
295
  5
29B
331
296
  5
29C
331
297
  5
29D
331
298
  5
29E
331
299
  5
29F
331
29A
  5
2A0
331
29B
  5
2A1
331
29C
  5
2A2
331
29D
  5
2A3
331
29E
  5
2A4
331
29F
  5
2A5
331
2A0
  5
2A6
331
2A1
  5
2A7
331
2A2
  5
2A8
331
2A3
  5
2A9
331
2A4
  5
2AA
331
2A5
  5
2AB
331
2A6
  5
2AC
331
2A7
  5
2AD
331
2A8
  5
2AE
331
2A9
  5
2AF
331
2AA
  5
2B0
331
2AB
  5
2B1
331
2AC
  5
2B2
331
2AD
  5
2B3
331
2AE
  5
2B4
331
2AF
  5
2B5
331
2B0
  5
2B6
331
2B1
  5
2B7
331
2B2
  5
2B8
331
2B3
  5
2B9
331
2B4
  5
2BA
331
2B5
  5
2BB
331
2B6
  5
2BC
331
2B7
  5
2BD
331
2B8
  5
2BE
331
2B9
  5
2BF
331
2BA
  5
2C0
331
2BB
  5
2C1
331
2BC
  5
2C4
331
2BD
  5
2C5
331
2BE
  5
2C6
331
2BF
  5
2C7
331
2C2
  5
2C8
331
2C3
  5
2C9
331
2C4
  5
2CA
331
2C5
  5
2CB
331
2C6
  5
2CC
331
2C7
  5
2CD
331
2C8
  5
2CE
331
2C9
  5
2CF
331
2CA
  5
2D0
331
2CB
  5
2D1
331
2CC
  5
2D3
331
2CD
  5
2D7
331
2CE
  5
2D8
331
2CF
  5
2D9
331
2D1
  5
2DA
331
2D5
  5
2DB
331
2D6
  5
2DC
331
2D7
  5
2DD
331
2D8
  5
2DE
331
2D9
  5
2DF
331
2DA
  5
2E0
331
2DB
  5
2E1
331
2DC
  5
2E2
331
2DD
  5
2E3
331
2DE
  5
2E4
331
2DF
  5
2E5
331
2E0
  5
2E6
331
2E1
  5
2E7
331
2E2
  5
2E8
331
2E3
  5
2E9
331
2E4
  5
2EA
331
2E5
  5
2EB
331
2E6
  5
2EC
331
2E7
  5
2ED
331
2E8
  5
2EE
331
2E9
  5
2EF
331
2EA
  5
2F0
331
2EB
  5
2F1
331
2EC
  5
2F2
331
2ED
  5
2F3
331
2EE
  5
2F4
331
2EF
  5
2F5
331
2F0
  5
2F6
331
2F1
  5
2F7
331
2F2
  5
2F8
331
2F3
  5
2F9
331
2F4
  5
2FA
331
2F5
  5
2FB
331
2F6
  5
2FC
331
2F7
  5
2FD
331
2F8
  5
2FE
331
2F9
  5
2FF
331
2FA
  5
300
331
2FB
  5
301
331
2FC
  5
302
331
2FD
  5
303
331
2FE
  5
304
331
2FF
  5
305
331
300
  5
306
331
301
  5
307
331
302
  5
308
331
303
  5
309
331
304
  5
30A
331
305
  5
30B
331
306
  5
30C
331
307
  5
30D
331
308
  5
30E
331
309
  5
30F
331
30A
  5
310
331
30B
  5
311
331
30C
  5
312
331
30D
  5
313
331
30E
  5
314
331
30F
  5
315
331
310
  5
316
331
311
  5
317
331
312
  5
318
331
313
  5
319
331
314
  5
31A
331
315
  5
31B
331
316
  5
31C
331
317
  5
31D
331
318
  5
31E
331
319
  5
31F
331
31A
  5
320
331
31B
  5
321
331
31C
  5
322
331
31D
  5
323
331
31E
  5
324
331
31F
  5
325
331
320
  5
326
331
321
  5
327
331
322
  5
328
331
323
  5
329
331
324
  5
32A
331
325
  5
32B
331
326
  5
32C
331
327
  5
32D
331
328
  5
32E
331
329
  5
32F
331
32A
  5
330
331
32B
  5
331
331
32C
  5
332
331
32D
  5
333
331
32E
  5
334
331
32F
  5
335
331
330
  5
336
331
331
  5
337
331
332
  5
338
331
333
  5
339
331
334
  5
33A
331
335
  5
33B
331
336
  5
33C
331
337
  5
33D
331
338
  5
33E
331
339
  5
33F
331
33A
  5
340
331
33B
  5
341
331
33C
  5
342
331
33D
  5
343
331
33E
  5
344
331
33F
  5
345
331
340
  5
346
331
341
  5
347
331
342
  5
348
331
343
  5
349
331
344
  5
34A
331
345
  5
34B
331
346
  5
34C
331
347
  5
34D
331
348
  5
34E
331
349
  5
34F
331
34A
  5
350
331
34B
  5
351
331
34C
  5
352
331
34D
  5
353
331
34E
  5
354
331
34F
  5
355
331
350
  5
356
331
351
  5
357
331
352
  5
358
331
353
  5
359
331
354
  5
35A
331
355
  5
35B
331
356
  5
35C
331
357
  5
35D
331
358
  5
35E
331
359
  5
35F
331
35A
  5
360
331
35B
  5
361
331
35C
  5
362
331
35D
  5
363
331
35E
  5
364
331
4F6
  5
4F8
331
4F7
  5
4F9
331
4F8
  5
4FA
331
4F9
  5
4FB
331
4FA
  5
4FC
331
4FB
  5
4FD
331
4FC
  5
4FE
331
4FD
  5
4FF
331
4FE
  5
500
331
4FF
  5
501
331
500
  5
502
331
501
  5
503
331
502
  5
504
331
503
  5
505
331
504
  5
506
331
505
  5
507
331
506
  5
508
331
507
  5
509
331
508
  5
50A
331
509
  5
50B
331
50A
  5
50C
  0
ACDBDETAILVIEWSTYLE
  5
4BE
102
{ACAD_REACTORS
330
4BD
102
}
102
{ACAD_XDICTIONARY
360
4DB
102
}
330
4BD
100
AcDbModelDocViewStyle
 70
     0
  3
Imperial24
290
     0
100
AcDbDetailViewStyle
 70
     0
 71
     0
 90
        3
 71
     1
340
25
 40
0.24
340
0
 40
0.24
300

 40
0.36
280
     3
 71
     2
340
16
 90
       25
 71
     3
340
25
 40
0.24
 90
        1
 40
0.75
 90
        1
300
%<\AcVar ViewType \f "%tc1">% %<\AcVar ViewDetailId>%\PSCALE %<\AcVar ViewScale \f "%sn">%
 71
     4
340
16
 90
       25
340
16
 90
       25
280
     0
  0
LAYOUT
  5
18
102
{ACAD_REACTORS
330
19
102
}
330
19
100
AcDbPlotSettings
  1

  2
Bullzip PDF Printer.pc3
  4
A3
  6

 40
0.2
 41
0.0
 42
0.0
 43
0.0
 44
420.2
 45
297.1
 46
25.0
 47
12.0
 48
59.99999938099995
 49
0.0
140
1205.999996756
141
817.4999980924995
142
1.0
143
3.0
 70
 11936
 72
     1
 73
     0
 74
     4
  7
monochrome.ctb
 75
     0
147
0.3333333333333333
148
-59.99999938099995
149
0.0
100
AcDbLayout
  1
Model
 70
     1
 71
     0
 10
0.0
 20
0.0
 11
12.0
 21
9.0
 12
0.0
 22
0.0
 32
0.0
 14
194.7598048205917
 24
11.16732475439682
 34
0.0
 15
1112.640268160914
 25
802.9623619718218
 35
0.0
146
0.0
 13
0.0
 23
0.0
 33
0.0
 16
1.0
 26
0.0
 36
0.0
 17
0.0
 27
1.0
 37
0.0
 76
     0
330
2
331
2D
1001
ACAD_PSEXT
1000
Bullzip PDF Printer.pc3
1000
Bullzip PDF Printer
1000
BULLZIP
1000
Bullzip PDF Printer 10.1.0.1871
1070
     0
  0
LAYOUT
  5
20
102
{ACAD_REACTORS
330
19
102
}
330
19
100
AcDbPlotSettings
  1

  2
SR-LP8300F
  4

  6

 40
0.0
 41
0.0
 42
0.0
 43
0.0
 44
0.0
 45
0.0
 46
0.0
 47
0.0
 48
0.0
 49
0.0
140
0.0
141
0.0
142
1.0
143
1.0
 70
   688
 72
     0
 73
     0
 74
     5
  7
monochrome.ctb
 75
    16
147
1.0
148
0.0
149
0.0
100
AcDbLayout
  1
ﾚｲｱｳﾄ1
 70
     1
 71
     1
 10
0.0
 20
0.0
 11
12.0
 21
9.0
 12
0.0
 22
0.0
 32
0.0
 14
1.000000000000000E+20
 24
1.000000000000000E+20
 34
1.000000000000000E+20
 15
-1.000000000000000E+20
 25
-1.000000000000000E+20
 35
-1.000000000000000E+20
146
0.0
 13
0.0
 23
0.0
 33
0.0
 16
1.0
 26
0.0
 36
0.0
 17
0.0
 27
1.0
 37
0.0
 76
     0
330
1B
  0
MATERIAL
  5
41
102
{ACAD_REACTORS
330
E
102
}
102
{ACAD_XDICTIONARY
360
5C7
102
}
330
E
100
AcDbMaterial
  1
ByBlock
 72
     0
 73
     2
 43
0.0208333333333333
 43
0.0
 43
0.0
 43
0.0
 43
0.0
 43
0.0208333333333333
 43
0.0
 43
0.0
 43
0.0
 43
0.0
 43
1.0
 43
0.0
 43
0.0
 43
0.0
 43
0.0
 43
1.0
 77
     0
 78
     2
 47
0.0208333333333333
 47
0.0
 47
0.0
 47
0.0
 47
0.0
 47
0.0208333333333333
 47
0.0
 47
0.0
 47
0.0
 47
0.0
 47
1.0
 47
0.0
 47
0.0
 47
0.0
 47
0.0
 47
1.0
171
     0
172
     2
 49
0.0208333333333333
 49
0.0
 49
0.0
 49
0.0
 49
0.0
 49
0.0208333333333333
 49
0.0
 49
0.0
 49
0.0
 49
0.0
 49
1.0
 49
0.0
 49
0.0
 49
0.0
 49
0.0
 49
1.0
175
     0
176
     2
142
0.0208333333333333
142
0.0
142
0.0
142
0.0
142
0.0
142
0.0208333333333333
142
0.0
142
0.0
142
0.0
142
0.0
142
1.0
142
0.0
142
0.0
142
0.0
142
0.0
142
1.0
179
     0
270
     2
144
0.0208333333333333
144
0.0
144
0.0
144
0.0
144
0.0
144
0.0208333333333333
144
0.0
144
0.0
144
0.0
144
0.0
144
1.0
144
0.0
144
0.0
144
0.0
144
0.0
144
1.0
274
     2
147
0.0208333333333333
147
0.0
147
0.0
147
0.0
147
0.0
147
0.0208333333333333
147
0.0
147
0.0
147
0.0
147
0.0
147
1.0
147
0.0
147
0.0
147
0.0
147
0.0
147
1.0
  0
MATERIAL
  5
39
102
{ACAD_REACTORS
330
E
102
}
102
{ACAD_XDICTIONARY
360
5C9
102
}
330
E
100
AcDbMaterial
  1
ByLayer
 72
     0
 73
     2
 43
0.0208333333333333
 43
0.0
 43
0.0
 43
0.0
 43
0.0
 43
0.0208333333333333
 43
0.0
 43
0.0
 43
0.0
 43
0.0
 43
1.0
 43
0.0
 43
0.0
 43
0.0
 43
0.0
 43
1.0
 77
     0
 78
     2
 47
0.0208333333333333
 47
0.0
 47
0.0
 47
0.0
 47
0.0
 47
0.0208333333333333
 47
0.0
 47
0.0
 47
0.0
 47
0.0
 47
1.0
 47
0.0
 47
0.0
 47
0.0
 47
0.0
 47
1.0
171
     0
172
     2
 49
0.0208333333333333
 49
0.0
 49
0.0
 49
0.0
 49
0.0
 49
0.0208333333333333
 49
0.0
 49
0.0
 49
0.0
 49
0.0
 49
1.0
 49
0.0
 49
0.0
 49
0.0
 49
0.0
 49
1.0
175
     0
176
     2
142
0.0208333333333333
142
0.0
142
0.0
142
0.0
142
0.0
142
0.0208333333333333
142
0.0
142
0.0
142
0.0
142
0.0
142
1.0
142
0.0
142
0.0
142
0.0
142
0.0
142
1.0
179
     0
270
     2
144
0.0208333333333333
144
0.0
144
0.0
144
0.0
144
0.0
144
0.0208333333333333
144
0.0
144
0.0
144
0.0
144
0.0
144
1.0
144
0.0
144
0.0
144
0.0
144
0.0
144
1.0
274
     2
147
0.0208333333333333
147
0.0
147
0.0
147
0.0
147
0.0
147
0.0208333333333333
147
0.0
147
0.0
147
0.0
147
0.0
147
1.0
147
0.0
147
0.0
147
0.0
147
0.0
147
1.0
  0
MATERIAL
  5
D
102
{ACAD_REACTORS
330
E
102
}
102
{ACAD_XDICTIONARY
360
5CB
102
}
330
E
100
AcDbMaterial
  1
Global
 72
     0
 73
     2
 43
0.0208333333333333
 43
0.0
 43
0.0
 43
0.0
 43
0.0
 43
0.0208333333333333
 43
0.0
 43
0.0
 43
0.0
 43
0.0
 43
1.0
 43
0.0
 43
0.0
 43
0.0
 43
0.0
 43
1.0
 77
     0
 78
     2
 47
0.0208333333333333
 47
0.0
 47
0.0
 47
0.0
 47
0.0
 47
0.0208333333333333
 47
0.0
 47
0.0
 47
0.0
 47
0.0
 47
1.0
 47
0.0
 47
0.0
 47
0.0
 47
0.0
 47
1.0
171
     0
172
     2
 49
0.0208333333333333
 49
0.0
 49
0.0
 49
0.0
 49
0.0
 49
0.0208333333333333
 49
0.0
 49
0.0
 49
0.0
 49
0.0
 49
1.0
 49
0.0
 49
0.0
 49
0.0
 49
0.0
 49
1.0
175
     0
176
     2
142
0.0208333333333333
142
0.0
142
0.0
142
0.0
142
0.0
142
0.0208333333333333
142
0.0
142
0.0
142
0.0
142
0.0
142
1.0
142
0.0
142
0.0
142
0.0
142
0.0
142
1.0
179
     0
270
     2
144
0.0208333333333333
144
0.0
144
0.0
144
0.0
144
0.0
144
0.0208333333333333
144
0.0
144
0.0
144
0.0
144
0.0
144
1.0
144
0.0
144
0.0
144
0.0
144
0.0
144
1.0
274
     2
147
0.0208333333333333
147
0.0
147
0.0
147
0.0
147
0.0
147
0.0208333333333333
147
0.0
147
0.0
147
0.0
147
0.0
147
1.0
147
0.0
147
0.0
147
0.0
147
0.0
147
1.0
1001
ACAD
1070
    -1
1070
     3
1070
     0
1000

1071
        0
  0
MLEADERSTYLE
  5
4BA
102
{ACAD_REACTORS
330
4C
102
}
102
{ACAD_XDICTIONARY
360
5CD
102
}
330
4C
100
AcDbMLeaderStyle
170
     2
171
     1
172
     0
 90
        2
 40
0.0
 41
0.0
173
     1
 91
-1056964608
340
28
 92
       -2
290
     1
 42
0.09
291
     1
 43
0.36
  3
Standard
341
0
 44
0.18
300

342
25
174
     1
178
     6
175
     1
176
     0
 93
-1056964608
 45
0.18
292
     0
297
     0
 46
0.18
343
0
 94
-1056964608
 47
1.0
 49
1.0
140
1.0
293
     1
141
0.0
294
     1
177
     0
142
1.0
295
     1
296
     0
143
0.125
1001
ACAD_MLEADERVER
1070
     2
  0
MLINESTYLE
  5
51
102
{ACAD_REACTORS
330
37
102
}
330
37
100
AcDbMlineStyle
  2
STANDARD
 70
     0
  3

 62
     0
 51
90.0
 52
90.0
 71
     2
 49
0.5
 62
   256
  6
BYLAYER
 49
-0.5
 62
   256
  6
BYLAYER
  0
ACDBPLACEHOLDER
  5
A
102
{ACAD_REACTORS
330
B
102
}
330
B
  0
SCALE
  5
55
102
{ACAD_REACTORS
330
4A
102
}
330
4A
100
AcDbScale
 70
     0
300
1:1
140
1.0
141
1.0
290
     1
  0
SCALE
  5
56
102
{ACAD_REACTORS
330
4A
102
}
330
4A
100
AcDbScale
 70
     0
300
1/128" = 1'-0"
140
0.0078125
141
12.0
290
     0
  0
SCALE
  5
57
102
{ACAD_REACTORS
330
4A
102
}
330
4A
100
AcDbScale
 70
     0
300
1/64" = 1'-0"
140
0.015625
141
12.0
290
     0
  0
SCALE
  5
58
102
{ACAD_REACTORS
330
4A
102
}
330
4A
100
AcDbScale
 70
     0
300
1/32" = 1'-0"
140
0.03125
141
12.0
290
     0
  0
SCALE
  5
59
102
{ACAD_REACTORS
330
4A
102
}
330
4A
100
AcDbScale
 70
     0
300
1/16" = 1'-0"
140
0.0625
141
12.0
290
     0
  0
SCALE
  5
5A
102
{ACAD_REACTORS
330
4A
102
}
330
4A
100
AcDbScale
 70
     0
300
3/32" = 1'-0"
140
0.09375
141
12.0
290
     0
  0
SCALE
  5
5B
102
{ACAD_REACTORS
330
4A
102
}
330
4A
100
AcDbScale
 70
     0
300
1/8" = 1'-0"
140
0.125
141
12.0
290
     0
  0
SCALE
  5
5C
102
{ACAD_REACTORS
330
4A
102
}
330
4A
100
AcDbScale
 70
     0
300
3/16" = 1'-0"
140
0.1875
141
12.0
290
     0
  0
SCALE
  5
5D
102
{ACAD_REACTORS
330
4A
102
}
330
4A
100
AcDbScale
 70
     0
300
1/4" = 1'-0"
140
0.25
141
12.0
290
     0
  0
SCALE
  5
5E
102
{ACAD_REACTORS
330
4A
102
}
330
4A
100
AcDbScale
 70
     0
300
3/8" = 1'-0"
140
0.375
141
12.0
290
     0
  0
SCALE
  5
5F
102
{ACAD_REACTORS
330
4A
102
}
330
4A
100
AcDbScale
 70
     0
300
1/2" = 1'-0"
140
0.5
141
12.0
290
     0
  0
SCALE
  5
60
102
{ACAD_REACTORS
330
4A
102
}
330
4A
100
AcDbScale
 70
     0
300
3/4" = 1'-0"
140
0.75
141
12.0
290
     0
  0
SCALE
  5
61
102
{ACAD_REACTORS
330
4A
102
}
330
4A
100
AcDbScale
 70
     0
300
1" = 1'-0"
140
1.0
141
12.0
290
     0
  0
SCALE
  5
62
102
{ACAD_REACTORS
330
4A
102
}
330
4A
100
AcDbScale
 70
     0
300
1-1/2" = 1'-0"
140
1.5
141
12.0
290
     0
  0
SCALE
  5
63
102
{ACAD_REACTORS
330
4A
102
}
330
4A
100
AcDbScale
 70
     0
300
3" = 1'-0"
140
3.0
141
12.0
290
     0
  0
SCALE
  5
64
102
{ACAD_REACTORS
330
4A
102
}
330
4A
100
AcDbScale
 70
     0
300
6" = 1'-0"
140
6.0
141
12.0
290
     0
  0
SCALE
  5
65
102
{ACAD_REACTORS
330
4A
102
}
330
4A
100
AcDbScale
 70
     0
300
1'-0" = 1'-0"
140
12.0
141
12.0
290
     0
  0
ACDBSECTIONVIEWSTYLE
  5
4BC
102
{ACAD_REACTORS
330
4BB
102
}
102
{ACAD_XDICTIONARY
360
4D9
102
}
330
4BB
100
AcDbModelDocViewStyle
 70
     0
  3
Imperial24
290
     0
100
AcDbSectionViewStyle
 70
     0
 71
     0
 90
       78
 71
     1
340
25
 40
0.24
340
0
340
0
 40
0.24
300
I, O, Q, S, X, Z
 40
0.48
 90
        3
 40
0.18
 90
        1
 71
     2
340
16
 90
       25
340
16
 90
       50
 40
0.24
 40
0.0
 40
0.24
 71
     3
340
25
 40
0.24
 90
        1
 40
0.75
 90
        1
300
%<\AcVar ViewType \f "%tc1">% %<\AcVar ViewSectionStartId>%-%<\AcVar ViewSectionEndId>%\PSCALE %<\AcVar ViewScale \f "%sn">%
 71
     4
300
ANSI31
 40
1.0
 90
        0
290
     0
290
     0
 90
        6
 40
0.0
 40
1.570796326794897
 40
0.2617993877991494
 40
1.308996938995747
 40
-0.2617993877991494
 40
1.832595714594046
  0
TABLESTYLE
  5
52
102
{ACAD_REACTORS
330
4B
102
}
330
4B
100
AcDbTableStyle
  3
Standard
 70
     0
 71
     0
 40
0.06
 41
0.06
280
     0
281
     0
  7
STANDARD
140
0.18
170
     2
 62
     0
 63
   257
283
     0
274
    -2
284
     1
 64
     0
275
    -2
285
     1
 65
     0
276
    -2
286
     1
 66
     0
277
    -2
287
     1
 67
     0
278
    -2
288
     1
 68
     0
279
    -2
289
     1
 69
     0
  7
STANDARD
140
0.25
170
     5
 62
     0
 63
   257
283
     0
274
    -2
284
     1
 64
     0
275
    -2
285
     1
 65
     0
276
    -2
286
     1
 66
     0
277
    -2
287
     1
 67
     0
278
    -2
288
     1
 68
     0
279
    -2
289
     1
 69
     0
  7
STANDARD
140
0.18
170
     5
 62
     0
 63
   257
283
     0
274
    -2
284
     1
 64
     0
275
    -2
285
     1
 65
     0
276
    -2
286
     1
 66
     0
277
    -2
287
     1
 67
     0
278
    -2
288
     1
 68
     0
279
    -2
289
     1
 69
     0
  0
VISUALSTYLE
  5
2E
102
{ACAD_REACTORS
330
2F
102
}
102
{ACAD_XDICTIONARY
360
5D0
102
}
330
2F
100
AcDbVisualStyle
  2
2dWireframe
 70
     4
 71
     0
 72
     2
 73
     0
 90
        0
 40
0.6
 41
30.0
 62
     5
 63
     7
 74
     1
 91
        4
 64
     7
 65
   257
 75
     1
175
     1
 42
1.0
 92
        0
 66
   257
 43
1.0
 76
     1
 77
     6
 78
     2
 67
     7
 79
     5
170
     0
171
     0
290
     0
174
     0
 93
        1
 44
0.0
173
     0
291
     0
 45
0.0
1001
ACAD
1000
AcDbSavedByObjectVersion
1070
     0
  0
VISUALSTYLE
  5
4A9
102
{ACAD_REACTORS
330
2F
102
}
102
{ACAD_XDICTIONARY
360
5D2
102
}
330
2F
100
AcDbVisualStyle
  2
Basic
 70
     7
 71
     1
 72
     0
 73
     1
 90
        0
 40
0.6
 41
30.0
 62
     5
 63
     7
 74
     0
 91
        4
 64
     7
 65
   257
 75
     1
175
     1
 42
1.0
 92
        8
 66
     7
 43
1.0
 76
     1
 77
     6
 78
     2
 67
     7
 79
     5
170
     0
171
     0
290
     0
174
     0
 93
        1
 44
0.0
173
     0
291
     1
 45
0.0
1001
ACAD
1000
AcDbSavedByObjectVersion
1070
     0
  0
VISUALSTYLE
  5
4AD
102
{ACAD_REACTORS
330
2F
102
}
102
{ACAD_XDICTIONARY
360
5D4
102
}
330
2F
100
AcDbVisualStyle
  2
Brighten
 70
    12
 71
     2
 72
     2
 73
     0
 90
        0
 40
0.6
 41
30.0
 62
     5
 63
     7
 74
     1
 91
        4
 64
     7
 65
   257
 75
     1
175
     1
 42
1.0
 92
        8
 66
     7
 43
1.0
 76
     1
 77
     6
 78
     2
 67
     7
 79
     5
170
     0
171
     0
290
     0
174
     0
 93
        1
 44
50.0
173
     0
291
     1
 45
0.0
1001
ACAD
1000
AcDbSavedByObjectVersion
1070
     0
  0
VISUALSTYLE
  5
4B1
102
{ACAD_REACTORS
330
2F
102
}
102
{ACAD_XDICTIONARY
360
5D6
102
}
330
2F
100
AcDbVisualStyle
  2
ColorChange
 70
    16
 71
     2
 72
     2
 73
     3
 90
        0
 40
0.6
 41
30.0
 62
     5
 63
     8
 74
     1
 91
        4
 64
     7
 65
   257
 75
     1
175
     1
 42
1.0
 92
        8
 66
     8
 43
1.0
 76
     1
 77
     6
 78
     2
 67
     7
 79
     5
170
     0
171
     0
290
     0
174
     0
 93
        1
 44
0.0
173
     0
291
     1
 45
0.0
1001
ACAD
1000
AcDbSavedByObjectVersion
1070
     0
  0
VISUALSTYLE
  5
4AB
102
{ACAD_REACTORS
330
2F
102
}
102
{ACAD_XDICTIONARY
360
5D8
102
}
330
2F
100
AcDbVisualStyle
  2
Conceptual
 70
     9
 71
     3
 72
     2
 73
     0
 90
        0
 40
0.6
 41
30.0
 62
     5
 63
     7
 74
     2
 91
        2
 64
     7
 65
   257
 75
     1
175
     1
 42
179.0
 92
        8
 66
     7
 43
1.0
 76
     1
 77
     6
 78
     2
 67
     7
 79
     3
170
     0
171
     0
290
     0
174
     0
 93
        1
 44
0.0
173
     0
291
     0
 45
0.0
1001
ACAD
1000
AcDbSavedByObjectVersion
1070
     0
  0
VISUALSTYLE
  5
4AC
102
{ACAD_REACTORS
330
2F
102
}
102
{ACAD_XDICTIONARY
360
5DA
102
}
330
2F
100
AcDbVisualStyle
  2
Dim
 70
    11
 71
     2
 72
     2
 73
     0
 90
        0
 40
0.6
 41
30.0
 62
     5
 63
     7
 74
     1
 91
        4
 64
     7
 65
   257
 75
     1
175
     1
 42
1.0
 92
        8
 66
     7
 43
1.0
 76
     1
 77
     6
 78
     2
 67
     7
 79
     5
170
     0
171
     0
290
     0
174
     0
 93
        1
 44
-50.0
173
     0
291
     1
 45
0.0
1001
ACAD
1000
AcDbSavedByObjectVersion
1070
     0
  0
VISUALSTYLE
  5
4B9
102
{ACAD_REACTORS
330
2F
102
}
102
{ACAD_XDICTIONARY
360
5DC
102
}
330
2F
100
AcDbVisualStyle
  2
EdgeColorOff
 70
    22
 71
     2
 72
     2
 73
     0
 90
        0
 40
0.6
 41
30.0
 62
     5
 63
     7
 74
     1
 91
        4
 64
     7
 65
   257
 75
     1
175
     1
 42
1.0
 92
        8
 66
     7
 43
1.0
 76
     1
 77
     6
 78
     2
 67
     7
 79
     5
170
     0
171
     0
290
     0
174
     0
 93
        1
 44
0.0
173
     0
291
     1
 45
0.0
1001
ACAD
1000
AcDbSavedByObjectVersion
1070
     0
  0
VISUALSTYLE
  5
4B0
102
{ACAD_REACTORS
330
2F
102
}
102
{ACAD_XDICTIONARY
360
5DE
102
}
330
2F
100
AcDbVisualStyle
  2
Facepattern
 70
    15
 71
     2
 72
     2
 73
     0
 90
        0
 40
0.6
 41
30.0
 62
     5
 63
     7
 74
     1
 91
        4
 64
     7
 65
   257
 75
     1
175
     1
 42
1.0
 92
        8
 66
     7
 43
1.0
 76
     1
 77
     6
 78
     2
 67
     7
 79
     5
170
     0
171
     0
290
     0
174
     0
 93
        1
 44
0.0
173
     0
291
     1
 45
0.0
1001
ACAD
1000
AcDbSavedByObjectVersion
1070
     0
  0
VISUALSTYLE
  5
4A5
102
{ACAD_REACTORS
330
2F
102
}
102
{ACAD_XDICTIONARY
360
5E0
102
}
330
2F
100
AcDbVisualStyle
  2
Flat
 70
     0
 71
     2
 72
     1
 73
     1
 90
        2
 40
0.6
 41
30.0
 62
     5
 63
     7
 74
     0
 91
        0
 64
     7
 65
   257
 75
     1
175
     1
 42
1.0
 92
        8
 66
     7
 43
1.0
 76
     1
 77
     6
 78
     2
 67
     7
 79
     5
170
     0
171
     0
290
     0
174
     0
 93
       13
 44
0.0
173
     0
291
     1
 45
0.0
1001
ACAD
1000
AcDbSavedByObjectVersion
1070
     0
  0
VISUALSTYLE
  5
4A6
102
{ACAD_REACTORS
330
2F
102
}
102
{ACAD_XDICTIONARY
360
5E2
102
}
330
2F
100
AcDbVisualStyle
  2
FlatWithEdges
 70
     1
 71
     2
 72
     1
 73
     1
 90
        2
 40
0.6
 41
30.0
 62
     5
 63
     7
 74
     1
 91
        0
 64
     7
 65
   257
 75
     1
175
     1
 42
1.0
 92
        0
 66
   257
 43
1.0
 76
     1
 77
     6
 78
     2
 67
     7
 79
     5
170
     0
171
     0
290
     0
174
     0
 93
       13
 44
0.0
173
     0
291
     1
 45
0.0
1001
ACAD
1000
AcDbSavedByObjectVersion
1070
     0
  0
VISUALSTYLE
  5
4A7
102
{ACAD_REACTORS
330
2F
102
}
102
{ACAD_XDICTIONARY
360
5E4
102
}
330
2F
100
AcDbVisualStyle
  2
Gouraud
 70
     2
 71
     2
 72
     2
 73
     1
 90
        2
 40
0.6
 41
30.0
 62
     5
 63
     7
 74
     0
 91
        0
 64
     7
 65
   257
 75
     1
175
     1
 42
1.0
 92
        0
 66
     7
 43
1.0
 76
     1
 77
     6
 78
     2
 67
     7
 79
     5
170
     0
171
     0
290
     0
174
     0
 93
       13
 44
0.0
173
     0
291
     1
 45
0.0
1001
ACAD
1000
AcDbSavedByObjectVersion
1070
     0
  0
VISUALSTYLE
  5
4A8
102
{ACAD_REACTORS
330
2F
102
}
102
{ACAD_XDICTIONARY
360
5E6
102
}
330
2F
100
AcDbVisualStyle
  2
GouraudWithEdges
 70
     3
 71
     2
 72
     2
 73
     1
 90
        2
 40
0.6
 41
30.0
 62
     5
 63
     7
 74
     1
 91
        0
 64
     7
 65
   257
 75
     1
175
     1
 42
1.0
 92
        0
 66
   257
 43
1.0
 76
     1
 77
     6
 78
     2
 67
     7
 79
     5
170
     0
171
     0
290
     0
174
     0
 93
       13
 44
0.0
173
     0
291
     1
 45
0.0
1001
ACAD
1000
AcDbSavedByObjectVersion
1070
     0
  0
VISUALSTYLE
  5
4AA
102
{ACAD_REACTORS
330
2F
102
}
102
{ACAD_XDICTIONARY
360
5E8
102
}
330
2F
100
AcDbVisualStyle
  2
Hidden
 70
     6
 71
     1
 72
     2
 73
     2
 90
        0
 40
0.6
 41
30.0
 62
     5
 63
     7
 74
     2
 91
        2
 64
     7
 65
   257
 75
     2
175
     1
 42
40.0
 92
        0
 66
   257
 43
1.0
 76
     1
 77
     6
 78
     2
 67
     7
 79
     3
170
     0
171
     0
290
     0
174
     0
 93
        1
 44
0.0
173
     0
291
     0
 45
0.0
1001
ACAD
1000
AcDbSavedByObjectVersion
1070
     0
  0
VISUALSTYLE
  5
4B7
102
{ACAD_REACTORS
330
2F
102
}
102
{ACAD_XDICTIONARY
360
5EA
102
}
330
2F
100
AcDbVisualStyle
  2
JitterOff
 70
    20
 71
     2
 72
     2
 73
     0
 90
        0
 40
0.6
 41
30.0
 62
     5
 63
     7
 74
     1
 91
        4
 64
     7
 65
   257
 75
     1
175
     1
 42
1.0
 92
       10
 66
     7
 43
1.0
 76
     1
 77
     6
 78
     2
 67
     7
 79
     5
170
     0
171
     0
290
     0
174
     0
 93
        1
 44
0.0
173
     0
291
     1
 45
0.0
1001
ACAD
1000
AcDbSavedByObjectVersion
1070
     0
  0
VISUALSTYLE
  5
4AF
102
{ACAD_REACTORS
330
2F
102
}
102
{ACAD_XDICTIONARY
360
5EC
102
}
330
2F
100
AcDbVisualStyle
  2
Linepattern
 70
    14
 71
     2
 72
     2
 73
     0
 90
        0
 40
0.6
 41
30.0
 62
     5
 63
     7
 74
     1
 91
        4
 64
     7
 65
   257
 75
     7
175
     7
 42
1.0
 92
        8
 66
     7
 43
1.0
 76
     1
 77
     6
 78
     2
 67
     7
 79
     5
170
     0
171
     0
290
     0
174
     0
 93
        1
 44
0.0
173
     0
291
     1
 45
0.0
1001
ACAD
1000
AcDbSavedByObjectVersion
1070
     0
  0
VISUALSTYLE
  5
4B8
102
{ACAD_REACTORS
330
2F
102
}
102
{ACAD_XDICTIONARY
360
5EE
102
}
330
2F
100
AcDbVisualStyle
  2
OverhangOff
 70
    21
 71
     2
 72
     2
 73
     0
 90
        0
 40
0.6
 41
30.0
 62
     5
 63
     7
 74
     1
 91
        4
 64
     7
 65
   257
 75
     1
175
     1
 42
1.0
 92
        9
 66
     7
 43
1.0
 76
     1
 77
     6
 78
     2
 67
     7
 79
     5
170
     0
171
     0
290
     0
174
     0
 93
        1
 44
0.0
173
     0
291
     1
 45
0.0
1001
ACAD
1000
AcDbSavedByObjectVersion
1070
     0
  0
VISUALSTYLE
  5
53
102
{ACAD_REACTORS
330
2F
102
}
102
{ACAD_XDICTIONARY
360
5F0
102
}
330
2F
100
AcDbVisualStyle
  2
Realistic
 70
     8
 71
     2
 72
     3
 73
     0
 90
        2
 40
0.6
 41
30.0
 62
     5
 63
     7
 74
     0
 91
        0
 64
     7
 65
   257
 75
     1
175
     1
 42
1.0
 92
        8
 66
   257
 43
1.0
 76
     1
 77
     6
 78
     2
 67
     7
 79
     3
170
     0
171
     0
290
     0
174
     0
 93
       13
 44
0.0
173
     0
291
     0
 45
0.0
1001
ACAD
1000
AcDbSavedByObjectVersion
1070
     0
  0
VISUALSTYLE
  5
4B6
102
{ACAD_REACTORS
330
2F
102
}
102
{ACAD_XDICTIONARY
360
5F2
102
}
330
2F
100
AcDbVisualStyle
  2
Shaded
 70
    27
 71
     2
 72
     2
 73
     1
 90
        2
 40
0.6
 41
30.0
 62
     5
 63
     7
 74
     0
 91
        4
 64
     7
 65
   257
 75
     1
175
     1
 42
1.0
 92
        8
 66
   257
 43
1.0
 76
     1
 77
     6
 78
     2
 67
     8
 79
     3
170
     0
171
     0
290
     0
174
     0
 93
        5
 44
0.0
173
     0
291
     0
 45
0.0
1001
ACAD
1000
AcDbSavedByObjectVersion
1070
     0
  0
VISUALSTYLE
  5
4B5
102
{ACAD_REACTORS
330
2F
102
}
102
{ACAD_XDICTIONARY
360
5F4
102
}
330
2F
100
AcDbVisualStyle
  2
Shaded with edges
 70
    26
 71
     2
 72
     2
 73
     1
 90
        2
 40
0.6
 41
30.0
 62
     5
 63
     7
 74
     1
 91
       10
 64
     7
 65
   257
 75
     2
175
     1
 42
1.0
 92
        8
 66
   257
 43
1.0
 76
     1
 77
     6
 78
     2
 67
     7
 79
     3
170
     0
171
     0
290
     0
174
     0
 93
        5
 44
0.0
173
     0
291
     0
 45
0.0
1001
ACAD
1000
AcDbSavedByObjectVersion
1070
     0
  0
VISUALSTYLE
  5
4B2
102
{ACAD_REACTORS
330
2F
102
}
102
{ACAD_XDICTIONARY
360
5F6
102
}
330
2F
100
AcDbVisualStyle
  2
Shades of Gray
 70
    23
 71
     2
 72
     2
 73
     3
 90
        0
 40
0.6
 41
30.0
 62
     5
 63
     7
 74
     2
 91
        2
 64
     7
 65
     7
 75
     1
175
     1
 42
40.0
 92
        8
 66
     7
 43
1.0
 76
     1
 77
     6
 78
     2
 67
     7
 79
     3
170
     0
171
     0
290
     0
174
     0
 93
        1
 44
0.0
173
     0
291
     0
 45
0.0
1001
ACAD
1000
AcDbSavedByObjectVersion
1070
     0
  0
VISUALSTYLE
  5
4B3
102
{ACAD_REACTORS
330
2F
102
}
102
{ACAD_XDICTIONARY
360
5F8
102
}
330
2F
100
AcDbVisualStyle
  2
Sketchy
 70
    24
 71
     1
 72
     2
 73
     2
 90
        0
 40
0.6
 41
30.0
 62
     5
 63
     7
 74
     2
 91
        2
 64
     7
 65
     7
 75
     1
175
     1
 42
40.0
 92
       11
 66
     7
 43
1.0
 76
     1
 77
     6
 78
     2
 67
     7
 79
     6
170
     0
171
     0
290
     0
174
     0
 93
        1
 44
0.0
173
     0
291
     0
 45
0.0
1001
ACAD
1000
AcDbSavedByObjectVersion
1070
     0
  0
VISUALSTYLE
  5
4AE
102
{ACAD_REACTORS
330
2F
102
}
102
{ACAD_XDICTIONARY
360
5FA
102
}
330
2F
100
AcDbVisualStyle
  2
Thicken
 70
    13
 71
     2
 72
     2
 73
     0
 90
        0
 40
0.6
 41
30.0
 62
     5
 63
     7
 74
     1
 91
        4
 64
     7
 65
   257
 75
     1
175
     1
 42
1.0
 92
       12
 66
     7
 43
1.0
 76
     1
 77
     6
 78
     2
 67
     7
 79
     5
170
     0
171
     0
290
     0
174
     0
 93
        1
 44
0.0
173
     0
291
     1
 45
0.0
1001
ACAD
1000
AcDbSavedByObjectVersion
1070
     0
  0
VISUALSTYLE
  5
54
102
{ACAD_REACTORS
330
2F
102
}
102
{ACAD_XDICTIONARY
360
5FC
102
}
330
2F
100
AcDbVisualStyle
  2
Wireframe
 70
     5
 71
     0
 72
     2
 73
     0
 90
        0
 40
0.6
 41
30.0
 62
     5
 63
     7
 74
     1
 91
        4
 64
     7
 65
   257
 75
     1
175
     1
 42
1.0
 92
        0
 66
   257
 43
1.0
 76
     1
 77
     6
 78
     2
 67
     7
 79
     3
170
     0
171
     0
290
     0
174
     0
 93
        1
 44
0.0
173
     0
291
     0
 45
0.0
1001
ACAD
1000
AcDbSavedByObjectVersion
1070
     0
  0
VISUALSTYLE
  5
4B4
102
{ACAD_REACTORS
330
2F
102
}
102
{ACAD_XDICTIONARY
360
5FE
102
}
330
2F
100
AcDbVisualStyle
  2
X-Ray
 70
    25
 71
     2
 72
     2
 73
     1
 90
        1
 40
0.5
 41
30.0
 62
     5
 63
     7
 74
     1
 91
        0
 64
     7
 65
   257
 75
     1
175
     1
 42
1.0
 92
        8
 66
     7
 43
1.0
 76
     1
 77
     6
 78
     2
 67
     7
 79
     3
170
     0
171
     0
290
     0
174
     0
 93
       13
 44
0.0
173
     0
291
     0
 45
0.0
1001
ACAD
1000
AcDbSavedByObjectVersion
1070
     0
  0
XRECORD
  5
5C1
102
{ACAD_REACTORS
330
5C0
102
}
330
5C0
100
AcDbXrecord
280
     1
340
49
  0
XRECORD
  5
5C2
102
{ACAD_REACTORS
330
5C0
102
}
330
5C0
100
AcDbXrecord
280
     1
340
E
  0
DICTIONARYVAR
  5
4A0
102
{ACAD_REACTORS
330
49A
102
}
330
49A
100
DictionaryVariables
280
     0
  1
1:1
  0
DICTIONARYVAR
  5
49C
102
{ACAD_REACTORS
330
49A
102
}
330
49A
100
DictionaryVariables
280
     0
  1
Standard
  0
DICTIONARYVAR
  5
49B
102
{ACAD_REACTORS
330
49A
102
}
330
49A
100
DictionaryVariables
280
     0
  1
Standard
  0
DICTIONARYVAR
  5
49D
102
{ACAD_REACTORS
330
49A
102
}
330
49A
100
DictionaryVariables
280
     0
  1
Imperial24
  0
DICTIONARYVAR
  5
49E
102
{ACAD_REACTORS
330
49A
102
}
330
49A
100
DictionaryVariables
280
     0
  1
Imperial24
  0
DICTIONARYVAR
  5
5BE
102
{ACAD_REACTORS
330
49A
102
}
330
49A
100
DictionaryVariables
280
     0
  1
0
  0
DICTIONARYVAR
  5
5BF
102
{ACAD_REACTORS
330
49A
102
}
330
49A
100
DictionaryVariables
280
     0
  1
1
  0
DICTIONARYVAR
  5
4A2
102
{ACAD_REACTORS
330
49A
102
}
330
49A
100
DictionaryVariables
280
     0
  1
1
  0
DICTIONARYVAR
  5
4A3
102
{ACAD_REACTORS
330
49A
102
}
330
49A
100
DictionaryVariables
280
     0
  1
15
  0
DICTIONARYVAR
  5
4A1
102
{ACAD_REACTORS
330
49A
102
}
330
49A
100
DictionaryVariables
280
     0
  1
0
  0
DICTIONARYVAR
  5
49F
102
{ACAD_REACTORS
330
49A
102
}
330
49A
100
DictionaryVariables
280
     0
  1
0
  0
DICTIONARYVAR
  5
4F2
102
{ACAD_REACTORS
330
49A
102
}
330
49A
100
DictionaryVariables
280
     0
  1
0
  0
DICTIONARY
  5
4DB
330
4BE
100
AcDbDictionary
280
     1
281
     1
  3
ACAD_XREC_ROUNDTRIP
360
5C6
  0
DICTIONARY
  5
5C7
330
41
100
AcDbDictionary
280
     1
281
     1
  3
ACAD_XREC_ROUNDTRIP
360
5C8
  0
DICTIONARY
  5
5C9
330
39
100
AcDbDictionary
280
     1
281
     1
  3
ACAD_XREC_ROUNDTRIP
360
5CA
  0
DICTIONARY
  5
5CB
330
D
100
AcDbDictionary
280
     1
281
     1
  3
ACAD_XREC_ROUNDTRIP
360
5CC
  0
DICTIONARY
  5
5CD
330
4BA
100
AcDbDictionary
280
     1
281
     1
  3
ACAD_XREC_ROUNDTRIP
360
5CE
  0
DICTIONARY
  5
4D9
330
4BC
100
AcDbDictionary
280
     1
281
     1
  3
ACAD_XREC_ROUNDTRIP
360
5CF
  0
DICTIONARY
  5
5D0
330
2E
100
AcDbDictionary
280
     1
281
     1
  3
ACAD_XREC_ROUNDTRIP
360
5D1
  0
DICTIONARY
  5
5D2
330
4A9
100
AcDbDictionary
280
     1
281
     1
  3
ACAD_XREC_ROUNDTRIP
360
5D3
  0
DICTIONARY
  5
5D4
330
4AD
100
AcDbDictionary
280
     1
281
     1
  3
ACAD_XREC_ROUNDTRIP
360
5D5
  0
DICTIONARY
  5
5D6
330
4B1
100
AcDbDictionary
280
     1
281
     1
  3
ACAD_XREC_ROUNDTRIP
360
5D7
  0
DICTIONARY
  5
5D8
330
4AB
100
AcDbDictionary
280
     1
281
     1
  3
ACAD_XREC_ROUNDTRIP
360
5D9
  0
DICTIONARY
  5
5DA
330
4AC
100
AcDbDictionary
280
     1
281
     1
  3
ACAD_XREC_ROUNDTRIP
360
5DB
  0
DICTIONARY
  5
5DC
330
4B9
100
AcDbDictionary
280
     1
281
     1
  3
ACAD_XREC_ROUNDTRIP
360
5DD
  0
DICTIONARY
  5
5DE
330
4B0
100
AcDbDictionary
280
     1
281
     1
  3
ACAD_XREC_ROUNDTRIP
360
5DF
  0
DICTIONARY
  5
5E0
330
4A5
100
AcDbDictionary
280
     1
281
     1
  3
ACAD_XREC_ROUNDTRIP
360
5E1
  0
DICTIONARY
  5
5E2
330
4A6
100
AcDbDictionary
280
     1
281
     1
  3
ACAD_XREC_ROUNDTRIP
360
5E3
  0
DICTIONARY
  5
5E4
330
4A7
100
AcDbDictionary
280
     1
281
     1
  3
ACAD_XREC_ROUNDTRIP
360
5E5
  0
DICTIONARY
  5
5E6
330
4A8
100
AcDbDictionary
280
     1
281
     1
  3
ACAD_XREC_ROUNDTRIP
360
5E7
  0
DICTIONARY
  5
5E8
330
4AA
100
AcDbDictionary
280
     1
281
     1
  3
ACAD_XREC_ROUNDTRIP
360
5E9
  0
DICTIONARY
  5
5EA
330
4B7
100
AcDbDictionary
280
     1
281
     1
  3
ACAD_XREC_ROUNDTRIP
360
5EB
  0
DICTIONARY
  5
5EC
330
4AF
100
AcDbDictionary
280
     1
281
     1
  3
ACAD_XREC_ROUNDTRIP
360
5ED
  0
DICTIONARY
  5
5EE
330
4B8
100
AcDbDictionary
280
     1
281
     1
  3
ACAD_XREC_ROUNDTRIP
360
5EF
  0
DICTIONARY
  5
5F0
330
53
100
AcDbDictionary
280
     1
281
     1
  3
ACAD_XREC_ROUNDTRIP
360
5F1
  0
DICTIONARY
  5
5F2
330
4B6
100
AcDbDictionary
280
     1
281
     1
  3
ACAD_XREC_ROUNDTRIP
360
5F3
  0
DICTIONARY
  5
5F4
330
4B5
100
AcDbDictionary
280
     1
281
     1
  3
ACAD_XREC_ROUNDTRIP
360
5F5
  0
DICTIONARY
  5
5F6
330
4B2
100
AcDbDictionary
280
     1
281
     1
  3
ACAD_XREC_ROUNDTRIP
360
5F7
  0
DICTIONARY
  5
5F8
330
4B3
100
AcDbDictionary
280
     1
281
     1
  3
ACAD_XREC_ROUNDTRIP
360
5F9
  0
DICTIONARY
  5
5FA
330
4AE
100
AcDbDictionary
280
     1
281
     1
  3
ACAD_XREC_ROUNDTRIP
360
5FB
  0
DICTIONARY
  5
5FC
330
54
100
AcDbDictionary
280
     1
281
     1
  3
ACAD_XREC_ROUNDTRIP
360
5FD
  0
DICTIONARY
  5
5FE
330
4B4
100
AcDbDictionary
280
     1
281
     1
  3
ACAD_XREC_ROUNDTRIP
360
5FF
  0
XRECORD
  5
5C6
102
{ACAD_REACTORS
330
4DB
102
}
330
4DB
100
AcDbXrecord
280
     1
102
DISPLAYNAME
  1
Imperial24
102
FLAGS
 90
        0
  0
XRECORD
  5
5C8
102
{ACAD_REACTORS
330
5C7
102
}
330
5C7
100
AcDbXrecord
280
     1
102
MATERIAL
148
0.0
149
0.0
149
0.0
 93
        0
 94
      127
282
     0
 72
     0
 77
     0
171
     0
175
     0
179
     0
273
     0
  0
XRECORD
  5
5CA
102
{ACAD_REACTORS
330
5C9
102
}
330
5C9
100
AcDbXrecord
280
     1
102
MATERIAL
148
0.0
149
0.0
149
0.0
 93
        0
 94
      127
282
     0
 72
     0
 77
     0
171
     0
175
     0
179
     0
273
     0
  0
XRECORD
  5
5CC
102
{ACAD_REACTORS
330
5CB
102
}
330
5CB
100
AcDbXrecord
280
     1
102
MATERIAL
148
0.0
149
0.0
149
0.0
 93
        0
 94
      127
282
     0
 72
     0
 77
     0
171
     0
175
     0
179
     0
273
     0
  0
XRECORD
  5
5CE
102
{ACAD_REACTORS
330
5CD
102
}
330
5CD
100
AcDbXrecord
280
     1
102
ACAD_ROUNDTRIP_2012_MLEADER_STYLE
298
     1
  0
XRECORD
  5
5CF
102
{ACAD_REACTORS
330
4D9
102
}
330
4D9
100
AcDbXrecord
280
     1
102
DISPLAYNAME
  1
Imperial24
102
FLAGS
 90
        0
  0
XRECORD
  5
5D1
102
{ACAD_REACTORS
330
5D0
102
}
330
5D0
100
AcDbXrecord
280
     1
102
RTVSPropertyOp0
 70
     1
102
RTVSPropertyOp1
 70
     1
102
RTVSPropertyOp2
 70
     1
102
RTVSPropertyOp3
 70
     1
102
RTVSPropertyOp4
 70
     1
102
RTVSPropertyOp5
 70
     1
102
RTVSPropertyOp6
 70
     1
102
RTVSPropertyOp7
 70
     1
102
RTVSPropertyOp8
 70
     1
102
RTVSPropertyOp9
 70
     1
102
RTVSPropertyOp10
 70
     1
102
RTVSPropertyOp11
 70
     1
102
RTVSPropertyOp12
 70
     1
102
RTVSPropertyOp13
 70
     1
102
RTVSPropertyOp14
 70
     1
102
RTVSPropertyOp15
 70
     1
102
RTVSPropertyOp16
 70
     1
102
RTVSPropertyOp17
 70
     1
102
RTVSPropertyOp18
 70
     1
102
RTVSPropertyOp19
 70
     1
102
RTVSPropertyOp20
 70
     1
102
RTVSPropertyOp21
 70
     1
102
RTVSPropertyOp22
 70
     1
102
RTVSPropertyOp23
 70
     1
102
RTVSPropertyOp24
 70
     1
102
RTVSPropertyOp25
 70
     1
102
RTVSPropertyOp26
 70
     1
102
RTVSPropertyOp27
 70
     1
102
RTVSPropertyOp28
 70
     1
102
RTVSPropertyOp29
 70
     1
102
RTVSPropertyOp30
 70
     1
102
RTVSPropertyOp31
 70
     1
102
RTVSPropertyOp32
 70
     1
102
RTVSPropertyOp33
 70
     1
102
RTVSPropertyOp34
 70
     1
102
RTVSPropertyOp35
 70
     1
102
RTVSPropertyOp36
 70
     1
102
RTVSPropertyOp37
 70
     1
102
RTVSPropertyOp38
 70
     1
102
RTVSPropertyOp39
 70
     1
102
RTVSPropertyOp40
 70
     1
102
RTVSPropertyOp41
 70
     1
102
RTVSPropertyOp42
 70
     1
102
RTVSPropertyOp43
 70
     1
102
RTVSPropertyOp44
 70
     1
102
RTVSPropertyOp45
 70
     1
102
RTVSPropertyOp46
 70
     1
102
RTVSPropertyOp47
 70
     1
102
RTVSPropertyOp48
 70
     1
102
RTVSPropertyOp49
 70
     1
102
RTVSPropertyOp50
 70
     1
102
RTVSPropertyOp51
 70
     0
102
RTVSPropertyOp52
 70
     0
102
RTVSPropertyOp53
 70
     1
102
RTVSPropertyOp54
 70
     1
102
RTVSPropertyOp55
 70
     1
102
RTVSPropertyOp56
 70
     1
102
RTVSPropertyOp57
 70
     1
102
RTVSPost2010Prop28
280
     1
102
RTVSPost2010PropOp28
 70
     1
102
RTVSPost2010Prop29
280
     1
102
RTVSPost2010PropOp29
 70
     1
102
RTVSPost2010Prop30
280
     0
102
RTVSPost2010PropOp30
 70
     1
102
RTVSPost2010Prop31
280
     0
102
RTVSPost2010PropOp31
 70
     1
102
RTVSPost2010Prop32
280
     0
102
RTVSPost2010PropOp32
 70
     1
102
RTVSPost2010Prop33
280
     0
102
RTVSPost2010PropOp33
 70
     1
102
RTVSPost2010Prop34
280
     0
102
RTVSPost2010PropOp34
 70
     1
102
RTVSPost2010Prop35
280
     0
102
RTVSPost2010PropOp35
 70
     1
102
RTVSPost2010Prop36
280
     0
102
RTVSPost2010PropOp36
 70
     1
102
RTVSPost2010Prop37
 90
       50
102
RTVSPost2010PropOp37
 70
     1
102
RTVSPost2010Prop38
140
0.0
102
RTVSPost2010PropOp38
 70
     1
102
RTVSPost2010Prop39
140
1.0
102
RTVSPost2010PropOp39
 70
     1
102
RTVSPost2010Prop40
 90
        0
102
RTVSPost2010PropOp40
 70
     1
102
RTVSPost2010Prop41ColorIndex
 90
       18
102
RTVSPost2010Prop41ColorRGB
 90
        0
102
RTVSPost2010PropOp41
 70
     1
102
RTVSPost2010Prop42
 90
       50
102
RTVSPost2010PropOp42
 70
     1
102
RTVSPost2010Prop43
 90
        3
102
RTVSPost2010PropOp43
 70
     1
102
RTVSPost2010Prop44ColorIndex
 90
        5
102
RTVSPost2010Prop44ColorRGB
 90
      255
102
RTVSPost2010PropOp44
 70
     1
102
RTVSPost2010Prop45
280
     0
102
RTVSPost2010PropOp45
 70
     1
102
RTVSPost2010Prop46
 90
       50
102
RTVSPost2010PropOp46
 70
     1
102
RTVSPost2010Prop47
 90
       50
102
RTVSPost2010PropOp47
 70
     1
102
RTVSPost2010Prop48
 90
       50
102
RTVSPost2010PropOp48
 70
     1
102
RTVSPost2010Prop49
280
     0
102
RTVSPost2010PropOp49
 70
     1
102
RTVSPost2010Prop50
 90
       50
102
RTVSPost2010PropOp50
 70
     1
102
RTVSPost2010Prop51ColorIndex
 90
      256
102
RTVSPost2010Prop51ColorRGB
 90
-16777216
102
RTVSPost2010PropOp51
 70
     0
102
RTVSPost2010Prop52
140
1.0
102
RTVSPost2010PropOp52
 70
     0
102
RTVSPost2010Prop53
 90
        2
102
RTVSPost2010PropOp53
 70
     1
102
RTVSPost2010Prop54
  1
strokes_ogs.tif
102
RTVSPost2010PropOp54
 70
     1
102
RTVSPost2010Prop55
280
     0
102
RTVSPost2010PropOp55
 70
     1
102
RTVSPost2010Prop56
140
1.0
102
RTVSPost2010PropOp56
 70
     1
102
RTVSPost2010Prop57
140
1.0
102
RTVSPost2010PropOp57
 70
     1
  0
XRECORD
  5
5D3
102
{ACAD_REACTORS
330
5D2
102
}
330
5D2
100
AcDbXrecord
280
     1
102
RTVSPropertyOp0
 70
     1
102
RTVSPropertyOp1
 70
     1
102
RTVSPropertyOp2
 70
     1
102
RTVSPropertyOp3
 70
     1
102
RTVSPropertyOp4
 70
     1
102
RTVSPropertyOp5
 70
     1
102
RTVSPropertyOp6
 70
     1
102
RTVSPropertyOp7
 70
     1
102
RTVSPropertyOp8
 70
     1
102
RTVSPropertyOp9
 70
     1
102
RTVSPropertyOp10
 70
     1
102
RTVSPropertyOp11
 70
     1
102
RTVSPropertyOp12
 70
     1
102
RTVSPropertyOp13
 70
     1
102
RTVSPropertyOp14
 70
     1
102
RTVSPropertyOp15
 70
     1
102
RTVSPropertyOp16
 70
     1
102
RTVSPropertyOp17
 70
     1
102
RTVSPropertyOp18
 70
     1
102
RTVSPropertyOp19
 70
     1
102
RTVSPropertyOp20
 70
     1
102
RTVSPropertyOp21
 70
     1
102
RTVSPropertyOp22
 70
     1
102
RTVSPropertyOp23
 70
     1
102
RTVSPropertyOp24
 70
     1
102
RTVSPropertyOp25
 70
     1
102
RTVSPropertyOp26
 70
     1
102
RTVSPropertyOp27
 70
     1
102
RTVSPropertyOp28
 70
     1
102
RTVSPropertyOp29
 70
     1
102
RTVSPropertyOp30
 70
     1
102
RTVSPropertyOp31
 70
     1
102
RTVSPropertyOp32
 70
     1
102
RTVSPropertyOp33
 70
     1
102
RTVSPropertyOp34
 70
     1
102
RTVSPropertyOp35
 70
     1
102
RTVSPropertyOp36
 70
     1
102
RTVSPropertyOp37
 70
     1
102
RTVSPropertyOp38
 70
     1
102
RTVSPropertyOp39
 70
     1
102
RTVSPropertyOp40
 70
     1
102
RTVSPropertyOp41
 70
     1
102
RTVSPropertyOp42
 70
     1
102
RTVSPropertyOp43
 70
     1
102
RTVSPropertyOp44
 70
     1
102
RTVSPropertyOp45
 70
     1
102
RTVSPropertyOp46
 70
     1
102
RTVSPropertyOp47
 70
     1
102
RTVSPropertyOp48
 70
     1
102
RTVSPropertyOp49
 70
     1
102
RTVSPropertyOp50
 70
     1
102
RTVSPropertyOp51
 70
     0
102
RTVSPropertyOp52
 70
     0
102
RTVSPropertyOp53
 70
     1
102
RTVSPropertyOp54
 70
     1
102
RTVSPropertyOp55
 70
     1
102
RTVSPropertyOp56
 70
     1
102
RTVSPropertyOp57
 70
     1
102
RTVSPost2010Prop28
280
     0
102
RTVSPost2010PropOp28
 70
     1
102
RTVSPost2010Prop29
280
     1
102
RTVSPost2010PropOp29
 70
     1
102
RTVSPost2010Prop30
280
     1
102
RTVSPost2010PropOp30
 70
     1
102
RTVSPost2010Prop31
280
     0
102
RTVSPost2010PropOp31
 70
     1
102
RTVSPost2010Prop32
280
     0
102
RTVSPost2010PropOp32
 70
     1
102
RTVSPost2010Prop33
280
     0
102
RTVSPost2010PropOp33
 70
     1
102
RTVSPost2010Prop34
280
     0
102
RTVSPost2010PropOp34
 70
     1
102
RTVSPost2010Prop35
280
     0
102
RTVSPost2010PropOp35
 70
     1
102
RTVSPost2010Prop36
280
     0
102
RTVSPost2010PropOp36
 70
     1
102
RTVSPost2010Prop37
 90
       50
102
RTVSPost2010PropOp37
 70
     1
102
RTVSPost2010Prop38
140
0.0
102
RTVSPost2010PropOp38
 70
     1
102
RTVSPost2010Prop39
140
1.0
102
RTVSPost2010PropOp39
 70
     1
102
RTVSPost2010Prop40
 90
        0
102
RTVSPost2010PropOp40
 70
     1
102
RTVSPost2010Prop41ColorIndex
 90
       18
102
RTVSPost2010Prop41ColorRGB
 90
        0
102
RTVSPost2010PropOp41
 70
     1
102
RTVSPost2010Prop42
 90
       50
102
RTVSPost2010PropOp42
 70
     1
102
RTVSPost2010Prop43
 90
        3
102
RTVSPost2010PropOp43
 70
     1
102
RTVSPost2010Prop44ColorIndex
 90
        5
102
RTVSPost2010Prop44ColorRGB
 90
      255
102
RTVSPost2010PropOp44
 70
     1
102
RTVSPost2010Prop45
280
     0
102
RTVSPost2010PropOp45
 70
     1
102
RTVSPost2010Prop46
 90
       50
102
RTVSPost2010PropOp46
 70
     1
102
RTVSPost2010Prop47
 90
       50
102
RTVSPost2010PropOp47
 70
     1
102
RTVSPost2010Prop48
 90
       50
102
RTVSPost2010PropOp48
 70
     1
102
RTVSPost2010Prop49
280
     0
102
RTVSPost2010PropOp49
 70
     1
102
RTVSPost2010Prop50
 90
       50
102
RTVSPost2010PropOp50
 70
     1
102
RTVSPost2010Prop51ColorIndex
 90
      256
102
RTVSPost2010Prop51ColorRGB
 90
-16777216
102
RTVSPost2010PropOp51
 70
     0
102
RTVSPost2010Prop52
140
1.0
102
RTVSPost2010PropOp52
 70
     0
102
RTVSPost2010Prop53
 90
        2
102
RTVSPost2010PropOp53
 70
     1
102
RTVSPost2010Prop54
  1
strokes_ogs.tif
102
RTVSPost2010PropOp54
 70
     1
102
RTVSPost2010Prop55
280
     0
102
RTVSPost2010PropOp55
 70
     1
102
RTVSPost2010Prop56
140
1.0
102
RTVSPost2010PropOp56
 70
     1
102
RTVSPost2010Prop57
140
1.0
102
RTVSPost2010PropOp57
 70
     1
  0
XRECORD
  5
5D5
102
{ACAD_REACTORS
330
5D4
102
}
330
5D4
100
AcDbXrecord
280
     1
102
RTVSPropertyOp0
 70
     1
102
RTVSPropertyOp1
 70
     1
102
RTVSPropertyOp2
 70
     1
102
RTVSPropertyOp3
 70
     1
102
RTVSPropertyOp4
 70
     1
102
RTVSPropertyOp5
 70
     1
102
RTVSPropertyOp6
 70
     1
102
RTVSPropertyOp7
 70
     1
102
RTVSPropertyOp8
 70
     1
102
RTVSPropertyOp9
 70
     1
102
RTVSPropertyOp10
 70
     1
102
RTVSPropertyOp11
 70
     1
102
RTVSPropertyOp12
 70
     1
102
RTVSPropertyOp13
 70
     1
102
RTVSPropertyOp14
 70
     1
102
RTVSPropertyOp15
 70
     1
102
RTVSPropertyOp16
 70
     1
102
RTVSPropertyOp17
 70
     1
102
RTVSPropertyOp18
 70
     1
102
RTVSPropertyOp19
 70
     1
102
RTVSPropertyOp20
 70
     1
102
RTVSPropertyOp21
 70
     1
102
RTVSPropertyOp22
 70
     1
102
RTVSPropertyOp23
 70
     1
102
RTVSPropertyOp24
 70
     1
102
RTVSPropertyOp25
 70
     1
102
RTVSPropertyOp26
 70
     1
102
RTVSPropertyOp27
 70
     1
102
RTVSPropertyOp28
 70
     1
102
RTVSPropertyOp29
 70
     1
102
RTVSPropertyOp30
 70
     1
102
RTVSPropertyOp31
 70
     1
102
RTVSPropertyOp32
 70
     1
102
RTVSPropertyOp33
 70
     1
102
RTVSPropertyOp34
 70
     1
102
RTVSPropertyOp35
 70
     1
102
RTVSPropertyOp36
 70
     1
102
RTVSPropertyOp37
 70
     1
102
RTVSPropertyOp38
 70
     1
102
RTVSPropertyOp39
 70
     1
102
RTVSPropertyOp40
 70
     1
102
RTVSPropertyOp41
 70
     1
102
RTVSPropertyOp42
 70
     1
102
RTVSPropertyOp43
 70
     1
102
RTVSPropertyOp44
 70
     1
102
RTVSPropertyOp45
 70
     1
102
RTVSPropertyOp46
 70
     1
102
RTVSPropertyOp47
 70
     1
102
RTVSPropertyOp48
 70
     1
102
RTVSPropertyOp49
 70
     1
102
RTVSPropertyOp50
 70
     1
102
RTVSPropertyOp51
 70
     0
102
RTVSPropertyOp52
 70
     0
102
RTVSPropertyOp53
 70
     1
102
RTVSPropertyOp54
 70
     1
102
RTVSPropertyOp55
 70
     1
102
RTVSPropertyOp56
 70
     1
102
RTVSPropertyOp57
 70
     1
102
RTVSPost2010Prop28
280
     0
102
RTVSPost2010PropOp28
 70
     1
102
RTVSPost2010Prop29
280
     1
102
RTVSPost2010PropOp29
 70
     1
102
RTVSPost2010Prop30
280
     1
102
RTVSPost2010PropOp30
 70
     1
102
RTVSPost2010Prop31
280
     0
102
RTVSPost2010PropOp31
 70
     1
102
RTVSPost2010Prop32
280
     0
102
RTVSPost2010PropOp32
 70
     1
102
RTVSPost2010Prop33
280
     0
102
RTVSPost2010PropOp33
 70
     1
102
RTVSPost2010Prop34
280
     0
102
RTVSPost2010PropOp34
 70
     1
102
RTVSPost2010Prop35
280
     0
102
RTVSPost2010PropOp35
 70
     1
102
RTVSPost2010Prop36
280
     0
102
RTVSPost2010PropOp36
 70
     1
102
RTVSPost2010Prop37
 90
       50
102
RTVSPost2010PropOp37
 70
     1
102
RTVSPost2010Prop38
140
0.0
102
RTVSPost2010PropOp38
 70
     1
102
RTVSPost2010Prop39
140
1.0
102
RTVSPost2010PropOp39
 70
     1
102
RTVSPost2010Prop40
 90
        0
102
RTVSPost2010PropOp40
 70
     1
102
RTVSPost2010Prop41ColorIndex
 90
       18
102
RTVSPost2010Prop41ColorRGB
 90
        0
102
RTVSPost2010PropOp41
 70
     1
102
RTVSPost2010Prop42
 90
       50
102
RTVSPost2010PropOp42
 70
     1
102
RTVSPost2010Prop43
 90
        3
102
RTVSPost2010PropOp43
 70
     1
102
RTVSPost2010Prop44ColorIndex
 90
        5
102
RTVSPost2010Prop44ColorRGB
 90
      255
102
RTVSPost2010PropOp44
 70
     1
102
RTVSPost2010Prop45
280
     0
102
RTVSPost2010PropOp45
 70
     1
102
RTVSPost2010Prop46
 90
       50
102
RTVSPost2010PropOp46
 70
     1
102
RTVSPost2010Prop47
 90
       50
102
RTVSPost2010PropOp47
 70
     1
102
RTVSPost2010Prop48
 90
       50
102
RTVSPost2010PropOp48
 70
     1
102
RTVSPost2010Prop49
280
     0
102
RTVSPost2010PropOp49
 70
     1
102
RTVSPost2010Prop50
 90
       50
102
RTVSPost2010PropOp50
 70
     1
102
RTVSPost2010Prop51ColorIndex
 90
      256
102
RTVSPost2010Prop51ColorRGB
 90
-16777216
102
RTVSPost2010PropOp51
 70
     0
102
RTVSPost2010Prop52
140
1.0
102
RTVSPost2010PropOp52
 70
     0
102
RTVSPost2010Prop53
 90
        2
102
RTVSPost2010PropOp53
 70
     1
102
RTVSPost2010Prop54
  1
strokes_ogs.tif
102
RTVSPost2010PropOp54
 70
     1
102
RTVSPost2010Prop55
280
     0
102
RTVSPost2010PropOp55
 70
     1
102
RTVSPost2010Prop56
140
1.0
102
RTVSPost2010PropOp56
 70
     1
102
RTVSPost2010Prop57
140
1.0
102
RTVSPost2010PropOp57
 70
     1
  0
XRECORD
  5
5D7
102
{ACAD_REACTORS
330
5D6
102
}
330
5D6
100
AcDbXrecord
280
     1
102
RTVSPropertyOp0
 70
     1
102
RTVSPropertyOp1
 70
     1
102
RTVSPropertyOp2
 70
     1
102
RTVSPropertyOp3
 70
     1
102
RTVSPropertyOp4
 70
     1
102
RTVSPropertyOp5
 70
     1
102
RTVSPropertyOp6
 70
     1
102
RTVSPropertyOp7
 70
     1
102
RTVSPropertyOp8
 70
     1
102
RTVSPropertyOp9
 70
     1
102
RTVSPropertyOp10
 70
     1
102
RTVSPropertyOp11
 70
     1
102
RTVSPropertyOp12
 70
     1
102
RTVSPropertyOp13
 70
     1
102
RTVSPropertyOp14
 70
     1
102
RTVSPropertyOp15
 70
     1
102
RTVSPropertyOp16
 70
     1
102
RTVSPropertyOp17
 70
     1
102
RTVSPropertyOp18
 70
     1
102
RTVSPropertyOp19
 70
     1
102
RTVSPropertyOp20
 70
     1
102
RTVSPropertyOp21
 70
     1
102
RTVSPropertyOp22
 70
     1
102
RTVSPropertyOp23
 70
     1
102
RTVSPropertyOp24
 70
     1
102
RTVSPropertyOp25
 70
     1
102
RTVSPropertyOp26
 70
     1
102
RTVSPropertyOp27
 70
     1
102
RTVSPropertyOp28
 70
     1
102
RTVSPropertyOp29
 70
     1
102
RTVSPropertyOp30
 70
     1
102
RTVSPropertyOp31
 70
     1
102
RTVSPropertyOp32
 70
     1
102
RTVSPropertyOp33
 70
     1
102
RTVSPropertyOp34
 70
     1
102
RTVSPropertyOp35
 70
     1
102
RTVSPropertyOp36
 70
     1
102
RTVSPropertyOp37
 70
     1
102
RTVSPropertyOp38
 70
     1
102
RTVSPropertyOp39
 70
     1
102
RTVSPropertyOp40
 70
     1
102
RTVSPropertyOp41
 70
     1
102
RTVSPropertyOp42
 70
     1
102
RTVSPropertyOp43
 70
     1
102
RTVSPropertyOp44
 70
     1
102
RTVSPropertyOp45
 70
     1
102
RTVSPropertyOp46
 70
     1
102
RTVSPropertyOp47
 70
     1
102
RTVSPropertyOp48
 70
     1
102
RTVSPropertyOp49
 70
     1
102
RTVSPropertyOp50
 70
     1
102
RTVSPropertyOp51
 70
     0
102
RTVSPropertyOp52
 70
     0
102
RTVSPropertyOp53
 70
     1
102
RTVSPropertyOp54
 70
     1
102
RTVSPropertyOp55
 70
     1
102
RTVSPropertyOp56
 70
     1
102
RTVSPropertyOp57
 70
     1
102
RTVSPost2010Prop28
280
     0
102
RTVSPost2010PropOp28
 70
     1
102
RTVSPost2010Prop29
280
     1
102
RTVSPost2010PropOp29
 70
     1
102
RTVSPost2010Prop30
280
     1
102
RTVSPost2010PropOp30
 70
     1
102
RTVSPost2010Prop31
280
     0
102
RTVSPost2010PropOp31
 70
     1
102
RTVSPost2010Prop32
280
     0
102
RTVSPost2010PropOp32
 70
     1
102
RTVSPost2010Prop33
280
     0
102
RTVSPost2010PropOp33
 70
     1
102
RTVSPost2010Prop34
280
     0
102
RTVSPost2010PropOp34
 70
     1
102
RTVSPost2010Prop35
280
     0
102
RTVSPost2010PropOp35
 70
     1
102
RTVSPost2010Prop36
280
     0
102
RTVSPost2010PropOp36
 70
     1
102
RTVSPost2010Prop37
 90
       50
102
RTVSPost2010PropOp37
 70
     1
102
RTVSPost2010Prop38
140
0.0
102
RTVSPost2010PropOp38
 70
     1
102
RTVSPost2010Prop39
140
1.0
102
RTVSPost2010PropOp39
 70
     1
102
RTVSPost2010Prop40
 90
        0
102
RTVSPost2010PropOp40
 70
     1
102
RTVSPost2010Prop41ColorIndex
 90
       18
102
RTVSPost2010Prop41ColorRGB
 90
        0
102
RTVSPost2010PropOp41
 70
     1
102
RTVSPost2010Prop42
 90
       50
102
RTVSPost2010PropOp42
 70
     1
102
RTVSPost2010Prop43
 90
        3
102
RTVSPost2010PropOp43
 70
     1
102
RTVSPost2010Prop44ColorIndex
 90
        5
102
RTVSPost2010Prop44ColorRGB
 90
      255
102
RTVSPost2010PropOp44
 70
     1
102
RTVSPost2010Prop45
280
     0
102
RTVSPost2010PropOp45
 70
     1
102
RTVSPost2010Prop46
 90
       50
102
RTVSPost2010PropOp46
 70
     1
102
RTVSPost2010Prop47
 90
       50
102
RTVSPost2010PropOp47
 70
     1
102
RTVSPost2010Prop48
 90
       50
102
RTVSPost2010PropOp48
 70
     1
102
RTVSPost2010Prop49
280
     0
102
RTVSPost2010PropOp49
 70
     1
102
RTVSPost2010Prop50
 90
       50
102
RTVSPost2010PropOp50
 70
     1
102
RTVSPost2010Prop51ColorIndex
 90
      256
102
RTVSPost2010Prop51ColorRGB
 90
-16777216
102
RTVSPost2010PropOp51
 70
     0
102
RTVSPost2010Prop52
140
1.0
102
RTVSPost2010PropOp52
 70
     0
102
RTVSPost2010Prop53
 90
        2
102
RTVSPost2010PropOp53
 70
     1
102
RTVSPost2010Prop54
  1
strokes_ogs.tif
102
RTVSPost2010PropOp54
 70
     1
102
RTVSPost2010Prop55
280
     0
102
RTVSPost2010PropOp55
 70
     1
102
RTVSPost2010Prop56
140
1.0
102
RTVSPost2010PropOp56
 70
     1
102
RTVSPost2010Prop57
140
1.0
102
RTVSPost2010PropOp57
 70
     1
  0
XRECORD
  5
5D9
102
{ACAD_REACTORS
330
5D8
102
}
330
5D8
100
AcDbXrecord
280
     1
102
RTVSPropertyOp0
 70
     1
102
RTVSPropertyOp1
 70
     1
102
RTVSPropertyOp2
 70
     1
102
RTVSPropertyOp3
 70
     1
102
RTVSPropertyOp4
 70
     1
102
RTVSPropertyOp5
 70
     1
102
RTVSPropertyOp6
 70
     1
102
RTVSPropertyOp7
 70
     1
102
RTVSPropertyOp8
 70
     1
102
RTVSPropertyOp9
 70
     1
102
RTVSPropertyOp10
 70
     1
102
RTVSPropertyOp11
 70
     1
102
RTVSPropertyOp12
 70
     1
102
RTVSPropertyOp13
 70
     1
102
RTVSPropertyOp14
 70
     1
102
RTVSPropertyOp15
 70
     1
102
RTVSPropertyOp16
 70
     1
102
RTVSPropertyOp17
 70
     1
102
RTVSPropertyOp18
 70
     1
102
RTVSPropertyOp19
 70
     1
102
RTVSPropertyOp20
 70
     1
102
RTVSPropertyOp21
 70
     1
102
RTVSPropertyOp22
 70
     1
102
RTVSPropertyOp23
 70
     1
102
RTVSPropertyOp24
 70
     1
102
RTVSPropertyOp25
 70
     1
102
RTVSPropertyOp26
 70
     1
102
RTVSPropertyOp27
 70
     1
102
RTVSPropertyOp28
 70
     1
102
RTVSPropertyOp29
 70
     1
102
RTVSPropertyOp30
 70
     1
102
RTVSPropertyOp31
 70
     1
102
RTVSPropertyOp32
 70
     1
102
RTVSPropertyOp33
 70
     1
102
RTVSPropertyOp34
 70
     1
102
RTVSPropertyOp35
 70
     1
102
RTVSPropertyOp36
 70
     1
102
RTVSPropertyOp37
 70
     1
102
RTVSPropertyOp38
 70
     1
102
RTVSPropertyOp39
 70
     1
102
RTVSPropertyOp40
 70
     1
102
RTVSPropertyOp41
 70
     1
102
RTVSPropertyOp42
 70
     1
102
RTVSPropertyOp43
 70
     1
102
RTVSPropertyOp44
 70
     1
102
RTVSPropertyOp45
 70
     1
102
RTVSPropertyOp46
 70
     1
102
RTVSPropertyOp47
 70
     1
102
RTVSPropertyOp48
 70
     1
102
RTVSPropertyOp49
 70
     1
102
RTVSPropertyOp50
 70
     1
102
RTVSPropertyOp51
 70
     0
102
RTVSPropertyOp52
 70
     0
102
RTVSPropertyOp53
 70
     1
102
RTVSPropertyOp54
 70
     1
102
RTVSPropertyOp55
 70
     1
102
RTVSPropertyOp56
 70
     1
102
RTVSPropertyOp57
 70
     1
102
RTVSPost2010Prop28
280
     0
102
RTVSPost2010PropOp28
 70
     1
102
RTVSPost2010Prop29
280
     1
102
RTVSPost2010PropOp29
 70
     1
102
RTVSPost2010Prop30
280
     1
102
RTVSPost2010PropOp30
 70
     1
102
RTVSPost2010Prop31
280
     0
102
RTVSPost2010PropOp31
 70
     1
102
RTVSPost2010Prop32
280
     0
102
RTVSPost2010PropOp32
 70
     1
102
RTVSPost2010Prop33
280
     0
102
RTVSPost2010PropOp33
 70
     1
102
RTVSPost2010Prop34
280
     0
102
RTVSPost2010PropOp34
 70
     1
102
RTVSPost2010Prop35
280
     0
102
RTVSPost2010PropOp35
 70
     1
102
RTVSPost2010Prop36
280
     0
102
RTVSPost2010PropOp36
 70
     1
102
RTVSPost2010Prop37
 90
       50
102
RTVSPost2010PropOp37
 70
     1
102
RTVSPost2010Prop38
140
0.0
102
RTVSPost2010PropOp38
 70
     1
102
RTVSPost2010Prop39
140
1.0
102
RTVSPost2010PropOp39
 70
     1
102
RTVSPost2010Prop40
 90
        0
102
RTVSPost2010PropOp40
 70
     1
102
RTVSPost2010Prop41ColorIndex
 90
       18
102
RTVSPost2010Prop41ColorRGB
 90
        0
102
RTVSPost2010PropOp41
 70
     1
102
RTVSPost2010Prop42
 90
       50
102
RTVSPost2010PropOp42
 70
     1
102
RTVSPost2010Prop43
 90
        3
102
RTVSPost2010PropOp43
 70
     1
102
RTVSPost2010Prop44ColorIndex
 90
        5
102
RTVSPost2010Prop44ColorRGB
 90
      255
102
RTVSPost2010PropOp44
 70
     1
102
RTVSPost2010Prop45
280
     0
102
RTVSPost2010PropOp45
 70
     1
102
RTVSPost2010Prop46
 90
       50
102
RTVSPost2010PropOp46
 70
     1
102
RTVSPost2010Prop47
 90
       50
102
RTVSPost2010PropOp47
 70
     1
102
RTVSPost2010Prop48
 90
       50
102
RTVSPost2010PropOp48
 70
     1
102
RTVSPost2010Prop49
280
     0
102
RTVSPost2010PropOp49
 70
     1
102
RTVSPost2010Prop50
 90
       50
102
RTVSPost2010PropOp50
 70
     1
102
RTVSPost2010Prop51ColorIndex
 90
      256
102
RTVSPost2010Prop51ColorRGB
 90
-16777216
102
RTVSPost2010PropOp51
 70
     0
102
RTVSPost2010Prop52
140
1.0
102
RTVSPost2010PropOp52
 70
     0
102
RTVSPost2010Prop53
 90
        2
102
RTVSPost2010PropOp53
 70
     1
102
RTVSPost2010Prop54
  1
strokes_ogs.tif
102
RTVSPost2010PropOp54
 70
     1
102
RTVSPost2010Prop55
280
     0
102
RTVSPost2010PropOp55
 70
     1
102
RTVSPost2010Prop56
140
1.0
102
RTVSPost2010PropOp56
 70
     1
102
RTVSPost2010Prop57
140
1.0
102
RTVSPost2010PropOp57
 70
     1
  0
XRECORD
  5
5DB
102
{ACAD_REACTORS
330
5DA
102
}
330
5DA
100
AcDbXrecord
280
     1
102
RTVSPropertyOp0
 70
     1
102
RTVSPropertyOp1
 70
     1
102
RTVSPropertyOp2
 70
     1
102
RTVSPropertyOp3
 70
     1
102
RTVSPropertyOp4
 70
     1
102
RTVSPropertyOp5
 70
     1
102
RTVSPropertyOp6
 70
     1
102
RTVSPropertyOp7
 70
     1
102
RTVSPropertyOp8
 70
     1
102
RTVSPropertyOp9
 70
     1
102
RTVSPropertyOp10
 70
     1
102
RTVSPropertyOp11
 70
     1
102
RTVSPropertyOp12
 70
     1
102
RTVSPropertyOp13
 70
     1
102
RTVSPropertyOp14
 70
     1
102
RTVSPropertyOp15
 70
     1
102
RTVSPropertyOp16
 70
     1
102
RTVSPropertyOp17
 70
     1
102
RTVSPropertyOp18
 70
     1
102
RTVSPropertyOp19
 70
     1
102
RTVSPropertyOp20
 70
     1
102
RTVSPropertyOp21
 70
     1
102
RTVSPropertyOp22
 70
     1
102
RTVSPropertyOp23
 70
     1
102
RTVSPropertyOp24
 70
     1
102
RTVSPropertyOp25
 70
     1
102
RTVSPropertyOp26
 70
     1
102
RTVSPropertyOp27
 70
     1
102
RTVSPropertyOp28
 70
     1
102
RTVSPropertyOp29
 70
     1
102
RTVSPropertyOp30
 70
     1
102
RTVSPropertyOp31
 70
     1
102
RTVSPropertyOp32
 70
     1
102
RTVSPropertyOp33
 70
     1
102
RTVSPropertyOp34
 70
     1
102
RTVSPropertyOp35
 70
     1
102
RTVSPropertyOp36
 70
     1
102
RTVSPropertyOp37
 70
     1
102
RTVSPropertyOp38
 70
     1
102
RTVSPropertyOp39
 70
     1
102
RTVSPropertyOp40
 70
     1
102
RTVSPropertyOp41
 70
     1
102
RTVSPropertyOp42
 70
     1
102
RTVSPropertyOp43
 70
     1
102
RTVSPropertyOp44
 70
     1
102
RTVSPropertyOp45
 70
     1
102
RTVSPropertyOp46
 70
     1
102
RTVSPropertyOp47
 70
     1
102
RTVSPropertyOp48
 70
     1
102
RTVSPropertyOp49
 70
     1
102
RTVSPropertyOp50
 70
     1
102
RTVSPropertyOp51
 70
     0
102
RTVSPropertyOp52
 70
     0
102
RTVSPropertyOp53
 70
     1
102
RTVSPropertyOp54
 70
     1
102
RTVSPropertyOp55
 70
     1
102
RTVSPropertyOp56
 70
     1
102
RTVSPropertyOp57
 70
     1
102
RTVSPost2010Prop28
280
     0
102
RTVSPost2010PropOp28
 70
     1
102
RTVSPost2010Prop29
280
     1
102
RTVSPost2010PropOp29
 70
     1
102
RTVSPost2010Prop30
280
     1
102
RTVSPost2010PropOp30
 70
     1
102
RTVSPost2010Prop31
280
     0
102
RTVSPost2010PropOp31
 70
     1
102
RTVSPost2010Prop32
280
     0
102
RTVSPost2010PropOp32
 70
     1
102
RTVSPost2010Prop33
280
     0
102
RTVSPost2010PropOp33
 70
     1
102
RTVSPost2010Prop34
280
     0
102
RTVSPost2010PropOp34
 70
     1
102
RTVSPost2010Prop35
280
     0
102
RTVSPost2010PropOp35
 70
     1
102
RTVSPost2010Prop36
280
     0
102
RTVSPost2010PropOp36
 70
     1
102
RTVSPost2010Prop37
 90
       50
102
RTVSPost2010PropOp37
 70
     1
102
RTVSPost2010Prop38
140
0.0
102
RTVSPost2010PropOp38
 70
     1
102
RTVSPost2010Prop39
140
1.0
102
RTVSPost2010PropOp39
 70
     1
102
RTVSPost2010Prop40
 90
        0
102
RTVSPost2010PropOp40
 70
     1
102
RTVSPost2010Prop41ColorIndex
 90
       18
102
RTVSPost2010Prop41ColorRGB
 90
        0
102
RTVSPost2010PropOp41
 70
     1
102
RTVSPost2010Prop42
 90
       50
102
RTVSPost2010PropOp42
 70
     1
102
RTVSPost2010Prop43
 90
        3
102
RTVSPost2010PropOp43
 70
     1
102
RTVSPost2010Prop44ColorIndex
 90
        5
102
RTVSPost2010Prop44ColorRGB
 90
      255
102
RTVSPost2010PropOp44
 70
     1
102
RTVSPost2010Prop45
280
     0
102
RTVSPost2010PropOp45
 70
     1
102
RTVSPost2010Prop46
 90
       50
102
RTVSPost2010PropOp46
 70
     1
102
RTVSPost2010Prop47
 90
       50
102
RTVSPost2010PropOp47
 70
     1
102
RTVSPost2010Prop48
 90
       50
102
RTVSPost2010PropOp48
 70
     1
102
RTVSPost2010Prop49
280
     0
102
RTVSPost2010PropOp49
 70
     1
102
RTVSPost2010Prop50
 90
       50
102
RTVSPost2010PropOp50
 70
     1
102
RTVSPost2010Prop51ColorIndex
 90
      256
102
RTVSPost2010Prop51ColorRGB
 90
-16777216
102
RTVSPost2010PropOp51
 70
     0
102
RTVSPost2010Prop52
140
1.0
102
RTVSPost2010PropOp52
 70
     0
102
RTVSPost2010Prop53
 90
        2
102
RTVSPost2010PropOp53
 70
     1
102
RTVSPost2010Prop54
  1
strokes_ogs.tif
102
RTVSPost2010PropOp54
 70
     1
102
RTVSPost2010Prop55
280
     0
102
RTVSPost2010PropOp55
 70
     1
102
RTVSPost2010Prop56
140
1.0
102
RTVSPost2010PropOp56
 70
     1
102
RTVSPost2010Prop57
140
1.0
102
RTVSPost2010PropOp57
 70
     1
  0
XRECORD
  5
5DD
102
{ACAD_REACTORS
330
5DC
102
}
330
5DC
100
AcDbXrecord
280
     1
102
RTVSPropertyOp0
 70
     0
102
RTVSPropertyOp1
 70
     0
102
RTVSPropertyOp2
 70
     0
102
RTVSPropertyOp3
 70
     0
102
RTVSPropertyOp4
 70
     0
102
RTVSPropertyOp5
 70
     0
102
RTVSPropertyOp6
 70
     0
102
RTVSPropertyOp7
 70
     0
102
RTVSPropertyOp8
 70
     0
102
RTVSPropertyOp9
 70
     0
102
RTVSPropertyOp10
 70
     0
102
RTVSPropertyOp11
 70
     0
102
RTVSPropertyOp12
 70
     0
102
RTVSPropertyOp13
 70
     0
102
RTVSPropertyOp14
 70
     2
102
RTVSPropertyOp15
 70
     0
102
RTVSPropertyOp16
 70
     0
102
RTVSPropertyOp17
 70
     0
102
RTVSPropertyOp18
 70
     0
102
RTVSPropertyOp19
 70
     0
102
RTVSPropertyOp20
 70
     0
102
RTVSPropertyOp21
 70
     0
102
RTVSPropertyOp22
 70
     0
102
RTVSPropertyOp23
 70
     0
102
RTVSPropertyOp24
 70
     0
102
RTVSPropertyOp25
 70
     0
102
RTVSPropertyOp26
 70
     0
102
RTVSPropertyOp27
 70
     0
102
RTVSPropertyOp28
 70
     0
102
RTVSPropertyOp29
 70
     0
102
RTVSPropertyOp30
 70
     0
102
RTVSPropertyOp31
 70
     0
102
RTVSPropertyOp32
 70
     0
102
RTVSPropertyOp33
 70
     0
102
RTVSPropertyOp34
 70
     0
102
RTVSPropertyOp35
 70
     0
102
RTVSPropertyOp36
 70
     0
102
RTVSPropertyOp37
 70
     0
102
RTVSPropertyOp38
 70
     0
102
RTVSPropertyOp39
 70
     0
102
RTVSPropertyOp40
 70
     0
102
RTVSPropertyOp41
 70
     0
102
RTVSPropertyOp42
 70
     0
102
RTVSPropertyOp43
 70
     0
102
RTVSPropertyOp44
 70
     0
102
RTVSPropertyOp45
 70
     0
102
RTVSPropertyOp46
 70
     0
102
RTVSPropertyOp47
 70
     0
102
RTVSPropertyOp48
 70
     0
102
RTVSPropertyOp49
 70
     0
102
RTVSPropertyOp50
 70
     0
102
RTVSPropertyOp51
 70
     0
102
RTVSPropertyOp52
 70
     0
102
RTVSPropertyOp53
 70
     0
102
RTVSPropertyOp54
 70
     0
102
RTVSPropertyOp55
 70
     0
102
RTVSPropertyOp56
 70
     0
102
RTVSPropertyOp57
 70
     0
102
RTVSPost2010Prop28
280
     0
102
RTVSPost2010PropOp28
 70
     0
102
RTVSPost2010Prop29
280
     1
102
RTVSPost2010PropOp29
 70
     0
102
RTVSPost2010Prop30
280
     1
102
RTVSPost2010PropOp30
 70
     0
102
RTVSPost2010Prop31
280
     0
102
RTVSPost2010PropOp31
 70
     0
102
RTVSPost2010Prop32
280
     0
102
RTVSPost2010PropOp32
 70
     0
102
RTVSPost2010Prop33
280
     0
102
RTVSPost2010PropOp33
 70
     0
102
RTVSPost2010Prop34
280
     0
102
RTVSPost2010PropOp34
 70
     0
102
RTVSPost2010Prop35
280
     0
102
RTVSPost2010PropOp35
 70
     0
102
RTVSPost2010Prop36
280
     0
102
RTVSPost2010PropOp36
 70
     0
102
RTVSPost2010Prop37
 90
       50
102
RTVSPost2010PropOp37
 70
     0
102
RTVSPost2010Prop38
140
0.0
102
RTVSPost2010PropOp38
 70
     0
102
RTVSPost2010Prop39
140
1.0
102
RTVSPost2010PropOp39
 70
     0
102
RTVSPost2010Prop40
 90
        0
102
RTVSPost2010PropOp40
 70
     0
102
RTVSPost2010Prop41ColorIndex
 90
       18
102
RTVSPost2010Prop41ColorRGB
 90
        0
102
RTVSPost2010PropOp41
 70
     0
102
RTVSPost2010Prop42
 90
       50
102
RTVSPost2010PropOp42
 70
     0
102
RTVSPost2010Prop43
 90
        3
102
RTVSPost2010PropOp43
 70
     0
102
RTVSPost2010Prop44ColorIndex
 90
        5
102
RTVSPost2010Prop44ColorRGB
 90
      255
102
RTVSPost2010PropOp44
 70
     0
102
RTVSPost2010Prop45
280
     0
102
RTVSPost2010PropOp45
 70
     0
102
RTVSPost2010Prop46
 90
       50
102
RTVSPost2010PropOp46
 70
     0
102
RTVSPost2010Prop47
 90
       50
102
RTVSPost2010PropOp47
 70
     0
102
RTVSPost2010Prop48
 90
       50
102
RTVSPost2010PropOp48
 70
     0
102
RTVSPost2010Prop49
280
     0
102
RTVSPost2010PropOp49
 70
     0
102
RTVSPost2010Prop50
 90
       50
102
RTVSPost2010PropOp50
 70
     0
102
RTVSPost2010Prop51ColorIndex
 90
      256
102
RTVSPost2010Prop51ColorRGB
 90
-16777216
102
RTVSPost2010PropOp51
 70
     0
102
RTVSPost2010Prop52
140
1.0
102
RTVSPost2010PropOp52
 70
     0
102
RTVSPost2010Prop53
 90
        2
102
RTVSPost2010PropOp53
 70
     0
102
RTVSPost2010Prop54
  1
strokes_ogs.tif
102
RTVSPost2010PropOp54
 70
     0
102
RTVSPost2010Prop55
280
     0
102
RTVSPost2010PropOp55
 70
     0
102
RTVSPost2010Prop56
140
1.0
102
RTVSPost2010PropOp56
 70
     0
102
RTVSPost2010Prop57
140
1.0
102
RTVSPost2010PropOp57
 70
     0
  0
XRECORD
  5
5DF
102
{ACAD_REACTORS
330
5DE
102
}
330
5DE
100
AcDbXrecord
280
     1
102
RTVSPropertyOp0
 70
     1
102
RTVSPropertyOp1
 70
     1
102
RTVSPropertyOp2
 70
     1
102
RTVSPropertyOp3
 70
     1
102
RTVSPropertyOp4
 70
     1
102
RTVSPropertyOp5
 70
     1
102
RTVSPropertyOp6
 70
     1
102
RTVSPropertyOp7
 70
     1
102
RTVSPropertyOp8
 70
     1
102
RTVSPropertyOp9
 70
     1
102
RTVSPropertyOp10
 70
     1
102
RTVSPropertyOp11
 70
     1
102
RTVSPropertyOp12
 70
     1
102
RTVSPropertyOp13
 70
     1
102
RTVSPropertyOp14
 70
     1
102
RTVSPropertyOp15
 70
     1
102
RTVSPropertyOp16
 70
     1
102
RTVSPropertyOp17
 70
     1
102
RTVSPropertyOp18
 70
     1
102
RTVSPropertyOp19
 70
     1
102
RTVSPropertyOp20
 70
     1
102
RTVSPropertyOp21
 70
     1
102
RTVSPropertyOp22
 70
     1
102
RTVSPropertyOp23
 70
     1
102
RTVSPropertyOp24
 70
     1
102
RTVSPropertyOp25
 70
     1
102
RTVSPropertyOp26
 70
     1
102
RTVSPropertyOp27
 70
     1
102
RTVSPropertyOp28
 70
     1
102
RTVSPropertyOp29
 70
     1
102
RTVSPropertyOp30
 70
     1
102
RTVSPropertyOp31
 70
     1
102
RTVSPropertyOp32
 70
     1
102
RTVSPropertyOp33
 70
     1
102
RTVSPropertyOp34
 70
     1
102
RTVSPropertyOp35
 70
     1
102
RTVSPropertyOp36
 70
     1
102
RTVSPropertyOp37
 70
     1
102
RTVSPropertyOp38
 70
     1
102
RTVSPropertyOp39
 70
     1
102
RTVSPropertyOp40
 70
     1
102
RTVSPropertyOp41
 70
     1
102
RTVSPropertyOp42
 70
     1
102
RTVSPropertyOp43
 70
     1
102
RTVSPropertyOp44
 70
     1
102
RTVSPropertyOp45
 70
     1
102
RTVSPropertyOp46
 70
     1
102
RTVSPropertyOp47
 70
     1
102
RTVSPropertyOp48
 70
     1
102
RTVSPropertyOp49
 70
     1
102
RTVSPropertyOp50
 70
     1
102
RTVSPropertyOp51
 70
     0
102
RTVSPropertyOp52
 70
     0
102
RTVSPropertyOp53
 70
     1
102
RTVSPropertyOp54
 70
     1
102
RTVSPropertyOp55
 70
     1
102
RTVSPropertyOp56
 70
     1
102
RTVSPropertyOp57
 70
     1
102
RTVSPost2010Prop28
280
     0
102
RTVSPost2010PropOp28
 70
     1
102
RTVSPost2010Prop29
280
     1
102
RTVSPost2010PropOp29
 70
     1
102
RTVSPost2010Prop30
280
     1
102
RTVSPost2010PropOp30
 70
     1
102
RTVSPost2010Prop31
280
     0
102
RTVSPost2010PropOp31
 70
     1
102
RTVSPost2010Prop32
280
     0
102
RTVSPost2010PropOp32
 70
     1
102
RTVSPost2010Prop33
280
     0
102
RTVSPost2010PropOp33
 70
     1
102
RTVSPost2010Prop34
280
     0
102
RTVSPost2010PropOp34
 70
     1
102
RTVSPost2010Prop35
280
     0
102
RTVSPost2010PropOp35
 70
     1
102
RTVSPost2010Prop36
280
     0
102
RTVSPost2010PropOp36
 70
     1
102
RTVSPost2010Prop37
 90
       50
102
RTVSPost2010PropOp37
 70
     1
102
RTVSPost2010Prop38
140
0.0
102
RTVSPost2010PropOp38
 70
     1
102
RTVSPost2010Prop39
140
1.0
102
RTVSPost2010PropOp39
 70
     1
102
RTVSPost2010Prop40
 90
        0
102
RTVSPost2010PropOp40
 70
     1
102
RTVSPost2010Prop41ColorIndex
 90
       18
102
RTVSPost2010Prop41ColorRGB
 90
        0
102
RTVSPost2010PropOp41
 70
     1
102
RTVSPost2010Prop42
 90
       50
102
RTVSPost2010PropOp42
 70
     1
102
RTVSPost2010Prop43
 90
        3
102
RTVSPost2010PropOp43
 70
     1
102
RTVSPost2010Prop44ColorIndex
 90
        5
102
RTVSPost2010Prop44ColorRGB
 90
      255
102
RTVSPost2010PropOp44
 70
     1
102
RTVSPost2010Prop45
280
     0
102
RTVSPost2010PropOp45
 70
     1
102
RTVSPost2010Prop46
 90
       50
102
RTVSPost2010PropOp46
 70
     1
102
RTVSPost2010Prop47
 90
       50
102
RTVSPost2010PropOp47
 70
     1
102
RTVSPost2010Prop48
 90
       50
102
RTVSPost2010PropOp48
 70
     1
102
RTVSPost2010Prop49
280
     0
102
RTVSPost2010PropOp49
 70
     1
102
RTVSPost2010Prop50
 90
       50
102
RTVSPost2010PropOp50
 70
     1
102
RTVSPost2010Prop51ColorIndex
 90
      256
102
RTVSPost2010Prop51ColorRGB
 90
-16777216
102
RTVSPost2010PropOp51
 70
     0
102
RTVSPost2010Prop52
140
1.0
102
RTVSPost2010PropOp52
 70
     0
102
RTVSPost2010Prop53
 90
        2
102
RTVSPost2010PropOp53
 70
     1
102
RTVSPost2010Prop54
  1
strokes_ogs.tif
102
RTVSPost2010PropOp54
 70
     1
102
RTVSPost2010Prop55
280
     0
102
RTVSPost2010PropOp55
 70
     1
102
RTVSPost2010Prop56
140
1.0
102
RTVSPost2010PropOp56
 70
     1
102
RTVSPost2010Prop57
140
1.0
102
RTVSPost2010PropOp57
 70
     1
  0
XRECORD
  5
5E1
102
{ACAD_REACTORS
330
5E0
102
}
330
5E0
100
AcDbXrecord
280
     1
102
RTVSPropertyOp0
 70
     1
102
RTVSPropertyOp1
 70
     1
102
RTVSPropertyOp2
 70
     1
102
RTVSPropertyOp3
 70
     1
102
RTVSPropertyOp4
 70
     1
102
RTVSPropertyOp5
 70
     1
102
RTVSPropertyOp6
 70
     1
102
RTVSPropertyOp7
 70
     1
102
RTVSPropertyOp8
 70
     1
102
RTVSPropertyOp9
 70
     1
102
RTVSPropertyOp10
 70
     1
102
RTVSPropertyOp11
 70
     1
102
RTVSPropertyOp12
 70
     1
102
RTVSPropertyOp13
 70
     1
102
RTVSPropertyOp14
 70
     1
102
RTVSPropertyOp15
 70
     1
102
RTVSPropertyOp16
 70
     1
102
RTVSPropertyOp17
 70
     1
102
RTVSPropertyOp18
 70
     1
102
RTVSPropertyOp19
 70
     1
102
RTVSPropertyOp20
 70
     1
102
RTVSPropertyOp21
 70
     1
102
RTVSPropertyOp22
 70
     1
102
RTVSPropertyOp23
 70
     1
102
RTVSPropertyOp24
 70
     1
102
RTVSPropertyOp25
 70
     1
102
RTVSPropertyOp26
 70
     1
102
RTVSPropertyOp27
 70
     1
102
RTVSPropertyOp28
 70
     1
102
RTVSPropertyOp29
 70
     1
102
RTVSPropertyOp30
 70
     1
102
RTVSPropertyOp31
 70
     1
102
RTVSPropertyOp32
 70
     1
102
RTVSPropertyOp33
 70
     1
102
RTVSPropertyOp34
 70
     1
102
RTVSPropertyOp35
 70
     1
102
RTVSPropertyOp36
 70
     1
102
RTVSPropertyOp37
 70
     1
102
RTVSPropertyOp38
 70
     1
102
RTVSPropertyOp39
 70
     1
102
RTVSPropertyOp40
 70
     1
102
RTVSPropertyOp41
 70
     1
102
RTVSPropertyOp42
 70
     1
102
RTVSPropertyOp43
 70
     1
102
RTVSPropertyOp44
 70
     1
102
RTVSPropertyOp45
 70
     1
102
RTVSPropertyOp46
 70
     1
102
RTVSPropertyOp47
 70
     1
102
RTVSPropertyOp48
 70
     1
102
RTVSPropertyOp49
 70
     1
102
RTVSPropertyOp50
 70
     1
102
RTVSPropertyOp51
 70
     0
102
RTVSPropertyOp52
 70
     0
102
RTVSPropertyOp53
 70
     1
102
RTVSPropertyOp54
 70
     1
102
RTVSPropertyOp55
 70
     1
102
RTVSPropertyOp56
 70
     1
102
RTVSPropertyOp57
 70
     1
102
RTVSPost2010Prop28
280
     0
102
RTVSPost2010PropOp28
 70
     1
102
RTVSPost2010Prop29
280
     1
102
RTVSPost2010PropOp29
 70
     1
102
RTVSPost2010Prop30
280
     1
102
RTVSPost2010PropOp30
 70
     1
102
RTVSPost2010Prop31
280
     0
102
RTVSPost2010PropOp31
 70
     1
102
RTVSPost2010Prop32
280
     0
102
RTVSPost2010PropOp32
 70
     1
102
RTVSPost2010Prop33
280
     0
102
RTVSPost2010PropOp33
 70
     1
102
RTVSPost2010Prop34
280
     0
102
RTVSPost2010PropOp34
 70
     1
102
RTVSPost2010Prop35
280
     0
102
RTVSPost2010PropOp35
 70
     1
102
RTVSPost2010Prop36
280
     0
102
RTVSPost2010PropOp36
 70
     1
102
RTVSPost2010Prop37
 90
       50
102
RTVSPost2010PropOp37
 70
     1
102
RTVSPost2010Prop38
140
0.0
102
RTVSPost2010PropOp38
 70
     1
102
RTVSPost2010Prop39
140
1.0
102
RTVSPost2010PropOp39
 70
     1
102
RTVSPost2010Prop40
 90
        0
102
RTVSPost2010PropOp40
 70
     1
102
RTVSPost2010Prop41ColorIndex
 90
       18
102
RTVSPost2010Prop41ColorRGB
 90
        0
102
RTVSPost2010PropOp41
 70
     1
102
RTVSPost2010Prop42
 90
       50
102
RTVSPost2010PropOp42
 70
     1
102
RTVSPost2010Prop43
 90
        3
102
RTVSPost2010PropOp43
 70
     1
102
RTVSPost2010Prop44ColorIndex
 90
        5
102
RTVSPost2010Prop44ColorRGB
 90
      255
102
RTVSPost2010PropOp44
 70
     1
102
RTVSPost2010Prop45
280
     0
102
RTVSPost2010PropOp45
 70
     1
102
RTVSPost2010Prop46
 90
       50
102
RTVSPost2010PropOp46
 70
     1
102
RTVSPost2010Prop47
 90
       50
102
RTVSPost2010PropOp47
 70
     1
102
RTVSPost2010Prop48
 90
       50
102
RTVSPost2010PropOp48
 70
     1
102
RTVSPost2010Prop49
280
     0
102
RTVSPost2010PropOp49
 70
     1
102
RTVSPost2010Prop50
 90
       50
102
RTVSPost2010PropOp50
 70
     1
102
RTVSPost2010Prop51ColorIndex
 90
      256
102
RTVSPost2010Prop51ColorRGB
 90
-16777216
102
RTVSPost2010PropOp51
 70
     0
102
RTVSPost2010Prop52
140
1.0
102
RTVSPost2010PropOp52
 70
     0
102
RTVSPost2010Prop53
 90
        2
102
RTVSPost2010PropOp53
 70
     1
102
RTVSPost2010Prop54
  1
strokes_ogs.tif
102
RTVSPost2010PropOp54
 70
     1
102
RTVSPost2010Prop55
280
     0
102
RTVSPost2010PropOp55
 70
     1
102
RTVSPost2010Prop56
140
1.0
102
RTVSPost2010PropOp56
 70
     1
102
RTVSPost2010Prop57
140
1.0
102
RTVSPost2010PropOp57
 70
     1
  0
XRECORD
  5
5E3
102
{ACAD_REACTORS
330
5E2
102
}
330
5E2
100
AcDbXrecord
280
     1
102
RTVSPropertyOp0
 70
     1
102
RTVSPropertyOp1
 70
     1
102
RTVSPropertyOp2
 70
     1
102
RTVSPropertyOp3
 70
     1
102
RTVSPropertyOp4
 70
     1
102
RTVSPropertyOp5
 70
     1
102
RTVSPropertyOp6
 70
     1
102
RTVSPropertyOp7
 70
     1
102
RTVSPropertyOp8
 70
     1
102
RTVSPropertyOp9
 70
     1
102
RTVSPropertyOp10
 70
     1
102
RTVSPropertyOp11
 70
     1
102
RTVSPropertyOp12
 70
     1
102
RTVSPropertyOp13
 70
     1
102
RTVSPropertyOp14
 70
     1
102
RTVSPropertyOp15
 70
     1
102
RTVSPropertyOp16
 70
     1
102
RTVSPropertyOp17
 70
     1
102
RTVSPropertyOp18
 70
     1
102
RTVSPropertyOp19
 70
     1
102
RTVSPropertyOp20
 70
     1
102
RTVSPropertyOp21
 70
     1
102
RTVSPropertyOp22
 70
     1
102
RTVSPropertyOp23
 70
     1
102
RTVSPropertyOp24
 70
     1
102
RTVSPropertyOp25
 70
     1
102
RTVSPropertyOp26
 70
     1
102
RTVSPropertyOp27
 70
     1
102
RTVSPropertyOp28
 70
     1
102
RTVSPropertyOp29
 70
     1
102
RTVSPropertyOp30
 70
     1
102
RTVSPropertyOp31
 70
     1
102
RTVSPropertyOp32
 70
     1
102
RTVSPropertyOp33
 70
     1
102
RTVSPropertyOp34
 70
     1
102
RTVSPropertyOp35
 70
     1
102
RTVSPropertyOp36
 70
     1
102
RTVSPropertyOp37
 70
     1
102
RTVSPropertyOp38
 70
     1
102
RTVSPropertyOp39
 70
     1
102
RTVSPropertyOp40
 70
     1
102
RTVSPropertyOp41
 70
     1
102
RTVSPropertyOp42
 70
     1
102
RTVSPropertyOp43
 70
     1
102
RTVSPropertyOp44
 70
     1
102
RTVSPropertyOp45
 70
     1
102
RTVSPropertyOp46
 70
     1
102
RTVSPropertyOp47
 70
     1
102
RTVSPropertyOp48
 70
     1
102
RTVSPropertyOp49
 70
     1
102
RTVSPropertyOp50
 70
     1
102
RTVSPropertyOp51
 70
     0
102
RTVSPropertyOp52
 70
     0
102
RTVSPropertyOp53
 70
     1
102
RTVSPropertyOp54
 70
     1
102
RTVSPropertyOp55
 70
     1
102
RTVSPropertyOp56
 70
     1
102
RTVSPropertyOp57
 70
     1
102
RTVSPost2010Prop28
280
     0
102
RTVSPost2010PropOp28
 70
     1
102
RTVSPost2010Prop29
280
     1
102
RTVSPost2010PropOp29
 70
     1
102
RTVSPost2010Prop30
280
     1
102
RTVSPost2010PropOp30
 70
     1
102
RTVSPost2010Prop31
280
     0
102
RTVSPost2010PropOp31
 70
     1
102
RTVSPost2010Prop32
280
     0
102
RTVSPost2010PropOp32
 70
     1
102
RTVSPost2010Prop33
280
     0
102
RTVSPost2010PropOp33
 70
     1
102
RTVSPost2010Prop34
280
     0
102
RTVSPost2010PropOp34
 70
     1
102
RTVSPost2010Prop35
280
     0
102
RTVSPost2010PropOp35
 70
     1
102
RTVSPost2010Prop36
280
     0
102
RTVSPost2010PropOp36
 70
     1
102
RTVSPost2010Prop37
 90
       50
102
RTVSPost2010PropOp37
 70
     1
102
RTVSPost2010Prop38
140
0.0
102
RTVSPost2010PropOp38
 70
     1
102
RTVSPost2010Prop39
140
1.0
102
RTVSPost2010PropOp39
 70
     1
102
RTVSPost2010Prop40
 90
        0
102
RTVSPost2010PropOp40
 70
     1
102
RTVSPost2010Prop41ColorIndex
 90
       18
102
RTVSPost2010Prop41ColorRGB
 90
        0
102
RTVSPost2010PropOp41
 70
     1
102
RTVSPost2010Prop42
 90
       50
102
RTVSPost2010PropOp42
 70
     1
102
RTVSPost2010Prop43
 90
        3
102
RTVSPost2010PropOp43
 70
     1
102
RTVSPost2010Prop44ColorIndex
 90
        5
102
RTVSPost2010Prop44ColorRGB
 90
      255
102
RTVSPost2010PropOp44
 70
     1
102
RTVSPost2010Prop45
280
     0
102
RTVSPost2010PropOp45
 70
     1
102
RTVSPost2010Prop46
 90
       50
102
RTVSPost2010PropOp46
 70
     1
102
RTVSPost2010Prop47
 90
       50
102
RTVSPost2010PropOp47
 70
     1
102
RTVSPost2010Prop48
 90
       50
102
RTVSPost2010PropOp48
 70
     1
102
RTVSPost2010Prop49
280
     0
102
RTVSPost2010PropOp49
 70
     1
102
RTVSPost2010Prop50
 90
       50
102
RTVSPost2010PropOp50
 70
     1
102
RTVSPost2010Prop51ColorIndex
 90
      256
102
RTVSPost2010Prop51ColorRGB
 90
-16777216
102
RTVSPost2010PropOp51
 70
     0
102
RTVSPost2010Prop52
140
1.0
102
RTVSPost2010PropOp52
 70
     0
102
RTVSPost2010Prop53
 90
        2
102
RTVSPost2010PropOp53
 70
     1
102
RTVSPost2010Prop54
  1
strokes_ogs.tif
102
RTVSPost2010PropOp54
 70
     1
102
RTVSPost2010Prop55
280
     0
102
RTVSPost2010PropOp55
 70
     1
102
RTVSPost2010Prop56
140
1.0
102
RTVSPost2010PropOp56
 70
     1
102
RTVSPost2010Prop57
140
1.0
102
RTVSPost2010PropOp57
 70
     1
  0
XRECORD
  5
5E5
102
{ACAD_REACTORS
330
5E4
102
}
330
5E4
100
AcDbXrecord
280
     1
102
RTVSPropertyOp0
 70
     1
102
RTVSPropertyOp1
 70
     1
102
RTVSPropertyOp2
 70
     1
102
RTVSPropertyOp3
 70
     1
102
RTVSPropertyOp4
 70
     1
102
RTVSPropertyOp5
 70
     1
102
RTVSPropertyOp6
 70
     1
102
RTVSPropertyOp7
 70
     1
102
RTVSPropertyOp8
 70
     1
102
RTVSPropertyOp9
 70
     1
102
RTVSPropertyOp10
 70
     1
102
RTVSPropertyOp11
 70
     1
102
RTVSPropertyOp12
 70
     1
102
RTVSPropertyOp13
 70
     1
102
RTVSPropertyOp14
 70
     1
102
RTVSPropertyOp15
 70
     1
102
RTVSPropertyOp16
 70
     1
102
RTVSPropertyOp17
 70
     1
102
RTVSPropertyOp18
 70
     1
102
RTVSPropertyOp19
 70
     1
102
RTVSPropertyOp20
 70
     1
102
RTVSPropertyOp21
 70
     1
102
RTVSPropertyOp22
 70
     1
102
RTVSPropertyOp23
 70
     1
102
RTVSPropertyOp24
 70
     1
102
RTVSPropertyOp25
 70
     1
102
RTVSPropertyOp26
 70
     1
102
RTVSPropertyOp27
 70
     1
102
RTVSPropertyOp28
 70
     1
102
RTVSPropertyOp29
 70
     1
102
RTVSPropertyOp30
 70
     1
102
RTVSPropertyOp31
 70
     1
102
RTVSPropertyOp32
 70
     1
102
RTVSPropertyOp33
 70
     1
102
RTVSPropertyOp34
 70
     1
102
RTVSPropertyOp35
 70
     1
102
RTVSPropertyOp36
 70
     1
102
RTVSPropertyOp37
 70
     1
102
RTVSPropertyOp38
 70
     1
102
RTVSPropertyOp39
 70
     1
102
RTVSPropertyOp40
 70
     1
102
RTVSPropertyOp41
 70
     1
102
RTVSPropertyOp42
 70
     1
102
RTVSPropertyOp43
 70
     1
102
RTVSPropertyOp44
 70
     1
102
RTVSPropertyOp45
 70
     1
102
RTVSPropertyOp46
 70
     1
102
RTVSPropertyOp47
 70
     1
102
RTVSPropertyOp48
 70
     1
102
RTVSPropertyOp49
 70
     1
102
RTVSPropertyOp50
 70
     1
102
RTVSPropertyOp51
 70
     0
102
RTVSPropertyOp52
 70
     0
102
RTVSPropertyOp53
 70
     1
102
RTVSPropertyOp54
 70
     1
102
RTVSPropertyOp55
 70
     1
102
RTVSPropertyOp56
 70
     1
102
RTVSPropertyOp57
 70
     1
102
RTVSPost2010Prop28
280
     0
102
RTVSPost2010PropOp28
 70
     1
102
RTVSPost2010Prop29
280
     1
102
RTVSPost2010PropOp29
 70
     1
102
RTVSPost2010Prop30
280
     1
102
RTVSPost2010PropOp30
 70
     1
102
RTVSPost2010Prop31
280
     0
102
RTVSPost2010PropOp31
 70
     1
102
RTVSPost2010Prop32
280
     0
102
RTVSPost2010PropOp32
 70
     1
102
RTVSPost2010Prop33
280
     0
102
RTVSPost2010PropOp33
 70
     1
102
RTVSPost2010Prop34
280
     0
102
RTVSPost2010PropOp34
 70
     1
102
RTVSPost2010Prop35
280
     0
102
RTVSPost2010PropOp35
 70
     1
102
RTVSPost2010Prop36
280
     0
102
RTVSPost2010PropOp36
 70
     1
102
RTVSPost2010Prop37
 90
       50
102
RTVSPost2010PropOp37
 70
     1
102
RTVSPost2010Prop38
140
0.0
102
RTVSPost2010PropOp38
 70
     1
102
RTVSPost2010Prop39
140
1.0
102
RTVSPost2010PropOp39
 70
     1
102
RTVSPost2010Prop40
 90
        0
102
RTVSPost2010PropOp40
 70
     1
102
RTVSPost2010Prop41ColorIndex
 90
       18
102
RTVSPost2010Prop41ColorRGB
 90
        0
102
RTVSPost2010PropOp41
 70
     1
102
RTVSPost2010Prop42
 90
       50
102
RTVSPost2010PropOp42
 70
     1
102
RTVSPost2010Prop43
 90
        3
102
RTVSPost2010PropOp43
 70
     1
102
RTVSPost2010Prop44ColorIndex
 90
        5
102
RTVSPost2010Prop44ColorRGB
 90
      255
102
RTVSPost2010PropOp44
 70
     1
102
RTVSPost2010Prop45
280
     0
102
RTVSPost2010PropOp45
 70
     1
102
RTVSPost2010Prop46
 90
       50
102
RTVSPost2010PropOp46
 70
     1
102
RTVSPost2010Prop47
 90
       50
102
RTVSPost2010PropOp47
 70
     1
102
RTVSPost2010Prop48
 90
       50
102
RTVSPost2010PropOp48
 70
     1
102
RTVSPost2010Prop49
280
     0
102
RTVSPost2010PropOp49
 70
     1
102
RTVSPost2010Prop50
 90
       50
102
RTVSPost2010PropOp50
 70
     1
102
RTVSPost2010Prop51ColorIndex
 90
      256
102
RTVSPost2010Prop51ColorRGB
 90
-16777216
102
RTVSPost2010PropOp51
 70
     0
102
RTVSPost2010Prop52
140
1.0
102
RTVSPost2010PropOp52
 70
     0
102
RTVSPost2010Prop53
 90
        2
102
RTVSPost2010PropOp53
 70
     1
102
RTVSPost2010Prop54
  1
strokes_ogs.tif
102
RTVSPost2010PropOp54
 70
     1
102
RTVSPost2010Prop55
280
     0
102
RTVSPost2010PropOp55
 70
     1
102
RTVSPost2010Prop56
140
1.0
102
RTVSPost2010PropOp56
 70
     1
102
RTVSPost2010Prop57
140
1.0
102
RTVSPost2010PropOp57
 70
     1
  0
XRECORD
  5
5E7
102
{ACAD_REACTORS
330
5E6
102
}
330
5E6
100
AcDbXrecord
280
     1
102
RTVSPropertyOp0
 70
     1
102
RTVSPropertyOp1
 70
     1
102
RTVSPropertyOp2
 70
     1
102
RTVSPropertyOp3
 70
     1
102
RTVSPropertyOp4
 70
     1
102
RTVSPropertyOp5
 70
     1
102
RTVSPropertyOp6
 70
     1
102
RTVSPropertyOp7
 70
     1
102
RTVSPropertyOp8
 70
     1
102
RTVSPropertyOp9
 70
     1
102
RTVSPropertyOp10
 70
     1
102
RTVSPropertyOp11
 70
     1
102
RTVSPropertyOp12
 70
     1
102
RTVSPropertyOp13
 70
     1
102
RTVSPropertyOp14
 70
     1
102
RTVSPropertyOp15
 70
     1
102
RTVSPropertyOp16
 70
     1
102
RTVSPropertyOp17
 70
     1
102
RTVSPropertyOp18
 70
     1
102
RTVSPropertyOp19
 70
     1
102
RTVSPropertyOp20
 70
     1
102
RTVSPropertyOp21
 70
     1
102
RTVSPropertyOp22
 70
     1
102
RTVSPropertyOp23
 70
     1
102
RTVSPropertyOp24
 70
     1
102
RTVSPropertyOp25
 70
     1
102
RTVSPropertyOp26
 70
     1
102
RTVSPropertyOp27
 70
     1
102
RTVSPropertyOp28
 70
     1
102
RTVSPropertyOp29
 70
     1
102
RTVSPropertyOp30
 70
     1
102
RTVSPropertyOp31
 70
     1
102
RTVSPropertyOp32
 70
     1
102
RTVSPropertyOp33
 70
     1
102
RTVSPropertyOp34
 70
     1
102
RTVSPropertyOp35
 70
     1
102
RTVSPropertyOp36
 70
     1
102
RTVSPropertyOp37
 70
     1
102
RTVSPropertyOp38
 70
     1
102
RTVSPropertyOp39
 70
     1
102
RTVSPropertyOp40
 70
     1
102
RTVSPropertyOp41
 70
     1
102
RTVSPropertyOp42
 70
     1
102
RTVSPropertyOp43
 70
     1
102
RTVSPropertyOp44
 70
     1
102
RTVSPropertyOp45
 70
     1
102
RTVSPropertyOp46
 70
     1
102
RTVSPropertyOp47
 70
     1
102
RTVSPropertyOp48
 70
     1
102
RTVSPropertyOp49
 70
     1
102
RTVSPropertyOp50
 70
     1
102
RTVSPropertyOp51
 70
     0
102
RTVSPropertyOp52
 70
     0
102
RTVSPropertyOp53
 70
     1
102
RTVSPropertyOp54
 70
     1
102
RTVSPropertyOp55
 70
     1
102
RTVSPropertyOp56
 70
     1
102
RTVSPropertyOp57
 70
     1
102
RTVSPost2010Prop28
280
     0
102
RTVSPost2010PropOp28
 70
     1
102
RTVSPost2010Prop29
280
     1
102
RTVSPost2010PropOp29
 70
     1
102
RTVSPost2010Prop30
280
     1
102
RTVSPost2010PropOp30
 70
     1
102
RTVSPost2010Prop31
280
     0
102
RTVSPost2010PropOp31
 70
     1
102
RTVSPost2010Prop32
280
     0
102
RTVSPost2010PropOp32
 70
     1
102
RTVSPost2010Prop33
280
     0
102
RTVSPost2010PropOp33
 70
     1
102
RTVSPost2010Prop34
280
     0
102
RTVSPost2010PropOp34
 70
     1
102
RTVSPost2010Prop35
280
     0
102
RTVSPost2010PropOp35
 70
     1
102
RTVSPost2010Prop36
280
     0
102
RTVSPost2010PropOp36
 70
     1
102
RTVSPost2010Prop37
 90
       50
102
RTVSPost2010PropOp37
 70
     1
102
RTVSPost2010Prop38
140
0.0
102
RTVSPost2010PropOp38
 70
     1
102
RTVSPost2010Prop39
140
1.0
102
RTVSPost2010PropOp39
 70
     1
102
RTVSPost2010Prop40
 90
        0
102
RTVSPost2010PropOp40
 70
     1
102
RTVSPost2010Prop41ColorIndex
 90
       18
102
RTVSPost2010Prop41ColorRGB
 90
        0
102
RTVSPost2010PropOp41
 70
     1
102
RTVSPost2010Prop42
 90
       50
102
RTVSPost2010PropOp42
 70
     1
102
RTVSPost2010Prop43
 90
        3
102
RTVSPost2010PropOp43
 70
     1
102
RTVSPost2010Prop44ColorIndex
 90
        5
102
RTVSPost2010Prop44ColorRGB
 90
      255
102
RTVSPost2010PropOp44
 70
     1
102
RTVSPost2010Prop45
280
     0
102
RTVSPost2010PropOp45
 70
     1
102
RTVSPost2010Prop46
 90
       50
102
RTVSPost2010PropOp46
 70
     1
102
RTVSPost2010Prop47
 90
       50
102
RTVSPost2010PropOp47
 70
     1
102
RTVSPost2010Prop48
 90
       50
102
RTVSPost2010PropOp48
 70
     1
102
RTVSPost2010Prop49
280
     0
102
RTVSPost2010PropOp49
 70
     1
102
RTVSPost2010Prop50
 90
       50
102
RTVSPost2010PropOp50
 70
     1
102
RTVSPost2010Prop51ColorIndex
 90
      256
102
RTVSPost2010Prop51ColorRGB
 90
-16777216
102
RTVSPost2010PropOp51
 70
     0
102
RTVSPost2010Prop52
140
1.0
102
RTVSPost2010PropOp52
 70
     0
102
RTVSPost2010Prop53
 90
        2
102
RTVSPost2010PropOp53
 70
     1
102
RTVSPost2010Prop54
  1
strokes_ogs.tif
102
RTVSPost2010PropOp54
 70
     1
102
RTVSPost2010Prop55
280
     0
102
RTVSPost2010PropOp55
 70
     1
102
RTVSPost2010Prop56
140
1.0
102
RTVSPost2010PropOp56
 70
     1
102
RTVSPost2010Prop57
140
1.0
102
RTVSPost2010PropOp57
 70
     1
  0
XRECORD
  5
5E9
102
{ACAD_REACTORS
330
5E8
102
}
330
5E8
100
AcDbXrecord
280
     1
102
RTVSPropertyOp0
 70
     1
102
RTVSPropertyOp1
 70
     1
102
RTVSPropertyOp2
 70
     1
102
RTVSPropertyOp3
 70
     1
102
RTVSPropertyOp4
 70
     1
102
RTVSPropertyOp5
 70
     1
102
RTVSPropertyOp6
 70
     1
102
RTVSPropertyOp7
 70
     1
102
RTVSPropertyOp8
 70
     1
102
RTVSPropertyOp9
 70
     1
102
RTVSPropertyOp10
 70
     1
102
RTVSPropertyOp11
 70
     1
102
RTVSPropertyOp12
 70
     1
102
RTVSPropertyOp13
 70
     1
102
RTVSPropertyOp14
 70
     1
102
RTVSPropertyOp15
 70
     1
102
RTVSPropertyOp16
 70
     1
102
RTVSPropertyOp17
 70
     1
102
RTVSPropertyOp18
 70
     1
102
RTVSPropertyOp19
 70
     1
102
RTVSPropertyOp20
 70
     1
102
RTVSPropertyOp21
 70
     1
102
RTVSPropertyOp22
 70
     1
102
RTVSPropertyOp23
 70
     1
102
RTVSPropertyOp24
 70
     1
102
RTVSPropertyOp25
 70
     1
102
RTVSPropertyOp26
 70
     1
102
RTVSPropertyOp27
 70
     1
102
RTVSPropertyOp28
 70
     1
102
RTVSPropertyOp29
 70
     1
102
RTVSPropertyOp30
 70
     1
102
RTVSPropertyOp31
 70
     1
102
RTVSPropertyOp32
 70
     1
102
RTVSPropertyOp33
 70
     1
102
RTVSPropertyOp34
 70
     1
102
RTVSPropertyOp35
 70
     1
102
RTVSPropertyOp36
 70
     1
102
RTVSPropertyOp37
 70
     1
102
RTVSPropertyOp38
 70
     1
102
RTVSPropertyOp39
 70
     1
102
RTVSPropertyOp40
 70
     1
102
RTVSPropertyOp41
 70
     1
102
RTVSPropertyOp42
 70
     1
102
RTVSPropertyOp43
 70
     1
102
RTVSPropertyOp44
 70
     1
102
RTVSPropertyOp45
 70
     1
102
RTVSPropertyOp46
 70
     1
102
RTVSPropertyOp47
 70
     1
102
RTVSPropertyOp48
 70
     1
102
RTVSPropertyOp49
 70
     1
102
RTVSPropertyOp50
 70
     1
102
RTVSPropertyOp51
 70
     0
102
RTVSPropertyOp52
 70
     0
102
RTVSPropertyOp53
 70
     1
102
RTVSPropertyOp54
 70
     1
102
RTVSPropertyOp55
 70
     1
102
RTVSPropertyOp56
 70
     1
102
RTVSPropertyOp57
 70
     1
102
RTVSPost2010Prop28
280
     0
102
RTVSPost2010PropOp28
 70
     1
102
RTVSPost2010Prop29
280
     1
102
RTVSPost2010PropOp29
 70
     1
102
RTVSPost2010Prop30
280
     1
102
RTVSPost2010PropOp30
 70
     1
102
RTVSPost2010Prop31
280
     0
102
RTVSPost2010PropOp31
 70
     1
102
RTVSPost2010Prop32
280
     0
102
RTVSPost2010PropOp32
 70
     1
102
RTVSPost2010Prop33
280
     0
102
RTVSPost2010PropOp33
 70
     1
102
RTVSPost2010Prop34
280
     0
102
RTVSPost2010PropOp34
 70
     1
102
RTVSPost2010Prop35
280
     0
102
RTVSPost2010PropOp35
 70
     1
102
RTVSPost2010Prop36
280
     0
102
RTVSPost2010PropOp36
 70
     1
102
RTVSPost2010Prop37
 90
       50
102
RTVSPost2010PropOp37
 70
     1
102
RTVSPost2010Prop38
140
0.0
102
RTVSPost2010PropOp38
 70
     1
102
RTVSPost2010Prop39
140
1.0
102
RTVSPost2010PropOp39
 70
     1
102
RTVSPost2010Prop40
 90
        0
102
RTVSPost2010PropOp40
 70
     1
102
RTVSPost2010Prop41ColorIndex
 90
       18
102
RTVSPost2010Prop41ColorRGB
 90
        0
102
RTVSPost2010PropOp41
 70
     1
102
RTVSPost2010Prop42
 90
       50
102
RTVSPost2010PropOp42
 70
     1
102
RTVSPost2010Prop43
 90
        3
102
RTVSPost2010PropOp43
 70
     1
102
RTVSPost2010Prop44ColorIndex
 90
        5
102
RTVSPost2010Prop44ColorRGB
 90
      255
102
RTVSPost2010PropOp44
 70
     1
102
RTVSPost2010Prop45
280
     0
102
RTVSPost2010PropOp45
 70
     1
102
RTVSPost2010Prop46
 90
       50
102
RTVSPost2010PropOp46
 70
     1
102
RTVSPost2010Prop47
 90
       50
102
RTVSPost2010PropOp47
 70
     1
102
RTVSPost2010Prop48
 90
       50
102
RTVSPost2010PropOp48
 70
     1
102
RTVSPost2010Prop49
280
     0
102
RTVSPost2010PropOp49
 70
     1
102
RTVSPost2010Prop50
 90
       50
102
RTVSPost2010PropOp50
 70
     1
102
RTVSPost2010Prop51ColorIndex
 90
      256
102
RTVSPost2010Prop51ColorRGB
 90
-16777216
102
RTVSPost2010PropOp51
 70
     0
102
RTVSPost2010Prop52
140
1.0
102
RTVSPost2010PropOp52
 70
     0
102
RTVSPost2010Prop53
 90
        2
102
RTVSPost2010PropOp53
 70
     1
102
RTVSPost2010Prop54
  1
strokes_ogs.tif
102
RTVSPost2010PropOp54
 70
     1
102
RTVSPost2010Prop55
280
     0
102
RTVSPost2010PropOp55
 70
     1
102
RTVSPost2010Prop56
140
1.0
102
RTVSPost2010PropOp56
 70
     1
102
RTVSPost2010Prop57
140
1.0
102
RTVSPost2010PropOp57
 70
     1
  0
XRECORD
  5
5EB
102
{ACAD_REACTORS
330
5EA
102
}
330
5EA
100
AcDbXrecord
280
     1
102
RTVSPropertyOp0
 70
     0
102
RTVSPropertyOp1
 70
     0
102
RTVSPropertyOp2
 70
     0
102
RTVSPropertyOp3
 70
     0
102
RTVSPropertyOp4
 70
     0
102
RTVSPropertyOp5
 70
     0
102
RTVSPropertyOp6
 70
     0
102
RTVSPropertyOp7
 70
     0
102
RTVSPropertyOp8
 70
     0
102
RTVSPropertyOp9
 70
     0
102
RTVSPropertyOp10
 70
     0
102
RTVSPropertyOp11
 70
     0
102
RTVSPropertyOp12
 70
     0
102
RTVSPropertyOp13
 70
     0
102
RTVSPropertyOp14
 70
     2
102
RTVSPropertyOp15
 70
     0
102
RTVSPropertyOp16
 70
     0
102
RTVSPropertyOp17
 70
     0
102
RTVSPropertyOp18
 70
     0
102
RTVSPropertyOp19
 70
     0
102
RTVSPropertyOp20
 70
     0
102
RTVSPropertyOp21
 70
     0
102
RTVSPropertyOp22
 70
     0
102
RTVSPropertyOp23
 70
     0
102
RTVSPropertyOp24
 70
     0
102
RTVSPropertyOp25
 70
     0
102
RTVSPropertyOp26
 70
     0
102
RTVSPropertyOp27
 70
     0
102
RTVSPropertyOp28
 70
     0
102
RTVSPropertyOp29
 70
     0
102
RTVSPropertyOp30
 70
     0
102
RTVSPropertyOp31
 70
     0
102
RTVSPropertyOp32
 70
     0
102
RTVSPropertyOp33
 70
     0
102
RTVSPropertyOp34
 70
     0
102
RTVSPropertyOp35
 70
     0
102
RTVSPropertyOp36
 70
     0
102
RTVSPropertyOp37
 70
     0
102
RTVSPropertyOp38
 70
     0
102
RTVSPropertyOp39
 70
     0
102
RTVSPropertyOp40
 70
     0
102
RTVSPropertyOp41
 70
     0
102
RTVSPropertyOp42
 70
     0
102
RTVSPropertyOp43
 70
     0
102
RTVSPropertyOp44
 70
     0
102
RTVSPropertyOp45
 70
     0
102
RTVSPropertyOp46
 70
     0
102
RTVSPropertyOp47
 70
     0
102
RTVSPropertyOp48
 70
     0
102
RTVSPropertyOp49
 70
     0
102
RTVSPropertyOp50
 70
     0
102
RTVSPropertyOp51
 70
     0
102
RTVSPropertyOp52
 70
     0
102
RTVSPropertyOp53
 70
     0
102
RTVSPropertyOp54
 70
     0
102
RTVSPropertyOp55
 70
     0
102
RTVSPropertyOp56
 70
     0
102
RTVSPropertyOp57
 70
     0
102
RTVSPost2010Prop28
280
     0
102
RTVSPost2010PropOp28
 70
     0
102
RTVSPost2010Prop29
280
     1
102
RTVSPost2010PropOp29
 70
     0
102
RTVSPost2010Prop30
280
     1
102
RTVSPost2010PropOp30
 70
     0
102
RTVSPost2010Prop31
280
     0
102
RTVSPost2010PropOp31
 70
     0
102
RTVSPost2010Prop32
280
     0
102
RTVSPost2010PropOp32
 70
     0
102
RTVSPost2010Prop33
280
     0
102
RTVSPost2010PropOp33
 70
     0
102
RTVSPost2010Prop34
280
     0
102
RTVSPost2010PropOp34
 70
     0
102
RTVSPost2010Prop35
280
     0
102
RTVSPost2010PropOp35
 70
     0
102
RTVSPost2010Prop36
280
     0
102
RTVSPost2010PropOp36
 70
     0
102
RTVSPost2010Prop37
 90
       50
102
RTVSPost2010PropOp37
 70
     0
102
RTVSPost2010Prop38
140
0.0
102
RTVSPost2010PropOp38
 70
     0
102
RTVSPost2010Prop39
140
1.0
102
RTVSPost2010PropOp39
 70
     0
102
RTVSPost2010Prop40
 90
        0
102
RTVSPost2010PropOp40
 70
     0
102
RTVSPost2010Prop41ColorIndex
 90
       18
102
RTVSPost2010Prop41ColorRGB
 90
        0
102
RTVSPost2010PropOp41
 70
     0
102
RTVSPost2010Prop42
 90
       50
102
RTVSPost2010PropOp42
 70
     0
102
RTVSPost2010Prop43
 90
        3
102
RTVSPost2010PropOp43
 70
     0
102
RTVSPost2010Prop44ColorIndex
 90
        5
102
RTVSPost2010Prop44ColorRGB
 90
      255
102
RTVSPost2010PropOp44
 70
     0
102
RTVSPost2010Prop45
280
     0
102
RTVSPost2010PropOp45
 70
     0
102
RTVSPost2010Prop46
 90
       50
102
RTVSPost2010PropOp46
 70
     0
102
RTVSPost2010Prop47
 90
       50
102
RTVSPost2010PropOp47
 70
     0
102
RTVSPost2010Prop48
 90
       50
102
RTVSPost2010PropOp48
 70
     0
102
RTVSPost2010Prop49
280
     0
102
RTVSPost2010PropOp49
 70
     0
102
RTVSPost2010Prop50
 90
       50
102
RTVSPost2010PropOp50
 70
     0
102
RTVSPost2010Prop51ColorIndex
 90
      256
102
RTVSPost2010Prop51ColorRGB
 90
-16777216
102
RTVSPost2010PropOp51
 70
     0
102
RTVSPost2010Prop52
140
1.0
102
RTVSPost2010PropOp52
 70
     0
102
RTVSPost2010Prop53
 90
        2
102
RTVSPost2010PropOp53
 70
     0
102
RTVSPost2010Prop54
  1
strokes_ogs.tif
102
RTVSPost2010PropOp54
 70
     0
102
RTVSPost2010Prop55
280
     0
102
RTVSPost2010PropOp55
 70
     0
102
RTVSPost2010Prop56
140
1.0
102
RTVSPost2010PropOp56
 70
     0
102
RTVSPost2010Prop57
140
1.0
102
RTVSPost2010PropOp57
 70
     0
  0
XRECORD
  5
5ED
102
{ACAD_REACTORS
330
5EC
102
}
330
5EC
100
AcDbXrecord
280
     1
102
RTVSPropertyOp0
 70
     1
102
RTVSPropertyOp1
 70
     1
102
RTVSPropertyOp2
 70
     1
102
RTVSPropertyOp3
 70
     1
102
RTVSPropertyOp4
 70
     1
102
RTVSPropertyOp5
 70
     1
102
RTVSPropertyOp6
 70
     1
102
RTVSPropertyOp7
 70
     1
102
RTVSPropertyOp8
 70
     1
102
RTVSPropertyOp9
 70
     1
102
RTVSPropertyOp10
 70
     1
102
RTVSPropertyOp11
 70
     1
102
RTVSPropertyOp12
 70
     1
102
RTVSPropertyOp13
 70
     1
102
RTVSPropertyOp14
 70
     1
102
RTVSPropertyOp15
 70
     1
102
RTVSPropertyOp16
 70
     1
102
RTVSPropertyOp17
 70
     1
102
RTVSPropertyOp18
 70
     1
102
RTVSPropertyOp19
 70
     1
102
RTVSPropertyOp20
 70
     1
102
RTVSPropertyOp21
 70
     1
102
RTVSPropertyOp22
 70
     1
102
RTVSPropertyOp23
 70
     1
102
RTVSPropertyOp24
 70
     1
102
RTVSPropertyOp25
 70
     1
102
RTVSPropertyOp26
 70
     1
102
RTVSPropertyOp27
 70
     1
102
RTVSPropertyOp28
 70
     1
102
RTVSPropertyOp29
 70
     1
102
RTVSPropertyOp30
 70
     1
102
RTVSPropertyOp31
 70
     1
102
RTVSPropertyOp32
 70
     1
102
RTVSPropertyOp33
 70
     1
102
RTVSPropertyOp34
 70
     1
102
RTVSPropertyOp35
 70
     1
102
RTVSPropertyOp36
 70
     1
102
RTVSPropertyOp37
 70
     1
102
RTVSPropertyOp38
 70
     1
102
RTVSPropertyOp39
 70
     1
102
RTVSPropertyOp40
 70
     1
102
RTVSPropertyOp41
 70
     1
102
RTVSPropertyOp42
 70
     1
102
RTVSPropertyOp43
 70
     1
102
RTVSPropertyOp44
 70
     1
102
RTVSPropertyOp45
 70
     1
102
RTVSPropertyOp46
 70
     1
102
RTVSPropertyOp47
 70
     1
102
RTVSPropertyOp48
 70
     1
102
RTVSPropertyOp49
 70
     1
102
RTVSPropertyOp50
 70
     1
102
RTVSPropertyOp51
 70
     0
102
RTVSPropertyOp52
 70
     0
102
RTVSPropertyOp53
 70
     1
102
RTVSPropertyOp54
 70
     1
102
RTVSPropertyOp55
 70
     1
102
RTVSPropertyOp56
 70
     1
102
RTVSPropertyOp57
 70
     1
102
RTVSPost2010Prop28
280
     0
102
RTVSPost2010PropOp28
 70
     1
102
RTVSPost2010Prop29
280
     1
102
RTVSPost2010PropOp29
 70
     1
102
RTVSPost2010Prop30
280
     1
102
RTVSPost2010PropOp30
 70
     1
102
RTVSPost2010Prop31
280
     0
102
RTVSPost2010PropOp31
 70
     1
102
RTVSPost2010Prop32
280
     0
102
RTVSPost2010PropOp32
 70
     1
102
RTVSPost2010Prop33
280
     0
102
RTVSPost2010PropOp33
 70
     1
102
RTVSPost2010Prop34
280
     0
102
RTVSPost2010PropOp34
 70
     1
102
RTVSPost2010Prop35
280
     0
102
RTVSPost2010PropOp35
 70
     1
102
RTVSPost2010Prop36
280
     0
102
RTVSPost2010PropOp36
 70
     1
102
RTVSPost2010Prop37
 90
       50
102
RTVSPost2010PropOp37
 70
     1
102
RTVSPost2010Prop38
140
0.0
102
RTVSPost2010PropOp38
 70
     1
102
RTVSPost2010Prop39
140
1.0
102
RTVSPost2010PropOp39
 70
     1
102
RTVSPost2010Prop40
 90
        0
102
RTVSPost2010PropOp40
 70
     1
102
RTVSPost2010Prop41ColorIndex
 90
       18
102
RTVSPost2010Prop41ColorRGB
 90
        0
102
RTVSPost2010PropOp41
 70
     1
102
RTVSPost2010Prop42
 90
       50
102
RTVSPost2010PropOp42
 70
     1
102
RTVSPost2010Prop43
 90
        3
102
RTVSPost2010PropOp43
 70
     1
102
RTVSPost2010Prop44ColorIndex
 90
        5
102
RTVSPost2010Prop44ColorRGB
 90
      255
102
RTVSPost2010PropOp44
 70
     1
102
RTVSPost2010Prop45
280
     0
102
RTVSPost2010PropOp45
 70
     1
102
RTVSPost2010Prop46
 90
       50
102
RTVSPost2010PropOp46
 70
     1
102
RTVSPost2010Prop47
 90
       50
102
RTVSPost2010PropOp47
 70
     1
102
RTVSPost2010Prop48
 90
       50
102
RTVSPost2010PropOp48
 70
     1
102
RTVSPost2010Prop49
280
     0
102
RTVSPost2010PropOp49
 70
     1
102
RTVSPost2010Prop50
 90
       50
102
RTVSPost2010PropOp50
 70
     1
102
RTVSPost2010Prop51ColorIndex
 90
      256
102
RTVSPost2010Prop51ColorRGB
 90
-16777216
102
RTVSPost2010PropOp51
 70
     0
102
RTVSPost2010Prop52
140
1.0
102
RTVSPost2010PropOp52
 70
     0
102
RTVSPost2010Prop53
 90
        2
102
RTVSPost2010PropOp53
 70
     1
102
RTVSPost2010Prop54
  1
strokes_ogs.tif
102
RTVSPost2010PropOp54
 70
     1
102
RTVSPost2010Prop55
280
     0
102
RTVSPost2010PropOp55
 70
     1
102
RTVSPost2010Prop56
140
1.0
102
RTVSPost2010PropOp56
 70
     1
102
RTVSPost2010Prop57
140
1.0
102
RTVSPost2010PropOp57
 70
     1
  0
XRECORD
  5
5EF
102
{ACAD_REACTORS
330
5EE
102
}
330
5EE
100
AcDbXrecord
280
     1
102
RTVSPropertyOp0
 70
     0
102
RTVSPropertyOp1
 70
     0
102
RTVSPropertyOp2
 70
     0
102
RTVSPropertyOp3
 70
     0
102
RTVSPropertyOp4
 70
     0
102
RTVSPropertyOp5
 70
     0
102
RTVSPropertyOp6
 70
     0
102
RTVSPropertyOp7
 70
     0
102
RTVSPropertyOp8
 70
     0
102
RTVSPropertyOp9
 70
     0
102
RTVSPropertyOp10
 70
     0
102
RTVSPropertyOp11
 70
     0
102
RTVSPropertyOp12
 70
     0
102
RTVSPropertyOp13
 70
     0
102
RTVSPropertyOp14
 70
     2
102
RTVSPropertyOp15
 70
     0
102
RTVSPropertyOp16
 70
     0
102
RTVSPropertyOp17
 70
     0
102
RTVSPropertyOp18
 70
     0
102
RTVSPropertyOp19
 70
     0
102
RTVSPropertyOp20
 70
     0
102
RTVSPropertyOp21
 70
     0
102
RTVSPropertyOp22
 70
     0
102
RTVSPropertyOp23
 70
     0
102
RTVSPropertyOp24
 70
     0
102
RTVSPropertyOp25
 70
     0
102
RTVSPropertyOp26
 70
     0
102
RTVSPropertyOp27
 70
     0
102
RTVSPropertyOp28
 70
     0
102
RTVSPropertyOp29
 70
     0
102
RTVSPropertyOp30
 70
     0
102
RTVSPropertyOp31
 70
     0
102
RTVSPropertyOp32
 70
     0
102
RTVSPropertyOp33
 70
     0
102
RTVSPropertyOp34
 70
     0
102
RTVSPropertyOp35
 70
     0
102
RTVSPropertyOp36
 70
     0
102
RTVSPropertyOp37
 70
     0
102
RTVSPropertyOp38
 70
     0
102
RTVSPropertyOp39
 70
     0
102
RTVSPropertyOp40
 70
     0
102
RTVSPropertyOp41
 70
     0
102
RTVSPropertyOp42
 70
     0
102
RTVSPropertyOp43
 70
     0
102
RTVSPropertyOp44
 70
     0
102
RTVSPropertyOp45
 70
     0
102
RTVSPropertyOp46
 70
     0
102
RTVSPropertyOp47
 70
     0
102
RTVSPropertyOp48
 70
     0
102
RTVSPropertyOp49
 70
     0
102
RTVSPropertyOp50
 70
     0
102
RTVSPropertyOp51
 70
     0
102
RTVSPropertyOp52
 70
     0
102
RTVSPropertyOp53
 70
     0
102
RTVSPropertyOp54
 70
     0
102
RTVSPropertyOp55
 70
     0
102
RTVSPropertyOp56
 70
     0
102
RTVSPropertyOp57
 70
     0
102
RTVSPost2010Prop28
280
     0
102
RTVSPost2010PropOp28
 70
     0
102
RTVSPost2010Prop29
280
     1
102
RTVSPost2010PropOp29
 70
     0
102
RTVSPost2010Prop30
280
     1
102
RTVSPost2010PropOp30
 70
     0
102
RTVSPost2010Prop31
280
     0
102
RTVSPost2010PropOp31
 70
     0
102
RTVSPost2010Prop32
280
     0
102
RTVSPost2010PropOp32
 70
     0
102
RTVSPost2010Prop33
280
     0
102
RTVSPost2010PropOp33
 70
     0
102
RTVSPost2010Prop34
280
     0
102
RTVSPost2010PropOp34
 70
     0
102
RTVSPost2010Prop35
280
     0
102
RTVSPost2010PropOp35
 70
     0
102
RTVSPost2010Prop36
280
     0
102
RTVSPost2010PropOp36
 70
     0
102
RTVSPost2010Prop37
 90
       50
102
RTVSPost2010PropOp37
 70
     0
102
RTVSPost2010Prop38
140
0.0
102
RTVSPost2010PropOp38
 70
     0
102
RTVSPost2010Prop39
140
1.0
102
RTVSPost2010PropOp39
 70
     0
102
RTVSPost2010Prop40
 90
        0
102
RTVSPost2010PropOp40
 70
     0
102
RTVSPost2010Prop41ColorIndex
 90
       18
102
RTVSPost2010Prop41ColorRGB
 90
        0
102
RTVSPost2010PropOp41
 70
     0
102
RTVSPost2010Prop42
 90
       50
102
RTVSPost2010PropOp42
 70
     0
102
RTVSPost2010Prop43
 90
        3
102
RTVSPost2010PropOp43
 70
     0
102
RTVSPost2010Prop44ColorIndex
 90
        5
102
RTVSPost2010Prop44ColorRGB
 90
      255
102
RTVSPost2010PropOp44
 70
     0
102
RTVSPost2010Prop45
280
     0
102
RTVSPost2010PropOp45
 70
     0
102
RTVSPost2010Prop46
 90
       50
102
RTVSPost2010PropOp46
 70
     0
102
RTVSPost2010Prop47
 90
       50
102
RTVSPost2010PropOp47
 70
     0
102
RTVSPost2010Prop48
 90
       50
102
RTVSPost2010PropOp48
 70
     0
102
RTVSPost2010Prop49
280
     0
102
RTVSPost2010PropOp49
 70
     0
102
RTVSPost2010Prop50
 90
       50
102
RTVSPost2010PropOp50
 70
     0
102
RTVSPost2010Prop51ColorIndex
 90
      256
102
RTVSPost2010Prop51ColorRGB
 90
-16777216
102
RTVSPost2010PropOp51
 70
     0
102
RTVSPost2010Prop52
140
1.0
102
RTVSPost2010PropOp52
 70
     0
102
RTVSPost2010Prop53
 90
        2
102
RTVSPost2010PropOp53
 70
     0
102
RTVSPost2010Prop54
  1
strokes_ogs.tif
102
RTVSPost2010PropOp54
 70
     0
102
RTVSPost2010Prop55
280
     0
102
RTVSPost2010PropOp55
 70
     0
102
RTVSPost2010Prop56
140
1.0
102
RTVSPost2010PropOp56
 70
     0
102
RTVSPost2010Prop57
140
1.0
102
RTVSPost2010PropOp57
 70
     0
  0
XRECORD
  5
5F1
102
{ACAD_REACTORS
330
5F0
102
}
330
5F0
100
AcDbXrecord
280
     1
102
RTVSPropertyOp0
 70
     1
102
RTVSPropertyOp1
 70
     1
102
RTVSPropertyOp2
 70
     1
102
RTVSPropertyOp3
 70
     1
102
RTVSPropertyOp4
 70
     1
102
RTVSPropertyOp5
 70
     1
102
RTVSPropertyOp6
 70
     1
102
RTVSPropertyOp7
 70
     1
102
RTVSPropertyOp8
 70
     1
102
RTVSPropertyOp9
 70
     1
102
RTVSPropertyOp10
 70
     1
102
RTVSPropertyOp11
 70
     1
102
RTVSPropertyOp12
 70
     1
102
RTVSPropertyOp13
 70
     1
102
RTVSPropertyOp14
 70
     1
102
RTVSPropertyOp15
 70
     1
102
RTVSPropertyOp16
 70
     1
102
RTVSPropertyOp17
 70
     1
102
RTVSPropertyOp18
 70
     1
102
RTVSPropertyOp19
 70
     1
102
RTVSPropertyOp20
 70
     1
102
RTVSPropertyOp21
 70
     1
102
RTVSPropertyOp22
 70
     1
102
RTVSPropertyOp23
 70
     1
102
RTVSPropertyOp24
 70
     1
102
RTVSPropertyOp25
 70
     1
102
RTVSPropertyOp26
 70
     1
102
RTVSPropertyOp27
 70
     1
102
RTVSPropertyOp28
 70
     1
102
RTVSPropertyOp29
 70
     1
102
RTVSPropertyOp30
 70
     1
102
RTVSPropertyOp31
 70
     1
102
RTVSPropertyOp32
 70
     1
102
RTVSPropertyOp33
 70
     1
102
RTVSPropertyOp34
 70
     1
102
RTVSPropertyOp35
 70
     1
102
RTVSPropertyOp36
 70
     1
102
RTVSPropertyOp37
 70
     1
102
RTVSPropertyOp38
 70
     1
102
RTVSPropertyOp39
 70
     1
102
RTVSPropertyOp40
 70
     1
102
RTVSPropertyOp41
 70
     1
102
RTVSPropertyOp42
 70
     1
102
RTVSPropertyOp43
 70
     1
102
RTVSPropertyOp44
 70
     1
102
RTVSPropertyOp45
 70
     1
102
RTVSPropertyOp46
 70
     1
102
RTVSPropertyOp47
 70
     1
102
RTVSPropertyOp48
 70
     1
102
RTVSPropertyOp49
 70
     1
102
RTVSPropertyOp50
 70
     1
102
RTVSPropertyOp51
 70
     0
102
RTVSPropertyOp52
 70
     0
102
RTVSPropertyOp53
 70
     1
102
RTVSPropertyOp54
 70
     1
102
RTVSPropertyOp55
 70
     1
102
RTVSPropertyOp56
 70
     1
102
RTVSPropertyOp57
 70
     1
102
RTVSPost2010Prop28
280
     0
102
RTVSPost2010PropOp28
 70
     1
102
RTVSPost2010Prop29
280
     1
102
RTVSPost2010PropOp29
 70
     1
102
RTVSPost2010Prop30
280
     1
102
RTVSPost2010PropOp30
 70
     1
102
RTVSPost2010Prop31
280
     0
102
RTVSPost2010PropOp31
 70
     1
102
RTVSPost2010Prop32
280
     0
102
RTVSPost2010PropOp32
 70
     1
102
RTVSPost2010Prop33
280
     0
102
RTVSPost2010PropOp33
 70
     1
102
RTVSPost2010Prop34
280
     0
102
RTVSPost2010PropOp34
 70
     1
102
RTVSPost2010Prop35
280
     0
102
RTVSPost2010PropOp35
 70
     1
102
RTVSPost2010Prop36
280
     0
102
RTVSPost2010PropOp36
 70
     1
102
RTVSPost2010Prop37
 90
       50
102
RTVSPost2010PropOp37
 70
     1
102
RTVSPost2010Prop38
140
0.0
102
RTVSPost2010PropOp38
 70
     1
102
RTVSPost2010Prop39
140
1.0
102
RTVSPost2010PropOp39
 70
     1
102
RTVSPost2010Prop40
 90
        0
102
RTVSPost2010PropOp40
 70
     1
102
RTVSPost2010Prop41ColorIndex
 90
       18
102
RTVSPost2010Prop41ColorRGB
 90
        0
102
RTVSPost2010PropOp41
 70
     1
102
RTVSPost2010Prop42
 90
       50
102
RTVSPost2010PropOp42
 70
     1
102
RTVSPost2010Prop43
 90
        3
102
RTVSPost2010PropOp43
 70
     1
102
RTVSPost2010Prop44ColorIndex
 90
        5
102
RTVSPost2010Prop44ColorRGB
 90
      255
102
RTVSPost2010PropOp44
 70
     1
102
RTVSPost2010Prop45
280
     0
102
RTVSPost2010PropOp45
 70
     1
102
RTVSPost2010Prop46
 90
       50
102
RTVSPost2010PropOp46
 70
     1
102
RTVSPost2010Prop47
 90
       50
102
RTVSPost2010PropOp47
 70
     1
102
RTVSPost2010Prop48
 90
       50
102
RTVSPost2010PropOp48
 70
     1
102
RTVSPost2010Prop49
280
     0
102
RTVSPost2010PropOp49
 70
     1
102
RTVSPost2010Prop50
 90
       50
102
RTVSPost2010PropOp50
 70
     1
102
RTVSPost2010Prop51ColorIndex
 90
      256
102
RTVSPost2010Prop51ColorRGB
 90
-16777216
102
RTVSPost2010PropOp51
 70
     0
102
RTVSPost2010Prop52
140
1.0
102
RTVSPost2010PropOp52
 70
     0
102
RTVSPost2010Prop53
 90
        2
102
RTVSPost2010PropOp53
 70
     1
102
RTVSPost2010Prop54
  1
strokes_ogs.tif
102
RTVSPost2010PropOp54
 70
     1
102
RTVSPost2010Prop55
280
     0
102
RTVSPost2010PropOp55
 70
     1
102
RTVSPost2010Prop56
140
1.0
102
RTVSPost2010PropOp56
 70
     1
102
RTVSPost2010Prop57
140
1.0
102
RTVSPost2010PropOp57
 70
     1
  0
XRECORD
  5
5F3
102
{ACAD_REACTORS
330
5F2
102
}
330
5F2
100
AcDbXrecord
280
     1
102
RTVSPropertyOp0
 70
     1
102
RTVSPropertyOp1
 70
     1
102
RTVSPropertyOp2
 70
     1
102
RTVSPropertyOp3
 70
     1
102
RTVSPropertyOp4
 70
     1
102
RTVSPropertyOp5
 70
     1
102
RTVSPropertyOp6
 70
     1
102
RTVSPropertyOp7
 70
     1
102
RTVSPropertyOp8
 70
     1
102
RTVSPropertyOp9
 70
     1
102
RTVSPropertyOp10
 70
     1
102
RTVSPropertyOp11
 70
     1
102
RTVSPropertyOp12
 70
     1
102
RTVSPropertyOp13
 70
     1
102
RTVSPropertyOp14
 70
     1
102
RTVSPropertyOp15
 70
     1
102
RTVSPropertyOp16
 70
     1
102
RTVSPropertyOp17
 70
     1
102
RTVSPropertyOp18
 70
     1
102
RTVSPropertyOp19
 70
     1
102
RTVSPropertyOp20
 70
     1
102
RTVSPropertyOp21
 70
     1
102
RTVSPropertyOp22
 70
     1
102
RTVSPropertyOp23
 70
     1
102
RTVSPropertyOp24
 70
     1
102
RTVSPropertyOp25
 70
     1
102
RTVSPropertyOp26
 70
     1
102
RTVSPropertyOp27
 70
     1
102
RTVSPropertyOp28
 70
     1
102
RTVSPropertyOp29
 70
     1
102
RTVSPropertyOp30
 70
     1
102
RTVSPropertyOp31
 70
     1
102
RTVSPropertyOp32
 70
     1
102
RTVSPropertyOp33
 70
     1
102
RTVSPropertyOp34
 70
     1
102
RTVSPropertyOp35
 70
     1
102
RTVSPropertyOp36
 70
     1
102
RTVSPropertyOp37
 70
     1
102
RTVSPropertyOp38
 70
     1
102
RTVSPropertyOp39
 70
     1
102
RTVSPropertyOp40
 70
     1
102
RTVSPropertyOp41
 70
     1
102
RTVSPropertyOp42
 70
     1
102
RTVSPropertyOp43
 70
     1
102
RTVSPropertyOp44
 70
     1
102
RTVSPropertyOp45
 70
     1
102
RTVSPropertyOp46
 70
     1
102
RTVSPropertyOp47
 70
     1
102
RTVSPropertyOp48
 70
     1
102
RTVSPropertyOp49
 70
     1
102
RTVSPropertyOp50
 70
     1
102
RTVSPropertyOp51
 70
     0
102
RTVSPropertyOp52
 70
     0
102
RTVSPropertyOp53
 70
     1
102
RTVSPropertyOp54
 70
     1
102
RTVSPropertyOp55
 70
     1
102
RTVSPropertyOp56
 70
     1
102
RTVSPropertyOp57
 70
     1
102
RTVSPost2010Prop28
280
     0
102
RTVSPost2010PropOp28
 70
     1
102
RTVSPost2010Prop29
280
     1
102
RTVSPost2010PropOp29
 70
     1
102
RTVSPost2010Prop30
280
     1
102
RTVSPost2010PropOp30
 70
     1
102
RTVSPost2010Prop31
280
     0
102
RTVSPost2010PropOp31
 70
     1
102
RTVSPost2010Prop32
280
     0
102
RTVSPost2010PropOp32
 70
     1
102
RTVSPost2010Prop33
280
     0
102
RTVSPost2010PropOp33
 70
     1
102
RTVSPost2010Prop34
280
     0
102
RTVSPost2010PropOp34
 70
     1
102
RTVSPost2010Prop35
280
     0
102
RTVSPost2010PropOp35
 70
     1
102
RTVSPost2010Prop36
280
     0
102
RTVSPost2010PropOp36
 70
     1
102
RTVSPost2010Prop37
 90
       50
102
RTVSPost2010PropOp37
 70
     1
102
RTVSPost2010Prop38
140
0.0
102
RTVSPost2010PropOp38
 70
     1
102
RTVSPost2010Prop39
140
1.0
102
RTVSPost2010PropOp39
 70
     1
102
RTVSPost2010Prop40
 90
        0
102
RTVSPost2010PropOp40
 70
     1
102
RTVSPost2010Prop41ColorIndex
 90
       18
102
RTVSPost2010Prop41ColorRGB
 90
        0
102
RTVSPost2010PropOp41
 70
     1
102
RTVSPost2010Prop42
 90
       50
102
RTVSPost2010PropOp42
 70
     1
102
RTVSPost2010Prop43
 90
        3
102
RTVSPost2010PropOp43
 70
     1
102
RTVSPost2010Prop44ColorIndex
 90
        5
102
RTVSPost2010Prop44ColorRGB
 90
      255
102
RTVSPost2010PropOp44
 70
     1
102
RTVSPost2010Prop45
280
     0
102
RTVSPost2010PropOp45
 70
     1
102
RTVSPost2010Prop46
 90
       50
102
RTVSPost2010PropOp46
 70
     1
102
RTVSPost2010Prop47
 90
       50
102
RTVSPost2010PropOp47
 70
     1
102
RTVSPost2010Prop48
 90
       50
102
RTVSPost2010PropOp48
 70
     1
102
RTVSPost2010Prop49
280
     0
102
RTVSPost2010PropOp49
 70
     1
102
RTVSPost2010Prop50
 90
       50
102
RTVSPost2010PropOp50
 70
     1
102
RTVSPost2010Prop51ColorIndex
 90
      256
102
RTVSPost2010Prop51ColorRGB
 90
-16777216
102
RTVSPost2010PropOp51
 70
     0
102
RTVSPost2010Prop52
140
1.0
102
RTVSPost2010PropOp52
 70
     0
102
RTVSPost2010Prop53
 90
        2
102
RTVSPost2010PropOp53
 70
     1
102
RTVSPost2010Prop54
  1
strokes_ogs.tif
102
RTVSPost2010PropOp54
 70
     1
102
RTVSPost2010Prop55
280
     0
102
RTVSPost2010PropOp55
 70
     1
102
RTVSPost2010Prop56
140
1.0
102
RTVSPost2010PropOp56
 70
     1
102
RTVSPost2010Prop57
140
1.0
102
RTVSPost2010PropOp57
 70
     1
  0
XRECORD
  5
5F5
102
{ACAD_REACTORS
330
5F4
102
}
330
5F4
100
AcDbXrecord
280
     1
102
RTVSPropertyOp0
 70
     1
102
RTVSPropertyOp1
 70
     1
102
RTVSPropertyOp2
 70
     1
102
RTVSPropertyOp3
 70
     1
102
RTVSPropertyOp4
 70
     1
102
RTVSPropertyOp5
 70
     1
102
RTVSPropertyOp6
 70
     1
102
RTVSPropertyOp7
 70
     1
102
RTVSPropertyOp8
 70
     1
102
RTVSPropertyOp9
 70
     1
102
RTVSPropertyOp10
 70
     1
102
RTVSPropertyOp11
 70
     1
102
RTVSPropertyOp12
 70
     1
102
RTVSPropertyOp13
 70
     1
102
RTVSPropertyOp14
 70
     1
102
RTVSPropertyOp15
 70
     1
102
RTVSPropertyOp16
 70
     1
102
RTVSPropertyOp17
 70
     1
102
RTVSPropertyOp18
 70
     1
102
RTVSPropertyOp19
 70
     1
102
RTVSPropertyOp20
 70
     1
102
RTVSPropertyOp21
 70
     1
102
RTVSPropertyOp22
 70
     1
102
RTVSPropertyOp23
 70
     1
102
RTVSPropertyOp24
 70
     1
102
RTVSPropertyOp25
 70
     1
102
RTVSPropertyOp26
 70
     1
102
RTVSPropertyOp27
 70
     1
102
RTVSPropertyOp28
 70
     1
102
RTVSPropertyOp29
 70
     1
102
RTVSPropertyOp30
 70
     1
102
RTVSPropertyOp31
 70
     1
102
RTVSPropertyOp32
 70
     1
102
RTVSPropertyOp33
 70
     1
102
RTVSPropertyOp34
 70
     1
102
RTVSPropertyOp35
 70
     1
102
RTVSPropertyOp36
 70
     1
102
RTVSPropertyOp37
 70
     1
102
RTVSPropertyOp38
 70
     1
102
RTVSPropertyOp39
 70
     1
102
RTVSPropertyOp40
 70
     1
102
RTVSPropertyOp41
 70
     1
102
RTVSPropertyOp42
 70
     1
102
RTVSPropertyOp43
 70
     1
102
RTVSPropertyOp44
 70
     1
102
RTVSPropertyOp45
 70
     1
102
RTVSPropertyOp46
 70
     1
102
RTVSPropertyOp47
 70
     1
102
RTVSPropertyOp48
 70
     1
102
RTVSPropertyOp49
 70
     1
102
RTVSPropertyOp50
 70
     1
102
RTVSPropertyOp51
 70
     0
102
RTVSPropertyOp52
 70
     0
102
RTVSPropertyOp53
 70
     1
102
RTVSPropertyOp54
 70
     1
102
RTVSPropertyOp55
 70
     1
102
RTVSPropertyOp56
 70
     1
102
RTVSPropertyOp57
 70
     1
102
RTVSPost2010Prop28
280
     0
102
RTVSPost2010PropOp28
 70
     1
102
RTVSPost2010Prop29
280
     1
102
RTVSPost2010PropOp29
 70
     1
102
RTVSPost2010Prop30
280
     1
102
RTVSPost2010PropOp30
 70
     1
102
RTVSPost2010Prop31
280
     0
102
RTVSPost2010PropOp31
 70
     1
102
RTVSPost2010Prop32
280
     0
102
RTVSPost2010PropOp32
 70
     1
102
RTVSPost2010Prop33
280
     0
102
RTVSPost2010PropOp33
 70
     1
102
RTVSPost2010Prop34
280
     0
102
RTVSPost2010PropOp34
 70
     1
102
RTVSPost2010Prop35
280
     0
102
RTVSPost2010PropOp35
 70
     1
102
RTVSPost2010Prop36
280
     0
102
RTVSPost2010PropOp36
 70
     1
102
RTVSPost2010Prop37
 90
       50
102
RTVSPost2010PropOp37
 70
     1
102
RTVSPost2010Prop38
140
0.0
102
RTVSPost2010PropOp38
 70
     1
102
RTVSPost2010Prop39
140
1.0
102
RTVSPost2010PropOp39
 70
     1
102
RTVSPost2010Prop40
 90
        0
102
RTVSPost2010PropOp40
 70
     1
102
RTVSPost2010Prop41ColorIndex
 90
       18
102
RTVSPost2010Prop41ColorRGB
 90
        0
102
RTVSPost2010PropOp41
 70
     1
102
RTVSPost2010Prop42
 90
       50
102
RTVSPost2010PropOp42
 70
     1
102
RTVSPost2010Prop43
 90
        3
102
RTVSPost2010PropOp43
 70
     1
102
RTVSPost2010Prop44ColorIndex
 90
        5
102
RTVSPost2010Prop44ColorRGB
 90
      255
102
RTVSPost2010PropOp44
 70
     1
102
RTVSPost2010Prop45
280
     0
102
RTVSPost2010PropOp45
 70
     1
102
RTVSPost2010Prop46
 90
       50
102
RTVSPost2010PropOp46
 70
     1
102
RTVSPost2010Prop47
 90
       50
102
RTVSPost2010PropOp47
 70
     1
102
RTVSPost2010Prop48
 90
       50
102
RTVSPost2010PropOp48
 70
     1
102
RTVSPost2010Prop49
280
     0
102
RTVSPost2010PropOp49
 70
     1
102
RTVSPost2010Prop50
 90
       50
102
RTVSPost2010PropOp50
 70
     1
102
RTVSPost2010Prop51ColorIndex
 90
      256
102
RTVSPost2010Prop51ColorRGB
 90
-16777216
102
RTVSPost2010PropOp51
 70
     0
102
RTVSPost2010Prop52
140
1.0
102
RTVSPost2010PropOp52
 70
     0
102
RTVSPost2010Prop53
 90
        2
102
RTVSPost2010PropOp53
 70
     1
102
RTVSPost2010Prop54
  1
strokes_ogs.tif
102
RTVSPost2010PropOp54
 70
     1
102
RTVSPost2010Prop55
280
     0
102
RTVSPost2010PropOp55
 70
     1
102
RTVSPost2010Prop56
140
1.0
102
RTVSPost2010PropOp56
 70
     1
102
RTVSPost2010Prop57
140
1.0
102
RTVSPost2010PropOp57
 70
     1
  0
XRECORD
  5
5F7
102
{ACAD_REACTORS
330
5F6
102
}
330
5F6
100
AcDbXrecord
280
     1
102
RTVSPropertyOp0
 70
     1
102
RTVSPropertyOp1
 70
     1
102
RTVSPropertyOp2
 70
     1
102
RTVSPropertyOp3
 70
     1
102
RTVSPropertyOp4
 70
     1
102
RTVSPropertyOp5
 70
     1
102
RTVSPropertyOp6
 70
     1
102
RTVSPropertyOp7
 70
     1
102
RTVSPropertyOp8
 70
     1
102
RTVSPropertyOp9
 70
     1
102
RTVSPropertyOp10
 70
     1
102
RTVSPropertyOp11
 70
     1
102
RTVSPropertyOp12
 70
     1
102
RTVSPropertyOp13
 70
     1
102
RTVSPropertyOp14
 70
     1
102
RTVSPropertyOp15
 70
     1
102
RTVSPropertyOp16
 70
     1
102
RTVSPropertyOp17
 70
     1
102
RTVSPropertyOp18
 70
     1
102
RTVSPropertyOp19
 70
     1
102
RTVSPropertyOp20
 70
     1
102
RTVSPropertyOp21
 70
     1
102
RTVSPropertyOp22
 70
     1
102
RTVSPropertyOp23
 70
     1
102
RTVSPropertyOp24
 70
     1
102
RTVSPropertyOp25
 70
     1
102
RTVSPropertyOp26
 70
     1
102
RTVSPropertyOp27
 70
     1
102
RTVSPropertyOp28
 70
     1
102
RTVSPropertyOp29
 70
     1
102
RTVSPropertyOp30
 70
     1
102
RTVSPropertyOp31
 70
     1
102
RTVSPropertyOp32
 70
     1
102
RTVSPropertyOp33
 70
     1
102
RTVSPropertyOp34
 70
     1
102
RTVSPropertyOp35
 70
     1
102
RTVSPropertyOp36
 70
     1
102
RTVSPropertyOp37
 70
     1
102
RTVSPropertyOp38
 70
     1
102
RTVSPropertyOp39
 70
     1
102
RTVSPropertyOp40
 70
     1
102
RTVSPropertyOp41
 70
     1
102
RTVSPropertyOp42
 70
     1
102
RTVSPropertyOp43
 70
     1
102
RTVSPropertyOp44
 70
     1
102
RTVSPropertyOp45
 70
     1
102
RTVSPropertyOp46
 70
     1
102
RTVSPropertyOp47
 70
     1
102
RTVSPropertyOp48
 70
     1
102
RTVSPropertyOp49
 70
     1
102
RTVSPropertyOp50
 70
     1
102
RTVSPropertyOp51
 70
     0
102
RTVSPropertyOp52
 70
     0
102
RTVSPropertyOp53
 70
     1
102
RTVSPropertyOp54
 70
     1
102
RTVSPropertyOp55
 70
     1
102
RTVSPropertyOp56
 70
     1
102
RTVSPropertyOp57
 70
     1
102
RTVSPost2010Prop28
280
     0
102
RTVSPost2010PropOp28
 70
     1
102
RTVSPost2010Prop29
280
     1
102
RTVSPost2010PropOp29
 70
     1
102
RTVSPost2010Prop30
280
     1
102
RTVSPost2010PropOp30
 70
     1
102
RTVSPost2010Prop31
280
     0
102
RTVSPost2010PropOp31
 70
     1
102
RTVSPost2010Prop32
280
     0
102
RTVSPost2010PropOp32
 70
     1
102
RTVSPost2010Prop33
280
     0
102
RTVSPost2010PropOp33
 70
     1
102
RTVSPost2010Prop34
280
     0
102
RTVSPost2010PropOp34
 70
     1
102
RTVSPost2010Prop35
280
     0
102
RTVSPost2010PropOp35
 70
     1
102
RTVSPost2010Prop36
280
     0
102
RTVSPost2010PropOp36
 70
     1
102
RTVSPost2010Prop37
 90
       50
102
RTVSPost2010PropOp37
 70
     1
102
RTVSPost2010Prop38
140
0.0
102
RTVSPost2010PropOp38
 70
     1
102
RTVSPost2010Prop39
140
1.0
102
RTVSPost2010PropOp39
 70
     1
102
RTVSPost2010Prop40
 90
        0
102
RTVSPost2010PropOp40
 70
     1
102
RTVSPost2010Prop41ColorIndex
 90
       18
102
RTVSPost2010Prop41ColorRGB
 90
        0
102
RTVSPost2010PropOp41
 70
     1
102
RTVSPost2010Prop42
 90
       50
102
RTVSPost2010PropOp42
 70
     1
102
RTVSPost2010Prop43
 90
        3
102
RTVSPost2010PropOp43
 70
     1
102
RTVSPost2010Prop44ColorIndex
 90
        5
102
RTVSPost2010Prop44ColorRGB
 90
      255
102
RTVSPost2010PropOp44
 70
     1
102
RTVSPost2010Prop45
280
     0
102
RTVSPost2010PropOp45
 70
     1
102
RTVSPost2010Prop46
 90
       50
102
RTVSPost2010PropOp46
 70
     1
102
RTVSPost2010Prop47
 90
       50
102
RTVSPost2010PropOp47
 70
     1
102
RTVSPost2010Prop48
 90
       50
102
RTVSPost2010PropOp48
 70
     1
102
RTVSPost2010Prop49
280
     0
102
RTVSPost2010PropOp49
 70
     1
102
RTVSPost2010Prop50
 90
       50
102
RTVSPost2010PropOp50
 70
     1
102
RTVSPost2010Prop51ColorIndex
 90
      256
102
RTVSPost2010Prop51ColorRGB
 90
-16777216
102
RTVSPost2010PropOp51
 70
     0
102
RTVSPost2010Prop52
140
1.0
102
RTVSPost2010PropOp52
 70
     0
102
RTVSPost2010Prop53
 90
        2
102
RTVSPost2010PropOp53
 70
     1
102
RTVSPost2010Prop54
  1
strokes_ogs.tif
102
RTVSPost2010PropOp54
 70
     1
102
RTVSPost2010Prop55
280
     0
102
RTVSPost2010PropOp55
 70
     1
102
RTVSPost2010Prop56
140
1.0
102
RTVSPost2010PropOp56
 70
     1
102
RTVSPost2010Prop57
140
1.0
102
RTVSPost2010PropOp57
 70
     1
  0
XRECORD
  5
5F9
102
{ACAD_REACTORS
330
5F8
102
}
330
5F8
100
AcDbXrecord
280
     1
102
RTVSPropertyOp0
 70
     1
102
RTVSPropertyOp1
 70
     1
102
RTVSPropertyOp2
 70
     1
102
RTVSPropertyOp3
 70
     1
102
RTVSPropertyOp4
 70
     1
102
RTVSPropertyOp5
 70
     1
102
RTVSPropertyOp6
 70
     1
102
RTVSPropertyOp7
 70
     1
102
RTVSPropertyOp8
 70
     1
102
RTVSPropertyOp9
 70
     1
102
RTVSPropertyOp10
 70
     1
102
RTVSPropertyOp11
 70
     1
102
RTVSPropertyOp12
 70
     1
102
RTVSPropertyOp13
 70
     1
102
RTVSPropertyOp14
 70
     1
102
RTVSPropertyOp15
 70
     1
102
RTVSPropertyOp16
 70
     1
102
RTVSPropertyOp17
 70
     1
102
RTVSPropertyOp18
 70
     1
102
RTVSPropertyOp19
 70
     1
102
RTVSPropertyOp20
 70
     1
102
RTVSPropertyOp21
 70
     1
102
RTVSPropertyOp22
 70
     1
102
RTVSPropertyOp23
 70
     1
102
RTVSPropertyOp24
 70
     1
102
RTVSPropertyOp25
 70
     1
102
RTVSPropertyOp26
 70
     1
102
RTVSPropertyOp27
 70
     1
102
RTVSPropertyOp28
 70
     1
102
RTVSPropertyOp29
 70
     1
102
RTVSPropertyOp30
 70
     1
102
RTVSPropertyOp31
 70
     1
102
RTVSPropertyOp32
 70
     1
102
RTVSPropertyOp33
 70
     1
102
RTVSPropertyOp34
 70
     1
102
RTVSPropertyOp35
 70
     1
102
RTVSPropertyOp36
 70
     1
102
RTVSPropertyOp37
 70
     1
102
RTVSPropertyOp38
 70
     1
102
RTVSPropertyOp39
 70
     1
102
RTVSPropertyOp40
 70
     1
102
RTVSPropertyOp41
 70
     1
102
RTVSPropertyOp42
 70
     1
102
RTVSPropertyOp43
 70
     1
102
RTVSPropertyOp44
 70
     1
102
RTVSPropertyOp45
 70
     1
102
RTVSPropertyOp46
 70
     1
102
RTVSPropertyOp47
 70
     1
102
RTVSPropertyOp48
 70
     1
102
RTVSPropertyOp49
 70
     1
102
RTVSPropertyOp50
 70
     1
102
RTVSPropertyOp51
 70
     0
102
RTVSPropertyOp52
 70
     0
102
RTVSPropertyOp53
 70
     1
102
RTVSPropertyOp54
 70
     1
102
RTVSPropertyOp55
 70
     1
102
RTVSPropertyOp56
 70
     1
102
RTVSPropertyOp57
 70
     1
102
RTVSPost2010Prop28
280
     0
102
RTVSPost2010PropOp28
 70
     1
102
RTVSPost2010Prop29
280
     1
102
RTVSPost2010PropOp29
 70
     1
102
RTVSPost2010Prop30
280
     1
102
RTVSPost2010PropOp30
 70
     1
102
RTVSPost2010Prop31
280
     0
102
RTVSPost2010PropOp31
 70
     1
102
RTVSPost2010Prop32
280
     0
102
RTVSPost2010PropOp32
 70
     1
102
RTVSPost2010Prop33
280
     0
102
RTVSPost2010PropOp33
 70
     1
102
RTVSPost2010Prop34
280
     0
102
RTVSPost2010PropOp34
 70
     1
102
RTVSPost2010Prop35
280
     0
102
RTVSPost2010PropOp35
 70
     1
102
RTVSPost2010Prop36
280
     0
102
RTVSPost2010PropOp36
 70
     1
102
RTVSPost2010Prop37
 90
       50
102
RTVSPost2010PropOp37
 70
     1
102
RTVSPost2010Prop38
140
0.0
102
RTVSPost2010PropOp38
 70
     1
102
RTVSPost2010Prop39
140
1.0
102
RTVSPost2010PropOp39
 70
     1
102
RTVSPost2010Prop40
 90
        0
102
RTVSPost2010PropOp40
 70
     1
102
RTVSPost2010Prop41ColorIndex
 90
       18
102
RTVSPost2010Prop41ColorRGB
 90
        0
102
RTVSPost2010PropOp41
 70
     1
102
RTVSPost2010Prop42
 90
       50
102
RTVSPost2010PropOp42
 70
     1
102
RTVSPost2010Prop43
 90
        3
102
RTVSPost2010PropOp43
 70
     1
102
RTVSPost2010Prop44ColorIndex
 90
        5
102
RTVSPost2010Prop44ColorRGB
 90
      255
102
RTVSPost2010PropOp44
 70
     1
102
RTVSPost2010Prop45
280
     0
102
RTVSPost2010PropOp45
 70
     1
102
RTVSPost2010Prop46
 90
       50
102
RTVSPost2010PropOp46
 70
     1
102
RTVSPost2010Prop47
 90
       50
102
RTVSPost2010PropOp47
 70
     1
102
RTVSPost2010Prop48
 90
       50
102
RTVSPost2010PropOp48
 70
     1
102
RTVSPost2010Prop49
280
     0
102
RTVSPost2010PropOp49
 70
     1
102
RTVSPost2010Prop50
 90
       50
102
RTVSPost2010PropOp50
 70
     1
102
RTVSPost2010Prop51ColorIndex
 90
      256
102
RTVSPost2010Prop51ColorRGB
 90
-16777216
102
RTVSPost2010PropOp51
 70
     0
102
RTVSPost2010Prop52
140
1.0
102
RTVSPost2010PropOp52
 70
     0
102
RTVSPost2010Prop53
 90
        2
102
RTVSPost2010PropOp53
 70
     1
102
RTVSPost2010Prop54
  1
strokes_ogs.tif
102
RTVSPost2010PropOp54
 70
     1
102
RTVSPost2010Prop55
280
     0
102
RTVSPost2010PropOp55
 70
     1
102
RTVSPost2010Prop56
140
1.0
102
RTVSPost2010PropOp56
 70
     1
102
RTVSPost2010Prop57
140
1.0
102
RTVSPost2010PropOp57
 70
     1
  0
XRECORD
  5
5FB
102
{ACAD_REACTORS
330
5FA
102
}
330
5FA
100
AcDbXrecord
280
     1
102
RTVSPropertyOp0
 70
     1
102
RTVSPropertyOp1
 70
     1
102
RTVSPropertyOp2
 70
     1
102
RTVSPropertyOp3
 70
     1
102
RTVSPropertyOp4
 70
     1
102
RTVSPropertyOp5
 70
     1
102
RTVSPropertyOp6
 70
     1
102
RTVSPropertyOp7
 70
     1
102
RTVSPropertyOp8
 70
     1
102
RTVSPropertyOp9
 70
     1
102
RTVSPropertyOp10
 70
     1
102
RTVSPropertyOp11
 70
     1
102
RTVSPropertyOp12
 70
     1
102
RTVSPropertyOp13
 70
     1
102
RTVSPropertyOp14
 70
     1
102
RTVSPropertyOp15
 70
     1
102
RTVSPropertyOp16
 70
     1
102
RTVSPropertyOp17
 70
     1
102
RTVSPropertyOp18
 70
     1
102
RTVSPropertyOp19
 70
     1
102
RTVSPropertyOp20
 70
     1
102
RTVSPropertyOp21
 70
     1
102
RTVSPropertyOp22
 70
     1
102
RTVSPropertyOp23
 70
     1
102
RTVSPropertyOp24
 70
     1
102
RTVSPropertyOp25
 70
     1
102
RTVSPropertyOp26
 70
     1
102
RTVSPropertyOp27
 70
     1
102
RTVSPropertyOp28
 70
     1
102
RTVSPropertyOp29
 70
     1
102
RTVSPropertyOp30
 70
     1
102
RTVSPropertyOp31
 70
     1
102
RTVSPropertyOp32
 70
     1
102
RTVSPropertyOp33
 70
     1
102
RTVSPropertyOp34
 70
     1
102
RTVSPropertyOp35
 70
     1
102
RTVSPropertyOp36
 70
     1
102
RTVSPropertyOp37
 70
     1
102
RTVSPropertyOp38
 70
     1
102
RTVSPropertyOp39
 70
     1
102
RTVSPropertyOp40
 70
     1
102
RTVSPropertyOp41
 70
     1
102
RTVSPropertyOp42
 70
     1
102
RTVSPropertyOp43
 70
     1
102
RTVSPropertyOp44
 70
     1
102
RTVSPropertyOp45
 70
     1
102
RTVSPropertyOp46
 70
     1
102
RTVSPropertyOp47
 70
     1
102
RTVSPropertyOp48
 70
     1
102
RTVSPropertyOp49
 70
     1
102
RTVSPropertyOp50
 70
     1
102
RTVSPropertyOp51
 70
     0
102
RTVSPropertyOp52
 70
     0
102
RTVSPropertyOp53
 70
     1
102
RTVSPropertyOp54
 70
     1
102
RTVSPropertyOp55
 70
     1
102
RTVSPropertyOp56
 70
     1
102
RTVSPropertyOp57
 70
     1
102
RTVSPost2010Prop28
280
     0
102
RTVSPost2010PropOp28
 70
     1
102
RTVSPost2010Prop29
280
     1
102
RTVSPost2010PropOp29
 70
     1
102
RTVSPost2010Prop30
280
     1
102
RTVSPost2010PropOp30
 70
     1
102
RTVSPost2010Prop31
280
     0
102
RTVSPost2010PropOp31
 70
     1
102
RTVSPost2010Prop32
280
     0
102
RTVSPost2010PropOp32
 70
     1
102
RTVSPost2010Prop33
280
     0
102
RTVSPost2010PropOp33
 70
     1
102
RTVSPost2010Prop34
280
     0
102
RTVSPost2010PropOp34
 70
     1
102
RTVSPost2010Prop35
280
     0
102
RTVSPost2010PropOp35
 70
     1
102
RTVSPost2010Prop36
280
     0
102
RTVSPost2010PropOp36
 70
     1
102
RTVSPost2010Prop37
 90
       50
102
RTVSPost2010PropOp37
 70
     1
102
RTVSPost2010Prop38
140
0.0
102
RTVSPost2010PropOp38
 70
     1
102
RTVSPost2010Prop39
140
1.0
102
RTVSPost2010PropOp39
 70
     1
102
RTVSPost2010Prop40
 90
        0
102
RTVSPost2010PropOp40
 70
     1
102
RTVSPost2010Prop41ColorIndex
 90
       18
102
RTVSPost2010Prop41ColorRGB
 90
        0
102
RTVSPost2010PropOp41
 70
     1
102
RTVSPost2010Prop42
 90
       50
102
RTVSPost2010PropOp42
 70
     1
102
RTVSPost2010Prop43
 90
        3
102
RTVSPost2010PropOp43
 70
     1
102
RTVSPost2010Prop44ColorIndex
 90
        5
102
RTVSPost2010Prop44ColorRGB
 90
      255
102
RTVSPost2010PropOp44
 70
     1
102
RTVSPost2010Prop45
280
     0
102
RTVSPost2010PropOp45
 70
     1
102
RTVSPost2010Prop46
 90
       50
102
RTVSPost2010PropOp46
 70
     1
102
RTVSPost2010Prop47
 90
       50
102
RTVSPost2010PropOp47
 70
     1
102
RTVSPost2010Prop48
 90
       50
102
RTVSPost2010PropOp48
 70
     1
102
RTVSPost2010Prop49
280
     0
102
RTVSPost2010PropOp49
 70
     1
102
RTVSPost2010Prop50
 90
       50
102
RTVSPost2010PropOp50
 70
     1
102
RTVSPost2010Prop51ColorIndex
 90
      256
102
RTVSPost2010Prop51ColorRGB
 90
-16777216
102
RTVSPost2010PropOp51
 70
     0
102
RTVSPost2010Prop52
140
1.0
102
RTVSPost2010PropOp52
 70
     0
102
RTVSPost2010Prop53
 90
        2
102
RTVSPost2010PropOp53
 70
     1
102
RTVSPost2010Prop54
  1
strokes_ogs.tif
102
RTVSPost2010PropOp54
 70
     1
102
RTVSPost2010Prop55
280
     0
102
RTVSPost2010PropOp55
 70
     1
102
RTVSPost2010Prop56
140
1.0
102
RTVSPost2010PropOp56
 70
     1
102
RTVSPost2010Prop57
140
1.0
102
RTVSPost2010PropOp57
 70
     1
  0
XRECORD
  5
5FD
102
{ACAD_REACTORS
330
5FC
102
}
330
5FC
100
AcDbXrecord
280
     1
102
RTVSPropertyOp0
 70
     1
102
RTVSPropertyOp1
 70
     1
102
RTVSPropertyOp2
 70
     1
102
RTVSPropertyOp3
 70
     1
102
RTVSPropertyOp4
 70
     1
102
RTVSPropertyOp5
 70
     1
102
RTVSPropertyOp6
 70
     1
102
RTVSPropertyOp7
 70
     1
102
RTVSPropertyOp8
 70
     1
102
RTVSPropertyOp9
 70
     1
102
RTVSPropertyOp10
 70
     1
102
RTVSPropertyOp11
 70
     1
102
RTVSPropertyOp12
 70
     1
102
RTVSPropertyOp13
 70
     1
102
RTVSPropertyOp14
 70
     1
102
RTVSPropertyOp15
 70
     1
102
RTVSPropertyOp16
 70
     1
102
RTVSPropertyOp17
 70
     1
102
RTVSPropertyOp18
 70
     1
102
RTVSPropertyOp19
 70
     1
102
RTVSPropertyOp20
 70
     1
102
RTVSPropertyOp21
 70
     1
102
RTVSPropertyOp22
 70
     1
102
RTVSPropertyOp23
 70
     1
102
RTVSPropertyOp24
 70
     1
102
RTVSPropertyOp25
 70
     1
102
RTVSPropertyOp26
 70
     1
102
RTVSPropertyOp27
 70
     1
102
RTVSPropertyOp28
 70
     1
102
RTVSPropertyOp29
 70
     1
102
RTVSPropertyOp30
 70
     1
102
RTVSPropertyOp31
 70
     1
102
RTVSPropertyOp32
 70
     1
102
RTVSPropertyOp33
 70
     1
102
RTVSPropertyOp34
 70
     1
102
RTVSPropertyOp35
 70
     1
102
RTVSPropertyOp36
 70
     1
102
RTVSPropertyOp37
 70
     1
102
RTVSPropertyOp38
 70
     1
102
RTVSPropertyOp39
 70
     1
102
RTVSPropertyOp40
 70
     1
102
RTVSPropertyOp41
 70
     1
102
RTVSPropertyOp42
 70
     1
102
RTVSPropertyOp43
 70
     1
102
RTVSPropertyOp44
 70
     1
102
RTVSPropertyOp45
 70
     1
102
RTVSPropertyOp46
 70
     1
102
RTVSPropertyOp47
 70
     1
102
RTVSPropertyOp48
 70
     1
102
RTVSPropertyOp49
 70
     1
102
RTVSPropertyOp50
 70
     1
102
RTVSPropertyOp51
 70
     0
102
RTVSPropertyOp52
 70
     0
102
RTVSPropertyOp53
 70
     1
102
RTVSPropertyOp54
 70
     1
102
RTVSPropertyOp55
 70
     1
102
RTVSPropertyOp56
 70
     1
102
RTVSPropertyOp57
 70
     1
102
RTVSPost2010Prop28
280
     0
102
RTVSPost2010PropOp28
 70
     1
102
RTVSPost2010Prop29
280
     1
102
RTVSPost2010PropOp29
 70
     1
102
RTVSPost2010Prop30
280
     1
102
RTVSPost2010PropOp30
 70
     1
102
RTVSPost2010Prop31
280
     0
102
RTVSPost2010PropOp31
 70
     1
102
RTVSPost2010Prop32
280
     0
102
RTVSPost2010PropOp32
 70
     1
102
RTVSPost2010Prop33
280
     0
102
RTVSPost2010PropOp33
 70
     1
102
RTVSPost2010Prop34
280
     0
102
RTVSPost2010PropOp34
 70
     1
102
RTVSPost2010Prop35
280
     0
102
RTVSPost2010PropOp35
 70
     1
102
RTVSPost2010Prop36
280
     0
102
RTVSPost2010PropOp36
 70
     1
102
RTVSPost2010Prop37
 90
       50
102
RTVSPost2010PropOp37
 70
     1
102
RTVSPost2010Prop38
140
0.0
102
RTVSPost2010PropOp38
 70
     1
102
RTVSPost2010Prop39
140
1.0
102
RTVSPost2010PropOp39
 70
     1
102
RTVSPost2010Prop40
 90
        0
102
RTVSPost2010PropOp40
 70
     1
102
RTVSPost2010Prop41ColorIndex
 90
       18
102
RTVSPost2010Prop41ColorRGB
 90
        0
102
RTVSPost2010PropOp41
 70
     1
102
RTVSPost2010Prop42
 90
       50
102
RTVSPost2010PropOp42
 70
     1
102
RTVSPost2010Prop43
 90
        3
102
RTVSPost2010PropOp43
 70
     1
102
RTVSPost2010Prop44ColorIndex
 90
        5
102
RTVSPost2010Prop44ColorRGB
 90
      255
102
RTVSPost2010PropOp44
 70
     1
102
RTVSPost2010Prop45
280
     0
102
RTVSPost2010PropOp45
 70
     1
102
RTVSPost2010Prop46
 90
       50
102
RTVSPost2010PropOp46
 70
     1
102
RTVSPost2010Prop47
 90
       50
102
RTVSPost2010PropOp47
 70
     1
102
RTVSPost2010Prop48
 90
       50
102
RTVSPost2010PropOp48
 70
     1
102
RTVSPost2010Prop49
280
     0
102
RTVSPost2010PropOp49
 70
     1
102
RTVSPost2010Prop50
 90
       50
102
RTVSPost2010PropOp50
 70
     1
102
RTVSPost2010Prop51ColorIndex
 90
      256
102
RTVSPost2010Prop51ColorRGB
 90
-16777216
102
RTVSPost2010PropOp51
 70
     0
102
RTVSPost2010Prop52
140
1.0
102
RTVSPost2010PropOp52
 70
     0
102
RTVSPost2010Prop53
 90
        2
102
RTVSPost2010PropOp53
 70
     1
102
RTVSPost2010Prop54
  1
strokes_ogs.tif
102
RTVSPost2010PropOp54
 70
     1
102
RTVSPost2010Prop55
280
     0
102
RTVSPost2010PropOp55
 70
     1
102
RTVSPost2010Prop56
140
1.0
102
RTVSPost2010PropOp56
 70
     1
102
RTVSPost2010Prop57
140
1.0
102
RTVSPost2010PropOp57
 70
     1
  0
XRECORD
  5
5FF
102
{ACAD_REACTORS
330
5FE
102
}
330
5FE
100
AcDbXrecord
280
     1
102
RTVSPropertyOp0
 70
     1
102
RTVSPropertyOp1
 70
     1
102
RTVSPropertyOp2
 70
     1
102
RTVSPropertyOp3
 70
     1
102
RTVSPropertyOp4
 70
     1
102
RTVSPropertyOp5
 70
     1
102
RTVSPropertyOp6
 70
     1
102
RTVSPropertyOp7
 70
     1
102
RTVSPropertyOp8
 70
     1
102
RTVSPropertyOp9
 70
     1
102
RTVSPropertyOp10
 70
     1
102
RTVSPropertyOp11
 70
     1
102
RTVSPropertyOp12
 70
     1
102
RTVSPropertyOp13
 70
     1
102
RTVSPropertyOp14
 70
     1
102
RTVSPropertyOp15
 70
     1
102
RTVSPropertyOp16
 70
     1
102
RTVSPropertyOp17
 70
     1
102
RTVSPropertyOp18
 70
     1
102
RTVSPropertyOp19
 70
     1
102
RTVSPropertyOp20
 70
     1
102
RTVSPropertyOp21
 70
     1
102
RTVSPropertyOp22
 70
     1
102
RTVSPropertyOp23
 70
     1
102
RTVSPropertyOp24
 70
     1
102
RTVSPropertyOp25
 70
     1
102
RTVSPropertyOp26
 70
     1
102
RTVSPropertyOp27
 70
     1
102
RTVSPropertyOp28
 70
     1
102
RTVSPropertyOp29
 70
     1
102
RTVSPropertyOp30
 70
     1
102
RTVSPropertyOp31
 70
     1
102
RTVSPropertyOp32
 70
     1
102
RTVSPropertyOp33
 70
     1
102
RTVSPropertyOp34
 70
     1
102
RTVSPropertyOp35
 70
     1
102
RTVSPropertyOp36
 70
     1
102
RTVSPropertyOp37
 70
     1
102
RTVSPropertyOp38
 70
     1
102
RTVSPropertyOp39
 70
     1
102
RTVSPropertyOp40
 70
     1
102
RTVSPropertyOp41
 70
     1
102
RTVSPropertyOp42
 70
     1
102
RTVSPropertyOp43
 70
     1
102
RTVSPropertyOp44
 70
     1
102
RTVSPropertyOp45
 70
     1
102
RTVSPropertyOp46
 70
     1
102
RTVSPropertyOp47
 70
     1
102
RTVSPropertyOp48
 70
     1
102
RTVSPropertyOp49
 70
     1
102
RTVSPropertyOp50
 70
     1
102
RTVSPropertyOp51
 70
     0
102
RTVSPropertyOp52
 70
     0
102
RTVSPropertyOp53
 70
     1
102
RTVSPropertyOp54
 70
     1
102
RTVSPropertyOp55
 70
     1
102
RTVSPropertyOp56
 70
     1
102
RTVSPropertyOp57
 70
     1
102
RTVSPost2010Prop28
280
     0
102
RTVSPost2010PropOp28
 70
     1
102
RTVSPost2010Prop29
280
     1
102
RTVSPost2010PropOp29
 70
     1
102
RTVSPost2010Prop30
280
     1
102
RTVSPost2010PropOp30
 70
     1
102
RTVSPost2010Prop31
280
     0
102
RTVSPost2010PropOp31
 70
     1
102
RTVSPost2010Prop32
280
     0
102
RTVSPost2010PropOp32
 70
     1
102
RTVSPost2010Prop33
280
     0
102
RTVSPost2010PropOp33
 70
     1
102
RTVSPost2010Prop34
280
     0
102
RTVSPost2010PropOp34
 70
     1
102
RTVSPost2010Prop35
280
     0
102
RTVSPost2010PropOp35
 70
     1
102
RTVSPost2010Prop36
280
     0
102
RTVSPost2010PropOp36
 70
     1
102
RTVSPost2010Prop37
 90
       50
102
RTVSPost2010PropOp37
 70
     1
102
RTVSPost2010Prop38
140
0.0
102
RTVSPost2010PropOp38
 70
     1
102
RTVSPost2010Prop39
140
1.0
102
RTVSPost2010PropOp39
 70
     1
102
RTVSPost2010Prop40
 90
        0
102
RTVSPost2010PropOp40
 70
     1
102
RTVSPost2010Prop41ColorIndex
 90
       18
102
RTVSPost2010Prop41ColorRGB
 90
        0
102
RTVSPost2010PropOp41
 70
     1
102
RTVSPost2010Prop42
 90
       50
102
RTVSPost2010PropOp42
 70
     1
102
RTVSPost2010Prop43
 90
        3
102
RTVSPost2010PropOp43
 70
     1
102
RTVSPost2010Prop44ColorIndex
 90
        5
102
RTVSPost2010Prop44ColorRGB
 90
      255
102
RTVSPost2010PropOp44
 70
     1
102
RTVSPost2010Prop45
280
     0
102
RTVSPost2010PropOp45
 70
     1
102
RTVSPost2010Prop46
 90
       50
102
RTVSPost2010PropOp46
 70
     1
102
RTVSPost2010Prop47
 90
       50
102
RTVSPost2010PropOp47
 70
     1
102
RTVSPost2010Prop48
 90
       50
102
RTVSPost2010PropOp48
 70
     1
102
RTVSPost2010Prop49
280
     0
102
RTVSPost2010PropOp49
 70
     1
102
RTVSPost2010Prop50
 90
       50
102
RTVSPost2010PropOp50
 70
     1
102
RTVSPost2010Prop51ColorIndex
 90
      256
102
RTVSPost2010Prop51ColorRGB
 90
-16777216
102
RTVSPost2010PropOp51
 70
     0
102
RTVSPost2010Prop52
140
1.0
102
RTVSPost2010PropOp52
 70
     0
102
RTVSPost2010Prop53
 90
        2
102
RTVSPost2010PropOp53
 70
     1
102
RTVSPost2010Prop54
  1
strokes_ogs.tif
102
RTVSPost2010PropOp54
 70
     1
102
RTVSPost2010Prop55
280
     0
102
RTVSPost2010PropOp55
 70
     1
102
RTVSPost2010Prop56
140
1.0
102
RTVSPost2010PropOp56
 70
     1
102
RTVSPost2010Prop57
140
1.0
102
RTVSPost2010PropOp57
 70
     1
  0
ENDSEC
  0
EOF
