  0
SECTION
  2
HEADER
  9
$ACADVER
  1
AC1015
  9
$ACADMAINTVER
 70
     6
  9
$DWGCODEPAGE
  3
ANSI_932
  9
$INSBASE
 10
59.99999938099995
 20
0.0
 30
0.0
  9
$EXTMIN
 10
90.59691457317217
 20
14.47735192943719
 30
0.0
  9
$EXTMAX
 10
1037.75716391936
 20
884.08865804174
 30
0.0
  9
$LIMMIN
 10
-210.0
 20
-148.5
  9
$LIMMAX
 10
210.0
 20
148.5
  9
$ORTHOMODE
 70
     1
  9
$REGENMODE
 70
     1
  9
$FILLMODE
 70
     1
  9
$QTEXTMODE
 70
     0
  9
$MIRRTEXT
 70
     1
  9
$LTSCALE
 40
3.0
  9
$ATTMODE
 70
     1
  9
$TEXTSIZE
 40
9.0
  9
$TRACEWID
 40
0.05
  9
$TEXTSTYLE
  7
KANJI
  9
$CLAYER
  8
2
  9
$CELTYPE
  6
CONTINUOUS
  9
$CECOLOR
 62
   256
  9
$CELTSCALE
 40
1.0
  9
$DISPSILH
 70
     0
  9
$DIMSCALE
 40
3.0
  9
$DIMASZ
 40
2.0
  9
$DIMEXO
 40
0.5
  9
$DIMDLI
 40
10.0
  9
$DIMRND
 40
0.0
  9
$DIMDLE
 40
0.0
  9
$DIMEXE
 40
1.0
  9
$DIMTP
 40
0.0
  9
$DIMTM
 40
0.0
  9
$DIMTXT
 40
3.0
  9
$DIMCEN
 40
0.09
  9
$DIMTSZ
 40
0.0
  9
$DIMTOL
 70
     0
  9
$DIMLIM
 70
     0
  9
$DIMTIH
 70
     0
  9
$DIMTOH
 70
     0
  9
$DIMSE1
 70
     0
  9
$DIMSE2
 70
     0
  9
$DIMTAD
 70
     0
  9
$DIMZIN
 70
     8
  9
$DIMBLK
  1

  9
$DIMASO
 70
     0
  9
$DIMSHO
 70
     0
  9
$DIMPOST
  1

  9
$DIMAPOST
  1

  9
$DIMALT
 70
     0
  9
$DIMALTD
 70
     2
  9
$DIMALTF
 40
25.4
  9
$DIMLFAC
 40
1.0
  9
$DIMTOFL
 70
     1
  9
$DIMTVP
 40
1.0
  9
$DIMTIX
 70
     1
  9
$DIMSOXD
 70
     1
  9
$DIMSAH
 70
     0
  9
$DIMBLK1
  1

  9
$DIMBLK2
  1

  9
$DIMSTYLE
  2
STANDARD
  9
$DIMCLRD
 70
   256
  9
$DIMCLRE
 70
   256
  9
$DIMCLRT
 70
   256
  9
$DIMTFAC
 40
1.0
  9
$DIMGAP
 40
0.09
  9
$DIMJUST
 70
     0
  9
$DIMSD1
 70
     0
  9
$DIMSD2
 70
     0
  9
$DIMTOLJ
 70
     1
  9
$DIMTZIN
 70
     0
  9
$DIMALTZ
 70
     0
  9
$DIMALTTZ
 70
     0
  9
$DIMUPT
 70
     0
  9
$DIMDEC
 70
     4
  9
$DIMTDEC
 70
     4
  9
$DIMALTU
 70
     2
  9
$DIMALTTD
 70
     2
  9
$DIMTXSTY
  7
STANDARD
  9
$DIMAUNIT
 70
     0
  9
$DIMADEC
 70
     0
  9
$DIMALTRND
 40
0.0
  9
$DIMAZIN
 70
     0
  9
$DIMDSEP
 70
    46
  9
$DIMATFIT
 70
     3
  9
$DIMFRAC
 70
     0
  9
$DIMLDRBLK
  1

  9
$DIMLUNIT
 70
     2
  9
$DIMLWD
 70
    -2
  9
$DIMLWE
 70
    -2
  9
$DIMTMOVE
 70
     0
  9
$LUNITS
 70
     2
  9
$LUPREC
 70
     4
  9
$SKETCHINC
 40
0.1
  9
$FILLETRAD
 40
1.0
  9
$AUNITS
 70
     0
  9
$AUPREC
 70
     0
  9
$MENU
  1
.
  9
$ELEVATION
 40
0.0
  9
$PELEVATION
 40
0.0
  9
$THICKNESS
 40
0.0
  9
$LIMCHECK
 70
     0
  9
$CHAMFERA
 40
0.0
  9
$CHAMFERB
 40
0.0
  9
$CHAMFERC
 40
0.0
  9
$CHAMFERD
 40
0.0
  9
$SKPOLY
 70
     0
  9
$TDCREATE
 40
2457472.712135093
  9
$TDUCREATE
 40
2457472.337135093
  9
$TDUPDATE
 40
2457871.839487847
  9
$TDUUPDATE
 40
2457871.464487847
  9
$TDINDWG
 40
0.0274121991
  9
$TDUSRTIMER
 40
0.0274116435
  9
$USRTIMER
 70
     1
  9
$ANGBASE
 50
0.0
  9
$ANGDIR
 70
     0
  9
$PDMODE
 70
     0
  9
$PDSIZE
 40
0.0
  9
$PLINEWID
 40
0.0
  9
$SPLFRAME
 70
     0
  9
$SPLINETYPE
 70
     6
  9
$SPLINESEGS
 70
     8
  9
$HANDSEED
  5
62F
  9
$SURFTAB1
 70
     6
  9
$SURFTAB2
 70
     6
  9
$SURFTYPE
 70
     6
  9
$SURFU
 70
     6
  9
$SURFV
 70
     6
  9
$UCSBASE
  2

  9
$UCSNAME
  2

  9
$UCSORG
 10
0.0
 20
0.0
 30
0.0
  9
$UCSXDIR
 10
1.0
 20
0.0
 30
0.0
  9
$UCSYDIR
 10
0.0
 20
1.0
 30
0.0
  9
$UCSORTHOREF
  2

  9
$UCSORTHOVIEW
 70
     0
  9
$UCSORGTOP
 10
0.0
 20
0.0
 30
0.0
  9
$UCSORGBOTTOM
 10
0.0
 20
0.0
 30
0.0
  9
$UCSORGLEFT
 10
0.0
 20
0.0
 30
0.0
  9
$UCSORGRIGHT
 10
0.0
 20
0.0
 30
0.0
  9
$UCSORGFRONT
 10
0.0
 20
0.0
 30
0.0
  9
$UCSORGBACK
 10
0.0
 20
0.0
 30
0.0
  9
$PUCSBASE
  2

  9
$PUCSNAME
  2

  9
$PUCSORG
 10
0.0
 20
0.0
 30
0.0
  9
$PUCSXDIR
 10
1.0
 20
0.0
 30
0.0
  9
$PUCSYDIR
 10
0.0
 20
1.0
 30
0.0
  9
$PUCSORTHOREF
  2

  9
$PUCSORTHOVIEW
 70
     0
  9
$PUCSORGTOP
 10
0.0
 20
0.0
 30
0.0
  9
$PUCSORGBOTTOM
 10
0.0
 20
0.0
 30
0.0
  9
$PUCSORGLEFT
 10
0.0
 20
0.0
 30
0.0
  9
$PUCSORGRIGHT
 10
0.0
 20
0.0
 30
0.0
  9
$PUCSORGFRONT
 10
0.0
 20
0.0
 30
0.0
  9
$PUCSORGBACK
 10
0.0
 20
0.0
 30
0.0
  9
$USERI1
 70
     0
  9
$USERI2
 70
     0
  9
$USERI3
 70
     0
  9
$USERI4
 70
     0
  9
$USERI5
 70
     0
  9
$USERR1
 40
0.0
  9
$USERR2
 40
0.0
  9
$USERR3
 40
0.0
  9
$USERR4
 40
0.0
  9
$USERR5
 40
0.0
  9
$WORLDVIEW
 70
     1
  9
$SHADEDGE
 70
     3
  9
$SHADEDIF
 70
    70
  9
$TILEMODE
 70
     1
  9
$MAXACTVP
 70
    16
  9
$PINSBASE
 10
0.0
 20
0.0
 30
0.0
  9
$PLIMCHECK
 70
     0
  9
$PEXTMIN
 10
1.000000000000000E+20
 20
1.000000000000000E+20
 30
1.000000000000000E+20
  9
$PEXTMAX
 10
-1.000000000000000E+20
 20
-1.000000000000000E+20
 30
-1.000000000000000E+20
  9
$PLIMMIN
 10
0.0
 20
0.0
  9
$PLIMMAX
 10
12.0
 20
9.0
  9
$UNITMODE
 70
     0
  9
$VISRETAIN
 70
     0
  9
$PLINEGEN
 70
     0
  9
$PSLTSCALE
 70
     1
  9
$TREEDEPTH
 70
  3020
  9
$CMLSTYLE
  2
STANDARD
  9
$CMLJUST
 70
     0
  9
$CMLSCALE
 40
1.0
  9
$PROXYGRAPHICS
 70
     1
  9
$MEASUREMENT
 70
     0
  9
$CELWEIGHT
370
    -1
  9
$ENDCAPS
280
     0
  9
$JOINSTYLE
280
     0
  9
$LWDISPLAY
290
     0
  9
$INSUNITS
 70
     0
  9
$HYPERLINKBASE
  1

  9
$STYLESHEET
  1
monochrome.ctb
  9
$XEDIT
290
     1
  9
$CEPSNTYPE
380
     0
  9
$PSTYLEMODE
290
     1
  9
$FINGERPRINTGUID
  2
{7270618B-4E6C-43E6-B31B-72FEC1F23BF5}
  9
$VERSIONGUID
  2
{D2037B37-42CD-4C20-8D0A-1E4432C8BBF5}
  9
$EXTNAMES
290
     1
  9
$PSVPSCALE
 40
0.0
  9
$OLESTARTUP
290
     0
  0
ENDSEC
  0
SECTION
  2
CLASSES
  0
CLASS
  1
LWPOLYLINE
  2
AcDbPolyline
  3
AutoCAD 2000
 90
        0
280
     0
281
     1
  0
CLASS
  1
ACDBDICTIONARYWDFLT
  2
AcDbDictionaryWithDefault
  3
ObjectDBX Classes
 90
        0
280
     0
281
     0
  0
CLASS
  1
ACDBPLACEHOLDER
  2
AcDbPlaceHolder
  3
ObjectDBX Classes
 90
        0
280
     0
281
     0
  0
CLASS
  1
LAYOUT
  2
AcDbLayout
  3
ObjectDBX Classes
 90
        0
280
     0
281
     0
  0
CLASS
  1
DICTIONARYVAR
  2
AcDbDictionaryVar
  3
ObjectDBX Classes
 90
        0
280
     0
281
     0
  0
CLASS
  1
DUMMY
  2
AcDbLongTransaction
  3
DUMMY
 90
        0
280
     0
281
     0
  0
CLASS
  1
LWPOLYLINE
  2
AcDbPolyline
  3
AutoCAD 2000
 90
        0
280
     0
281
     1
  0
CLASS
  1
HATCH
  2
AcDbHatch
  3
AutoCAD 2000
 90
        0
280
     0
281
     1
  0
CLASS
  1
XRECORD
  2
AcDbXrecord
  3
AutoCAD 2000
 90
        0
280
     0
281
     0
  0
CLASS
  1
DUMMY
  2
AcDbLongTransaction
  3
DUMMY
 90
        0
280
     0
281
     0
  0
CLASS
  1
LWPOLYLINE
  2
AcDbPolyline
  3
AutoCAD 2000
 90
        0
280
     0
281
     1
  0
CLASS
  1
HATCH
  2
AcDbHatch
  3
AutoCAD 2000
 90
        0
280
     0
281
     1
  0
CLASS
  1
XRECORD
  2
AcDbXrecord
  3
AutoCAD 2000
 90
        0
280
     0
281
     0
  0
CLASS
  1
DUMMY
  2
AcDbLongTransaction
  3
DUMMY
 90
        0
280
     0
281
     0
  0
CLASS
  1
LWPOLYLINE
  2
AcDbPolyline
  3
AutoCAD 2000
 90
        0
280
     0
281
     1
  0
CLASS
  1
HATCH
  2
AcDbHatch
  3
AutoCAD 2000
 90
        0
280
     0
281
     1
  0
CLASS
  1
XRECORD
  2
AcDbXrecord
  3
AutoCAD 2000
 90
        0
280
     0
281
     0
  0
CLASS
  1
MATERIAL
  2
AcDbMaterial
  3
ObjectDBX Classes
 90
     1153
280
     0
281
     0
  0
CLASS
  1
VISUALSTYLE
  2
AcDbVisualStyle
  3
ObjectDBX Classes
 90
     4095
280
     0
281
     0
  0
CLASS
  1
TABLESTYLE
  2
AcDbTableStyle
  3
ObjectDBX Classes
 90
     4095
280
     0
281
     0
  0
CLASS
  1
SCALE
  2
AcDbScale
  3
ObjectDBX Classes
 90
     1153
280
     0
281
     0
  0
CLASS
  1
MLEADERSTYLE
  2
AcDbMLeaderStyle
  3
ACDB_MLEADERSTYLE_CLASS
 90
     4095
280
     0
281
     0
  0
CLASS
  1
ACDBSECTIONVIEWSTYLE
  2
AcDbSectionViewStyle
  3
ObjectDBX Classes
 90
     1025
280
     0
281
     0
  0
CLASS
  1
ACDBDETAILVIEWSTYLE
  2
AcDbDetailViewStyle
  3
ObjectDBX Classes
 90
     1025
280
     0
281
     0
  0
CLASS
  1
SORTENTSTABLE
  2
AcDbSortentsTable
  3
ObjectDBX Classes
 90
        0
280
     0
281
     0
  0
ENDSEC
  0
SECTION
  2
TABLES
  0
TABLE
  2
VPORT
  5
2C
102
{ACAD_XDICTIONARY
360
5F3
102
}
330
0
100
AcDbSymbolTable
 70
     1
  0
VPORT
  5
2D
330
2C
100
AcDbSymbolTableRecord
100
AcDbViewportTableRecord
  2
*Active
 70
     0
 10
0.0
 20
0.0
 11
1.0
 21
1.0
 12
1261.922598608263
 22
410.7544301756984
 13
0.0
 23
0.0
 14
1.0
 24
1.0
 15
0.0
 25
0.0
 16
0.0
 26
0.0
 36
1.0
 17
0.0
 27
0.0
 37
0.0
 40
1361.518485719768
 41
2.177611940298507
 42
50.0
 43
0.0
 44
0.0
 50
0.0
 51
0.0
 71
     0
 72
 20000
 73
     1
 74
     0
 75
     0
 76
     0
 77
     0
 78
     0
281
     0
 65
     1
110
0.0
120
0.0
130
0.0
111
1.0
121
0.0
131
0.0
112
0.0
122
1.0
132
0.0
 79
     0
146
0.0
1001
ACAD_NAV_VCDISPLAY
1070
     3
  0
ENDTAB
  0
TABLE
  2
LTYPE
  5
27
330
0
100
AcDbSymbolTable
 70
     2
  0
LTYPE
  5
28
330
27
100
AcDbSymbolTableRecord
100
AcDbLinetypeTableRecord
  2
BYBLOCK
 70
     0
  3

 72
    65
 73
     0
 40
0.0
  0
LTYPE
  5
29
330
27
100
AcDbSymbolTableRecord
100
AcDbLinetypeTableRecord
  2
BYLAYER
 70
     0
  3

 72
    65
 73
     0
 40
0.0
  0
LTYPE
  5
16
330
27
100
AcDbSymbolTableRecord
100
AcDbLinetypeTableRecord
  2
CONTINUOUS
 70
     0
  3
Solid line
 72
    65
 73
     0
 40
0.0
  0
LTYPE
  5
75
330
27
100
AcDbSymbolTableRecord
100
AcDbLinetypeTableRecord
  2
CENTER
 70
     0
  3
____ _ ____ _ ____ _ ____ _ ____ _ ____ _ ____
 72
    65
 73
     4
 40
12.0
 49
9.0
 74
     0
 49
-1.0
 74
     0
 49
1.0
 74
     0
 49
-1.0
 74
     0
  0
ENDTAB
  0
TABLE
  2
LAYER
  5
21
102
{ACAD_XDICTIONARY
360
22
102
}
330
0
100
AcDbSymbolTable
 70
     8
  0
LAYER
  5
7
102
{ACAD_XDICTIONARY
360
8
102
}
330
21
100
AcDbSymbolTableRecord
100
AcDbLayerTableRecord
  2
0
 70
     0
 62
     7
  6
CONTINUOUS
370
    -3
390
A
  0
LAYER
  5
36E
102
{ACAD_XDICTIONARY
360
36F
102
}
330
21
100
AcDbSymbolTableRecord
100
AcDbLayerTableRecord
  2
1
 70
     0
 62
     7
  6
CONTINUOUS
370
    -3
390
A
  0
LAYER
  5
4D
102
{ACAD_XDICTIONARY
360
4E
102
}
330
21
100
AcDbSymbolTableRecord
100
AcDbLayerTableRecord
  2
2
 70
     0
 62
     4
  6
CONTINUOUS
370
    -3
390
A
  0
LAYER
  5
6E
102
{ACAD_XDICTIONARY
360
6F
102
}
330
21
100
AcDbSymbolTableRecord
100
AcDbLayerTableRecord
  2
4
 70
     0
 62
     3
  6
CONTINUOUS
370
    -3
390
A
  0
LAYER
  5
72
102
{ACAD_XDICTIONARY
360
73
102
}
330
21
100
AcDbSymbolTableRecord
100
AcDbLayerTableRecord
  2
L-CENTER
 70
     0
 62
     1
  6
CENTER
370
    -3
390
A
  0
LAYER
  5
366
102
{ACAD_XDICTIONARY
360
367
102
}
330
21
100
AcDbSymbolTableRecord
100
AcDbLayerTableRecord
  2
5
 70
     0
 62
     6
  6
CONTINUOUS
370
    -3
390
A
  0
LAYER
  5
67
102
{ACAD_XDICTIONARY
360
68
102
}
330
21
100
AcDbSymbolTableRecord
100
AcDbLayerTableRecord
  2
3
 70
     0
 62
     2
  6
CONTINUOUS
370
    -3
390
A
  0
LAYER
  5
52B
330
21
100
AcDbSymbolTableRecord
100
AcDbLayerTableRecord
  2
Defpoints
 70
     0
 62
     7
  6
CONTINUOUS
290
     0
370
    -3
390
A
  0
ENDTAB
  0
TABLE
  2
STYLE
  5
24
330
0
100
AcDbSymbolTable
 70
     2
  0
STYLE
  5
25
330
24
100
AcDbSymbolTableRecord
100
AcDbTextStyleTableRecord
  2
STANDARD
 70
     0
 40
0.0
 41
1.0
 50
0.0
 71
     0
 42
5.4
  3
txt
  4

  0
STYLE
  5
50
330
24
100
AcDbSymbolTableRecord
100
AcDbTextStyleTableRecord
  2
KANJI
 70
     0
 40
0.0
 41
1.0
 50
0.0
 71
     0
 42
9.0
  3
TXT
  4
BIGFONT
  0
ENDTAB
  0
TABLE
  2
VIEW
  5
2A
330
0
100
AcDbSymbolTable
 70
     0
  0
ENDTAB
  0
TABLE
  2
UCS
  5
2B
330
0
100
AcDbSymbolTable
 70
     0
  0
ENDTAB
  0
TABLE
  2
APPID
  5
31
330
0
100
AcDbSymbolTable
 70
     5
  0
APPID
  5
32
330
31
100
AcDbSymbolTableRecord
100
AcDbRegAppTableRecord
  2
ACAD
 70
     0
  0
APPID
  5
30
330
31
100
AcDbSymbolTableRecord
100
AcDbRegAppTableRecord
  2
ACAD_NAV_VCDISPLAY
 70
     0
  0
APPID
  5
1A
330
31
100
AcDbSymbolTableRecord
100
AcDbRegAppTableRecord
  2
ACAD_PSEXT
 70
     0
  0
APPID
  5
4C4
330
31
100
AcDbSymbolTableRecord
100
AcDbRegAppTableRecord
  2
ACAD_EXEMPT_FROM_CAD_STANDARDS
 70
     0
  0
APPID
  5
4DE
330
31
100
AcDbSymbolTableRecord
100
AcDbRegAppTableRecord
  2
ACAD_MLEADERVER
 70
     0
  0
ENDTAB
  0
TABLE
  2
DIMSTYLE
  5
33
330
0
100
AcDbSymbolTable
 70
     1
100
AcDbDimStyleTable
  0
DIMSTYLE
105
34
330
33
100
AcDbSymbolTableRecord
100
AcDbDimStyleTableRecord
  2
STANDARD
 70
     0
178
     0
340
25
  0
ENDTAB
  0
TABLE
  2
BLOCK_RECORD
  5
1
330
0
100
AcDbSymbolTable
 70
     0
  0
BLOCK_RECORD
  5
2
102
{ACAD_XDICTIONARY
360
3
102
}
330
1
100
AcDbSymbolTableRecord
100
AcDbBlockTableRecord
  2
*MODEL_SPACE
340
18
  0
BLOCK_RECORD
  5
1B
330
1
100
AcDbSymbolTableRecord
100
AcDbBlockTableRecord
  2
*PAPER_SPACE
340
20
  0
ENDTAB
  0
ENDSEC
  0
SECTION
  2
BLOCKS
  0
BLOCK
  5
6
330
2
100
AcDbEntity
  8
0
100
AcDbBlockBegin
  2
*MODEL_SPACE
 70
     0
 10
0.0
 20
0.0
 30
0.0
  3
*MODEL_SPACE
  1

  0
ENDBLK
  5
17
330
2
100
AcDbEntity
  8
0
100
AcDbBlockEnd
  0
BLOCK
  5
1E
330
1B
100
AcDbEntity
 67
     1
  8
0
100
AcDbBlockBegin
  2
*PAPER_SPACE
 70
     0
 10
0.0
 20
0.0
 30
0.0
  3
*PAPER_SPACE
  1

  0
ENDBLK
  5
1F
330
1B
100
AcDbEntity
 67
     1
  8
0
100
AcDbBlockEnd
  0
ENDSEC
  0
SECTION
  2
ENTITIES
  0
LINE
  5
6D
330
2
100
AcDbEntity
  8
4
100
AcDbLine
 10
250.9396815792212
 20
335.9352973064235
 30
0.0
 11
250.9396815792212
 21
300.9352963064237
 31
0.0
  0
LINE
  5
71
330
2
100
AcDbEntity
  8
L-CENTER
100
AcDbLine
 10
380.9396805792213
 20
378.1626251740604
 30
0.0
 11
380.9396805792213
 21
102.2824644834209
 31
0.0
  0
LINE
  5
76
330
2
100
AcDbEntity
  8
4
100
AcDbLine
 10
510.9396795792214
 20
236.4306853064234
 30
0.0
 11
510.9396795792214
 21
335.9352973064235
 31
0.0
  0
LINE
  5
77
330
2
100
AcDbEntity
  8
4
100
AcDbLine
 10
251.9396805792213
 20
319.9352953064238
 30
0.0
 11
251.9396805792213
 21
251.9352973064235
 31
0.0
  0
LINE
  5
78
330
2
100
AcDbEntity
  8
4
100
AcDbLine
 10
509.9396805792213
 20
319.9352953064238
 30
0.0
 11
509.9396805792213
 21
251.9352973064235
 31
0.0
  0
LINE
  5
79
330
2
100
AcDbEntity
  8
4
100
AcDbLine
 10
504.9396795792214
 20
334.9352953064238
 30
0.0
 11
504.9396795792214
 21
236.9352973064235
 31
0.0
  0
LINE
  5
7A
330
2
100
AcDbEntity
  8
4
100
AcDbLine
 10
252.9396795792214
 20
206.9352973064235
 30
0.0
 11
252.9396795792214
 21
333.9352963064237
 31
0.0
  0
LINE
  5
7B
330
2
100
AcDbEntity
  8
4
100
AcDbLine
 10
508.9396815792212
 20
206.9352973064235
 30
0.0
 11
508.9396815792212
 21
333.9352963064237
 31
0.0
  0
LINE
  5
7C
330
2
100
AcDbEntity
  8
4
100
AcDbLine
 10
256.9396815792212
 20
334.9352953064238
 30
0.0
 11
256.9396815792212
 21
236.9352973064235
 31
0.0
  0
LINE
  5
7D
330
2
100
AcDbEntity
  8
4
100
AcDbLine
 10
205.9396815792212
 20
170.9352973064235
 30
0.0
 11
322.9396815792212
 21
170.9352973064235
 31
0.0
  0
LINE
  5
7E
330
2
100
AcDbEntity
  8
4
100
AcDbLine
 10
319.9396815792212
 20
200.9352973064235
 30
0.0
 11
208.9396815792212
 21
200.9352973064235
 31
0.0
  0
LINE
  5
7F
330
2
100
AcDbEntity
  8
4
100
AcDbLine
 10
256.9396815792212
 20
236.9352973064235
 30
0.0
 11
504.9396795792214
 21
236.9352973064235
 31
0.0
  0
LINE
  5
80
330
2
100
AcDbEntity
  8
L-CENTER
100
AcDbLine
 10
230.9396805792213
 20
210.9352973064235
 30
0.0
 11
230.9396805792213
 21
160.9352973064235
 31
0.0
  0
LINE
  5
81
330
2
100
AcDbEntity
  8
4
100
AcDbLine
 10
205.9396815792212
 20
197.9352973064235
 30
0.0
 11
205.9396815792212
 21
170.9352973064235
 31
0.0
  0
ARC
  5
82
330
2
100
AcDbEntity
  8
4
100
AcDbCircle
 10
208.9396815792212
 20
197.9352973064235
 30
0.0
 40
3.0
100
AcDbArc
 50
90.0
 51
180.0
  0
LINE
  5
83
330
2
100
AcDbEntity
  8
4
100
AcDbLine
 10
232.5978825792214
 20
204.2521903064239
 30
0.0
 11
252.9396795792214
 21
239.9394463064236
 31
0.0
  0
ARC
  5
84
330
2
100
AcDbEntity
  8
4
100
AcDbCircle
 10
227.2311855792212
 20
206.9352973064235
 30
0.0
 40
6.0
100
AcDbArc
 50
270.0016040000007
 51
333.4394459999929
  0
ARC
  5
85
330
2
100
AcDbEntity
  8
4
100
AcDbCircle
 10
246.9396795792214
 20
206.9352973064235
 30
0.0
 40
6.0
100
AcDbArc
 50
270.0016040000007
 51
0.0
  0
LINE
  5
86
330
2
100
AcDbEntity
  8
4
100
AcDbLine
 10
256.9396815792212
 20
237.9352963064237
 30
0.0
 11
252.9396795792214
 21
237.9352963064237
 31
0.0
  0
LINE
  5
87
330
2
100
AcDbEntity
  8
4
100
AcDbLine
 10
251.9396805792213
 20
251.9352973064235
 30
0.0
 11
252.9396795792214
 21
251.9352973064235
 31
0.0
  0
LINE
  5
88
330
2
100
AcDbEntity
  8
4
100
AcDbLine
 10
438.9396795792214
 20
170.9352973064235
 30
0.0
 11
555.9396795792214
 21
170.9352973064235
 31
0.0
  0
LINE
  5
89
330
2
100
AcDbEntity
  8
4
100
AcDbLine
 10
441.9396795792214
 20
200.9352973064235
 30
0.0
 11
552.9396795792214
 21
200.9352973064235
 31
0.0
  0
LINE
  5
8A
330
2
100
AcDbEntity
  8
4
100
AcDbLine
 10
432.9396795792214
 20
217.9352953064238
 30
0.0
 11
328.9396815792212
 21
217.9352953064238
 31
0.0
  0
LINE
  5
8B
330
2
100
AcDbEntity
  8
4
100
AcDbLine
 10
416.2573065792213
 20
199.9352953064238
 30
0.0
 11
345.6220545792213
 21
199.9352953064238
 31
0.0
  0
LINE
  5
8C
330
2
100
AcDbEntity
  8
4
100
AcDbLine
 10
322.9396815792212
 20
211.9352953064238
 30
0.0
 11
322.9396815792212
 21
170.9352973064235
 31
0.0
  0
LINE
  5
8D
330
2
100
AcDbEntity
  8
4
100
AcDbLine
 10
322.9396815792212
 20
205.9352953064238
 30
0.0
 11
342.6166815792213
 21
205.9352953064238
 31
0.0
  0
ARC
  5
8E
330
2
100
AcDbEntity
  8
4
100
AcDbCircle
 10
319.9396815792212
 20
197.9352973064235
 30
0.0
 40
3.0
100
AcDbArc
 50
0.0
 51
90.0
  0
ARC
  5
8F
330
2
100
AcDbEntity
  8
4
100
AcDbCircle
 10
328.9396815792212
 20
211.9352953064238
 30
0.0
 40
6.0
100
AcDbArc
 50
90.0
 51
180.0
  0
LINE
  5
90
330
2
100
AcDbEntity
  8
4
100
AcDbLine
 10
343.0622385792213
 20
201.3708433064235
 30
0.0
 11
340.2729315792213
 21
205.9352953064238
 31
0.0
  0
ARC
  5
91
330
2
100
AcDbEntity
  8
4
100
AcDbCircle
 10
345.6220545792213
 20
202.9352953064238
 30
0.0
 40
3.000012
100
AcDbArc
 50
211.4315569999898
 51
270.0
  0
LINE
  5
92
330
2
100
AcDbEntity
  8
4
100
AcDbLine
 10
335.2834305792213
 20
217.9352953064238
 30
0.0
 11
342.6166815792213
 21
205.9352953064238
 31
0.0
  0
LINE
  5
93
330
2
100
AcDbEntity
  8
4
100
AcDbLine
 10
438.9396795792214
 20
211.9352953064238
 30
0.0
 11
438.9396795792214
 21
170.9352973064235
 31
0.0
  0
LINE
  5
94
330
2
100
AcDbEntity
  8
4
100
AcDbLine
 10
438.9396795792214
 20
205.9352953064238
 30
0.0
 11
419.2621905792213
 21
205.9352953064238
 31
0.0
  0
LINE
  5
95
330
2
100
AcDbEntity
  8
4
100
AcDbLine
 10
418.8171225792213
 20
201.3708433064235
 30
0.0
 11
421.6064295792213
 21
205.9352953064238
 31
0.0
  0
ARC
  5
96
330
2
100
AcDbEntity
  8
4
100
AcDbCircle
 10
416.2573065792213
 20
202.9352953064238
 30
0.0
 40
2.999949
100
AcDbArc
 50
270.0
 51
328.5724190000086
  0
LINE
  5
97
330
2
100
AcDbEntity
  8
4
100
AcDbLine
 10
419.2624335792212
 20
205.9352953064238
 30
0.0
 11
426.5956875792214
 21
217.9352953064238
 31
0.0
  0
ARC
  5
98
330
2
100
AcDbEntity
  8
4
100
AcDbCircle
 10
441.9396795792214
 20
197.9352973064235
 30
0.0
 40
3.0
100
AcDbArc
 50
90.0
 51
180.0
  0
ARC
  5
99
330
2
100
AcDbEntity
  8
4
100
AcDbCircle
 10
432.9396795792214
 20
211.9352953064238
 30
0.0
 40
6.0
100
AcDbArc
 50
0.0
 51
90.0
  0
LWPOLYLINE
  5
9A
330
2
100
AcDbEntity
  8
4
100
AcDbPolyline
 90
       30
 70
     0
 43
0.0
 10
502.6043685792212
 20
200.6939803064233
 10
503.3974455792214
 20
199.9534003064234
 10
504.1664085792214
 20
199.2117763064234
 10
504.8871465792214
 20
198.4680643064239
 10
506.5188675792211
 20
196.2139603064234
 10
506.8055685792214
 20
195.4514533064239
 10
506.9234775792212
 20
194.6816383064238
 10
506.8484805792215
 20
193.9034713064236
 10
506.6263785792213
 20
193.2442723064239
 10
506.2798965792214
 20
192.5809393064237
 10
505.8372405792212
 20
191.9159443064236
 10
504.2143215792213
 20
189.9357073064236
 10
502.7413575792212
 20
188.0295163064236
 10
502.4153325792214
 20
187.4221093064234
 10
502.2188085792214
 20
186.8328223064239
 10
502.1799885792212
 20
186.2641243064238
 10
502.3515195792214
 20
185.6418283064233
 10
502.7289615792214
 20
185.0450173064237
 10
503.2759125792214
 20
184.4691313064234
 10
505.5697545792215
 20
182.8212883064239
 10
508.0785585792213
 20
181.1972263064233
 10
508.7927025792213
 20
180.6398353064237
 10
509.3851125792213
 20
180.0668083064234
 10
509.8193775792214
 20
179.4735763064239
 10
510.1348245792213
 20
178.154419306424
 10
509.7380505792213
 20
176.7445723064238
 10
508.7715015792213
 20
175.2621673064234
 10
507.3776175792215
 20
173.7253453064236
 10
505.6988445792214
 20
172.152247306424
 10
503.8776285792213
 20
170.5610113064238
  0
LINE
  5
9B
330
2
100
AcDbEntity
  8
L-CENTER
100
AcDbLine
 10
530.9396805792213
 20
210.9352973064235
 30
0.0
 11
530.9396805792213
 21
160.9352973064235
 31
0.0
  0
LINE
  5
9C
330
2
100
AcDbEntity
  8
4
100
AcDbLine
 10
521.9396805792213
 20
200.9352973064235
 30
0.0
 11
521.9396805792213
 21
170.9352973064235
 31
0.0
  0
LINE
  5
9D
330
2
100
AcDbEntity
  8
4
100
AcDbLine
 10
539.9396805792213
 20
200.9352973064235
 30
0.0
 11
539.9396805792213
 21
170.9352973064235
 31
0.0
  0
LINE
  5
9E
330
2
100
AcDbEntity
  8
4
100
AcDbLine
 10
529.2814785792212
 20
204.2521903064239
 30
0.0
 11
508.9396815792212
 21
239.9394463064236
 31
0.0
  0
ARC
  5
9F
330
2
100
AcDbEntity
  8
4
100
AcDbCircle
 10
514.9396815792212
 20
206.9352973064235
 30
0.0
 40
6.0
100
AcDbArc
 50
180.0
 51
270.0023300000006
  0
ARC
  5
A0
330
2
100
AcDbEntity
  8
4
100
AcDbCircle
 10
534.6479325792212
 20
206.9352973064235
 30
0.0
 40
6.000021
100
AcDbArc
 50
206.5629630000033
 51
270.0023299999998
  0
LINE
  5
A1
330
2
100
AcDbEntity
  8
4
100
AcDbLine
 10
504.9396795792214
 20
237.9352963064237
 30
0.0
 11
508.9396815792212
 21
237.9352963064237
 31
0.0
  0
LINE
  5
A2
330
2
100
AcDbEntity
  8
4
100
AcDbLine
 10
509.9396805792213
 20
251.9352973064235
 30
0.0
 11
508.9396815792212
 21
251.9352973064235
 31
0.0
  0
LINE
  5
A3
330
2
100
AcDbEntity
  8
4
100
AcDbLine
 10
555.9396795792214
 20
197.9352973064235
 30
0.0
 11
555.9396795792214
 21
170.9352973064235
 31
0.0
  0
ARC
  5
A4
330
2
100
AcDbEntity
  8
4
100
AcDbCircle
 10
552.9396795792214
 20
197.9352973064235
 30
0.0
 40
3.0
100
AcDbArc
 50
0.0
 51
90.0
  0
LINE
  5
A5
330
2
100
AcDbEntity
  8
4
100
AcDbLine
 10
510.9396795792214
 20
335.9352973064235
 30
0.0
 11
250.9396815792212
 21
335.9352973064235
 31
0.0
  0
LINE
  5
A6
330
2
100
AcDbEntity
  8
4
100
AcDbLine
 10
504.9396795792214
 20
334.9352953064238
 30
0.0
 11
256.9396815792212
 21
334.9352953064238
 31
0.0
  0
LINE
  5
A7
330
2
100
AcDbEntity
  8
L-CENTER
100
AcDbLine
 10
165.3961245792212
 20
285.9352963064237
 30
0.0
 11
514.4599926255423
 21
285.9352963064237
 31
0.0
  0
LINE
  5
A8
330
2
100
AcDbEntity
  8
4
100
AcDbLine
 10
508.9396815792212
 20
341.9352973064235
 30
0.0
 11
252.9396795792214
 21
341.9352973064235
 31
0.0
  0
LINE
  5
A9
330
2
100
AcDbEntity
  8
4
100
AcDbLine
 10
253.9396815792212
 20
353.3351983064233
 30
0.0
 11
507.9396795792214
 21
353.3351983064233
 31
0.0
  0
LINE
  5
AA
330
2
100
AcDbEntity
  8
4
100
AcDbLine
 10
251.9396805792213
 20
319.9352953064238
 30
0.0
 11
252.9396795792214
 21
319.9352953064238
 31
0.0
  0
LINE
  5
AB
330
2
100
AcDbEntity
  8
4
100
AcDbLine
 10
252.9396795792214
 20
352.3351993064239
 30
0.0
 11
252.9396795792214
 21
341.9352973064235
 31
0.0
  0
LINE
  5
AC
330
2
100
AcDbEntity
  8
4
100
AcDbLine
 10
256.9396815792212
 20
333.9352963064237
 30
0.0
 11
252.9396795792214
 21
333.9352963064237
 31
0.0
  0
LINE
  5
AD
330
2
100
AcDbEntity
  8
4
100
AcDbLine
 10
252.9396795792214
 20
341.9352973064235
 30
0.0
 11
252.9396795792214
 21
335.9352973064235
 31
0.0
  0
ARC
  5
AE
330
2
100
AcDbEntity
  8
4
100
AcDbCircle
 10
253.9396815792212
 20
352.3351993064239
 30
0.0
 40
0.999999
100
AcDbArc
 50
90.0
 51
180.0
  0
LINE
  5
AF
330
2
100
AcDbEntity
  8
4
100
AcDbLine
 10
447.4400445792213
 20
357.6792193064239
 30
0.0
 11
476.1242505792212
 21
353.3351983064233
 31
0.0
  0
LINE
  5
B0
330
2
100
AcDbEntity
  8
4
100
AcDbLine
 10
353.9396805792213
 20
360.9352963064237
 30
0.0
 11
358.9396815792212
 21
353.3351983064233
 31
0.0
  0
LINE
  5
B1
330
2
100
AcDbEntity
  8
4
100
AcDbLine
 10
335.9396805792213
 20
360.9352963064237
 30
0.0
 11
425.9396805792213
 21
360.9352963064237
 31
0.0
  0
LINE
  5
B2
330
2
100
AcDbEntity
  8
4
100
AcDbLine
 10
339.7035975792213
 20
371.9352973064235
 30
0.0
 11
422.1757635792213
 21
371.9352973064235
 31
0.0
  0
LINE
  5
B3
330
2
100
AcDbEntity
  8
4
100
AcDbLine
 10
411.9396795792214
 20
372.9352963064237
 30
0.0
 11
349.9396815792212
 21
372.9352963064237
 31
0.0
  0
LINE
  5
B4
330
2
100
AcDbEntity
  8
4
100
AcDbLine
 10
469.9396815792212
 20
358.4352973064235
 30
0.0
 11
447.4400805792212
 21
358.4352973064235
 31
0.0
  0
LINE
  5
B5
330
2
100
AcDbEntity
  8
4
100
AcDbLine
 10
285.7551105792214
 20
353.3351983064233
 30
0.0
 11
314.4393165792213
 21
357.6792193064239
 31
0.0
  0
LINE
  5
B6
330
2
100
AcDbEntity
  8
4
100
AcDbLine
 10
468.4396815792212
 20
365.9352973064235
 30
0.0
 11
443.4396795792214
 21
365.9352973064235
 31
0.0
  0
LINE
  5
B7
330
2
100
AcDbEntity
  8
4
100
AcDbLine
 10
468.4396815792212
 20
361.9352953064238
 30
0.0
 11
447.4396805792213
 21
361.9352953064238
 31
0.0
  0
LINE
  5
B8
330
2
100
AcDbEntity
  8
4
100
AcDbLine
 10
468.4396815792212
 20
359.9352973064235
 30
0.0
 11
447.4401585792212
 21
359.9352973064235
 31
0.0
  0
LINE
  5
B9
330
2
100
AcDbEntity
  8
4
100
AcDbLine
 10
468.4396815792212
 20
359.9352973064235
 30
0.0
 11
468.4396815792212
 21
365.9352973064235
 31
0.0
  0
LINE
  5
BA
330
2
100
AcDbEntity
  8
L-CENTER
100
AcDbLine
 10
455.9396805792213
 20
369.4304173064238
 30
0.0
 11
455.9396805792213
 21
349.319086306424
 31
0.0
  0
LINE
  5
BB
330
2
100
AcDbEntity
  8
4
100
AcDbLine
 10
469.9396815792212
 20
354.2718073064239
 30
0.0
 11
469.9396815792212
 21
358.4352973064235
 31
0.0
  0
LINE
  5
BC
330
2
100
AcDbEntity
  8
4
100
AcDbLine
 10
467.4396795792214
 20
358.4352973064235
 30
0.0
 11
467.4396795792214
 21
359.9352973064235
 31
0.0
  0
LINE
  5
BD
330
2
100
AcDbEntity
  8
4
100
AcDbLine
 10
462.1896795792214
 20
361.9352953064238
 30
0.0
 11
462.1896795792214
 21
365.9352973064235
 31
0.0
  0
LINE
  5
BE
330
2
100
AcDbEntity
  8
4
100
AcDbLine
 10
327.4392165792214
 20
359.6479603064236
 30
0.0
 11
335.9396805792213
 21
360.9352963064237
 31
0.0
  0
LINE
  5
BF
330
2
100
AcDbEntity
  8
4
100
AcDbLine
 10
443.4396795792214
 20
365.9352973064235
 30
0.0
 11
443.4396795792214
 21
363.3352973064236
 31
0.0
  0
LINE
  5
C0
330
2
100
AcDbEntity
  8
4
100
AcDbLine
 10
449.6896815792212
 20
361.9352953064238
 30
0.0
 11
449.6896815792212
 21
365.9352973064235
 31
0.0
  0
ARC
  5
C1
330
2
100
AcDbEntity
  8
4
100
AcDbCircle
 10
339.7035975792213
 20
370.9352953064238
 30
0.0
 40
1.000047
100
AcDbArc
 50
90.0
 51
164.742409000015
  0
LINE
  5
C2
330
2
100
AcDbEntity
  8
4
100
AcDbLine
 10
338.7387525792213
 20
371.1984793064237
 30
0.0
 11
335.9396805792213
 21
360.9352963064237
 31
0.0
  0
LINE
  5
C3
330
2
100
AcDbEntity
  8
4
100
AcDbLine
 10
349.9396815792212
 20
371.9352973064235
 30
0.0
 11
349.9396815792212
 21
372.9352963064237
 31
0.0
  0
LINE
  5
C4
330
2
100
AcDbEntity
  8
4
100
AcDbLine
 10
407.9396805792213
 20
360.9352963064237
 30
0.0
 11
402.9396795792214
 21
353.3351983064233
 31
0.0
  0
LINE
  5
C5
330
2
100
AcDbEntity
  8
4
100
AcDbLine
 10
425.9396805792213
 20
360.9352963064237
 30
0.0
 11
434.4401445792213
 21
359.6479603064236
 31
0.0
  0
LINE
  5
C6
330
2
100
AcDbEntity
  8
4
100
AcDbLine
 10
411.9396795792214
 20
372.9352963064237
 30
0.0
 11
411.9396795792214
 21
371.9352973064235
 31
0.0
  0
LINE
  5
C7
330
2
100
AcDbEntity
  8
4
100
AcDbLine
 10
423.1406085792213
 20
371.1984793064237
 30
0.0
 11
425.9396805792213
 21
360.9352963064237
 31
0.0
  0
ARC
  5
C8
330
2
100
AcDbEntity
  8
4
100
AcDbCircle
 10
422.1757635792213
 20
370.9352953064238
 30
0.0
 40
1.000047
100
AcDbArc
 50
15.25759099998502
 51
90.0
  0
LINE
  5
D0
330
2
100
AcDbEntity
  8
4
100
AcDbLine
 10
509.9396805792213
 20
319.9352953064238
 30
0.0
 11
508.9396815792212
 21
319.9352953064238
 31
0.0
  0
LINE
  5
D2
330
2
100
AcDbEntity
  8
4
100
AcDbLine
 10
508.9396815792212
 20
352.3351993064239
 30
0.0
 11
508.9396815792212
 21
341.9352973064235
 31
0.0
  0
LINE
  5
D3
330
2
100
AcDbEntity
  8
4
100
AcDbLine
 10
504.9396795792214
 20
333.9352963064237
 30
0.0
 11
508.9396815792212
 21
333.9352963064237
 31
0.0
  0
LINE
  5
D4
330
2
100
AcDbEntity
  8
4
100
AcDbLine
 10
508.9396815792212
 20
335.9352973064235
 30
0.0
 11
508.9396815792212
 21
341.9352973064235
 31
0.0
  0
ARC
  5
D5
330
2
100
AcDbEntity
  8
4
100
AcDbCircle
 10
507.9396795792214
 20
352.3351993064239
 30
0.0
 40
0.999999
100
AcDbArc
 50
0.0
 51
90.0
  0
CIRCLE
  5
DA
330
2
100
AcDbEntity
  8
4
100
AcDbCircle
 10
768.1043214991129
 20
285.9352963064237
 30
0.0
 40
36.0
  0
LINE
  5
DB
330
2
100
AcDbEntity
  8
L-CENTER
100
AcDbLine
 10
891.1043214991132
 20
378.1626251740604
 30
0.0
 11
891.1043214991132
 21
102.2824644834209
 31
0.0
  0
CIRCLE
  5
DC
330
2
100
AcDbEntity
  8
4
100
AcDbCircle
 10
768.1043214991129
 20
285.9352963064237
 30
0.0
 40
48.0
  0
ARC
  5
DD
330
2
100
AcDbEntity
  8
4
100
AcDbCircle
 10
1069.104323499113
 20
285.9352963064237
 30
0.0
 40
349.999968
100
AcDbArc
 50
173.0927989999922
 51
186.9082859999862
  0
LINE
  5
DE
330
2
100
AcDbEntity
  8
4
100
AcDbLine
 10
1022.104322499113
 20
255.9352953064238
 30
0.0
 11
1022.104322499113
 21
221.9352963064237
 31
0.0
  0
LINE
  5
DF
330
2
100
AcDbEntity
  8
4
100
AcDbLine
 10
1021.104323499113
 20
219.9352963064237
 30
0.0
 11
1021.104323499113
 21
335.9352973064235
 31
0.0
  0
LINE
  5
E0
330
2
100
AcDbEntity
  8
L-CENTER
100
AcDbLine
 10
768.1043214991129
 20
342.2690353064236
 30
0.0
 11
768.1043214991129
 21
229.6015573064237
 31
0.0
  0
LINE
  5
E1
330
2
100
AcDbEntity
  8
4
100
AcDbLine
 10
831.1043214991128
 20
217.9352953064238
 30
0.0
 11
951.1043214991132
 21
217.9352953064238
 31
0.0
  0
LINE
  5
E2
330
2
100
AcDbEntity
  8
4
100
AcDbLine
 10
926.4219504991129
 20
199.9352953064238
 30
0.0
 11
855.786695499113
 21
199.9352953064238
 31
0.0
  0
LINE
  5
E3
330
2
100
AcDbEntity
  8
4
100
AcDbLine
 10
771.1043214991129
 20
170.9352973064235
 30
0.0
 11
831.1043214991128
 21
170.9352973064235
 31
0.0
  0
LINE
  5
E4
330
2
100
AcDbEntity
  8
4
100
AcDbLine
 10
828.1043214991128
 20
200.9352973064235
 30
0.0
 11
774.1043214991129
 21
200.9352973064235
 31
0.0
  0
LINE
  5
E5
330
2
100
AcDbEntity
  8
L-CENTER
100
AcDbLine
 10
791.104322499113
 20
210.9352973064235
 30
0.0
 11
791.104322499113
 21
160.9352973064235
 31
0.0
  0
LINE
  5
E6
330
2
100
AcDbEntity
  8
4
100
AcDbLine
 10
771.1043214991129
 20
231.9409123064238
 30
0.0
 11
771.1043214991129
 21
170.9352973064235
 31
0.0
  0
ARC
  5
E7
330
2
100
AcDbEntity
  8
4
100
AcDbCircle
 10
766.1043234991131
 20
231.9409123064238
 30
0.0
 40
5.00004
100
AcDbArc
 50
0.0
 51
89.67827600000007
  0
ARC
  5
E8
330
2
100
AcDbEntity
  8
4
100
AcDbCircle
 10
768.1043214991129
 20
586.9352953064238
 30
0.0
 40
349.999938
100
AcDbArc
 50
263.0927599999997
 51
269.6779889999994
  0
ARC
  5
E9
330
2
100
AcDbEntity
  8
4
100
AcDbCircle
 10
726.608960499113
 20
244.4399353064234
 30
0.0
 40
4.999943999999999
100
AcDbArc
 50
186.9102120000095
 51
263.089788000001
  0
ARC
  5
EA
330
2
100
AcDbEntity
  8
4
100
AcDbCircle
 10
774.1043214991129
 20
197.9352973064235
 30
0.0
 40
3.0
100
AcDbArc
 50
90.0
 51
180.0
  0
LINE
  5
EB
330
2
100
AcDbEntity
  8
4
100
AcDbLine
 10
821.1043224991131
 20
239.9394463064236
 30
0.0
 11
821.1043224991131
 21
170.9352973064235
 31
0.0
  0
LINE
  5
EC
330
2
100
AcDbEntity
  8
4
100
AcDbLine
 10
831.1043214991128
 20
239.9394463064236
 30
0.0
 11
831.1043214991128
 21
170.9352973064235
 31
0.0
  0
LINE
  5
ED
330
2
100
AcDbEntity
  8
4
100
AcDbLine
 10
831.1043214991128
 20
205.9352953064238
 30
0.0
 11
852.7813254991129
 21
205.9352953064238
 31
0.0
  0
ARC
  5
EE
330
2
100
AcDbEntity
  8
4
100
AcDbCircle
 10
828.1043214991128
 20
197.9352973064235
 30
0.0
 40
3.0
100
AcDbArc
 50
0.0
 51
90.0
  0
ARC
  5
EF
330
2
100
AcDbEntity
  8
4
100
AcDbCircle
 10
818.1043224991131
 20
197.9352973064235
 30
0.0
 40
3.0
100
AcDbArc
 50
0.0
 51
90.0
  0
LINE
  5
F0
330
2
100
AcDbEntity
  8
4
100
AcDbLine
 10
853.2268794991128
 20
201.3708433064235
 30
0.0
 11
850.4375754991129
 21
205.9352953064238
 31
0.0
  0
ARC
  5
F1
330
2
100
AcDbEntity
  8
4
100
AcDbCircle
 10
855.786695499113
 20
202.9352953064238
 30
0.0
 40
3.000015
100
AcDbArc
 50
211.4315469999988
 51
270.0
  0
LINE
  5
F2
330
2
100
AcDbEntity
  8
4
100
AcDbLine
 10
845.4480714991132
 20
217.9352953064238
 30
0.0
 11
852.7813254991129
 21
205.9352953064238
 31
0.0
  0
LINE
  5
F3
330
2
100
AcDbEntity
  8
4
100
AcDbLine
 10
821.1043224991131
 20
239.9394463064236
 30
0.0
 11
831.1043214991128
 21
239.9394463064236
 31
0.0
  0
LINE
  5
F4
330
2
100
AcDbEntity
  8
4
100
AcDbLine
 10
1019.104322499113
 20
217.9352953064238
 30
0.0
 11
1013.104322499113
 21
217.9352953064238
 31
0.0
  0
LINE
  5
F5
330
2
100
AcDbEntity
  8
L-CENTER
100
AcDbLine
 10
991.104323499113
 20
210.9352973064235
 30
0.0
 11
991.104323499113
 21
160.9352973064235
 31
0.0
  0
LINE
  5
F6
330
2
100
AcDbEntity
  8
4
100
AcDbLine
 10
951.1043214991132
 20
239.9394463064236
 30
0.0
 11
951.1043214991132
 21
170.9352973064235
 31
0.0
  0
LINE
  5
F7
330
2
100
AcDbEntity
  8
4
100
AcDbLine
 10
961.104323499113
 20
239.9394463064236
 30
0.0
 11
961.104323499113
 21
170.9352973064235
 31
0.0
  0
LINE
  5
F8
330
2
100
AcDbEntity
  8
4
100
AcDbLine
 10
1011.104321499113
 20
215.9352973064235
 30
0.0
 11
1011.104321499113
 21
170.9352973064235
 31
0.0
  0
LINE
  5
F9
330
2
100
AcDbEntity
  8
4
100
AcDbLine
 10
951.1043214991132
 20
170.9352973064235
 30
0.0
 11
1011.104321499113
 21
170.9352973064235
 31
0.0
  0
ARC
  5
FA
330
2
100
AcDbEntity
  8
4
100
AcDbCircle
 10
964.104323499113
 20
197.9352973064235
 30
0.0
 40
3.0
100
AcDbArc
 50
90.0
 51
180.0
  0
LINE
  5
FB
330
2
100
AcDbEntity
  8
4
100
AcDbLine
 10
1008.104321499113
 20
200.9352973064235
 30
0.0
 11
954.1043214991132
 21
200.9352973064235
 31
0.0
  0
LINE
  5
FC
330
2
100
AcDbEntity
  8
4
100
AcDbLine
 10
951.1043214991132
 20
205.9352953064238
 30
0.0
 11
929.4268314991132
 21
205.9352953064238
 31
0.0
  0
LINE
  5
FD
330
2
100
AcDbEntity
  8
4
100
AcDbLine
 10
928.9817634991132
 20
201.3708433064235
 30
0.0
 11
931.771070499113
 21
205.9352953064238
 31
0.0
  0
ARC
  5
FE
330
2
100
AcDbEntity
  8
4
100
AcDbCircle
 10
926.4219504991129
 20
202.9352953064238
 30
0.0
 40
2.999949
100
AcDbArc
 50
270.0
 51
328.5724190000086
  0
LINE
  5
FF
330
2
100
AcDbEntity
  8
4
100
AcDbLine
 10
929.4270774991128
 20
205.9352953064238
 30
0.0
 11
936.760328499113
 21
217.9352953064238
 31
0.0
  0
ARC
  5
100
330
2
100
AcDbEntity
  8
4
100
AcDbCircle
 10
954.1043214991132
 20
197.9352973064235
 30
0.0
 40
3.0
100
AcDbArc
 50
90.0
 51
180.0
  0
LINE
  5
101
330
2
100
AcDbEntity
  8
4
100
AcDbLine
 10
951.1043214991132
 20
239.9394463064236
 30
0.0
 11
961.104323499113
 21
239.9394463064236
 31
0.0
  0
ARC
  5
102
330
2
100
AcDbEntity
  8
4
100
AcDbCircle
 10
1008.104321499113
 20
197.9352973064235
 30
0.0
 40
3.0
100
AcDbArc
 50
0.0
 51
90.0
  0
ARC
  5
103
330
2
100
AcDbEntity
  8
4
100
AcDbCircle
 10
1013.104322499113
 20
215.9352973064235
 30
0.0
 40
2.000001
100
AcDbArc
 50
90.0
 51
180.0
  0
ARC
  5
104
330
2
100
AcDbEntity
  8
4
100
AcDbCircle
 10
1019.104322499113
 20
219.9352963064237
 30
0.0
 40
2.000001
100
AcDbArc
 50
270.0
 51
0.0
  0
LINE
  5
105
330
2
100
AcDbEntity
  8
4
100
AcDbLine
 10
1024.104224499113
 20
239.6733333064237
 30
0.0
 11
1024.104224499113
 21
226.1972583064237
 31
0.0
  0
LINE
  5
106
330
2
100
AcDbEntity
  8
4
100
AcDbLine
 10
1022.104322499113
 20
221.9352963064237
 30
0.0
 11
1021.104323499113
 21
221.9352963064237
 31
0.0
  0
LINE
  5
107
330
2
100
AcDbEntity
  8
4
100
AcDbLine
 10
1022.104322499113
 20
226.3596123064237
 30
0.0
 11
1024.104224499113
 21
226.1972583064237
 31
0.0
  0
LINE
  5
108
330
2
100
AcDbEntity
  8
L-CENTER
100
AcDbLine
 10
1025.746772499113
 20
232.9352973064235
 30
0.0
 11
1013.553296499113
 21
232.9352973064235
 31
0.0
  0
LINE
  5
109
330
2
100
AcDbEntity
  8
4
100
AcDbLine
 10
1022.104322499113
 20
239.5109793064237
 30
0.0
 11
1024.104224499113
 21
239.6733333064237
 31
0.0
  0
LINE
  5
10A
330
2
100
AcDbEntity
  8
L-CENTER
100
AcDbLine
 10
711.770582499113
 20
285.9352963064237
 30
0.0
 11
1022.117505478732
 21
285.9352963064237
 31
0.0
  0
LINE
  5
10B
330
2
100
AcDbEntity
  8
4
100
AcDbLine
 10
918.1043214991132
 20
360.9352963064237
 30
0.0
 11
913.104323499113
 21
353.3351983064233
 31
0.0
  0
LINE
  5
10C
330
2
100
AcDbEntity
  8
4
100
AcDbLine
 10
761.104322499113
 20
335.9352973064235
 30
0.0
 11
1021.104323499113
 21
335.9352973064235
 31
0.0
  0
LINE
  5
10D
330
2
100
AcDbEntity
  8
4
100
AcDbLine
 10
763.1043234991131
 20
341.9352973064235
 30
0.0
 11
1019.104322499113
 21
341.9352973064235
 31
0.0
  0
LINE
  5
10E
330
2
100
AcDbEntity
  8
4
100
AcDbLine
 10
764.104322499113
 20
353.3351983064233
 30
0.0
 11
1018.104323499113
 21
353.3351983064233
 31
0.0
  0
LINE
  5
10F
330
2
100
AcDbEntity
  8
4
100
AcDbLine
 10
849.868238499113
 20
371.9352973064235
 30
0.0
 11
932.3404074991131
 21
371.9352973064235
 31
0.0
  0
LINE
  5
110
330
2
100
AcDbEntity
  8
4
100
AcDbLine
 10
846.1043214991132
 20
360.9352963064237
 30
0.0
 11
878.6043204991133
 21
360.9352963064237
 31
0.0
  0
LINE
  5
111
330
2
100
AcDbEntity
  8
4
100
AcDbLine
 10
922.104323499113
 20
372.9352963064237
 30
0.0
 11
860.1043224991131
 21
372.9352963064237
 31
0.0
  0
LINE
  5
112
330
2
100
AcDbEntity
  8
4
100
AcDbLine
 10
836.1043224991131
 20
334.9352953064238
 30
0.0
 11
768.1043214991129
 21
334.9352953064238
 31
0.0
  0
LINE
  5
113
330
2
100
AcDbEntity
  8
4
100
AcDbLine
 10
795.919751499113
 20
353.3351983064233
 30
0.0
 11
846.1043214991132
 21
360.9352963064237
 31
0.0
  0
ARC
  5
119
330
2
100
AcDbEntity
  8
4
100
AcDbCircle
 10
768.1043214991129
 20
-15.06470269357646
 30
0.0
 40
350.000013
100
AcDbArc
 50
90.0
 51
96.90832600000019
  0
ARC
  5
11A
330
2
100
AcDbEntity
  8
4
100
AcDbCircle
 10
726.608960499113
 20
327.4306573064239
 30
0.0
 40
4.999943999999999
100
AcDbArc
 50
96.91021199999904
 51
173.0897879999905
  0
LINE
  5
11B
330
2
100
AcDbEntity
  8
4
100
AcDbLine
 10
763.1043234991131
 20
352.3351993064239
 30
0.0
 11
763.1043234991131
 21
341.9352973064235
 31
0.0
  0
LINE
  5
11C
330
2
100
AcDbEntity
  8
4
100
AcDbLine
 10
761.104322499113
 20
334.8652273064233
 30
0.0
 11
761.104322499113
 21
335.9352973064235
 31
0.0
  0
LINE
  5
11D
330
2
100
AcDbEntity
  8
4
100
AcDbLine
 10
763.1043234991131
 20
335.9352973064235
 30
0.0
 11
763.1043234991131
 21
341.9352973064235
 31
0.0
  0
ARC
  5
11E
330
2
100
AcDbEntity
  8
4
100
AcDbCircle
 10
764.104322499113
 20
352.3351993064239
 30
0.0
 40
0.999999
100
AcDbArc
 50
90.0
 51
180.0
  0
LINE
  5
11F
330
2
100
AcDbEntity
  8
4
100
AcDbLine
 10
864.1043214991132
 20
360.9352963064237
 30
0.0
 11
869.1043224991131
 21
353.3351983064233
 31
0.0
  0
LINE
  5
120
330
2
100
AcDbEntity
  8
4
100
AcDbLine
 10
836.1043224991131
 20
335.9352973064235
 30
0.0
 11
836.1043224991131
 21
334.9352953064238
 31
0.0
  0
LINE
  5
121
330
2
100
AcDbEntity
  8
4
100
AcDbLine
 10
848.903393499113
 20
371.1984793064237
 30
0.0
 11
846.1043214991132
 21
360.9352963064237
 31
0.0
  0
ARC
  5
122
330
2
100
AcDbEntity
  8
4
100
AcDbCircle
 10
849.868238499113
 20
370.9352953064238
 30
0.0
 40
1.000047
100
AcDbArc
 50
90.0
 51
164.742409000015
  0
LINE
  5
123
330
2
100
AcDbEntity
  8
4
100
AcDbLine
 10
860.1043224991131
 20
371.9352973064235
 30
0.0
 11
860.1043224991131
 21
372.9352963064237
 31
0.0
  0
LINE
  5
124
330
2
100
AcDbEntity
  8
4
100
AcDbLine
 10
986.2888914991131
 20
353.3351983064233
 30
0.0
 11
936.1043214991132
 21
360.9352963064237
 31
0.0
  0
LINE
  5
125
330
2
100
AcDbEntity
  8
4
100
AcDbLine
 10
922.104323499113
 20
372.9352963064237
 30
0.0
 11
922.104323499113
 21
371.9352973064235
 31
0.0
  0
ARC
  5
126
330
2
100
AcDbEntity
  8
4
100
AcDbCircle
 10
932.3404074991131
 20
370.9352953064238
 30
0.0
 40
1.000047
100
AcDbArc
 50
15.25760599999424
 51
90.0
  0
LINE
  5
127
330
2
100
AcDbEntity
  8
4
100
AcDbLine
 10
933.305249499113
 20
371.1984793064237
 30
0.0
 11
936.1043214991132
 21
360.9352963064237
 31
0.0
  0
LINE
  5
128
330
2
100
AcDbEntity
  8
4
100
AcDbLine
 10
1023.104321499113
 20
255.9352953064238
 30
0.0
 11
1023.104321499113
 21
295.9352973064235
 31
0.0
  0
LINE
  5
129
330
2
100
AcDbEntity
  8
4
100
AcDbLine
 10
1031.604323499113
 20
290.9352963064237
 30
0.0
 11
1031.604323499113
 21
260.9352963064237
 31
0.0
  0
LINE
  5
12A
330
2
100
AcDbEntity
  8
4
100
AcDbLine
 10
1026.604322499113
 20
290.9352963064237
 30
0.0
 11
1026.604322499113
 21
260.9352963064237
 31
0.0
  0
LINE
  5
12B
330
2
100
AcDbEntity
  8
4
100
AcDbLine
 10
1024.604321499113
 20
290.9352963064237
 30
0.0
 11
1024.604321499113
 21
260.9352963064237
 31
0.0
  0
LINE
  5
12C
330
2
100
AcDbEntity
  8
4
100
AcDbLine
 10
1023.104321499113
 20
289.9352973064235
 30
0.0
 11
1023.104321499113
 21
261.9352953064238
 31
0.0
  0
LINE
  5
12D
330
2
100
AcDbEntity
  8
4
100
AcDbLine
 10
1031.604323499113
 20
260.9352963064237
 30
0.0
 11
1024.604321499113
 21
260.9352963064237
 31
0.0
  0
LINE
  5
12E
330
2
100
AcDbEntity
  8
4
100
AcDbLine
 10
1022.104322499113
 20
255.9352953064238
 30
0.0
 11
1023.104321499113
 21
255.9352953064238
 31
0.0
  0
LINE
  5
12F
330
2
100
AcDbEntity
  8
4
100
AcDbLine
 10
1024.604321499113
 20
261.9352953064238
 30
0.0
 11
1023.104321499113
 21
261.9352953064238
 31
0.0
  0
LINE
  5
130
330
2
100
AcDbEntity
  8
4
100
AcDbLine
 10
1026.604322499113
 20
268.4352963064237
 30
0.0
 11
1031.604323499113
 21
268.4352963064237
 31
0.0
  0
LINE
  5
131
330
2
100
AcDbEntity
  8
4
100
AcDbLine
 10
1024.604321499113
 20
290.9352963064237
 30
0.0
 11
1031.604323499113
 21
290.9352963064237
 31
0.0
  0
LINE
  5
132
330
2
100
AcDbEntity
  8
4
100
AcDbLine
 10
1021.104323499113
 20
295.9352973064235
 30
0.0
 11
1023.104321499113
 21
295.9352973064235
 31
0.0
  0
LINE
  5
133
330
2
100
AcDbEntity
  8
4
100
AcDbLine
 10
1024.604321499113
 20
289.9352973064235
 30
0.0
 11
1023.104321499113
 21
289.9352973064235
 31
0.0
  0
LINE
  5
134
330
2
100
AcDbEntity
  8
4
100
AcDbLine
 10
1026.604322499113
 20
283.4352963064237
 30
0.0
 11
1031.604323499113
 21
283.4352963064237
 31
0.0
  0
LINE
  5
135
330
2
100
AcDbEntity
  8
4
100
AcDbLine
 10
1019.104322499113
 20
352.3351993064239
 30
0.0
 11
1019.104322499113
 21
341.9352973064235
 31
0.0
  0
LINE
  5
136
330
2
100
AcDbEntity
  8
4
100
AcDbLine
 10
1019.104322499113
 20
341.9352973064235
 30
0.0
 11
1019.104322499113
 21
335.9352973064235
 31
0.0
  0
ARC
  5
137
330
2
100
AcDbEntity
  8
4
100
AcDbCircle
 10
1018.104323499113
 20
352.3351993064239
 30
0.0
 40
0.999999
100
AcDbArc
 50
0.0
 51
90.0
  0
TEXT
  5
141
330
2
100
AcDbEntity
  8
3
  6
Continuous
100
AcDbText
 10
612.1377642499207
 20
129.6762105004852
 30
0.0
 40
9.0
  1
LC5-03
  7
KANJI
 72
     1
 11
636.8877642499207
 21
129.6762105004852
 31
0.0
100
AcDbText
  0
LINE
  5
148
330
2
100
AcDbEntity
  8
L-CENTER
 48
0.8
100
AcDbLine
 10
1037.75716391936
 20
275.9352963064237
 30
0.0
 11
1008.853040572379
 21
275.9352963064237
 31
0.0
  0
LINE
  5
149
330
2
100
AcDbEntity
  8
4
100
AcDbLine
 10
361.9396815792212
 20
180.9352963064237
 30
0.0
 11
361.9396815792212
 21
106.9352953064238
 31
0.0
  0
LINE
  5
14A
330
2
100
AcDbEntity
  8
4
100
AcDbLine
 10
360.9396795792214
 20
198.9352963064237
 30
0.0
 11
360.9396795792214
 21
180.9352963064237
 31
0.0
  0
LINE
  5
14B
330
2
100
AcDbEntity
  8
4
100
AcDbLine
 10
400.9396815792212
 20
180.9352963064237
 30
0.0
 11
360.9396795792214
 21
180.9352963064237
 31
0.0
  0
LINE
  5
14C
330
2
100
AcDbEntity
  8
4
100
AcDbLine
 10
361.9396815792212
 20
106.9352953064238
 30
0.0
 11
375.9396795792214
 21
106.9352953064238
 31
0.0
  0
LINE
  5
14D
330
2
100
AcDbEntity
  8
4
100
AcDbLine
 10
362.9396805792213
 20
105.9352963064237
 30
0.0
 11
361.9396815792212
 21
106.9352953064238
 31
0.0
  0
LINE
  5
14E
330
2
100
AcDbEntity
  8
4
100
AcDbLine
 10
375.9396795792214
 20
170.9352973064235
 30
0.0
 11
375.9396795792214
 21
105.9352963064237
 31
0.0
  0
LINE
  5
14F
330
2
100
AcDbEntity
  8
4
100
AcDbLine
 10
385.9396815792212
 20
170.9352973064235
 30
0.0
 11
385.9396815792212
 21
105.9352963064237
 31
0.0
  0
LINE
  5
150
330
2
100
AcDbEntity
  8
4
100
AcDbLine
 10
399.9396795792214
 20
180.9352963064237
 30
0.0
 11
399.9396795792214
 21
106.9352953064238
 31
0.0
  0
ARC
  5
151
330
2
100
AcDbEntity
  8
4
100
AcDbCircle
 10
380.9396805792213
 20
170.9352973064235
 30
0.0
 40
5.000000999999999
100
AcDbArc
 50
0.0
 51
180.0
  0
LINE
  5
152
330
2
100
AcDbEntity
  8
4
100
AcDbLine
 10
385.9396815792212
 20
106.9352953064238
 30
0.0
 11
399.9396795792214
 21
106.9352953064238
 31
0.0
  0
LINE
  5
153
330
2
100
AcDbEntity
  8
4
100
AcDbLine
 10
398.9396805792213
 20
105.9352963064237
 30
0.0
 11
399.9396795792214
 21
106.9352953064238
 31
0.0
  0
LINE
  5
154
330
2
100
AcDbEntity
  8
4
100
AcDbLine
 10
362.9396805792213
 20
105.9352963064237
 30
0.0
 11
398.9396805792213
 21
105.9352963064237
 31
0.0
  0
LINE
  5
155
330
2
100
AcDbEntity
  8
4
100
AcDbLine
 10
400.9396815792212
 20
198.9352963064237
 30
0.0
 11
400.9396815792212
 21
180.9352963064237
 31
0.0
  0
LINE
  5
156
330
2
100
AcDbEntity
  8
4
100
AcDbLine
 10
411.9396795792214
 20
198.9352963064237
 30
0.0
 11
349.9396815792212
 21
198.9352963064237
 31
0.0
  0
LINE
  5
157
330
2
100
AcDbEntity
  8
4
100
AcDbLine
 10
349.9396815792212
 20
199.9352953064238
 30
0.0
 11
349.9396815792212
 21
198.9352963064237
 31
0.0
  0
LINE
  5
158
330
2
100
AcDbEntity
  8
4
100
AcDbLine
 10
411.9396795792214
 20
198.9352963064237
 30
0.0
 11
411.9396795792214
 21
199.9352953064238
 31
0.0
  0
LINE
  5
168
330
2
100
AcDbEntity
  8
4
100
AcDbLine
 10
922.104323499113
 20
198.9352963064237
 30
0.0
 11
860.1043224991131
 21
198.9352963064237
 31
0.0
  0
LINE
  5
169
330
2
100
AcDbEntity
  8
4
100
AcDbLine
 10
860.1043224991131
 20
371.9352973064235
 30
0.0
 11
860.1043224991131
 21
372.9352963064237
 31
0.0
  0
LINE
  5
16A
330
2
100
AcDbEntity
  8
4
100
AcDbLine
 10
922.104323499113
 20
198.9352963064237
 30
0.0
 11
922.104323499113
 21
199.9352953064238
 31
0.0
  0
LINE
  5
1D6
330
2
100
AcDbEntity
  8
L-CENTER
100
AcDbLine
 10
165.3961245792212
 20
615.1282406254817
 30
0.0
 11
514.4599926255423
 21
615.1282406254817
 31
0.0
  0
LINE
  5
1DD
330
2
100
AcDbEntity
  8
L-CENTER
100
AcDbLine
 10
380.9394203424259
 20
73.31719792913168
 30
0.0
 11
380.9399408160167
 21
14.47735192943719
 31
0.0
  0
ARC
  5
1DF
330
2
100
AcDbEntity
  8
4
100
AcDbCircle
 10
380.9396633424259
 20
43.89727492913198
 30
0.0
 40
19.000008
100
AcDbArc
 50
105.2582793918033
 51
74.74249200000241
  0
LINE
  5
1E0
330
2
100
AcDbEntity
  8
4
100
AcDbLine
 10
114.9728895731718
 20
295.4352973064235
 30
0.0
 11
114.9728895731718
 21
302.4352963064237
 31
0.0
  0
LINE
  5
1E1
330
2
100
AcDbEntity
  8
4
100
AcDbLine
 10
107.9728905731717
 20
302.4352963064237
 30
0.0
 11
107.9728905731717
 21
295.4352973064235
 31
0.0
  0
LINE
  5
1E2
330
2
100
AcDbEntity
  8
L-CENTER
100
AcDbLine
 10
111.4728915731718
 20
265.059319306424
 30
0.0
 11
111.4728915731718
 21
306.8112733064233
 31
0.0
  0
ARC
  5
1E4
330
2
100
AcDbEntity
  8
4
100
AcDbCircle
 10
111.4728915731718
 20
285.9352963064237
 30
0.0
 40
13.5
100
AcDbArc
 50
105.0261181535058
 51
74.97388799999806
  0
LINE
  5
1E7
330
2
100
AcDbEntity
  8
4
100
AcDbLine
 10
114.9728895731718
 20
295.4352973064235
 30
0.0
 11
107.9728905731717
 21
295.4352973064235
 31
0.0
  0
LINE
  5
1E8
330
2
100
AcDbEntity
  8
L-CENTER
100
AcDbLine
 10
132.3488685731715
 20
285.9352963064237
 30
0.0
 11
90.59691457317211
 21
285.9352963064237
 31
0.0
  0
LINE
  5
1F8
330
2
100
AcDbEntity
  8
L-CENTER
100
AcDbLine
 10
410.3595863434292
 20
43.89727492913198
 30
0.0
 11
351.5197403414226
 21
43.89727492913198
 31
0.0
  0
LINE
  5
1FF
330
2
100
AcDbEntity
  8
4
100
AcDbLine
 10
114.9728895731718
 20
302.4352963064237
 30
0.0
 11
107.9728905731717
 21
302.4352963064237
 31
0.0
  0
LINE
  5
20A
330
2
100
AcDbEntity
  8
L-CENTER
100
AcDbLine
 10
260.9396805792213
 20
366.8214136884956
 30
0.0
 11
260.9396805792213
 21
334.3538338874534
 31
0.0
  0
LINE
  5
20B
330
2
100
AcDbEntity
  8
L-CENTER
100
AcDbLine
 10
320.9396805792213
 20
366.8214136884956
 30
0.0
 11
320.9396805792213
 21
334.3538338874534
 31
0.0
  0
LINE
  5
216
330
2
100
AcDbEntity
  8
4
100
AcDbLine
 10
385.9394213424258
 20
58.3972739291321
 30
0.0
 11
385.9394213424258
 21
66.39727492913198
 31
0.0
  0
LINE
  5
217
330
2
100
AcDbEntity
  8
4
100
AcDbLine
 10
375.9394193424258
 20
66.39727492913198
 30
0.0
 11
375.9394193424258
 21
58.3972739291321
 31
0.0
  0
LINE
  5
218
330
2
100
AcDbEntity
  8
4
100
AcDbLine
 10
385.9394213424258
 20
66.39727492913198
 30
0.0
 11
375.9394193424258
 21
66.39727492913198
 31
0.0
  0
LINE
  5
219
330
2
100
AcDbEntity
  8
4
100
AcDbLine
 10
385.9394213424258
 20
58.3972739291321
 30
0.0
 11
375.9394193424258
 21
58.3972739291321
 31
0.0
  0
LINE
  5
21D
330
2
100
AcDbEntity
  8
4
100
AcDbLine
 10
251.9396815792212
 20
651.1282396254818
 30
0.0
 11
251.9396815792212
 21
579.1282416254816
 31
0.0
  0
LINE
  5
220
330
2
100
AcDbEntity
  8
4
100
AcDbLine
 10
509.9396795792214
 20
651.1282396254818
 30
0.0
 11
509.9396795792214
 21
579.1282416254816
 31
0.0
  0
LINE
  5
221
330
2
100
AcDbEntity
  8
4
100
AcDbLine
 10
505.2076297716527
 20
566.1282406254817
 30
0.0
 11
505.2076297716527
 21
664.8340992610794
 31
0.0
  0
CIRCLE
  5
222
330
2
100
AcDbEntity
  8
L-CENTER
100
AcDbCircle
 10
380.9396805792213
 20
738.1282406254817
 30
0.0
 40
120.0
  0
CIRCLE
  5
223
330
2
100
AcDbEntity
  8
4
100
AcDbCircle
 10
380.9396805792213
 20
738.1282406254817
 30
0.0
 40
128.0
  0
LINE
  5
224
330
2
100
AcDbEntity
  8
4
100
AcDbLine
 10
508.9396805792213
 20
663.1282406254817
 30
0.0
 11
508.9396805792213
 21
567.1282406254817
 31
0.0
  0
LINE
  5
225
330
2
100
AcDbEntity
  8
L-CENTER
100
AcDbLine
 10
380.9396805792213
 20
884.08865804174
 30
0.0
 11
380.9396805792213
 21
560.781709479461
 31
0.0
  0
ARC
  5
226
330
2
100
AcDbEntity
  8
4
100
AcDbCircle
 10
380.9396805792213
 20
1038.128240625482
 30
0.0
 40
430.0
100
AcDbArc
 50
257.6192010828533
 51
285.0572644549257
  0
LINE
  5
227
330
2
100
AcDbEntity
  8
4
100
AcDbLine
 10
256.6717313867899
 20
566.1282406254817
 30
0.0
 11
256.6717313867899
 21
664.8340992610794
 31
0.0
  0
LINE
  5
229
330
2
100
AcDbEntity
  8
4
100
AcDbLine
 10
252.9396805792213
 20
663.1282406254817
 30
0.0
 11
252.9396805792213
 21
567.1282406254817
 31
0.0
  0
ARC
  5
22A
330
2
100
AcDbEntity
  8
4
100
AcDbCircle
 10
380.9396805792213
 20
1038.128240625482
 30
0.0
 40
430.0
100
AcDbArc
 50
254.9427355450728
 51
257.6192010828533
  0
LINE
  5
22B
330
2
100
AcDbEntity
  8
4
100
AcDbLine
 10
256.6717313867899
 20
566.1282406254817
 30
0.0
 11
505.2076297716527
 21
566.1282406254817
 31
0.0
  0
LINE
  5
22D
330
2
100
AcDbEntity
  8
4
100
AcDbLine
 10
251.9396815792212
 20
579.1282416254816
 30
0.0
 11
252.9396805792213
 21
579.1282416254816
 31
0.0
  0
LINE
  5
22E
330
2
100
AcDbEntity
  8
4
100
AcDbLine
 10
252.9396805792213
 20
567.1282406254817
 30
0.0
 11
254.9396805792213
 21
567.1282406254817
 31
0.0
  0
ARC
  5
22F
330
2
100
AcDbEntity
  8
4
100
AcDbCircle
 10
254.9396805792213
 20
565.1282406254817
 30
0.0
 40
2.0
100
AcDbArc
 50
29.99999999999972
 51
90.0
  0
ARC
  5
230
330
2
100
AcDbEntity
  8
4
100
AcDbCircle
 10
393.4396805792213
 20
592.6282406254817
 30
0.0
 40
1.0
100
AcDbArc
 50
0.0
 51
90.0
  0
ARC
  5
231
330
2
100
AcDbEntity
  8
4
100
AcDbCircle
 10
393.4396805792213
 20
588.6282406254817
 30
0.0
 40
1.0
100
AcDbArc
 50
270.0
 51
0.0
  0
ARC
  5
232
330
2
100
AcDbEntity
  8
4
100
AcDbCircle
 10
373.4396805792213
 20
586.1282406254817
 30
0.0
 40
7.5
100
AcDbArc
 50
180.0
 51
270.0
  0
ARC
  5
233
330
2
100
AcDbEntity
  8
4
100
AcDbCircle
 10
373.4396805792213
 20
595.1282406254817
 30
0.0
 40
7.5
100
AcDbArc
 50
90.0
 51
180.0
  0
LINE
  5
234
330
2
100
AcDbEntity
  8
4
100
AcDbLine
 10
365.9396805792213
 20
586.1282406254817
 30
0.0
 11
365.9396805792213
 21
595.1282406254817
 31
0.0
  0
LINE
  5
235
330
2
100
AcDbEntity
  8
4
100
AcDbLine
 10
350.9396805792213
 20
601.6282406254817
 30
0.0
 11
350.9396805792213
 21
585.6282406254817
 31
0.0
  0
LINE
  5
236
330
2
100
AcDbEntity
  8
4
100
AcDbLine
 10
344.9396805792213
 20
601.6282406254817
 30
0.0
 11
344.9396805792213
 21
579.6282406254817
 31
0.0
  0
LINE
  5
237
330
2
100
AcDbEntity
  8
4
100
AcDbLine
 10
360.4396805792213
 20
584.6282406254817
 30
0.0
 11
351.9396805792213
 21
584.6282406254817
 31
0.0
  0
LINE
  5
238
330
2
100
AcDbEntity
  8
4
100
AcDbLine
 10
360.4396805792213
 20
578.6282406254817
 30
0.0
 11
345.9396805792213
 21
578.6282406254817
 31
0.0
  0
ARC
  5
239
330
2
100
AcDbEntity
  8
4
100
AcDbCircle
 10
351.9396805792213
 20
585.6282406254817
 30
0.0
 40
1.0
100
AcDbArc
 50
180.0
 51
270.0
  0
ARC
  5
23A
330
2
100
AcDbEntity
  8
4
100
AcDbCircle
 10
345.9396805792213
 20
579.6282406254817
 30
0.0
 40
1.0
100
AcDbArc
 50
180.0
 51
270.0
  0
ARC
  5
23B
330
2
100
AcDbEntity
  8
4
100
AcDbCircle
 10
360.4396805792213
 20
583.6282406254817
 30
0.0
 40
1.0
100
AcDbArc
 50
0.0
 51
90.0
  0
ARC
  5
23C
330
2
100
AcDbEntity
  8
4
100
AcDbCircle
 10
360.4396805792213
 20
579.6282406254817
 30
0.0
 40
1.0
100
AcDbArc
 50
270.0
 51
0.0
  0
LINE
  5
23D
330
2
100
AcDbEntity
  8
4
100
AcDbLine
 10
361.4396805792213
 20
583.6282406254817
 30
0.0
 11
361.4396805792213
 21
579.6282406254817
 31
0.0
  0
LINE
  5
23E
330
2
100
AcDbEntity
  8
4
100
AcDbLine
 10
349.9396805792213
 20
602.6282406254817
 30
0.0
 11
345.9396805792213
 21
602.6282406254817
 31
0.0
  0
ARC
  5
23F
330
2
100
AcDbEntity
  8
4
100
AcDbCircle
 10
345.9396805792213
 20
601.6282406254817
 30
0.0
 40
1.0
100
AcDbArc
 50
90.0
 51
180.0
  0
ARC
  5
240
330
2
100
AcDbEntity
  8
4
100
AcDbCircle
 10
349.9396805792213
 20
601.6282406254817
 30
0.0
 40
1.0
100
AcDbArc
 50
0.0
 51
90.0
  0
LINE
  5
241
330
2
100
AcDbEntity
  8
4
100
AcDbLine
 10
388.4396805792213
 20
592.6282406254817
 30
0.0
 11
388.4396805792213
 21
588.6282406254817
 31
0.0
  0
ARC
  5
242
330
2
100
AcDbEntity
  8
4
100
AcDbCircle
 10
380.9396805792213
 20
590.6282406254817
 30
0.0
 40
4.0
100
AcDbArc
 50
180.0
 51
269.9999999999984
  0
ARC
  5
243
330
2
100
AcDbEntity
  8
4
100
AcDbCircle
 10
376.4396805792213
 20
586.1282406254817
 30
0.0
 40
7.5
100
AcDbArc
 50
269.9999999999983
 51
355.5882742142419
  0
LINE
  5
244
330
2
100
AcDbEntity
  8
4
100
AcDbLine
 10
376.4396805792213
 20
578.6282406254817
 30
0.0
 11
373.4396805792213
 21
578.6282406254817
 31
0.0
  0
ARC
  5
245
330
2
100
AcDbEntity
  8
4
100
AcDbCircle
 10
389.4396805792213
 20
588.6282406254817
 30
0.0
 40
1.0
100
AcDbArc
 50
180.0
 51
270.0
  0
LINE
  5
246
330
2
100
AcDbEntity
  8
4
100
AcDbLine
 10
382.9204212776359
 20
586.6282406254817
 30
0.0
 11
380.9396805792213
 21
586.6282406254817
 31
0.0
  0
ARC
  5
247
330
2
100
AcDbEntity
  8
4
100
AcDbCircle
 10
382.9204212776359
 20
585.6282406254817
 30
0.0
 40
1.0
100
AcDbArc
 50
355.5882742142421
 51
89.99999999999349
  0
LINE
  5
248
330
2
100
AcDbEntity
  8
4
100
AcDbLine
 10
393.4396805792213
 20
587.6282406254817
 30
0.0
 11
389.4396805792213
 21
587.6282406254817
 31
0.0
  0
ARC
  5
249
330
2
100
AcDbEntity
  8
4
100
AcDbCircle
 10
376.4396805792213
 20
595.1282406254817
 30
0.0
 40
7.5
100
AcDbArc
 50
4.411725785758124
 51
89.99999999999827
  0
ARC
  5
24A
330
2
100
AcDbEntity
  8
4
100
AcDbCircle
 10
380.9396805792213
 20
590.6282406254817
 30
0.0
 40
4.0
100
AcDbArc
 50
89.99999999999837
 51
180.0
  0
LINE
  5
24B
330
2
100
AcDbEntity
  8
4
100
AcDbLine
 10
376.4396805792222
 20
602.6282406254817
 30
0.0
 11
373.4396805792213
 21
602.6282406254817
 31
0.0
  0
ARC
  5
24C
330
2
100
AcDbEntity
  8
4
100
AcDbCircle
 10
389.4396805792213
 20
592.6282406254817
 30
0.0
 40
1.0
100
AcDbArc
 50
90.0
 51
180.0
  0
LINE
  5
24D
330
2
100
AcDbEntity
  8
4
100
AcDbLine
 10
382.9204212776268
 20
594.6282406254817
 30
0.0
 11
380.9396805792213
 21
594.6282406254817
 31
0.0
  0
ARC
  5
24E
330
2
100
AcDbEntity
  8
4
100
AcDbCircle
 10
382.9204212776268
 20
595.6282406254817
 30
0.0
 40
1.0
100
AcDbArc
 50
269.9999999999935
 51
4.411725785757876
  0
LINE
  5
24F
330
2
100
AcDbEntity
  8
4
100
AcDbLine
 10
393.4396805792213
 20
593.6282406254817
 30
0.0
 11
389.4396805792213
 21
593.6282406254817
 31
0.0
  0
ARC
  5
250
330
2
100
AcDbEntity
  8
4
100
AcDbCircle
 10
413.9396805792222
 20
587.8187656061685
 30
0.0
 40
3.0
100
AcDbArc
 50
0.0
 51
75.5224878140737
  0
LINE
  5
251
330
2
100
AcDbEntity
  8
4
100
AcDbLine
 10
394.4396805792213
 20
592.6282406254817
 30
0.0
 11
394.4396805792213
 21
588.6282406254817
 31
0.0
  0
ARC
  5
252
330
2
100
AcDbEntity
  8
4
100
AcDbCircle
 10
398.9396805792213
 20
589.1282406254817
 30
0.0
 40
4.5
100
AcDbArc
 50
280.475681696392
 51
79.52431830360797
  0
LINE
  5
253
330
2
100
AcDbEntity
  8
4
100
AcDbLine
 10
411.9396805792222
 20
578.6282406254817
 30
0.0
 11
399.9396805792213
 21
578.6282406254817
 31
0.0
  0
LINE
  5
254
330
2
100
AcDbEntity
  8
4
100
AcDbLine
 10
398.9396805792213
 20
579.6282406254817
 30
0.0
 11
398.9396805792213
 21
583.7199137122874
 31
0.0
  0
ARC
  5
255
330
2
100
AcDbEntity
  8
4
100
AcDbCircle
 10
399.9396805792213
 20
579.6282406254817
 30
0.0
 40
1.0
100
AcDbArc
 50
180.0
 51
270.0
  0
ARC
  5
256
330
2
100
AcDbEntity
  8
4
100
AcDbCircle
 10
399.9396805792213
 20
583.7199137122874
 30
0.0
 40
1.0
100
AcDbArc
 50
100.4756816963931
 51
180.0
  0
LINE
  5
257
330
2
100
AcDbEntity
  8
4
100
AcDbLine
 10
416.9396805792222
 20
587.8187656061685
 30
0.0
 11
416.9396805792222
 21
583.6282406254817
 31
0.0
  0
ARC
  5
258
330
2
100
AcDbEntity
  8
4
100
AcDbCircle
 10
411.9396805792222
 20
583.6282406254817
 30
0.0
 40
5.0
100
AcDbArc
 50
270.0
 51
0.0
  0
LINE
  5
259
330
2
100
AcDbEntity
  8
4
100
AcDbLine
 10
415.9396805792222
 20
602.6282406254817
 30
0.0
 11
399.9396805792213
 21
602.6282406254817
 31
0.0
  0
ARC
  5
25A
330
2
100
AcDbEntity
  8
4
100
AcDbCircle
 10
399.9396805792213
 20
601.6282406254817
 30
0.0
 40
1.0
100
AcDbArc
 50
90.0
 51
180.0
  0
ARC
  5
25B
330
2
100
AcDbEntity
  8
4
100
AcDbCircle
 10
399.9396805792213
 20
594.5365675386757
 30
0.0
 40
1.0
100
AcDbArc
 50
180.0
 51
259.5243183036069
  0
LINE
  5
25C
330
2
100
AcDbEntity
  8
4
100
AcDbLine
 10
398.9396805792213
 20
601.6282406254817
 30
0.0
 11
398.9396805792213
 21
594.5365675386757
 31
0.0
  0
LINE
  5
25D
330
2
100
AcDbEntity
  8
4
100
AcDbLine
 10
416.9396805792222
 20
601.6282406254817
 30
0.0
 11
416.9396805792222
 21
597.6282406254817
 31
0.0
  0
LINE
  5
25E
330
2
100
AcDbEntity
  8
4
100
AcDbLine
 10
415.9396805792222
 20
596.6282406254817
 30
0.0
 11
415.4396805792222
 21
596.6282406254817
 31
0.0
  0
ARC
  5
25F
330
2
100
AcDbEntity
  8
4
100
AcDbCircle
 10
415.9396805792222
 20
601.6282406254817
 30
0.0
 40
1.0
100
AcDbArc
 50
0.0
 51
90.0
  0
ARC
  5
260
330
2
100
AcDbEntity
  8
4
100
AcDbCircle
 10
415.4396805792222
 20
593.6282406254817
 30
0.0
 40
3.0
100
AcDbArc
 50
90.0
 51
255.5224878140737
  0
ARC
  5
261
330
2
100
AcDbEntity
  8
4
100
AcDbCircle
 10
415.9396805792222
 20
597.6282406254817
 30
0.0
 40
1.0
100
AcDbArc
 50
270.0
 51
0.0
  0
LINE
  5
263
330
2
100
AcDbEntity
  8
4
100
AcDbLine
 10
509.9396795792214
 20
579.1282416254816
 30
0.0
 11
508.9396805792213
 21
579.1282416254816
 31
0.0
  0
ARC
  5
264
330
2
100
AcDbEntity
  8
4
100
AcDbCircle
 10
506.9396805792213
 20
565.1282406254817
 30
0.0
 40
2.0
100
AcDbArc
 50
90.0
 51
150.0000000000003
  0
LINE
  5
265
330
2
100
AcDbEntity
  8
4
100
AcDbLine
 10
508.9396805792213
 20
567.1282406254817
 30
0.0
 11
506.9396805792213
 21
567.1282406254817
 31
0.0
  0
ARC
  5
266
330
2
100
AcDbEntity
  8
4
100
AcDbCircle
 10
343.3450107682307
 20
775.7229104364724
 30
0.0
 40
5.0
100
AcDbArc
 50
97.32165913718121
 51
172.6783408628044
  0
ARC
  5
267
330
2
100
AcDbEntity
  8
4
100
AcDbCircle
 10
343.3450107682307
 20
700.5335708144911
 30
0.0
 40
5.0
100
AcDbArc
 50
187.3216591371956
 51
262.6783408628175
  0
ARC
  5
268
330
2
100
AcDbEntity
  8
4
100
AcDbCircle
 10
635.9396805792213
 20
738.1282406254817
 30
0.0
 40
297.0
100
AcDbArc
 50
173.1343562846817
 51
186.8656437153183
  0
CIRCLE
  5
269
330
2
100
AcDbEntity
  8
4
100
AcDbCircle
 10
380.9396805792213
 20
738.1282406254817
 30
0.0
 40
106.0
  0
LINE
  5
26A
330
2
100
AcDbEntity
  8
L-CENTER
100
AcDbLine
 10
240.9396805792213
 20
738.1282406254817
 30
0.0
 11
520.9396805792213
 21
738.1282406254817
 31
0.0
  0
ARC
  5
26B
330
2
100
AcDbEntity
  8
4
100
AcDbCircle
 10
380.9396805792213
 20
438.1282406254817
 30
0.0
 40
430.0
100
AcDbArc
 50
74.94273554507274
 51
102.3807989171467
  0
ARC
  5
26C
330
2
100
AcDbEntity
  8
4
100
AcDbCircle
 10
680.9396805792209
 20
738.1282406254817
 30
0.0
 40
430.0
100
AcDbArc
 50
164.9427355450779
 51
171.9790671247573
  0
CIRCLE
  5
26D
330
2
100
AcDbEntity
  8
4
100
AcDbCircle
 10
230.9396805792218
 20
838.1282406254818
 30
0.0
 40
9.0
  0
LINE
  5
26E
330
2
100
AcDbEntity
  8
4
100
AcDbLine
 10
205.9396805792213
 20
853.1282406254818
 30
0.0
 11
205.9396805792209
 21
813.0315398459225
 31
0.0
  0
LINE
  5
26F
330
2
100
AcDbEntity
  8
4
100
AcDbLine
 10
205.9396805792218
 20
853.1282406254818
 30
0.0
 11
205.9396805792218
 21
812.214323309182
 31
0.0
  0
LINE
  5
270
330
2
100
AcDbEntity
  8
4
100
AcDbLine
 10
205.9396805792209
 20
853.1282406254818
 30
0.0
 11
205.9396805792209
 21
813.0315398459225
 31
0.0
  0
LINE
  5
271
330
2
100
AcDbEntity
  8
L-CENTER
100
AcDbLine
 10
230.9396805792218
 20
856.3298815184557
 30
0.0
 11
230.9396805792218
 21
819.9265997325078
 31
0.0
  0
LINE
  5
272
330
2
100
AcDbEntity
  8
L-CENTER
100
AcDbLine
 10
249.1413214721958
 20
838.1282406254818
 30
0.0
 11
212.7380396862477
 21
838.1282406254818
 31
0.0
  0
LINE
  5
273
330
2
100
AcDbEntity
  8
4
100
AcDbLine
 10
255.1463034583454
 20
798.1282406254818
 30
0.0
 11
210.7447581852699
 21
807.1517302850234
 31
0.0
  0
LINE
  5
274
330
2
100
AcDbEntity
  8
L-CENTER
100
AcDbLine
 10
249.1413214721954
 20
638.1282406254819
 30
0.0
 11
212.7380396862472
 21
638.1282406254819
 31
0.0
  0
LINE
  5
276
330
2
100
AcDbEntity
  8
4
100
AcDbLine
 10
255.1463034583454
 20
678.1282406254819
 30
0.0
 11
210.7447581852695
 21
669.1047509659401
 31
0.0
  0
ARC
  5
278
330
2
100
AcDbEntity
  8
4
100
AcDbCircle
 10
211.9396805792209
 20
663.2249414050417
 30
0.0
 40
6.0
100
AcDbArc
 50
101.4874759734291
 51
180.0
  0
ARC
  5
279
330
2
100
AcDbEntity
  8
4
100
AcDbCircle
 10
211.9396805792209
 20
813.0315398459225
 30
0.0
 40
6.0
100
AcDbArc
 50
180.0
 51
258.5125240265712
  0
LWPOLYLINE
  5
27A
330
2
100
AcDbEntity
  8
4
100
AcDbPolyline
 90
        6
 70
     1
 43
0.0
 10
468.4397150528122
 20
738.1282406254817
 10
462.1897150528122
 20
748.9535581727873
 10
449.6897150528122
 20
748.9535581727873
 10
443.4397150528122
 20
738.1282406254817
 10
449.6897150528122
 20
727.3029230781761
 10
462.1897150528122
 20
727.3029230781761
  0
CIRCLE
  5
27B
330
2
100
AcDbEntity
  8
4
100
AcDbCircle
 10
455.9397150528122
 20
738.1282406254817
 30
0.0
 40
12.5
  0
CIRCLE
  5
27C
330
2
100
AcDbEntity
  8
4
100
AcDbCircle
 10
455.9397150528122
 20
738.1282406254817
 30
0.0
 40
14.0
  0
LINE
  5
27D
330
2
100
AcDbEntity
  8
L-CENTER
 48
6.0
100
AcDbLine
 10
455.9397150528121
 20
715.7137686883938
 30
0.0
 11
455.9397150528122
 21
760.5427125625697
 31
0.0
  0
ARC
  5
27E
330
2
100
AcDbEntity
  8
4
100
AcDbCircle
 10
635.9396805792213
 20
738.1282406254817
 30
0.0
 40
300.0
100
AcDbArc
 50
173.1343562846817
 51
187.2931236759487
  0
ARC
  5
27F
330
2
100
AcDbEntity
  8
4
100
AcDbCircle
 10
680.9396805792209
 20
738.1282406254817
 30
0.0
 40
430.0
100
AcDbArc
 50
171.9790671247573
 51
188.0209328752427
  0
LINE
  5
280
330
2
100
AcDbEntity
  8
4
100
AcDbLine
 10
331.3541748412659
 20
711.6125539156877
 30
0.0
 11
281.3529313081541
 21
715.7856310117994
 31
0.0
  0
ARC
  5
281
330
2
100
AcDbEntity
  8
4
100
AcDbCircle
 10
680.9396805792209
 20
738.1282406254817
 30
0.0
 40
430.0
100
AcDbArc
 50
188.0209328752427
 51
195.0572644549221
  0
LINE
  5
282
330
2
100
AcDbEntity
  8
L-CENTER
100
AcDbLine
 10
230.9396805792213
 20
619.9265997325078
 30
0.0
 11
230.9396805792213
 21
656.3298815184561
 31
0.0
  0
LINE
  5
283
330
2
100
AcDbEntity
  8
4
100
AcDbLine
 10
251.9396815792212
 20
651.1282396254818
 30
0.0
 11
252.9396805792213
 21
651.1282396254818
 31
0.0
  0
ARC
  5
284
330
2
100
AcDbEntity
  8
4
100
AcDbCircle
 10
253.9396805792213
 20
666.1282406254817
 30
0.0
 40
3.0
100
AcDbArc
 50
270.0
 51
0.0
  0
LINE
  5
285
330
2
100
AcDbEntity
  8
4
100
AcDbLine
 10
252.9396805792213
 20
663.1282406254817
 30
0.0
 11
253.9396805792213
 21
663.1282406254817
 31
0.0
  0
ARC
  5
286
330
2
100
AcDbEntity
  8
4
100
AcDbCircle
 10
270.5313473792254
 20
627.7199074254858
 30
0.0
 40
5.0
100
AcDbArc
 50
195.0572644549223
 51
254.9427355450744
  0
ARC
  5
287
330
2
100
AcDbEntity
  8
4
100
AcDbCircle
 10
281.1034203834819
 20
712.7960249677743
 30
0.0
 40
3.0
100
AcDbArc
 50
85.22918134215882
 51
194.2376186689512
  0
ARC
  5
288
330
2
100
AcDbEntity
  8
4
100
AcDbCircle
 10
635.9396805792213
 20
738.1282406254817
 30
0.0
 40
300.0
100
AcDbArc
 50
186.2630117061209
 51
186.8656437153183
  0
ARC
  5
289
330
2
100
AcDbEntity
  8
4
100
AcDbCircle
 10
330.7719826836968
 20
704.6368064796296
 30
0.0
 40
7.0
100
AcDbArc
 50
6.263011706120841
 51
85.22918134215949
  0
LINE
  5
28A
330
2
100
AcDbEntity
  8
4
100
AcDbLine
 10
281.3529313081541
 20
760.4708502391645
 30
0.0
 11
331.3541748412659
 21
764.6439273352762
 31
0.0
  0
ARC
  5
28B
330
2
100
AcDbEntity
  8
4
100
AcDbCircle
 10
281.1034203834819
 20
763.4604562831892
 30
0.0
 40
3.0
100
AcDbArc
 50
165.7623813310488
 51
274.7708186578414
  0
ARC
  5
28C
330
2
100
AcDbEntity
  8
4
100
AcDbCircle
 10
635.9396805792213
 20
738.1282406254817
 30
0.0
 40
300.0
100
AcDbArc
 50
172.6783408628042
 51
173.7369882938791
  0
ARC
  5
28D
330
2
100
AcDbEntity
  8
4
100
AcDbCircle
 10
330.771982683697
 20
771.6196747713338
 30
0.0
 40
7.0
100
AcDbArc
 50
274.7708186578405
 51
353.7369882938792
  0
LINE
  5
28E
330
2
100
AcDbEntity
  8
4
100
AcDbLine
 10
210.9396805792213
 20
858.1282406254818
 30
0.0
 11
288.7442360062925
 21
858.1282406254818
 31
0.0
  0
LINE
  5
28F
330
2
100
AcDbEntity
  8
4
100
AcDbLine
 10
210.9396805792218
 20
858.1282406254818
 30
0.0
 11
288.7442360062929
 21
858.1282406254818
 31
0.0
  0
LINE
  5
290
330
2
100
AcDbEntity
  8
4
100
AcDbLine
 10
210.9396805792209
 20
858.1282406254818
 30
0.0
 11
288.7442360062925
 21
858.1282406254818
 31
0.0
  0
ARC
  5
291
330
2
100
AcDbEntity
  8
4
100
AcDbCircle
 10
210.9396805792213
 20
853.1282406254818
 30
0.0
 40
5.0
100
AcDbArc
 50
90.0
 51
180.0
  0
ARC
  5
292
330
2
100
AcDbEntity
  8
4
100
AcDbCircle
 10
210.9396805792218
 20
853.1282406254818
 30
0.0
 40
5.0
100
AcDbArc
 50
90.0
 51
180.0
  0
ARC
  5
293
330
2
100
AcDbEntity
  8
4
100
AcDbCircle
 10
210.9396805792209
 20
853.1282406254818
 30
0.0
 40
5.0
100
AcDbArc
 50
90.0
 51
180.0
  0
ARC
  5
294
330
2
100
AcDbEntity
  8
4
100
AcDbCircle
 10
380.9396805792213
 20
438.1282406254817
 30
0.0
 40
430.0
100
AcDbArc
 50
102.3807989171467
 51
105.0572644549257
  0
ARC
  5
295
330
2
100
AcDbEntity
  8
4
100
AcDbCircle
 10
270.5313473792254
 20
848.5365738254773
 30
0.0
 40
5.0
100
AcDbArc
 50
105.0572644549291
 51
164.9427355450777
  0
LINE
  5
296
330
2
100
AcDbEntity
  8
L-CENTER
100
AcDbLine
 10
530.9396805792209
 20
856.3298815184557
 30
0.0
 11
530.9396805792209
 21
819.9265997325078
 31
0.0
  0
LINE
  5
297
330
2
100
AcDbEntity
  8
4
100
AcDbLine
 10
555.9396805792218
 20
853.1282406254818
 30
0.0
 11
555.9396805792218
 21
813.0315398459225
 31
0.0
  0
LINE
  5
298
330
2
100
AcDbEntity
  8
4
100
AcDbLine
 10
555.9396805792209
 20
853.1282406254818
 30
0.0
 11
555.9396805792209
 21
812.214323309182
 31
0.0
  0
LINE
  5
299
330
2
100
AcDbEntity
  8
4
100
AcDbLine
 10
555.9396805792213
 20
853.1282406254818
 30
0.0
 11
555.9396805792218
 21
813.0315398459225
 31
0.0
  0
CIRCLE
  5
29A
330
2
100
AcDbEntity
  8
4
100
AcDbCircle
 10
530.9396805792209
 20
838.1282406254818
 30
0.0
 40
9.0
  0
ARC
  5
29B
330
2
100
AcDbEntity
  8
4
100
AcDbCircle
 10
80.93968057922177
 20
738.1282406254817
 30
0.0
 40
430.0
100
AcDbArc
 50
8.020932875242625
 51
15.05726445492215
  0
LINE
  5
29C
330
2
100
AcDbEntity
  8
4
100
AcDbLine
 10
480.5264298502885
 20
715.785631011799
 30
0.0
 11
430.5251863171767
 21
711.6125539156877
 31
0.0
  0
LINE
  5
29D
330
2
100
AcDbEntity
  8
4
100
AcDbLine
 10
480.5264298502885
 20
760.4708502391645
 30
0.0
 11
430.5251863171769
 21
764.6439273352762
 31
0.0
  0
ARC
  5
29E
330
2
100
AcDbEntity
  8
4
100
AcDbCircle
 10
125.9396805792213
 20
738.1282406254817
 30
0.0
 40
300.0
100
AcDbArc
 50
352.7572889055028
 51
6.865643715318248
  0
ARC
  5
29F
330
2
100
AcDbEntity
  8
4
100
AcDbCircle
 10
125.9396805792213
 20
738.1282406254817
 30
0.0
 40
297.0
100
AcDbArc
 50
353.1343562846818
 51
6.865643715318248
  0
CIRCLE
  5
2A0
330
2
100
AcDbEntity
  8
4
100
AcDbCircle
 10
380.9396805792213
 20
738.1282406254817
 30
0.0
 40
31.0
  0
ARC
  5
2A1
330
2
100
AcDbEntity
  8
4
100
AcDbCircle
 10
380.9396805792213
 20
993.1282406254818
 30
0.0
 40
300.0
100
AcDbArc
 50
263.1343562846719
 51
277.3180293403332
  0
ARC
  5
2A2
330
2
100
AcDbEntity
  8
4
100
AcDbCircle
 10
380.9396805792213
 20
993.1282406254818
 30
0.0
 40
297.0
100
AcDbArc
 50
263.1343562846719
 51
276.8656437153265
  0
LINE
  5
2A3
330
2
100
AcDbEntity
  8
4
100
AcDbLine
 10
358.5970709655388
 20
638.5414913544145
 30
0.0
 11
354.4239938694271
 21
688.5427348875263
 31
0.0
  0
ARC
  5
2A4
330
2
100
AcDbEntity
  8
4
100
AcDbCircle
 10
355.607464921514
 20
638.291980429742
 30
0.0
 40
3.0
100
AcDbArc
 50
255.762381331052
 51
4.770818657832607
  0
ARC
  5
2A5
330
2
100
AcDbEntity
  8
4
100
AcDbCircle
 10
347.4482464333695
 20
687.9605427299574
 30
0.0
 40
7.0
100
AcDbArc
 50
4.770818657832607
 51
83.73698829386932
  0
ARC
  5
2A6
330
2
100
AcDbEntity
  8
4
100
AcDbCircle
 10
380.9396805792213
 20
993.1282406254818
 30
0.0
 40
300.0
100
AcDbArc
 50
262.6783408628191
 51
263.7369882938693
  0
ARC
  5
2A7
330
2
100
AcDbEntity
  8
4
100
AcDbCircle
 10
346.0335538474998
 20
703.2221138937601
 30
0.0
 40
5.0
100
AcDbArc
 50
186.8656437153183
 51
263.1343562846751
  0
LINE
  5
2A8
330
2
100
AcDbEntity
  8
4
100
AcDbLine
 10
403.282290192904
 20
638.5414913544145
 30
0.0
 11
407.4553672890155
 21
688.5427348875263
 31
0.0
  0
ARC
  5
2A9
330
2
100
AcDbEntity
  8
4
100
AcDbCircle
 10
406.2718962369287
 20
638.291980429742
 30
0.0
 40
3.0
100
AcDbArc
 50
175.2291813421674
 51
284.237618668947
  0
ARC
  5
2AA
330
2
100
AcDbEntity
  8
4
100
AcDbCircle
 10
418.5343503902119
 20
700.5335708144911
 30
0.0
 40
5.0
100
AcDbArc
 50
277.3216591371812
 51
352.6783408628044
  0
ARC
  5
2AB
330
2
100
AcDbEntity
  8
4
100
AcDbCircle
 10
415.8458073109429
 20
703.2221138937601
 30
0.0
 40
5.0
100
AcDbArc
 50
276.8656437153262
 51
353.1343562846816
  0
ARC
  5
2AC
330
2
100
AcDbEntity
  8
4
100
AcDbCircle
 10
414.4311147250731
 20
687.9605427299574
 30
0.0
 40
7.0
100
AcDbArc
 50
96.26301170613068
 51
175.2291813421674
  0
ARC
  5
2AD
330
2
100
AcDbEntity
  8
4
100
AcDbCircle
 10
380.9396805792213
 20
993.1282406254818
 30
0.0
 40
300.0
100
AcDbArc
 50
276.2630117061306
 51
276.8656437153265
  0
ARC
  5
2AE
330
2
100
AcDbEntity
  8
4
100
AcDbCircle
 10
125.9396805792213
 20
738.1282406254817
 30
0.0
 40
300.0
100
AcDbArc
 50
353.1343562846815
 51
353.7369882938791
  0
ARC
  5
2AF
330
2
100
AcDbEntity
  8
4
100
AcDbCircle
 10
431.1073784747456
 20
704.6368064796296
 30
0.0
 40
7.0
100
AcDbArc
 50
94.7708186578405
 51
173.7369882938792
  0
ARC
  5
2B0
330
2
100
AcDbEntity
  8
4
100
AcDbCircle
 10
380.9396805792213
 20
483.1282406254821
 30
0.0
 40
300.0
100
AcDbArc
 50
82.56950389143586
 51
96.86564371532818
  0
ARC
  5
2B1
330
2
100
AcDbEntity
  8
4
100
AcDbCircle
 10
380.9396805792213
 20
483.1282406254821
 30
0.0
 40
297.0
100
AcDbArc
 50
83.13435628467184
 51
96.86564371532818
  0
LINE
  5
2B2
330
2
100
AcDbEntity
  8
4
100
AcDbLine
 10
358.5970709655388
 20
837.714989896549
 30
0.0
 11
354.4239938694271
 21
787.7137463634372
 31
0.0
  0
ARC
  5
2B3
330
2
100
AcDbEntity
  8
4
100
AcDbCircle
 10
347.4482464333695
 20
788.2959385210061
 30
0.0
 40
7.0
100
AcDbArc
 50
276.2630117061307
 51
355.2291813421674
  0
ARC
  5
2B4
330
2
100
AcDbEntity
  8
4
100
AcDbCircle
 10
380.9396805792213
 20
483.1282406254821
 30
0.0
 40
300.0
100
AcDbArc
 50
96.26301170613064
 51
97.32165913718083
  0
ARC
  5
2B5
330
2
100
AcDbEntity
  8
4
100
AcDbCircle
 10
346.0335538474998
 20
773.0343673572033
 30
0.0
 40
5.0
100
AcDbArc
 50
96.86564371532637
 51
173.1343562846816
  0
ARC
  5
2B6
330
2
100
AcDbEntity
  8
4
100
AcDbCircle
 10
355.607464921514
 20
837.9645008212215
 30
0.0
 40
3.0
100
AcDbArc
 50
355.2291813421674
 51
104.237618668947
  0
LINE
  5
2B7
330
2
100
AcDbEntity
  8
4
100
AcDbLine
 10
403.282290192904
 20
837.714989896549
 30
0.0
 11
407.4553672890155
 21
787.7137463634372
 31
0.0
  0
ARC
  5
2B8
330
2
100
AcDbEntity
  8
4
100
AcDbCircle
 10
418.5343503902119
 20
775.7229104364724
 30
0.0
 40
5.0
100
AcDbArc
 50
7.321659137169341
 51
82.67834086281815
  0
ARC
  5
2B9
330
2
100
AcDbEntity
  8
4
100
AcDbCircle
 10
415.8458073109429
 20
773.0343673572033
 30
0.0
 40
5.0
100
AcDbArc
 50
6.865643715318355
 51
83.1343562846717
  0
ARC
  5
2BA
330
2
100
AcDbEntity
  8
4
100
AcDbCircle
 10
414.4311147250731
 20
788.2959385210061
 30
0.0
 40
7.0
100
AcDbArc
 50
184.7708186578326
 51
263.7369882938693
  0
ARC
  5
2BB
330
2
100
AcDbEntity
  8
4
100
AcDbCircle
 10
380.9396805792213
 20
483.1282406254821
 30
0.0
 40
300.0
100
AcDbArc
 50
83.13435628467182
 51
83.73698829386936
  0
ARC
  5
2BC
330
2
100
AcDbEntity
  8
4
100
AcDbCircle
 10
125.9396805792213
 20
738.1282406254817
 30
0.0
 40
300.0
100
AcDbArc
 50
6.263011706120957
 51
7.321659137195747
  0
ARC
  5
2BD
330
2
100
AcDbEntity
  8
4
100
AcDbCircle
 10
431.1073784747458
 20
771.6196747713338
 30
0.0
 40
7.0
100
AcDbArc
 50
186.2630117061209
 51
265.2291813421595
  0
ARC
  5
2BE
330
2
100
AcDbEntity
  8
4
100
AcDbCircle
 10
406.2718962369287
 20
837.9645008212215
 30
0.0
 40
3.0
100
AcDbArc
 50
75.76238133105304
 51
184.7708186578326
  0
CIRCLE
  5
2BF
330
2
100
AcDbEntity
  8
4
100
AcDbCircle
 10
500.9396805792213
 20
738.1282406254817
 30
0.0
 40
6.5
  0
ARC
  5
2C2
330
2
100
AcDbEntity
  8
4
100
AcDbCircle
 10
80.93968057922177
 20
738.1282406254817
 30
0.0
 40
430.0
100
AcDbArc
 50
351.9790671247573
 51
8.020932875242625
  0
ARC
  5
2C3
330
2
100
AcDbEntity
  8
4
100
AcDbCircle
 10
80.93968057922177
 20
738.1282406254817
 30
0.0
 40
430.0
100
AcDbArc
 50
344.9427355450778
 51
351.9790671247573
  0
ARC
  5
2C4
330
2
100
AcDbEntity
  8
4
100
AcDbCircle
 10
491.3480137792172
 20
627.7199074254858
 30
0.0
 40
5.0
100
AcDbArc
 50
285.0572644549256
 51
344.9427355450777
  0
ARC
  5
2C5
330
2
100
AcDbEntity
  8
4
100
AcDbCircle
 10
480.775940774961
 20
712.7960249677743
 30
0.0
 40
3.0
100
AcDbArc
 50
345.7623813310488
 51
94.77081865784011
  0
LINE
  5
2C6
330
2
100
AcDbEntity
  8
4
100
AcDbLine
 10
506.7330577000972
 20
678.1282406254819
 30
0.0
 11
551.1346029731732
 21
669.1047509659401
 31
0.0
  0
LINE
  5
2C9
330
2
100
AcDbEntity
  8
L-CENTER
100
AcDbLine
 10
512.7380396862472
 20
638.1282406254819
 30
0.0
 11
549.1413214721954
 21
638.1282406254819
 31
0.0
  0
LINE
  5
2CA
330
2
100
AcDbEntity
  8
4
100
AcDbLine
 10
509.9396795792214
 20
651.1282396254818
 30
0.0
 11
508.9396805792213
 21
651.1282396254818
 31
0.0
  0
LINE
  5
2CB
330
2
100
AcDbEntity
  8
4
100
AcDbLine
 10
508.9396805792213
 20
663.1282406254817
 30
0.0
 11
507.9396805792213
 21
663.1282406254817
 31
0.0
  0
ARC
  5
2CC
330
2
100
AcDbEntity
  8
4
100
AcDbCircle
 10
507.9396805792213
 20
666.1282406254817
 30
0.0
 40
3.0
100
AcDbArc
 50
180.0
 51
270.0
  0
LINE
  5
2CD
330
2
100
AcDbEntity
  8
4
100
AcDbLine
 10
555.9396805792218
 20
663.2249414050417
 30
0.0
 11
555.9396805792218
 21
623.1282406254817
 31
0.0
  0
LINE
  5
2CE
330
2
100
AcDbEntity
  8
L-CENTER
100
AcDbLine
 10
530.9396805792213
 20
619.9265997325078
 30
0.0
 11
530.9396805792213
 21
656.3298815184561
 31
0.0
  0
ARC
  5
2CF
330
2
100
AcDbEntity
  8
4
100
AcDbCircle
 10
549.9396805792218
 20
663.2249414050417
 30
0.0
 40
6.0
100
AcDbArc
 50
0.0
 51
78.51252402656986
  0
ARC
  5
2D1
330
2
100
AcDbEntity
  8
4
100
AcDbCircle
 10
480.7759407749608
 20
763.4604562831892
 30
0.0
 40
3.0
100
AcDbArc
 50
265.2291813421597
 51
14.23761866895119
  0
LINE
  5
2D5
330
2
100
AcDbEntity
  8
L-CENTER
100
AcDbLine
 10
512.7380396862468
 20
838.1282406254818
 30
0.0
 11
549.1413214721949
 21
838.1282406254818
 31
0.0
  0
LINE
  5
2D6
330
2
100
AcDbEntity
  8
4
100
AcDbLine
 10
506.7330577000972
 20
798.1282406254818
 30
0.0
 11
551.1346029731727
 21
807.1517302850234
 31
0.0
  0
ARC
  5
2D7
330
2
100
AcDbEntity
  8
4
100
AcDbCircle
 10
549.9396805792218
 20
813.0315398459225
 30
0.0
 40
6.0
100
AcDbArc
 50
281.4874759734278
 51
0.0
  0
LINE
  5
2D8
330
2
100
AcDbEntity
  8
4
100
AcDbLine
 10
366.9396795792214
 20
870.1282406254818
 30
0.0
 11
394.9396815792212
 21
870.1282406254818
 31
0.0
  0
LINE
  5
2D9
330
2
100
AcDbEntity
  8
4
100
AcDbLine
 10
361.9396805792213
 20
870.1282406254818
 30
0.0
 11
399.9396805792213
 21
870.1282406254818
 31
0.0
  0
LINE
  5
2DA
330
2
100
AcDbEntity
  8
4
100
AcDbLine
 10
361.9396805792213
 20
870.1282406254818
 30
0.0
 11
361.9396805792213
 21
868.6639534298902
 31
0.0
  0
ARC
  5
2DB
330
2
100
AcDbEntity
  8
4
100
AcDbCircle
 10
360.9396805792213
 20
868.6639534298902
 30
0.0
 40
1.0
100
AcDbArc
 50
272.6596919724801
 51
0.0
  0
LINE
  5
2DC
330
2
100
AcDbEntity
  8
4
100
AcDbLine
 10
399.9396805792213
 20
870.1282406254818
 30
0.0
 11
399.9396805792213
 21
868.6639534298902
 31
0.0
  0
ARC
  5
2DD
330
2
100
AcDbEntity
  8
4
100
AcDbCircle
 10
400.9396805792213
 20
868.6639534298902
 30
0.0
 40
1.0
100
AcDbArc
 50
180.0
 51
267.3403080275264
  0
LINE
  5
2DE
330
2
100
AcDbEntity
  8
4
100
AcDbLine
 10
550.9396805792218
 20
858.1282406254818
 30
0.0
 11
473.1351251521502
 21
858.1282406254818
 31
0.0
  0
LINE
  5
2DF
330
2
100
AcDbEntity
  8
4
100
AcDbLine
 10
550.9396805792209
 20
858.1282406254818
 30
0.0
 11
473.1351251521497
 21
858.1282406254818
 31
0.0
  0
LINE
  5
2E0
330
2
100
AcDbEntity
  8
4
100
AcDbLine
 10
550.9396805792213
 20
858.1282406254818
 30
0.0
 11
473.1351251521502
 21
858.1282406254818
 31
0.0
  0
ARC
  5
2E1
330
2
100
AcDbEntity
  8
4
100
AcDbCircle
 10
491.3480137792172
 20
848.5365738254773
 30
0.0
 40
5.0
100
AcDbArc
 50
15.05726445492235
 51
74.94273554507086
  0
ARC
  5
2E2
330
2
100
AcDbEntity
  8
4
100
AcDbCircle
 10
550.9396805792218
 20
853.1282406254818
 30
0.0
 40
5.0
100
AcDbArc
 50
0.0
 51
90.0
  0
ARC
  5
2E3
330
2
100
AcDbEntity
  8
4
100
AcDbCircle
 10
550.9396805792209
 20
853.1282406254818
 30
0.0
 40
5.0
100
AcDbArc
 50
0.0
 51
90.0
  0
ARC
  5
2E4
330
2
100
AcDbEntity
  8
4
100
AcDbCircle
 10
550.9396805792213
 20
853.1282406254818
 30
0.0
 40
5.0
100
AcDbArc
 50
0.0
 51
90.0
  0
LINE
  5
2EA
330
2
100
AcDbEntity
  8
4
100
AcDbLine
 10
393.930061635988
 20
878.6282406254818
 30
0.0
 11
367.9492995224547
 21
878.6282406254818
 31
0.0
  0
LINE
  5
2EB
330
2
100
AcDbEntity
  8
4
100
AcDbLine
 10
394.9396805792213
 20
870.1282406254818
 30
0.0
 11
366.9396805792213
 21
870.1282406254818
 31
0.0
  0
LINE
  5
2EC
330
2
100
AcDbEntity
  8
4
100
AcDbLine
 10
395.9396805792213
 20
873.6282406254818
 30
0.0
 11
365.9396805792213
 21
873.6282406254818
 31
0.0
  0
LINE
  5
2ED
330
2
100
AcDbEntity
  8
4
100
AcDbLine
 10
395.9396805792213
 20
871.6282406254818
 30
0.0
 11
365.9396805792213
 21
871.6282406254818
 31
0.0
  0
LINE
  5
2EE
330
2
100
AcDbEntity
  8
4
100
AcDbLine
 10
365.9396805792213
 20
873.6282406254818
 30
0.0
 11
365.9396805792213
 21
871.6282406254818
 31
0.0
  0
LINE
  5
2EF
330
2
100
AcDbEntity
  8
4
100
AcDbLine
 10
366.9396805792213
 20
871.6282406254818
 30
0.0
 11
366.9396805792213
 21
870.1282406254818
 31
0.0
  0
LINE
  5
2F0
330
2
100
AcDbEntity
  8
4
100
AcDbLine
 10
367.9492995224547
 20
878.6282406254818
 30
0.0
 11
367.9492995224547
 21
873.6282406254818
 31
0.0
  0
LINE
  5
2F1
330
2
100
AcDbEntity
  8
4
100
AcDbLine
 10
395.9396805792213
 20
871.6282406254818
 30
0.0
 11
395.9396805792213
 21
873.6282406254818
 31
0.0
  0
LINE
  5
2F2
330
2
100
AcDbEntity
  8
4
100
AcDbLine
 10
394.9396805792213
 20
871.6282406254818
 30
0.0
 11
394.9396805792213
 21
870.1282406254818
 31
0.0
  0
LINE
  5
2F3
330
2
100
AcDbEntity
  8
4
100
AcDbLine
 10
393.930061635988
 20
878.6282406254818
 30
0.0
 11
393.930061635988
 21
873.6282406254818
 31
0.0
  0
LINE
  5
2F4
330
2
100
AcDbEntity
  8
4
100
AcDbLine
 10
268.1896805792213
 20
355.3352973064236
 30
0.0
 11
253.6896805792213
 21
355.3352973064236
 31
0.0
  0
LINE
  5
2F5
330
2
100
AcDbEntity
  8
4
100
AcDbLine
 10
268.1896805792213
 20
355.3352973064236
 30
0.0
 11
268.1896805792213
 21
353.3352973064236
 31
0.0
  0
LINE
  5
2F6
330
2
100
AcDbEntity
  8
4
100
AcDbLine
 10
253.6896805792213
 20
355.3352973064236
 30
0.0
 11
253.6896805792213
 21
353.3352973064236
 31
0.0
  0
LINE
  5
2F7
330
2
100
AcDbEntity
  8
4
100
AcDbLine
 10
267.4396805792213
 20
363.3352973064236
 30
0.0
 11
254.4396805792213
 21
363.3352973064236
 31
0.0
  0
LINE
  5
2F8
330
2
100
AcDbEntity
  8
4
100
AcDbLine
 10
267.4396805792213
 20
363.3352973064236
 30
0.0
 11
267.4396805792213
 21
355.3352973064236
 31
0.0
  0
LINE
  5
2F9
330
2
100
AcDbEntity
  8
4
100
AcDbLine
 10
254.4396805792213
 20
363.3352973064236
 30
0.0
 11
254.4396805792213
 21
355.3352973064236
 31
0.0
  0
LINE
  5
2FA
330
2
100
AcDbEntity
  8
4
100
AcDbLine
 10
328.1896805792213
 20
355.3352973064236
 30
0.0
 11
313.6896805792211
 21
355.3352973064236
 31
0.0
  0
LINE
  5
2FB
330
2
100
AcDbEntity
  8
4
100
AcDbLine
 10
327.4396805792213
 20
363.3352973064236
 30
0.0
 11
314.4396805792213
 21
363.3352973064236
 31
0.0
  0
LINE
  5
2FC
330
2
100
AcDbEntity
  8
4
100
AcDbLine
 10
314.4396805792213
 20
363.3352973064236
 30
0.0
 11
314.4396805792213
 21
355.3352973064236
 31
0.0
  0
LINE
  5
2FD
330
2
100
AcDbEntity
  8
4
100
AcDbLine
 10
313.6896805792211
 20
355.3352973064236
 30
0.0
 11
313.6896805792211
 21
353.3352973064236
 31
0.0
  0
LINE
  5
2FE
330
2
100
AcDbEntity
  8
4
100
AcDbLine
 10
328.1896805792213
 20
355.3352973064236
 30
0.0
 11
328.1896805792213
 21
353.3352973064236
 31
0.0
  0
LINE
  5
2FF
330
2
100
AcDbEntity
  8
4
100
AcDbLine
 10
327.4396805792213
 20
363.3352973064236
 30
0.0
 11
327.4396805792213
 21
355.3352973064236
 31
0.0
  0
LINE
  5
300
330
2
100
AcDbEntity
  8
2
100
AcDbLine
 10
262.9396805792213
 20
355.3352973064236
 30
0.0
 11
260.9396805792213
 21
353.3352973064236
 31
0.0
  0
LINE
  5
301
330
2
100
AcDbEntity
  8
2
100
AcDbLine
 10
260.1112534544751
 20
355.3352973064236
 30
0.0
 11
258.1112534544751
 21
353.3352973064236
 31
0.0
  0
LINE
  5
302
330
2
100
AcDbEntity
  8
2
100
AcDbLine
 10
320.1112534544751
 20
355.3352973064236
 30
0.0
 11
318.1112534544751
 21
353.3352973064236
 31
0.0
  0
LINE
  5
303
330
2
100
AcDbEntity
  8
2
100
AcDbLine
 10
322.9396805792213
 20
355.3352973064236
 30
0.0
 11
320.9396805792213
 21
353.3352973064236
 31
0.0
  0
LINE
  5
304
330
2
100
AcDbEntity
  8
4
100
AcDbLine
 10
493.6896805792213
 20
355.3352973064236
 30
0.0
 11
508.1896805792213
 21
355.3352973064236
 31
0.0
  0
LINE
  5
305
330
2
100
AcDbEntity
  8
4
100
AcDbLine
 10
494.4396805792213
 20
363.3352973064236
 30
0.0
 11
507.4396805792213
 21
363.3352973064236
 31
0.0
  0
LINE
  5
306
330
2
100
AcDbEntity
  8
4
100
AcDbLine
 10
507.4396805792213
 20
363.3352973064236
 30
0.0
 11
507.4396805792213
 21
355.3352973064236
 31
0.0
  0
LINE
  5
307
330
2
100
AcDbEntity
  8
4
100
AcDbLine
 10
508.1896805792213
 20
355.3352973064236
 30
0.0
 11
508.1896805792213
 21
353.3352973064236
 31
0.0
  0
LINE
  5
308
330
2
100
AcDbEntity
  8
2
100
AcDbLine
 10
501.7681077039675
 20
355.3352973064236
 30
0.0
 11
503.7681077039675
 21
353.3352973064236
 31
0.0
  0
LINE
  5
309
330
2
100
AcDbEntity
  8
2
100
AcDbLine
 10
498.9396805792213
 20
355.3352973064236
 30
0.0
 11
500.9396805792213
 21
353.3352973064236
 31
0.0
  0
LINE
  5
30A
330
2
100
AcDbEntity
  8
4
100
AcDbLine
 10
493.6896805792213
 20
355.3352973064236
 30
0.0
 11
493.6896805792213
 21
353.3352973064236
 31
0.0
  0
LINE
  5
30B
330
2
100
AcDbEntity
  8
4
100
AcDbLine
 10
494.4396805792213
 20
363.3352973064236
 30
0.0
 11
494.4396805792213
 21
355.3352973064236
 31
0.0
  0
LINE
  5
30C
330
2
100
AcDbEntity
  8
L-CENTER
100
AcDbLine
 10
500.9396805792213
 20
366.8214136884956
 30
0.0
 11
500.9396805792213
 21
334.3538338874534
 31
0.0
  0
LINE
  5
30D
330
2
100
AcDbEntity
  8
4
100
AcDbLine
 10
434.4396805792213
 20
363.3352973064236
 30
0.0
 11
447.4396805792213
 21
363.3352973064236
 31
0.0
  0
LINE
  5
30E
330
2
100
AcDbEntity
  8
4
100
AcDbLine
 10
433.6896805792213
 20
355.3352973064236
 30
0.0
 11
448.1896805792213
 21
355.3352973064236
 31
0.0
  0
LINE
  5
30F
330
2
100
AcDbEntity
  8
2
100
AcDbLine
 10
438.9396805792213
 20
355.3352973064236
 30
0.0
 11
440.9396805792213
 21
353.3352973064236
 31
0.0
  0
LINE
  5
310
330
2
100
AcDbEntity
  8
2
100
AcDbLine
 10
441.7681077039675
 20
355.3352973064236
 30
0.0
 11
443.7681077039675
 21
353.3352973064236
 31
0.0
  0
LINE
  5
311
330
2
100
AcDbEntity
  8
4
100
AcDbLine
 10
448.1896805792213
 20
355.3352973064236
 30
0.0
 11
448.1896805792213
 21
353.3352973064236
 31
0.0
  0
LINE
  5
312
330
2
100
AcDbEntity
  8
4
100
AcDbLine
 10
447.4396805792213
 20
363.3352973064236
 30
0.0
 11
447.4396805792213
 21
355.3352973064236
 31
0.0
  0
LINE
  5
313
330
2
100
AcDbEntity
  8
4
100
AcDbLine
 10
434.4396805792213
 20
363.3352973064236
 30
0.0
 11
434.4396805792213
 21
355.3352973064236
 31
0.0
  0
LINE
  5
314
330
2
100
AcDbEntity
  8
4
100
AcDbLine
 10
433.6896805792213
 20
355.3352973064236
 30
0.0
 11
433.6896805792213
 21
353.3352973064236
 31
0.0
  0
LINE
  5
315
330
2
100
AcDbEntity
  8
L-CENTER
100
AcDbLine
 10
440.9396805792213
 20
366.8214136884956
 30
0.0
 11
440.9396805792213
 21
334.3538338874534
 31
0.0
  0
LINE
  5
316
330
2
100
AcDbEntity
  8
4
100
AcDbLine
 10
779.9312730449805
 20
355.3352973064236
 30
0.0
 11
794.4312730449805
 21
355.3352973064236
 31
0.0
  0
LINE
  5
317
330
2
100
AcDbEntity
  8
4
100
AcDbLine
 10
779.9312730449805
 20
355.3352973064236
 30
0.0
 11
779.9312730449805
 21
353.3352973064236
 31
0.0
  0
LINE
  5
318
330
2
100
AcDbEntity
  8
4
100
AcDbLine
 10
794.4312730449805
 20
355.3352973064236
 30
0.0
 11
794.4312730449805
 21
353.3352973064236
 31
0.0
  0
LINE
  5
319
330
2
100
AcDbEntity
  8
4
100
AcDbLine
 10
780.6812730449805
 20
363.3352973064236
 30
0.0
 11
793.6812730449805
 21
363.3352973064236
 31
0.0
  0
LINE
  5
31A
330
2
100
AcDbEntity
  8
4
100
AcDbLine
 10
780.6812730449805
 20
363.3352973064236
 30
0.0
 11
780.6812730449805
 21
355.3352973064236
 31
0.0
  0
LINE
  5
31B
330
2
100
AcDbEntity
  8
4
100
AcDbLine
 10
793.6812730449805
 20
363.3352973064236
 30
0.0
 11
793.6812730449805
 21
355.3352973064236
 31
0.0
  0
LINE
  5
31C
330
2
100
AcDbEntity
  8
L-CENTER
100
AcDbLine
 10
787.1812730449805
 20
366.8214136884956
 30
0.0
 11
787.1812730449805
 21
334.3538338874534
 31
0.0
  0
LINE
  5
31D
330
2
100
AcDbEntity
  8
4
100
AcDbLine
 10
1001.527369953246
 20
363.3352973064236
 30
0.0
 11
988.5273699532459
 21
363.3352973064236
 31
0.0
  0
LINE
  5
31E
330
2
100
AcDbEntity
  8
4
100
AcDbLine
 10
1002.277369953246
 20
355.3352973064236
 30
0.0
 11
987.7773699532459
 21
355.3352973064236
 31
0.0
  0
LINE
  5
31F
330
2
100
AcDbEntity
  8
4
100
AcDbLine
 10
1001.527369953246
 20
363.3352973064236
 30
0.0
 11
1001.527369953246
 21
355.3352973064236
 31
0.0
  0
LINE
  5
320
330
2
100
AcDbEntity
  8
4
100
AcDbLine
 10
1002.277369953246
 20
355.3352973064236
 30
0.0
 11
1002.277369953246
 21
353.3352973064236
 31
0.0
  0
LINE
  5
321
330
2
100
AcDbEntity
  8
4
100
AcDbLine
 10
988.5273699532459
 20
363.3352973064236
 30
0.0
 11
988.5273699532459
 21
355.3352973064236
 31
0.0
  0
LINE
  5
322
330
2
100
AcDbEntity
  8
4
100
AcDbLine
 10
987.7773699532459
 20
355.3352973064236
 30
0.0
 11
987.7773699532459
 21
353.3352973064236
 31
0.0
  0
LINE
  5
323
330
2
100
AcDbEntity
  8
L-CENTER
100
AcDbLine
 10
995.0273699532459
 20
366.8214136884956
 30
0.0
 11
995.0273699532459
 21
334.3538338874534
 31
0.0
  0
LINE
  5
324
330
2
100
AcDbEntity
  8
4
100
AcDbLine
 10
884.6043214991132
 20
363.3352973064236
 30
0.0
 11
897.6043214991132
 21
363.3352973064236
 31
0.0
  0
LINE
  5
325
330
2
100
AcDbEntity
  8
4
100
AcDbLine
 10
883.8543214991132
 20
355.3352973064236
 30
0.0
 11
898.3543214991132
 21
355.3352973064236
 31
0.0
  0
LINE
  5
326
330
2
100
AcDbEntity
  8
4
100
AcDbLine
 10
884.6043214991132
 20
363.3352973064236
 30
0.0
 11
884.6043214991132
 21
355.3352973064236
 31
0.0
  0
LINE
  5
327
330
2
100
AcDbEntity
  8
4
100
AcDbLine
 10
883.8543214991132
 20
355.3352973064236
 30
0.0
 11
883.8543214991132
 21
353.3352973064236
 31
0.0
  0
LINE
  5
328
330
2
100
AcDbEntity
  8
4
100
AcDbLine
 10
897.6043214991132
 20
363.3352973064236
 30
0.0
 11
897.6043214991132
 21
355.3352973064236
 31
0.0
  0
LINE
  5
329
330
2
100
AcDbEntity
  8
4
100
AcDbLine
 10
898.3543214991132
 20
355.3352973064236
 30
0.0
 11
898.3543214991132
 21
353.3352973064236
 31
0.0
  0
LINE
  5
32A
330
2
100
AcDbEntity
  8
L-CENTER
100
AcDbLine
 10
313.7439823913559
 20
621.7418773140352
 30
0.0
 11
328.1353787670865
 21
646.6685070286629
 31
0.0
  0
CIRCLE
  5
32B
330
2
100
AcDbEntity
  8
4
100
AcDbCircle
 10
320.9396805792213
 20
634.205192171349
 30
0.0
 40
7.25
  0
CIRCLE
  5
32C
330
2
100
AcDbEntity
  8
4
100
AcDbCircle
 10
320.9396805792213
 20
634.205192171349
 30
0.0
 40
6.5
  0
LINE
  5
32D
330
2
100
AcDbEntity
  8
2
100
AcDbLine
 10
319.2076297716525
 20
631.205192171349
 30
0.0
 11
317.4755789640834
 21
634.205192171349
 31
0.0
  0
LINE
  5
32E
330
2
100
AcDbEntity
  8
2
100
AcDbLine
 10
324.403782194359
 20
634.2051921713488
 30
0.0
 11
322.6717313867902
 21
637.205192171349
 31
0.0
  0
LINE
  5
32F
330
2
100
AcDbEntity
  8
2
100
AcDbLine
 10
322.6717313867902
 20
631.205192171349
 30
0.0
 11
324.403782194359
 21
634.2051921713488
 31
0.0
  0
LINE
  5
330
330
2
100
AcDbEntity
  8
2
100
AcDbLine
 10
317.4755789640834
 20
634.205192171349
 30
0.0
 11
319.2076297716525
 21
637.205192171349
 31
0.0
  0
LINE
  5
331
330
2
100
AcDbEntity
  8
2
100
AcDbLine
 10
319.2076297716525
 20
637.205192171349
 30
0.0
 11
322.6717313867902
 21
637.205192171349
 31
0.0
  0
LINE
  5
332
330
2
100
AcDbEntity
  8
2
100
AcDbLine
 10
319.2076297716525
 20
631.205192171349
 30
0.0
 11
322.6717313867902
 21
631.205192171349
 31
0.0
  0
LINE
  5
333
330
2
100
AcDbEntity
  8
L-CENTER
100
AcDbLine
 10
448.1353787670865
 20
621.7418773140352
 30
0.0
 11
433.7439823913561
 21
646.6685070286629
 31
0.0
  0
CIRCLE
  5
334
330
2
100
AcDbEntity
  8
4
100
AcDbCircle
 10
440.9396805792213
 20
634.205192171349
 30
0.0
 40
6.5
  0
CIRCLE
  5
335
330
2
100
AcDbEntity
  8
4
100
AcDbCircle
 10
440.9396805792213
 20
634.205192171349
 30
0.0
 40
7.25
  0
LINE
  5
336
330
2
100
AcDbEntity
  8
2
100
AcDbLine
 10
442.6717313867904
 20
631.205192171349
 30
0.0
 11
439.2076297716525
 21
631.205192171349
 31
0.0
  0
LINE
  5
337
330
2
100
AcDbEntity
  8
2
100
AcDbLine
 10
442.6717313867902
 20
637.205192171349
 30
0.0
 11
439.2076297716527
 21
637.205192171349
 31
0.0
  0
LINE
  5
338
330
2
100
AcDbEntity
  8
2
100
AcDbLine
 10
444.4037821943592
 20
634.205192171349
 30
0.0
 11
442.6717313867902
 21
637.205192171349
 31
0.0
  0
LINE
  5
339
330
2
100
AcDbEntity
  8
2
100
AcDbLine
 10
439.2076297716525
 20
631.205192171349
 30
0.0
 11
437.4755789640836
 21
634.2051921713488
 31
0.0
  0
LINE
  5
33A
330
2
100
AcDbEntity
  8
2
100
AcDbLine
 10
437.4755789640836
 20
634.2051921713488
 30
0.0
 11
439.2076297716527
 21
637.205192171349
 31
0.0
  0
LINE
  5
33B
330
2
100
AcDbEntity
  8
2
100
AcDbLine
 10
442.6717313867904
 20
631.205192171349
 30
0.0
 11
444.4037821943592
 21
634.205192171349
 31
0.0
  0
LINE
  5
33C
330
2
100
AcDbEntity
  8
L-CENTER
100
AcDbLine
 10
313.7439823913559
 20
854.5146039369283
 30
0.0
 11
328.1353787670865
 21
829.5879742223005
 31
0.0
  0
CIRCLE
  5
33D
330
2
100
AcDbEntity
  8
4
100
AcDbCircle
 10
320.9396805792213
 20
842.0512890796144
 30
0.0
 40
6.5
  0
CIRCLE
  5
33E
330
2
100
AcDbEntity
  8
4
100
AcDbCircle
 10
320.9396805792213
 20
842.0512890796144
 30
0.0
 40
7.25
  0
LINE
  5
33F
330
2
100
AcDbEntity
  8
2
100
AcDbLine
 10
319.2076297716525
 20
845.0512890796144
 30
0.0
 11
322.6717313867902
 21
845.0512890796144
 31
0.0
  0
LINE
  5
340
330
2
100
AcDbEntity
  8
2
100
AcDbLine
 10
319.2076297716525
 20
839.0512890796144
 30
0.0
 11
322.6717313867902
 21
839.0512890796144
 31
0.0
  0
LINE
  5
341
330
2
100
AcDbEntity
  8
2
100
AcDbLine
 10
317.4755789640834
 20
842.0512890796144
 30
0.0
 11
319.2076297716525
 21
839.0512890796144
 31
0.0
  0
LINE
  5
342
330
2
100
AcDbEntity
  8
2
100
AcDbLine
 10
322.6717313867902
 20
845.0512890796144
 30
0.0
 11
324.403782194359
 21
842.0512890796144
 31
0.0
  0
LINE
  5
343
330
2
100
AcDbEntity
  8
2
100
AcDbLine
 10
324.403782194359
 20
842.0512890796144
 30
0.0
 11
322.6717313867902
 21
839.0512890796144
 31
0.0
  0
LINE
  5
344
330
2
100
AcDbEntity
  8
2
100
AcDbLine
 10
319.2076297716525
 20
845.0512890796144
 30
0.0
 11
317.4755789640834
 21
842.0512890796144
 31
0.0
  0
CIRCLE
  5
345
330
2
100
AcDbEntity
  8
4
100
AcDbCircle
 10
440.9396805792213
 20
842.0512890796144
 30
0.0
 40
7.25
  0
CIRCLE
  5
346
330
2
100
AcDbEntity
  8
4
100
AcDbCircle
 10
440.9396805792213
 20
842.0512890796144
 30
0.0
 40
6.5
  0
LINE
  5
347
330
2
100
AcDbEntity
  8
L-CENTER
100
AcDbLine
 10
448.1353787670865
 20
854.5146039369283
 30
0.0
 11
433.7439823913561
 21
829.5879742223005
 31
0.0
  0
LINE
  5
348
330
2
100
AcDbEntity
  8
2
100
AcDbLine
 10
442.6717313867904
 20
845.0512890796144
 30
0.0
 11
444.4037821943592
 21
842.0512890796144
 31
0.0
  0
LINE
  5
349
330
2
100
AcDbEntity
  8
2
100
AcDbLine
 10
437.4755789640836
 20
842.0512890796144
 30
0.0
 11
439.2076297716527
 21
839.0512890796144
 31
0.0
  0
LINE
  5
34A
330
2
100
AcDbEntity
  8
2
100
AcDbLine
 10
439.2076297716525
 20
845.0512890796144
 30
0.0
 11
437.4755789640836
 21
842.0512890796144
 31
0.0
  0
LINE
  5
34B
330
2
100
AcDbEntity
  8
2
100
AcDbLine
 10
444.4037821943592
 20
842.0512890796144
 30
0.0
 11
442.6717313867902
 21
839.0512890796144
 31
0.0
  0
LINE
  5
34C
330
2
100
AcDbEntity
  8
2
100
AcDbLine
 10
442.6717313867902
 20
839.0512890796144
 30
0.0
 11
439.2076297716527
 21
839.0512890796144
 31
0.0
  0
LINE
  5
34D
330
2
100
AcDbEntity
  8
2
100
AcDbLine
 10
442.6717313867904
 20
845.0512890796144
 30
0.0
 11
439.2076297716525
 21
845.0512890796144
 31
0.0
  0
CIRCLE
  5
34E
330
2
100
AcDbEntity
  8
4
100
AcDbCircle
 10
260.9396805792213
 20
738.1282406254817
 30
0.0
 40
6.5
  0
CIRCLE
  5
34F
330
2
100
AcDbEntity
  8
4
100
AcDbCircle
 10
260.9396805792213
 20
738.1282406254817
 30
0.0
 40
7.25
  0
LINE
  5
350
330
2
100
AcDbEntity
  8
2
100
AcDbLine
 10
259.2076297716523
 20
735.1282406254817
 30
0.0
 11
262.6717313867902
 21
735.1282406254817
 31
0.0
  0
LINE
  5
351
330
2
100
AcDbEntity
  8
2
100
AcDbLine
 10
259.2076297716525
 20
741.1282406254817
 30
0.0
 11
262.6717313867899
 21
741.1282406254817
 31
0.0
  0
LINE
  5
352
330
2
100
AcDbEntity
  8
2
100
AcDbLine
 10
257.4755789640834
 20
738.1282406254817
 30
0.0
 11
259.2076297716525
 21
741.1282406254817
 31
0.0
  0
LINE
  5
353
330
2
100
AcDbEntity
  8
2
100
AcDbLine
 10
262.6717313867902
 20
735.1282406254817
 30
0.0
 11
264.403782194359
 21
738.1282406254812
 31
0.0
  0
LINE
  5
354
330
2
100
AcDbEntity
  8
2
100
AcDbLine
 10
264.403782194359
 20
738.1282406254812
 30
0.0
 11
262.6717313867899
 21
741.1282406254817
 31
0.0
  0
LINE
  5
355
330
2
100
AcDbEntity
  8
2
100
AcDbLine
 10
259.2076297716523
 20
735.1282406254817
 30
0.0
 11
257.4755789640834
 21
738.1282406254817
 31
0.0
  0
CIRCLE
  5
356
330
2
100
AcDbEntity
  8
4
100
AcDbCircle
 10
500.9396805792213
 20
738.1282406254817
 30
0.0
 40
7.25
  0
CIRCLE
  5
357
330
2
100
AcDbEntity
  8
4
100
AcDbCircle
 10
500.9396805792213
 20
738.1282406254817
 30
0.0
 40
6.5
  0
LINE
  5
358
330
2
100
AcDbEntity
  8
2
100
AcDbLine
 10
502.6717313867904
 20
735.1282406254817
 30
0.0
 11
504.4037821943592
 21
738.1282406254817
 31
0.0
  0
LINE
  5
359
330
2
100
AcDbEntity
  8
2
100
AcDbLine
 10
504.4037821943592
 20
738.1282406254817
 30
0.0
 11
502.6717313867904
 21
741.1282406254817
 31
0.0
  0
LINE
  5
35A
330
2
100
AcDbEntity
  8
2
100
AcDbLine
 10
497.4755789640836
 20
738.1282406254812
 30
0.0
 11
499.2076297716527
 21
741.1282406254817
 31
0.0
  0
LINE
  5
35B
330
2
100
AcDbEntity
  8
2
100
AcDbLine
 10
499.2076297716525
 20
735.1282406254817
 30
0.0
 11
497.4755789640836
 21
738.1282406254812
 31
0.0
  0
LINE
  5
35C
330
2
100
AcDbEntity
  8
2
100
AcDbLine
 10
502.6717313867904
 20
741.1282406254817
 30
0.0
 11
499.2076297716527
 21
741.1282406254817
 31
0.0
  0
LINE
  5
35D
330
2
100
AcDbEntity
  8
2
100
AcDbLine
 10
502.6717313867904
 20
735.1282406254817
 30
0.0
 11
499.2076297716525
 21
735.1282406254817
 31
0.0
  0
LINE
  5
35E
330
2
100
AcDbEntity
  8
4
100
AcDbLine
 10
903.6043224991131
 20
360.9352963064237
 30
0.0
 11
936.1043214991132
 21
360.9352963064237
 31
0.0
  0
LINE
  5
508
330
2
100
AcDbEntity
  8
4
100
AcDbLine
 10
411.9396795792214
 20
372.9352963064237
 30
0.0
 11
349.9396815792212
 21
372.9352963064237
 31
0.0
  0
LINE
  5
509
330
2
100
AcDbEntity
  8
4
100
AcDbLine
 10
349.9396815792212
 20
371.9352973064235
 30
0.0
 11
349.9396815792212
 21
372.9352963064237
 31
0.0
  0
LINE
  5
50A
330
2
100
AcDbEntity
  8
4
100
AcDbLine
 10
411.9396795792214
 20
372.9352963064237
 30
0.0
 11
411.9396795792214
 21
371.9352973064235
 31
0.0
  0
LINE
  5
50C
330
2
100
AcDbEntity
  8
4
100
AcDbLine
 10
922.104323499113
 20
198.9352963064237
 30
0.0
 11
860.1043224991131
 21
198.9352963064237
 31
0.0
  0
LINE
  5
50D
330
2
100
AcDbEntity
  8
4
100
AcDbLine
 10
860.1043224991131
 20
199.9352953064238
 30
0.0
 11
860.1043224991131
 21
198.9352963064237
 31
0.0
  0
LINE
  5
50E
330
2
100
AcDbEntity
  8
4
100
AcDbLine
 10
922.104323499113
 20
198.9352963064237
 30
0.0
 11
922.104323499113
 21
199.9352953064238
 31
0.0
  0
LINE
  5
50F
330
2
100
AcDbEntity
  8
4
100
AcDbLine
 10
891.1043214991132
 20
106.9352953064238
 30
0.0
 11
910.104323499113
 21
106.9352953064238
 31
0.0
  0
LINE
  5
510
330
2
100
AcDbEntity
  8
4
100
AcDbLine
 10
909.1043214991132
 20
105.9352963064237
 30
0.0
 11
868.6043214991132
 21
105.9352963064237
 31
0.0
  0
LINE
  5
511
330
2
100
AcDbEntity
  8
4
100
AcDbLine
 10
909.1043214991132
 20
105.9352963064237
 30
0.0
 11
868.6043214991132
 21
105.9352963064237
 31
0.0
  0
LINE
  5
512
330
2
100
AcDbEntity
  8
4
100
AcDbLine
 10
911.1043224991131
 20
180.9352963064237
 30
0.0
 11
871.104323499113
 21
180.9352963064237
 31
0.0
  0
LINE
  5
513
330
2
100
AcDbEntity
  8
4
100
AcDbLine
 10
910.104323499113
 20
180.9352963064237
 30
0.0
 11
910.104323499113
 21
106.9352953064238
 31
0.0
  0
LINE
  5
514
330
2
100
AcDbEntity
  8
4
100
AcDbLine
 10
911.1043224991131
 20
198.9352963064237
 30
0.0
 11
911.1043224991131
 21
180.9352963064237
 31
0.0
  0
LINE
  5
515
330
2
100
AcDbEntity
  8
4
100
AcDbLine
 10
909.1043214991132
 20
105.9352963064237
 30
0.0
 11
910.104323499113
 21
106.9352953064238
 31
0.0
  0
LINE
  5
516
330
2
100
AcDbEntity
  8
4
100
AcDbLine
 10
872.1043224991131
 20
180.9352963064237
 30
0.0
 11
872.1043224991131
 21
106.9352953064238
 31
0.0
  0
LINE
  5
517
330
2
100
AcDbEntity
  8
4
100
AcDbLine
 10
873.1043214991132
 20
105.9352963064237
 30
0.0
 11
872.1043224991131
 21
106.9352953064238
 31
0.0
  0
LINE
  5
518
330
2
100
AcDbEntity
  8
4
100
AcDbLine
 10
872.1043224991131
 20
106.9352953064238
 30
0.0
 11
891.1043214991132
 21
106.9352953064238
 31
0.0
  0
LINE
  5
519
330
2
100
AcDbEntity
  8
4
100
AcDbLine
 10
868.6043214991132
 20
105.9352963064237
 30
0.0
 11
868.6043214991132
 21
175.9352953064238
 31
0.0
  0
LINE
  5
51A
330
2
100
AcDbEntity
  8
4
100
AcDbLine
 10
872.1043224991131
 20
175.9352953064238
 30
0.0
 11
868.6043214991132
 21
175.9352953064238
 31
0.0
  0
LINE
  5
51B
330
2
100
AcDbEntity
  8
4
100
AcDbLine
 10
871.104323499113
 20
198.9352963064237
 30
0.0
 11
871.104323499113
 21
180.9352963064237
 31
0.0
  0
LINE
  5
51C
330
2
100
AcDbEntity
  8
4
100
AcDbLine
 10
860.1043224991131
 20
199.9352953064238
 30
0.0
 11
860.1043224991131
 21
198.9352963064237
 31
0.0
  0
LINE
  5
56E
330
2
100
AcDbEntity
  8
4
100
AcDbLine
 10
225.9396795792214
 20
302.4352963064237
 30
0.0
 11
170.9396805792213
 21
302.4352963064237
 31
0.0
  0
LINE
  5
56F
330
2
100
AcDbEntity
  8
4
100
AcDbLine
 10
230.9396805792213
 20
299.4352963064237
 30
0.0
 11
171.9396795792214
 21
299.4352963064237
 31
0.0
  0
LINE
  5
570
330
2
100
AcDbEntity
  8
4
100
AcDbLine
 10
230.9396805792213
 20
272.4352963064237
 30
0.0
 11
171.9396795792214
 21
272.4352963064237
 31
0.0
  0
LINE
  5
571
330
2
100
AcDbEntity
  8
4
100
AcDbLine
 10
230.9396805792213
 20
300.9352963064237
 30
0.0
 11
230.9396805792213
 21
270.9352963064237
 31
0.0
  0
LINE
  5
572
330
2
100
AcDbEntity
  8
4
100
AcDbLine
 10
251.9396805792213
 20
270.9352963064237
 30
0.0
 11
230.9396805792213
 21
270.9352963064237
 31
0.0
  0
LINE
  5
573
330
2
100
AcDbEntity
  8
4
100
AcDbLine
 10
251.9396805792213
 20
300.9352963064237
 30
0.0
 11
230.9396805792213
 21
300.9352963064237
 31
0.0
  0
LINE
  5
574
330
2
100
AcDbEntity
  8
4
100
AcDbLine
 10
225.9396795792214
 20
302.4352963064237
 30
0.0
 11
225.9396795792214
 21
299.4352963064237
 31
0.0
  0
LINE
  5
575
330
2
100
AcDbEntity
  8
4
100
AcDbLine
 10
170.9396805792213
 20
273.4352953064238
 30
0.0
 11
170.9396805792213
 21
302.4352963064237
 31
0.0
  0
LINE
  5
576
330
2
100
AcDbEntity
  8
4
100
AcDbLine
 10
171.9396795792214
 20
299.4352963064237
 30
0.0
 11
171.9396795792214
 21
272.4352963064237
 31
0.0
  0
LINE
  5
577
330
2
100
AcDbEntity
  8
4
100
AcDbLine
 10
170.9396805792213
 20
273.4352953064238
 30
0.0
 11
171.9396795792214
 21
272.4352963064237
 31
0.0
  0
LINE
  5
578
330
2
100
AcDbEntity
  8
4
100
AcDbLine
 10
171.9396795792214
 20
299.4352963064237
 30
0.0
 11
170.9396805792213
 21
298.4352973064235
 31
0.0
  0
LINE
  5
57A
330
2
100
AcDbEntity
  8
4
100
AcDbLine
 10
250.9396815792212
 20
270.9352963064237
 30
0.0
 11
250.9396815792212
 21
236.4306853064234
 31
0.0
  0
LINE
  5
57C
330
2
100
AcDbEntity
  8
4
100
AcDbLine
 10
222.4396805792213
 20
611.6282406254817
 30
0.0
 11
170.9396815792212
 21
611.6282406254817
 31
0.0
  0
LINE
  5
57D
330
2
100
AcDbEntity
  8
4
100
AcDbLine
 10
222.4396805792213
 20
618.6282406254817
 30
0.0
 11
170.9396815792212
 21
618.6282406254817
 31
0.0
  0
LINE
  5
57E
330
2
100
AcDbEntity
  8
4
100
AcDbLine
 10
230.9396815792212
 20
628.6282406254817
 30
0.0
 11
171.9396805792213
 21
628.6282406254817
 31
0.0
  0
LINE
  5
57F
330
2
100
AcDbEntity
  8
4
100
AcDbLine
 10
230.9396815792212
 20
601.6282406254817
 30
0.0
 11
171.9396805792213
 21
601.6282406254817
 31
0.0
  0
ARC
  5
580
330
2
100
AcDbEntity
  8
4
100
AcDbCircle
 10
222.4396805792213
 20
615.1282406254817
 30
0.0
 40
3.5
100
AcDbArc
 50
270.0
 51
90.0
  0
LINE
  5
581
330
2
100
AcDbEntity
  8
4
100
AcDbLine
 10
230.9396815792212
 20
630.1282406254817
 30
0.0
 11
230.9396815792212
 21
600.1282406254817
 31
0.0
  0
LINE
  5
582
330
2
100
AcDbEntity
  8
4
100
AcDbLine
 10
251.9396815792212
 20
600.1282406254817
 30
0.0
 11
230.9396815792212
 21
600.1282406254817
 31
0.0
  0
LINE
  5
583
330
2
100
AcDbEntity
  8
4
100
AcDbLine
 10
251.9396815792212
 20
630.1282406254817
 30
0.0
 11
230.9396815792212
 21
630.1282406254817
 31
0.0
  0
ARC
  5
584
330
2
100
AcDbEntity
  8
4
100
AcDbCircle
 10
230.9396805792213
 20
638.1282406254819
 30
0.0
 40
9.0
100
AcDbArc
 50
297.2660444507239
 51
270.0000063661966
  0
LINE
  5
585
330
2
100
AcDbEntity
  8
4
100
AcDbLine
 10
205.9396805792209
 20
663.2249414050417
 30
0.0
 11
205.9396805792209
 21
628.6282406254817
 31
0.0
  0
LINE
  5
586
330
2
100
AcDbEntity
  8
4
100
AcDbLine
 10
170.9396815792212
 20
602.6282396254818
 30
0.0
 11
170.9396815792212
 21
627.6282416254816
 31
0.0
  0
LINE
  5
587
330
2
100
AcDbEntity
  8
4
100
AcDbLine
 10
171.9396805792213
 20
611.6282406254817
 30
0.0
 11
171.9396805792213
 21
601.6282406254817
 31
0.0
  0
LINE
  5
588
330
2
100
AcDbEntity
  8
4
100
AcDbLine
 10
170.9396815792212
 20
602.6282396254818
 30
0.0
 11
171.9396805792213
 21
601.6282406254817
 31
0.0
  0
LINE
  5
589
330
2
100
AcDbEntity
  8
4
100
AcDbLine
 10
171.9396805792213
 20
628.6282406254817
 30
0.0
 11
170.9396815792212
 21
627.6282416254816
 31
0.0
  0
LINE
  5
58A
330
2
100
AcDbEntity
  8
4
100
AcDbLine
 10
171.9396805792213
 20
628.6282406254817
 30
0.0
 11
171.9396805792213
 21
618.6282406254819
 31
0.0
  0
CIRCLE
  5
5BE
330
2
100
AcDbEntity
  8
4
100
AcDbCircle
 10
530.9396805792209
 20
638.1282406254817
 30
0.0
 40
9.0
  0
LINE
  5
5BF
330
2
100
AcDbEntity
  8
4
100
AcDbLine
 10
550.9396805792213
 20
618.1282406254817
 30
0.0
 11
509.9396795792214
 21
618.1282406254817
 31
0.0
  0
ARC
  5
5C0
330
2
100
AcDbEntity
  8
4
100
AcDbCircle
 10
550.9396805792218
 20
623.1282406254817
 30
0.0
 40
5.0
100
AcDbArc
 50
270.0
 51
0.0
  0
ARC
  5
5C1
330
2
100
AcDbEntity
  8
4
100
AcDbCircle
 10
550.9396805792209
 20
623.1282406254817
 30
0.0
 40
5.0
100
AcDbArc
 50
270.0
 51
0.0
  0
ARC
  5
5C2
330
2
100
AcDbEntity
  8
4
100
AcDbCircle
 10
550.9396805792213
 20
623.1282406254817
 30
0.0
 40
5.0
100
AcDbArc
 50
270.0
 51
0.0
  0
LINE
  5
5C3
330
2
100
AcDbEntity
  8
4
100
AcDbLine
 10
905.1043224991131
 20
358.4352973064235
 30
0.0
 11
897.6043214991132
 21
358.4352973064235
 31
0.0
  0
LINE
  5
5C4
330
2
100
AcDbEntity
  8
4
100
AcDbLine
 10
902.1043214991132
 20
365.9352973064235
 30
0.0
 11
880.1043214991132
 21
365.9352973064235
 31
0.0
  0
LINE
  5
5C5
330
2
100
AcDbEntity
  8
4
100
AcDbLine
 10
903.6043224991131
 20
361.9352953064238
 30
0.0
 11
897.6043214991132
 21
361.9352953064238
 31
0.0
  0
LINE
  5
5C6
330
2
100
AcDbEntity
  8
4
100
AcDbLine
 10
903.6043224991131
 20
359.9352973064235
 30
0.0
 11
897.6043214991132
 21
359.9352973064235
 31
0.0
  0
LINE
  5
5C7
330
2
100
AcDbEntity
  8
4
100
AcDbLine
 10
903.6043224991131
 20
359.9352973064235
 30
0.0
 11
903.6043224991131
 21
361.9352953064238
 31
0.0
  0
LINE
  5
5C8
330
2
100
AcDbEntity
  8
4
100
AcDbLine
 10
905.1043224991131
 20
356.3920092900001
 30
0.0
 11
905.1043224991131
 21
358.4352973064235
 31
0.0
  0
LINE
  5
5C9
330
2
100
AcDbEntity
  8
4
100
AcDbLine
 10
902.6043204991133
 20
358.4352973064235
 30
0.0
 11
902.6043204991133
 21
359.9352973064235
 31
0.0
  0
LINE
  5
5CA
330
2
100
AcDbEntity
  8
4
100
AcDbLine
 10
902.1043214991132
 20
365.9352973064235
 30
0.0
 11
902.1043214991132
 21
361.9352953064238
 31
0.0
  0
LINE
  5
5CB
330
2
100
AcDbEntity
  8
4
100
AcDbLine
 10
880.1043214991132
 20
365.9352973064235
 30
0.0
 11
880.1043214991132
 21
361.9352953064238
 31
0.0
  0
LINE
  5
5CC
330
2
100
AcDbEntity
  8
4
100
AcDbLine
 10
878.6043204991133
 20
359.9352973064235
 30
0.0
 11
878.6043204991133
 21
361.9352953064238
 31
0.0
  0
LINE
  5
5CD
330
2
100
AcDbEntity
  8
4
100
AcDbLine
 10
877.1043204991133
 20
356.3920092900001
 30
0.0
 11
877.1043204991133
 21
358.4352973064235
 31
0.0
  0
LINE
  5
5CE
330
2
100
AcDbEntity
  8
4
100
AcDbLine
 10
879.6043224991131
 20
358.4352973064235
 30
0.0
 11
879.6043224991131
 21
359.9352973064235
 31
0.0
  0
ARC
  5
5D1
330
2
100
AcDbEntity
  8
4
  6
Continuous
100
AcDbCircle
 10
891.1043214991132
 20
401.5539261810061
 30
0.0
 40
47.28211887458223
100
AcDbArc
 50
252.7767874692845
 51
261.1797600693854
  0
ARC
  5
5D2
330
2
100
AcDbEntity
  8
4
  6
Continuous
100
AcDbCircle
 10
891.1043214991132
 20
401.5539261810061
 30
0.0
 40
47.28211887458223
100
AcDbArc
 50
278.8202399306146
 51
287.2232125307154
  0
LINE
  5
5D3
330
2
100
AcDbEntity
  8
4
100
AcDbLine
 10
884.6043214991132
 20
358.4352973064235
 30
0.0
 11
877.1043204991133
 21
358.4352973064235
 31
0.0
  0
LINE
  5
5D4
330
2
100
AcDbEntity
  8
4
100
AcDbLine
 10
884.6043214991132
 20
359.9352973064235
 30
0.0
 11
878.6043204991133
 21
359.9352973064235
 31
0.0
  0
LINE
  5
5D5
330
2
100
AcDbEntity
  8
4
100
AcDbLine
 10
884.6043214991132
 20
361.9352953064238
 30
0.0
 11
878.6043204991133
 21
361.9352953064238
 31
0.0
  0
ENDSEC
  0
SECTION
  2
OBJECTS
  0
DICTIONARY
  5
C
330
0
100
AcDbDictionary
281
     1
  3
ACAD_CIP_PREVIOUS_PRODUCT_INFO
350
4C3
  3
ACAD_COLOR
350
49
  3
ACAD_DETAILVIEWSTYLE
350
4BD
  3
ACAD_GROUP
350
36
  3
ACAD_LAYOUT
350
19
  3
ACAD_MATERIAL
350
E
  3
ACAD_MLEADERSTYLE
350
4C
  3
ACAD_MLINESTYLE
350
37
  3
ACAD_PLOTSETTINGS
350
38
  3
ACAD_PLOTSTYLENAME
350
B
  3
ACAD_SCALELIST
350
4A
  3
ACAD_SECTIONVIEWSTYLE
350
4BB
  3
ACAD_TABLESTYLE
350
4B
  3
ACAD_VISUALSTYLE
350
2F
  3
ACDBHEADERROUNDTRIPXREC
350
5EF
  3
AcDbVariableDictionary
350
49A
  3
DWGPROPS
350
5F2
  0
DICTIONARY
  5
5F3
330
2C
100
AcDbDictionary
280
     1
281
     1
  3
ACAD_XREC_ROUNDTRIP
360
5F4
  0
DICTIONARY
  5
22
330
21
100
AcDbDictionary
280
     1
281
     1
  3
ACAD_LAYERSTATES
360
23
  0
DICTIONARY
  5
8
330
7
100
AcDbDictionary
280
     1
281
     1
  3
ADSK_XREC_LAYER_RECONCILED
360
9
  0
DICTIONARY
  5
36F
330
36E
100
AcDbDictionary
280
     1
281
     1
  3
ADSK_XREC_LAYER_RECONCILED
360
370
  0
DICTIONARY
  5
4E
330
4D
100
AcDbDictionary
280
     1
281
     1
  3
ADSK_XREC_LAYER_RECONCILED
360
4F
  0
DICTIONARY
  5
6F
330
6E
100
AcDbDictionary
280
     1
281
     1
  3
ADSK_XREC_LAYER_RECONCILED
360
70
  0
DICTIONARY
  5
73
330
72
100
AcDbDictionary
280
     1
281
     1
  3
ADSK_XREC_LAYER_RECONCILED
360
74
  0
DICTIONARY
  5
367
330
366
100
AcDbDictionary
280
     1
281
     1
  3
ADSK_XREC_LAYER_RECONCILED
360
368
  0
DICTIONARY
  5
68
330
67
100
AcDbDictionary
280
     1
281
     1
  3
ADSK_XREC_LAYER_RECONCILED
360
69
  0
DICTIONARY
  5
3
330
2
100
AcDbDictionary
280
     1
281
     1
  3
ACAD_SORTENTS
360
498
  0
XRECORD
  5
4C3
102
{ACAD_REACTORS
330
C
102
}
330
C
100
AcDbXrecord
280
     1
300
ACD
300
2014
300
ACD_F_S
  0
DICTIONARY
  5
49
102
{ACAD_REACTORS
330
C
102
}
330
C
100
AcDbDictionary
281
     1
  0
DICTIONARY
  5
4BD
102
{ACAD_REACTORS
330
C
102
}
330
C
100
AcDbDictionary
281
     1
  3
Imperial24
350
4BE
  0
DICTIONARY
  5
36
102
{ACAD_REACTORS
330
C
102
}
330
C
100
AcDbDictionary
281
     1
  0
DICTIONARY
  5
19
102
{ACAD_REACTORS
330
C
102
}
330
C
100
AcDbDictionary
281
     1
  3
Model
350
18
  3
ﾚｲｱｳﾄ1
350
20
  0
DICTIONARY
  5
E
102
{ACAD_REACTORS
330
C
102
}
330
C
100
AcDbDictionary
281
     1
  3
ByBlock
350
41
  3
ByLayer
350
39
  3
Global
350
D
  0
DICTIONARY
  5
4C
102
{ACAD_REACTORS
330
C
102
}
330
C
100
AcDbDictionary
281
     1
  3
Standard
350
4BA
  0
DICTIONARY
  5
37
102
{ACAD_REACTORS
330
C
102
}
330
C
100
AcDbDictionary
281
     1
  3
STANDARD
350
51
  0
DICTIONARY
  5
38
102
{ACAD_REACTORS
330
C
102
}
330
C
100
AcDbDictionary
281
     1
  0
ACDBDICTIONARYWDFLT
  5
B
102
{ACAD_REACTORS
330
C
102
}
330
C
100
AcDbDictionary
281
     1
  3
Normal
350
A
100
AcDbDictionaryWithDefault
340
A
  0
DICTIONARY
  5
4A
102
{ACAD_REACTORS
330
C
102
}
330
C
100
AcDbDictionary
281
     1
  3
A0
350
55
  3
A1
350
56
  3
A2
350
57
  3
A3
350
58
  3
A4
350
59
  3
A5
350
5A
  3
A6
350
5B
  3
A7
350
5C
  3
A8
350
5D
  3
A9
350
5E
  3
B0
350
5F
  3
B1
350
60
  3
B2
350
61
  3
B3
350
62
  3
B4
350
63
  3
B5
350
64
  3
B6
350
65
  0
DICTIONARY
  5
4BB
102
{ACAD_REACTORS
330
C
102
}
330
C
100
AcDbDictionary
281
     1
  3
Imperial24
350
4BC
  0
DICTIONARY
  5
4B
102
{ACAD_REACTORS
330
C
102
}
330
C
100
AcDbDictionary
281
     1
  3
Standard
350
52
  0
DICTIONARY
  5
2F
102
{ACAD_REACTORS
330
C
102
}
330
C
100
AcDbDictionary
281
     1
  3
2dWireframe
350
2E
  3
Basic
350
4A9
  3
Brighten
350
4AD
  3
ColorChange
350
4B1
  3
Conceptual
350
4AB
  3
Dim
350
4AC
  3
EdgeColorOff
350
4B9
  3
Facepattern
350
4B0
  3
Flat
350
4A5
  3
FlatWithEdges
350
4A6
  3
Gouraud
350
4A7
  3
GouraudWithEdges
350
4A8
  3
Hidden
350
4AA
  3
JitterOff
350
4B7
  3
Linepattern
350
4AF
  3
OverhangOff
350
4B8
  3
Realistic
350
53
  3
Shaded
350
4B6
  3
Shaded with edges
350
4B5
  3
Shades of Gray
350
4B2
  3
Sketchy
350
4B3
  3
Thicken
350
4AE
  3
Wireframe
350
54
  3
X-Ray
350
4B4
  0
DICTIONARY
  5
5EF
102
{ACAD_REACTORS
330
C
102
}
330
C
100
AcDbDictionary
281
     1
  3
COLORDICT
350
5F0
  3
MATERIALDICT
350
5F1
  0
DICTIONARY
  5
49A
102
{ACAD_REACTORS
330
C
102
}
330
C
100
AcDbDictionary
281
     1
  3
CANNOSCALE
350
4A0
  3
CMLEADERSTYLE
350
49C
  3
CTABLESTYLE
350
49B
  3
CVIEWDETAILSTYLE
350
49D
  3
CVIEWSECTIONSTYLE
350
49E
  3
DIMASSOC
350
5ED
  3
HIDETEXT
350
5EE
  3
LAYEREVAL
350
4A2
  3
LAYERNOTIFY
350
4A3
  3
LIGHTINGUNITS
350
4A1
  3
MSLTSCALE
350
49F
  3
XCLIPFRAME
350
4F2
  0
XRECORD
  5
5F2
102
{ACAD_REACTORS
330
C
102
}
330
C
100
AcDbXrecord
280
     1
  1
DWGPROPS COOKIE
  2

  3

  4

  6

  7

  8
sg-d04
  9

300
=
301
=
302
=
303
=
304
=
305
=
306
=
307
=
308
=
309
=
 40
0.0
 41
2457472.337135093
 42
2457871.464487847
  1

 90
        0
  0
XRECORD
  5
5F4
102
{ACAD_REACTORS
330
5F3
102
}
330
5F3
100
AcDbXrecord
280
     1
102
VTR_0.000_0.000_1.000_1.000_VISUALSTYLE
340
2E
102
VTR_0.000_0.000_1.000_1.000_GRIDDISPLAY
 70
     3
102
VTR_0.000_0.000_1.000_1.000_GRIDMAJOR
 70
     5
102
VTR_0.000_0.000_1.000_1.000_DEFAULTLIGHTING
280
     1
102
VTR_0.000_0.000_1.000_1.000_DEFAULTLIGHTINGTYPE
 70
     1
102
VTR_0.000_0.000_1.000_1.000_BRIGHTNESS
141
0.0
102
VTR_0.000_0.000_1.000_1.000_CONTRAST
142
0.0
  0
DICTIONARY
  5
23
102
{ACAD_REACTORS
330
22
102
}
330
22
100
AcDbDictionary
281
     1
  0
XRECORD
  5
9
102
{ACAD_REACTORS
330
8
102
}
330
8
100
AcDbXrecord
280
     1
290
     1
  0
XRECORD
  5
370
102
{ACAD_REACTORS
330
36F
102
}
330
36F
100
AcDbXrecord
280
     1
290
     1
  0
XRECORD
  5
4F
102
{ACAD_REACTORS
330
4E
102
}
330
4E
100
AcDbXrecord
280
     1
290
     1
  0
XRECORD
  5
70
102
{ACAD_REACTORS
330
6F
102
}
330
6F
100
AcDbXrecord
280
     1
290
     1
  0
XRECORD
  5
74
102
{ACAD_REACTORS
330
73
102
}
330
73
100
AcDbXrecord
280
     1
290
     1
  0
XRECORD
  5
368
102
{ACAD_REACTORS
330
367
102
}
330
367
100
AcDbXrecord
280
     1
290
     1
  0
XRECORD
  5
69
102
{ACAD_REACTORS
330
68
102
}
330
68
100
AcDbXrecord
280
     1
290
     1
  0
SORTENTSTABLE
  5
498
102
{ACAD_REACTORS
330
3
102
}
330
3
100
AcDbSortentsTable
330
2
331
0
  5
CE
331
71
  5
76
331
76
  5
77
331
77
  5
78
331
78
  5
79
331
79
  5
7A
331
7A
  5
7B
331
7B
  5
7C
331
7C
  5
7D
331
7D
  5
7F
331
7E
  5
81
331
7F
  5
82
331
80
  5
83
331
81
  5
84
331
82
  5
85
331
83
  5
86
331
84
  5
87
331
85
  5
88
331
86
  5
89
331
87
  5
8A
331
88
  5
8C
331
89
  5
8D
331
8A
  5
8E
331
8B
  5
8F
331
8C
  5
90
331
8D
  5
91
331
8E
  5
92
331
8F
  5
93
331
90
  5
94
331
91
  5
95
331
92
  5
96
331
93
  5
97
331
94
  5
98
331
95
  5
99
331
96
  5
9A
331
97
  5
9B
331
98
  5
9C
331
99
  5
9D
331
9A
  5
9E
331
9B
  5
9F
331
9C
  5
A0
331
9D
  5
A1
331
9E
  5
A2
331
9F
  5
A3
331
A0
  5
A4
331
A1
  5
A5
331
A2
  5
A6
331
A3
  5
A7
331
A4
  5
A8
331
A5
  5
A9
331
A6
  5
AA
331
A7
  5
AB
331
A8
  5
AD
331
A9
  5
AE
331
AA
  5
AF
331
AB
  5
B0
331
AC
  5
B1
331
AD
  5
B2
331
AE
  5
B3
331
AF
  5
B4
331
B0
  5
B5
331
B1
  5
B6
331
B2
  5
B7
331
B3
  5
B8
331
B4
  5
B9
331
B5
  5
BA
331
B6
  5
BB
331
B7
  5
BC
331
B8
  5
BD
331
B9
  5
BE
331
BA
  5
BF
331
BB
  5
C0
331
BC
  5
C1
331
BD
  5
C2
331
BE
  5
C3
331
BF
  5
C4
331
C0
  5
C5
331
C1
  5
C6
331
C2
  5
C7
331
C3
  5
C8
331
C4
  5
C9
331
C5
  5
CA
331
C6
  5
CB
331
C7
  5
CC
331
C8
  5
CD
331
D0
  5
D5
331
D2
  5
D7
331
D3
  5
D8
331
D4
  5
D9
331
D5
  5
DA
331
DA
  5
E1
331
DB
  5
E2
331
DC
  5
E4
331
DD
  5
E5
331
DE
  5
E6
331
DF
  5
E7
331
E0
  5
E8
331
E1
  5
E9
331
E2
  5
EA
331
E3
  5
EB
331
E4
  5
EC
331
E5
  5
ED
331
E6
  5
EE
331
E7
  5
EF
331
E8
  5
F0
331
E9
  5
F1
331
EA
  5
F2
331
EB
  5
F3
331
EC
  5
F4
331
ED
  5
F5
331
EE
  5
F6
331
EF
  5
F7
331
F0
  5
F8
331
F1
  5
F9
331
F2
  5
FA
331
F3
  5
FB
331
F4
  5
FC
331
F5
  5
FD
331
F6
  5
FE
331
F7
  5
FF
331
F8
  5
100
331
F9
  5
101
331
FA
  5
102
331
FB
  5
103
331
FC
  5
104
331
FD
  5
105
331
FE
  5
106
331
FF
  5
107
331
100
  5
108
331
101
  5
109
331
102
  5
10A
331
103
  5
10B
331
104
  5
10C
331
105
  5
10D
331
106
  5
10E
331
107
  5
10F
331
108
  5
110
331
109
  5
111
331
10A
  5
112
331
10B
  5
113
331
10C
  5
114
331
10D
  5
115
331
10E
  5
116
331
10F
  5
117
331
110
  5
118
331
111
  5
119
331
112
  5
11A
331
113
  5
11B
331
119
  5
121
331
11A
  5
122
331
11B
  5
123
331
11C
  5
124
331
11D
  5
125
331
11E
  5
126
331
11F
  5
127
331
120
  5
128
331
121
  5
129
331
122
  5
12A
331
123
  5
12B
331
124
  5
12C
331
125
  5
12D
331
126
  5
12E
331
127
  5
12F
331
128
  5
130
331
129
  5
131
331
12A
  5
132
331
12B
  5
133
331
12C
  5
134
331
12D
  5
135
331
12E
  5
136
331
12F
  5
137
331
130
  5
138
331
131
  5
139
331
132
  5
13A
331
133
  5
13B
331
134
  5
13C
331
135
  5
13D
331
136
  5
13E
331
137
  5
13F
331
141
  5
149
331
148
  5
150
331
149
  5
151
331
14A
  5
152
331
14B
  5
153
331
14C
  5
154
331
14D
  5
155
331
14E
  5
156
331
14F
  5
157
331
150
  5
158
331
151
  5
159
331
152
  5
15A
331
153
  5
15B
331
154
  5
15C
331
155
  5
15D
331
156
  5
15E
331
157
  5
15F
331
158
  5
161
331
168
  5
177
331
169
  5
17F
331
16A
  5
180
331
1D6
  5
1DF
331
1DD
  5
1E6
331
1DF
  5
1E8
331
1E0
  5
1E9
331
1E1
  5
1EA
331
1E2
  5
1EB
331
1E4
  5
1ED
331
1E7
  5
1F0
331
1E8
  5
1F1
331
1F8
  5
201
331
1FF
  5
208
331
20A
  5
213
331
20B
  5
214
331
216
  5
21F
331
217
  5
220
331
218
  5
221
331
219
  5
222
331
21D
  5
226
331
220
  5
229
331
221
  5
22A
331
222
  5
22B
331
223
  5
22C
331
224
  5
22D
331
225
  5
22E
331
226
  5
230
331
227
  5
231
331
229
  5
232
331
22A
  5
234
331
22B
  5
235
331
22D
  5
236
331
22E
  5
237
331
22F
  5
238
331
230
  5
239
331
231
  5
23A
331
232
  5
23B
331
233
  5
23C
331
234
  5
23D
331
235
  5
23E
331
236
  5
23F
331
237
  5
240
331
238
  5
241
331
239
  5
242
331
23A
  5
243
331
23B
  5
244
331
23C
  5
245
331
23D
  5
246
331
23E
  5
247
331
23F
  5
248
331
240
  5
249
331
241
  5
24A
331
242
  5
24B
331
243
  5
24C
331
244
  5
24D
331
245
  5
24E
331
246
  5
24F
331
247
  5
250
331
248
  5
251
331
249
  5
252
331
24A
  5
253
331
24B
  5
254
331
24C
  5
255
331
24D
  5
256
331
24E
  5
257
331
24F
  5
258
331
250
  5
259
331
251
  5
25A
331
252
  5
25B
331
253
  5
25C
331
254
  5
25D
331
255
  5
25E
331
256
  5
25F
331
257
  5
260
331
258
  5
261
331
259
  5
262
331
25A
  5
263
331
25B
  5
264
331
25C
  5
265
331
25D
  5
266
331
25E
  5
267
331
25F
  5
268
331
260
  5
269
331
261
  5
26A
331
263
  5
26C
331
264
  5
26D
331
265
  5
26E
331
266
  5
26F
331
267
  5
270
331
268
  5
271
331
269
  5
272
331
26A
  5
273
331
26B
  5
274
331
26C
  5
275
331
26D
  5
276
331
26E
  5
277
331
26F
  5
278
331
270
  5
279
331
271
  5
27A
331
272
  5
27B
331
273
  5
27D
331
274
  5
27F
331
276
  5
280
331
278
  5
281
331
279
  5
282
331
27A
  5
283
331
27B
  5
284
331
27C
  5
285
331
27D
  5
286
331
27E
  5
287
331
27F
  5
288
331
280
  5
289
331
281
  5
28A
331
282
  5
28B
331
283
  5
28C
331
284
  5
28D
331
285
  5
28E
331
286
  5
28F
331
287
  5
290
331
288
  5
291
331
289
  5
292
331
28A
  5
293
331
28B
  5
294
331
28C
  5
295
331
28D
  5
296
331
28E
  5
297
331
28F
  5
298
331
290
  5
299
331
291
  5
29A
331
292
  5
29B
331
293
  5
29C
331
294
  5
29D
331
295
  5
29E
331
296
  5
29F
331
297
  5
2A0
331
298
  5
2A1
331
299
  5
2A2
331
29A
  5
2A3
331
29B
  5
2A4
331
29C
  5
2A5
331
29D
  5
2A6
331
29E
  5
2A7
331
29F
  5
2A8
331
2A0
  5
2A9
331
2A1
  5
2AA
331
2A2
  5
2AB
331
2A3
  5
2AC
331
2A4
  5
2AD
331
2A5
  5
2AE
331
2A6
  5
2AF
331
2A7
  5
2B0
331
2A8
  5
2B1
331
2A9
  5
2B2
331
2AA
  5
2B3
331
2AB
  5
2B4
331
2AC
  5
2B5
331
2AD
  5
2B6
331
2AE
  5
2B7
331
2AF
  5
2B8
331
2B0
  5
2B9
331
2B1
  5
2BA
331
2B2
  5
2BB
331
2B3
  5
2BC
331
2B4
  5
2BD
331
2B5
  5
2BE
331
2B6
  5
2BF
331
2B7
  5
2C0
331
2B8
  5
2C1
331
2B9
  5
2C4
331
2BA
  5
2C5
331
2BB
  5
2C6
331
2BC
  5
2C7
331
2BD
  5
2C8
331
2BE
  5
2C9
331
2BF
  5
2CA
331
2C2
  5
2CB
331
2C3
  5
2CC
331
2C4
  5
2CD
331
2C5
  5
2CE
331
2C6
  5
2CF
331
2C9
  5
2D3
331
2CA
  5
2D7
331
2CB
  5
2D8
331
2CC
  5
2D9
331
2CD
  5
2DA
331
2CE
  5
2DB
331
2CF
  5
2DC
331
2D1
  5
2DD
331
2D5
  5
2DE
331
2D6
  5
2DF
331
2D7
  5
2E0
331
2D8
  5
2E1
331
2D9
  5
2E2
331
2DA
  5
2E3
331
2DB
  5
2E4
331
2DC
  5
2E5
331
2DD
  5
2E6
331
2DE
  5
2E7
331
2DF
  5
2E8
331
2E0
  5
2E9
331
2E1
  5
2EA
331
2E2
  5
2EB
331
2E3
  5
2EC
331
2E4
  5
2ED
331
2EA
  5
2F3
331
2EB
  5
2F4
331
2EC
  5
2F5
331
2ED
  5
2F6
331
2EE
  5
2F7
331
2EF
  5
2F8
331
2F0
  5
2F9
331
2F1
  5
2FA
331
2F2
  5
2FB
331
2F3
  5
2FC
331
2F4
  5
2FD
331
2F5
  5
2FE
331
2F6
  5
2FF
331
2F7
  5
300
331
2F8
  5
301
331
2F9
  5
302
331
2FA
  5
303
331
2FB
  5
304
331
2FC
  5
305
331
2FD
  5
306
331
2FE
  5
307
331
2FF
  5
308
331
300
  5
309
331
301
  5
30A
331
302
  5
30B
331
303
  5
30C
331
304
  5
30D
331
305
  5
30E
331
306
  5
30F
331
307
  5
310
331
308
  5
311
331
309
  5
312
331
30A
  5
313
331
30B
  5
314
331
30C
  5
315
331
30D
  5
316
331
30E
  5
317
331
30F
  5
318
331
310
  5
319
331
311
  5
31A
331
312
  5
31B
331
313
  5
31C
331
314
  5
31D
331
315
  5
31E
331
316
  5
31F
331
317
  5
320
331
318
  5
321
331
319
  5
322
331
31A
  5
323
331
31B
  5
324
331
31C
  5
325
331
31D
  5
326
331
31E
  5
327
331
31F
  5
328
331
320
  5
329
331
321
  5
32A
331
322
  5
32B
331
323
  5
32C
331
324
  5
32D
331
325
  5
32E
331
326
  5
32F
331
327
  5
330
331
328
  5
331
331
329
  5
332
331
32A
  5
333
331
32B
  5
334
331
32C
  5
335
331
32D
  5
336
331
32E
  5
337
331
32F
  5
338
331
330
  5
339
331
331
  5
33A
331
332
  5
33B
331
333
  5
33C
331
334
  5
33D
331
335
  5
33E
331
336
  5
33F
331
337
  5
340
331
338
  5
341
331
339
  5
342
331
33A
  5
343
331
33B
  5
344
331
33C
  5
345
331
33D
  5
346
331
33E
  5
347
331
33F
  5
348
331
340
  5
349
331
341
  5
34A
331
342
  5
34B
331
343
  5
34C
331
344
  5
34D
331
345
  5
34E
331
346
  5
34F
331
347
  5
350
331
348
  5
351
331
349
  5
352
331
34A
  5
353
331
34B
  5
354
331
34C
  5
355
331
34D
  5
356
331
34E
  5
357
331
34F
  5
358
331
350
  5
359
331
351
  5
35A
331
352
  5
35B
331
353
  5
35C
331
354
  5
35D
331
355
  5
35E
331
356
  5
35F
331
357
  5
360
331
358
  5
361
331
359
  5
362
331
35A
  5
363
331
35B
  5
364
331
35C
  5
365
331
35D
  5
369
331
35E
  5
36A
331
508
  5
50E
331
509
  5
50F
331
50A
  5
510
331
50C
  5
511
331
50D
  5
512
331
50E
  5
513
331
50F
  5
514
331
510
  5
518
331
511
  5
519
331
512
  5
51A
331
513
  5
51B
331
514
  5
51C
331
515
  5
51D
331
516
  5
51E
331
517
  5
51F
331
518
  5
520
331
519
  5
521
331
51A
  5
523
331
51B
  5
524
331
51C
  5
529
331
56E
  5
571
331
56F
  5
572
331
570
  5
573
331
571
  5
574
331
572
  5
577
331
573
  5
578
331
574
  5
579
331
575
  5
57C
331
576
  5
57D
331
577
  5
57E
331
578
  5
57F
331
57A
  5
71
331
57C
  5
580
331
57D
  5
581
331
57E
  5
582
331
57F
  5
583
331
580
  5
584
331
581
  5
585
331
582
  5
586
331
583
  5
587
331
584
  5
588
331
585
  5
589
331
586
  5
58A
331
587
  5
58C
331
588
  5
58D
331
589
  5
58E
331
58A
  5
58F
331
5BE
  5
5BF
331
5BF
  5
5C0
331
5C0
  5
5C1
331
5C1
  5
5C2
331
5C2
  5
5C3
331
5C3
  5
5C4
331
5C4
  5
5C6
331
5C5
  5
5C7
331
5C6
  5
5C9
331
5C7
  5
5CB
331
5C8
  5
5CC
331
5C9
  5
5CD
331
5CA
  5
E3
331
5CB
  5
5CE
331
5CC
  5
5CF
331
5CD
  5
5D0
331
5CE
  5
5D1
331
5D1
  5
5D4
331
5D2
  5
5D5
331
5D3
  5
5C5
331
5D4
  5
5CA
331
5D5
  5
5C8
  0
ACDBDETAILVIEWSTYLE
  5
4BE
102
{ACAD_REACTORS
330
4BD
102
}
102
{ACAD_XDICTIONARY
360
4DB
102
}
330
4BD
100
AcDbModelDocViewStyle
 70
     0
  3
Imperial24
290
     0
100
AcDbDetailViewStyle
 70
     0
 71
     0
 90
        3
 71
     1
340
25
 40
0.24
340
0
 40
0.24
300

 40
0.36
280
     3
 71
     2
340
16
 90
       25
 71
     3
340
25
 40
0.24
 90
        1
 40
0.75
 90
        1
300
%<\AcVar ViewType \f "%tc1">% %<\AcVar ViewDetailId>%\PSCALE %<\AcVar ViewScale \f "%sn">%
 71
     4
340
16
 90
       25
340
16
 90
       25
280
     0
  0
LAYOUT
  5
18
102
{ACAD_REACTORS
330
19
102
}
330
19
100
AcDbPlotSettings
  1

  2
Bullzip PDF Printer.pc3
  4
A3
  6

 40
0.2
 41
0.0
 42
0.0
 43
0.0
 44
420.2
 45
297.1
 46
25.0
 47
12.0
 48
59.99999938099995
 49
0.0
140
1205.999996756
141
817.4999980924995
142
1.0
143
3.0
 70
 11936
 72
     1
 73
     0
 74
     4
  7
monochrome.ctb
 75
     0
147
0.3333333333333333
148
-59.99999938099995
149
0.0
100
AcDbLayout
  1
Model
 70
     1
 71
     0
 10
0.0
 20
0.0
 11
12.0
 21
9.0
 12
0.0
 22
0.0
 32
0.0
 14
90.59691457317217
 24
14.47735192943719
 34
0.0
 15
1037.75716391936
 25
884.08865804174
 35
0.0
146
0.0
 13
0.0
 23
0.0
 33
0.0
 16
1.0
 26
0.0
 36
0.0
 17
0.0
 27
1.0
 37
0.0
 76
     0
330
2
331
2D
1001
ACAD_PSEXT
1000
Bullzip PDF Printer.pc3
1000
Bullzip PDF Printer
1000
BULLZIP
1000
Bullzip PDF Printer 10.1.0.1871
1070
     0
  0
LAYOUT
  5
20
102
{ACAD_REACTORS
330
19
102
}
330
19
100
AcDbPlotSettings
  1

  2
SR-LP8300F
  4

  6

 40
0.0
 41
0.0
 42
0.0
 43
0.0
 44
0.0
 45
0.0
 46
0.0
 47
0.0
 48
0.0
 49
0.0
140
0.0
141
0.0
142
1.0
143
1.0
 70
   688
 72
     0
 73
     0
 74
     5
  7
monochrome.ctb
 75
    16
147
1.0
148
0.0
149
0.0
100
AcDbLayout
  1
ﾚｲｱｳﾄ1
 70
     1
 71
     1
 10
0.0
 20
0.0
 11
12.0
 21
9.0
 12
0.0
 22
0.0
 32
0.0
 14
1.000000000000000E+20
 24
1.000000000000000E+20
 34
1.000000000000000E+20
 15
-1.000000000000000E+20
 25
-1.000000000000000E+20
 35
-1.000000000000000E+20
146
0.0
 13
0.0
 23
0.0
 33
0.0
 16
1.0
 26
0.0
 36
0.0
 17
0.0
 27
1.0
 37
0.0
 76
     0
330
1B
  0
MATERIAL
  5
41
102
{ACAD_REACTORS
330
E
102
}
102
{ACAD_XDICTIONARY
360
5F6
102
}
330
E
100
AcDbMaterial
  1
ByBlock
 72
     0
 73
     2
 43
0.0208333333333333
 43
0.0
 43
0.0
 43
0.0
 43
0.0
 43
0.0208333333333333
 43
0.0
 43
0.0
 43
0.0
 43
0.0
 43
1.0
 43
0.0
 43
0.0
 43
0.0
 43
0.0
 43
1.0
 77
     0
 78
     2
 47
0.0208333333333333
 47
0.0
 47
0.0
 47
0.0
 47
0.0
 47
0.0208333333333333
 47
0.0
 47
0.0
 47
0.0
 47
0.0
 47
1.0
 47
0.0
 47
0.0
 47
0.0
 47
0.0
 47
1.0
171
     0
172
     2
 49
0.0208333333333333
 49
0.0
 49
0.0
 49
0.0
 49
0.0
 49
0.0208333333333333
 49
0.0
 49
0.0
 49
0.0
 49
0.0
 49
1.0
 49
0.0
 49
0.0
 49
0.0
 49
0.0
 49
1.0
175
     0
176
     2
142
0.0208333333333333
142
0.0
142
0.0
142
0.0
142
0.0
142
0.0208333333333333
142
0.0
142
0.0
142
0.0
142
0.0
142
1.0
142
0.0
142
0.0
142
0.0
142
0.0
142
1.0
179
     0
270
     2
144
0.0208333333333333
144
0.0
144
0.0
144
0.0
144
0.0
144
0.0208333333333333
144
0.0
144
0.0
144
0.0
144
0.0
144
1.0
144
0.0
144
0.0
144
0.0
144
0.0
144
1.0
274
     2
147
0.0208333333333333
147
0.0
147
0.0
147
0.0
147
0.0
147
0.0208333333333333
147
0.0
147
0.0
147
0.0
147
0.0
147
1.0
147
0.0
147
0.0
147
0.0
147
0.0
147
1.0
  0
MATERIAL
  5
39
102
{ACAD_REACTORS
330
E
102
}
102
{ACAD_XDICTIONARY
360
5F8
102
}
330
E
100
AcDbMaterial
  1
ByLayer
 72
     0
 73
     2
 43
0.0208333333333333
 43
0.0
 43
0.0
 43
0.0
 43
0.0
 43
0.0208333333333333
 43
0.0
 43
0.0
 43
0.0
 43
0.0
 43
1.0
 43
0.0
 43
0.0
 43
0.0
 43
0.0
 43
1.0
 77
     0
 78
     2
 47
0.0208333333333333
 47
0.0
 47
0.0
 47
0.0
 47
0.0
 47
0.0208333333333333
 47
0.0
 47
0.0
 47
0.0
 47
0.0
 47
1.0
 47
0.0
 47
0.0
 47
0.0
 47
0.0
 47
1.0
171
     0
172
     2
 49
0.0208333333333333
 49
0.0
 49
0.0
 49
0.0
 49
0.0
 49
0.0208333333333333
 49
0.0
 49
0.0
 49
0.0
 49
0.0
 49
1.0
 49
0.0
 49
0.0
 49
0.0
 49
0.0
 49
1.0
175
     0
176
     2
142
0.0208333333333333
142
0.0
142
0.0
142
0.0
142
0.0
142
0.0208333333333333
142
0.0
142
0.0
142
0.0
142
0.0
142
1.0
142
0.0
142
0.0
142
0.0
142
0.0
142
1.0
179
     0
270
     2
144
0.0208333333333333
144
0.0
144
0.0
144
0.0
144
0.0
144
0.0208333333333333
144
0.0
144
0.0
144
0.0
144
0.0
144
1.0
144
0.0
144
0.0
144
0.0
144
0.0
144
1.0
274
     2
147
0.0208333333333333
147
0.0
147
0.0
147
0.0
147
0.0
147
0.0208333333333333
147
0.0
147
0.0
147
0.0
147
0.0
147
1.0
147
0.0
147
0.0
147
0.0
147
0.0
147
1.0
  0
MATERIAL
  5
D
102
{ACAD_REACTORS
330
E
102
}
102
{ACAD_XDICTIONARY
360
5FA
102
}
330
E
100
AcDbMaterial
  1
Global
 72
     0
 73
     2
 43
0.0208333333333333
 43
0.0
 43
0.0
 43
0.0
 43
0.0
 43
0.0208333333333333
 43
0.0
 43
0.0
 43
0.0
 43
0.0
 43
1.0
 43
0.0
 43
0.0
 43
0.0
 43
0.0
 43
1.0
 77
     0
 78
     2
 47
0.0208333333333333
 47
0.0
 47
0.0
 47
0.0
 47
0.0
 47
0.0208333333333333
 47
0.0
 47
0.0
 47
0.0
 47
0.0
 47
1.0
 47
0.0
 47
0.0
 47
0.0
 47
0.0
 47
1.0
171
     0
172
     2
 49
0.0208333333333333
 49
0.0
 49
0.0
 49
0.0
 49
0.0
 49
0.0208333333333333
 49
0.0
 49
0.0
 49
0.0
 49
0.0
 49
1.0
 49
0.0
 49
0.0
 49
0.0
 49
0.0
 49
1.0
175
     0
176
     2
142
0.0208333333333333
142
0.0
142
0.0
142
0.0
142
0.0
142
0.0208333333333333
142
0.0
142
0.0
142
0.0
142
0.0
142
1.0
142
0.0
142
0.0
142
0.0
142
0.0
142
1.0
179
     0
270
     2
144
0.0208333333333333
144
0.0
144
0.0
144
0.0
144
0.0
144
0.0208333333333333
144
0.0
144
0.0
144
0.0
144
0.0
144
1.0
144
0.0
144
0.0
144
0.0
144
0.0
144
1.0
274
     2
147
0.0208333333333333
147
0.0
147
0.0
147
0.0
147
0.0
147
0.0208333333333333
147
0.0
147
0.0
147
0.0
147
0.0
147
1.0
147
0.0
147
0.0
147
0.0
147
0.0
147
1.0
1001
ACAD
1070
    -1
1070
     3
1070
     0
1000

1071
        0
  0
MLEADERSTYLE
  5
4BA
102
{ACAD_REACTORS
330
4C
102
}
102
{ACAD_XDICTIONARY
360
5FC
102
}
330
4C
100
AcDbMLeaderStyle
170
     2
171
     1
172
     0
 90
        2
 40
0.0
 41
0.0
173
     1
 91
-1056964608
340
28
 92
       -2
290
     1
 42
0.09
291
     1
 43
0.36
  3
Standard
341
0
 44
0.18
300

342
25
174
     1
178
     6
175
     1
176
     0
 93
-1056964608
 45
0.18
292
     0
297
     0
 46
0.18
343
0
 94
-1056964608
 47
1.0
 49
1.0
140
1.0
293
     1
141
0.0
294
     1
177
     0
142
1.0
295
     1
296
     0
143
0.125
1001
ACAD_MLEADERVER
1070
     2
  0
MLINESTYLE
  5
51
102
{ACAD_REACTORS
330
37
102
}
330
37
100
AcDbMlineStyle
  2
STANDARD
 70
     0
  3

 62
     0
 51
90.0
 52
90.0
 71
     2
 49
0.5
 62
   256
  6
BYLAYER
 49
-0.5
 62
   256
  6
BYLAYER
  0
ACDBPLACEHOLDER
  5
A
102
{ACAD_REACTORS
330
B
102
}
330
B
  0
SCALE
  5
55
102
{ACAD_REACTORS
330
4A
102
}
330
4A
100
AcDbScale
 70
     0
300
1:1
140
1.0
141
1.0
290
     1
  0
SCALE
  5
56
102
{ACAD_REACTORS
330
4A
102
}
330
4A
100
AcDbScale
 70
     0
300
1/128" = 1'-0"
140
0.0078125
141
12.0
290
     0
  0
SCALE
  5
57
102
{ACAD_REACTORS
330
4A
102
}
330
4A
100
AcDbScale
 70
     0
300
1/64" = 1'-0"
140
0.015625
141
12.0
290
     0
  0
SCALE
  5
58
102
{ACAD_REACTORS
330
4A
102
}
330
4A
100
AcDbScale
 70
     0
300
1/32" = 1'-0"
140
0.03125
141
12.0
290
     0
  0
SCALE
  5
59
102
{ACAD_REACTORS
330
4A
102
}
330
4A
100
AcDbScale
 70
     0
300
1/16" = 1'-0"
140
0.0625
141
12.0
290
     0
  0
SCALE
  5
5A
102
{ACAD_REACTORS
330
4A
102
}
330
4A
100
AcDbScale
 70
     0
300
3/32" = 1'-0"
140
0.09375
141
12.0
290
     0
  0
SCALE
  5
5B
102
{ACAD_REACTORS
330
4A
102
}
330
4A
100
AcDbScale
 70
     0
300
1/8" = 1'-0"
140
0.125
141
12.0
290
     0
  0
SCALE
  5
5C
102
{ACAD_REACTORS
330
4A
102
}
330
4A
100
AcDbScale
 70
     0
300
3/16" = 1'-0"
140
0.1875
141
12.0
290
     0
  0
SCALE
  5
5D
102
{ACAD_REACTORS
330
4A
102
}
330
4A
100
AcDbScale
 70
     0
300
1/4" = 1'-0"
140
0.25
141
12.0
290
     0
  0
SCALE
  5
5E
102
{ACAD_REACTORS
330
4A
102
}
330
4A
100
AcDbScale
 70
     0
300
3/8" = 1'-0"
140
0.375
141
12.0
290
     0
  0
SCALE
  5
5F
102
{ACAD_REACTORS
330
4A
102
}
330
4A
100
AcDbScale
 70
     0
300
1/2" = 1'-0"
140
0.5
141
12.0
290
     0
  0
SCALE
  5
60
102
{ACAD_REACTORS
330
4A
102
}
330
4A
100
AcDbScale
 70
     0
300
3/4" = 1'-0"
140
0.75
141
12.0
290
     0
  0
SCALE
  5
61
102
{ACAD_REACTORS
330
4A
102
}
330
4A
100
AcDbScale
 70
     0
300
1" = 1'-0"
140
1.0
141
12.0
290
     0
  0
SCALE
  5
62
102
{ACAD_REACTORS
330
4A
102
}
330
4A
100
AcDbScale
 70
     0
300
1-1/2" = 1'-0"
140
1.5
141
12.0
290
     0
  0
SCALE
  5
63
102
{ACAD_REACTORS
330
4A
102
}
330
4A
100
AcDbScale
 70
     0
300
3" = 1'-0"
140
3.0
141
12.0
290
     0
  0
SCALE
  5
64
102
{ACAD_REACTORS
330
4A
102
}
330
4A
100
AcDbScale
 70
     0
300
6" = 1'-0"
140
6.0
141
12.0
290
     0
  0
SCALE
  5
65
102
{ACAD_REACTORS
330
4A
102
}
330
4A
100
AcDbScale
 70
     0
300
1'-0" = 1'-0"
140
12.0
141
12.0
290
     0
  0
ACDBSECTIONVIEWSTYLE
  5
4BC
102
{ACAD_REACTORS
330
4BB
102
}
102
{ACAD_XDICTIONARY
360
4D9
102
}
330
4BB
100
AcDbModelDocViewStyle
 70
     0
  3
Imperial24
290
     0
100
AcDbSectionViewStyle
 70
     0
 71
     0
 90
       78
 71
     1
340
25
 40
0.24
340
0
340
0
 40
0.24
300
I, O, Q, S, X, Z
 40
0.48
 90
        3
 40
0.18
 90
        1
 71
     2
340
16
 90
       25
340
16
 90
       50
 40
0.24
 40
0.0
 40
0.24
 71
     3
340
25
 40
0.24
 90
        1
 40
0.75
 90
        1
300
%<\AcVar ViewType \f "%tc1">% %<\AcVar ViewSectionStartId>%-%<\AcVar ViewSectionEndId>%\PSCALE %<\AcVar ViewScale \f "%sn">%
 71
     4
300
ANSI31
 40
1.0
 90
        0
290
     0
290
     0
 90
        6
 40
0.0
 40
1.570796326794897
 40
0.2617993877991494
 40
1.308996938995747
 40
-0.2617993877991494
 40
1.832595714594046
  0
TABLESTYLE
  5
52
102
{ACAD_REACTORS
330
4B
102
}
330
4B
100
AcDbTableStyle
  3
Standard
 70
     0
 71
     0
 40
0.06
 41
0.06
280
     0
281
     0
  7
STANDARD
140
0.18
170
     2
 62
     0
 63
   257
283
     0
274
    -2
284
     1
 64
     0
275
    -2
285
     1
 65
     0
276
    -2
286
     1
 66
     0
277
    -2
287
     1
 67
     0
278
    -2
288
     1
 68
     0
279
    -2
289
     1
 69
     0
  7
STANDARD
140
0.25
170
     5
 62
     0
 63
   257
283
     0
274
    -2
284
     1
 64
     0
275
    -2
285
     1
 65
     0
276
    -2
286
     1
 66
     0
277
    -2
287
     1
 67
     0
278
    -2
288
     1
 68
     0
279
    -2
289
     1
 69
     0
  7
STANDARD
140
0.18
170
     5
 62
     0
 63
   257
283
     0
274
    -2
284
     1
 64
     0
275
    -2
285
     1
 65
     0
276
    -2
286
     1
 66
     0
277
    -2
287
     1
 67
     0
278
    -2
288
     1
 68
     0
279
    -2
289
     1
 69
     0
  0
VISUALSTYLE
  5
2E
102
{ACAD_REACTORS
330
2F
102
}
102
{ACAD_XDICTIONARY
360
5FF
102
}
330
2F
100
AcDbVisualStyle
  2
2dWireframe
 70
     4
 71
     0
 72
     2
 73
     0
 90
        0
 40
0.6
 41
30.0
 62
     5
 63
     7
 74
     1
 91
        4
 64
     7
 65
   257
 75
     1
175
     1
 42
1.0
 92
        0
 66
   257
 43
1.0
 76
     1
 77
     6
 78
     2
 67
     7
 79
     5
170
     0
171
     0
290
     0
174
     0
 93
        1
 44
0.0
173
     0
291
     0
 45
0.0
1001
ACAD
1000
AcDbSavedByObjectVersion
1070
     0
  0
VISUALSTYLE
  5
4A9
102
{ACAD_REACTORS
330
2F
102
}
102
{ACAD_XDICTIONARY
360
601
102
}
330
2F
100
AcDbVisualStyle
  2
Basic
 70
     7
 71
     1
 72
     0
 73
     1
 90
        0
 40
0.6
 41
30.0
 62
     5
 63
     7
 74
     0
 91
        4
 64
     7
 65
   257
 75
     1
175
     1
 42
1.0
 92
        8
 66
     7
 43
1.0
 76
     1
 77
     6
 78
     2
 67
     7
 79
     5
170
     0
171
     0
290
     0
174
     0
 93
        1
 44
0.0
173
     0
291
     1
 45
0.0
1001
ACAD
1000
AcDbSavedByObjectVersion
1070
     0
  0
VISUALSTYLE
  5
4AD
102
{ACAD_REACTORS
330
2F
102
}
102
{ACAD_XDICTIONARY
360
603
102
}
330
2F
100
AcDbVisualStyle
  2
Brighten
 70
    12
 71
     2
 72
     2
 73
     0
 90
        0
 40
0.6
 41
30.0
 62
     5
 63
     7
 74
     1
 91
        4
 64
     7
 65
   257
 75
     1
175
     1
 42
1.0
 92
        8
 66
     7
 43
1.0
 76
     1
 77
     6
 78
     2
 67
     7
 79
     5
170
     0
171
     0
290
     0
174
     0
 93
        1
 44
50.0
173
     0
291
     1
 45
0.0
1001
ACAD
1000
AcDbSavedByObjectVersion
1070
     0
  0
VISUALSTYLE
  5
4B1
102
{ACAD_REACTORS
330
2F
102
}
102
{ACAD_XDICTIONARY
360
605
102
}
330
2F
100
AcDbVisualStyle
  2
ColorChange
 70
    16
 71
     2
 72
     2
 73
     3
 90
        0
 40
0.6
 41
30.0
 62
     5
 63
     8
 74
     1
 91
        4
 64
     7
 65
   257
 75
     1
175
     1
 42
1.0
 92
        8
 66
     8
 43
1.0
 76
     1
 77
     6
 78
     2
 67
     7
 79
     5
170
     0
171
     0
290
     0
174
     0
 93
        1
 44
0.0
173
     0
291
     1
 45
0.0
1001
ACAD
1000
AcDbSavedByObjectVersion
1070
     0
  0
VISUALSTYLE
  5
4AB
102
{ACAD_REACTORS
330
2F
102
}
102
{ACAD_XDICTIONARY
360
607
102
}
330
2F
100
AcDbVisualStyle
  2
Conceptual
 70
     9
 71
     3
 72
     2
 73
     0
 90
        0
 40
0.6
 41
30.0
 62
     5
 63
     7
 74
     2
 91
        2
 64
     7
 65
   257
 75
     1
175
     1
 42
179.0
 92
        8
 66
     7
 43
1.0
 76
     1
 77
     6
 78
     2
 67
     7
 79
     3
170
     0
171
     0
290
     0
174
     0
 93
        1
 44
0.0
173
     0
291
     0
 45
0.0
1001
ACAD
1000
AcDbSavedByObjectVersion
1070
     0
  0
VISUALSTYLE
  5
4AC
102
{ACAD_REACTORS
330
2F
102
}
102
{ACAD_XDICTIONARY
360
609
102
}
330
2F
100
AcDbVisualStyle
  2
Dim
 70
    11
 71
     2
 72
     2
 73
     0
 90
        0
 40
0.6
 41
30.0
 62
     5
 63
     7
 74
     1
 91
        4
 64
     7
 65
   257
 75
     1
175
     1
 42
1.0
 92
        8
 66
     7
 43
1.0
 76
     1
 77
     6
 78
     2
 67
     7
 79
     5
170
     0
171
     0
290
     0
174
     0
 93
        1
 44
-50.0
173
     0
291
     1
 45
0.0
1001
ACAD
1000
AcDbSavedByObjectVersion
1070
     0
  0
VISUALSTYLE
  5
4B9
102
{ACAD_REACTORS
330
2F
102
}
102
{ACAD_XDICTIONARY
360
60B
102
}
330
2F
100
AcDbVisualStyle
  2
EdgeColorOff
 70
    22
 71
     2
 72
     2
 73
     0
 90
        0
 40
0.6
 41
30.0
 62
     5
 63
     7
 74
     1
 91
        4
 64
     7
 65
   257
 75
     1
175
     1
 42
1.0
 92
        8
 66
     7
 43
1.0
 76
     1
 77
     6
 78
     2
 67
     7
 79
     5
170
     0
171
     0
290
     0
174
     0
 93
        1
 44
0.0
173
     0
291
     1
 45
0.0
1001
ACAD
1000
AcDbSavedByObjectVersion
1070
     0
  0
VISUALSTYLE
  5
4B0
102
{ACAD_REACTORS
330
2F
102
}
102
{ACAD_XDICTIONARY
360
60D
102
}
330
2F
100
AcDbVisualStyle
  2
Facepattern
 70
    15
 71
     2
 72
     2
 73
     0
 90
        0
 40
0.6
 41
30.0
 62
     5
 63
     7
 74
     1
 91
        4
 64
     7
 65
   257
 75
     1
175
     1
 42
1.0
 92
        8
 66
     7
 43
1.0
 76
     1
 77
     6
 78
     2
 67
     7
 79
     5
170
     0
171
     0
290
     0
174
     0
 93
        1
 44
0.0
173
     0
291
     1
 45
0.0
1001
ACAD
1000
AcDbSavedByObjectVersion
1070
     0
  0
VISUALSTYLE
  5
4A5
102
{ACAD_REACTORS
330
2F
102
}
102
{ACAD_XDICTIONARY
360
60F
102
}
330
2F
100
AcDbVisualStyle
  2
Flat
 70
     0
 71
     2
 72
     1
 73
     1
 90
        2
 40
0.6
 41
30.0
 62
     5
 63
     7
 74
     0
 91
        0
 64
     7
 65
   257
 75
     1
175
     1
 42
1.0
 92
        8
 66
     7
 43
1.0
 76
     1
 77
     6
 78
     2
 67
     7
 79
     5
170
     0
171
     0
290
     0
174
     0
 93
       13
 44
0.0
173
     0
291
     1
 45
0.0
1001
ACAD
1000
AcDbSavedByObjectVersion
1070
     0
  0
VISUALSTYLE
  5
4A6
102
{ACAD_REACTORS
330
2F
102
}
102
{ACAD_XDICTIONARY
360
611
102
}
330
2F
100
AcDbVisualStyle
  2
FlatWithEdges
 70
     1
 71
     2
 72
     1
 73
     1
 90
        2
 40
0.6
 41
30.0
 62
     5
 63
     7
 74
     1
 91
        0
 64
     7
 65
   257
 75
     1
175
     1
 42
1.0
 92
        0
 66
   257
 43
1.0
 76
     1
 77
     6
 78
     2
 67
     7
 79
     5
170
     0
171
     0
290
     0
174
     0
 93
       13
 44
0.0
173
     0
291
     1
 45
0.0
1001
ACAD
1000
AcDbSavedByObjectVersion
1070
     0
  0
VISUALSTYLE
  5
4A7
102
{ACAD_REACTORS
330
2F
102
}
102
{ACAD_XDICTIONARY
360
613
102
}
330
2F
100
AcDbVisualStyle
  2
Gouraud
 70
     2
 71
     2
 72
     2
 73
     1
 90
        2
 40
0.6
 41
30.0
 62
     5
 63
     7
 74
     0
 91
        0
 64
     7
 65
   257
 75
     1
175
     1
 42
1.0
 92
        0
 66
     7
 43
1.0
 76
     1
 77
     6
 78
     2
 67
     7
 79
     5
170
     0
171
     0
290
     0
174
     0
 93
       13
 44
0.0
173
     0
291
     1
 45
0.0
1001
ACAD
1000
AcDbSavedByObjectVersion
1070
     0
  0
VISUALSTYLE
  5
4A8
102
{ACAD_REACTORS
330
2F
102
}
102
{ACAD_XDICTIONARY
360
615
102
}
330
2F
100
AcDbVisualStyle
  2
GouraudWithEdges
 70
     3
 71
     2
 72
     2
 73
     1
 90
        2
 40
0.6
 41
30.0
 62
     5
 63
     7
 74
     1
 91
        0
 64
     7
 65
   257
 75
     1
175
     1
 42
1.0
 92
        0
 66
   257
 43
1.0
 76
     1
 77
     6
 78
     2
 67
     7
 79
     5
170
     0
171
     0
290
     0
174
     0
 93
       13
 44
0.0
173
     0
291
     1
 45
0.0
1001
ACAD
1000
AcDbSavedByObjectVersion
1070
     0
  0
VISUALSTYLE
  5
4AA
102
{ACAD_REACTORS
330
2F
102
}
102
{ACAD_XDICTIONARY
360
617
102
}
330
2F
100
AcDbVisualStyle
  2
Hidden
 70
     6
 71
     1
 72
     2
 73
     2
 90
        0
 40
0.6
 41
30.0
 62
     5
 63
     7
 74
     2
 91
        2
 64
     7
 65
   257
 75
     2
175
     1
 42
40.0
 92
        0
 66
   257
 43
1.0
 76
     1
 77
     6
 78
     2
 67
     7
 79
     3
170
     0
171
     0
290
     0
174
     0
 93
        1
 44
0.0
173
     0
291
     0
 45
0.0
1001
ACAD
1000
AcDbSavedByObjectVersion
1070
     0
  0
VISUALSTYLE
  5
4B7
102
{ACAD_REACTORS
330
2F
102
}
102
{ACAD_XDICTIONARY
360
619
102
}
330
2F
100
AcDbVisualStyle
  2
JitterOff
 70
    20
 71
     2
 72
     2
 73
     0
 90
        0
 40
0.6
 41
30.0
 62
     5
 63
     7
 74
     1
 91
        4
 64
     7
 65
   257
 75
     1
175
     1
 42
1.0
 92
       10
 66
     7
 43
1.0
 76
     1
 77
     6
 78
     2
 67
     7
 79
     5
170
     0
171
     0
290
     0
174
     0
 93
        1
 44
0.0
173
     0
291
     1
 45
0.0
1001
ACAD
1000
AcDbSavedByObjectVersion
1070
     0
  0
VISUALSTYLE
  5
4AF
102
{ACAD_REACTORS
330
2F
102
}
102
{ACAD_XDICTIONARY
360
61B
102
}
330
2F
100
AcDbVisualStyle
  2
Linepattern
 70
    14
 71
     2
 72
     2
 73
     0
 90
        0
 40
0.6
 41
30.0
 62
     5
 63
     7
 74
     1
 91
        4
 64
     7
 65
   257
 75
     7
175
     7
 42
1.0
 92
        8
 66
     7
 43
1.0
 76
     1
 77
     6
 78
     2
 67
     7
 79
     5
170
     0
171
     0
290
     0
174
     0
 93
        1
 44
0.0
173
     0
291
     1
 45
0.0
1001
ACAD
1000
AcDbSavedByObjectVersion
1070
     0
  0
VISUALSTYLE
  5
4B8
102
{ACAD_REACTORS
330
2F
102
}
102
{ACAD_XDICTIONARY
360
61D
102
}
330
2F
100
AcDbVisualStyle
  2
OverhangOff
 70
    21
 71
     2
 72
     2
 73
     0
 90
        0
 40
0.6
 41
30.0
 62
     5
 63
     7
 74
     1
 91
        4
 64
     7
 65
   257
 75
     1
175
     1
 42
1.0
 92
        9
 66
     7
 43
1.0
 76
     1
 77
     6
 78
     2
 67
     7
 79
     5
170
     0
171
     0
290
     0
174
     0
 93
        1
 44
0.0
173
     0
291
     1
 45
0.0
1001
ACAD
1000
AcDbSavedByObjectVersion
1070
     0
  0
VISUALSTYLE
  5
53
102
{ACAD_REACTORS
330
2F
102
}
102
{ACAD_XDICTIONARY
360
61F
102
}
330
2F
100
AcDbVisualStyle
  2
Realistic
 70
     8
 71
     2
 72
     3
 73
     0
 90
        2
 40
0.6
 41
30.0
 62
     5
 63
     7
 74
     0
 91
        0
 64
     7
 65
   257
 75
     1
175
     1
 42
1.0
 92
        8
 66
   257
 43
1.0
 76
     1
 77
     6
 78
     2
 67
     7
 79
     3
170
     0
171
     0
290
     0
174
     0
 93
       13
 44
0.0
173
     0
291
     0
 45
0.0
1001
ACAD
1000
AcDbSavedByObjectVersion
1070
     0
  0
VISUALSTYLE
  5
4B6
102
{ACAD_REACTORS
330
2F
102
}
102
{ACAD_XDICTIONARY
360
621
102
}
330
2F
100
AcDbVisualStyle
  2
Shaded
 70
    27
 71
     2
 72
     2
 73
     1
 90
        2
 40
0.6
 41
30.0
 62
     5
 63
     7
 74
     0
 91
        4
 64
     7
 65
   257
 75
     1
175
     1
 42
1.0
 92
        8
 66
   257
 43
1.0
 76
     1
 77
     6
 78
     2
 67
     8
 79
     3
170
     0
171
     0
290
     0
174
     0
 93
        5
 44
0.0
173
     0
291
     0
 45
0.0
1001
ACAD
1000
AcDbSavedByObjectVersion
1070
     0
  0
VISUALSTYLE
  5
4B5
102
{ACAD_REACTORS
330
2F
102
}
102
{ACAD_XDICTIONARY
360
623
102
}
330
2F
100
AcDbVisualStyle
  2
Shaded with edges
 70
    26
 71
     2
 72
     2
 73
     1
 90
        2
 40
0.6
 41
30.0
 62
     5
 63
     7
 74
     1
 91
       10
 64
     7
 65
   257
 75
     2
175
     1
 42
1.0
 92
        8
 66
   257
 43
1.0
 76
     1
 77
     6
 78
     2
 67
     7
 79
     3
170
     0
171
     0
290
     0
174
     0
 93
        5
 44
0.0
173
     0
291
     0
 45
0.0
1001
ACAD
1000
AcDbSavedByObjectVersion
1070
     0
  0
VISUALSTYLE
  5
4B2
102
{ACAD_REACTORS
330
2F
102
}
102
{ACAD_XDICTIONARY
360
625
102
}
330
2F
100
AcDbVisualStyle
  2
Shades of Gray
 70
    23
 71
     2
 72
     2
 73
     3
 90
        0
 40
0.6
 41
30.0
 62
     5
 63
     7
 74
     2
 91
        2
 64
     7
 65
     7
 75
     1
175
     1
 42
40.0
 92
        8
 66
     7
 43
1.0
 76
     1
 77
     6
 78
     2
 67
     7
 79
     3
170
     0
171
     0
290
     0
174
     0
 93
        1
 44
0.0
173
     0
291
     0
 45
0.0
1001
ACAD
1000
AcDbSavedByObjectVersion
1070
     0
  0
VISUALSTYLE
  5
4B3
102
{ACAD_REACTORS
330
2F
102
}
102
{ACAD_XDICTIONARY
360
627
102
}
330
2F
100
AcDbVisualStyle
  2
Sketchy
 70
    24
 71
     1
 72
     2
 73
     2
 90
        0
 40
0.6
 41
30.0
 62
     5
 63
     7
 74
     2
 91
        2
 64
     7
 65
     7
 75
     1
175
     1
 42
40.0
 92
       11
 66
     7
 43
1.0
 76
     1
 77
     6
 78
     2
 67
     7
 79
     6
170
     0
171
     0
290
     0
174
     0
 93
        1
 44
0.0
173
     0
291
     0
 45
0.0
1001
ACAD
1000
AcDbSavedByObjectVersion
1070
     0
  0
VISUALSTYLE
  5
4AE
102
{ACAD_REACTORS
330
2F
102
}
102
{ACAD_XDICTIONARY
360
629
102
}
330
2F
100
AcDbVisualStyle
  2
Thicken
 70
    13
 71
     2
 72
     2
 73
     0
 90
        0
 40
0.6
 41
30.0
 62
     5
 63
     7
 74
     1
 91
        4
 64
     7
 65
   257
 75
     1
175
     1
 42
1.0
 92
       12
 66
     7
 43
1.0
 76
     1
 77
     6
 78
     2
 67
     7
 79
     5
170
     0
171
     0
290
     0
174
     0
 93
        1
 44
0.0
173
     0
291
     1
 45
0.0
1001
ACAD
1000
AcDbSavedByObjectVersion
1070
     0
  0
VISUALSTYLE
  5
54
102
{ACAD_REACTORS
330
2F
102
}
102
{ACAD_XDICTIONARY
360
62B
102
}
330
2F
100
AcDbVisualStyle
  2
Wireframe
 70
     5
 71
     0
 72
     2
 73
     0
 90
        0
 40
0.6
 41
30.0
 62
     5
 63
     7
 74
     1
 91
        4
 64
     7
 65
   257
 75
     1
175
     1
 42
1.0
 92
        0
 66
   257
 43
1.0
 76
     1
 77
     6
 78
     2
 67
     7
 79
     3
170
     0
171
     0
290
     0
174
     0
 93
        1
 44
0.0
173
     0
291
     0
 45
0.0
1001
ACAD
1000
AcDbSavedByObjectVersion
1070
     0
  0
VISUALSTYLE
  5
4B4
102
{ACAD_REACTORS
330
2F
102
}
102
{ACAD_XDICTIONARY
360
62D
102
}
330
2F
100
AcDbVisualStyle
  2
X-Ray
 70
    25
 71
     2
 72
     2
 73
     1
 90
        1
 40
0.5
 41
30.0
 62
     5
 63
     7
 74
     1
 91
        0
 64
     7
 65
   257
 75
     1
175
     1
 42
1.0
 92
        8
 66
     7
 43
1.0
 76
     1
 77
     6
 78
     2
 67
     7
 79
     3
170
     0
171
     0
290
     0
174
     0
 93
       13
 44
0.0
173
     0
291
     0
 45
0.0
1001
ACAD
1000
AcDbSavedByObjectVersion
1070
     0
  0
XRECORD
  5
5F0
102
{ACAD_REACTORS
330
5EF
102
}
330
5EF
100
AcDbXrecord
280
     1
340
49
  0
XRECORD
  5
5F1
102
{ACAD_REACTORS
330
5EF
102
}
330
5EF
100
AcDbXrecord
280
     1
340
E
  0
DICTIONARYVAR
  5
4A0
102
{ACAD_REACTORS
330
49A
102
}
330
49A
100
DictionaryVariables
280
     0
  1
1:1
  0
DICTIONARYVAR
  5
49C
102
{ACAD_REACTORS
330
49A
102
}
330
49A
100
DictionaryVariables
280
     0
  1
Standard
  0
DICTIONARYVAR
  5
49B
102
{ACAD_REACTORS
330
49A
102
}
330
49A
100
DictionaryVariables
280
     0
  1
Standard
  0
DICTIONARYVAR
  5
49D
102
{ACAD_REACTORS
330
49A
102
}
330
49A
100
DictionaryVariables
280
     0
  1
Imperial24
  0
DICTIONARYVAR
  5
49E
102
{ACAD_REACTORS
330
49A
102
}
330
49A
100
DictionaryVariables
280
     0
  1
Imperial24
  0
DICTIONARYVAR
  5
5ED
102
{ACAD_REACTORS
330
49A
102
}
330
49A
100
DictionaryVariables
280
     0
  1
0
  0
DICTIONARYVAR
  5
5EE
102
{ACAD_REACTORS
330
49A
102
}
330
49A
100
DictionaryVariables
280
     0
  1
1
  0
DICTIONARYVAR
  5
4A2
102
{ACAD_REACTORS
330
49A
102
}
330
49A
100
DictionaryVariables
280
     0
  1
1
  0
DICTIONARYVAR
  5
4A3
102
{ACAD_REACTORS
330
49A
102
}
330
49A
100
DictionaryVariables
280
     0
  1
15
  0
DICTIONARYVAR
  5
4A1
102
{ACAD_REACTORS
330
49A
102
}
330
49A
100
DictionaryVariables
280
     0
  1
0
  0
DICTIONARYVAR
  5
49F
102
{ACAD_REACTORS
330
49A
102
}
330
49A
100
DictionaryVariables
280
     0
  1
0
  0
DICTIONARYVAR
  5
4F2
102
{ACAD_REACTORS
330
49A
102
}
330
49A
100
DictionaryVariables
280
     0
  1
0
  0
DICTIONARY
  5
4DB
330
4BE
100
AcDbDictionary
280
     1
281
     1
  3
ACAD_XREC_ROUNDTRIP
360
5F5
  0
DICTIONARY
  5
5F6
330
41
100
AcDbDictionary
280
     1
281
     1
  3
ACAD_XREC_ROUNDTRIP
360
5F7
  0
DICTIONARY
  5
5F8
330
39
100
AcDbDictionary
280
     1
281
     1
  3
ACAD_XREC_ROUNDTRIP
360
5F9
  0
DICTIONARY
  5
5FA
330
D
100
AcDbDictionary
280
     1
281
     1
  3
ACAD_XREC_ROUNDTRIP
360
5FB
  0
DICTIONARY
  5
5FC
330
4BA
100
AcDbDictionary
280
     1
281
     1
  3
ACAD_XREC_ROUNDTRIP
360
5FD
  0
DICTIONARY
  5
4D9
330
4BC
100
AcDbDictionary
280
     1
281
     1
  3
ACAD_XREC_ROUNDTRIP
360
5FE
  0
DICTIONARY
  5
5FF
330
2E
100
AcDbDictionary
280
     1
281
     1
  3
ACAD_XREC_ROUNDTRIP
360
600
  0
DICTIONARY
  5
601
330
4A9
100
AcDbDictionary
280
     1
281
     1
  3
ACAD_XREC_ROUNDTRIP
360
602
  0
DICTIONARY
  5
603
330
4AD
100
AcDbDictionary
280
     1
281
     1
  3
ACAD_XREC_ROUNDTRIP
360
604
  0
DICTIONARY
  5
605
330
4B1
100
AcDbDictionary
280
     1
281
     1
  3
ACAD_XREC_ROUNDTRIP
360
606
  0
DICTIONARY
  5
607
330
4AB
100
AcDbDictionary
280
     1
281
     1
  3
ACAD_XREC_ROUNDTRIP
360
608
  0
DICTIONARY
  5
609
330
4AC
100
AcDbDictionary
280
     1
281
     1
  3
ACAD_XREC_ROUNDTRIP
360
60A
  0
DICTIONARY
  5
60B
330
4B9
100
AcDbDictionary
280
     1
281
     1
  3
ACAD_XREC_ROUNDTRIP
360
60C
  0
DICTIONARY
  5
60D
330
4B0
100
AcDbDictionary
280
     1
281
     1
  3
ACAD_XREC_ROUNDTRIP
360
60E
  0
DICTIONARY
  5
60F
330
4A5
100
AcDbDictionary
280
     1
281
     1
  3
ACAD_XREC_ROUNDTRIP
360
610
  0
DICTIONARY
  5
611
330
4A6
100
AcDbDictionary
280
     1
281
     1
  3
ACAD_XREC_ROUNDTRIP
360
612
  0
DICTIONARY
  5
613
330
4A7
100
AcDbDictionary
280
     1
281
     1
  3
ACAD_XREC_ROUNDTRIP
360
614
  0
DICTIONARY
  5
615
330
4A8
100
AcDbDictionary
280
     1
281
     1
  3
ACAD_XREC_ROUNDTRIP
360
616
  0
DICTIONARY
  5
617
330
4AA
100
AcDbDictionary
280
     1
281
     1
  3
ACAD_XREC_ROUNDTRIP
360
618
  0
DICTIONARY
  5
619
330
4B7
100
AcDbDictionary
280
     1
281
     1
  3
ACAD_XREC_ROUNDTRIP
360
61A
  0
DICTIONARY
  5
61B
330
4AF
100
AcDbDictionary
280
     1
281
     1
  3
ACAD_XREC_ROUNDTRIP
360
61C
  0
DICTIONARY
  5
61D
330
4B8
100
AcDbDictionary
280
     1
281
     1
  3
ACAD_XREC_ROUNDTRIP
360
61E
  0
DICTIONARY
  5
61F
330
53
100
AcDbDictionary
280
     1
281
     1
  3
ACAD_XREC_ROUNDTRIP
360
620
  0
DICTIONARY
  5
621
330
4B6
100
AcDbDictionary
280
     1
281
     1
  3
ACAD_XREC_ROUNDTRIP
360
622
  0
DICTIONARY
  5
623
330
4B5
100
AcDbDictionary
280
     1
281
     1
  3
ACAD_XREC_ROUNDTRIP
360
624
  0
DICTIONARY
  5
625
330
4B2
100
AcDbDictionary
280
     1
281
     1
  3
ACAD_XREC_ROUNDTRIP
360
626
  0
DICTIONARY
  5
627
330
4B3
100
AcDbDictionary
280
     1
281
     1
  3
ACAD_XREC_ROUNDTRIP
360
628
  0
DICTIONARY
  5
629
330
4AE
100
AcDbDictionary
280
     1
281
     1
  3
ACAD_XREC_ROUNDTRIP
360
62A
  0
DICTIONARY
  5
62B
330
54
100
AcDbDictionary
280
     1
281
     1
  3
ACAD_XREC_ROUNDTRIP
360
62C
  0
DICTIONARY
  5
62D
330
4B4
100
AcDbDictionary
280
     1
281
     1
  3
ACAD_XREC_ROUNDTRIP
360
62E
  0
XRECORD
  5
5F5
102
{ACAD_REACTORS
330
4DB
102
}
330
4DB
100
AcDbXrecord
280
     1
102
DISPLAYNAME
  1
Imperial24
102
FLAGS
 90
        0
  0
XRECORD
  5
5F7
102
{ACAD_REACTORS
330
5F6
102
}
330
5F6
100
AcDbXrecord
280
     1
102
MATERIAL
148
0.0
149
0.0
149
0.0
 93
        0
 94
      127
282
     0
 72
     0
 77
     0
171
     0
175
     0
179
     0
273
     0
  0
XRECORD
  5
5F9
102
{ACAD_REACTORS
330
5F8
102
}
330
5F8
100
AcDbXrecord
280
     1
102
MATERIAL
148
0.0
149
0.0
149
0.0
 93
        0
 94
      127
282
     0
 72
     0
 77
     0
171
     0
175
     0
179
     0
273
     0
  0
XRECORD
  5
5FB
102
{ACAD_REACTORS
330
5FA
102
}
330
5FA
100
AcDbXrecord
280
     1
102
MATERIAL
148
0.0
149
0.0
149
0.0
 93
        0
 94
      127
282
     0
 72
     0
 77
     0
171
     0
175
     0
179
     0
273
     0
  0
XRECORD
  5
5FD
102
{ACAD_REACTORS
330
5FC
102
}
330
5FC
100
AcDbXrecord
280
     1
102
ACAD_ROUNDTRIP_2012_MLEADER_STYLE
298
     1
  0
XRECORD
  5
5FE
102
{ACAD_REACTORS
330
4D9
102
}
330
4D9
100
AcDbXrecord
280
     1
102
DISPLAYNAME
  1
Imperial24
102
FLAGS
 90
        0
  0
XRECORD
  5
600
102
{ACAD_REACTORS
330
5FF
102
}
330
5FF
100
AcDbXrecord
280
     1
102
RTVSPropertyOp0
 70
     1
102
RTVSPropertyOp1
 70
     1
102
RTVSPropertyOp2
 70
     1
102
RTVSPropertyOp3
 70
     1
102
RTVSPropertyOp4
 70
     1
102
RTVSPropertyOp5
 70
     1
102
RTVSPropertyOp6
 70
     1
102
RTVSPropertyOp7
 70
     1
102
RTVSPropertyOp8
 70
     1
102
RTVSPropertyOp9
 70
     1
102
RTVSPropertyOp10
 70
     1
102
RTVSPropertyOp11
 70
     1
102
RTVSPropertyOp12
 70
     1
102
RTVSPropertyOp13
 70
     1
102
RTVSPropertyOp14
 70
     1
102
RTVSPropertyOp15
 70
     1
102
RTVSPropertyOp16
 70
     1
102
RTVSPropertyOp17
 70
     1
102
RTVSPropertyOp18
 70
     1
102
RTVSPropertyOp19
 70
     1
102
RTVSPropertyOp20
 70
     1
102
RTVSPropertyOp21
 70
     1
102
RTVSPropertyOp22
 70
     1
102
RTVSPropertyOp23
 70
     1
102
RTVSPropertyOp24
 70
     1
102
RTVSPropertyOp25
 70
     1
102
RTVSPropertyOp26
 70
     1
102
RTVSPropertyOp27
 70
     1
102
RTVSPropertyOp28
 70
     1
102
RTVSPropertyOp29
 70
     1
102
RTVSPropertyOp30
 70
     1
102
RTVSPropertyOp31
 70
     1
102
RTVSPropertyOp32
 70
     1
102
RTVSPropertyOp33
 70
     1
102
RTVSPropertyOp34
 70
     1
102
RTVSPropertyOp35
 70
     1
102
RTVSPropertyOp36
 70
     1
102
RTVSPropertyOp37
 70
     1
102
RTVSPropertyOp38
 70
     1
102
RTVSPropertyOp39
 70
     1
102
RTVSPropertyOp40
 70
     1
102
RTVSPropertyOp41
 70
     1
102
RTVSPropertyOp42
 70
     1
102
RTVSPropertyOp43
 70
     1
102
RTVSPropertyOp44
 70
     1
102
RTVSPropertyOp45
 70
     1
102
RTVSPropertyOp46
 70
     1
102
RTVSPropertyOp47
 70
     1
102
RTVSPropertyOp48
 70
     1
102
RTVSPropertyOp49
 70
     1
102
RTVSPropertyOp50
 70
     1
102
RTVSPropertyOp51
 70
     0
102
RTVSPropertyOp52
 70
     0
102
RTVSPropertyOp53
 70
     1
102
RTVSPropertyOp54
 70
     1
102
RTVSPropertyOp55
 70
     1
102
RTVSPropertyOp56
 70
     1
102
RTVSPropertyOp57
 70
     1
102
RTVSPost2010Prop28
280
     1
102
RTVSPost2010PropOp28
 70
     1
102
RTVSPost2010Prop29
280
     1
102
RTVSPost2010PropOp29
 70
     1
102
RTVSPost2010Prop30
280
     0
102
RTVSPost2010PropOp30
 70
     1
102
RTVSPost2010Prop31
280
     0
102
RTVSPost2010PropOp31
 70
     1
102
RTVSPost2010Prop32
280
     0
102
RTVSPost2010PropOp32
 70
     1
102
RTVSPost2010Prop33
280
     0
102
RTVSPost2010PropOp33
 70
     1
102
RTVSPost2010Prop34
280
     0
102
RTVSPost2010PropOp34
 70
     1
102
RTVSPost2010Prop35
280
     0
102
RTVSPost2010PropOp35
 70
     1
102
RTVSPost2010Prop36
280
     0
102
RTVSPost2010PropOp36
 70
     1
102
RTVSPost2010Prop37
 90
       50
102
RTVSPost2010PropOp37
 70
     1
102
RTVSPost2010Prop38
140
0.0
102
RTVSPost2010PropOp38
 70
     1
102
RTVSPost2010Prop39
140
1.0
102
RTVSPost2010PropOp39
 70
     1
102
RTVSPost2010Prop40
 90
        0
102
RTVSPost2010PropOp40
 70
     1
102
RTVSPost2010Prop41ColorIndex
 90
       18
102
RTVSPost2010Prop41ColorRGB
 90
        0
102
RTVSPost2010PropOp41
 70
     1
102
RTVSPost2010Prop42
 90
       50
102
RTVSPost2010PropOp42
 70
     1
102
RTVSPost2010Prop43
 90
        3
102
RTVSPost2010PropOp43
 70
     1
102
RTVSPost2010Prop44ColorIndex
 90
        5
102
RTVSPost2010Prop44ColorRGB
 90
      255
102
RTVSPost2010PropOp44
 70
     1
102
RTVSPost2010Prop45
280
     0
102
RTVSPost2010PropOp45
 70
     1
102
RTVSPost2010Prop46
 90
       50
102
RTVSPost2010PropOp46
 70
     1
102
RTVSPost2010Prop47
 90
       50
102
RTVSPost2010PropOp47
 70
     1
102
RTVSPost2010Prop48
 90
       50
102
RTVSPost2010PropOp48
 70
     1
102
RTVSPost2010Prop49
280
     0
102
RTVSPost2010PropOp49
 70
     1
102
RTVSPost2010Prop50
 90
       50
102
RTVSPost2010PropOp50
 70
     1
102
RTVSPost2010Prop51ColorIndex
 90
      256
102
RTVSPost2010Prop51ColorRGB
 90
-16777216
102
RTVSPost2010PropOp51
 70
     0
102
RTVSPost2010Prop52
140
1.0
102
RTVSPost2010PropOp52
 70
     0
102
RTVSPost2010Prop53
 90
        2
102
RTVSPost2010PropOp53
 70
     1
102
RTVSPost2010Prop54
  1
strokes_ogs.tif
102
RTVSPost2010PropOp54
 70
     1
102
RTVSPost2010Prop55
280
     0
102
RTVSPost2010PropOp55
 70
     1
102
RTVSPost2010Prop56
140
1.0
102
RTVSPost2010PropOp56
 70
     1
102
RTVSPost2010Prop57
140
1.0
102
RTVSPost2010PropOp57
 70
     1
  0
XRECORD
  5
602
102
{ACAD_REACTORS
330
601
102
}
330
601
100
AcDbXrecord
280
     1
102
RTVSPropertyOp0
 70
     1
102
RTVSPropertyOp1
 70
     1
102
RTVSPropertyOp2
 70
     1
102
RTVSPropertyOp3
 70
     1
102
RTVSPropertyOp4
 70
     1
102
RTVSPropertyOp5
 70
     1
102
RTVSPropertyOp6
 70
     1
102
RTVSPropertyOp7
 70
     1
102
RTVSPropertyOp8
 70
     1
102
RTVSPropertyOp9
 70
     1
102
RTVSPropertyOp10
 70
     1
102
RTVSPropertyOp11
 70
     1
102
RTVSPropertyOp12
 70
     1
102
RTVSPropertyOp13
 70
     1
102
RTVSPropertyOp14
 70
     1
102
RTVSPropertyOp15
 70
     1
102
RTVSPropertyOp16
 70
     1
102
RTVSPropertyOp17
 70
     1
102
RTVSPropertyOp18
 70
     1
102
RTVSPropertyOp19
 70
     1
102
RTVSPropertyOp20
 70
     1
102
RTVSPropertyOp21
 70
     1
102
RTVSPropertyOp22
 70
     1
102
RTVSPropertyOp23
 70
     1
102
RTVSPropertyOp24
 70
     1
102
RTVSPropertyOp25
 70
     1
102
RTVSPropertyOp26
 70
     1
102
RTVSPropertyOp27
 70
     1
102
RTVSPropertyOp28
 70
     1
102
RTVSPropertyOp29
 70
     1
102
RTVSPropertyOp30
 70
     1
102
RTVSPropertyOp31
 70
     1
102
RTVSPropertyOp32
 70
     1
102
RTVSPropertyOp33
 70
     1
102
RTVSPropertyOp34
 70
     1
102
RTVSPropertyOp35
 70
     1
102
RTVSPropertyOp36
 70
     1
102
RTVSPropertyOp37
 70
     1
102
RTVSPropertyOp38
 70
     1
102
RTVSPropertyOp39
 70
     1
102
RTVSPropertyOp40
 70
     1
102
RTVSPropertyOp41
 70
     1
102
RTVSPropertyOp42
 70
     1
102
RTVSPropertyOp43
 70
     1
102
RTVSPropertyOp44
 70
     1
102
RTVSPropertyOp45
 70
     1
102
RTVSPropertyOp46
 70
     1
102
RTVSPropertyOp47
 70
     1
102
RTVSPropertyOp48
 70
     1
102
RTVSPropertyOp49
 70
     1
102
RTVSPropertyOp50
 70
     1
102
RTVSPropertyOp51
 70
     0
102
RTVSPropertyOp52
 70
     0
102
RTVSPropertyOp53
 70
     1
102
RTVSPropertyOp54
 70
     1
102
RTVSPropertyOp55
 70
     1
102
RTVSPropertyOp56
 70
     1
102
RTVSPropertyOp57
 70
     1
102
RTVSPost2010Prop28
280
     0
102
RTVSPost2010PropOp28
 70
     1
102
RTVSPost2010Prop29
280
     1
102
RTVSPost2010PropOp29
 70
     1
102
RTVSPost2010Prop30
280
     1
102
RTVSPost2010PropOp30
 70
     1
102
RTVSPost2010Prop31
280
     0
102
RTVSPost2010PropOp31
 70
     1
102
RTVSPost2010Prop32
280
     0
102
RTVSPost2010PropOp32
 70
     1
102
RTVSPost2010Prop33
280
     0
102
RTVSPost2010PropOp33
 70
     1
102
RTVSPost2010Prop34
280
     0
102
RTVSPost2010PropOp34
 70
     1
102
RTVSPost2010Prop35
280
     0
102
RTVSPost2010PropOp35
 70
     1
102
RTVSPost2010Prop36
280
     0
102
RTVSPost2010PropOp36
 70
     1
102
RTVSPost2010Prop37
 90
       50
102
RTVSPost2010PropOp37
 70
     1
102
RTVSPost2010Prop38
140
0.0
102
RTVSPost2010PropOp38
 70
     1
102
RTVSPost2010Prop39
140
1.0
102
RTVSPost2010PropOp39
 70
     1
102
RTVSPost2010Prop40
 90
        0
102
RTVSPost2010PropOp40
 70
     1
102
RTVSPost2010Prop41ColorIndex
 90
       18
102
RTVSPost2010Prop41ColorRGB
 90
        0
102
RTVSPost2010PropOp41
 70
     1
102
RTVSPost2010Prop42
 90
       50
102
RTVSPost2010PropOp42
 70
     1
102
RTVSPost2010Prop43
 90
        3
102
RTVSPost2010PropOp43
 70
     1
102
RTVSPost2010Prop44ColorIndex
 90
        5
102
RTVSPost2010Prop44ColorRGB
 90
      255
102
RTVSPost2010PropOp44
 70
     1
102
RTVSPost2010Prop45
280
     0
102
RTVSPost2010PropOp45
 70
     1
102
RTVSPost2010Prop46
 90
       50
102
RTVSPost2010PropOp46
 70
     1
102
RTVSPost2010Prop47
 90
       50
102
RTVSPost2010PropOp47
 70
     1
102
RTVSPost2010Prop48
 90
       50
102
RTVSPost2010PropOp48
 70
     1
102
RTVSPost2010Prop49
280
     0
102
RTVSPost2010PropOp49
 70
     1
102
RTVSPost2010Prop50
 90
       50
102
RTVSPost2010PropOp50
 70
     1
102
RTVSPost2010Prop51ColorIndex
 90
      256
102
RTVSPost2010Prop51ColorRGB
 90
-16777216
102
RTVSPost2010PropOp51
 70
     0
102
RTVSPost2010Prop52
140
1.0
102
RTVSPost2010PropOp52
 70
     0
102
RTVSPost2010Prop53
 90
        2
102
RTVSPost2010PropOp53
 70
     1
102
RTVSPost2010Prop54
  1
strokes_ogs.tif
102
RTVSPost2010PropOp54
 70
     1
102
RTVSPost2010Prop55
280
     0
102
RTVSPost2010PropOp55
 70
     1
102
RTVSPost2010Prop56
140
1.0
102
RTVSPost2010PropOp56
 70
     1
102
RTVSPost2010Prop57
140
1.0
102
RTVSPost2010PropOp57
 70
     1
  0
XRECORD
  5
604
102
{ACAD_REACTORS
330
603
102
}
330
603
100
AcDbXrecord
280
     1
102
RTVSPropertyOp0
 70
     1
102
RTVSPropertyOp1
 70
     1
102
RTVSPropertyOp2
 70
     1
102
RTVSPropertyOp3
 70
     1
102
RTVSPropertyOp4
 70
     1
102
RTVSPropertyOp5
 70
     1
102
RTVSPropertyOp6
 70
     1
102
RTVSPropertyOp7
 70
     1
102
RTVSPropertyOp8
 70
     1
102
RTVSPropertyOp9
 70
     1
102
RTVSPropertyOp10
 70
     1
102
RTVSPropertyOp11
 70
     1
102
RTVSPropertyOp12
 70
     1
102
RTVSPropertyOp13
 70
     1
102
RTVSPropertyOp14
 70
     1
102
RTVSPropertyOp15
 70
     1
102
RTVSPropertyOp16
 70
     1
102
RTVSPropertyOp17
 70
     1
102
RTVSPropertyOp18
 70
     1
102
RTVSPropertyOp19
 70
     1
102
RTVSPropertyOp20
 70
     1
102
RTVSPropertyOp21
 70
     1
102
RTVSPropertyOp22
 70
     1
102
RTVSPropertyOp23
 70
     1
102
RTVSPropertyOp24
 70
     1
102
RTVSPropertyOp25
 70
     1
102
RTVSPropertyOp26
 70
     1
102
RTVSPropertyOp27
 70
     1
102
RTVSPropertyOp28
 70
     1
102
RTVSPropertyOp29
 70
     1
102
RTVSPropertyOp30
 70
     1
102
RTVSPropertyOp31
 70
     1
102
RTVSPropertyOp32
 70
     1
102
RTVSPropertyOp33
 70
     1
102
RTVSPropertyOp34
 70
     1
102
RTVSPropertyOp35
 70
     1
102
RTVSPropertyOp36
 70
     1
102
RTVSPropertyOp37
 70
     1
102
RTVSPropertyOp38
 70
     1
102
RTVSPropertyOp39
 70
     1
102
RTVSPropertyOp40
 70
     1
102
RTVSPropertyOp41
 70
     1
102
RTVSPropertyOp42
 70
     1
102
RTVSPropertyOp43
 70
     1
102
RTVSPropertyOp44
 70
     1
102
RTVSPropertyOp45
 70
     1
102
RTVSPropertyOp46
 70
     1
102
RTVSPropertyOp47
 70
     1
102
RTVSPropertyOp48
 70
     1
102
RTVSPropertyOp49
 70
     1
102
RTVSPropertyOp50
 70
     1
102
RTVSPropertyOp51
 70
     0
102
RTVSPropertyOp52
 70
     0
102
RTVSPropertyOp53
 70
     1
102
RTVSPropertyOp54
 70
     1
102
RTVSPropertyOp55
 70
     1
102
RTVSPropertyOp56
 70
     1
102
RTVSPropertyOp57
 70
     1
102
RTVSPost2010Prop28
280
     0
102
RTVSPost2010PropOp28
 70
     1
102
RTVSPost2010Prop29
280
     1
102
RTVSPost2010PropOp29
 70
     1
102
RTVSPost2010Prop30
280
     1
102
RTVSPost2010PropOp30
 70
     1
102
RTVSPost2010Prop31
280
     0
102
RTVSPost2010PropOp31
 70
     1
102
RTVSPost2010Prop32
280
     0
102
RTVSPost2010PropOp32
 70
     1
102
RTVSPost2010Prop33
280
     0
102
RTVSPost2010PropOp33
 70
     1
102
RTVSPost2010Prop34
280
     0
102
RTVSPost2010PropOp34
 70
     1
102
RTVSPost2010Prop35
280
     0
102
RTVSPost2010PropOp35
 70
     1
102
RTVSPost2010Prop36
280
     0
102
RTVSPost2010PropOp36
 70
     1
102
RTVSPost2010Prop37
 90
       50
102
RTVSPost2010PropOp37
 70
     1
102
RTVSPost2010Prop38
140
0.0
102
RTVSPost2010PropOp38
 70
     1
102
RTVSPost2010Prop39
140
1.0
102
RTVSPost2010PropOp39
 70
     1
102
RTVSPost2010Prop40
 90
        0
102
RTVSPost2010PropOp40
 70
     1
102
RTVSPost2010Prop41ColorIndex
 90
       18
102
RTVSPost2010Prop41ColorRGB
 90
        0
102
RTVSPost2010PropOp41
 70
     1
102
RTVSPost2010Prop42
 90
       50
102
RTVSPost2010PropOp42
 70
     1
102
RTVSPost2010Prop43
 90
        3
102
RTVSPost2010PropOp43
 70
     1
102
RTVSPost2010Prop44ColorIndex
 90
        5
102
RTVSPost2010Prop44ColorRGB
 90
      255
102
RTVSPost2010PropOp44
 70
     1
102
RTVSPost2010Prop45
280
     0
102
RTVSPost2010PropOp45
 70
     1
102
RTVSPost2010Prop46
 90
       50
102
RTVSPost2010PropOp46
 70
     1
102
RTVSPost2010Prop47
 90
       50
102
RTVSPost2010PropOp47
 70
     1
102
RTVSPost2010Prop48
 90
       50
102
RTVSPost2010PropOp48
 70
     1
102
RTVSPost2010Prop49
280
     0
102
RTVSPost2010PropOp49
 70
     1
102
RTVSPost2010Prop50
 90
       50
102
RTVSPost2010PropOp50
 70
     1
102
RTVSPost2010Prop51ColorIndex
 90
      256
102
RTVSPost2010Prop51ColorRGB
 90
-16777216
102
RTVSPost2010PropOp51
 70
     0
102
RTVSPost2010Prop52
140
1.0
102
RTVSPost2010PropOp52
 70
     0
102
RTVSPost2010Prop53
 90
        2
102
RTVSPost2010PropOp53
 70
     1
102
RTVSPost2010Prop54
  1
strokes_ogs.tif
102
RTVSPost2010PropOp54
 70
     1
102
RTVSPost2010Prop55
280
     0
102
RTVSPost2010PropOp55
 70
     1
102
RTVSPost2010Prop56
140
1.0
102
RTVSPost2010PropOp56
 70
     1
102
RTVSPost2010Prop57
140
1.0
102
RTVSPost2010PropOp57
 70
     1
  0
XRECORD
  5
606
102
{ACAD_REACTORS
330
605
102
}
330
605
100
AcDbXrecord
280
     1
102
RTVSPropertyOp0
 70
     1
102
RTVSPropertyOp1
 70
     1
102
RTVSPropertyOp2
 70
     1
102
RTVSPropertyOp3
 70
     1
102
RTVSPropertyOp4
 70
     1
102
RTVSPropertyOp5
 70
     1
102
RTVSPropertyOp6
 70
     1
102
RTVSPropertyOp7
 70
     1
102
RTVSPropertyOp8
 70
     1
102
RTVSPropertyOp9
 70
     1
102
RTVSPropertyOp10
 70
     1
102
RTVSPropertyOp11
 70
     1
102
RTVSPropertyOp12
 70
     1
102
RTVSPropertyOp13
 70
     1
102
RTVSPropertyOp14
 70
     1
102
RTVSPropertyOp15
 70
     1
102
RTVSPropertyOp16
 70
     1
102
RTVSPropertyOp17
 70
     1
102
RTVSPropertyOp18
 70
     1
102
RTVSPropertyOp19
 70
     1
102
RTVSPropertyOp20
 70
     1
102
RTVSPropertyOp21
 70
     1
102
RTVSPropertyOp22
 70
     1
102
RTVSPropertyOp23
 70
     1
102
RTVSPropertyOp24
 70
     1
102
RTVSPropertyOp25
 70
     1
102
RTVSPropertyOp26
 70
     1
102
RTVSPropertyOp27
 70
     1
102
RTVSPropertyOp28
 70
     1
102
RTVSPropertyOp29
 70
     1
102
RTVSPropertyOp30
 70
     1
102
RTVSPropertyOp31
 70
     1
102
RTVSPropertyOp32
 70
     1
102
RTVSPropertyOp33
 70
     1
102
RTVSPropertyOp34
 70
     1
102
RTVSPropertyOp35
 70
     1
102
RTVSPropertyOp36
 70
     1
102
RTVSPropertyOp37
 70
     1
102
RTVSPropertyOp38
 70
     1
102
RTVSPropertyOp39
 70
     1
102
RTVSPropertyOp40
 70
     1
102
RTVSPropertyOp41
 70
     1
102
RTVSPropertyOp42
 70
     1
102
RTVSPropertyOp43
 70
     1
102
RTVSPropertyOp44
 70
     1
102
RTVSPropertyOp45
 70
     1
102
RTVSPropertyOp46
 70
     1
102
RTVSPropertyOp47
 70
     1
102
RTVSPropertyOp48
 70
     1
102
RTVSPropertyOp49
 70
     1
102
RTVSPropertyOp50
 70
     1
102
RTVSPropertyOp51
 70
     0
102
RTVSPropertyOp52
 70
     0
102
RTVSPropertyOp53
 70
     1
102
RTVSPropertyOp54
 70
     1
102
RTVSPropertyOp55
 70
     1
102
RTVSPropertyOp56
 70
     1
102
RTVSPropertyOp57
 70
     1
102
RTVSPost2010Prop28
280
     0
102
RTVSPost2010PropOp28
 70
     1
102
RTVSPost2010Prop29
280
     1
102
RTVSPost2010PropOp29
 70
     1
102
RTVSPost2010Prop30
280
     1
102
RTVSPost2010PropOp30
 70
     1
102
RTVSPost2010Prop31
280
     0
102
RTVSPost2010PropOp31
 70
     1
102
RTVSPost2010Prop32
280
     0
102
RTVSPost2010PropOp32
 70
     1
102
RTVSPost2010Prop33
280
     0
102
RTVSPost2010PropOp33
 70
     1
102
RTVSPost2010Prop34
280
     0
102
RTVSPost2010PropOp34
 70
     1
102
RTVSPost2010Prop35
280
     0
102
RTVSPost2010PropOp35
 70
     1
102
RTVSPost2010Prop36
280
     0
102
RTVSPost2010PropOp36
 70
     1
102
RTVSPost2010Prop37
 90
       50
102
RTVSPost2010PropOp37
 70
     1
102
RTVSPost2010Prop38
140
0.0
102
RTVSPost2010PropOp38
 70
     1
102
RTVSPost2010Prop39
140
1.0
102
RTVSPost2010PropOp39
 70
     1
102
RTVSPost2010Prop40
 90
        0
102
RTVSPost2010PropOp40
 70
     1
102
RTVSPost2010Prop41ColorIndex
 90
       18
102
RTVSPost2010Prop41ColorRGB
 90
        0
102
RTVSPost2010PropOp41
 70
     1
102
RTVSPost2010Prop42
 90
       50
102
RTVSPost2010PropOp42
 70
     1
102
RTVSPost2010Prop43
 90
        3
102
RTVSPost2010PropOp43
 70
     1
102
RTVSPost2010Prop44ColorIndex
 90
        5
102
RTVSPost2010Prop44ColorRGB
 90
      255
102
RTVSPost2010PropOp44
 70
     1
102
RTVSPost2010Prop45
280
     0
102
RTVSPost2010PropOp45
 70
     1
102
RTVSPost2010Prop46
 90
       50
102
RTVSPost2010PropOp46
 70
     1
102
RTVSPost2010Prop47
 90
       50
102
RTVSPost2010PropOp47
 70
     1
102
RTVSPost2010Prop48
 90
       50
102
RTVSPost2010PropOp48
 70
     1
102
RTVSPost2010Prop49
280
     0
102
RTVSPost2010PropOp49
 70
     1
102
RTVSPost2010Prop50
 90
       50
102
RTVSPost2010PropOp50
 70
     1
102
RTVSPost2010Prop51ColorIndex
 90
      256
102
RTVSPost2010Prop51ColorRGB
 90
-16777216
102
RTVSPost2010PropOp51
 70
     0
102
RTVSPost2010Prop52
140
1.0
102
RTVSPost2010PropOp52
 70
     0
102
RTVSPost2010Prop53
 90
        2
102
RTVSPost2010PropOp53
 70
     1
102
RTVSPost2010Prop54
  1
strokes_ogs.tif
102
RTVSPost2010PropOp54
 70
     1
102
RTVSPost2010Prop55
280
     0
102
RTVSPost2010PropOp55
 70
     1
102
RTVSPost2010Prop56
140
1.0
102
RTVSPost2010PropOp56
 70
     1
102
RTVSPost2010Prop57
140
1.0
102
RTVSPost2010PropOp57
 70
     1
  0
XRECORD
  5
608
102
{ACAD_REACTORS
330
607
102
}
330
607
100
AcDbXrecord
280
     1
102
RTVSPropertyOp0
 70
     1
102
RTVSPropertyOp1
 70
     1
102
RTVSPropertyOp2
 70
     1
102
RTVSPropertyOp3
 70
     1
102
RTVSPropertyOp4
 70
     1
102
RTVSPropertyOp5
 70
     1
102
RTVSPropertyOp6
 70
     1
102
RTVSPropertyOp7
 70
     1
102
RTVSPropertyOp8
 70
     1
102
RTVSPropertyOp9
 70
     1
102
RTVSPropertyOp10
 70
     1
102
RTVSPropertyOp11
 70
     1
102
RTVSPropertyOp12
 70
     1
102
RTVSPropertyOp13
 70
     1
102
RTVSPropertyOp14
 70
     1
102
RTVSPropertyOp15
 70
     1
102
RTVSPropertyOp16
 70
     1
102
RTVSPropertyOp17
 70
     1
102
RTVSPropertyOp18
 70
     1
102
RTVSPropertyOp19
 70
     1
102
RTVSPropertyOp20
 70
     1
102
RTVSPropertyOp21
 70
     1
102
RTVSPropertyOp22
 70
     1
102
RTVSPropertyOp23
 70
     1
102
RTVSPropertyOp24
 70
     1
102
RTVSPropertyOp25
 70
     1
102
RTVSPropertyOp26
 70
     1
102
RTVSPropertyOp27
 70
     1
102
RTVSPropertyOp28
 70
     1
102
RTVSPropertyOp29
 70
     1
102
RTVSPropertyOp30
 70
     1
102
RTVSPropertyOp31
 70
     1
102
RTVSPropertyOp32
 70
     1
102
RTVSPropertyOp33
 70
     1
102
RTVSPropertyOp34
 70
     1
102
RTVSPropertyOp35
 70
     1
102
RTVSPropertyOp36
 70
     1
102
RTVSPropertyOp37
 70
     1
102
RTVSPropertyOp38
 70
     1
102
RTVSPropertyOp39
 70
     1
102
RTVSPropertyOp40
 70
     1
102
RTVSPropertyOp41
 70
     1
102
RTVSPropertyOp42
 70
     1
102
RTVSPropertyOp43
 70
     1
102
RTVSPropertyOp44
 70
     1
102
RTVSPropertyOp45
 70
     1
102
RTVSPropertyOp46
 70
     1
102
RTVSPropertyOp47
 70
     1
102
RTVSPropertyOp48
 70
     1
102
RTVSPropertyOp49
 70
     1
102
RTVSPropertyOp50
 70
     1
102
RTVSPropertyOp51
 70
     0
102
RTVSPropertyOp52
 70
     0
102
RTVSPropertyOp53
 70
     1
102
RTVSPropertyOp54
 70
     1
102
RTVSPropertyOp55
 70
     1
102
RTVSPropertyOp56
 70
     1
102
RTVSPropertyOp57
 70
     1
102
RTVSPost2010Prop28
280
     0
102
RTVSPost2010PropOp28
 70
     1
102
RTVSPost2010Prop29
280
     1
102
RTVSPost2010PropOp29
 70
     1
102
RTVSPost2010Prop30
280
     1
102
RTVSPost2010PropOp30
 70
     1
102
RTVSPost2010Prop31
280
     0
102
RTVSPost2010PropOp31
 70
     1
102
RTVSPost2010Prop32
280
     0
102
RTVSPost2010PropOp32
 70
     1
102
RTVSPost2010Prop33
280
     0
102
RTVSPost2010PropOp33
 70
     1
102
RTVSPost2010Prop34
280
     0
102
RTVSPost2010PropOp34
 70
     1
102
RTVSPost2010Prop35
280
     0
102
RTVSPost2010PropOp35
 70
     1
102
RTVSPost2010Prop36
280
     0
102
RTVSPost2010PropOp36
 70
     1
102
RTVSPost2010Prop37
 90
       50
102
RTVSPost2010PropOp37
 70
     1
102
RTVSPost2010Prop38
140
0.0
102
RTVSPost2010PropOp38
 70
     1
102
RTVSPost2010Prop39
140
1.0
102
RTVSPost2010PropOp39
 70
     1
102
RTVSPost2010Prop40
 90
        0
102
RTVSPost2010PropOp40
 70
     1
102
RTVSPost2010Prop41ColorIndex
 90
       18
102
RTVSPost2010Prop41ColorRGB
 90
        0
102
RTVSPost2010PropOp41
 70
     1
102
RTVSPost2010Prop42
 90
       50
102
RTVSPost2010PropOp42
 70
     1
102
RTVSPost2010Prop43
 90
        3
102
RTVSPost2010PropOp43
 70
     1
102
RTVSPost2010Prop44ColorIndex
 90
        5
102
RTVSPost2010Prop44ColorRGB
 90
      255
102
RTVSPost2010PropOp44
 70
     1
102
RTVSPost2010Prop45
280
     0
102
RTVSPost2010PropOp45
 70
     1
102
RTVSPost2010Prop46
 90
       50
102
RTVSPost2010PropOp46
 70
     1
102
RTVSPost2010Prop47
 90
       50
102
RTVSPost2010PropOp47
 70
     1
102
RTVSPost2010Prop48
 90
       50
102
RTVSPost2010PropOp48
 70
     1
102
RTVSPost2010Prop49
280
     0
102
RTVSPost2010PropOp49
 70
     1
102
RTVSPost2010Prop50
 90
       50
102
RTVSPost2010PropOp50
 70
     1
102
RTVSPost2010Prop51ColorIndex
 90
      256
102
RTVSPost2010Prop51ColorRGB
 90
-16777216
102
RTVSPost2010PropOp51
 70
     0
102
RTVSPost2010Prop52
140
1.0
102
RTVSPost2010PropOp52
 70
     0
102
RTVSPost2010Prop53
 90
        2
102
RTVSPost2010PropOp53
 70
     1
102
RTVSPost2010Prop54
  1
strokes_ogs.tif
102
RTVSPost2010PropOp54
 70
     1
102
RTVSPost2010Prop55
280
     0
102
RTVSPost2010PropOp55
 70
     1
102
RTVSPost2010Prop56
140
1.0
102
RTVSPost2010PropOp56
 70
     1
102
RTVSPost2010Prop57
140
1.0
102
RTVSPost2010PropOp57
 70
     1
  0
XRECORD
  5
60A
102
{ACAD_REACTORS
330
609
102
}
330
609
100
AcDbXrecord
280
     1
102
RTVSPropertyOp0
 70
     1
102
RTVSPropertyOp1
 70
     1
102
RTVSPropertyOp2
 70
     1
102
RTVSPropertyOp3
 70
     1
102
RTVSPropertyOp4
 70
     1
102
RTVSPropertyOp5
 70
     1
102
RTVSPropertyOp6
 70
     1
102
RTVSPropertyOp7
 70
     1
102
RTVSPropertyOp8
 70
     1
102
RTVSPropertyOp9
 70
     1
102
RTVSPropertyOp10
 70
     1
102
RTVSPropertyOp11
 70
     1
102
RTVSPropertyOp12
 70
     1
102
RTVSPropertyOp13
 70
     1
102
RTVSPropertyOp14
 70
     1
102
RTVSPropertyOp15
 70
     1
102
RTVSPropertyOp16
 70
     1
102
RTVSPropertyOp17
 70
     1
102
RTVSPropertyOp18
 70
     1
102
RTVSPropertyOp19
 70
     1
102
RTVSPropertyOp20
 70
     1
102
RTVSPropertyOp21
 70
     1
102
RTVSPropertyOp22
 70
     1
102
RTVSPropertyOp23
 70
     1
102
RTVSPropertyOp24
 70
     1
102
RTVSPropertyOp25
 70
     1
102
RTVSPropertyOp26
 70
     1
102
RTVSPropertyOp27
 70
     1
102
RTVSPropertyOp28
 70
     1
102
RTVSPropertyOp29
 70
     1
102
RTVSPropertyOp30
 70
     1
102
RTVSPropertyOp31
 70
     1
102
RTVSPropertyOp32
 70
     1
102
RTVSPropertyOp33
 70
     1
102
RTVSPropertyOp34
 70
     1
102
RTVSPropertyOp35
 70
     1
102
RTVSPropertyOp36
 70
     1
102
RTVSPropertyOp37
 70
     1
102
RTVSPropertyOp38
 70
     1
102
RTVSPropertyOp39
 70
     1
102
RTVSPropertyOp40
 70
     1
102
RTVSPropertyOp41
 70
     1
102
RTVSPropertyOp42
 70
     1
102
RTVSPropertyOp43
 70
     1
102
RTVSPropertyOp44
 70
     1
102
RTVSPropertyOp45
 70
     1
102
RTVSPropertyOp46
 70
     1
102
RTVSPropertyOp47
 70
     1
102
RTVSPropertyOp48
 70
     1
102
RTVSPropertyOp49
 70
     1
102
RTVSPropertyOp50
 70
     1
102
RTVSPropertyOp51
 70
     0
102
RTVSPropertyOp52
 70
     0
102
RTVSPropertyOp53
 70
     1
102
RTVSPropertyOp54
 70
     1
102
RTVSPropertyOp55
 70
     1
102
RTVSPropertyOp56
 70
     1
102
RTVSPropertyOp57
 70
     1
102
RTVSPost2010Prop28
280
     0
102
RTVSPost2010PropOp28
 70
     1
102
RTVSPost2010Prop29
280
     1
102
RTVSPost2010PropOp29
 70
     1
102
RTVSPost2010Prop30
280
     1
102
RTVSPost2010PropOp30
 70
     1
102
RTVSPost2010Prop31
280
     0
102
RTVSPost2010PropOp31
 70
     1
102
RTVSPost2010Prop32
280
     0
102
RTVSPost2010PropOp32
 70
     1
102
RTVSPost2010Prop33
280
     0
102
RTVSPost2010PropOp33
 70
     1
102
RTVSPost2010Prop34
280
     0
102
RTVSPost2010PropOp34
 70
     1
102
RTVSPost2010Prop35
280
     0
102
RTVSPost2010PropOp35
 70
     1
102
RTVSPost2010Prop36
280
     0
102
RTVSPost2010PropOp36
 70
     1
102
RTVSPost2010Prop37
 90
       50
102
RTVSPost2010PropOp37
 70
     1
102
RTVSPost2010Prop38
140
0.0
102
RTVSPost2010PropOp38
 70
     1
102
RTVSPost2010Prop39
140
1.0
102
RTVSPost2010PropOp39
 70
     1
102
RTVSPost2010Prop40
 90
        0
102
RTVSPost2010PropOp40
 70
     1
102
RTVSPost2010Prop41ColorIndex
 90
       18
102
RTVSPost2010Prop41ColorRGB
 90
        0
102
RTVSPost2010PropOp41
 70
     1
102
RTVSPost2010Prop42
 90
       50
102
RTVSPost2010PropOp42
 70
     1
102
RTVSPost2010Prop43
 90
        3
102
RTVSPost2010PropOp43
 70
     1
102
RTVSPost2010Prop44ColorIndex
 90
        5
102
RTVSPost2010Prop44ColorRGB
 90
      255
102
RTVSPost2010PropOp44
 70
     1
102
RTVSPost2010Prop45
280
     0
102
RTVSPost2010PropOp45
 70
     1
102
RTVSPost2010Prop46
 90
       50
102
RTVSPost2010PropOp46
 70
     1
102
RTVSPost2010Prop47
 90
       50
102
RTVSPost2010PropOp47
 70
     1
102
RTVSPost2010Prop48
 90
       50
102
RTVSPost2010PropOp48
 70
     1
102
RTVSPost2010Prop49
280
     0
102
RTVSPost2010PropOp49
 70
     1
102
RTVSPost2010Prop50
 90
       50
102
RTVSPost2010PropOp50
 70
     1
102
RTVSPost2010Prop51ColorIndex
 90
      256
102
RTVSPost2010Prop51ColorRGB
 90
-16777216
102
RTVSPost2010PropOp51
 70
     0
102
RTVSPost2010Prop52
140
1.0
102
RTVSPost2010PropOp52
 70
     0
102
RTVSPost2010Prop53
 90
        2
102
RTVSPost2010PropOp53
 70
     1
102
RTVSPost2010Prop54
  1
strokes_ogs.tif
102
RTVSPost2010PropOp54
 70
     1
102
RTVSPost2010Prop55
280
     0
102
RTVSPost2010PropOp55
 70
     1
102
RTVSPost2010Prop56
140
1.0
102
RTVSPost2010PropOp56
 70
     1
102
RTVSPost2010Prop57
140
1.0
102
RTVSPost2010PropOp57
 70
     1
  0
XRECORD
  5
60C
102
{ACAD_REACTORS
330
60B
102
}
330
60B
100
AcDbXrecord
280
     1
102
RTVSPropertyOp0
 70
     0
102
RTVSPropertyOp1
 70
     0
102
RTVSPropertyOp2
 70
     0
102
RTVSPropertyOp3
 70
     0
102
RTVSPropertyOp4
 70
     0
102
RTVSPropertyOp5
 70
     0
102
RTVSPropertyOp6
 70
     0
102
RTVSPropertyOp7
 70
     0
102
RTVSPropertyOp8
 70
     0
102
RTVSPropertyOp9
 70
     0
102
RTVSPropertyOp10
 70
     0
102
RTVSPropertyOp11
 70
     0
102
RTVSPropertyOp12
 70
     0
102
RTVSPropertyOp13
 70
     0
102
RTVSPropertyOp14
 70
     2
102
RTVSPropertyOp15
 70
     0
102
RTVSPropertyOp16
 70
     0
102
RTVSPropertyOp17
 70
     0
102
RTVSPropertyOp18
 70
     0
102
RTVSPropertyOp19
 70
     0
102
RTVSPropertyOp20
 70
     0
102
RTVSPropertyOp21
 70
     0
102
RTVSPropertyOp22
 70
     0
102
RTVSPropertyOp23
 70
     0
102
RTVSPropertyOp24
 70
     0
102
RTVSPropertyOp25
 70
     0
102
RTVSPropertyOp26
 70
     0
102
RTVSPropertyOp27
 70
     0
102
RTVSPropertyOp28
 70
     0
102
RTVSPropertyOp29
 70
     0
102
RTVSPropertyOp30
 70
     0
102
RTVSPropertyOp31
 70
     0
102
RTVSPropertyOp32
 70
     0
102
RTVSPropertyOp33
 70
     0
102
RTVSPropertyOp34
 70
     0
102
RTVSPropertyOp35
 70
     0
102
RTVSPropertyOp36
 70
     0
102
RTVSPropertyOp37
 70
     0
102
RTVSPropertyOp38
 70
     0
102
RTVSPropertyOp39
 70
     0
102
RTVSPropertyOp40
 70
     0
102
RTVSPropertyOp41
 70
     0
102
RTVSPropertyOp42
 70
     0
102
RTVSPropertyOp43
 70
     0
102
RTVSPropertyOp44
 70
     0
102
RTVSPropertyOp45
 70
     0
102
RTVSPropertyOp46
 70
     0
102
RTVSPropertyOp47
 70
     0
102
RTVSPropertyOp48
 70
     0
102
RTVSPropertyOp49
 70
     0
102
RTVSPropertyOp50
 70
     0
102
RTVSPropertyOp51
 70
     0
102
RTVSPropertyOp52
 70
     0
102
RTVSPropertyOp53
 70
     0
102
RTVSPropertyOp54
 70
     0
102
RTVSPropertyOp55
 70
     0
102
RTVSPropertyOp56
 70
     0
102
RTVSPropertyOp57
 70
     0
102
RTVSPost2010Prop28
280
     0
102
RTVSPost2010PropOp28
 70
     0
102
RTVSPost2010Prop29
280
     1
102
RTVSPost2010PropOp29
 70
     0
102
RTVSPost2010Prop30
280
     1
102
RTVSPost2010PropOp30
 70
     0
102
RTVSPost2010Prop31
280
     0
102
RTVSPost2010PropOp31
 70
     0
102
RTVSPost2010Prop32
280
     0
102
RTVSPost2010PropOp32
 70
     0
102
RTVSPost2010Prop33
280
     0
102
RTVSPost2010PropOp33
 70
     0
102
RTVSPost2010Prop34
280
     0
102
RTVSPost2010PropOp34
 70
     0
102
RTVSPost2010Prop35
280
     0
102
RTVSPost2010PropOp35
 70
     0
102
RTVSPost2010Prop36
280
     0
102
RTVSPost2010PropOp36
 70
     0
102
RTVSPost2010Prop37
 90
       50
102
RTVSPost2010PropOp37
 70
     0
102
RTVSPost2010Prop38
140
0.0
102
RTVSPost2010PropOp38
 70
     0
102
RTVSPost2010Prop39
140
1.0
102
RTVSPost2010PropOp39
 70
     0
102
RTVSPost2010Prop40
 90
        0
102
RTVSPost2010PropOp40
 70
     0
102
RTVSPost2010Prop41ColorIndex
 90
       18
102
RTVSPost2010Prop41ColorRGB
 90
        0
102
RTVSPost2010PropOp41
 70
     0
102
RTVSPost2010Prop42
 90
       50
102
RTVSPost2010PropOp42
 70
     0
102
RTVSPost2010Prop43
 90
        3
102
RTVSPost2010PropOp43
 70
     0
102
RTVSPost2010Prop44ColorIndex
 90
        5
102
RTVSPost2010Prop44ColorRGB
 90
      255
102
RTVSPost2010PropOp44
 70
     0
102
RTVSPost2010Prop45
280
     0
102
RTVSPost2010PropOp45
 70
     0
102
RTVSPost2010Prop46
 90
       50
102
RTVSPost2010PropOp46
 70
     0
102
RTVSPost2010Prop47
 90
       50
102
RTVSPost2010PropOp47
 70
     0
102
RTVSPost2010Prop48
 90
       50
102
RTVSPost2010PropOp48
 70
     0
102
RTVSPost2010Prop49
280
     0
102
RTVSPost2010PropOp49
 70
     0
102
RTVSPost2010Prop50
 90
       50
102
RTVSPost2010PropOp50
 70
     0
102
RTVSPost2010Prop51ColorIndex
 90
      256
102
RTVSPost2010Prop51ColorRGB
 90
-16777216
102
RTVSPost2010PropOp51
 70
     0
102
RTVSPost2010Prop52
140
1.0
102
RTVSPost2010PropOp52
 70
     0
102
RTVSPost2010Prop53
 90
        2
102
RTVSPost2010PropOp53
 70
     0
102
RTVSPost2010Prop54
  1
strokes_ogs.tif
102
RTVSPost2010PropOp54
 70
     0
102
RTVSPost2010Prop55
280
     0
102
RTVSPost2010PropOp55
 70
     0
102
RTVSPost2010Prop56
140
1.0
102
RTVSPost2010PropOp56
 70
     0
102
RTVSPost2010Prop57
140
1.0
102
RTVSPost2010PropOp57
 70
     0
  0
XRECORD
  5
60E
102
{ACAD_REACTORS
330
60D
102
}
330
60D
100
AcDbXrecord
280
     1
102
RTVSPropertyOp0
 70
     1
102
RTVSPropertyOp1
 70
     1
102
RTVSPropertyOp2
 70
     1
102
RTVSPropertyOp3
 70
     1
102
RTVSPropertyOp4
 70
     1
102
RTVSPropertyOp5
 70
     1
102
RTVSPropertyOp6
 70
     1
102
RTVSPropertyOp7
 70
     1
102
RTVSPropertyOp8
 70
     1
102
RTVSPropertyOp9
 70
     1
102
RTVSPropertyOp10
 70
     1
102
RTVSPropertyOp11
 70
     1
102
RTVSPropertyOp12
 70
     1
102
RTVSPropertyOp13
 70
     1
102
RTVSPropertyOp14
 70
     1
102
RTVSPropertyOp15
 70
     1
102
RTVSPropertyOp16
 70
     1
102
RTVSPropertyOp17
 70
     1
102
RTVSPropertyOp18
 70
     1
102
RTVSPropertyOp19
 70
     1
102
RTVSPropertyOp20
 70
     1
102
RTVSPropertyOp21
 70
     1
102
RTVSPropertyOp22
 70
     1
102
RTVSPropertyOp23
 70
     1
102
RTVSPropertyOp24
 70
     1
102
RTVSPropertyOp25
 70
     1
102
RTVSPropertyOp26
 70
     1
102
RTVSPropertyOp27
 70
     1
102
RTVSPropertyOp28
 70
     1
102
RTVSPropertyOp29
 70
     1
102
RTVSPropertyOp30
 70
     1
102
RTVSPropertyOp31
 70
     1
102
RTVSPropertyOp32
 70
     1
102
RTVSPropertyOp33
 70
     1
102
RTVSPropertyOp34
 70
     1
102
RTVSPropertyOp35
 70
     1
102
RTVSPropertyOp36
 70
     1
102
RTVSPropertyOp37
 70
     1
102
RTVSPropertyOp38
 70
     1
102
RTVSPropertyOp39
 70
     1
102
RTVSPropertyOp40
 70
     1
102
RTVSPropertyOp41
 70
     1
102
RTVSPropertyOp42
 70
     1
102
RTVSPropertyOp43
 70
     1
102
RTVSPropertyOp44
 70
     1
102
RTVSPropertyOp45
 70
     1
102
RTVSPropertyOp46
 70
     1
102
RTVSPropertyOp47
 70
     1
102
RTVSPropertyOp48
 70
     1
102
RTVSPropertyOp49
 70
     1
102
RTVSPropertyOp50
 70
     1
102
RTVSPropertyOp51
 70
     0
102
RTVSPropertyOp52
 70
     0
102
RTVSPropertyOp53
 70
     1
102
RTVSPropertyOp54
 70
     1
102
RTVSPropertyOp55
 70
     1
102
RTVSPropertyOp56
 70
     1
102
RTVSPropertyOp57
 70
     1
102
RTVSPost2010Prop28
280
     0
102
RTVSPost2010PropOp28
 70
     1
102
RTVSPost2010Prop29
280
     1
102
RTVSPost2010PropOp29
 70
     1
102
RTVSPost2010Prop30
280
     1
102
RTVSPost2010PropOp30
 70
     1
102
RTVSPost2010Prop31
280
     0
102
RTVSPost2010PropOp31
 70
     1
102
RTVSPost2010Prop32
280
     0
102
RTVSPost2010PropOp32
 70
     1
102
RTVSPost2010Prop33
280
     0
102
RTVSPost2010PropOp33
 70
     1
102
RTVSPost2010Prop34
280
     0
102
RTVSPost2010PropOp34
 70
     1
102
RTVSPost2010Prop35
280
     0
102
RTVSPost2010PropOp35
 70
     1
102
RTVSPost2010Prop36
280
     0
102
RTVSPost2010PropOp36
 70
     1
102
RTVSPost2010Prop37
 90
       50
102
RTVSPost2010PropOp37
 70
     1
102
RTVSPost2010Prop38
140
0.0
102
RTVSPost2010PropOp38
 70
     1
102
RTVSPost2010Prop39
140
1.0
102
RTVSPost2010PropOp39
 70
     1
102
RTVSPost2010Prop40
 90
        0
102
RTVSPost2010PropOp40
 70
     1
102
RTVSPost2010Prop41ColorIndex
 90
       18
102
RTVSPost2010Prop41ColorRGB
 90
        0
102
RTVSPost2010PropOp41
 70
     1
102
RTVSPost2010Prop42
 90
       50
102
RTVSPost2010PropOp42
 70
     1
102
RTVSPost2010Prop43
 90
        3
102
RTVSPost2010PropOp43
 70
     1
102
RTVSPost2010Prop44ColorIndex
 90
        5
102
RTVSPost2010Prop44ColorRGB
 90
      255
102
RTVSPost2010PropOp44
 70
     1
102
RTVSPost2010Prop45
280
     0
102
RTVSPost2010PropOp45
 70
     1
102
RTVSPost2010Prop46
 90
       50
102
RTVSPost2010PropOp46
 70
     1
102
RTVSPost2010Prop47
 90
       50
102
RTVSPost2010PropOp47
 70
     1
102
RTVSPost2010Prop48
 90
       50
102
RTVSPost2010PropOp48
 70
     1
102
RTVSPost2010Prop49
280
     0
102
RTVSPost2010PropOp49
 70
     1
102
RTVSPost2010Prop50
 90
       50
102
RTVSPost2010PropOp50
 70
     1
102
RTVSPost2010Prop51ColorIndex
 90
      256
102
RTVSPost2010Prop51ColorRGB
 90
-16777216
102
RTVSPost2010PropOp51
 70
     0
102
RTVSPost2010Prop52
140
1.0
102
RTVSPost2010PropOp52
 70
     0
102
RTVSPost2010Prop53
 90
        2
102
RTVSPost2010PropOp53
 70
     1
102
RTVSPost2010Prop54
  1
strokes_ogs.tif
102
RTVSPost2010PropOp54
 70
     1
102
RTVSPost2010Prop55
280
     0
102
RTVSPost2010PropOp55
 70
     1
102
RTVSPost2010Prop56
140
1.0
102
RTVSPost2010PropOp56
 70
     1
102
RTVSPost2010Prop57
140
1.0
102
RTVSPost2010PropOp57
 70
     1
  0
XRECORD
  5
610
102
{ACAD_REACTORS
330
60F
102
}
330
60F
100
AcDbXrecord
280
     1
102
RTVSPropertyOp0
 70
     1
102
RTVSPropertyOp1
 70
     1
102
RTVSPropertyOp2
 70
     1
102
RTVSPropertyOp3
 70
     1
102
RTVSPropertyOp4
 70
     1
102
RTVSPropertyOp5
 70
     1
102
RTVSPropertyOp6
 70
     1
102
RTVSPropertyOp7
 70
     1
102
RTVSPropertyOp8
 70
     1
102
RTVSPropertyOp9
 70
     1
102
RTVSPropertyOp10
 70
     1
102
RTVSPropertyOp11
 70
     1
102
RTVSPropertyOp12
 70
     1
102
RTVSPropertyOp13
 70
     1
102
RTVSPropertyOp14
 70
     1
102
RTVSPropertyOp15
 70
     1
102
RTVSPropertyOp16
 70
     1
102
RTVSPropertyOp17
 70
     1
102
RTVSPropertyOp18
 70
     1
102
RTVSPropertyOp19
 70
     1
102
RTVSPropertyOp20
 70
     1
102
RTVSPropertyOp21
 70
     1
102
RTVSPropertyOp22
 70
     1
102
RTVSPropertyOp23
 70
     1
102
RTVSPropertyOp24
 70
     1
102
RTVSPropertyOp25
 70
     1
102
RTVSPropertyOp26
 70
     1
102
RTVSPropertyOp27
 70
     1
102
RTVSPropertyOp28
 70
     1
102
RTVSPropertyOp29
 70
     1
102
RTVSPropertyOp30
 70
     1
102
RTVSPropertyOp31
 70
     1
102
RTVSPropertyOp32
 70
     1
102
RTVSPropertyOp33
 70
     1
102
RTVSPropertyOp34
 70
     1
102
RTVSPropertyOp35
 70
     1
102
RTVSPropertyOp36
 70
     1
102
RTVSPropertyOp37
 70
     1
102
RTVSPropertyOp38
 70
     1
102
RTVSPropertyOp39
 70
     1
102
RTVSPropertyOp40
 70
     1
102
RTVSPropertyOp41
 70
     1
102
RTVSPropertyOp42
 70
     1
102
RTVSPropertyOp43
 70
     1
102
RTVSPropertyOp44
 70
     1
102
RTVSPropertyOp45
 70
     1
102
RTVSPropertyOp46
 70
     1
102
RTVSPropertyOp47
 70
     1
102
RTVSPropertyOp48
 70
     1
102
RTVSPropertyOp49
 70
     1
102
RTVSPropertyOp50
 70
     1
102
RTVSPropertyOp51
 70
     0
102
RTVSPropertyOp52
 70
     0
102
RTVSPropertyOp53
 70
     1
102
RTVSPropertyOp54
 70
     1
102
RTVSPropertyOp55
 70
     1
102
RTVSPropertyOp56
 70
     1
102
RTVSPropertyOp57
 70
     1
102
RTVSPost2010Prop28
280
     0
102
RTVSPost2010PropOp28
 70
     1
102
RTVSPost2010Prop29
280
     1
102
RTVSPost2010PropOp29
 70
     1
102
RTVSPost2010Prop30
280
     1
102
RTVSPost2010PropOp30
 70
     1
102
RTVSPost2010Prop31
280
     0
102
RTVSPost2010PropOp31
 70
     1
102
RTVSPost2010Prop32
280
     0
102
RTVSPost2010PropOp32
 70
     1
102
RTVSPost2010Prop33
280
     0
102
RTVSPost2010PropOp33
 70
     1
102
RTVSPost2010Prop34
280
     0
102
RTVSPost2010PropOp34
 70
     1
102
RTVSPost2010Prop35
280
     0
102
RTVSPost2010PropOp35
 70
     1
102
RTVSPost2010Prop36
280
     0
102
RTVSPost2010PropOp36
 70
     1
102
RTVSPost2010Prop37
 90
       50
102
RTVSPost2010PropOp37
 70
     1
102
RTVSPost2010Prop38
140
0.0
102
RTVSPost2010PropOp38
 70
     1
102
RTVSPost2010Prop39
140
1.0
102
RTVSPost2010PropOp39
 70
     1
102
RTVSPost2010Prop40
 90
        0
102
RTVSPost2010PropOp40
 70
     1
102
RTVSPost2010Prop41ColorIndex
 90
       18
102
RTVSPost2010Prop41ColorRGB
 90
        0
102
RTVSPost2010PropOp41
 70
     1
102
RTVSPost2010Prop42
 90
       50
102
RTVSPost2010PropOp42
 70
     1
102
RTVSPost2010Prop43
 90
        3
102
RTVSPost2010PropOp43
 70
     1
102
RTVSPost2010Prop44ColorIndex
 90
        5
102
RTVSPost2010Prop44ColorRGB
 90
      255
102
RTVSPost2010PropOp44
 70
     1
102
RTVSPost2010Prop45
280
     0
102
RTVSPost2010PropOp45
 70
     1
102
RTVSPost2010Prop46
 90
       50
102
RTVSPost2010PropOp46
 70
     1
102
RTVSPost2010Prop47
 90
       50
102
RTVSPost2010PropOp47
 70
     1
102
RTVSPost2010Prop48
 90
       50
102
RTVSPost2010PropOp48
 70
     1
102
RTVSPost2010Prop49
280
     0
102
RTVSPost2010PropOp49
 70
     1
102
RTVSPost2010Prop50
 90
       50
102
RTVSPost2010PropOp50
 70
     1
102
RTVSPost2010Prop51ColorIndex
 90
      256
102
RTVSPost2010Prop51ColorRGB
 90
-16777216
102
RTVSPost2010PropOp51
 70
     0
102
RTVSPost2010Prop52
140
1.0
102
RTVSPost2010PropOp52
 70
     0
102
RTVSPost2010Prop53
 90
        2
102
RTVSPost2010PropOp53
 70
     1
102
RTVSPost2010Prop54
  1
strokes_ogs.tif
102
RTVSPost2010PropOp54
 70
     1
102
RTVSPost2010Prop55
280
     0
102
RTVSPost2010PropOp55
 70
     1
102
RTVSPost2010Prop56
140
1.0
102
RTVSPost2010PropOp56
 70
     1
102
RTVSPost2010Prop57
140
1.0
102
RTVSPost2010PropOp57
 70
     1
  0
XRECORD
  5
612
102
{ACAD_REACTORS
330
611
102
}
330
611
100
AcDbXrecord
280
     1
102
RTVSPropertyOp0
 70
     1
102
RTVSPropertyOp1
 70
     1
102
RTVSPropertyOp2
 70
     1
102
RTVSPropertyOp3
 70
     1
102
RTVSPropertyOp4
 70
     1
102
RTVSPropertyOp5
 70
     1
102
RTVSPropertyOp6
 70
     1
102
RTVSPropertyOp7
 70
     1
102
RTVSPropertyOp8
 70
     1
102
RTVSPropertyOp9
 70
     1
102
RTVSPropertyOp10
 70
     1
102
RTVSPropertyOp11
 70
     1
102
RTVSPropertyOp12
 70
     1
102
RTVSPropertyOp13
 70
     1
102
RTVSPropertyOp14
 70
     1
102
RTVSPropertyOp15
 70
     1
102
RTVSPropertyOp16
 70
     1
102
RTVSPropertyOp17
 70
     1
102
RTVSPropertyOp18
 70
     1
102
RTVSPropertyOp19
 70
     1
102
RTVSPropertyOp20
 70
     1
102
RTVSPropertyOp21
 70
     1
102
RTVSPropertyOp22
 70
     1
102
RTVSPropertyOp23
 70
     1
102
RTVSPropertyOp24
 70
     1
102
RTVSPropertyOp25
 70
     1
102
RTVSPropertyOp26
 70
     1
102
RTVSPropertyOp27
 70
     1
102
RTVSPropertyOp28
 70
     1
102
RTVSPropertyOp29
 70
     1
102
RTVSPropertyOp30
 70
     1
102
RTVSPropertyOp31
 70
     1
102
RTVSPropertyOp32
 70
     1
102
RTVSPropertyOp33
 70
     1
102
RTVSPropertyOp34
 70
     1
102
RTVSPropertyOp35
 70
     1
102
RTVSPropertyOp36
 70
     1
102
RTVSPropertyOp37
 70
     1
102
RTVSPropertyOp38
 70
     1
102
RTVSPropertyOp39
 70
     1
102
RTVSPropertyOp40
 70
     1
102
RTVSPropertyOp41
 70
     1
102
RTVSPropertyOp42
 70
     1
102
RTVSPropertyOp43
 70
     1
102
RTVSPropertyOp44
 70
     1
102
RTVSPropertyOp45
 70
     1
102
RTVSPropertyOp46
 70
     1
102
RTVSPropertyOp47
 70
     1
102
RTVSPropertyOp48
 70
     1
102
RTVSPropertyOp49
 70
     1
102
RTVSPropertyOp50
 70
     1
102
RTVSPropertyOp51
 70
     0
102
RTVSPropertyOp52
 70
     0
102
RTVSPropertyOp53
 70
     1
102
RTVSPropertyOp54
 70
     1
102
RTVSPropertyOp55
 70
     1
102
RTVSPropertyOp56
 70
     1
102
RTVSPropertyOp57
 70
     1
102
RTVSPost2010Prop28
280
     0
102
RTVSPost2010PropOp28
 70
     1
102
RTVSPost2010Prop29
280
     1
102
RTVSPost2010PropOp29
 70
     1
102
RTVSPost2010Prop30
280
     1
102
RTVSPost2010PropOp30
 70
     1
102
RTVSPost2010Prop31
280
     0
102
RTVSPost2010PropOp31
 70
     1
102
RTVSPost2010Prop32
280
     0
102
RTVSPost2010PropOp32
 70
     1
102
RTVSPost2010Prop33
280
     0
102
RTVSPost2010PropOp33
 70
     1
102
RTVSPost2010Prop34
280
     0
102
RTVSPost2010PropOp34
 70
     1
102
RTVSPost2010Prop35
280
     0
102
RTVSPost2010PropOp35
 70
     1
102
RTVSPost2010Prop36
280
     0
102
RTVSPost2010PropOp36
 70
     1
102
RTVSPost2010Prop37
 90
       50
102
RTVSPost2010PropOp37
 70
     1
102
RTVSPost2010Prop38
140
0.0
102
RTVSPost2010PropOp38
 70
     1
102
RTVSPost2010Prop39
140
1.0
102
RTVSPost2010PropOp39
 70
     1
102
RTVSPost2010Prop40
 90
        0
102
RTVSPost2010PropOp40
 70
     1
102
RTVSPost2010Prop41ColorIndex
 90
       18
102
RTVSPost2010Prop41ColorRGB
 90
        0
102
RTVSPost2010PropOp41
 70
     1
102
RTVSPost2010Prop42
 90
       50
102
RTVSPost2010PropOp42
 70
     1
102
RTVSPost2010Prop43
 90
        3
102
RTVSPost2010PropOp43
 70
     1
102
RTVSPost2010Prop44ColorIndex
 90
        5
102
RTVSPost2010Prop44ColorRGB
 90
      255
102
RTVSPost2010PropOp44
 70
     1
102
RTVSPost2010Prop45
280
     0
102
RTVSPost2010PropOp45
 70
     1
102
RTVSPost2010Prop46
 90
       50
102
RTVSPost2010PropOp46
 70
     1
102
RTVSPost2010Prop47
 90
       50
102
RTVSPost2010PropOp47
 70
     1
102
RTVSPost2010Prop48
 90
       50
102
RTVSPost2010PropOp48
 70
     1
102
RTVSPost2010Prop49
280
     0
102
RTVSPost2010PropOp49
 70
     1
102
RTVSPost2010Prop50
 90
       50
102
RTVSPost2010PropOp50
 70
     1
102
RTVSPost2010Prop51ColorIndex
 90
      256
102
RTVSPost2010Prop51ColorRGB
 90
-16777216
102
RTVSPost2010PropOp51
 70
     0
102
RTVSPost2010Prop52
140
1.0
102
RTVSPost2010PropOp52
 70
     0
102
RTVSPost2010Prop53
 90
        2
102
RTVSPost2010PropOp53
 70
     1
102
RTVSPost2010Prop54
  1
strokes_ogs.tif
102
RTVSPost2010PropOp54
 70
     1
102
RTVSPost2010Prop55
280
     0
102
RTVSPost2010PropOp55
 70
     1
102
RTVSPost2010Prop56
140
1.0
102
RTVSPost2010PropOp56
 70
     1
102
RTVSPost2010Prop57
140
1.0
102
RTVSPost2010PropOp57
 70
     1
  0
XRECORD
  5
614
102
{ACAD_REACTORS
330
613
102
}
330
613
100
AcDbXrecord
280
     1
102
RTVSPropertyOp0
 70
     1
102
RTVSPropertyOp1
 70
     1
102
RTVSPropertyOp2
 70
     1
102
RTVSPropertyOp3
 70
     1
102
RTVSPropertyOp4
 70
     1
102
RTVSPropertyOp5
 70
     1
102
RTVSPropertyOp6
 70
     1
102
RTVSPropertyOp7
 70
     1
102
RTVSPropertyOp8
 70
     1
102
RTVSPropertyOp9
 70
     1
102
RTVSPropertyOp10
 70
     1
102
RTVSPropertyOp11
 70
     1
102
RTVSPropertyOp12
 70
     1
102
RTVSPropertyOp13
 70
     1
102
RTVSPropertyOp14
 70
     1
102
RTVSPropertyOp15
 70
     1
102
RTVSPropertyOp16
 70
     1
102
RTVSPropertyOp17
 70
     1
102
RTVSPropertyOp18
 70
     1
102
RTVSPropertyOp19
 70
     1
102
RTVSPropertyOp20
 70
     1
102
RTVSPropertyOp21
 70
     1
102
RTVSPropertyOp22
 70
     1
102
RTVSPropertyOp23
 70
     1
102
RTVSPropertyOp24
 70
     1
102
RTVSPropertyOp25
 70
     1
102
RTVSPropertyOp26
 70
     1
102
RTVSPropertyOp27
 70
     1
102
RTVSPropertyOp28
 70
     1
102
RTVSPropertyOp29
 70
     1
102
RTVSPropertyOp30
 70
     1
102
RTVSPropertyOp31
 70
     1
102
RTVSPropertyOp32
 70
     1
102
RTVSPropertyOp33
 70
     1
102
RTVSPropertyOp34
 70
     1
102
RTVSPropertyOp35
 70
     1
102
RTVSPropertyOp36
 70
     1
102
RTVSPropertyOp37
 70
     1
102
RTVSPropertyOp38
 70
     1
102
RTVSPropertyOp39
 70
     1
102
RTVSPropertyOp40
 70
     1
102
RTVSPropertyOp41
 70
     1
102
RTVSPropertyOp42
 70
     1
102
RTVSPropertyOp43
 70
     1
102
RTVSPropertyOp44
 70
     1
102
RTVSPropertyOp45
 70
     1
102
RTVSPropertyOp46
 70
     1
102
RTVSPropertyOp47
 70
     1
102
RTVSPropertyOp48
 70
     1
102
RTVSPropertyOp49
 70
     1
102
RTVSPropertyOp50
 70
     1
102
RTVSPropertyOp51
 70
     0
102
RTVSPropertyOp52
 70
     0
102
RTVSPropertyOp53
 70
     1
102
RTVSPropertyOp54
 70
     1
102
RTVSPropertyOp55
 70
     1
102
RTVSPropertyOp56
 70
     1
102
RTVSPropertyOp57
 70
     1
102
RTVSPost2010Prop28
280
     0
102
RTVSPost2010PropOp28
 70
     1
102
RTVSPost2010Prop29
280
     1
102
RTVSPost2010PropOp29
 70
     1
102
RTVSPost2010Prop30
280
     1
102
RTVSPost2010PropOp30
 70
     1
102
RTVSPost2010Prop31
280
     0
102
RTVSPost2010PropOp31
 70
     1
102
RTVSPost2010Prop32
280
     0
102
RTVSPost2010PropOp32
 70
     1
102
RTVSPost2010Prop33
280
     0
102
RTVSPost2010PropOp33
 70
     1
102
RTVSPost2010Prop34
280
     0
102
RTVSPost2010PropOp34
 70
     1
102
RTVSPost2010Prop35
280
     0
102
RTVSPost2010PropOp35
 70
     1
102
RTVSPost2010Prop36
280
     0
102
RTVSPost2010PropOp36
 70
     1
102
RTVSPost2010Prop37
 90
       50
102
RTVSPost2010PropOp37
 70
     1
102
RTVSPost2010Prop38
140
0.0
102
RTVSPost2010PropOp38
 70
     1
102
RTVSPost2010Prop39
140
1.0
102
RTVSPost2010PropOp39
 70
     1
102
RTVSPost2010Prop40
 90
        0
102
RTVSPost2010PropOp40
 70
     1
102
RTVSPost2010Prop41ColorIndex
 90
       18
102
RTVSPost2010Prop41ColorRGB
 90
        0
102
RTVSPost2010PropOp41
 70
     1
102
RTVSPost2010Prop42
 90
       50
102
RTVSPost2010PropOp42
 70
     1
102
RTVSPost2010Prop43
 90
        3
102
RTVSPost2010PropOp43
 70
     1
102
RTVSPost2010Prop44ColorIndex
 90
        5
102
RTVSPost2010Prop44ColorRGB
 90
      255
102
RTVSPost2010PropOp44
 70
     1
102
RTVSPost2010Prop45
280
     0
102
RTVSPost2010PropOp45
 70
     1
102
RTVSPost2010Prop46
 90
       50
102
RTVSPost2010PropOp46
 70
     1
102
RTVSPost2010Prop47
 90
       50
102
RTVSPost2010PropOp47
 70
     1
102
RTVSPost2010Prop48
 90
       50
102
RTVSPost2010PropOp48
 70
     1
102
RTVSPost2010Prop49
280
     0
102
RTVSPost2010PropOp49
 70
     1
102
RTVSPost2010Prop50
 90
       50
102
RTVSPost2010PropOp50
 70
     1
102
RTVSPost2010Prop51ColorIndex
 90
      256
102
RTVSPost2010Prop51ColorRGB
 90
-16777216
102
RTVSPost2010PropOp51
 70
     0
102
RTVSPost2010Prop52
140
1.0
102
RTVSPost2010PropOp52
 70
     0
102
RTVSPost2010Prop53
 90
        2
102
RTVSPost2010PropOp53
 70
     1
102
RTVSPost2010Prop54
  1
strokes_ogs.tif
102
RTVSPost2010PropOp54
 70
     1
102
RTVSPost2010Prop55
280
     0
102
RTVSPost2010PropOp55
 70
     1
102
RTVSPost2010Prop56
140
1.0
102
RTVSPost2010PropOp56
 70
     1
102
RTVSPost2010Prop57
140
1.0
102
RTVSPost2010PropOp57
 70
     1
  0
XRECORD
  5
616
102
{ACAD_REACTORS
330
615
102
}
330
615
100
AcDbXrecord
280
     1
102
RTVSPropertyOp0
 70
     1
102
RTVSPropertyOp1
 70
     1
102
RTVSPropertyOp2
 70
     1
102
RTVSPropertyOp3
 70
     1
102
RTVSPropertyOp4
 70
     1
102
RTVSPropertyOp5
 70
     1
102
RTVSPropertyOp6
 70
     1
102
RTVSPropertyOp7
 70
     1
102
RTVSPropertyOp8
 70
     1
102
RTVSPropertyOp9
 70
     1
102
RTVSPropertyOp10
 70
     1
102
RTVSPropertyOp11
 70
     1
102
RTVSPropertyOp12
 70
     1
102
RTVSPropertyOp13
 70
     1
102
RTVSPropertyOp14
 70
     1
102
RTVSPropertyOp15
 70
     1
102
RTVSPropertyOp16
 70
     1
102
RTVSPropertyOp17
 70
     1
102
RTVSPropertyOp18
 70
     1
102
RTVSPropertyOp19
 70
     1
102
RTVSPropertyOp20
 70
     1
102
RTVSPropertyOp21
 70
     1
102
RTVSPropertyOp22
 70
     1
102
RTVSPropertyOp23
 70
     1
102
RTVSPropertyOp24
 70
     1
102
RTVSPropertyOp25
 70
     1
102
RTVSPropertyOp26
 70
     1
102
RTVSPropertyOp27
 70
     1
102
RTVSPropertyOp28
 70
     1
102
RTVSPropertyOp29
 70
     1
102
RTVSPropertyOp30
 70
     1
102
RTVSPropertyOp31
 70
     1
102
RTVSPropertyOp32
 70
     1
102
RTVSPropertyOp33
 70
     1
102
RTVSPropertyOp34
 70
     1
102
RTVSPropertyOp35
 70
     1
102
RTVSPropertyOp36
 70
     1
102
RTVSPropertyOp37
 70
     1
102
RTVSPropertyOp38
 70
     1
102
RTVSPropertyOp39
 70
     1
102
RTVSPropertyOp40
 70
     1
102
RTVSPropertyOp41
 70
     1
102
RTVSPropertyOp42
 70
     1
102
RTVSPropertyOp43
 70
     1
102
RTVSPropertyOp44
 70
     1
102
RTVSPropertyOp45
 70
     1
102
RTVSPropertyOp46
 70
     1
102
RTVSPropertyOp47
 70
     1
102
RTVSPropertyOp48
 70
     1
102
RTVSPropertyOp49
 70
     1
102
RTVSPropertyOp50
 70
     1
102
RTVSPropertyOp51
 70
     0
102
RTVSPropertyOp52
 70
     0
102
RTVSPropertyOp53
 70
     1
102
RTVSPropertyOp54
 70
     1
102
RTVSPropertyOp55
 70
     1
102
RTVSPropertyOp56
 70
     1
102
RTVSPropertyOp57
 70
     1
102
RTVSPost2010Prop28
280
     0
102
RTVSPost2010PropOp28
 70
     1
102
RTVSPost2010Prop29
280
     1
102
RTVSPost2010PropOp29
 70
     1
102
RTVSPost2010Prop30
280
     1
102
RTVSPost2010PropOp30
 70
     1
102
RTVSPost2010Prop31
280
     0
102
RTVSPost2010PropOp31
 70
     1
102
RTVSPost2010Prop32
280
     0
102
RTVSPost2010PropOp32
 70
     1
102
RTVSPost2010Prop33
280
     0
102
RTVSPost2010PropOp33
 70
     1
102
RTVSPost2010Prop34
280
     0
102
RTVSPost2010PropOp34
 70
     1
102
RTVSPost2010Prop35
280
     0
102
RTVSPost2010PropOp35
 70
     1
102
RTVSPost2010Prop36
280
     0
102
RTVSPost2010PropOp36
 70
     1
102
RTVSPost2010Prop37
 90
       50
102
RTVSPost2010PropOp37
 70
     1
102
RTVSPost2010Prop38
140
0.0
102
RTVSPost2010PropOp38
 70
     1
102
RTVSPost2010Prop39
140
1.0
102
RTVSPost2010PropOp39
 70
     1
102
RTVSPost2010Prop40
 90
        0
102
RTVSPost2010PropOp40
 70
     1
102
RTVSPost2010Prop41ColorIndex
 90
       18
102
RTVSPost2010Prop41ColorRGB
 90
        0
102
RTVSPost2010PropOp41
 70
     1
102
RTVSPost2010Prop42
 90
       50
102
RTVSPost2010PropOp42
 70
     1
102
RTVSPost2010Prop43
 90
        3
102
RTVSPost2010PropOp43
 70
     1
102
RTVSPost2010Prop44ColorIndex
 90
        5
102
RTVSPost2010Prop44ColorRGB
 90
      255
102
RTVSPost2010PropOp44
 70
     1
102
RTVSPost2010Prop45
280
     0
102
RTVSPost2010PropOp45
 70
     1
102
RTVSPost2010Prop46
 90
       50
102
RTVSPost2010PropOp46
 70
     1
102
RTVSPost2010Prop47
 90
       50
102
RTVSPost2010PropOp47
 70
     1
102
RTVSPost2010Prop48
 90
       50
102
RTVSPost2010PropOp48
 70
     1
102
RTVSPost2010Prop49
280
     0
102
RTVSPost2010PropOp49
 70
     1
102
RTVSPost2010Prop50
 90
       50
102
RTVSPost2010PropOp50
 70
     1
102
RTVSPost2010Prop51ColorIndex
 90
      256
102
RTVSPost2010Prop51ColorRGB
 90
-16777216
102
RTVSPost2010PropOp51
 70
     0
102
RTVSPost2010Prop52
140
1.0
102
RTVSPost2010PropOp52
 70
     0
102
RTVSPost2010Prop53
 90
        2
102
RTVSPost2010PropOp53
 70
     1
102
RTVSPost2010Prop54
  1
strokes_ogs.tif
102
RTVSPost2010PropOp54
 70
     1
102
RTVSPost2010Prop55
280
     0
102
RTVSPost2010PropOp55
 70
     1
102
RTVSPost2010Prop56
140
1.0
102
RTVSPost2010PropOp56
 70
     1
102
RTVSPost2010Prop57
140
1.0
102
RTVSPost2010PropOp57
 70
     1
  0
XRECORD
  5
618
102
{ACAD_REACTORS
330
617
102
}
330
617
100
AcDbXrecord
280
     1
102
RTVSPropertyOp0
 70
     1
102
RTVSPropertyOp1
 70
     1
102
RTVSPropertyOp2
 70
     1
102
RTVSPropertyOp3
 70
     1
102
RTVSPropertyOp4
 70
     1
102
RTVSPropertyOp5
 70
     1
102
RTVSPropertyOp6
 70
     1
102
RTVSPropertyOp7
 70
     1
102
RTVSPropertyOp8
 70
     1
102
RTVSPropertyOp9
 70
     1
102
RTVSPropertyOp10
 70
     1
102
RTVSPropertyOp11
 70
     1
102
RTVSPropertyOp12
 70
     1
102
RTVSPropertyOp13
 70
     1
102
RTVSPropertyOp14
 70
     1
102
RTVSPropertyOp15
 70
     1
102
RTVSPropertyOp16
 70
     1
102
RTVSPropertyOp17
 70
     1
102
RTVSPropertyOp18
 70
     1
102
RTVSPropertyOp19
 70
     1
102
RTVSPropertyOp20
 70
     1
102
RTVSPropertyOp21
 70
     1
102
RTVSPropertyOp22
 70
     1
102
RTVSPropertyOp23
 70
     1
102
RTVSPropertyOp24
 70
     1
102
RTVSPropertyOp25
 70
     1
102
RTVSPropertyOp26
 70
     1
102
RTVSPropertyOp27
 70
     1
102
RTVSPropertyOp28
 70
     1
102
RTVSPropertyOp29
 70
     1
102
RTVSPropertyOp30
 70
     1
102
RTVSPropertyOp31
 70
     1
102
RTVSPropertyOp32
 70
     1
102
RTVSPropertyOp33
 70
     1
102
RTVSPropertyOp34
 70
     1
102
RTVSPropertyOp35
 70
     1
102
RTVSPropertyOp36
 70
     1
102
RTVSPropertyOp37
 70
     1
102
RTVSPropertyOp38
 70
     1
102
RTVSPropertyOp39
 70
     1
102
RTVSPropertyOp40
 70
     1
102
RTVSPropertyOp41
 70
     1
102
RTVSPropertyOp42
 70
     1
102
RTVSPropertyOp43
 70
     1
102
RTVSPropertyOp44
 70
     1
102
RTVSPropertyOp45
 70
     1
102
RTVSPropertyOp46
 70
     1
102
RTVSPropertyOp47
 70
     1
102
RTVSPropertyOp48
 70
     1
102
RTVSPropertyOp49
 70
     1
102
RTVSPropertyOp50
 70
     1
102
RTVSPropertyOp51
 70
     0
102
RTVSPropertyOp52
 70
     0
102
RTVSPropertyOp53
 70
     1
102
RTVSPropertyOp54
 70
     1
102
RTVSPropertyOp55
 70
     1
102
RTVSPropertyOp56
 70
     1
102
RTVSPropertyOp57
 70
     1
102
RTVSPost2010Prop28
280
     0
102
RTVSPost2010PropOp28
 70
     1
102
RTVSPost2010Prop29
280
     1
102
RTVSPost2010PropOp29
 70
     1
102
RTVSPost2010Prop30
280
     1
102
RTVSPost2010PropOp30
 70
     1
102
RTVSPost2010Prop31
280
     0
102
RTVSPost2010PropOp31
 70
     1
102
RTVSPost2010Prop32
280
     0
102
RTVSPost2010PropOp32
 70
     1
102
RTVSPost2010Prop33
280
     0
102
RTVSPost2010PropOp33
 70
     1
102
RTVSPost2010Prop34
280
     0
102
RTVSPost2010PropOp34
 70
     1
102
RTVSPost2010Prop35
280
     0
102
RTVSPost2010PropOp35
 70
     1
102
RTVSPost2010Prop36
280
     0
102
RTVSPost2010PropOp36
 70
     1
102
RTVSPost2010Prop37
 90
       50
102
RTVSPost2010PropOp37
 70
     1
102
RTVSPost2010Prop38
140
0.0
102
RTVSPost2010PropOp38
 70
     1
102
RTVSPost2010Prop39
140
1.0
102
RTVSPost2010PropOp39
 70
     1
102
RTVSPost2010Prop40
 90
        0
102
RTVSPost2010PropOp40
 70
     1
102
RTVSPost2010Prop41ColorIndex
 90
       18
102
RTVSPost2010Prop41ColorRGB
 90
        0
102
RTVSPost2010PropOp41
 70
     1
102
RTVSPost2010Prop42
 90
       50
102
RTVSPost2010PropOp42
 70
     1
102
RTVSPost2010Prop43
 90
        3
102
RTVSPost2010PropOp43
 70
     1
102
RTVSPost2010Prop44ColorIndex
 90
        5
102
RTVSPost2010Prop44ColorRGB
 90
      255
102
RTVSPost2010PropOp44
 70
     1
102
RTVSPost2010Prop45
280
     0
102
RTVSPost2010PropOp45
 70
     1
102
RTVSPost2010Prop46
 90
       50
102
RTVSPost2010PropOp46
 70
     1
102
RTVSPost2010Prop47
 90
       50
102
RTVSPost2010PropOp47
 70
     1
102
RTVSPost2010Prop48
 90
       50
102
RTVSPost2010PropOp48
 70
     1
102
RTVSPost2010Prop49
280
     0
102
RTVSPost2010PropOp49
 70
     1
102
RTVSPost2010Prop50
 90
       50
102
RTVSPost2010PropOp50
 70
     1
102
RTVSPost2010Prop51ColorIndex
 90
      256
102
RTVSPost2010Prop51ColorRGB
 90
-16777216
102
RTVSPost2010PropOp51
 70
     0
102
RTVSPost2010Prop52
140
1.0
102
RTVSPost2010PropOp52
 70
     0
102
RTVSPost2010Prop53
 90
        2
102
RTVSPost2010PropOp53
 70
     1
102
RTVSPost2010Prop54
  1
strokes_ogs.tif
102
RTVSPost2010PropOp54
 70
     1
102
RTVSPost2010Prop55
280
     0
102
RTVSPost2010PropOp55
 70
     1
102
RTVSPost2010Prop56
140
1.0
102
RTVSPost2010PropOp56
 70
     1
102
RTVSPost2010Prop57
140
1.0
102
RTVSPost2010PropOp57
 70
     1
  0
XRECORD
  5
61A
102
{ACAD_REACTORS
330
619
102
}
330
619
100
AcDbXrecord
280
     1
102
RTVSPropertyOp0
 70
     0
102
RTVSPropertyOp1
 70
     0
102
RTVSPropertyOp2
 70
     0
102
RTVSPropertyOp3
 70
     0
102
RTVSPropertyOp4
 70
     0
102
RTVSPropertyOp5
 70
     0
102
RTVSPropertyOp6
 70
     0
102
RTVSPropertyOp7
 70
     0
102
RTVSPropertyOp8
 70
     0
102
RTVSPropertyOp9
 70
     0
102
RTVSPropertyOp10
 70
     0
102
RTVSPropertyOp11
 70
     0
102
RTVSPropertyOp12
 70
     0
102
RTVSPropertyOp13
 70
     0
102
RTVSPropertyOp14
 70
     2
102
RTVSPropertyOp15
 70
     0
102
RTVSPropertyOp16
 70
     0
102
RTVSPropertyOp17
 70
     0
102
RTVSPropertyOp18
 70
     0
102
RTVSPropertyOp19
 70
     0
102
RTVSPropertyOp20
 70
     0
102
RTVSPropertyOp21
 70
     0
102
RTVSPropertyOp22
 70
     0
102
RTVSPropertyOp23
 70
     0
102
RTVSPropertyOp24
 70
     0
102
RTVSPropertyOp25
 70
     0
102
RTVSPropertyOp26
 70
     0
102
RTVSPropertyOp27
 70
     0
102
RTVSPropertyOp28
 70
     0
102
RTVSPropertyOp29
 70
     0
102
RTVSPropertyOp30
 70
     0
102
RTVSPropertyOp31
 70
     0
102
RTVSPropertyOp32
 70
     0
102
RTVSPropertyOp33
 70
     0
102
RTVSPropertyOp34
 70
     0
102
RTVSPropertyOp35
 70
     0
102
RTVSPropertyOp36
 70
     0
102
RTVSPropertyOp37
 70
     0
102
RTVSPropertyOp38
 70
     0
102
RTVSPropertyOp39
 70
     0
102
RTVSPropertyOp40
 70
     0
102
RTVSPropertyOp41
 70
     0
102
RTVSPropertyOp42
 70
     0
102
RTVSPropertyOp43
 70
     0
102
RTVSPropertyOp44
 70
     0
102
RTVSPropertyOp45
 70
     0
102
RTVSPropertyOp46
 70
     0
102
RTVSPropertyOp47
 70
     0
102
RTVSPropertyOp48
 70
     0
102
RTVSPropertyOp49
 70
     0
102
RTVSPropertyOp50
 70
     0
102
RTVSPropertyOp51
 70
     0
102
RTVSPropertyOp52
 70
     0
102
RTVSPropertyOp53
 70
     0
102
RTVSPropertyOp54
 70
     0
102
RTVSPropertyOp55
 70
     0
102
RTVSPropertyOp56
 70
     0
102
RTVSPropertyOp57
 70
     0
102
RTVSPost2010Prop28
280
     0
102
RTVSPost2010PropOp28
 70
     0
102
RTVSPost2010Prop29
280
     1
102
RTVSPost2010PropOp29
 70
     0
102
RTVSPost2010Prop30
280
     1
102
RTVSPost2010PropOp30
 70
     0
102
RTVSPost2010Prop31
280
     0
102
RTVSPost2010PropOp31
 70
     0
102
RTVSPost2010Prop32
280
     0
102
RTVSPost2010PropOp32
 70
     0
102
RTVSPost2010Prop33
280
     0
102
RTVSPost2010PropOp33
 70
     0
102
RTVSPost2010Prop34
280
     0
102
RTVSPost2010PropOp34
 70
     0
102
RTVSPost2010Prop35
280
     0
102
RTVSPost2010PropOp35
 70
     0
102
RTVSPost2010Prop36
280
     0
102
RTVSPost2010PropOp36
 70
     0
102
RTVSPost2010Prop37
 90
       50
102
RTVSPost2010PropOp37
 70
     0
102
RTVSPost2010Prop38
140
0.0
102
RTVSPost2010PropOp38
 70
     0
102
RTVSPost2010Prop39
140
1.0
102
RTVSPost2010PropOp39
 70
     0
102
RTVSPost2010Prop40
 90
        0
102
RTVSPost2010PropOp40
 70
     0
102
RTVSPost2010Prop41ColorIndex
 90
       18
102
RTVSPost2010Prop41ColorRGB
 90
        0
102
RTVSPost2010PropOp41
 70
     0
102
RTVSPost2010Prop42
 90
       50
102
RTVSPost2010PropOp42
 70
     0
102
RTVSPost2010Prop43
 90
        3
102
RTVSPost2010PropOp43
 70
     0
102
RTVSPost2010Prop44ColorIndex
 90
        5
102
RTVSPost2010Prop44ColorRGB
 90
      255
102
RTVSPost2010PropOp44
 70
     0
102
RTVSPost2010Prop45
280
     0
102
RTVSPost2010PropOp45
 70
     0
102
RTVSPost2010Prop46
 90
       50
102
RTVSPost2010PropOp46
 70
     0
102
RTVSPost2010Prop47
 90
       50
102
RTVSPost2010PropOp47
 70
     0
102
RTVSPost2010Prop48
 90
       50
102
RTVSPost2010PropOp48
 70
     0
102
RTVSPost2010Prop49
280
     0
102
RTVSPost2010PropOp49
 70
     0
102
RTVSPost2010Prop50
 90
       50
102
RTVSPost2010PropOp50
 70
     0
102
RTVSPost2010Prop51ColorIndex
 90
      256
102
RTVSPost2010Prop51ColorRGB
 90
-16777216
102
RTVSPost2010PropOp51
 70
     0
102
RTVSPost2010Prop52
140
1.0
102
RTVSPost2010PropOp52
 70
     0
102
RTVSPost2010Prop53
 90
        2
102
RTVSPost2010PropOp53
 70
     0
102
RTVSPost2010Prop54
  1
strokes_ogs.tif
102
RTVSPost2010PropOp54
 70
     0
102
RTVSPost2010Prop55
280
     0
102
RTVSPost2010PropOp55
 70
     0
102
RTVSPost2010Prop56
140
1.0
102
RTVSPost2010PropOp56
 70
     0
102
RTVSPost2010Prop57
140
1.0
102
RTVSPost2010PropOp57
 70
     0
  0
XRECORD
  5
61C
102
{ACAD_REACTORS
330
61B
102
}
330
61B
100
AcDbXrecord
280
     1
102
RTVSPropertyOp0
 70
     1
102
RTVSPropertyOp1
 70
     1
102
RTVSPropertyOp2
 70
     1
102
RTVSPropertyOp3
 70
     1
102
RTVSPropertyOp4
 70
     1
102
RTVSPropertyOp5
 70
     1
102
RTVSPropertyOp6
 70
     1
102
RTVSPropertyOp7
 70
     1
102
RTVSPropertyOp8
 70
     1
102
RTVSPropertyOp9
 70
     1
102
RTVSPropertyOp10
 70
     1
102
RTVSPropertyOp11
 70
     1
102
RTVSPropertyOp12
 70
     1
102
RTVSPropertyOp13
 70
     1
102
RTVSPropertyOp14
 70
     1
102
RTVSPropertyOp15
 70
     1
102
RTVSPropertyOp16
 70
     1
102
RTVSPropertyOp17
 70
     1
102
RTVSPropertyOp18
 70
     1
102
RTVSPropertyOp19
 70
     1
102
RTVSPropertyOp20
 70
     1
102
RTVSPropertyOp21
 70
     1
102
RTVSPropertyOp22
 70
     1
102
RTVSPropertyOp23
 70
     1
102
RTVSPropertyOp24
 70
     1
102
RTVSPropertyOp25
 70
     1
102
RTVSPropertyOp26
 70
     1
102
RTVSPropertyOp27
 70
     1
102
RTVSPropertyOp28
 70
     1
102
RTVSPropertyOp29
 70
     1
102
RTVSPropertyOp30
 70
     1
102
RTVSPropertyOp31
 70
     1
102
RTVSPropertyOp32
 70
     1
102
RTVSPropertyOp33
 70
     1
102
RTVSPropertyOp34
 70
     1
102
RTVSPropertyOp35
 70
     1
102
RTVSPropertyOp36
 70
     1
102
RTVSPropertyOp37
 70
     1
102
RTVSPropertyOp38
 70
     1
102
RTVSPropertyOp39
 70
     1
102
RTVSPropertyOp40
 70
     1
102
RTVSPropertyOp41
 70
     1
102
RTVSPropertyOp42
 70
     1
102
RTVSPropertyOp43
 70
     1
102
RTVSPropertyOp44
 70
     1
102
RTVSPropertyOp45
 70
     1
102
RTVSPropertyOp46
 70
     1
102
RTVSPropertyOp47
 70
     1
102
RTVSPropertyOp48
 70
     1
102
RTVSPropertyOp49
 70
     1
102
RTVSPropertyOp50
 70
     1
102
RTVSPropertyOp51
 70
     0
102
RTVSPropertyOp52
 70
     0
102
RTVSPropertyOp53
 70
     1
102
RTVSPropertyOp54
 70
     1
102
RTVSPropertyOp55
 70
     1
102
RTVSPropertyOp56
 70
     1
102
RTVSPropertyOp57
 70
     1
102
RTVSPost2010Prop28
280
     0
102
RTVSPost2010PropOp28
 70
     1
102
RTVSPost2010Prop29
280
     1
102
RTVSPost2010PropOp29
 70
     1
102
RTVSPost2010Prop30
280
     1
102
RTVSPost2010PropOp30
 70
     1
102
RTVSPost2010Prop31
280
     0
102
RTVSPost2010PropOp31
 70
     1
102
RTVSPost2010Prop32
280
     0
102
RTVSPost2010PropOp32
 70
     1
102
RTVSPost2010Prop33
280
     0
102
RTVSPost2010PropOp33
 70
     1
102
RTVSPost2010Prop34
280
     0
102
RTVSPost2010PropOp34
 70
     1
102
RTVSPost2010Prop35
280
     0
102
RTVSPost2010PropOp35
 70
     1
102
RTVSPost2010Prop36
280
     0
102
RTVSPost2010PropOp36
 70
     1
102
RTVSPost2010Prop37
 90
       50
102
RTVSPost2010PropOp37
 70
     1
102
RTVSPost2010Prop38
140
0.0
102
RTVSPost2010PropOp38
 70
     1
102
RTVSPost2010Prop39
140
1.0
102
RTVSPost2010PropOp39
 70
     1
102
RTVSPost2010Prop40
 90
        0
102
RTVSPost2010PropOp40
 70
     1
102
RTVSPost2010Prop41ColorIndex
 90
       18
102
RTVSPost2010Prop41ColorRGB
 90
        0
102
RTVSPost2010PropOp41
 70
     1
102
RTVSPost2010Prop42
 90
       50
102
RTVSPost2010PropOp42
 70
     1
102
RTVSPost2010Prop43
 90
        3
102
RTVSPost2010PropOp43
 70
     1
102
RTVSPost2010Prop44ColorIndex
 90
        5
102
RTVSPost2010Prop44ColorRGB
 90
      255
102
RTVSPost2010PropOp44
 70
     1
102
RTVSPost2010Prop45
280
     0
102
RTVSPost2010PropOp45
 70
     1
102
RTVSPost2010Prop46
 90
       50
102
RTVSPost2010PropOp46
 70
     1
102
RTVSPost2010Prop47
 90
       50
102
RTVSPost2010PropOp47
 70
     1
102
RTVSPost2010Prop48
 90
       50
102
RTVSPost2010PropOp48
 70
     1
102
RTVSPost2010Prop49
280
     0
102
RTVSPost2010PropOp49
 70
     1
102
RTVSPost2010Prop50
 90
       50
102
RTVSPost2010PropOp50
 70
     1
102
RTVSPost2010Prop51ColorIndex
 90
      256
102
RTVSPost2010Prop51ColorRGB
 90
-16777216
102
RTVSPost2010PropOp51
 70
     0
102
RTVSPost2010Prop52
140
1.0
102
RTVSPost2010PropOp52
 70
     0
102
RTVSPost2010Prop53
 90
        2
102
RTVSPost2010PropOp53
 70
     1
102
RTVSPost2010Prop54
  1
strokes_ogs.tif
102
RTVSPost2010PropOp54
 70
     1
102
RTVSPost2010Prop55
280
     0
102
RTVSPost2010PropOp55
 70
     1
102
RTVSPost2010Prop56
140
1.0
102
RTVSPost2010PropOp56
 70
     1
102
RTVSPost2010Prop57
140
1.0
102
RTVSPost2010PropOp57
 70
     1
  0
XRECORD
  5
61E
102
{ACAD_REACTORS
330
61D
102
}
330
61D
100
AcDbXrecord
280
     1
102
RTVSPropertyOp0
 70
     0
102
RTVSPropertyOp1
 70
     0
102
RTVSPropertyOp2
 70
     0
102
RTVSPropertyOp3
 70
     0
102
RTVSPropertyOp4
 70
     0
102
RTVSPropertyOp5
 70
     0
102
RTVSPropertyOp6
 70
     0
102
RTVSPropertyOp7
 70
     0
102
RTVSPropertyOp8
 70
     0
102
RTVSPropertyOp9
 70
     0
102
RTVSPropertyOp10
 70
     0
102
RTVSPropertyOp11
 70
     0
102
RTVSPropertyOp12
 70
     0
102
RTVSPropertyOp13
 70
     0
102
RTVSPropertyOp14
 70
     2
102
RTVSPropertyOp15
 70
     0
102
RTVSPropertyOp16
 70
     0
102
RTVSPropertyOp17
 70
     0
102
RTVSPropertyOp18
 70
     0
102
RTVSPropertyOp19
 70
     0
102
RTVSPropertyOp20
 70
     0
102
RTVSPropertyOp21
 70
     0
102
RTVSPropertyOp22
 70
     0
102
RTVSPropertyOp23
 70
     0
102
RTVSPropertyOp24
 70
     0
102
RTVSPropertyOp25
 70
     0
102
RTVSPropertyOp26
 70
     0
102
RTVSPropertyOp27
 70
     0
102
RTVSPropertyOp28
 70
     0
102
RTVSPropertyOp29
 70
     0
102
RTVSPropertyOp30
 70
     0
102
RTVSPropertyOp31
 70
     0
102
RTVSPropertyOp32
 70
     0
102
RTVSPropertyOp33
 70
     0
102
RTVSPropertyOp34
 70
     0
102
RTVSPropertyOp35
 70
     0
102
RTVSPropertyOp36
 70
     0
102
RTVSPropertyOp37
 70
     0
102
RTVSPropertyOp38
 70
     0
102
RTVSPropertyOp39
 70
     0
102
RTVSPropertyOp40
 70
     0
102
RTVSPropertyOp41
 70
     0
102
RTVSPropertyOp42
 70
     0
102
RTVSPropertyOp43
 70
     0
102
RTVSPropertyOp44
 70
     0
102
RTVSPropertyOp45
 70
     0
102
RTVSPropertyOp46
 70
     0
102
RTVSPropertyOp47
 70
     0
102
RTVSPropertyOp48
 70
     0
102
RTVSPropertyOp49
 70
     0
102
RTVSPropertyOp50
 70
     0
102
RTVSPropertyOp51
 70
     0
102
RTVSPropertyOp52
 70
     0
102
RTVSPropertyOp53
 70
     0
102
RTVSPropertyOp54
 70
     0
102
RTVSPropertyOp55
 70
     0
102
RTVSPropertyOp56
 70
     0
102
RTVSPropertyOp57
 70
     0
102
RTVSPost2010Prop28
280
     0
102
RTVSPost2010PropOp28
 70
     0
102
RTVSPost2010Prop29
280
     1
102
RTVSPost2010PropOp29
 70
     0
102
RTVSPost2010Prop30
280
     1
102
RTVSPost2010PropOp30
 70
     0
102
RTVSPost2010Prop31
280
     0
102
RTVSPost2010PropOp31
 70
     0
102
RTVSPost2010Prop32
280
     0
102
RTVSPost2010PropOp32
 70
     0
102
RTVSPost2010Prop33
280
     0
102
RTVSPost2010PropOp33
 70
     0
102
RTVSPost2010Prop34
280
     0
102
RTVSPost2010PropOp34
 70
     0
102
RTVSPost2010Prop35
280
     0
102
RTVSPost2010PropOp35
 70
     0
102
RTVSPost2010Prop36
280
     0
102
RTVSPost2010PropOp36
 70
     0
102
RTVSPost2010Prop37
 90
       50
102
RTVSPost2010PropOp37
 70
     0
102
RTVSPost2010Prop38
140
0.0
102
RTVSPost2010PropOp38
 70
     0
102
RTVSPost2010Prop39
140
1.0
102
RTVSPost2010PropOp39
 70
     0
102
RTVSPost2010Prop40
 90
        0
102
RTVSPost2010PropOp40
 70
     0
102
RTVSPost2010Prop41ColorIndex
 90
       18
102
RTVSPost2010Prop41ColorRGB
 90
        0
102
RTVSPost2010PropOp41
 70
     0
102
RTVSPost2010Prop42
 90
       50
102
RTVSPost2010PropOp42
 70
     0
102
RTVSPost2010Prop43
 90
        3
102
RTVSPost2010PropOp43
 70
     0
102
RTVSPost2010Prop44ColorIndex
 90
        5
102
RTVSPost2010Prop44ColorRGB
 90
      255
102
RTVSPost2010PropOp44
 70
     0
102
RTVSPost2010Prop45
280
     0
102
RTVSPost2010PropOp45
 70
     0
102
RTVSPost2010Prop46
 90
       50
102
RTVSPost2010PropOp46
 70
     0
102
RTVSPost2010Prop47
 90
       50
102
RTVSPost2010PropOp47
 70
     0
102
RTVSPost2010Prop48
 90
       50
102
RTVSPost2010PropOp48
 70
     0
102
RTVSPost2010Prop49
280
     0
102
RTVSPost2010PropOp49
 70
     0
102
RTVSPost2010Prop50
 90
       50
102
RTVSPost2010PropOp50
 70
     0
102
RTVSPost2010Prop51ColorIndex
 90
      256
102
RTVSPost2010Prop51ColorRGB
 90
-16777216
102
RTVSPost2010PropOp51
 70
     0
102
RTVSPost2010Prop52
140
1.0
102
RTVSPost2010PropOp52
 70
     0
102
RTVSPost2010Prop53
 90
        2
102
RTVSPost2010PropOp53
 70
     0
102
RTVSPost2010Prop54
  1
strokes_ogs.tif
102
RTVSPost2010PropOp54
 70
     0
102
RTVSPost2010Prop55
280
     0
102
RTVSPost2010PropOp55
 70
     0
102
RTVSPost2010Prop56
140
1.0
102
RTVSPost2010PropOp56
 70
     0
102
RTVSPost2010Prop57
140
1.0
102
RTVSPost2010PropOp57
 70
     0
  0
XRECORD
  5
620
102
{ACAD_REACTORS
330
61F
102
}
330
61F
100
AcDbXrecord
280
     1
102
RTVSPropertyOp0
 70
     1
102
RTVSPropertyOp1
 70
     1
102
RTVSPropertyOp2
 70
     1
102
RTVSPropertyOp3
 70
     1
102
RTVSPropertyOp4
 70
     1
102
RTVSPropertyOp5
 70
     1
102
RTVSPropertyOp6
 70
     1
102
RTVSPropertyOp7
 70
     1
102
RTVSPropertyOp8
 70
     1
102
RTVSPropertyOp9
 70
     1
102
RTVSPropertyOp10
 70
     1
102
RTVSPropertyOp11
 70
     1
102
RTVSPropertyOp12
 70
     1
102
RTVSPropertyOp13
 70
     1
102
RTVSPropertyOp14
 70
     1
102
RTVSPropertyOp15
 70
     1
102
RTVSPropertyOp16
 70
     1
102
RTVSPropertyOp17
 70
     1
102
RTVSPropertyOp18
 70
     1
102
RTVSPropertyOp19
 70
     1
102
RTVSPropertyOp20
 70
     1
102
RTVSPropertyOp21
 70
     1
102
RTVSPropertyOp22
 70
     1
102
RTVSPropertyOp23
 70
     1
102
RTVSPropertyOp24
 70
     1
102
RTVSPropertyOp25
 70
     1
102
RTVSPropertyOp26
 70
     1
102
RTVSPropertyOp27
 70
     1
102
RTVSPropertyOp28
 70
     1
102
RTVSPropertyOp29
 70
     1
102
RTVSPropertyOp30
 70
     1
102
RTVSPropertyOp31
 70
     1
102
RTVSPropertyOp32
 70
     1
102
RTVSPropertyOp33
 70
     1
102
RTVSPropertyOp34
 70
     1
102
RTVSPropertyOp35
 70
     1
102
RTVSPropertyOp36
 70
     1
102
RTVSPropertyOp37
 70
     1
102
RTVSPropertyOp38
 70
     1
102
RTVSPropertyOp39
 70
     1
102
RTVSPropertyOp40
 70
     1
102
RTVSPropertyOp41
 70
     1
102
RTVSPropertyOp42
 70
     1
102
RTVSPropertyOp43
 70
     1
102
RTVSPropertyOp44
 70
     1
102
RTVSPropertyOp45
 70
     1
102
RTVSPropertyOp46
 70
     1
102
RTVSPropertyOp47
 70
     1
102
RTVSPropertyOp48
 70
     1
102
RTVSPropertyOp49
 70
     1
102
RTVSPropertyOp50
 70
     1
102
RTVSPropertyOp51
 70
     0
102
RTVSPropertyOp52
 70
     0
102
RTVSPropertyOp53
 70
     1
102
RTVSPropertyOp54
 70
     1
102
RTVSPropertyOp55
 70
     1
102
RTVSPropertyOp56
 70
     1
102
RTVSPropertyOp57
 70
     1
102
RTVSPost2010Prop28
280
     0
102
RTVSPost2010PropOp28
 70
     1
102
RTVSPost2010Prop29
280
     1
102
RTVSPost2010PropOp29
 70
     1
102
RTVSPost2010Prop30
280
     1
102
RTVSPost2010PropOp30
 70
     1
102
RTVSPost2010Prop31
280
     0
102
RTVSPost2010PropOp31
 70
     1
102
RTVSPost2010Prop32
280
     0
102
RTVSPost2010PropOp32
 70
     1
102
RTVSPost2010Prop33
280
     0
102
RTVSPost2010PropOp33
 70
     1
102
RTVSPost2010Prop34
280
     0
102
RTVSPost2010PropOp34
 70
     1
102
RTVSPost2010Prop35
280
     0
102
RTVSPost2010PropOp35
 70
     1
102
RTVSPost2010Prop36
280
     0
102
RTVSPost2010PropOp36
 70
     1
102
RTVSPost2010Prop37
 90
       50
102
RTVSPost2010PropOp37
 70
     1
102
RTVSPost2010Prop38
140
0.0
102
RTVSPost2010PropOp38
 70
     1
102
RTVSPost2010Prop39
140
1.0
102
RTVSPost2010PropOp39
 70
     1
102
RTVSPost2010Prop40
 90
        0
102
RTVSPost2010PropOp40
 70
     1
102
RTVSPost2010Prop41ColorIndex
 90
       18
102
RTVSPost2010Prop41ColorRGB
 90
        0
102
RTVSPost2010PropOp41
 70
     1
102
RTVSPost2010Prop42
 90
       50
102
RTVSPost2010PropOp42
 70
     1
102
RTVSPost2010Prop43
 90
        3
102
RTVSPost2010PropOp43
 70
     1
102
RTVSPost2010Prop44ColorIndex
 90
        5
102
RTVSPost2010Prop44ColorRGB
 90
      255
102
RTVSPost2010PropOp44
 70
     1
102
RTVSPost2010Prop45
280
     0
102
RTVSPost2010PropOp45
 70
     1
102
RTVSPost2010Prop46
 90
       50
102
RTVSPost2010PropOp46
 70
     1
102
RTVSPost2010Prop47
 90
       50
102
RTVSPost2010PropOp47
 70
     1
102
RTVSPost2010Prop48
 90
       50
102
RTVSPost2010PropOp48
 70
     1
102
RTVSPost2010Prop49
280
     0
102
RTVSPost2010PropOp49
 70
     1
102
RTVSPost2010Prop50
 90
       50
102
RTVSPost2010PropOp50
 70
     1
102
RTVSPost2010Prop51ColorIndex
 90
      256
102
RTVSPost2010Prop51ColorRGB
 90
-16777216
102
RTVSPost2010PropOp51
 70
     0
102
RTVSPost2010Prop52
140
1.0
102
RTVSPost2010PropOp52
 70
     0
102
RTVSPost2010Prop53
 90
        2
102
RTVSPost2010PropOp53
 70
     1
102
RTVSPost2010Prop54
  1
strokes_ogs.tif
102
RTVSPost2010PropOp54
 70
     1
102
RTVSPost2010Prop55
280
     0
102
RTVSPost2010PropOp55
 70
     1
102
RTVSPost2010Prop56
140
1.0
102
RTVSPost2010PropOp56
 70
     1
102
RTVSPost2010Prop57
140
1.0
102
RTVSPost2010PropOp57
 70
     1
  0
XRECORD
  5
622
102
{ACAD_REACTORS
330
621
102
}
330
621
100
AcDbXrecord
280
     1
102
RTVSPropertyOp0
 70
     1
102
RTVSPropertyOp1
 70
     1
102
RTVSPropertyOp2
 70
     1
102
RTVSPropertyOp3
 70
     1
102
RTVSPropertyOp4
 70
     1
102
RTVSPropertyOp5
 70
     1
102
RTVSPropertyOp6
 70
     1
102
RTVSPropertyOp7
 70
     1
102
RTVSPropertyOp8
 70
     1
102
RTVSPropertyOp9
 70
     1
102
RTVSPropertyOp10
 70
     1
102
RTVSPropertyOp11
 70
     1
102
RTVSPropertyOp12
 70
     1
102
RTVSPropertyOp13
 70
     1
102
RTVSPropertyOp14
 70
     1
102
RTVSPropertyOp15
 70
     1
102
RTVSPropertyOp16
 70
     1
102
RTVSPropertyOp17
 70
     1
102
RTVSPropertyOp18
 70
     1
102
RTVSPropertyOp19
 70
     1
102
RTVSPropertyOp20
 70
     1
102
RTVSPropertyOp21
 70
     1
102
RTVSPropertyOp22
 70
     1
102
RTVSPropertyOp23
 70
     1
102
RTVSPropertyOp24
 70
     1
102
RTVSPropertyOp25
 70
     1
102
RTVSPropertyOp26
 70
     1
102
RTVSPropertyOp27
 70
     1
102
RTVSPropertyOp28
 70
     1
102
RTVSPropertyOp29
 70
     1
102
RTVSPropertyOp30
 70
     1
102
RTVSPropertyOp31
 70
     1
102
RTVSPropertyOp32
 70
     1
102
RTVSPropertyOp33
 70
     1
102
RTVSPropertyOp34
 70
     1
102
RTVSPropertyOp35
 70
     1
102
RTVSPropertyOp36
 70
     1
102
RTVSPropertyOp37
 70
     1
102
RTVSPropertyOp38
 70
     1
102
RTVSPropertyOp39
 70
     1
102
RTVSPropertyOp40
 70
     1
102
RTVSPropertyOp41
 70
     1
102
RTVSPropertyOp42
 70
     1
102
RTVSPropertyOp43
 70
     1
102
RTVSPropertyOp44
 70
     1
102
RTVSPropertyOp45
 70
     1
102
RTVSPropertyOp46
 70
     1
102
RTVSPropertyOp47
 70
     1
102
RTVSPropertyOp48
 70
     1
102
RTVSPropertyOp49
 70
     1
102
RTVSPropertyOp50
 70
     1
102
RTVSPropertyOp51
 70
     0
102
RTVSPropertyOp52
 70
     0
102
RTVSPropertyOp53
 70
     1
102
RTVSPropertyOp54
 70
     1
102
RTVSPropertyOp55
 70
     1
102
RTVSPropertyOp56
 70
     1
102
RTVSPropertyOp57
 70
     1
102
RTVSPost2010Prop28
280
     0
102
RTVSPost2010PropOp28
 70
     1
102
RTVSPost2010Prop29
280
     1
102
RTVSPost2010PropOp29
 70
     1
102
RTVSPost2010Prop30
280
     1
102
RTVSPost2010PropOp30
 70
     1
102
RTVSPost2010Prop31
280
     0
102
RTVSPost2010PropOp31
 70
     1
102
RTVSPost2010Prop32
280
     0
102
RTVSPost2010PropOp32
 70
     1
102
RTVSPost2010Prop33
280
     0
102
RTVSPost2010PropOp33
 70
     1
102
RTVSPost2010Prop34
280
     0
102
RTVSPost2010PropOp34
 70
     1
102
RTVSPost2010Prop35
280
     0
102
RTVSPost2010PropOp35
 70
     1
102
RTVSPost2010Prop36
280
     0
102
RTVSPost2010PropOp36
 70
     1
102
RTVSPost2010Prop37
 90
       50
102
RTVSPost2010PropOp37
 70
     1
102
RTVSPost2010Prop38
140
0.0
102
RTVSPost2010PropOp38
 70
     1
102
RTVSPost2010Prop39
140
1.0
102
RTVSPost2010PropOp39
 70
     1
102
RTVSPost2010Prop40
 90
        0
102
RTVSPost2010PropOp40
 70
     1
102
RTVSPost2010Prop41ColorIndex
 90
       18
102
RTVSPost2010Prop41ColorRGB
 90
        0
102
RTVSPost2010PropOp41
 70
     1
102
RTVSPost2010Prop42
 90
       50
102
RTVSPost2010PropOp42
 70
     1
102
RTVSPost2010Prop43
 90
        3
102
RTVSPost2010PropOp43
 70
     1
102
RTVSPost2010Prop44ColorIndex
 90
        5
102
RTVSPost2010Prop44ColorRGB
 90
      255
102
RTVSPost2010PropOp44
 70
     1
102
RTVSPost2010Prop45
280
     0
102
RTVSPost2010PropOp45
 70
     1
102
RTVSPost2010Prop46
 90
       50
102
RTVSPost2010PropOp46
 70
     1
102
RTVSPost2010Prop47
 90
       50
102
RTVSPost2010PropOp47
 70
     1
102
RTVSPost2010Prop48
 90
       50
102
RTVSPost2010PropOp48
 70
     1
102
RTVSPost2010Prop49
280
     0
102
RTVSPost2010PropOp49
 70
     1
102
RTVSPost2010Prop50
 90
       50
102
RTVSPost2010PropOp50
 70
     1
102
RTVSPost2010Prop51ColorIndex
 90
      256
102
RTVSPost2010Prop51ColorRGB
 90
-16777216
102
RTVSPost2010PropOp51
 70
     0
102
RTVSPost2010Prop52
140
1.0
102
RTVSPost2010PropOp52
 70
     0
102
RTVSPost2010Prop53
 90
        2
102
RTVSPost2010PropOp53
 70
     1
102
RTVSPost2010Prop54
  1
strokes_ogs.tif
102
RTVSPost2010PropOp54
 70
     1
102
RTVSPost2010Prop55
280
     0
102
RTVSPost2010PropOp55
 70
     1
102
RTVSPost2010Prop56
140
1.0
102
RTVSPost2010PropOp56
 70
     1
102
RTVSPost2010Prop57
140
1.0
102
RTVSPost2010PropOp57
 70
     1
  0
XRECORD
  5
624
102
{ACAD_REACTORS
330
623
102
}
330
623
100
AcDbXrecord
280
     1
102
RTVSPropertyOp0
 70
     1
102
RTVSPropertyOp1
 70
     1
102
RTVSPropertyOp2
 70
     1
102
RTVSPropertyOp3
 70
     1
102
RTVSPropertyOp4
 70
     1
102
RTVSPropertyOp5
 70
     1
102
RTVSPropertyOp6
 70
     1
102
RTVSPropertyOp7
 70
     1
102
RTVSPropertyOp8
 70
     1
102
RTVSPropertyOp9
 70
     1
102
RTVSPropertyOp10
 70
     1
102
RTVSPropertyOp11
 70
     1
102
RTVSPropertyOp12
 70
     1
102
RTVSPropertyOp13
 70
     1
102
RTVSPropertyOp14
 70
     1
102
RTVSPropertyOp15
 70
     1
102
RTVSPropertyOp16
 70
     1
102
RTVSPropertyOp17
 70
     1
102
RTVSPropertyOp18
 70
     1
102
RTVSPropertyOp19
 70
     1
102
RTVSPropertyOp20
 70
     1
102
RTVSPropertyOp21
 70
     1
102
RTVSPropertyOp22
 70
     1
102
RTVSPropertyOp23
 70
     1
102
RTVSPropertyOp24
 70
     1
102
RTVSPropertyOp25
 70
     1
102
RTVSPropertyOp26
 70
     1
102
RTVSPropertyOp27
 70
     1
102
RTVSPropertyOp28
 70
     1
102
RTVSPropertyOp29
 70
     1
102
RTVSPropertyOp30
 70
     1
102
RTVSPropertyOp31
 70
     1
102
RTVSPropertyOp32
 70
     1
102
RTVSPropertyOp33
 70
     1
102
RTVSPropertyOp34
 70
     1
102
RTVSPropertyOp35
 70
     1
102
RTVSPropertyOp36
 70
     1
102
RTVSPropertyOp37
 70
     1
102
RTVSPropertyOp38
 70
     1
102
RTVSPropertyOp39
 70
     1
102
RTVSPropertyOp40
 70
     1
102
RTVSPropertyOp41
 70
     1
102
RTVSPropertyOp42
 70
     1
102
RTVSPropertyOp43
 70
     1
102
RTVSPropertyOp44
 70
     1
102
RTVSPropertyOp45
 70
     1
102
RTVSPropertyOp46
 70
     1
102
RTVSPropertyOp47
 70
     1
102
RTVSPropertyOp48
 70
     1
102
RTVSPropertyOp49
 70
     1
102
RTVSPropertyOp50
 70
     1
102
RTVSPropertyOp51
 70
     0
102
RTVSPropertyOp52
 70
     0
102
RTVSPropertyOp53
 70
     1
102
RTVSPropertyOp54
 70
     1
102
RTVSPropertyOp55
 70
     1
102
RTVSPropertyOp56
 70
     1
102
RTVSPropertyOp57
 70
     1
102
RTVSPost2010Prop28
280
     0
102
RTVSPost2010PropOp28
 70
     1
102
RTVSPost2010Prop29
280
     1
102
RTVSPost2010PropOp29
 70
     1
102
RTVSPost2010Prop30
280
     1
102
RTVSPost2010PropOp30
 70
     1
102
RTVSPost2010Prop31
280
     0
102
RTVSPost2010PropOp31
 70
     1
102
RTVSPost2010Prop32
280
     0
102
RTVSPost2010PropOp32
 70
     1
102
RTVSPost2010Prop33
280
     0
102
RTVSPost2010PropOp33
 70
     1
102
RTVSPost2010Prop34
280
     0
102
RTVSPost2010PropOp34
 70
     1
102
RTVSPost2010Prop35
280
     0
102
RTVSPost2010PropOp35
 70
     1
102
RTVSPost2010Prop36
280
     0
102
RTVSPost2010PropOp36
 70
     1
102
RTVSPost2010Prop37
 90
       50
102
RTVSPost2010PropOp37
 70
     1
102
RTVSPost2010Prop38
140
0.0
102
RTVSPost2010PropOp38
 70
     1
102
RTVSPost2010Prop39
140
1.0
102
RTVSPost2010PropOp39
 70
     1
102
RTVSPost2010Prop40
 90
        0
102
RTVSPost2010PropOp40
 70
     1
102
RTVSPost2010Prop41ColorIndex
 90
       18
102
RTVSPost2010Prop41ColorRGB
 90
        0
102
RTVSPost2010PropOp41
 70
     1
102
RTVSPost2010Prop42
 90
       50
102
RTVSPost2010PropOp42
 70
     1
102
RTVSPost2010Prop43
 90
        3
102
RTVSPost2010PropOp43
 70
     1
102
RTVSPost2010Prop44ColorIndex
 90
        5
102
RTVSPost2010Prop44ColorRGB
 90
      255
102
RTVSPost2010PropOp44
 70
     1
102
RTVSPost2010Prop45
280
     0
102
RTVSPost2010PropOp45
 70
     1
102
RTVSPost2010Prop46
 90
       50
102
RTVSPost2010PropOp46
 70
     1
102
RTVSPost2010Prop47
 90
       50
102
RTVSPost2010PropOp47
 70
     1
102
RTVSPost2010Prop48
 90
       50
102
RTVSPost2010PropOp48
 70
     1
102
RTVSPost2010Prop49
280
     0
102
RTVSPost2010PropOp49
 70
     1
102
RTVSPost2010Prop50
 90
       50
102
RTVSPost2010PropOp50
 70
     1
102
RTVSPost2010Prop51ColorIndex
 90
      256
102
RTVSPost2010Prop51ColorRGB
 90
-16777216
102
RTVSPost2010PropOp51
 70
     0
102
RTVSPost2010Prop52
140
1.0
102
RTVSPost2010PropOp52
 70
     0
102
RTVSPost2010Prop53
 90
        2
102
RTVSPost2010PropOp53
 70
     1
102
RTVSPost2010Prop54
  1
strokes_ogs.tif
102
RTVSPost2010PropOp54
 70
     1
102
RTVSPost2010Prop55
280
     0
102
RTVSPost2010PropOp55
 70
     1
102
RTVSPost2010Prop56
140
1.0
102
RTVSPost2010PropOp56
 70
     1
102
RTVSPost2010Prop57
140
1.0
102
RTVSPost2010PropOp57
 70
     1
  0
XRECORD
  5
626
102
{ACAD_REACTORS
330
625
102
}
330
625
100
AcDbXrecord
280
     1
102
RTVSPropertyOp0
 70
     1
102
RTVSPropertyOp1
 70
     1
102
RTVSPropertyOp2
 70
     1
102
RTVSPropertyOp3
 70
     1
102
RTVSPropertyOp4
 70
     1
102
RTVSPropertyOp5
 70
     1
102
RTVSPropertyOp6
 70
     1
102
RTVSPropertyOp7
 70
     1
102
RTVSPropertyOp8
 70
     1
102
RTVSPropertyOp9
 70
     1
102
RTVSPropertyOp10
 70
     1
102
RTVSPropertyOp11
 70
     1
102
RTVSPropertyOp12
 70
     1
102
RTVSPropertyOp13
 70
     1
102
RTVSPropertyOp14
 70
     1
102
RTVSPropertyOp15
 70
     1
102
RTVSPropertyOp16
 70
     1
102
RTVSPropertyOp17
 70
     1
102
RTVSPropertyOp18
 70
     1
102
RTVSPropertyOp19
 70
     1
102
RTVSPropertyOp20
 70
     1
102
RTVSPropertyOp21
 70
     1
102
RTVSPropertyOp22
 70
     1
102
RTVSPropertyOp23
 70
     1
102
RTVSPropertyOp24
 70
     1
102
RTVSPropertyOp25
 70
     1
102
RTVSPropertyOp26
 70
     1
102
RTVSPropertyOp27
 70
     1
102
RTVSPropertyOp28
 70
     1
102
RTVSPropertyOp29
 70
     1
102
RTVSPropertyOp30
 70
     1
102
RTVSPropertyOp31
 70
     1
102
RTVSPropertyOp32
 70
     1
102
RTVSPropertyOp33
 70
     1
102
RTVSPropertyOp34
 70
     1
102
RTVSPropertyOp35
 70
     1
102
RTVSPropertyOp36
 70
     1
102
RTVSPropertyOp37
 70
     1
102
RTVSPropertyOp38
 70
     1
102
RTVSPropertyOp39
 70
     1
102
RTVSPropertyOp40
 70
     1
102
RTVSPropertyOp41
 70
     1
102
RTVSPropertyOp42
 70
     1
102
RTVSPropertyOp43
 70
     1
102
RTVSPropertyOp44
 70
     1
102
RTVSPropertyOp45
 70
     1
102
RTVSPropertyOp46
 70
     1
102
RTVSPropertyOp47
 70
     1
102
RTVSPropertyOp48
 70
     1
102
RTVSPropertyOp49
 70
     1
102
RTVSPropertyOp50
 70
     1
102
RTVSPropertyOp51
 70
     0
102
RTVSPropertyOp52
 70
     0
102
RTVSPropertyOp53
 70
     1
102
RTVSPropertyOp54
 70
     1
102
RTVSPropertyOp55
 70
     1
102
RTVSPropertyOp56
 70
     1
102
RTVSPropertyOp57
 70
     1
102
RTVSPost2010Prop28
280
     0
102
RTVSPost2010PropOp28
 70
     1
102
RTVSPost2010Prop29
280
     1
102
RTVSPost2010PropOp29
 70
     1
102
RTVSPost2010Prop30
280
     1
102
RTVSPost2010PropOp30
 70
     1
102
RTVSPost2010Prop31
280
     0
102
RTVSPost2010PropOp31
 70
     1
102
RTVSPost2010Prop32
280
     0
102
RTVSPost2010PropOp32
 70
     1
102
RTVSPost2010Prop33
280
     0
102
RTVSPost2010PropOp33
 70
     1
102
RTVSPost2010Prop34
280
     0
102
RTVSPost2010PropOp34
 70
     1
102
RTVSPost2010Prop35
280
     0
102
RTVSPost2010PropOp35
 70
     1
102
RTVSPost2010Prop36
280
     0
102
RTVSPost2010PropOp36
 70
     1
102
RTVSPost2010Prop37
 90
       50
102
RTVSPost2010PropOp37
 70
     1
102
RTVSPost2010Prop38
140
0.0
102
RTVSPost2010PropOp38
 70
     1
102
RTVSPost2010Prop39
140
1.0
102
RTVSPost2010PropOp39
 70
     1
102
RTVSPost2010Prop40
 90
        0
102
RTVSPost2010PropOp40
 70
     1
102
RTVSPost2010Prop41ColorIndex
 90
       18
102
RTVSPost2010Prop41ColorRGB
 90
        0
102
RTVSPost2010PropOp41
 70
     1
102
RTVSPost2010Prop42
 90
       50
102
RTVSPost2010PropOp42
 70
     1
102
RTVSPost2010Prop43
 90
        3
102
RTVSPost2010PropOp43
 70
     1
102
RTVSPost2010Prop44ColorIndex
 90
        5
102
RTVSPost2010Prop44ColorRGB
 90
      255
102
RTVSPost2010PropOp44
 70
     1
102
RTVSPost2010Prop45
280
     0
102
RTVSPost2010PropOp45
 70
     1
102
RTVSPost2010Prop46
 90
       50
102
RTVSPost2010PropOp46
 70
     1
102
RTVSPost2010Prop47
 90
       50
102
RTVSPost2010PropOp47
 70
     1
102
RTVSPost2010Prop48
 90
       50
102
RTVSPost2010PropOp48
 70
     1
102
RTVSPost2010Prop49
280
     0
102
RTVSPost2010PropOp49
 70
     1
102
RTVSPost2010Prop50
 90
       50
102
RTVSPost2010PropOp50
 70
     1
102
RTVSPost2010Prop51ColorIndex
 90
      256
102
RTVSPost2010Prop51ColorRGB
 90
-16777216
102
RTVSPost2010PropOp51
 70
     0
102
RTVSPost2010Prop52
140
1.0
102
RTVSPost2010PropOp52
 70
     0
102
RTVSPost2010Prop53
 90
        2
102
RTVSPost2010PropOp53
 70
     1
102
RTVSPost2010Prop54
  1
strokes_ogs.tif
102
RTVSPost2010PropOp54
 70
     1
102
RTVSPost2010Prop55
280
     0
102
RTVSPost2010PropOp55
 70
     1
102
RTVSPost2010Prop56
140
1.0
102
RTVSPost2010PropOp56
 70
     1
102
RTVSPost2010Prop57
140
1.0
102
RTVSPost2010PropOp57
 70
     1
  0
XRECORD
  5
628
102
{ACAD_REACTORS
330
627
102
}
330
627
100
AcDbXrecord
280
     1
102
RTVSPropertyOp0
 70
     1
102
RTVSPropertyOp1
 70
     1
102
RTVSPropertyOp2
 70
     1
102
RTVSPropertyOp3
 70
     1
102
RTVSPropertyOp4
 70
     1
102
RTVSPropertyOp5
 70
     1
102
RTVSPropertyOp6
 70
     1
102
RTVSPropertyOp7
 70
     1
102
RTVSPropertyOp8
 70
     1
102
RTVSPropertyOp9
 70
     1
102
RTVSPropertyOp10
 70
     1
102
RTVSPropertyOp11
 70
     1
102
RTVSPropertyOp12
 70
     1
102
RTVSPropertyOp13
 70
     1
102
RTVSPropertyOp14
 70
     1
102
RTVSPropertyOp15
 70
     1
102
RTVSPropertyOp16
 70
     1
102
RTVSPropertyOp17
 70
     1
102
RTVSPropertyOp18
 70
     1
102
RTVSPropertyOp19
 70
     1
102
RTVSPropertyOp20
 70
     1
102
RTVSPropertyOp21
 70
     1
102
RTVSPropertyOp22
 70
     1
102
RTVSPropertyOp23
 70
     1
102
RTVSPropertyOp24
 70
     1
102
RTVSPropertyOp25
 70
     1
102
RTVSPropertyOp26
 70
     1
102
RTVSPropertyOp27
 70
     1
102
RTVSPropertyOp28
 70
     1
102
RTVSPropertyOp29
 70
     1
102
RTVSPropertyOp30
 70
     1
102
RTVSPropertyOp31
 70
     1
102
RTVSPropertyOp32
 70
     1
102
RTVSPropertyOp33
 70
     1
102
RTVSPropertyOp34
 70
     1
102
RTVSPropertyOp35
 70
     1
102
RTVSPropertyOp36
 70
     1
102
RTVSPropertyOp37
 70
     1
102
RTVSPropertyOp38
 70
     1
102
RTVSPropertyOp39
 70
     1
102
RTVSPropertyOp40
 70
     1
102
RTVSPropertyOp41
 70
     1
102
RTVSPropertyOp42
 70
     1
102
RTVSPropertyOp43
 70
     1
102
RTVSPropertyOp44
 70
     1
102
RTVSPropertyOp45
 70
     1
102
RTVSPropertyOp46
 70
     1
102
RTVSPropertyOp47
 70
     1
102
RTVSPropertyOp48
 70
     1
102
RTVSPropertyOp49
 70
     1
102
RTVSPropertyOp50
 70
     1
102
RTVSPropertyOp51
 70
     0
102
RTVSPropertyOp52
 70
     0
102
RTVSPropertyOp53
 70
     1
102
RTVSPropertyOp54
 70
     1
102
RTVSPropertyOp55
 70
     1
102
RTVSPropertyOp56
 70
     1
102
RTVSPropertyOp57
 70
     1
102
RTVSPost2010Prop28
280
     0
102
RTVSPost2010PropOp28
 70
     1
102
RTVSPost2010Prop29
280
     1
102
RTVSPost2010PropOp29
 70
     1
102
RTVSPost2010Prop30
280
     1
102
RTVSPost2010PropOp30
 70
     1
102
RTVSPost2010Prop31
280
     0
102
RTVSPost2010PropOp31
 70
     1
102
RTVSPost2010Prop32
280
     0
102
RTVSPost2010PropOp32
 70
     1
102
RTVSPost2010Prop33
280
     0
102
RTVSPost2010PropOp33
 70
     1
102
RTVSPost2010Prop34
280
     0
102
RTVSPost2010PropOp34
 70
     1
102
RTVSPost2010Prop35
280
     0
102
RTVSPost2010PropOp35
 70
     1
102
RTVSPost2010Prop36
280
     0
102
RTVSPost2010PropOp36
 70
     1
102
RTVSPost2010Prop37
 90
       50
102
RTVSPost2010PropOp37
 70
     1
102
RTVSPost2010Prop38
140
0.0
102
RTVSPost2010PropOp38
 70
     1
102
RTVSPost2010Prop39
140
1.0
102
RTVSPost2010PropOp39
 70
     1
102
RTVSPost2010Prop40
 90
        0
102
RTVSPost2010PropOp40
 70
     1
102
RTVSPost2010Prop41ColorIndex
 90
       18
102
RTVSPost2010Prop41ColorRGB
 90
        0
102
RTVSPost2010PropOp41
 70
     1
102
RTVSPost2010Prop42
 90
       50
102
RTVSPost2010PropOp42
 70
     1
102
RTVSPost2010Prop43
 90
        3
102
RTVSPost2010PropOp43
 70
     1
102
RTVSPost2010Prop44ColorIndex
 90
        5
102
RTVSPost2010Prop44ColorRGB
 90
      255
102
RTVSPost2010PropOp44
 70
     1
102
RTVSPost2010Prop45
280
     0
102
RTVSPost2010PropOp45
 70
     1
102
RTVSPost2010Prop46
 90
       50
102
RTVSPost2010PropOp46
 70
     1
102
RTVSPost2010Prop47
 90
       50
102
RTVSPost2010PropOp47
 70
     1
102
RTVSPost2010Prop48
 90
       50
102
RTVSPost2010PropOp48
 70
     1
102
RTVSPost2010Prop49
280
     0
102
RTVSPost2010PropOp49
 70
     1
102
RTVSPost2010Prop50
 90
       50
102
RTVSPost2010PropOp50
 70
     1
102
RTVSPost2010Prop51ColorIndex
 90
      256
102
RTVSPost2010Prop51ColorRGB
 90
-16777216
102
RTVSPost2010PropOp51
 70
     0
102
RTVSPost2010Prop52
140
1.0
102
RTVSPost2010PropOp52
 70
     0
102
RTVSPost2010Prop53
 90
        2
102
RTVSPost2010PropOp53
 70
     1
102
RTVSPost2010Prop54
  1
strokes_ogs.tif
102
RTVSPost2010PropOp54
 70
     1
102
RTVSPost2010Prop55
280
     0
102
RTVSPost2010PropOp55
 70
     1
102
RTVSPost2010Prop56
140
1.0
102
RTVSPost2010PropOp56
 70
     1
102
RTVSPost2010Prop57
140
1.0
102
RTVSPost2010PropOp57
 70
     1
  0
XRECORD
  5
62A
102
{ACAD_REACTORS
330
629
102
}
330
629
100
AcDbXrecord
280
     1
102
RTVSPropertyOp0
 70
     1
102
RTVSPropertyOp1
 70
     1
102
RTVSPropertyOp2
 70
     1
102
RTVSPropertyOp3
 70
     1
102
RTVSPropertyOp4
 70
     1
102
RTVSPropertyOp5
 70
     1
102
RTVSPropertyOp6
 70
     1
102
RTVSPropertyOp7
 70
     1
102
RTVSPropertyOp8
 70
     1
102
RTVSPropertyOp9
 70
     1
102
RTVSPropertyOp10
 70
     1
102
RTVSPropertyOp11
 70
     1
102
RTVSPropertyOp12
 70
     1
102
RTVSPropertyOp13
 70
     1
102
RTVSPropertyOp14
 70
     1
102
RTVSPropertyOp15
 70
     1
102
RTVSPropertyOp16
 70
     1
102
RTVSPropertyOp17
 70
     1
102
RTVSPropertyOp18
 70
     1
102
RTVSPropertyOp19
 70
     1
102
RTVSPropertyOp20
 70
     1
102
RTVSPropertyOp21
 70
     1
102
RTVSPropertyOp22
 70
     1
102
RTVSPropertyOp23
 70
     1
102
RTVSPropertyOp24
 70
     1
102
RTVSPropertyOp25
 70
     1
102
RTVSPropertyOp26
 70
     1
102
RTVSPropertyOp27
 70
     1
102
RTVSPropertyOp28
 70
     1
102
RTVSPropertyOp29
 70
     1
102
RTVSPropertyOp30
 70
     1
102
RTVSPropertyOp31
 70
     1
102
RTVSPropertyOp32
 70
     1
102
RTVSPropertyOp33
 70
     1
102
RTVSPropertyOp34
 70
     1
102
RTVSPropertyOp35
 70
     1
102
RTVSPropertyOp36
 70
     1
102
RTVSPropertyOp37
 70
     1
102
RTVSPropertyOp38
 70
     1
102
RTVSPropertyOp39
 70
     1
102
RTVSPropertyOp40
 70
     1
102
RTVSPropertyOp41
 70
     1
102
RTVSPropertyOp42
 70
     1
102
RTVSPropertyOp43
 70
     1
102
RTVSPropertyOp44
 70
     1
102
RTVSPropertyOp45
 70
     1
102
RTVSPropertyOp46
 70
     1
102
RTVSPropertyOp47
 70
     1
102
RTVSPropertyOp48
 70
     1
102
RTVSPropertyOp49
 70
     1
102
RTVSPropertyOp50
 70
     1
102
RTVSPropertyOp51
 70
     0
102
RTVSPropertyOp52
 70
     0
102
RTVSPropertyOp53
 70
     1
102
RTVSPropertyOp54
 70
     1
102
RTVSPropertyOp55
 70
     1
102
RTVSPropertyOp56
 70
     1
102
RTVSPropertyOp57
 70
     1
102
RTVSPost2010Prop28
280
     0
102
RTVSPost2010PropOp28
 70
     1
102
RTVSPost2010Prop29
280
     1
102
RTVSPost2010PropOp29
 70
     1
102
RTVSPost2010Prop30
280
     1
102
RTVSPost2010PropOp30
 70
     1
102
RTVSPost2010Prop31
280
     0
102
RTVSPost2010PropOp31
 70
     1
102
RTVSPost2010Prop32
280
     0
102
RTVSPost2010PropOp32
 70
     1
102
RTVSPost2010Prop33
280
     0
102
RTVSPost2010PropOp33
 70
     1
102
RTVSPost2010Prop34
280
     0
102
RTVSPost2010PropOp34
 70
     1
102
RTVSPost2010Prop35
280
     0
102
RTVSPost2010PropOp35
 70
     1
102
RTVSPost2010Prop36
280
     0
102
RTVSPost2010PropOp36
 70
     1
102
RTVSPost2010Prop37
 90
       50
102
RTVSPost2010PropOp37
 70
     1
102
RTVSPost2010Prop38
140
0.0
102
RTVSPost2010PropOp38
 70
     1
102
RTVSPost2010Prop39
140
1.0
102
RTVSPost2010PropOp39
 70
     1
102
RTVSPost2010Prop40
 90
        0
102
RTVSPost2010PropOp40
 70
     1
102
RTVSPost2010Prop41ColorIndex
 90
       18
102
RTVSPost2010Prop41ColorRGB
 90
        0
102
RTVSPost2010PropOp41
 70
     1
102
RTVSPost2010Prop42
 90
       50
102
RTVSPost2010PropOp42
 70
     1
102
RTVSPost2010Prop43
 90
        3
102
RTVSPost2010PropOp43
 70
     1
102
RTVSPost2010Prop44ColorIndex
 90
        5
102
RTVSPost2010Prop44ColorRGB
 90
      255
102
RTVSPost2010PropOp44
 70
     1
102
RTVSPost2010Prop45
280
     0
102
RTVSPost2010PropOp45
 70
     1
102
RTVSPost2010Prop46
 90
       50
102
RTVSPost2010PropOp46
 70
     1
102
RTVSPost2010Prop47
 90
       50
102
RTVSPost2010PropOp47
 70
     1
102
RTVSPost2010Prop48
 90
       50
102
RTVSPost2010PropOp48
 70
     1
102
RTVSPost2010Prop49
280
     0
102
RTVSPost2010PropOp49
 70
     1
102
RTVSPost2010Prop50
 90
       50
102
RTVSPost2010PropOp50
 70
     1
102
RTVSPost2010Prop51ColorIndex
 90
      256
102
RTVSPost2010Prop51ColorRGB
 90
-16777216
102
RTVSPost2010PropOp51
 70
     0
102
RTVSPost2010Prop52
140
1.0
102
RTVSPost2010PropOp52
 70
     0
102
RTVSPost2010Prop53
 90
        2
102
RTVSPost2010PropOp53
 70
     1
102
RTVSPost2010Prop54
  1
strokes_ogs.tif
102
RTVSPost2010PropOp54
 70
     1
102
RTVSPost2010Prop55
280
     0
102
RTVSPost2010PropOp55
 70
     1
102
RTVSPost2010Prop56
140
1.0
102
RTVSPost2010PropOp56
 70
     1
102
RTVSPost2010Prop57
140
1.0
102
RTVSPost2010PropOp57
 70
     1
  0
XRECORD
  5
62C
102
{ACAD_REACTORS
330
62B
102
}
330
62B
100
AcDbXrecord
280
     1
102
RTVSPropertyOp0
 70
     1
102
RTVSPropertyOp1
 70
     1
102
RTVSPropertyOp2
 70
     1
102
RTVSPropertyOp3
 70
     1
102
RTVSPropertyOp4
 70
     1
102
RTVSPropertyOp5
 70
     1
102
RTVSPropertyOp6
 70
     1
102
RTVSPropertyOp7
 70
     1
102
RTVSPropertyOp8
 70
     1
102
RTVSPropertyOp9
 70
     1
102
RTVSPropertyOp10
 70
     1
102
RTVSPropertyOp11
 70
     1
102
RTVSPropertyOp12
 70
     1
102
RTVSPropertyOp13
 70
     1
102
RTVSPropertyOp14
 70
     1
102
RTVSPropertyOp15
 70
     1
102
RTVSPropertyOp16
 70
     1
102
RTVSPropertyOp17
 70
     1
102
RTVSPropertyOp18
 70
     1
102
RTVSPropertyOp19
 70
     1
102
RTVSPropertyOp20
 70
     1
102
RTVSPropertyOp21
 70
     1
102
RTVSPropertyOp22
 70
     1
102
RTVSPropertyOp23
 70
     1
102
RTVSPropertyOp24
 70
     1
102
RTVSPropertyOp25
 70
     1
102
RTVSPropertyOp26
 70
     1
102
RTVSPropertyOp27
 70
     1
102
RTVSPropertyOp28
 70
     1
102
RTVSPropertyOp29
 70
     1
102
RTVSPropertyOp30
 70
     1
102
RTVSPropertyOp31
 70
     1
102
RTVSPropertyOp32
 70
     1
102
RTVSPropertyOp33
 70
     1
102
RTVSPropertyOp34
 70
     1
102
RTVSPropertyOp35
 70
     1
102
RTVSPropertyOp36
 70
     1
102
RTVSPropertyOp37
 70
     1
102
RTVSPropertyOp38
 70
     1
102
RTVSPropertyOp39
 70
     1
102
RTVSPropertyOp40
 70
     1
102
RTVSPropertyOp41
 70
     1
102
RTVSPropertyOp42
 70
     1
102
RTVSPropertyOp43
 70
     1
102
RTVSPropertyOp44
 70
     1
102
RTVSPropertyOp45
 70
     1
102
RTVSPropertyOp46
 70
     1
102
RTVSPropertyOp47
 70
     1
102
RTVSPropertyOp48
 70
     1
102
RTVSPropertyOp49
 70
     1
102
RTVSPropertyOp50
 70
     1
102
RTVSPropertyOp51
 70
     0
102
RTVSPropertyOp52
 70
     0
102
RTVSPropertyOp53
 70
     1
102
RTVSPropertyOp54
 70
     1
102
RTVSPropertyOp55
 70
     1
102
RTVSPropertyOp56
 70
     1
102
RTVSPropertyOp57
 70
     1
102
RTVSPost2010Prop28
280
     0
102
RTVSPost2010PropOp28
 70
     1
102
RTVSPost2010Prop29
280
     1
102
RTVSPost2010PropOp29
 70
     1
102
RTVSPost2010Prop30
280
     1
102
RTVSPost2010PropOp30
 70
     1
102
RTVSPost2010Prop31
280
     0
102
RTVSPost2010PropOp31
 70
     1
102
RTVSPost2010Prop32
280
     0
102
RTVSPost2010PropOp32
 70
     1
102
RTVSPost2010Prop33
280
     0
102
RTVSPost2010PropOp33
 70
     1
102
RTVSPost2010Prop34
280
     0
102
RTVSPost2010PropOp34
 70
     1
102
RTVSPost2010Prop35
280
     0
102
RTVSPost2010PropOp35
 70
     1
102
RTVSPost2010Prop36
280
     0
102
RTVSPost2010PropOp36
 70
     1
102
RTVSPost2010Prop37
 90
       50
102
RTVSPost2010PropOp37
 70
     1
102
RTVSPost2010Prop38
140
0.0
102
RTVSPost2010PropOp38
 70
     1
102
RTVSPost2010Prop39
140
1.0
102
RTVSPost2010PropOp39
 70
     1
102
RTVSPost2010Prop40
 90
        0
102
RTVSPost2010PropOp40
 70
     1
102
RTVSPost2010Prop41ColorIndex
 90
       18
102
RTVSPost2010Prop41ColorRGB
 90
        0
102
RTVSPost2010PropOp41
 70
     1
102
RTVSPost2010Prop42
 90
       50
102
RTVSPost2010PropOp42
 70
     1
102
RTVSPost2010Prop43
 90
        3
102
RTVSPost2010PropOp43
 70
     1
102
RTVSPost2010Prop44ColorIndex
 90
        5
102
RTVSPost2010Prop44ColorRGB
 90
      255
102
RTVSPost2010PropOp44
 70
     1
102
RTVSPost2010Prop45
280
     0
102
RTVSPost2010PropOp45
 70
     1
102
RTVSPost2010Prop46
 90
       50
102
RTVSPost2010PropOp46
 70
     1
102
RTVSPost2010Prop47
 90
       50
102
RTVSPost2010PropOp47
 70
     1
102
RTVSPost2010Prop48
 90
       50
102
RTVSPost2010PropOp48
 70
     1
102
RTVSPost2010Prop49
280
     0
102
RTVSPost2010PropOp49
 70
     1
102
RTVSPost2010Prop50
 90
       50
102
RTVSPost2010PropOp50
 70
     1
102
RTVSPost2010Prop51ColorIndex
 90
      256
102
RTVSPost2010Prop51ColorRGB
 90
-16777216
102
RTVSPost2010PropOp51
 70
     0
102
RTVSPost2010Prop52
140
1.0
102
RTVSPost2010PropOp52
 70
     0
102
RTVSPost2010Prop53
 90
        2
102
RTVSPost2010PropOp53
 70
     1
102
RTVSPost2010Prop54
  1
strokes_ogs.tif
102
RTVSPost2010PropOp54
 70
     1
102
RTVSPost2010Prop55
280
     0
102
RTVSPost2010PropOp55
 70
     1
102
RTVSPost2010Prop56
140
1.0
102
RTVSPost2010PropOp56
 70
     1
102
RTVSPost2010Prop57
140
1.0
102
RTVSPost2010PropOp57
 70
     1
  0
XRECORD
  5
62E
102
{ACAD_REACTORS
330
62D
102
}
330
62D
100
AcDbXrecord
280
     1
102
RTVSPropertyOp0
 70
     1
102
RTVSPropertyOp1
 70
     1
102
RTVSPropertyOp2
 70
     1
102
RTVSPropertyOp3
 70
     1
102
RTVSPropertyOp4
 70
     1
102
RTVSPropertyOp5
 70
     1
102
RTVSPropertyOp6
 70
     1
102
RTVSPropertyOp7
 70
     1
102
RTVSPropertyOp8
 70
     1
102
RTVSPropertyOp9
 70
     1
102
RTVSPropertyOp10
 70
     1
102
RTVSPropertyOp11
 70
     1
102
RTVSPropertyOp12
 70
     1
102
RTVSPropertyOp13
 70
     1
102
RTVSPropertyOp14
 70
     1
102
RTVSPropertyOp15
 70
     1
102
RTVSPropertyOp16
 70
     1
102
RTVSPropertyOp17
 70
     1
102
RTVSPropertyOp18
 70
     1
102
RTVSPropertyOp19
 70
     1
102
RTVSPropertyOp20
 70
     1
102
RTVSPropertyOp21
 70
     1
102
RTVSPropertyOp22
 70
     1
102
RTVSPropertyOp23
 70
     1
102
RTVSPropertyOp24
 70
     1
102
RTVSPropertyOp25
 70
     1
102
RTVSPropertyOp26
 70
     1
102
RTVSPropertyOp27
 70
     1
102
RTVSPropertyOp28
 70
     1
102
RTVSPropertyOp29
 70
     1
102
RTVSPropertyOp30
 70
     1
102
RTVSPropertyOp31
 70
     1
102
RTVSPropertyOp32
 70
     1
102
RTVSPropertyOp33
 70
     1
102
RTVSPropertyOp34
 70
     1
102
RTVSPropertyOp35
 70
     1
102
RTVSPropertyOp36
 70
     1
102
RTVSPropertyOp37
 70
     1
102
RTVSPropertyOp38
 70
     1
102
RTVSPropertyOp39
 70
     1
102
RTVSPropertyOp40
 70
     1
102
RTVSPropertyOp41
 70
     1
102
RTVSPropertyOp42
 70
     1
102
RTVSPropertyOp43
 70
     1
102
RTVSPropertyOp44
 70
     1
102
RTVSPropertyOp45
 70
     1
102
RTVSPropertyOp46
 70
     1
102
RTVSPropertyOp47
 70
     1
102
RTVSPropertyOp48
 70
     1
102
RTVSPropertyOp49
 70
     1
102
RTVSPropertyOp50
 70
     1
102
RTVSPropertyOp51
 70
     0
102
RTVSPropertyOp52
 70
     0
102
RTVSPropertyOp53
 70
     1
102
RTVSPropertyOp54
 70
     1
102
RTVSPropertyOp55
 70
     1
102
RTVSPropertyOp56
 70
     1
102
RTVSPropertyOp57
 70
     1
102
RTVSPost2010Prop28
280
     0
102
RTVSPost2010PropOp28
 70
     1
102
RTVSPost2010Prop29
280
     1
102
RTVSPost2010PropOp29
 70
     1
102
RTVSPost2010Prop30
280
     1
102
RTVSPost2010PropOp30
 70
     1
102
RTVSPost2010Prop31
280
     0
102
RTVSPost2010PropOp31
 70
     1
102
RTVSPost2010Prop32
280
     0
102
RTVSPost2010PropOp32
 70
     1
102
RTVSPost2010Prop33
280
     0
102
RTVSPost2010PropOp33
 70
     1
102
RTVSPost2010Prop34
280
     0
102
RTVSPost2010PropOp34
 70
     1
102
RTVSPost2010Prop35
280
     0
102
RTVSPost2010PropOp35
 70
     1
102
RTVSPost2010Prop36
280
     0
102
RTVSPost2010PropOp36
 70
     1
102
RTVSPost2010Prop37
 90
       50
102
RTVSPost2010PropOp37
 70
     1
102
RTVSPost2010Prop38
140
0.0
102
RTVSPost2010PropOp38
 70
     1
102
RTVSPost2010Prop39
140
1.0
102
RTVSPost2010PropOp39
 70
     1
102
RTVSPost2010Prop40
 90
        0
102
RTVSPost2010PropOp40
 70
     1
102
RTVSPost2010Prop41ColorIndex
 90
       18
102
RTVSPost2010Prop41ColorRGB
 90
        0
102
RTVSPost2010PropOp41
 70
     1
102
RTVSPost2010Prop42
 90
       50
102
RTVSPost2010PropOp42
 70
     1
102
RTVSPost2010Prop43
 90
        3
102
RTVSPost2010PropOp43
 70
     1
102
RTVSPost2010Prop44ColorIndex
 90
        5
102
RTVSPost2010Prop44ColorRGB
 90
      255
102
RTVSPost2010PropOp44
 70
     1
102
RTVSPost2010Prop45
280
     0
102
RTVSPost2010PropOp45
 70
     1
102
RTVSPost2010Prop46
 90
       50
102
RTVSPost2010PropOp46
 70
     1
102
RTVSPost2010Prop47
 90
       50
102
RTVSPost2010PropOp47
 70
     1
102
RTVSPost2010Prop48
 90
       50
102
RTVSPost2010PropOp48
 70
     1
102
RTVSPost2010Prop49
280
     0
102
RTVSPost2010PropOp49
 70
     1
102
RTVSPost2010Prop50
 90
       50
102
RTVSPost2010PropOp50
 70
     1
102
RTVSPost2010Prop51ColorIndex
 90
      256
102
RTVSPost2010Prop51ColorRGB
 90
-16777216
102
RTVSPost2010PropOp51
 70
     0
102
RTVSPost2010Prop52
140
1.0
102
RTVSPost2010PropOp52
 70
     0
102
RTVSPost2010Prop53
 90
        2
102
RTVSPost2010PropOp53
 70
     1
102
RTVSPost2010Prop54
  1
strokes_ogs.tif
102
RTVSPost2010PropOp54
 70
     1
102
RTVSPost2010Prop55
280
     0
102
RTVSPost2010PropOp55
 70
     1
102
RTVSPost2010Prop56
140
1.0
102
RTVSPost2010PropOp56
 70
     1
102
RTVSPost2010Prop57
140
1.0
102
RTVSPost2010PropOp57
 70
     1
  0
ENDSEC
  0
EOF
