  0
SECTION
  2
HEADER
  9
$ACADVER
  1
AC1015
  9
$ACADMAINTVER
 70
     6
  9
$DWGCODEPAGE
  3
ANSI_932
  9
$INSBASE
 10
1078.688667170699
 20
940.9316950147363
 30
0.0
  9
$EXTMIN
 10
112.5611824888044
 20
18.64986194764748
 30
0.0
  9
$EXTMAX
 10
843.6026945760082
 20
670.7633400614457
 30
0.0
  9
$LIMMIN
 10
-210.0
 20
-148.5
  9
$LIMMAX
 10
210.0
 20
148.5
  9
$ORTHOMODE
 70
     1
  9
$REGENMODE
 70
     1
  9
$FILLMODE
 70
     1
  9
$QTEXTMODE
 70
     0
  9
$MIRRTEXT
 70
     1
  9
$LTSCALE
 40
3.0
  9
$ATTMODE
 70
     1
  9
$TEXTSIZE
 40
7.5
  9
$TRACEWID
 40
0.05
  9
$TEXTSTYLE
  7
KANJI
  9
$CLAYER
  8
2
  9
$CELTYPE
  6
BYLAYER
  9
$CECOLOR
 62
   256
  9
$CELTSCALE
 40
1.0
  9
$DISPSILH
 70
     0
  9
$DIMSCALE
 40
2.5
  9
$DIMASZ
 40
2.0
  9
$DIMEXO
 40
0.5
  9
$DIMDLI
 40
10.0
  9
$DIMRND
 40
0.0
  9
$DIMDLE
 40
0.0
  9
$DIMEXE
 40
1.0
  9
$DIMTP
 40
0.0
  9
$DIMTM
 40
0.0
  9
$DIMTXT
 40
3.0
  9
$DIMCEN
 40
0.09
  9
$DIMTSZ
 40
0.0
  9
$DIMTOL
 70
     0
  9
$DIMLIM
 70
     0
  9
$DIMTIH
 70
     0
  9
$DIMTOH
 70
     0
  9
$DIMSE1
 70
     0
  9
$DIMSE2
 70
     0
  9
$DIMTAD
 70
     0
  9
$DIMZIN
 70
     8
  9
$DIMBLK
  1

  9
$DIMASO
 70
     0
  9
$DIMSHO
 70
     0
  9
$DIMPOST
  1

  9
$DIMAPOST
  1

  9
$DIMALT
 70
     0
  9
$DIMALTD
 70
     2
  9
$DIMALTF
 40
25.4
  9
$DIMLFAC
 40
1.0
  9
$DIMTOFL
 70
     1
  9
$DIMTVP
 40
1.0
  9
$DIMTIX
 70
     1
  9
$DIMSOXD
 70
     1
  9
$DIMSAH
 70
     0
  9
$DIMBLK1
  1

  9
$DIMBLK2
  1

  9
$DIMSTYLE
  2
STANDARD
  9
$DIMCLRD
 70
   256
  9
$DIMCLRE
 70
   256
  9
$DIMCLRT
 70
   256
  9
$DIMTFAC
 40
1.0
  9
$DIMGAP
 40
0.09
  9
$DIMJUST
 70
     0
  9
$DIMSD1
 70
     0
  9
$DIMSD2
 70
     0
  9
$DIMTOLJ
 70
     1
  9
$DIMTZIN
 70
     0
  9
$DIMALTZ
 70
     0
  9
$DIMALTTZ
 70
     0
  9
$DIMUPT
 70
     0
  9
$DIMDEC
 70
     4
  9
$DIMTDEC
 70
     4
  9
$DIMALTU
 70
     2
  9
$DIMALTTD
 70
     2
  9
$DIMTXSTY
  7
STANDARD
  9
$DIMAUNIT
 70
     0
  9
$DIMADEC
 70
     0
  9
$DIMALTRND
 40
0.0
  9
$DIMAZIN
 70
     0
  9
$DIMDSEP
 70
    46
  9
$DIMATFIT
 70
     3
  9
$DIMFRAC
 70
     0
  9
$DIMLDRBLK
  1

  9
$DIMLUNIT
 70
     2
  9
$DIMLWD
 70
    -2
  9
$DIMLWE
 70
    -2
  9
$DIMTMOVE
 70
     0
  9
$LUNITS
 70
     2
  9
$LUPREC
 70
     4
  9
$SKETCHINC
 40
0.1
  9
$FILLETRAD
 40
2.0
  9
$AUNITS
 70
     0
  9
$AUPREC
 70
     0
  9
$MENU
  1
.
  9
$ELEVATION
 40
0.0
  9
$PELEVATION
 40
0.0
  9
$THICKNESS
 40
0.0
  9
$LIMCHECK
 70
     0
  9
$CHAMFERA
 40
0.0
  9
$CHAMFERB
 40
0.0
  9
$CHAMFERC
 40
0.0
  9
$CHAMFERD
 40
0.0
  9
$SKPOLY
 70
     0
  9
$TDCREATE
 40
2457576.73783941
  9
$TDUCREATE
 40
2457576.36283941
  9
$TDUPDATE
 40
2457871.83771669
  9
$TDUUPDATE
 40
2457871.46271669
  9
$TDINDWG
 40
0.0174803588
  9
$TDUSRTIMER
 40
0.017479919
  9
$USRTIMER
 70
     1
  9
$ANGBASE
 50
0.0
  9
$ANGDIR
 70
     0
  9
$PDMODE
 70
     0
  9
$PDSIZE
 40
0.0
  9
$PLINEWID
 40
0.0
  9
$SPLFRAME
 70
     0
  9
$SPLINETYPE
 70
     6
  9
$SPLINESEGS
 70
     8
  9
$HANDSEED
  5
1EEA
  9
$SURFTAB1
 70
     6
  9
$SURFTAB2
 70
     6
  9
$SURFTYPE
 70
     6
  9
$SURFU
 70
     6
  9
$SURFV
 70
     6
  9
$UCSBASE
  2

  9
$UCSNAME
  2

  9
$UCSORG
 10
0.0
 20
0.0
 30
0.0
  9
$UCSXDIR
 10
1.0
 20
0.0
 30
0.0
  9
$UCSYDIR
 10
0.0
 20
1.0
 30
0.0
  9
$UCSORTHOREF
  2

  9
$UCSORTHOVIEW
 70
     0
  9
$UCSORGTOP
 10
0.0
 20
0.0
 30
0.0
  9
$UCSORGBOTTOM
 10
0.0
 20
0.0
 30
0.0
  9
$UCSORGLEFT
 10
0.0
 20
0.0
 30
0.0
  9
$UCSORGRIGHT
 10
0.0
 20
0.0
 30
0.0
  9
$UCSORGFRONT
 10
0.0
 20
0.0
 30
0.0
  9
$UCSORGBACK
 10
0.0
 20
0.0
 30
0.0
  9
$PUCSBASE
  2

  9
$PUCSNAME
  2

  9
$PUCSORG
 10
0.0
 20
0.0
 30
0.0
  9
$PUCSXDIR
 10
1.0
 20
0.0
 30
0.0
  9
$PUCSYDIR
 10
0.0
 20
1.0
 30
0.0
  9
$PUCSORTHOREF
  2

  9
$PUCSORTHOVIEW
 70
     0
  9
$PUCSORGTOP
 10
0.0
 20
0.0
 30
0.0
  9
$PUCSORGBOTTOM
 10
0.0
 20
0.0
 30
0.0
  9
$PUCSORGLEFT
 10
0.0
 20
0.0
 30
0.0
  9
$PUCSORGRIGHT
 10
0.0
 20
0.0
 30
0.0
  9
$PUCSORGFRONT
 10
0.0
 20
0.0
 30
0.0
  9
$PUCSORGBACK
 10
0.0
 20
0.0
 30
0.0
  9
$USERI1
 70
     0
  9
$USERI2
 70
     0
  9
$USERI3
 70
     0
  9
$USERI4
 70
     0
  9
$USERI5
 70
     0
  9
$USERR1
 40
0.0
  9
$USERR2
 40
0.0
  9
$USERR3
 40
0.0
  9
$USERR4
 40
0.0
  9
$USERR5
 40
0.0
  9
$WORLDVIEW
 70
     1
  9
$SHADEDGE
 70
     3
  9
$SHADEDIF
 70
    70
  9
$TILEMODE
 70
     1
  9
$MAXACTVP
 70
    16
  9
$PINSBASE
 10
0.0
 20
0.0
 30
0.0
  9
$PLIMCHECK
 70
     0
  9
$PEXTMIN
 10
1.000000000000000E+20
 20
1.000000000000000E+20
 30
1.000000000000000E+20
  9
$PEXTMAX
 10
-1.000000000000000E+20
 20
-1.000000000000000E+20
 30
-1.000000000000000E+20
  9
$PLIMMIN
 10
0.0
 20
0.0
  9
$PLIMMAX
 10
12.0
 20
9.0
  9
$UNITMODE
 70
     0
  9
$VISRETAIN
 70
     0
  9
$PLINEGEN
 70
     0
  9
$PSLTSCALE
 70
     1
  9
$TREEDEPTH
 70
  3020
  9
$CMLSTYLE
  2
STANDARD
  9
$CMLJUST
 70
     0
  9
$CMLSCALE
 40
1.0
  9
$PROXYGRAPHICS
 70
     1
  9
$MEASUREMENT
 70
     0
  9
$CELWEIGHT
370
    -1
  9
$ENDCAPS
280
     0
  9
$JOINSTYLE
280
     0
  9
$LWDISPLAY
290
     0
  9
$INSUNITS
 70
     0
  9
$HYPERLINKBASE
  1

  9
$STYLESHEET
  1
R14.ctb
  9
$XEDIT
290
     1
  9
$CEPSNTYPE
380
     0
  9
$PSTYLEMODE
290
     1
  9
$FINGERPRINTGUID
  2
{D3E51C88-5ABD-4E5E-B413-4C2EB90F8AD1}
  9
$VERSIONGUID
  2
{7DC941CB-36D8-4DAE-9AE3-273A430FE1D1}
  9
$EXTNAMES
290
     1
  9
$PSVPSCALE
 40
0.0
  9
$OLESTARTUP
290
     0
  0
ENDSEC
  0
SECTION
  2
CLASSES
  0
CLASS
  1
ACDBDICTIONARYWDFLT
  2
AcDbDictionaryWithDefault
  3
ObjectDBX Classes
 90
        0
280
     0
281
     0
  0
CLASS
  1
MATERIAL
  2
AcDbMaterial
  3
ObjectDBX Classes
 90
     1153
280
     0
281
     0
  0
CLASS
  1
SORTENTSTABLE
  2
AcDbSortentsTable
  3
ObjectDBX Classes
 90
        0
280
     0
281
     0
  0
CLASS
  1
SCALE
  2
AcDbScale
  3
ObjectDBX Classes
 90
     1153
280
     0
281
     0
  0
CLASS
  1
DICTIONARYVAR
  2
AcDbDictionaryVar
  3
ObjectDBX Classes
 90
        0
280
     0
281
     0
  0
CLASS
  1
VISUALSTYLE
  2
AcDbVisualStyle
  3
ObjectDBX Classes
 90
     4095
280
     0
281
     0
  0
CLASS
  1
MLEADERSTYLE
  2
AcDbMLeaderStyle
  3
ACDB_MLEADERSTYLE_CLASS
 90
     4095
280
     0
281
     0
  0
CLASS
  1
TABLESTYLE
  2
AcDbTableStyle
  3
ObjectDBX Classes
 90
     4095
280
     0
281
     0
  0
CLASS
  1
ACDBPLACEHOLDER
  2
AcDbPlaceHolder
  3
ObjectDBX Classes
 90
        0
280
     0
281
     0
  0
CLASS
  1
LAYOUT
  2
AcDbLayout
  3
ObjectDBX Classes
 90
        0
280
     0
281
     0
  0
ENDSEC
  0
SECTION
  2
TABLES
  0
TABLE
  2
VPORT
  5
25
102
{ACAD_XDICTIONARY
360
1EAF
102
}
330
0
100
AcDbSymbolTable
 70
     2
  0
VPORT
  5
2A
330
25
100
AcDbSymbolTableRecord
100
AcDbViewportTableRecord
  2
*ACTIVE
 70
     0
 10
0.0
 20
0.0
 11
1.0
 21
1.0
 12
743.788693006768
 22
326.8118884295437
 13
0.0
 23
0.0
 14
1.0
 24
1.0
 15
0.0
 25
0.0
 16
0.0
 26
0.0
 36
1.0
 17
0.0
 27
0.0
 37
0.0
 40
710.9070809984696
 41
2.177611940298507
 42
50.0
 43
0.0
 44
0.0
 50
0.0
 51
0.0
 71
     0
 72
 20000
 73
     1
 74
     0
 75
     0
 76
     0
 77
     0
 78
     0
281
     0
 65
     1
110
0.0
120
0.0
130
0.0
111
1.0
121
0.0
131
0.0
112
0.0
122
1.0
132
0.0
 79
     0
146
0.0
  0
ENDTAB
  0
TABLE
  2
LTYPE
  5
B
330
0
100
AcDbSymbolTable
 70
     3
  0
LTYPE
  5
C
330
B
100
AcDbSymbolTableRecord
100
AcDbLinetypeTableRecord
  2
BYBLOCK
 70
     0
  3

 72
    65
 73
     0
 40
0.0
  0
LTYPE
  5
D
330
B
100
AcDbSymbolTableRecord
100
AcDbLinetypeTableRecord
  2
BYLAYER
 70
     0
  3

 72
    65
 73
     0
 40
0.0
  0
LTYPE
  5
A
330
B
100
AcDbSymbolTableRecord
100
AcDbLinetypeTableRecord
  2
CONTINUOUS
 70
     0
  3
Solid line
 72
    65
 73
     0
 40
0.0
  0
LTYPE
  5
52
330
B
100
AcDbSymbolTableRecord
100
AcDbLinetypeTableRecord
  2
CENTER
 70
     0
  3
Center ____ _ ____ _ ____ _ ____ _ ____ _ ____
 72
    65
 73
     4
 40
2.0
 49
1.25
 74
     0
 49
-0.25
 74
     0
 49
0.25
 74
     0
 49
-0.25
 74
     0
  0
ENDTAB
  0
TABLE
  2
LAYER
  5
2
330
0
100
AcDbSymbolTable
 70
     9
  0
LAYER
  5
1B
330
2
100
AcDbSymbolTableRecord
100
AcDbLayerTableRecord
  2
0
 70
     0
 62
     7
  6
CONTINUOUS
370
    -3
390
3
  0
LAYER
  5
C4
330
2
100
AcDbSymbolTableRecord
100
AcDbLayerTableRecord
  2
1
 70
     0
 62
     7
  6
CONTINUOUS
370
    -3
390
3
  0
LAYER
  5
1
330
2
100
AcDbSymbolTableRecord
100
AcDbLayerTableRecord
  2
2
 70
     0
 62
     4
  6
CONTINUOUS
370
    -3
390
3
  0
LAYER
  5
C0
330
2
100
AcDbSymbolTableRecord
100
AcDbLayerTableRecord
  2
4
 70
     0
 62
     3
  6
CONTINUOUS
370
    -3
390
3
  0
LAYER
  5
51
330
2
100
AcDbSymbolTableRecord
100
AcDbLayerTableRecord
  2
L-CENTER
 70
     0
 62
     1
  6
CENTER
370
    -3
390
3
  0
LAYER
  5
BB
330
2
100
AcDbSymbolTableRecord
100
AcDbLayerTableRecord
  2
5
 70
     0
 62
     6
  6
CONTINUOUS
370
    -3
390
3
  0
LAYER
  5
57
330
2
100
AcDbSymbolTableRecord
100
AcDbLayerTableRecord
  2
3
 70
     0
 62
     2
  6
CONTINUOUS
370
    -3
390
3
  0
LAYER
  5
479
330
2
100
AcDbSymbolTableRecord
100
AcDbLayerTableRecord
  2
Defpoints
 70
     0
 62
     7
  6
CONTINUOUS
290
     0
370
    -3
390
3
  0
ENDTAB
  0
TABLE
  2
STYLE
  5
F
330
0
100
AcDbSymbolTable
 70
     2
  0
STYLE
  5
13
330
F
100
AcDbSymbolTableRecord
100
AcDbTextStyleTableRecord
  2
STANDARD
 70
     0
 40
0.0
 41
1.0
 50
0.0
 71
     0
 42
4.5
  3
txt
  4

  0
STYLE
  5
E
330
F
100
AcDbSymbolTableRecord
100
AcDbTextStyleTableRecord
  2
KANJI
 70
     0
 40
0.0
 41
1.0
 50
0.0
 71
     0
 42
7.5
  3
TXT
  4
BIGFONT
  0
ENDTAB
  0
TABLE
  2
VIEW
  5
23
330
0
100
AcDbSymbolTable
 70
     0
  0
ENDTAB
  0
TABLE
  2
UCS
  5
24
330
0
100
AcDbSymbolTable
 70
     0
  0
ENDTAB
  0
TABLE
  2
APPID
  5
9
330
0
100
AcDbSymbolTable
 70
     3
  0
APPID
  5
8
330
9
100
AcDbSymbolTableRecord
100
AcDbRegAppTableRecord
  2
ACAD
 70
     0
  0
APPID
  5
46B
330
9
100
AcDbSymbolTableRecord
100
AcDbRegAppTableRecord
  2
ACAD_PSEXT
 70
     0
  0
APPID
  5
1E9E
330
9
100
AcDbSymbolTableRecord
100
AcDbRegAppTableRecord
  2
ACAD_MLEADERVER
 70
     0
  0
ENDTAB
  0
TABLE
  2
DIMSTYLE
  5
12
330
0
100
AcDbSymbolTable
 70
     1
100
AcDbDimStyleTable
  0
DIMSTYLE
105
11
330
12
100
AcDbSymbolTableRecord
100
AcDbDimStyleTableRecord
  2
STANDARD
 70
     0
178
     0
340
13
  0
ENDTAB
  0
TABLE
  2
BLOCK_RECORD
  5
16
330
0
100
AcDbSymbolTable
 70
     0
  0
BLOCK_RECORD
  5
17
102
{ACAD_XDICTIONARY
360
18
102
}
330
16
100
AcDbSymbolTableRecord
100
AcDbBlockTableRecord
  2
*MODEL_SPACE
340
1D
  0
BLOCK_RECORD
  5
1F
330
16
100
AcDbSymbolTableRecord
100
AcDbBlockTableRecord
  2
*PAPER_SPACE
340
22
  0
ENDTAB
  0
ENDSEC
  0
SECTION
  2
BLOCKS
  0
BLOCK
  5
1A
330
17
100
AcDbEntity
  8
0
100
AcDbBlockBegin
  2
*MODEL_SPACE
 70
     0
 10
0.0
 20
0.0
 30
0.0
  3
*MODEL_SPACE
  1

  0
ENDBLK
  5
1C
330
17
100
AcDbEntity
  8
0
100
AcDbBlockEnd
  0
BLOCK
  5
20
330
1F
100
AcDbEntity
 67
     1
  8
0
100
AcDbBlockBegin
  2
*PAPER_SPACE
 70
     0
 10
0.0
 20
0.0
 30
0.0
  3
*PAPER_SPACE
  1

  0
ENDBLK
  5
21
330
1F
100
AcDbEntity
 67
     1
  8
0
100
AcDbBlockEnd
  0
ENDSEC
  0
SECTION
  2
ENTITIES
  0
ARC
  5
1A2
330
17
100
AcDbEntity
  8
4
100
AcDbCircle
 10
676.0008325568584
 20
203.0929951218869
 30
0.0
 40
2.0
100
AcDbArc
 50
285.3183357934532
 51
344.7448812969404
  0
ARC
  5
1A3
330
17
100
AcDbEntity
  8
4
100
AcDbCircle
 10
769.2592465951578
 20
203.0929951218869
 30
0.0
 40
2.0
100
AcDbArc
 50
195.2551187030597
 51
254.6816642065468
  0
ARC
  5
1A4
330
17
100
AcDbEntity
  8
4
100
AcDbCircle
 10
763.8662437350088
 20
211.4655846914413
 30
0.0
 40
1.0
100
AcDbArc
 50
15.25511870305805
 51
90.0
  0
ARC
  5
1A5
330
17
100
AcDbEntity
  8
4
100
AcDbCircle
 10
681.3938354170075
 20
211.4655846914413
 30
0.0
 40
1.0
100
AcDbArc
 50
90.0
 51
164.744881296942
  0
LINE
  5
1A6
330
17
100
AcDbEntity
  8
4
100
AcDbLine
 10
747.6300395760081
 20
201.4655846914417
 30
0.0
 11
744.9206641014805
 21
191.8655846914413
 31
0.0
  0
LINE
  5
1A7
330
17
100
AcDbEntity
  8
4
100
AcDbLine
 10
747.6300395760081
 20
203.0385925897642
 30
0.0
 11
744.476719411798
 21
191.8655846914413
 31
0.0
  0
LINE
  5
1A8
330
17
100
AcDbEntity
  8
4
 48
5.0
100
AcDbLine
 10
747.6300395760081
 20
203.0385925897642
 30
0.0
 11
747.6300395760081
 21
201.4655846914417
 31
0.0
  0
LINE
  5
1A9
330
17
100
AcDbEntity
  8
4
100
AcDbLine
 10
697.6300395760081
 20
201.4655846914417
 30
0.0
 11
700.3394150505358
 21
191.8655846914413
 31
0.0
  0
LINE
  5
1AA
330
17
100
AcDbEntity
  8
4
100
AcDbLine
 10
697.6300395760081
 20
203.0385925897642
 30
0.0
 11
700.7833597402183
 21
191.8655846914413
 31
0.0
  0
LINE
  5
1AB
330
17
100
AcDbEntity
  8
4
100
AcDbLine
 10
697.6300395760081
 20
203.0385925897642
 30
0.0
 11
747.6300395760081
 21
203.0385925897642
 31
0.0
  0
LINE
  5
1AC
330
17
100
AcDbEntity
  8
4
100
AcDbLine
 10
802.6165545506674
 20
193.3378205066722
 30
0.0
 11
767.2010374219201
 21
203.0385925897642
 31
0.0
  0
LINE
  5
1AD
330
17
100
AcDbEntity
  8
4
100
AcDbLine
 10
802.6165545506674
 20
191.8823218940347
 30
0.0
 11
768.7308831669957
 21
201.1640492730408
 31
0.0
  0
LINE
  5
1AE
330
17
100
AcDbEntity
  8
4
100
AcDbLine
 10
642.6435246013489
 20
193.3378205066722
 30
0.0
 11
678.0590417300962
 21
203.0385925897642
 31
0.0
  0
LINE
  5
1AF
330
17
100
AcDbEntity
  8
4
100
AcDbLine
 10
642.6435246013489
 20
191.8823218940347
 30
0.0
 11
676.5291959850206
 21
201.1640492730408
 31
0.0
  0
ARC
  5
1B0
330
17
100
AcDbEntity
  8
4
100
AcDbCircle
 10
618.6300395760081
 20
190.8655846914413
 30
0.0
 40
1.0
100
AcDbArc
 50
90.0
 51
180.0
  0
ARC
  5
1B1
330
17
100
AcDbEntity
  8
4
100
AcDbCircle
 10
826.6300395760081
 20
190.8655846914413
 30
0.0
 40
1.0
100
AcDbArc
 50
0.0
 51
90.0
  0
LINE
  5
1B2
330
17
100
AcDbEntity
  8
4
100
AcDbLine
 10
747.6300395760081
 20
212.4655846914413
 30
0.0
 11
747.6300395760081
 21
213.4655846914408
 31
0.0
  0
LINE
  5
1B3
330
17
100
AcDbEntity
  8
4
100
AcDbLine
 10
764.8310075562465
 20
211.7287020972334
 30
0.0
 11
767.3297189526825
 21
202.5667603103026
 31
0.0
  0
LINE
  5
1B4
330
17
100
AcDbEntity
  8
4
100
AcDbLine
 10
697.6300395760081
 20
212.4655846914413
 30
0.0
 11
697.6300395760081
 21
213.4655846914408
 31
0.0
  0
LINE
  5
1B5
330
17
100
AcDbEntity
  8
4
100
AcDbLine
 10
680.4290715957698
 20
211.7287020972334
 30
0.0
 11
677.9303601993338
 21
202.5667603103026
 31
0.0
  0
LINE
  5
1B6
330
17
100
AcDbEntity
  8
4
100
AcDbLine
 10
697.6300395760081
 20
201.4655846914417
 30
0.0
 11
677.6300395760081
 21
201.4655846914417
 31
0.0
  0
LINE
  5
1B7
330
17
100
AcDbEntity
  8
4
100
AcDbLine
 10
767.6300395760081
 20
201.4655846914417
 30
0.0
 11
747.6300395760081
 21
201.4655846914417
 31
0.0
  0
LINE
  5
1B8
330
17
100
AcDbEntity
  8
4
100
AcDbLine
 10
697.6300395760081
 20
213.4655846914408
 30
0.0
 11
747.6300395760081
 21
213.4655846914408
 31
0.0
  0
LINE
  5
1B9
330
17
100
AcDbEntity
  8
4
100
AcDbLine
 10
681.3938354170075
 20
212.4655846914413
 30
0.0
 11
763.8662437350088
 21
212.4655846914413
 31
0.0
  0
LINE
  5
1BA
330
17
100
AcDbEntity
  8
4
 48
5.0
100
AcDbLine
 10
827.6300395760081
 20
190.8655846914413
 30
0.0
 11
827.6300395760081
 21
175.5655846914415
 31
0.0
  0
LINE
  5
1BB
330
17
100
AcDbEntity
  8
4
 48
5.0
100
AcDbLine
 10
617.6300395760081
 20
190.8655846914413
 30
0.0
 11
617.6300395760081
 21
175.5655846914415
 31
0.0
  0
LINE
  5
1BC
330
17
100
AcDbEntity
  8
4
 48
5.0
100
AcDbLine
 10
697.6300395760081
 20
203.0385925897642
 30
0.0
 11
697.6300395760081
 21
201.4655846914417
 31
0.0
  0
LINE
  5
1BD
330
17
100
AcDbEntity
  8
4
 48
5.0
100
AcDbLine
 10
826.6300395760081
 20
191.8655846914413
 30
0.0
 11
618.6300395760081
 21
191.8655846914413
 31
0.0
  0
LINE
  5
1BE
330
17
100
AcDbEntity
  8
4
 48
5.0
100
AcDbLine
 10
827.6300395760081
 20
180.8655846914413
 30
0.0
 11
617.6300395760081
 21
180.8655846914413
 31
0.0
  0
LINE
  5
1BF
330
17
100
AcDbEntity
  8
4
 48
5.0
100
AcDbLine
 10
827.6300395760081
 20
180.5655846914412
 30
0.0
 11
617.6300395760081
 21
180.5655846914412
 31
0.0
  0
ARC
  5
1C0
330
17
100
AcDbEntity
  8
4
100
AcDbCircle
 10
250.2823388513035
 20
203.0929951218869
 30
0.0
 40
2.0
100
AcDbArc
 50
285.3183357934556
 51
344.7448812969402
  0
ARC
  5
1C1
330
17
100
AcDbEntity
  8
4
100
AcDbCircle
 10
343.5407528896029
 20
203.0929951218869
 30
0.0
 40
2.0
100
AcDbArc
 50
195.2551187030601
 51
254.6816642065452
  0
ARC
  5
1C2
330
17
100
AcDbEntity
  8
4
100
AcDbCircle
 10
338.1477500294539
 20
211.4655846914413
 30
0.0
 40
1.0
100
AcDbArc
 50
15.25511870305805
 51
90.0
  0
ARC
  5
1C3
330
17
100
AcDbEntity
  8
4
100
AcDbCircle
 10
255.6753417114525
 20
211.4655846914413
 30
0.0
 40
1.0
100
AcDbArc
 50
90.0
 51
164.744881296942
  0
LINE
  5
1C4
330
17
100
AcDbEntity
  8
4
100
AcDbLine
 10
321.9115458704532
 20
201.4655846914417
 30
0.0
 11
319.2021703959256
 21
191.8655846914413
 31
0.0
  0
LINE
  5
1C5
330
17
100
AcDbEntity
  8
4
100
AcDbLine
 10
321.9115458704532
 20
203.0385925897642
 30
0.0
 11
318.758225706243
 21
191.8655846914413
 31
0.0
  0
LINE
  5
1C6
330
17
100
AcDbEntity
  8
4
 48
5.0
100
AcDbLine
 10
321.9115458704532
 20
203.0385925897642
 30
0.0
 11
321.9115458704532
 21
201.4655846914417
 31
0.0
  0
LINE
  5
1C7
330
17
100
AcDbEntity
  8
4
100
AcDbLine
 10
271.9115458704532
 20
201.4655846914417
 30
0.0
 11
274.6209213449808
 21
191.8655846914413
 31
0.0
  0
LINE
  5
1C8
330
17
100
AcDbEntity
  8
4
100
AcDbLine
 10
271.9115458704532
 20
203.0385925897642
 30
0.0
 11
275.0648660346634
 21
191.8655846914413
 31
0.0
  0
LINE
  5
1C9
330
17
100
AcDbEntity
  8
4
100
AcDbLine
 10
271.9115458704532
 20
203.0385925897642
 30
0.0
 11
321.9115458704532
 21
203.0385925897642
 31
0.0
  0
LINE
  5
1CA
330
17
100
AcDbEntity
  8
4
100
AcDbLine
 10
382.2728900118285
 20
191.8655846914413
 30
0.0
 11
341.4825437163652
 21
203.0385925897642
 31
0.0
  0
LINE
  5
1CB
330
17
100
AcDbEntity
  8
4
100
AcDbLine
 10
349.5782125371213
 20
199.3655846914413
 30
0.0
 11
343.0123894614407
 21
201.1640492730408
 31
0.0
  0
LINE
  5
1CC
330
17
100
AcDbEntity
  8
4
100
AcDbLine
 10
376.9591649180726
 20
191.8655846914413
 30
0.0
 11
351.4115458704529
 21
198.8634107783982
 31
0.0
  0
LINE
  5
1CD
330
17
100
AcDbEntity
  8
4
100
AcDbLine
 10
211.5502017290779
 20
191.8655846914412
 30
0.0
 11
252.3405480245412
 21
203.0385925897642
 31
0.0
  0
LINE
  5
1CE
330
17
100
AcDbEntity
  8
4
100
AcDbLine
 10
244.2448792037851
 20
199.3655846914413
 30
0.0
 11
250.8107022794657
 21
201.1640492730408
 31
0.0
  0
LINE
  5
1CF
330
17
100
AcDbEntity
  8
4
100
AcDbLine
 10
216.8639268228336
 20
191.8655846914412
 30
0.0
 11
242.4115458704536
 21
198.8634107783982
 31
0.0
  0
ARC
  5
1D0
330
17
100
AcDbEntity
  8
4
100
AcDbCircle
 10
192.9115458704532
 20
190.8655846914413
 30
0.0
 40
1.0
100
AcDbArc
 50
89.99999999999837
 51
180.0
  0
ARC
  5
1D1
330
17
100
AcDbEntity
  8
4
100
AcDbCircle
 10
400.9115458704532
 20
190.8655846914413
 30
0.0
 40
1.0
100
AcDbArc
 50
0.0
 51
90.0
  0
LINE
  5
1D2
330
17
100
AcDbEntity
  8
2
100
AcDbLine
 10
393.0247945245049
 20
550.6314749473216
 30
0.0
 11
394.4681701974788
 21
548.131474947322
 31
0.0
  0
LINE
  5
1D3
330
17
100
AcDbEntity
  8
2
100
AcDbLine
 10
394.4681701974789
 20
553.1314749473217
 30
0.0
 11
393.0247945245049
 21
550.6314749473216
 31
0.0
  0
LINE
  5
1D4
330
17
100
AcDbEntity
  8
2
100
AcDbLine
 10
397.3549215434272
 20
553.1314749473219
 30
0.0
 11
398.7982972164011
 21
550.6314749473219
 31
0.0
  0
LINE
  5
1D5
330
17
100
AcDbEntity
  8
2
100
AcDbLine
 10
398.7982972164011
 20
550.6314749473219
 30
0.0
 11
397.3549215434272
 21
548.1314749473217
 31
0.0
  0
LINE
  5
1D6
330
17
100
AcDbEntity
  8
2
100
AcDbLine
 10
394.4681701974788
 20
548.131474947322
 30
0.0
 11
397.3549215434272
 21
548.1314749473217
 31
0.0
  0
LINE
  5
1D7
330
17
100
AcDbEntity
  8
2
100
AcDbLine
 10
394.4681701974789
 20
553.1314749473217
 30
0.0
 11
397.3549215434272
 21
553.1314749473219
 31
0.0
  0
CIRCLE
  5
1D8
330
17
100
AcDbEntity
  8
4
100
AcDbCircle
 10
395.911545870453
 20
550.6314749473217
 30
0.0
 40
5.0
  0
CIRCLE
  5
1D9
330
17
100
AcDbEntity
  8
4
100
AcDbCircle
 10
395.911545870453
 20
550.6314749473217
 30
0.0
 40
5.75
  0
LINE
  5
1DA
330
17
100
AcDbEntity
  8
2
100
AcDbLine
 10
199.3549215434275
 20
553.1314749473217
 30
0.0
 11
200.7982972164015
 21
550.6314749473216
 31
0.0
  0
LINE
  5
1DB
330
17
100
AcDbEntity
  8
2
100
AcDbLine
 10
200.7982972164015
 20
550.6314749473216
 30
0.0
 11
199.3549215434276
 21
548.131474947322
 31
0.0
  0
LINE
  5
1DC
330
17
100
AcDbEntity
  8
2
100
AcDbLine
 10
195.0247945245053
 20
550.6314749473219
 30
0.0
 11
196.4681701974793
 21
548.1314749473217
 31
0.0
  0
LINE
  5
1DD
330
17
100
AcDbEntity
  8
2
100
AcDbLine
 10
196.4681701974793
 20
553.1314749473219
 30
0.0
 11
195.0247945245053
 21
550.6314749473219
 31
0.0
  0
CIRCLE
  5
1DE
330
17
100
AcDbEntity
  8
4
100
AcDbCircle
 10
197.9115458704534
 20
550.6314749473217
 30
0.0
 40
5.75
  0
CIRCLE
  5
1DF
330
17
100
AcDbEntity
  8
4
100
AcDbCircle
 10
197.9115458704534
 20
550.6314749473217
 30
0.0
 40
5.0
  0
LINE
  5
1E0
330
17
100
AcDbEntity
  8
2
100
AcDbLine
 10
199.3549215434275
 20
553.1314749473217
 30
0.0
 11
196.4681701974793
 21
553.1314749473219
 31
0.0
  0
LINE
  5
1E1
330
17
100
AcDbEntity
  8
2
100
AcDbLine
 10
199.3549215434276
 20
548.131474947322
 30
0.0
 11
196.4681701974793
 21
548.1314749473217
 31
0.0
  0
LINE
  5
1E2
330
17
100
AcDbEntity
  8
2
100
AcDbLine
 10
344.9681701974787
 20
638.8679899219809
 30
0.0
 11
347.8549215434271
 21
638.8679899219811
 31
0.0
  0
LINE
  5
1E3
330
17
100
AcDbEntity
  8
2
100
AcDbLine
 10
344.9681701974788
 20
633.8679899219811
 30
0.0
 11
347.8549215434271
 21
633.867989921981
 31
0.0
  0
LINE
  5
1E4
330
17
100
AcDbEntity
  8
2
100
AcDbLine
 10
347.8549215434271
 20
633.867989921981
 30
0.0
 11
349.298297216401
 21
636.367989921981
 31
0.0
  0
LINE
  5
1E5
330
17
100
AcDbEntity
  8
2
100
AcDbLine
 10
349.298297216401
 20
636.367989921981
 30
0.0
 11
347.8549215434271
 21
638.8679899219811
 31
0.0
  0
LINE
  5
1E6
330
17
100
AcDbEntity
  8
2
100
AcDbLine
 10
343.5247945245048
 20
636.3679899219812
 30
0.0
 11
344.9681701974787
 21
638.8679899219809
 31
0.0
  0
LINE
  5
1E7
330
17
100
AcDbEntity
  8
2
100
AcDbLine
 10
344.9681701974788
 20
633.8679899219811
 30
0.0
 11
343.5247945245048
 21
636.3679899219812
 31
0.0
  0
CIRCLE
  5
1E8
330
17
100
AcDbEntity
  8
4
100
AcDbCircle
 10
346.4115458704529
 20
636.3679899219811
 30
0.0
 40
5.0
  0
CIRCLE
  5
1E9
330
17
100
AcDbEntity
  8
4
100
AcDbCircle
 10
346.4115458704529
 20
636.3679899219811
 30
0.0
 40
5.75
  0
LINE
  5
1EA
330
17
100
AcDbEntity
  8
L-CENTER
 48
5.0
100
AcDbLine
 10
340.4115458704533
 20
625.9756850765679
 30
0.0
 11
352.4115458704533
 21
646.7602947673944
 31
0.0
  0
LINE
  5
1EB
330
17
100
AcDbEntity
  8
2
100
AcDbLine
 10
248.8549215434276
 20
633.8679899219811
 30
0.0
 11
250.2982972164016
 21
636.3679899219812
 31
0.0
  0
LINE
  5
1EC
330
17
100
AcDbEntity
  8
2
100
AcDbLine
 10
250.2982972164016
 20
636.3679899219812
 30
0.0
 11
248.8549215434277
 21
638.8679899219809
 31
0.0
  0
LINE
  5
1ED
330
17
100
AcDbEntity
  8
2
100
AcDbLine
 10
244.5247945245054
 20
636.367989921981
 30
0.0
 11
245.9681701974794
 21
638.8679899219811
 31
0.0
  0
LINE
  5
1EE
330
17
100
AcDbEntity
  8
2
100
AcDbLine
 10
245.9681701974794
 20
633.867989921981
 30
0.0
 11
244.5247945245054
 21
636.367989921981
 31
0.0
  0
CIRCLE
  5
1EF
330
17
100
AcDbEntity
  8
4
100
AcDbCircle
 10
247.4115458704535
 20
636.3679899219811
 30
0.0
 40
5.75
  0
CIRCLE
  5
1F0
330
17
100
AcDbEntity
  8
4
100
AcDbCircle
 10
247.4115458704535
 20
636.3679899219811
 30
0.0
 40
5.0
  0
LINE
  5
1F1
330
17
100
AcDbEntity
  8
2
100
AcDbLine
 10
248.8549215434276
 20
633.8679899219811
 30
0.0
 11
245.9681701974794
 21
633.867989921981
 31
0.0
  0
LINE
  5
1F2
330
17
100
AcDbEntity
  8
2
100
AcDbLine
 10
248.8549215434277
 20
638.8679899219809
 30
0.0
 11
245.9681701974794
 21
638.8679899219811
 31
0.0
  0
LINE
  5
1F3
330
17
100
AcDbEntity
  8
L-CENTER
 48
5.0
100
AcDbLine
 10
253.4115458704536
 20
625.9756850765677
 30
0.0
 11
241.4115458704536
 21
646.7602947673943
 31
0.0
  0
LINE
  5
1F4
330
17
100
AcDbEntity
  8
2
100
AcDbLine
 10
344.9681701974788
 20
467.3949599726624
 30
0.0
 11
343.5247945245048
 21
464.8949599726623
 31
0.0
  0
LINE
  5
1F5
330
17
100
AcDbEntity
  8
2
100
AcDbLine
 10
343.5247945245048
 20
464.8949599726623
 30
0.0
 11
344.9681701974787
 21
462.3949599726626
 31
0.0
  0
LINE
  5
1F6
330
17
100
AcDbEntity
  8
2
100
AcDbLine
 10
349.298297216401
 20
464.8949599726625
 30
0.0
 11
347.8549215434271
 21
462.3949599726624
 31
0.0
  0
LINE
  5
1F7
330
17
100
AcDbEntity
  8
2
100
AcDbLine
 10
347.8549215434271
 20
467.3949599726625
 30
0.0
 11
349.298297216401
 21
464.8949599726625
 31
0.0
  0
CIRCLE
  5
1F8
330
17
100
AcDbEntity
  8
4
100
AcDbCircle
 10
346.4115458704529
 20
464.8949599726624
 30
0.0
 40
5.75
  0
CIRCLE
  5
1F9
330
17
100
AcDbEntity
  8
4
100
AcDbCircle
 10
346.4115458704529
 20
464.8949599726624
 30
0.0
 40
5.0
  0
LINE
  5
1FA
330
17
100
AcDbEntity
  8
2
100
AcDbLine
 10
344.9681701974788
 20
467.3949599726624
 30
0.0
 11
347.8549215434271
 21
467.3949599726625
 31
0.0
  0
LINE
  5
1FB
330
17
100
AcDbEntity
  8
2
100
AcDbLine
 10
344.9681701974787
 20
462.3949599726626
 30
0.0
 11
347.8549215434271
 21
462.3949599726624
 31
0.0
  0
LINE
  5
1FC
330
17
100
AcDbEntity
  8
2
100
AcDbLine
 10
248.8549215434277
 20
462.3949599726626
 30
0.0
 11
245.9681701974794
 21
462.3949599726624
 31
0.0
  0
LINE
  5
1FD
330
17
100
AcDbEntity
  8
2
100
AcDbLine
 10
248.8549215434276
 20
467.3949599726624
 30
0.0
 11
245.9681701974794
 21
467.3949599726625
 31
0.0
  0
LINE
  5
1FE
330
17
100
AcDbEntity
  8
2
100
AcDbLine
 10
250.2982972164016
 20
464.8949599726623
 30
0.0
 11
248.8549215434277
 21
462.3949599726626
 31
0.0
  0
LINE
  5
1FF
330
17
100
AcDbEntity
  8
2
100
AcDbLine
 10
245.9681701974794
 20
467.3949599726625
 30
0.0
 11
244.5247945245054
 21
464.8949599726625
 31
0.0
  0
LINE
  5
200
330
17
100
AcDbEntity
  8
2
100
AcDbLine
 10
248.8549215434276
 20
467.3949599726624
 30
0.0
 11
250.2982972164016
 21
464.8949599726623
 31
0.0
  0
LINE
  5
201
330
17
100
AcDbEntity
  8
2
100
AcDbLine
 10
244.5247945245054
 20
464.8949599726625
 30
0.0
 11
245.9681701974794
 21
462.3949599726624
 31
0.0
  0
CIRCLE
  5
202
330
17
100
AcDbEntity
  8
4
100
AcDbCircle
 10
247.4115458704535
 20
464.8949599726624
 30
0.0
 40
5.0
  0
CIRCLE
  5
203
330
17
100
AcDbEntity
  8
4
100
AcDbCircle
 10
247.4115458704535
 20
464.8949599726624
 30
0.0
 40
5.75
  0
LINE
  5
204
330
17
100
AcDbEntity
  8
L-CENTER
 48
5.0
100
AcDbLine
 10
808.3665545506674
 20
202.2721117421705
 30
0.0
 11
808.3665545506674
 21
172.2739330713658
 31
0.0
  0
LINE
  5
205
330
17
100
AcDbEntity
  8
4
100
AcDbLine
 10
803.3665545506674
 20
199.3655846914413
 30
0.0
 11
813.3665545506674
 21
199.3655846914413
 31
0.0
  0
LINE
  5
206
330
17
100
AcDbEntity
  8
4
100
AcDbLine
 10
802.6165545506674
 20
193.3655846914412
 30
0.0
 11
802.6165545506674
 21
191.8655846914413
 31
0.0
  0
LINE
  5
207
330
17
100
AcDbEntity
  8
4
100
AcDbLine
 10
814.1165545506674
 20
193.3655846914412
 30
0.0
 11
814.1165545506674
 21
191.8655846914413
 31
0.0
  0
LINE
  5
208
330
17
100
AcDbEntity
  8
4
100
AcDbLine
 10
802.6165545506674
 20
193.3655846914412
 30
0.0
 11
814.1165545506674
 21
193.3655846914412
 31
0.0
  0
LINE
  5
209
330
17
100
AcDbEntity
  8
4
100
AcDbLine
 10
803.3665545506674
 20
199.3655846914413
 30
0.0
 11
803.3665545506674
 21
193.3655846914413
 31
0.0
  0
LINE
  5
20A
330
17
100
AcDbEntity
  8
4
100
AcDbLine
 10
813.3665545506674
 20
199.3655846914413
 30
0.0
 11
813.3665545506674
 21
193.3655846914413
 31
0.0
  0
LINE
  5
20B
330
17
100
AcDbEntity
  8
4
100
AcDbLine
 10
727.6300395760081
 20
199.3655846914413
 30
0.0
 11
717.6300395760081
 21
199.3655846914413
 31
0.0
  0
LINE
  5
20C
330
17
100
AcDbEntity
  8
4
100
AcDbLine
 10
728.3800395760081
 20
193.3655846914412
 30
0.0
 11
728.3800395760081
 21
191.8655846914413
 31
0.0
  0
LINE
  5
20D
330
17
100
AcDbEntity
  8
4
100
AcDbLine
 10
716.8800395760081
 20
193.3655846914412
 30
0.0
 11
716.8800395760081
 21
191.8655846914413
 31
0.0
  0
LINE
  5
20E
330
17
100
AcDbEntity
  8
4
100
AcDbLine
 10
728.3800395760081
 20
193.3655846914412
 30
0.0
 11
716.8800395760081
 21
193.3655846914412
 31
0.0
  0
LINE
  5
20F
330
17
100
AcDbEntity
  8
4
100
AcDbLine
 10
727.6300395760081
 20
199.3655846914413
 30
0.0
 11
727.6300395760081
 21
193.3655846914413
 31
0.0
  0
LINE
  5
210
330
17
100
AcDbEntity
  8
4
100
AcDbLine
 10
717.6300395760081
 20
199.3655846914413
 30
0.0
 11
717.6300395760081
 21
193.3655846914413
 31
0.0
  0
LINE
  5
211
330
17
100
AcDbEntity
  8
4
100
AcDbLine
 10
641.8935246013489
 20
199.3655846914413
 30
0.0
 11
631.8935246013489
 21
199.3655846914413
 31
0.0
  0
LINE
  5
212
330
17
100
AcDbEntity
  8
4
100
AcDbLine
 10
642.6435246013489
 20
193.3655846914412
 30
0.0
 11
642.6435246013489
 21
191.8655846914413
 31
0.0
  0
LINE
  5
213
330
17
100
AcDbEntity
  8
4
100
AcDbLine
 10
631.1435246013489
 20
193.3655846914412
 30
0.0
 11
631.1435246013489
 21
191.8655846914413
 31
0.0
  0
LINE
  5
214
330
17
100
AcDbEntity
  8
4
100
AcDbLine
 10
642.6435246013489
 20
193.3655846914412
 30
0.0
 11
631.1435246013489
 21
193.3655846914412
 31
0.0
  0
LINE
  5
215
330
17
100
AcDbEntity
  8
4
100
AcDbLine
 10
641.8935246013489
 20
199.3655846914413
 30
0.0
 11
641.8935246013489
 21
193.3655846914413
 31
0.0
  0
LINE
  5
216
330
17
100
AcDbEntity
  8
4
100
AcDbLine
 10
631.8935246013489
 20
199.3655846914413
 30
0.0
 11
631.8935246013489
 21
193.3655846914413
 31
0.0
  0
LINE
  5
217
330
17
100
AcDbEntity
  8
4
100
AcDbLine
 10
351.4115458704529
 20
199.3655846914413
 30
0.0
 11
341.4115458704529
 21
199.3655846914413
 31
0.0
  0
LINE
  5
218
330
17
100
AcDbEntity
  8
2
100
AcDbLine
 10
344.9115458704529
 20
193.3655846914412
 30
0.0
 11
346.4115458704529
 21
191.8655846914413
 31
0.0
  0
LINE
  5
219
330
17
100
AcDbEntity
  8
4
100
AcDbLine
 10
340.6615458704529
 20
193.3655846914412
 30
0.0
 11
340.6615458704529
 21
191.8655846914413
 31
0.0
  0
LINE
  5
21A
330
17
100
AcDbEntity
  8
4
100
AcDbLine
 10
352.1615458704529
 20
193.3655846914412
 30
0.0
 11
352.1615458704529
 21
191.8655846914413
 31
0.0
  0
LINE
  5
21B
330
17
100
AcDbEntity
  8
4
100
AcDbLine
 10
352.1615458704529
 20
193.3655846914412
 30
0.0
 11
340.6615458704529
 21
193.3655846914412
 31
0.0
  0
LINE
  5
21C
330
17
100
AcDbEntity
  8
2
100
AcDbLine
 10
347.0328662140126
 20
193.3655846914412
 30
0.0
 11
348.5328662140125
 21
191.8655846914413
 31
0.0
  0
LINE
  5
21D
330
17
100
AcDbEntity
  8
4
100
AcDbLine
 10
341.4115458704529
 20
199.3655846914413
 30
0.0
 11
341.4115458704529
 21
193.3655846914413
 31
0.0
  0
LINE
  5
21E
330
17
100
AcDbEntity
  8
4
100
AcDbLine
 10
351.4115458704529
 20
199.3655846914413
 30
0.0
 11
351.4115458704529
 21
193.3655846914413
 31
0.0
  0
LINE
  5
21F
330
17
100
AcDbEntity
  8
L-CENTER
 48
5.0
100
AcDbLine
 10
346.4115458704529
 20
201.6558930535187
 30
0.0
 11
346.4115458704529
 21
172.2739330713658
 31
0.0
  0
LINE
  5
220
330
17
100
AcDbEntity
  8
L-CENTER
 48
5.0
100
AcDbLine
 10
395.911545870453
 20
201.6558930535187
 30
0.0
 11
395.911545870453
 21
172.2739330713658
 31
0.0
  0
LINE
  5
221
330
17
100
AcDbEntity
  8
4
100
AcDbLine
 10
390.1615458704531
 20
193.3655846914412
 30
0.0
 11
390.1615458704531
 21
191.8655846914413
 31
0.0
  0
LINE
  5
222
330
17
100
AcDbEntity
  8
4
100
AcDbLine
 10
401.661545870453
 20
193.3655846914412
 30
0.0
 11
401.661545870453
 21
191.8655846914413
 31
0.0
  0
LINE
  5
223
330
17
100
AcDbEntity
  8
2
100
AcDbLine
 10
396.5328662140128
 20
193.3655846914412
 30
0.0
 11
398.0328662140127
 21
191.8655846914413
 31
0.0
  0
LINE
  5
224
330
17
100
AcDbEntity
  8
2
100
AcDbLine
 10
394.4115458704531
 20
193.3655846914412
 30
0.0
 11
395.911545870453
 21
191.8655846914413
 31
0.0
  0
LINE
  5
225
330
17
100
AcDbEntity
  8
4
100
AcDbLine
 10
400.911545870453
 20
199.3655846914413
 30
0.0
 11
390.911545870453
 21
199.3655846914413
 31
0.0
  0
LINE
  5
226
330
17
100
AcDbEntity
  8
4
100
AcDbLine
 10
401.661545870453
 20
193.3655846914412
 30
0.0
 11
390.1615458704531
 21
193.3655846914412
 31
0.0
  0
LINE
  5
227
330
17
100
AcDbEntity
  8
4
100
AcDbLine
 10
400.911545870453
 20
199.3655846914413
 30
0.0
 11
400.911545870453
 21
193.3655846914413
 31
0.0
  0
LINE
  5
228
330
17
100
AcDbEntity
  8
4
100
AcDbLine
 10
390.911545870453
 20
199.3655846914413
 30
0.0
 11
390.911545870453
 21
193.3655846914413
 31
0.0
  0
LINE
  5
229
330
17
100
AcDbEntity
  8
4
100
AcDbLine
 10
242.4115458704536
 20
199.3655846914413
 30
0.0
 11
252.4115458704536
 21
199.3655846914413
 31
0.0
  0
LINE
  5
22A
330
17
100
AcDbEntity
  8
4
100
AcDbLine
 10
253.1615458704535
 20
193.3655846914412
 30
0.0
 11
253.1615458704535
 21
191.8655846914413
 31
0.0
  0
LINE
  5
22B
330
17
100
AcDbEntity
  8
4
100
AcDbLine
 10
241.6615458704536
 20
193.3655846914412
 30
0.0
 11
241.6615458704536
 21
191.8655846914413
 31
0.0
  0
LINE
  5
22C
330
17
100
AcDbEntity
  8
2
100
AcDbLine
 10
246.7902255268938
 20
193.3655846914412
 30
0.0
 11
245.2902255268939
 21
191.8655846914413
 31
0.0
  0
LINE
  5
22D
330
17
100
AcDbEntity
  8
4
100
AcDbLine
 10
241.6615458704536
 20
193.3655846914412
 30
0.0
 11
253.1615458704535
 21
193.3655846914412
 31
0.0
  0
LINE
  5
22E
330
17
100
AcDbEntity
  8
2
100
AcDbLine
 10
248.9115458704535
 20
193.3655846914412
 30
0.0
 11
247.4115458704536
 21
191.8655846914413
 31
0.0
  0
LINE
  5
22F
330
17
100
AcDbEntity
  8
4
100
AcDbLine
 10
242.4115458704536
 20
199.3655846914413
 30
0.0
 11
242.4115458704536
 21
193.3655846914413
 31
0.0
  0
LINE
  5
230
330
17
100
AcDbEntity
  8
4
100
AcDbLine
 10
252.4115458704536
 20
199.3655846914413
 30
0.0
 11
252.4115458704536
 21
193.3655846914413
 31
0.0
  0
LINE
  5
231
330
17
100
AcDbEntity
  8
2
100
AcDbLine
 10
197.2902255268937
 20
193.3655846914412
 30
0.0
 11
195.7902255268937
 21
191.8655846914413
 31
0.0
  0
LINE
  5
232
330
17
100
AcDbEntity
  8
2
100
AcDbLine
 10
199.4115458704533
 20
193.3655846914412
 30
0.0
 11
197.9115458704534
 21
191.8655846914413
 31
0.0
  0
LINE
  5
233
330
17
100
AcDbEntity
  8
4
100
AcDbLine
 10
202.9115458704534
 20
199.3655846914413
 30
0.0
 11
202.9115458704534
 21
193.3655846914413
 31
0.0
  0
LINE
  5
234
330
17
100
AcDbEntity
  8
4
100
AcDbLine
 10
192.9115458704534
 20
199.3655846914413
 30
0.0
 11
192.9115458704534
 21
193.3655846914413
 31
0.0
  0
LINE
  5
235
330
17
100
AcDbEntity
  8
4
100
AcDbLine
 10
192.9115458704534
 20
199.3655846914413
 30
0.0
 11
202.9115458704534
 21
199.3655846914413
 31
0.0
  0
LINE
  5
236
330
17
100
AcDbEntity
  8
4
100
AcDbLine
 10
192.1615458704534
 20
193.3655846914412
 30
0.0
 11
192.1615458704534
 21
191.8655846914413
 31
0.0
  0
LINE
  5
237
330
17
100
AcDbEntity
  8
4
100
AcDbLine
 10
203.6615458704534
 20
193.3655846914412
 30
0.0
 11
203.6615458704534
 21
191.8655846914413
 31
0.0
  0
LINE
  5
238
330
17
100
AcDbEntity
  8
4
100
AcDbLine
 10
192.1615458704534
 20
193.3655846914412
 30
0.0
 11
203.6615458704534
 21
193.3655846914412
 31
0.0
  0
LWPOLYLINE
  5
239
330
17
100
AcDbEntity
  8
4
100
AcDbPolyline
 90
        2
 70
     0
 43
0.0
 10
286.0862283231477
 20
667.1314749473216
 10
286.0862283231477
 20
662.1314749473216
  0
LINE
  5
23A
330
17
100
AcDbEntity
  8
4
100
AcDbLine
 10
284.4115458704532
 20
662.1314749473216
 30
0.0
 11
284.4115458704532
 21
660.1314749473216
 31
0.0
  0
LINE
  5
23B
330
17
100
AcDbEntity
  8
4
100
AcDbLine
 10
285.4115458704532
 20
660.1314749473216
 30
0.0
 11
285.4115458704532
 21
658.6314749473216
 31
0.0
  0
LWPOLYLINE
  5
23C
330
17
100
AcDbEntity
  8
4
100
AcDbPolyline
 90
        2
 70
     0
 43
0.0
 10
307.7368634177587
 20
662.1314749473216
 10
307.7368634177587
 20
667.1314749473216
  0
LINE
  5
23D
330
17
100
AcDbEntity
  8
4
100
AcDbLine
 10
309.4115458704532
 20
662.1314749473216
 30
0.0
 11
309.4115458704532
 21
660.1314749473216
 31
0.0
  0
LINE
  5
23E
330
17
100
AcDbEntity
  8
4
100
AcDbLine
 10
308.4115458704532
 20
660.1314749473216
 30
0.0
 11
308.4115458704532
 21
658.6314749473216
 31
0.0
  0
LINE
  5
23F
330
17
100
AcDbEntity
  8
4
100
AcDbLine
 10
284.4115458704532
 20
660.1314749473216
 30
0.0
 11
309.4115458704532
 21
660.1314749473216
 31
0.0
  0
LINE
  5
240
330
17
100
AcDbEntity
  8
4
100
AcDbLine
 10
284.4115458704532
 20
662.1314749473216
 30
0.0
 11
309.4115458704532
 21
662.1314749473216
 31
0.0
  0
LINE
  5
241
330
17
100
AcDbEntity
  8
4
100
AcDbLine
 10
286.0862283231477
 20
667.1314749473216
 30
0.0
 11
307.7368634177587
 21
667.1314749473216
 31
0.0
  0
LINE
  5
242
330
17
100
AcDbEntity
  8
4
100
AcDbLine
 10
285.4115458704532
 20
658.6314749473216
 30
0.0
 11
308.4115458704532
 21
658.6314749473216
 31
0.0
  0
LINE
  5
243
330
17
100
AcDbEntity
  8
L-CENTER
 48
5.0
100
AcDbLine
 10
636.8935246013489
 20
202.2721117421705
 30
0.0
 11
636.8935246013489
 21
172.2739330713658
 31
0.0
  0
LINE
  5
244
330
17
100
AcDbEntity
  8
L-CENTER
 48
5.0
100
AcDbLine
 10
247.4115458704536
 20
201.6558930535187
 30
0.0
 11
247.4115458704536
 21
172.2739330713658
 31
0.0
  0
LINE
  5
245
330
17
100
AcDbEntity
  8
L-CENTER
 48
5.0
100
AcDbLine
 10
197.9115458704534
 20
201.6558930535187
 30
0.0
 11
197.9115458704534
 21
172.2739330713658
 31
0.0
  0
LWPOLYLINE
  5
246
330
17
100
AcDbEntity
  8
4
100
AcDbPolyline
 90
        6
 70
     1
 43
0.0
 10
244.4115458704533
 20
550.6314749473217
 10
238.1615458704533
 20
561.4567924946273
 10
225.6615458704533
 20
561.4567924946273
 10
219.4115458704533
 20
550.6314749473217
 10
225.6615458704533
 20
539.8061574000162
 10
238.1615458704533
 20
539.8061574000162
  0
CIRCLE
  5
247
330
17
100
AcDbEntity
  8
4
100
AcDbCircle
 10
231.9115458704533
 20
550.6314749473217
 30
0.0
 40
12.5
  0
LINE
  5
248
330
17
100
AcDbEntity
  8
4
100
AcDbLine
 10
301.9115458704532
 20
530.1315975636991
 30
0.0
 11
291.9115458704532
 21
530.1315975636991
 31
0.0
  0
LINE
  5
249
330
17
100
AcDbEntity
  8
4
100
AcDbLine
 10
291.9115458704532
 20
538.1315975636991
 30
0.0
 11
291.9115458704532
 21
530.1315975636991
 31
0.0
  0
LINE
  5
24A
330
17
100
AcDbEntity
  8
4
100
AcDbLine
 10
301.9115458704532
 20
538.1315975636991
 30
0.0
 11
291.9115458704532
 21
538.1315975636991
 31
0.0
  0
LINE
  5
24B
330
17
100
AcDbEntity
  8
4
100
AcDbLine
 10
301.9115458704532
 20
530.1315975636991
 30
0.0
 11
301.9115458704532
 21
538.1315975636991
 31
0.0
  0
ARC
  5
24C
330
17
100
AcDbEntity
  8
4
100
AcDbCircle
 10
296.9115458704532
 20
550.6315975636991
 30
0.0
 40
17.0
100
AcDbArc
 50
287.104636
 51
252.894504
  0
LINE
  5
24D
330
17
100
AcDbEntity
  8
4
100
AcDbLine
 10
409.4115008704533
 20
435.6314744473218
 30
0.0
 11
426.9115458704532
 21
435.6314744473218
 31
0.0
  0
LINE
  5
24E
330
17
100
AcDbEntity
  8
4
100
AcDbLine
 10
409.4115008704533
 20
465.6314744473219
 30
0.0
 11
426.9115458704532
 21
465.6314744473218
 31
0.0
  0
LINE
  5
24F
330
17
100
AcDbEntity
  8
4
100
AcDbLine
 10
475.9115458704532
 20
463.1314744473218
 30
0.0
 11
475.9115458704532
 21
454.1314744473218
 31
0.0
  0
LINE
  5
250
330
17
100
AcDbEntity
  8
4
100
AcDbLine
 10
475.9115458704532
 20
463.1314744473218
 30
0.0
 11
476.9115458704532
 21
462.1314744473218
 31
0.0
  0
LINE
  5
251
330
17
100
AcDbEntity
  8
4
100
AcDbLine
 10
475.9115458704532
 20
447.1314744473218
 30
0.0
 11
475.9115458704532
 21
438.1314744473218
 31
0.0
  0
LINE
  5
252
330
17
100
AcDbEntity
  8
4
100
AcDbLine
 10
475.9115458704532
 20
438.1314744473218
 30
0.0
 11
476.9115458704532
 21
439.1314744473218
 31
0.0
  0
LINE
  5
253
330
17
100
AcDbEntity
  8
4
100
AcDbLine
 10
476.9115458704532
 20
462.1314744473218
 30
0.0
 11
476.9115458704532
 21
439.1314744473218
 31
0.0
  0
ARC
  5
254
330
17
100
AcDbEntity
  8
4
100
AcDbCircle
 10
427.9115458704532
 20
464.1314744473218
 30
0.0
 40
1.0
100
AcDbArc
 50
180.0
 51
270.0
  0
ARC
  5
255
330
17
100
AcDbEntity
  8
4
100
AcDbCircle
 10
427.9115458704532
 20
437.1314744473218
 30
0.0
 40
1.0
100
AcDbArc
 50
90.0
 51
180.0
  0
ARC
  5
256
330
17
100
AcDbEntity
  8
4
100
AcDbCircle
 10
435.4115458704532
 20
450.6314744473218
 30
0.0
 40
3.5
100
AcDbArc
 50
90.0
 51
270.0
  0
LINE
  5
257
330
17
100
AcDbEntity
  8
4
100
AcDbLine
 10
426.9115458704532
 20
465.6314744473218
 30
0.0
 11
426.9115458704532
 21
435.6314744473218
 31
0.0
  0
LINE
  5
258
330
17
100
AcDbEntity
  8
4
100
AcDbLine
 10
427.9115458704532
 20
463.1314744473218
 30
0.0
 11
475.9115458704532
 21
463.1314744473218
 31
0.0
  0
LINE
  5
259
330
17
100
AcDbEntity
  8
4
100
AcDbLine
 10
427.9115458704532
 20
438.1314744473218
 30
0.0
 11
475.9115458704532
 21
438.1314744473218
 31
0.0
  0
LINE
  5
25A
330
17
100
AcDbEntity
  8
4
100
AcDbLine
 10
435.4115458704532
 20
454.1314744473218
 30
0.0
 11
476.9115458704532
 21
454.1314744473218
 31
0.0
  0
LINE
  5
25B
330
17
100
AcDbEntity
  8
4
100
AcDbLine
 10
435.4115458704532
 20
447.1314744473218
 30
0.0
 11
476.9115458704532
 21
447.1314744473218
 31
0.0
  0
LINE
  5
25C
330
17
100
AcDbEntity
  8
4
100
AcDbLine
 10
186.4115453704533
 20
481.6314744473216
 30
0.0
 11
184.4115908704531
 21
481.6314744473216
 31
0.0
  0
LINE
  5
25D
330
17
100
AcDbEntity
  8
4
100
AcDbLine
 10
186.4115453704533
 20
419.631474447322
 30
0.0
 11
184.4115908704531
 21
419.631474447322
 31
0.0
  0
LINE
  5
25E
330
17
100
AcDbEntity
  8
4
100
AcDbLine
 10
184.4115908704531
 20
419.631474447322
 30
0.0
 11
184.4115908704531
 21
481.6314744473216
 31
0.0
  0
LINE
  5
25F
330
17
100
AcDbEntity
  8
4
100
AcDbLine
 10
407.4115463704532
 20
481.6314744473216
 30
0.0
 11
409.4115008704533
 21
481.6314744473216
 31
0.0
  0
LINE
  5
260
330
17
100
AcDbEntity
  8
4
100
AcDbLine
 10
407.4115463704532
 20
419.631474447322
 30
0.0
 11
409.4115008704533
 21
419.631474447322
 31
0.0
  0
LINE
  5
261
330
17
100
AcDbEntity
  8
4
100
AcDbLine
 10
409.4115008704533
 20
419.631474447322
 30
0.0
 11
409.4115008704533
 21
481.6314744473216
 31
0.0
  0
LINE
  5
262
330
17
100
AcDbEntity
  8
4
100
AcDbLine
 10
407.4115458704533
 20
163.565584691441
 30
0.0
 11
409.4115008704533
 21
163.565584691441
 31
0.0
  0
LINE
  5
263
330
17
100
AcDbEntity
  8
4
100
AcDbLine
 10
407.4115458704533
 20
101.5655846914415
 30
0.0
 11
409.4115008704533
 21
101.5655846914415
 31
0.0
  0
LINE
  5
264
330
17
100
AcDbEntity
  8
4
100
AcDbLine
 10
409.4115008704533
 20
101.5655846914415
 30
0.0
 11
409.4115008704533
 21
163.565584691441
 31
0.0
  0
LINE
  5
265
330
17
100
AcDbEntity
  8
4
100
AcDbLine
 10
320.4777428704533
 20
436.6321199473214
 30
0.0
 11
323.9115518704534
 21
436.6321199473214
 31
0.0
  0
LINE
  5
266
330
17
100
AcDbEntity
  8
4
100
AcDbLine
 10
324.9115523704531
 20
425.1321194473217
 30
0.0
 11
324.9115523704531
 21
435.6321194473217
 31
0.0
  0
ARC
  5
267
330
17
100
AcDbEntity
  8
4
100
AcDbCircle
 10
323.9115518704534
 20
435.6321194473217
 30
0.0
 40
1.0000005
100
AcDbArc
 50
0.0
 51
90.0
  0
ARC
  5
268
330
17
100
AcDbEntity
  8
4
100
AcDbCircle
 10
320.4777428704533
 20
435.6321194473217
 30
0.0
 40
1.0000005
100
AcDbArc
 50
90.0
 51
149.0362430000011
  0
ARC
  5
269
330
17
100
AcDbEntity
  8
4
100
AcDbCircle
 10
326.4115523704531
 20
420.1321199473214
 30
0.0
 40
1.0000005
100
AcDbArc
 50
270.0
 51
0.0
  0
LINE
  5
26A
330
17
100
AcDbEntity
  8
4
100
AcDbLine
 10
327.4115528704533
 20
423.1321199473214
 30
0.0
 11
327.4115528704533
 21
420.1321199473214
 31
0.0
  0
LINE
  5
26B
330
17
100
AcDbEntity
  8
4
100
AcDbLine
 10
320.9115518704534
 20
416.6321189473215
 30
0.0
 11
323.9115518704534
 21
416.6321189473215
 31
0.0
  0
LINE
  5
26C
330
17
100
AcDbEntity
  8
4
100
AcDbLine
 10
319.9115528704533
 20
418.1321189473215
 30
0.0
 11
319.9115528704533
 21
417.6321194473217
 31
0.0
  0
LINE
  5
26D
330
17
100
AcDbEntity
  8
4
100
AcDbLine
 10
324.9115523704531
 20
417.6321194473217
 30
0.0
 11
324.9115523704531
 21
418.1321189473215
 31
0.0
  0
ARC
  5
26E
330
17
100
AcDbEntity
  8
4
100
AcDbCircle
 10
318.9115523704531
 20
418.1321189473215
 30
0.0
 40
1.0000005
100
AcDbArc
 50
0.0
 51
90.0
  0
ARC
  5
26F
330
17
100
AcDbEntity
  8
4
100
AcDbCircle
 10
320.9115518704534
 20
417.6321194473217
 30
0.0
 40
1.0000005
100
AcDbArc
 50
180.0
 51
270.0
  0
ARC
  5
270
330
17
100
AcDbEntity
  8
4
100
AcDbCircle
 10
323.9115518704534
 20
417.6321194473217
 30
0.0
 40
1.0000005
100
AcDbArc
 50
270.0
 51
0.0
  0
ARC
  5
271
330
17
100
AcDbEntity
  8
4
100
AcDbCircle
 10
325.9115528704533
 20
418.1321189473215
 30
0.0
 40
1.0000005
100
AcDbArc
 50
90.0
 51
180.0
  0
LINE
  5
272
330
17
100
AcDbEntity
  8
4
100
AcDbLine
 10
325.9115528704533
 20
419.1321194473217
 30
0.0
 11
326.4115523704531
 21
419.1321194473217
 31
0.0
  0
LINE
  5
273
330
17
100
AcDbEntity
  8
4
100
AcDbLine
 10
325.9115528704533
 20
424.1321189473215
 30
0.0
 11
326.4115523704531
 21
424.1321189473215
 31
0.0
  0
ARC
  5
274
330
17
100
AcDbEntity
  8
4
100
AcDbCircle
 10
326.4115523704531
 20
423.1321199473214
 30
0.0
 40
1.0000005
100
AcDbArc
 50
0.0
 51
90.0
  0
ARC
  5
275
330
17
100
AcDbEntity
  8
4
100
AcDbCircle
 10
325.9115528704533
 20
425.1321194473217
 30
0.0
 40
1.0000005
100
AcDbArc
 50
180.0
 51
270.0
  0
LINE
  5
276
330
17
100
AcDbEntity
  8
4
100
AcDbLine
 10
307.4115518704534
 20
429.1321199473214
 30
0.0
 11
304.4115518704534
 21
429.1321199473214
 31
0.0
  0
LINE
  5
277
330
17
100
AcDbEntity
  8
4
100
AcDbLine
 10
308.4115523704531
 20
425.1321194473217
 30
0.0
 11
308.4115523704531
 21
428.1321194473217
 31
0.0
  0
LINE
  5
278
330
17
100
AcDbEntity
  8
4
100
AcDbLine
 10
303.4115528704533
 20
425.1321194473217
 30
0.0
 11
303.4115528704533
 21
428.1321194473217
 31
0.0
  0
ARC
  5
279
330
17
100
AcDbEntity
  8
4
100
AcDbCircle
 10
304.4115518704534
 20
428.1321194473217
 30
0.0
 40
1.0000005
100
AcDbArc
 50
90.0
 51
180.0
  0
ARC
  5
27A
330
17
100
AcDbEntity
  8
4
100
AcDbCircle
 10
307.4115518704534
 20
428.1321194473217
 30
0.0
 40
1.0000005
100
AcDbArc
 50
0.0
 51
90.0
  0
LINE
  5
27B
330
17
100
AcDbEntity
  8
4
100
AcDbLine
 10
290.9115413704531
 20
436.6321199473214
 30
0.0
 11
292.9113023704531
 21
436.6321199473214
 31
0.0
  0
LINE
  5
27C
330
17
100
AcDbEntity
  8
4
100
AcDbLine
 10
296.9424308704533
 20
430.1321189473215
 30
0.0
 11
296.9115413704531
 21
430.1321189473215
 31
0.0
  0
ARC
  5
27D
330
17
100
AcDbEntity
  8
4
100
AcDbCircle
 10
292.9113023704531
 20
430.1321189473215
 30
0.0
 40
6.499999500000001
100
AcDbArc
 50
26.38780000000033
 51
90.0
  0
ARC
  5
27E
330
17
100
AcDbEntity
  8
4
100
AcDbCircle
 10
296.9424308704533
 20
432.1321199473214
 30
0.0
 40
1.9999995
100
AcDbArc
 50
270.0
 51
26.38780000000155
  0
ARC
  5
27F
330
17
100
AcDbEntity
  8
4
100
AcDbCircle
 10
313.4115518704534
 20
420.1321199473214
 30
0.0
 40
1.0000005
100
AcDbArc
 50
180.0
 51
270.0
  0
LINE
  5
280
330
17
100
AcDbEntity
  8
4
100
AcDbLine
 10
307.4115518704534
 20
424.1321189473215
 30
0.0
 11
304.4115518704534
 21
424.1321189473215
 31
0.0
  0
LINE
  5
281
330
17
100
AcDbEntity
  8
4
100
AcDbLine
 10
312.4115528704533
 20
423.8551364473215
 30
0.0
 11
312.4115528704533
 21
420.1321199473214
 31
0.0
  0
ARC
  5
282
330
17
100
AcDbEntity
  8
4
100
AcDbCircle
 10
292.9115438704534
 20
423.1321199473214
 30
0.0
 40
6.499999500000001
100
AcDbArc
 50
270.0
 51
333.6121999999997
  0
LINE
  5
283
330
17
100
AcDbEntity
  8
4
100
AcDbLine
 10
290.9115413704531
 20
416.6321189473215
 30
0.0
 11
292.9115438704534
 21
416.6321189473215
 31
0.0
  0
LINE
  5
284
330
17
100
AcDbEntity
  8
4
100
AcDbLine
 10
296.9426723704532
 20
423.1321199473214
 30
0.0
 11
296.9115413704531
 21
423.1321199473214
 31
0.0
  0
ARC
  5
285
330
17
100
AcDbEntity
  8
4
100
AcDbCircle
 10
296.9426723704532
 20
421.1321189473215
 30
0.0
 40
1.9999995
100
AcDbArc
 50
333.6121999999984
 51
90.0
  0
ARC
  5
286
330
17
100
AcDbEntity
  8
4
100
AcDbCircle
 10
307.4115518704534
 20
425.1321194473217
 30
0.0
 40
1.0000005
100
AcDbArc
 50
270.0
 51
0.0
  0
ARC
  5
287
330
17
100
AcDbEntity
  8
4
100
AcDbCircle
 10
304.4115518704534
 20
425.1321194473217
 30
0.0
 40
1.0000005
100
AcDbArc
 50
180.0
 51
270.0
  0
ARC
  5
288
330
17
100
AcDbEntity
  8
4
100
AcDbCircle
 10
296.9115413704531
 20
426.6321194473217
 30
0.0
 40
3.4999995
100
AcDbArc
 50
90.0
 51
270.0
  0
ARC
  5
289
330
17
100
AcDbEntity
  8
4
100
AcDbCircle
 10
313.4115518704534
 20
423.8551364473215
 30
0.0
 40
1.0000005
100
AcDbArc
 50
149.0362430000011
 51
180.0
  0
LINE
  5
28A
330
17
100
AcDbEntity
  8
4
100
AcDbLine
 10
313.4115518704534
 20
419.1321194473217
 30
0.0
 11
318.9115523704531
 21
419.1321194473217
 31
0.0
  0
LINE
  5
28B
330
17
100
AcDbEntity
  8
4
100
AcDbLine
 10
312.5540588704534
 20
424.3696319473215
 30
0.0
 11
319.6202498704533
 21
436.1466149473215
 31
0.0
  0
LINE
  5
28C
330
17
100
AcDbEntity
  8
4
100
AcDbLine
 10
284.4115418704532
 20
423.1321199473214
 30
0.0
 11
284.4115418704532
 21
430.1321189473215
 31
0.0
  0
ARC
  5
28D
330
17
100
AcDbEntity
  8
4
100
AcDbCircle
 10
290.9115413704531
 20
423.1321199473214
 30
0.0
 40
6.499999500000001
100
AcDbArc
 50
180.0
 51
270.0
  0
ARC
  5
28E
330
17
100
AcDbEntity
  8
4
100
AcDbCircle
 10
290.9115413704531
 20
430.1321189473215
 30
0.0
 40
6.499999500000001
100
AcDbArc
 50
90.0
 51
180.0
  0
ARC
  5
28F
330
17
100
AcDbEntity
  8
4
100
AcDbCircle
 10
321.2811285955335
 20
635.1898774736555
 30
0.0
 40
3.0
100
AcDbArc
 50
73.92311168739165
 51
185.1263803664052
  0
ARC
  5
290
330
17
100
AcDbEntity
  8
4
100
AcDbCircle
 10
381.4699483967869
 20
575.0010576724019
 30
0.0
 40
3.0
100
AcDbArc
 50
264.8736196335936
 51
16.0768883126076
  0
ARC
  5
291
330
17
100
AcDbEntity
  8
4
100
AcDbCircle
 10
336.289495282591
 20
590.0094243594594
 30
0.0
 40
3.0
100
AcDbArc
 50
7.619035016427544
 51
82.38096498357137
  0
ARC
  5
292
330
17
100
AcDbEntity
  8
4
100
AcDbCircle
 10
346.3848110534974
 20
581.1606542480454
 30
0.0
 40
6.0
100
AcDbArc
 50
185.7258432824331
 51
264.8736196335937
  0
ARC
  5
293
330
17
100
AcDbEntity
  8
4
100
AcDbCircle
 10
327.4407251711767
 20
600.1047401303658
 30
0.0
 40
6.0
100
AcDbArc
 50
185.1263803664062
 51
264.2741567175669
  0
ARC
  5
294
330
17
100
AcDbEntity
  8
4
100
AcDbCircle
 10
333.6326972060627
 20
587.3526262829314
 30
0.0
 40
3.0
100
AcDbArc
 50
7.102238149571051
 51
82.89776185043004
  0
LINE
  5
295
330
17
100
AcDbEntity
  8
4
100
AcDbLine
 10
381.2018897301169
 20
572.0130575801624
 30
0.0
 11
345.848693720157
 21
575.1846540635662
 31
0.0
  0
LINE
  5
296
330
17
100
AcDbEntity
  8
4
100
AcDbLine
 10
318.293128503294
 20
634.9218188069852
 30
0.0
 11
321.4647249866979
 21
599.5686227970256
 31
0.0
  0
ARC
  5
297
330
17
100
AcDbEntity
  8
4
100
AcDbCircle
 10
381.4699483967868
 20
526.2618922222416
 30
0.0
 40
3.0
100
AcDbArc
 50
343.9231116873924
 51
95.12638036640642
  0
ARC
  5
298
330
17
100
AcDbEntity
  8
4
100
AcDbCircle
 10
336.2894952825909
 20
511.2535255351841
 30
0.0
 40
3.0
100
AcDbArc
 50
277.6190350164276
 51
352.3809649835702
  0
ARC
  5
299
330
17
100
AcDbEntity
  8
4
100
AcDbCircle
 10
346.3848110534973
 20
520.1022956465983
 30
0.0
 40
6.0
100
AcDbArc
 50
95.1263803664063
 51
174.2741567175669
  0
ARC
  5
29A
330
17
100
AcDbEntity
  8
4
100
AcDbCircle
 10
333.6326972060626
 20
513.9103236117123
 30
0.0
 40
3.0
100
AcDbArc
 50
277.1022381495711
 51
352.8977618504289
  0
ARC
  5
29B
330
17
100
AcDbEntity
  8
4
100
AcDbCircle
 10
327.4407251711766
 20
501.1582097642777
 30
0.0
 40
6.0
100
AcDbArc
 50
95.72584328243254
 51
174.8736196335938
  0
LINE
  5
29C
330
17
100
AcDbEntity
  8
4
100
AcDbLine
 10
381.2018897301169
 20
529.2498923144809
 30
0.0
 11
345.848693720157
 21
526.0782958310771
 31
0.0
  0
ARC
  5
29D
330
17
100
AcDbEntity
  8
4
100
AcDbCircle
 10
321.2811285955333
 20
466.0730724209882
 30
0.0
 40
3.0
100
AcDbArc
 50
174.8736196335927
 51
286.0768883126087
  0
LINE
  5
29E
330
17
100
AcDbEntity
  8
L-CENTER
 48
5.0
100
AcDbLine
 10
340.4115458704533
 20
475.2872648180756
 30
0.0
 11
352.4115458704533
 21
454.5026551272491
 31
0.0
  0
LINE
  5
29F
330
17
100
AcDbEntity
  8
4
100
AcDbLine
 10
318.293128503294
 20
466.341131087658
 30
0.0
 11
321.4647249866979
 21
501.6943270976179
 31
0.0
  0
ARC
  5
2A0
330
17
100
AcDbEntity
  8
4
100
AcDbCircle
 10
38.91154587045327
 20
550.6314749473217
 30
0.0
 40
300.0
100
AcDbArc
 50
352.8977618504284
 51
7.102238149571463
  0
ARC
  5
2A1
330
17
100
AcDbEntity
  8
4
100
AcDbCircle
 10
41.91154587045327
 20
550.6314749473217
 30
0.0
 40
300.0
100
AcDbArc
 50
352.3809649835721
 51
7.619035016427927
  0
ARC
  5
2A2
330
17
100
AcDbEntity
  8
4
100
AcDbCircle
 10
272.541963145373
 20
635.1898774736555
 30
0.0
 40
3.0
100
AcDbArc
 50
354.8736196335927
 51
106.0768883126083
  0
ARC
  5
2A3
330
17
100
AcDbEntity
  8
4
100
AcDbCircle
 10
266.3823665697297
 20
600.1047401303658
 30
0.0
 40
6.0
100
AcDbArc
 50
275.7258432824325
 51
354.8736196335938
  0
ARC
  5
2A4
330
17
100
AcDbEntity
  8
4
100
AcDbCircle
 10
260.1903945348437
 20
587.3526262829314
 30
0.0
 40
3.0
100
AcDbArc
 50
97.10223814957105
 51
172.897761850429
  0
ARC
  5
2A5
330
17
100
AcDbEntity
  8
4
100
AcDbCircle
 10
257.5335964583156
 20
590.0094243594597
 30
0.0
 40
3.0
100
AcDbArc
 50
97.61903501642861
 51
172.3809649835724
  0
ARC
  5
2A6
330
17
100
AcDbEntity
  8
4
100
AcDbCircle
 10
247.4382806874092
 20
581.1606542480454
 30
0.0
 40
6.0
100
AcDbArc
 50
275.1263803664063
 51
354.2741567175669
  0
LINE
  5
2A7
330
17
100
AcDbEntity
  8
4
100
AcDbLine
 10
275.5299632376126
 20
634.9218188069854
 30
0.0
 11
272.3583667542088
 21
599.5686227970257
 31
0.0
  0
ARC
  5
2A8
330
17
100
AcDbEntity
  8
4
100
AcDbCircle
 10
212.3531433441195
 20
575.0010576724019
 30
0.0
 40
3.0
100
AcDbArc
 50
163.9231116873926
 51
275.1263803664064
  0
LINE
  5
2A9
330
17
100
AcDbEntity
  8
4
100
AcDbLine
 10
212.6212020107897
 20
572.0130575801625
 30
0.0
 11
247.9743980207494
 21
575.1846540635663
 31
0.0
  0
ARC
  5
2AA
330
17
100
AcDbEntity
  8
4
100
AcDbCircle
 10
266.3823665697296
 20
501.1582097642777
 30
0.0
 40
6.0
100
AcDbArc
 50
5.126380366406224
 51
84.27415671756695
  0
ARC
  5
2AB
330
17
100
AcDbEntity
  8
4
100
AcDbCircle
 10
260.1903945348436
 20
513.9103236117123
 30
0.0
 40
3.0
100
AcDbArc
 50
187.102238149571
 51
262.8977618504289
  0
ARC
  5
2AC
330
17
100
AcDbEntity
  8
4
100
AcDbCircle
 10
257.5335964583155
 20
511.2535255351841
 30
0.0
 40
3.0
100
AcDbArc
 50
187.6190350164276
 51
262.3809649835703
  0
ARC
  5
2AD
330
17
100
AcDbEntity
  8
4
100
AcDbCircle
 10
247.4382806874091
 20
520.1022956465983
 30
0.0
 40
6.0
100
AcDbArc
 50
5.72584328243309
 51
84.87361963359369
  0
ARC
  5
2AE
330
17
100
AcDbEntity
  8
4
100
AcDbCircle
 10
272.5419631453728
 20
466.0730724209882
 30
0.0
 40
3.0
100
AcDbArc
 50
253.9231116873913
 51
5.126380366405226
  0
LINE
  5
2AF
330
17
100
AcDbEntity
  8
4
100
AcDbLine
 10
275.5299632376126
 20
466.3411310876581
 30
0.0
 11
272.3583667542088
 21
501.694327097618
 31
0.0
  0
LINE
  5
2B0
330
17
100
AcDbEntity
  8
L-CENTER
 48
5.0
100
AcDbLine
 10
253.4115458704536
 20
475.2872648180758
 30
0.0
 11
241.4115458704536
 21
454.5026551272492
 31
0.0
  0
ARC
  5
2B1
330
17
100
AcDbEntity
  8
4
100
AcDbCircle
 10
212.3531433441194
 20
526.2618922222416
 30
0.0
 40
3.0
100
AcDbArc
 50
84.8736196335936
 51
196.0768883126074
  0
LINE
  5
2B2
330
17
100
AcDbEntity
  8
4
100
AcDbLine
 10
212.6212020107897
 20
529.249892314481
 30
0.0
 11
247.9743980207494
 21
526.0782958310772
 31
0.0
  0
LINE
  5
2B3
330
17
100
AcDbEntity
  8
L-CENTER
 48
5.0
100
AcDbLine
 10
231.9115458704533
 20
531.0314749473218
 30
0.0
 11
231.9115458704533
 21
570.2314749473219
 31
0.0
  0
ARC
  5
2B4
330
17
100
AcDbEntity
  8
4
100
AcDbCircle
 10
554.9115458704532
 20
550.6314749473216
 30
0.0
 40
300.0
100
AcDbArc
 50
172.8977618504285
 51
187.1022381495714
  0
ARC
  5
2B5
330
17
100
AcDbEntity
  8
4
100
AcDbCircle
 10
551.9115458704532
 20
550.6314749473216
 30
0.0
 40
300.0
100
AcDbArc
 50
172.3809649835721
 51
187.6190350164279
  0
CIRCLE
  5
2B6
330
17
100
AcDbEntity
  8
4
100
AcDbCircle
 10
231.9115458704532
 20
550.6314749473217
 30
0.0
 40
14.0
  0
CIRCLE
  5
2B7
330
17
100
AcDbEntity
  8
4
100
AcDbCircle
 10
296.9115458704532
 20
550.6314749473217
 30
0.0
 40
25.0
  0
CIRCLE
  5
2B8
330
17
100
AcDbEntity
  8
4
100
AcDbCircle
 10
296.9115458704532
 20
550.6314749473217
 30
0.0
 40
105.0
  0
CIRCLE
  5
2B9
330
17
100
AcDbEntity
  8
L-CENTER
 48
5.0
100
AcDbCircle
 10
296.9115458704532
 20
550.6314749473217
 30
0.0
 40
98.99999999999983
  0
ARC
  5
2BA
330
17
100
AcDbEntity
  8
4
100
AcDbCircle
 10
296.9115458704532
 20
292.6314749473217
 30
0.0
 40
300.0
100
AcDbArc
 50
82.89776185042847
 51
97.10223814957149
  0
ARC
  5
2BB
330
17
100
AcDbEntity
  8
4
100
AcDbCircle
 10
296.9115458704532
 20
295.6314749473217
 30
0.0
 40
300.0
100
AcDbArc
 50
82.38096498357208
 51
97.61903501642792
  0
ARC
  5
2BC
330
17
100
AcDbEntity
  8
4
100
AcDbCircle
 10
296.9115458704533
 20
808.6314749473216
 30
0.0
 40
300.0
100
AcDbArc
 50
262.8977618504285
 51
277.1022381495715
  0
ARC
  5
2BD
330
17
100
AcDbEntity
  8
4
100
AcDbCircle
 10
296.9115458704533
 20
805.6314749473216
 30
0.0
 40
300.0
100
AcDbArc
 50
262.3809649835721
 51
277.6190350164279
  0
CIRCLE
  5
2BE
330
17
100
AcDbEntity
  8
4
100
AcDbCircle
 10
296.9115458704532
 20
550.6314749473217
 30
0.0
 40
91.0
  0
LINE
  5
2BF
330
17
100
AcDbEntity
  8
L-CENTER
 48
5.0
100
AcDbLine
 10
405.9678866589605
 20
625.6314749473217
 30
0.0
 11
441.8552060819458
 21
625.6314749473217
 31
0.0
  0
LINE
  5
2C0
330
17
100
AcDbEntity
  8
4
100
AcDbLine
 10
400.9115453704533
 20
409.6314749473217
 30
0.0
 11
400.9115453704533
 21
506.2355294473218
 31
0.0
  0
ARC
  5
2C1
330
17
100
AcDbEntity
  8
4
100
AcDbCircle
 10
387.1682063704532
 20
460.3748144473216
 30
0.0
 40
4.0000005
100
AcDbArc
 50
286.0729439999997
 51
343.9270559999995
  0
ARC
  5
2C2
330
17
100
AcDbEntity
  8
4
100
AcDbCircle
 10
387.1682063704532
 20
640.8881354473215
 30
0.0
 40
4.0000005
100
AcDbArc
 50
16.07294400000047
 51
73.92705600000056
  0
ARC
  5
2C3
330
17
100
AcDbEntity
  8
4
100
AcDbCircle
 10
73.91154537045327
 20
550.6314749473217
 30
0.0
 40
330.0
100
AcDbArc
 50
343.927056
 51
16.07294400000001
  0
ARC
  5
2C4
330
17
100
AcDbEntity
  8
4
100
AcDbCircle
 10
440.4115463704532
 20
646.6314749473217
 30
0.0
 40
4.0000005
100
AcDbArc
 50
0.0
 51
90.0
  0
ARC
  5
2C5
330
17
100
AcDbEntity
  8
4
100
AcDbCircle
 10
440.4115463704532
 20
603.8068649473219
 30
0.0
 40
4.0000005
100
AcDbArc
 50
283.1115560000001
 51
0.0
  0
CIRCLE
  5
2C6
330
17
100
AcDbEntity
  8
4
100
AcDbCircle
 10
423.9115463704532
 20
625.6314749473217
 30
0.0
 40
7.5
  0
LINE
  5
2C7
330
17
100
AcDbEntity
  8
4
100
AcDbLine
 10
444.4115453704533
 20
603.8068649473219
 30
0.0
 11
444.4115453704533
 21
646.6314749473217
 31
0.0
  0
LINE
  5
2C8
330
17
100
AcDbEntity
  8
L-CENTER
 48
5.0
100
AcDbLine
 10
423.9115463704532
 20
607.6878152358291
 30
0.0
 11
423.9115463704532
 21
643.5751346588144
 31
0.0
  0
LINE
  5
2C9
330
17
100
AcDbEntity
  8
4
100
AcDbLine
 10
441.3189368704534
 20
599.9111444473215
 30
0.0
 11
401.4783323704532
 21
590.6314754473217
 31
0.0
  0
LINE
  5
2CA
330
17
100
AcDbEntity
  8
4
100
AcDbLine
 10
315.9115463704532
 20
658.0266929473217
 30
0.0
 11
315.9115463704532
 21
658.6314749473216
 31
0.0
  0
ARC
  5
2CB
330
17
100
AcDbEntity
  8
4
100
AcDbCircle
 10
316.9115453704533
 20
658.0266929473217
 30
0.0
 40
1.0000005
100
AcDbArc
 50
180.0
 51
266.5359089999985
  0
LINE
  5
2CC
330
17
100
AcDbEntity
  8
4
100
AcDbLine
 10
277.9115453704533
 20
658.0266929473217
 30
0.0
 11
277.9115453704533
 21
658.6314749473216
 31
0.0
  0
ARC
  5
2CD
330
17
100
AcDbEntity
  8
4
100
AcDbCircle
 10
276.9115463704532
 20
658.0266929473217
 30
0.0
 40
1.0000005
100
AcDbArc
 50
273.4640909999983
 51
0.0
  0
LINE
  5
2CE
330
17
100
AcDbEntity
  8
4
100
AcDbLine
 10
315.9115463704532
 20
658.6314749473216
 30
0.0
 11
277.9115453704533
 21
658.6314749473216
 31
0.0
  0
ARC
  5
2CF
330
17
100
AcDbEntity
  8
4
100
AcDbCircle
 10
206.6548853704533
 20
640.8881354473215
 30
0.0
 40
4.0000005
100
AcDbArc
 50
106.0729439999999
 51
163.9270559999995
  0
ARC
  5
2D0
330
17
100
AcDbEntity
  8
4
100
AcDbCircle
 10
296.9115458704532
 20
327.6314744473218
 30
0.0
 40
330.0
100
AcDbArc
 50
73.92652589385055
 51
106.072944
  0
ARC
  5
2D1
330
17
100
AcDbEntity
  8
4
100
AcDbCircle
 10
153.4115453704533
 20
646.6314749473217
 30
0.0
 40
4.0000005
100
AcDbArc
 50
90.0
 51
180.0
  0
ARC
  5
2D2
330
17
100
AcDbEntity
  8
4
100
AcDbCircle
 10
153.4115453704533
 20
603.8068649473219
 30
0.0
 40
4.0000005
100
AcDbArc
 50
180.0
 51
256.8884439999999
  0
LINE
  5
2D3
330
17
100
AcDbEntity
  8
4
100
AcDbLine
 10
149.4115463704532
 20
603.8068649473219
 30
0.0
 11
149.4115463704532
 21
646.6314749473217
 31
0.0
  0
LINE
  5
2D4
330
17
100
AcDbEntity
  8
L-CENTER
 48
5.0
100
AcDbLine
 10
169.9115453704533
 20
607.6878152358291
 30
0.0
 11
169.9115453704533
 21
643.5751346588144
 31
0.0
  0
CIRCLE
  5
2D5
330
17
100
AcDbEntity
  8
4
100
AcDbCircle
 10
169.9115453704533
 20
625.6314749473217
 30
0.0
 40
7.5
  0
LINE
  5
2D6
330
17
100
AcDbEntity
  8
4
100
AcDbLine
 10
153.4115453704533
 20
650.6314754473218
 30
0.0
 11
229.302374370453
 21
650.6314754473218
 31
0.0
  0
LINE
  5
2D7
330
17
100
AcDbEntity
  8
4
100
AcDbLine
 10
152.504154870453
 20
599.9111444473215
 30
0.0
 11
192.3447593704532
 21
590.6314754473217
 31
0.0
  0
LINE
  5
2D8
330
17
100
AcDbEntity
  8
L-CENTER
 48
5.0
100
AcDbLine
 10
187.8552050819459
 20
625.6314749473217
 30
0.0
 11
151.9678856589607
 21
625.6314749473217
 31
0.0
  0
LINE
  5
2D9
330
17
100
AcDbEntity
  8
4
100
AcDbLine
 10
364.5207173704532
 20
650.6314754473218
 30
0.0
 11
440.4115463704532
 21
650.6314754473218
 31
0.0
  0
LINE
  5
2DA
330
17
100
AcDbEntity
  8
L-CENTER
 48
5.0
100
AcDbLine
 10
410.345246370453
 20
550.6314749473217
 30
0.0
 11
183.4778453704535
 21
550.6314749473217
 31
0.0
  0
ARC
  5
2DB
330
17
100
AcDbEntity
  8
4
100
AcDbCircle
 10
440.4115463704532
 20
497.4560849473216
 30
0.0
 40
4.0000005
100
AcDbArc
 50
0.0
 51
76.8884439999999
  0
CIRCLE
  5
2DC
330
17
100
AcDbEntity
  8
4
100
AcDbCircle
 10
423.9115463704532
 20
475.6314749473217
 30
0.0
 40
7.5
  0
LINE
  5
2DD
330
17
100
AcDbEntity
  8
L-CENTER
 48
5.0
100
AcDbLine
 10
423.9115463704532
 20
457.6878152358291
 30
0.0
 11
423.9115463704532
 21
493.5751346588144
 31
0.0
  0
LINE
  5
2DE
330
17
100
AcDbEntity
  8
4
100
AcDbLine
 10
400.9115453704533
 20
494.6314754473217
 30
0.0
 11
400.9115453704533
 21
506.2355294473218
 31
0.0
  0
LINE
  5
2DF
330
17
100
AcDbEntity
  8
4
100
AcDbLine
 10
407.4115463704532
 20
492.6314744473218
 30
0.0
 11
402.9115463704532
 21
492.6314744473218
 31
0.0
  0
ARC
  5
2E0
330
17
100
AcDbEntity
  8
4
100
AcDbCircle
 10
402.9115463704532
 20
494.6314754473217
 30
0.0
 40
1.9999995
100
AcDbArc
 50
180.0
 51
270.0
  0
LINE
  5
2E1
330
17
100
AcDbEntity
  8
L-CENTER
 48
5.0
100
AcDbLine
 10
405.9678866589605
 20
475.6314749473217
 30
0.0
 11
441.8552060819458
 21
475.6314749473217
 31
0.0
  0
LINE
  5
2E2
330
17
100
AcDbEntity
  8
4
100
AcDbLine
 10
441.3189368704534
 20
501.351805447322
 30
0.0
 11
401.4783323704532
 21
510.6314744473218
 31
0.0
  0
LINE
  5
2E3
330
17
100
AcDbEntity
  8
4
100
AcDbLine
 10
407.4115463704532
 20
408.6314744473218
 30
0.0
 11
407.4115463704532
 21
492.6314744473218
 31
0.0
  0
LINE
  5
2E4
330
17
100
AcDbEntity
  8
4
100
AcDbLine
 10
444.4115453704533
 20
497.4560849473216
 30
0.0
 11
444.4115453704533
 21
463.1314744473218
 31
0.0
  0
LINE
  5
2E5
330
17
100
AcDbEntity
  8
4
100
AcDbLine
 10
280.4115368704533
 20
417.6321194473219
 30
0.0
 11
280.4115368704533
 21
420.6321194473219
 31
0.0
  0
ARC
  5
2E6
330
17
100
AcDbEntity
  8
4
100
AcDbCircle
 10
279.4115363704532
 20
420.6321194473219
 30
0.0
 40
1.0000005
100
AcDbArc
 50
0.0
 51
90.0
  0
ARC
  5
2E7
330
17
100
AcDbEntity
  8
4
100
AcDbCircle
 10
279.4115363704532
 20
417.6321194473219
 30
0.0
 40
1.0000005
100
AcDbArc
 50
270.0
 51
0.0
  0
LINE
  5
2E8
330
17
100
AcDbEntity
  8
4
100
AcDbLine
 10
190.9115453704533
 20
492.6314744473218
 30
0.0
 11
186.4115453704533
 21
492.6314744473218
 31
0.0
  0
ARC
  5
2E9
330
17
100
AcDbEntity
  8
4
100
AcDbCircle
 10
190.9115453704533
 20
494.6314754473217
 30
0.0
 40
1.9999995
100
AcDbArc
 50
270.0
 51
0.0
  0
ARC
  5
2EA
330
17
100
AcDbEntity
  8
4
100
AcDbCircle
 10
270.4115738704531
 20
435.6321194473219
 30
0.0
 40
1.0000005
100
AcDbArc
 50
359.9998459985447
 51
89.99984600000093
  0
LINE
  5
2EB
330
17
100
AcDbEntity
  8
4
100
AcDbLine
 10
267.4115768704532
 20
436.6321169473217
 30
0.0
 11
270.4115768704532
 21
436.6321214473217
 31
0.0
  0
ARC
  5
2EC
330
17
100
AcDbEntity
  8
4
 62
     3
100
AcDbCircle
 10
267.4115753704532
 20
435.6321194473219
 30
0.0
 40
1.0000005
100
AcDbArc
 50
89.99988399999943
 51
179.9998839998386
  0
ARC
  5
2ED
330
17
100
AcDbEntity
  8
4
100
AcDbCircle
 10
272.4115388704533
 20
422.6321189473215
 30
0.0
 40
1.0000005
100
AcDbArc
 50
180.0
 51
270.0
  0
ARC
  5
2EE
330
17
100
AcDbEntity
  8
4
100
AcDbCircle
 10
267.4115393704533
 20
417.6321194473219
 30
0.0
 40
1.0000005
100
AcDbArc
 50
179.9998839998386
 51
269.9998839999994
  0
LINE
  5
2EF
330
17
100
AcDbEntity
  8
4
100
AcDbLine
 10
266.4115388704533
 20
417.6321209473217
 30
0.0
 11
266.4115748704533
 21
435.6321209473217
 31
0.0
  0
LINE
  5
2F0
330
17
100
AcDbEntity
  8
4
100
AcDbLine
 10
271.4115368704533
 20
422.6321189473215
 30
0.0
 11
271.4115743704533
 21
435.632116447322
 31
0.0
  0
ARC
  5
2F1
330
17
100
AcDbEntity
  8
4
100
AcDbCircle
 10
206.6548853704533
 20
460.3748144473216
 30
0.0
 40
4.0000005
100
AcDbArc
 50
196.0729440000005
 51
253.9270559999999
  0
LINE
  5
2F2
330
17
100
AcDbEntity
  8
4
100
AcDbLine
 10
186.4115453704533
 20
408.6314744473218
 30
0.0
 11
186.4115453704533
 21
492.6314744473218
 31
0.0
  0
LINE
  5
2F3
330
17
100
AcDbEntity
  8
4
100
AcDbLine
 10
192.9115463704532
 20
409.6314749473217
 30
0.0
 11
192.9115463704532
 21
506.2355294473218
 31
0.0
  0
ARC
  5
2F4
330
17
100
AcDbEntity
  8
4
100
AcDbCircle
 10
296.9115458704532
 20
773.6314754473218
 30
0.0
 40
330.0
100
AcDbArc
 50
253.927056
 51
286.0734741062778
  0
LINE
  5
2F5
330
17
100
AcDbEntity
  8
4
100
AcDbLine
 10
267.4115363704532
 20
416.6321174473219
 30
0.0
 11
279.4115363704532
 21
416.6321189473215
 31
0.0
  0
LINE
  5
2F6
330
17
100
AcDbEntity
  8
4
100
AcDbLine
 10
272.4115388704533
 20
421.6321199473218
 30
0.0
 11
279.4115363704532
 21
421.6321199473218
 31
0.0
  0
ARC
  5
2F7
330
17
100
AcDbEntity
  8
4
100
AcDbCircle
 10
153.4115453704533
 20
497.4560849473216
 30
0.0
 40
4.0000005
100
AcDbArc
 50
103.1115560000001
 51
180.0
  0
LINE
  5
2F8
330
17
100
AcDbEntity
  8
L-CENTER
 48
5.0
100
AcDbLine
 10
169.9115453704533
 20
457.6878152358291
 30
0.0
 11
169.9115453704533
 21
493.5751346588144
 31
0.0
  0
CIRCLE
  5
2F9
330
17
100
AcDbEntity
  8
4
100
AcDbCircle
 10
169.9115453704533
 20
475.6314749473217
 30
0.0
 40
7.5
  0
LINE
  5
2FB
330
17
100
AcDbEntity
  8
4
100
AcDbLine
 10
149.4115463704532
 20
497.4560849473216
 30
0.0
 11
149.4115463704532
 21
463.1314744473218
 31
0.0
  0
LINE
  5
2FC
330
17
100
AcDbEntity
  8
L-CENTER
 48
5.0
100
AcDbLine
 10
187.8552050819459
 20
475.6314749473217
 30
0.0
 11
151.9678856589607
 21
475.6314749473217
 31
0.0
  0
LINE
  5
2FE
330
17
100
AcDbEntity
  8
4
100
AcDbLine
 10
152.504154870453
 20
501.351805447322
 30
0.0
 11
192.3447593704532
 21
510.6314744473218
 31
0.0
  0
LINE
  5
2FF
330
17
100
AcDbEntity
  8
L-CENTER
 48
5.0
100
AcDbLine
 10
484.1385912293331
 20
450.6314744473218
 30
0.0
 11
114.5648446090878
 21
450.6314744473218
 31
0.0
  0
LINE
  5
300
330
17
100
AcDbEntity
  8
4
100
AcDbLine
 10
407.4115463704532
 20
408.6314744473218
 30
0.0
 11
186.4115453704533
 21
408.6314744473218
 31
0.0
  0
LINE
  5
301
330
17
100
AcDbEntity
  8
L-CENTER
 48
5.0
100
AcDbLine
 10
296.9115458704532
 20
402.6787762015773
 30
0.0
 11
296.9115458704532
 21
670.7633400614455
 31
0.0
  0
ARC
  5
302
330
17
100
AcDbEntity
  8
4
100
AcDbCircle
 10
519.9115463704532
 20
550.6314749473217
 30
0.0
 40
330.0
100
AcDbArc
 50
163.927056
 51
196.072944
  0
LINE
  5
30E
330
17
100
AcDbEntity
  8
4
100
AcDbLine
 10
740.1300395760081
 20
213.4655846914408
 30
0.0
 11
740.1300395760081
 21
227.5655846914412
 31
0.0
  0
LINE
  5
311
330
17
100
AcDbEntity
  8
4
100
AcDbLine
 10
834.1300395760081
 20
140.0655846914412
 30
0.0
 11
839.1300395760081
 21
140.0655846914412
 31
0.0
  0
LINE
  5
312
330
17
100
AcDbEntity
  8
4
100
AcDbLine
 10
834.1300395760081
 20
125.0655846914412
 30
0.0
 11
839.1300395760081
 21
125.0655846914412
 31
0.0
  0
LINE
  5
315
330
17
100
AcDbEntity
  8
4
100
AcDbLine
 10
839.1300395760081
 20
147.5655846914412
 30
0.0
 11
839.1300395760081
 21
117.5655846914412
 31
0.0
  0
LINE
  5
316
330
17
100
AcDbEntity
  8
4
100
AcDbLine
 10
834.1300395760081
 20
147.5655846914412
 30
0.0
 11
834.1300395760081
 21
117.5655846914412
 31
0.0
  0
LINE
  5
31C
330
17
100
AcDbEntity
  8
4
100
AcDbLine
 10
832.6299420760081
 20
99.30362219144126
 30
0.0
 11
832.6299420760081
 21
85.82754719144123
 31
0.0
  0
LINE
  5
31D
330
17
100
AcDbEntity
  8
4
100
AcDbLine
 10
830.6300395760081
 20
150.5655846914415
 30
0.0
 11
829.6300395760081
 21
150.5655846914415
 31
0.0
  0
LINE
  5
31E
330
17
100
AcDbEntity
  8
4
100
AcDbLine
 10
832.1300395760081
 20
146.5655846914415
 30
0.0
 11
830.6300395760081
 21
146.5655846914415
 31
0.0
  0
LINE
  5
31F
330
17
100
AcDbEntity
  8
4
100
AcDbLine
 10
832.1300395760081
 20
118.565584691441
 30
0.0
 11
830.6300395760081
 21
118.565584691441
 31
0.0
  0
LINE
  5
320
330
17
100
AcDbEntity
  8
4
100
AcDbLine
 10
832.1300395760081
 20
147.5655846914412
 30
0.0
 11
832.1300395760081
 21
117.5655846914412
 31
0.0
  0
LINE
  5
321
330
17
100
AcDbEntity
  8
4
100
AcDbLine
 10
829.6300395760081
 20
82.56558469144125
 30
0.0
 11
830.6300395760081
 21
82.56558469144125
 31
0.0
  0
LINE
  5
322
330
17
100
AcDbEntity
  8
4
100
AcDbLine
 10
829.6300395760081
 20
75.56558469144147
 30
0.0
 11
822.6300395760081
 21
75.56558469144147
 31
0.0
  0
ARC
  5
323
330
17
100
AcDbEntity
  8
4
100
AcDbCircle
 10
820.6300395760081
 20
60.56558469144147
 30
0.0
 40
2.0
100
AcDbArc
 50
0.0
 51
90.0
  0
LINE
  5
324
330
17
100
AcDbEntity
  8
4
100
AcDbLine
 10
822.6300395760081
 20
75.56558469144147
 30
0.0
 11
822.6300395760081
 21
32.56558469144125
 31
0.0
  0
LINE
  5
325
330
17
100
AcDbEntity
  8
L-CENTER
 48
5.0
100
AcDbLine
 10
797.6300395760081
 20
72.56558469144125
 30
0.0
 11
797.6300395760081
 21
22.56558469144125
 31
0.0
  0
ARC
  5
326
330
17
100
AcDbEntity
  8
4
100
AcDbCircle
 10
764.630039576008
 20
60.56558469144147
 30
0.0
 40
2.0
100
AcDbArc
 50
90.0
 51
180.0
  0
ARC
  5
327
330
17
100
AcDbEntity
  8
4
100
AcDbCircle
 10
774.6300395760081
 20
60.56558469144147
 30
0.0
 40
2.0
100
AcDbArc
 50
90.0
 51
180.0
  0
ARC
  5
328
330
17
100
AcDbEntity
  8
4
100
AcDbCircle
 10
756.6300395760081
 20
63.56558469144102
 30
0.0
 40
6.0
100
AcDbArc
 50
0.0
 51
90.0
  0
LINE
  5
329
330
17
100
AcDbEntity
  8
4
100
AcDbLine
 10
762.6300395760081
 20
62.56558469144125
 30
0.0
 11
755.6300395760082
 21
55.56558469144147
 31
0.0
  0
LINE
  5
32A
330
17
100
AcDbEntity
  8
4
100
AcDbLine
 10
762.6300395760081
 20
63.56558469144102
 30
0.0
 11
762.6300395760081
 21
32.56558469144125
 31
0.0
  0
LINE
  5
32B
330
17
100
AcDbEntity
  8
4
100
AcDbLine
 10
772.6300395760081
 20
60.56558469144147
 30
0.0
 11
772.6300395760081
 21
32.56558469144125
 31
0.0
  0
LINE
  5
32C
330
17
100
AcDbEntity
  8
4
100
AcDbLine
 10
820.6300395760081
 20
62.56558469144125
 30
0.0
 11
764.630039576008
 21
62.56558469144125
 31
0.0
  0
LINE
  5
32D
330
17
100
AcDbEntity
  8
4
100
AcDbLine
 10
762.6300395760081
 20
32.56558469144125
 30
0.0
 11
822.6300395760081
 21
32.56558469144125
 31
0.0
  0
LINE
  5
32E
330
17
100
AcDbEntity
  8
4
100
AcDbLine
 10
830.6300395760081
 20
150.5655846914415
 30
0.0
 11
830.6300395760081
 21
82.56558469144125
 31
0.0
  0
LINE
  5
330
330
17
100
AcDbEntity
  8
4
100
AcDbLine
 10
832.1300395760081
 20
147.5655846914412
 30
0.0
 11
839.1300395760081
 21
147.5655846914412
 31
0.0
  0
LINE
  5
331
330
17
100
AcDbEntity
  8
4
100
AcDbLine
 10
839.1300395760081
 20
117.5655846914412
 30
0.0
 11
832.1300395760081
 21
117.5655846914412
 31
0.0
  0
LINE
  5
332
330
17
100
AcDbEntity
  8
4
100
AcDbLine
 10
830.6300395760081
 20
99.14126719144133
 30
0.0
 11
832.6299420760081
 21
99.30362219144126
 31
0.0
  0
LINE
  5
333
330
17
100
AcDbEntity
  8
4
100
AcDbLine
 10
830.6300395760081
 20
85.98989969144168
 30
0.0
 11
832.6299420760081
 21
85.82754719144123
 31
0.0
  0
LINE
  5
334
330
17
100
AcDbEntity
  8
L-CENTER
 48
5.0
100
AcDbLine
 10
834.479374576008
 20
92.56558469144125
 30
0.0
 11
820.5462995760081
 21
92.56558469144125
 31
0.0
  0
LINE
  5
336
330
17
100
AcDbEntity
  8
4
100
AcDbLine
 10
829.6300395760081
 20
75.56558469144147
 30
0.0
 11
829.6300395760081
 21
175.5655846914415
 31
0.0
  0
LINE
  5
33C
330
17
100
AcDbEntity
  8
4
100
AcDbLine
 10
739.630039576008
 20
227.5655846914412
 30
0.0
 11
739.630039576008
 21
286.5655846914415
 31
0.0
  0
LINE
  5
340
330
17
100
AcDbEntity
  8
4
100
AcDbLine
 10
706.6300395760081
 20
287.5655846914412
 30
0.0
 11
705.6300395760082
 21
286.5655846914415
 31
0.0
  0
LINE
  5
341
330
17
100
AcDbEntity
  8
4
100
AcDbLine
 10
738.6300395760081
 20
287.5655846914412
 30
0.0
 11
702.130039576008
 21
287.5655846914412
 31
0.0
  0
LINE
  5
342
330
17
100
AcDbEntity
  8
4
100
AcDbLine
 10
705.6300395760082
 20
286.5655846914415
 30
0.0
 11
722.6300395760081
 21
286.5655846914415
 31
0.0
  0
LINE
  5
34C
330
17
100
AcDbEntity
  8
4
100
AcDbLine
 10
702.130039576008
 20
232.5655846914412
 30
0.0
 11
705.6300395760082
 21
232.5655846914412
 31
0.0
  0
LINE
  5
34D
330
17
100
AcDbEntity
  8
4
100
AcDbLine
 10
705.1300395760081
 20
213.4655846914408
 30
0.0
 11
705.1300395760081
 21
227.5655846914412
 31
0.0
  0
LINE
  5
34E
330
17
100
AcDbEntity
  8
4
100
AcDbLine
 10
616.6300395760081
 20
175.5655846914415
 30
0.0
 11
616.6300395760081
 21
174.5055746914413
 31
0.0
  0
ARC
  5
34F
330
17
100
AcDbEntity
  8
4
100
AcDbCircle
 10
587.704747076008
 20
167.4908771914415
 30
0.0
 40
5.000005
100
AcDbArc
 50
96.80022000000018
 51
173.2025579999997
  0
ARC
  5
350
330
17
100
AcDbEntity
  8
4
100
AcDbCircle
 10
622.6302845760081
 20
-125.434415308559
 30
0.0
 40
300.0
100
AcDbArc
 50
90.000326
 51
96.80000900000003
  0
ARC
  5
351
330
17
100
AcDbEntity
  8
4
100
AcDbCircle
 10
680.6300395760082
 20
60.56558469144147
 30
0.0
 40
2.0
100
AcDbArc
 50
0.0
 51
90.0
  0
ARC
  5
352
330
17
100
AcDbEntity
  8
4
100
AcDbCircle
 10
688.6300395760081
 20
63.56558469144102
 30
0.0
 40
6.0
100
AcDbArc
 50
90.0
 51
180.0
  0
ARC
  5
353
330
17
100
AcDbEntity
  8
4
100
AcDbCircle
 10
670.6300395760082
 20
60.56558469144147
 30
0.0
 40
2.0
100
AcDbArc
 50
0.0
 51
90.0
  0
LINE
  5
354
330
17
100
AcDbEntity
  8
4
100
AcDbLine
 10
682.6300395760081
 20
62.56607219144098
 30
0.0
 11
689.6305270760082
 21
55.56558469144147
 31
0.0
  0
LINE
  5
355
330
17
100
AcDbEntity
  8
L-CENTER
 48
5.0
100
AcDbLine
 10
647.6300395760081
 20
72.56558469144125
 30
0.0
 11
647.6300395760081
 21
22.56558469144125
 31
0.0
  0
LINE
  5
356
330
17
100
AcDbEntity
  8
4
100
AcDbLine
 10
682.6300395760081
 20
63.56558469144102
 30
0.0
 11
682.6300395760081
 21
32.56558469144125
 31
0.0
  0
LINE
  5
357
330
17
100
AcDbEntity
  8
4
100
AcDbLine
 10
672.6300395760081
 20
60.56558469144147
 30
0.0
 11
672.6300395760081
 21
32.56558469144125
 31
0.0
  0
LINE
  5
358
330
17
100
AcDbEntity
  8
4
100
AcDbLine
 10
626.1300395760081
 20
141.065584691441
 30
0.0
 11
626.1300395760081
 21
148.0655846914415
 31
0.0
  0
LINE
  5
359
330
17
100
AcDbEntity
  8
4
100
AcDbLine
 10
619.1300395760081
 20
148.0655846914415
 30
0.0
 11
619.1300395760081
 21
141.065584691441
 31
0.0
  0
LINE
  5
35A
330
17
100
AcDbEntity
  8
4
100
AcDbLine
 10
626.1300395760081
 20
148.0655846914415
 30
0.0
 11
619.1300395760081
 21
148.0655846914415
 31
0.0
  0
LINE
  5
35B
330
17
100
AcDbEntity
  8
4
100
AcDbLine
 10
626.1300395760081
 20
141.065584691441
 30
0.0
 11
619.1300395760081
 21
141.065584691441
 31
0.0
  0
ARC
  5
35C
330
17
100
AcDbEntity
  8
4
100
AcDbCircle
 10
622.6300395760081
 20
132.5655846914412
 30
0.0
 40
12.5
100
AcDbArc
 50
106.2602049999999
 51
73.73979500000009
  0
ARC
  5
35D
330
17
100
AcDbEntity
  8
4
100
AcDbCircle
 10
587.704747076008
 20
97.64053469144119
 30
0.0
 40
5.000020000000001
100
AcDbArc
 50
186.8002180000003
 51
263.1997819999998
  0
ARC
  5
35E
330
17
100
AcDbEntity
  8
4
100
AcDbCircle
 10
622.6302845760081
 20
390.5658296914412
 30
0.0
 40
300.0000325
100
AcDbArc
 50
263.201402
 51
269.061488
  0
ARC
  5
35F
330
17
100
AcDbEntity
  8
4
100
AcDbCircle
 10
624.630039576008
 20
60.56558469144147
 30
0.0
 40
2.0
100
AcDbArc
 50
90.0
 51
180.0
  0
LINE
  5
360
330
17
100
AcDbEntity
  8
4
100
AcDbLine
 10
622.6300395760081
 20
85.60659969144126
 30
0.0
 11
622.6300395760081
 21
32.56558469144125
 31
0.0
  0
ARC
  5
361
330
17
100
AcDbEntity
  8
4
100
AcDbCircle
 10
617.6300395760081
 20
85.60659969144126
 30
0.0
 40
4.99997
100
AcDbArc
 50
0.0
 51
89.05994100000018
  0
LINE
  5
362
330
17
100
AcDbEntity
  8
4
100
AcDbLine
 10
624.630039576008
 20
62.56558469144125
 30
0.0
 11
680.6300395760082
 21
62.56558469144125
 31
0.0
  0
LINE
  5
363
330
17
100
AcDbEntity
  8
4
100
AcDbLine
 10
622.6300395760081
 20
32.56558469144125
 30
0.0
 11
682.6300395760081
 21
32.56558469144125
 31
0.0
  0
CIRCLE
  5
364
330
17
100
AcDbEntity
  8
4
100
AcDbCircle
 10
622.6300395760081
 20
132.5655846914412
 30
0.0
 40
32.5
  0
LINE
  5
365
330
17
100
AcDbEntity
  8
L-CENTER
 48
5.0
100
AcDbLine
 10
622.6300395760081
 20
180.8077721914412
 30
0.0
 11
622.6300395760081
 21
84.32339719144125
 31
0.0
  0
ARC
  5
366
330
17
100
AcDbEntity
  8
4
100
AcDbCircle
 10
880.6300395760081
 20
132.5655846914412
 30
0.0
 40
299.9999675
100
AcDbArc
 50
173.2015870000001
 51
186.799917
  0
CIRCLE
  5
367
330
17
100
AcDbEntity
  8
4
100
AcDbCircle
 10
622.6300395760081
 20
132.5655846914412
 30
0.0
 40
42.0
  0
LINE
  5
36F
330
17
100
AcDbEntity
  8
4
100
AcDbLine
 10
475.9115458704532
 20
145.0655846914412
 30
0.0
 11
476.9115458704532
 21
144.0655846914415
 31
0.0
  0
LINE
  5
370
330
17
100
AcDbEntity
  8
4
100
AcDbLine
 10
476.9115458704532
 20
121.065584691441
 30
0.0
 11
475.9115458704532
 21
120.0655846914412
 31
0.0
  0
LINE
  5
371
330
17
100
AcDbEntity
  8
4
100
AcDbLine
 10
475.9115458704532
 20
145.0655846914412
 30
0.0
 11
475.9115458704532
 21
120.0655846914412
 31
0.0
  0
LINE
  5
372
330
17
100
AcDbEntity
  8
4
100
AcDbLine
 10
476.9115458704532
 20
121.065584691441
 30
0.0
 11
476.9115458704532
 21
148.0655846914415
 31
0.0
  0
LINE
  5
373
330
17
100
AcDbEntity
  8
4
100
AcDbLine
 10
431.9115458704532
 20
145.0655846914412
 30
0.0
 11
431.9115458704532
 21
148.0655846914415
 31
0.0
  0
LINE
  5
374
330
17
100
AcDbEntity
  8
4
100
AcDbLine
 10
426.9115458704532
 20
147.5655846914412
 30
0.0
 11
426.9115458704532
 21
117.5655846914412
 31
0.0
  0
LINE
  5
375
330
17
100
AcDbEntity
  8
4
100
AcDbLine
 10
426.9115458704532
 20
120.0655846914412
 30
0.0
 11
475.9115458704532
 21
120.0655846914412
 31
0.0
  0
LINE
  5
376
330
17
100
AcDbEntity
  8
4
100
AcDbLine
 10
426.9115458704532
 20
145.0655846914412
 30
0.0
 11
475.9115458704532
 21
145.0655846914412
 31
0.0
  0
LINE
  5
377
330
17
100
AcDbEntity
  8
4
100
AcDbLine
 10
476.9115458704532
 20
148.0655846914415
 30
0.0
 11
431.9115458704532
 21
148.0655846914415
 31
0.0
  0
ARC
  5
37C
330
17
100
AcDbEntity
  8
4
100
AcDbCircle
 10
442.4115458704533
 20
60.56558469144147
 30
0.0
 40
2.0
100
AcDbArc
 50
0.0
 51
90.0
  0
LINE
  5
37E
330
17
100
AcDbEntity
  8
4
100
AcDbLine
 10
444.4115458704532
 20
60.56558469144147
 30
0.0
 11
444.4115458704532
 21
32.56558469144125
 31
0.0
  0
LINE
  5
37F
330
17
100
AcDbEntity
  8
L-CENTER
 48
5.0
100
AcDbLine
 10
423.9115458704531
 20
22.56558469144125
 30
0.0
 11
423.9115458704531
 21
72.56558469144125
 31
0.0
  0
LINE
  5
380
330
17
100
AcDbEntity
  8
4
100
AcDbLine
 10
416.4115458704531
 20
62.56558469144125
 30
0.0
 11
416.4115458704531
 21
32.56558469144125
 31
0.0
  0
LINE
  5
381
330
17
100
AcDbEntity
  8
4
100
AcDbLine
 10
431.4115458704531
 20
62.56558469144125
 30
0.0
 11
431.4115458704531
 21
32.56558469144125
 31
0.0
  0
LINE
  5
38A
330
17
100
AcDbEntity
  8
4
100
AcDbLine
 10
705.6300395760082
 20
227.5655846914412
 30
0.0
 11
705.6300395760082
 21
286.5655846914415
 31
0.0
  0
LINE
  5
38B
330
17
100
AcDbEntity
  8
4
100
AcDbLine
 10
702.130039576008
 20
232.5655846914412
 30
0.0
 11
702.130039576008
 21
287.5655846914412
 31
0.0
  0
LINE
  5
38C
330
17
100
AcDbEntity
  8
L-CENTER
 48
5.0
100
AcDbLine
 10
722.6300395760081
 20
50.95261677289653
 30
0.0
 11
722.6300395760081
 21
289.7559273433319
 31
0.0
  0
LINE
  5
38E
330
17
100
AcDbEntity
  8
4
100
AcDbLine
 10
738.6300395760081
 20
287.5655846914412
 30
0.0
 11
739.630039576008
 21
286.5655846914415
 31
0.0
  0
LINE
  5
38F
330
17
100
AcDbEntity
  8
4
100
AcDbLine
 10
739.630039576008
 20
286.5655846914415
 30
0.0
 11
722.6300395760081
 21
286.5655846914415
 31
0.0
  0
LINE
  5
390
330
17
100
AcDbEntity
  8
4
100
AcDbLine
 10
740.1300395760081
 20
227.5655846914412
 30
0.0
 11
705.1300395760081
 21
227.5655846914412
 31
0.0
  0
LINE
  5
391
330
17
100
AcDbEntity
  8
4
100
AcDbLine
 10
616.6300395760081
 20
175.5655846914415
 30
0.0
 11
829.6300395760081
 21
175.5655846914415
 31
0.0
  0
LINE
  5
392
330
17
100
AcDbEntity
  8
L-CENTER
 48
5.0
100
AcDbLine
 10
843.6026945760082
 20
132.5655846914412
 30
0.0
 11
574.3878520760081
 21
132.5655846914412
 31
0.0
  0
LINE
  5
393
330
17
100
AcDbEntity
  8
4
100
AcDbLine
 10
622.6300395760081
 20
174.565584691441
 30
0.0
 11
829.6300395760081
 21
174.565584691441
 31
0.0
  0
LINE
  5
394
330
17
100
AcDbEntity
  8
4
100
AcDbLine
 10
756.6300395760081
 20
69.56558469144102
 30
0.0
 11
688.6300395760081
 21
69.56558469144102
 31
0.0
  0
LINE
  5
395
330
17
100
AcDbEntity
  8
4
100
AcDbLine
 10
762.2868945760082
 20
65.56558469144147
 30
0.0
 11
682.9731845760081
 21
65.56558469144147
 31
0.0
  0
LINE
  5
396
330
17
100
AcDbEntity
  8
4
100
AcDbLine
 10
689.630039576008
 20
55.56558469144147
 30
0.0
 11
755.6300395760082
 21
55.56558469144147
 31
0.0
  0
TEXT
  5
39F
330
17
100
AcDbEntity
  8
3
  6
Continuous
100
AcDbText
 10
503.3317000191416
 20
18.64986194764748
 30
0.0
 40
7.4999998125
  1
LC4-04
  7
KANJI
 72
     1
 11
523.9566995035166
 21
18.64986194764748
 31
0.0
100
AcDbText
  0
LINE
  5
3AE
330
17
100
AcDbEntity
  8
4
100
AcDbLine
 10
312.9115458704532
 20
287.5655846914412
 30
0.0
 11
313.9115458704531
 21
286.5655846914415
 31
0.0
  0
LINE
  5
3AF
330
17
100
AcDbEntity
  8
4
100
AcDbLine
 10
313.9115458704531
 20
286.5655846914415
 30
0.0
 11
301.9115458704532
 21
286.5655846914415
 31
0.0
  0
LINE
  5
3B1
330
17
100
AcDbEntity
  8
4
100
AcDbLine
 10
280.9115458704533
 20
287.5655846914412
 30
0.0
 11
279.9115458704533
 21
286.5655846914415
 31
0.0
  0
LINE
  5
3B2
330
17
100
AcDbEntity
  8
4
100
AcDbLine
 10
279.9115458704533
 20
286.5655846914415
 30
0.0
 11
291.9115458704532
 21
286.5655846914415
 31
0.0
  0
LINE
  5
3B3
330
17
100
AcDbEntity
  8
4
100
AcDbLine
 10
312.9115458704532
 20
287.5655846914412
 30
0.0
 11
280.9115458704533
 21
287.5655846914412
 31
0.0
  0
LINE
  5
3BA
330
17
100
AcDbEntity
  8
4
100
AcDbLine
 10
402.9115458704532
 20
175.5655846914415
 30
0.0
 11
402.9115458704532
 21
174.565584691441
 31
0.0
  0
LINE
  5
3BB
330
17
100
AcDbEntity
  8
4
100
AcDbLine
 10
321.9115458704532
 20
212.4655846914413
 30
0.0
 11
321.9115458704532
 21
213.4655846914408
 31
0.0
  0
LINE
  5
3BC
330
17
100
AcDbEntity
  8
4
100
AcDbLine
 10
339.1125138506916
 20
211.7287020972334
 30
0.0
 11
341.6112252471275
 21
202.5667603103026
 31
0.0
  0
ARC
  5
3BD
330
17
100
AcDbEntity
  8
4
100
AcDbCircle
 10
296.9115458704532
 20
237.5655846914412
 30
0.0
 40
5.0
100
AcDbArc
 50
180.0
 51
0.0
  0
LINE
  5
3BE
330
17
100
AcDbEntity
  8
4
100
AcDbLine
 10
314.4115458704532
 20
227.5655846914412
 30
0.0
 11
279.4115458704532
 21
227.5655846914412
 31
0.0
  0
LINE
  5
3BF
330
17
100
AcDbEntity
  8
4
100
AcDbLine
 10
271.9115458704532
 20
212.4655846914413
 30
0.0
 11
271.9115458704532
 21
213.4655846914408
 31
0.0
  0
LINE
  5
3C0
330
17
100
AcDbEntity
  8
4
100
AcDbLine
 10
254.7105778902148
 20
211.7287020972334
 30
0.0
 11
252.2118664937789
 21
202.5667603103026
 31
0.0
  0
LINE
  5
3C1
330
17
100
AcDbEntity
  8
4
100
AcDbLine
 10
238.1615458704532
 20
203.4655846914408
 30
0.0
 11
238.1615458704532
 21
207.4655846914413
 31
0.0
  0
LINE
  5
3C2
330
17
100
AcDbEntity
  8
4
100
AcDbLine
 10
243.4115458704533
 20
200.5928224345139
 30
0.0
 11
243.4115458704533
 21
201.4655846914417
 31
0.0
  0
LINE
  5
3C3
330
17
100
AcDbEntity
  8
4
100
AcDbLine
 10
244.4115458704532
 20
207.4655846914413
 30
0.0
 11
244.4115458704532
 21
201.4655846914417
 31
0.0
  0
LINE
  5
3C4
330
17
100
AcDbEntity
  8
L-CENTER
 48
5.0
100
AcDbLine
 10
231.9115458704532
 20
210.918559691441
 30
0.0
 11
231.9115458704532
 21
187.077402191441
 31
0.0
  0
LINE
  5
3C5
330
17
100
AcDbEntity
  8
4
100
AcDbLine
 10
271.9115458704532
 20
201.4655846914417
 30
0.0
 11
251.9115458704532
 21
201.4655846914417
 31
0.0
  0
LINE
  5
3C6
330
17
100
AcDbEntity
  8
4
100
AcDbLine
 10
341.9115458704532
 20
201.4655846914417
 30
0.0
 11
321.9115458704532
 21
201.4655846914417
 31
0.0
  0
LINE
  5
3C7
330
17
100
AcDbEntity
  8
4
100
AcDbLine
 10
279.4115458704532
 20
213.4655846914408
 30
0.0
 11
279.4115458704532
 21
227.5655846914412
 31
0.0
  0
LINE
  5
3C8
330
17
100
AcDbEntity
  8
4
100
AcDbLine
 10
314.4115458704532
 20
213.4655846914408
 30
0.0
 11
314.4115458704532
 21
227.5655846914412
 31
0.0
  0
LINE
  5
3CA
330
17
100
AcDbEntity
  8
4
100
AcDbLine
 10
271.9115458704532
 20
213.4655846914408
 30
0.0
 11
321.9115458704532
 21
213.4655846914408
 31
0.0
  0
LINE
  5
3CB
330
17
100
AcDbEntity
  8
4
100
AcDbLine
 10
255.6753417114525
 20
212.4655846914413
 30
0.0
 11
338.1477500294539
 21
212.4655846914413
 31
0.0
  0
ARC
  5
3CC
330
17
100
AcDbEntity
  8
4
100
AcDbCircle
 10
406.9115458704532
 20
67.56558469144125
 30
0.0
 40
5.0
100
AcDbArc
 50
180.0
 51
270.0027959999998
  0
LWPOLYLINE
  5
3CD
330
17
100
AcDbEntity
  8
4
100
AcDbPolyline
 90
       30
 70
     0
 43
0.0
 10
399.8527320582628
 20
62.48615969144112
 10
400.4094820582629
 20
62.05700719144079
 10
400.9422470582629
 20
61.62583219144108
 10
401.4270420582631
 20
61.19061469144117
 10
401.839882058263
 20
60.74933469144116
 10
402.1567845582629
 20
60.29996969144122
 10
402.353762058263
 20
59.84049469144111
 10
402.4129345582629
 20
59.33145719144136
 10
402.3268945582629
 20
58.80912969144174
 10
402.1180770582629
 20
58.27434469144123
 10
400.9793495582631
 20
56.60363969144146
 10
399.5433970582628
 20
54.85098469144123
 10
399.1034070582629
 20
54.25246219144128
 10
398.7201420582631
 20
53.64818469144166
 10
398.4160420582629
 20
53.03898469144133
 10
398.1504845582629
 20
52.17191719144125
 10
398.0639445582629
 20
51.29781219144161
 10
398.1329145582629
 20
50.41776969144121
 10
399.0377820582628
 20
47.75298969144114
 10
400.495887058263
 20
45.07431719144097
 10
401.8724695582628
 20
42.41142219144149
 10
402.203502058263
 20
41.53242219144158
 10
402.431437058263
 20
40.65957219144138
 10
402.532767058263
 20
39.79396969144136
 10
402.435967058263
 20
38.59479719144133
 10
402.0937120582631
 20
37.40927219144123
 10
401.5550970582629
 20
36.2346621914412
 10
400.8692120582629
 20
35.06823969144125
 10
400.0851420582629
 20
33.90727719144138
 10
399.2519845582629
 20
32.74904469144121
  0
ARC
  5
3CE
330
17
100
AcDbEntity
  8
4
100
AcDbCircle
 10
348.9115458704531
 20
60.56558469144147
 30
0.0
 40
2.0
100
AcDbArc
 50
90.0
 51
180.0
  0
LINE
  5
3CF
330
17
100
AcDbEntity
  8
4
100
AcDbLine
 10
339.9115458704533
 20
69.56558469144102
 30
0.0
 11
339.9115458704533
 21
65.56558469144147
 31
0.0
  0
ARC
  5
3D0
330
17
100
AcDbEntity
  8
4
100
AcDbCircle
 10
340.9115458704532
 20
63.56558469144102
 30
0.0
 40
6.0
100
AcDbArc
 50
0.0
 51
90.0
  0
LINE
  5
3D1
330
17
100
AcDbEntity
  8
4
100
AcDbLine
 10
339.9115458704533
 20
65.56558469144147
 30
0.0
 11
329.9115458704533
 21
55.56558469144147
 31
0.0
  0
LINE
  5
3D2
330
17
100
AcDbEntity
  8
4
100
AcDbLine
 10
346.9115458704532
 20
63.56558469144102
 30
0.0
 11
346.9115458704532
 21
32.56558469144125
 31
0.0
  0
LINE
  5
3D3
330
17
100
AcDbEntity
  8
4
100
AcDbLine
 10
401.9115458704532
 20
90.56558469144147
 30
0.0
 11
401.9115458704532
 21
67.56558469144125
 31
0.0
  0
LINE
  5
3D4
330
17
100
AcDbEntity
  8
4
100
AcDbLine
 10
253.9115458704531
 20
69.56558469144102
 30
0.0
 11
253.9115458704531
 21
65.56558469144147
 31
0.0
  0
ARC
  5
3D5
330
17
100
AcDbEntity
  8
4
100
AcDbCircle
 10
244.9115458704533
 20
60.56558469144147
 30
0.0
 40
2.0
100
AcDbArc
 50
0.0
 51
90.0
  0
ARC
  5
3D6
330
17
100
AcDbEntity
  8
4
100
AcDbCircle
 10
252.9115458704532
 20
63.56558469144102
 30
0.0
 40
6.0
100
AcDbArc
 50
90.0
 51
180.0
  0
LINE
  5
3D7
330
17
100
AcDbEntity
  8
4
100
AcDbLine
 10
253.9120333704533
 20
65.56558469144147
 30
0.0
 11
263.9120333704533
 21
55.56558469144147
 31
0.0
  0
LINE
  5
3D8
330
17
100
AcDbEntity
  8
4
100
AcDbLine
 10
246.9115458704532
 20
63.56558469144102
 30
0.0
 11
246.9115458704532
 21
32.56558469144125
 31
0.0
  0
LINE
  5
3D9
330
17
100
AcDbEntity
  8
4
100
AcDbLine
 10
339.9115458704533
 20
65.56558469144147
 30
0.0
 11
253.9115458704531
 21
65.56558469144147
 31
0.0
  0
LINE
  5
3DA
330
17
100
AcDbEntity
  8
4
100
AcDbLine
 10
263.9115458704531
 20
55.56558469144147
 30
0.0
 11
329.9115458704533
 21
55.56558469144147
 31
0.0
  0
LINE
  5
3DB
330
17
100
AcDbEntity
  8
4
100
AcDbLine
 10
340.9115458704532
 20
69.56558469144102
 30
0.0
 11
252.9115458704532
 21
69.56558469144102
 31
0.0
  0
LINE
  5
3DC
330
17
100
AcDbEntity
  8
4
100
AcDbLine
 10
400.911300870453
 20
90.56558469144147
 30
0.0
 11
400.911300870453
 21
174.565584691441
 31
0.0
  0
LINE
  5
3DD
330
17
100
AcDbEntity
  8
4
100
AcDbLine
 10
407.4115458704533
 20
90.56558469144147
 30
0.0
 11
407.4115458704533
 21
174.565584691441
 31
0.0
  0
LINE
  5
3DE
330
17
100
AcDbEntity
  8
4
100
AcDbLine
 10
225.6615458704532
 20
203.4655846914408
 30
0.0
 11
225.6615458704532
 21
207.4655846914413
 31
0.0
  0
LINE
  5
3DF
330
17
100
AcDbEntity
  8
4
100
AcDbLine
 10
220.4115458704532
 20
199.9655846914413
 30
0.0
 11
220.4115458704532
 21
201.4655846914417
 31
0.0
  0
LINE
  5
3E0
330
17
100
AcDbEntity
  8
4
100
AcDbLine
 10
217.9115458704532
 20
193.608039825818
 30
0.0
 11
217.9115458704532
 21
199.9655846914413
 31
0.0
  0
LINE
  5
3E1
330
17
100
AcDbEntity
  8
4
100
AcDbLine
 10
219.4115458704532
 20
201.4655846914417
 30
0.0
 11
219.4115458704532
 21
207.4655846914413
 31
0.0
  0
LINE
  5
3E2
330
17
100
AcDbEntity
  8
4
100
AcDbLine
 10
190.9115458704533
 20
175.5655846914415
 30
0.0
 11
190.9115458704533
 21
174.565584691441
 31
0.0
  0
LINE
  5
3E3
330
17
100
AcDbEntity
  8
4
100
AcDbLine
 10
186.411590870453
 20
163.565584691441
 30
0.0
 11
184.4115908704531
 21
163.565584691441
 31
0.0
  0
LINE
  5
3E4
330
17
100
AcDbEntity
  8
4
100
AcDbLine
 10
186.411590870453
 20
101.5655846914415
 30
0.0
 11
184.4115908704531
 21
101.5655846914415
 31
0.0
  0
ARC
  5
3E5
330
17
100
AcDbEntity
  8
4
100
AcDbCircle
 10
186.9116208704533
 20
67.56558469144125
 30
0.0
 40
5.0
100
AcDbArc
 50
270.00157
 51
0.0
  0
ARC
  5
3E6
330
17
100
AcDbEntity
  8
4
100
AcDbCircle
 10
151.4116208704532
 20
60.56558469144147
 30
0.0
 40
2.0
100
AcDbArc
 50
90.0
 51
180.0
  0
LINE
  5
3E7
330
17
100
AcDbEntity
  8
4
100
AcDbLine
 10
149.4116208704533
 20
60.56558469144147
 30
0.0
 11
149.4116208704533
 21
32.56558469144125
 31
0.0
  0
LINE
  5
3E8
330
17
100
AcDbEntity
  8
L-CENTER
 48
5.0
100
AcDbLine
 10
169.9115458704532
 20
72.56558469144125
 30
0.0
 11
169.9115458704532
 21
22.56558469144125
 31
0.0
  0
LINE
  5
3E9
330
17
100
AcDbEntity
  8
4
100
AcDbLine
 10
191.9116208704533
 20
90.56558469144147
 30
0.0
 11
191.9116208704533
 21
67.56558469144125
 31
0.0
  0
LINE
  5
3EA
330
17
100
AcDbEntity
  8
4
100
AcDbLine
 10
192.9117908704531
 20
90.56558469144147
 30
0.0
 11
192.9117908704531
 21
174.565584691441
 31
0.0
  0
LINE
  5
3EB
330
17
100
AcDbEntity
  8
4
100
AcDbLine
 10
186.411590870453
 20
90.56558469144147
 30
0.0
 11
186.411590870453
 21
174.565584691441
 31
0.0
  0
LINE
  5
3EC
330
17
100
AcDbEntity
  8
4
100
AcDbLine
 10
184.4115908704531
 20
101.5655846914415
 30
0.0
 11
184.4115908704531
 21
163.565584691441
 31
0.0
  0
LINE
  5
3ED
330
17
100
AcDbEntity
  8
4
100
AcDbLine
 10
217.9115458704532
 20
199.9655846914413
 30
0.0
 11
241.1216303005054
 21
199.9655846914413
 31
0.0
  0
LINE
  5
3EE
330
17
100
AcDbEntity
  8
4
100
AcDbLine
 10
219.4115458704532
 20
201.4655846914417
 30
0.0
 11
244.4115458704532
 21
201.4655846914417
 31
0.0
  0
LINE
  5
3EF
330
17
100
AcDbEntity
  8
4
100
AcDbLine
 10
219.4115458704532
 20
203.4655846914408
 30
0.0
 11
244.4115458704532
 21
203.4655846914408
 31
0.0
  0
LINE
  5
3F0
330
17
100
AcDbEntity
  8
4
100
AcDbLine
 10
219.4115458704532
 20
207.4655846914413
 30
0.0
 11
244.4115458704532
 21
207.4655846914413
 31
0.0
  0
LINE
  5
3F1
330
17
100
AcDbEntity
  8
4
100
AcDbLine
 10
186.4115908704531
 20
174.565584691441
 30
0.0
 11
407.4115458704533
 21
174.565584691441
 31
0.0
  0
LINE
  5
3F2
330
17
100
AcDbEntity
  8
4
100
AcDbLine
 10
190.9115458704533
 20
175.5655846914415
 30
0.0
 11
402.9115458704532
 21
175.5655846914415
 31
0.0
  0
LINE
  5
3F3
330
17
100
AcDbEntity
  8
4
100
AcDbLine
 10
149.4116208704533
 20
32.56558469144125
 30
0.0
 11
246.9115458704532
 21
32.56558469144125
 31
0.0
  0
LINE
  5
3F4
330
17
100
AcDbEntity
  8
4
100
AcDbLine
 10
244.9115458704533
 20
62.56558469144125
 30
0.0
 11
151.4116208704532
 21
62.56558469144125
 31
0.0
  0
LINE
  5
3F5
330
17
100
AcDbEntity
  8
4
100
AcDbLine
 10
407.4115458704533
 20
90.56558469144147
 30
0.0
 11
186.4115908704531
 21
90.56558469144147
 31
0.0
  0
LINE
  5
3F8
330
17
100
AcDbEntity
  8
4
100
AcDbLine
 10
291.9115458704532
 20
237.5655846914412
 30
0.0
 11
291.9115458704532
 21
287.5655846914412
 31
0.0
  0
LINE
  5
3F9
330
17
100
AcDbEntity
  8
4
100
AcDbLine
 10
301.9115458704532
 20
237.5655846914412
 30
0.0
 11
301.9115458704532
 21
287.5655846914412
 31
0.0
  0
LINE
  5
3FA
330
17
100
AcDbEntity
  8
4
100
AcDbLine
 10
279.9115458704533
 20
227.5655846914412
 30
0.0
 11
279.9115458704533
 21
286.5655846914415
 31
0.0
  0
LINE
  5
3FB
330
17
100
AcDbEntity
  8
4
100
AcDbLine
 10
313.9115458704531
 20
227.5655846914412
 30
0.0
 11
313.9115458704531
 21
286.5655846914415
 31
0.0
  0
LINE
  5
3FC
330
17
100
AcDbEntity
  8
4
 48
5.0
100
AcDbLine
 10
401.9115458704532
 20
190.8655846914413
 30
0.0
 11
401.9115458704532
 21
175.5655846914415
 31
0.0
  0
LINE
  5
3FD
330
17
100
AcDbEntity
  8
4
 48
5.0
100
AcDbLine
 10
191.9115458704532
 20
190.8655846914413
 30
0.0
 11
191.9115458704532
 21
175.5655846914415
 31
0.0
  0
LINE
  5
3FE
330
17
100
AcDbEntity
  8
4
 48
5.0
100
AcDbLine
 10
271.9115458704532
 20
203.0385925897642
 30
0.0
 11
271.9115458704532
 21
201.4655846914417
 31
0.0
  0
LINE
  5
3FF
330
17
100
AcDbEntity
  8
L-CENTER
 48
5.0
100
AcDbLine
 10
296.9115458704532
 20
291.8903765578261
 30
0.0
 11
296.9115458704532
 21
50.90122527992776
 31
0.0
  0
LINE
  5
442
330
17
100
AcDbEntity
  8
4
100
AcDbLine
 10
409.4115008704533
 20
147.5655846914412
 30
0.0
 11
426.9115458704532
 21
147.5655846914412
 31
0.0
  0
LINE
  5
443
330
17
100
AcDbEntity
  8
4
100
AcDbLine
 10
409.4115008704533
 20
117.5655846914412
 30
0.0
 11
426.9115458704532
 21
117.5655846914412
 31
0.0
  0
LINE
  5
444
330
17
100
AcDbEntity
  8
4
 48
5.0
100
AcDbLine
 10
400.9115458704532
 20
191.8655846914413
 30
0.0
 11
192.9115458704532
 21
191.8655846914413
 31
0.0
  0
LINE
  5
445
330
17
100
AcDbEntity
  8
4
 48
5.0
100
AcDbLine
 10
401.9115458704532
 20
180.8655846914413
 30
0.0
 11
191.9115458704532
 21
180.8655846914413
 31
0.0
  0
LINE
  5
446
330
17
100
AcDbEntity
  8
4
 48
5.0
100
AcDbLine
 10
401.9115458704532
 20
180.5655846914412
 30
0.0
 11
191.9115458704532
 21
180.5655846914412
 31
0.0
  0
LINE
  5
447
330
17
100
AcDbEntity
  8
L-CENTER
 48
5.0
100
AcDbLine
 10
481.1000208704531
 20
132.5655846914412
 30
0.0
 11
112.5611824888047
 21
132.5655846914412
 31
0.0
  0
LINE
  5
448
330
17
100
AcDbEntity
  8
4
100
AcDbLine
 10
346.9115458704532
 20
32.56558469144125
 30
0.0
 11
444.4115458704532
 21
32.56558469144125
 31
0.0
  0
LINE
  5
449
330
17
100
AcDbEntity
  8
4
100
AcDbLine
 10
442.4115458704533
 20
62.56558469144125
 30
0.0
 11
348.9115458704531
 21
62.56558469144125
 31
0.0
  0
LINE
  5
46C
330
17
100
AcDbEntity
  8
4
100
AcDbLine
 10
184.411590870453
 20
117.5655846914412
 30
0.0
 11
166.9115458704531
 21
117.5655846914412
 31
0.0
  0
LINE
  5
46D
330
17
100
AcDbEntity
  8
4
100
AcDbLine
 10
184.411590870453
 20
147.5655846914412
 30
0.0
 11
166.9115458704531
 21
147.5655846914412
 31
0.0
  0
LINE
  5
46E
330
17
100
AcDbEntity
  8
4
100
AcDbLine
 10
116.9115458704531
 20
148.0655846914415
 30
0.0
 11
161.9115458704531
 21
148.0655846914415
 31
0.0
  0
LINE
  5
46F
330
17
100
AcDbEntity
  8
4
100
AcDbLine
 10
166.9115458704531
 20
145.0655846914412
 30
0.0
 11
117.9115458704531
 21
145.0655846914412
 31
0.0
  0
LINE
  5
470
330
17
100
AcDbEntity
  8
4
100
AcDbLine
 10
166.9115458704531
 20
120.0655846914412
 30
0.0
 11
117.9115458704531
 21
120.0655846914412
 31
0.0
  0
LINE
  5
471
330
17
100
AcDbEntity
  8
4
100
AcDbLine
 10
166.9115458704531
 20
147.5655846914412
 30
0.0
 11
166.9115458704531
 21
117.5655846914412
 31
0.0
  0
LINE
  5
472
330
17
100
AcDbEntity
  8
4
100
AcDbLine
 10
161.9115458704531
 20
145.0655846914412
 30
0.0
 11
161.9115458704531
 21
148.0655846914415
 31
0.0
  0
LINE
  5
473
330
17
100
AcDbEntity
  8
4
100
AcDbLine
 10
116.9115458704531
 20
121.065584691441
 30
0.0
 11
116.9115458704531
 21
148.0655846914415
 31
0.0
  0
LINE
  5
474
330
17
100
AcDbEntity
  8
4
100
AcDbLine
 10
117.9115458704531
 20
145.0655846914412
 30
0.0
 11
117.9115458704531
 21
120.0655846914412
 31
0.0
  0
LINE
  5
475
330
17
100
AcDbEntity
  8
4
100
AcDbLine
 10
116.9115458704531
 20
121.065584691441
 30
0.0
 11
117.9115458704531
 21
120.0655846914412
 31
0.0
  0
LINE
  5
476
330
17
100
AcDbEntity
  8
4
100
AcDbLine
 10
117.9115458704531
 20
145.0655846914412
 30
0.0
 11
116.9115458704531
 21
144.0655846914415
 31
0.0
  0
LINE
  5
48D
330
17
100
AcDbEntity
  8
4
100
AcDbLine
 10
158.4115458704532
 20
447.1314744473218
 30
0.0
 11
116.9115458704532
 21
447.1314744473218
 31
0.0
  0
LINE
  5
48E
330
17
100
AcDbEntity
  8
4
100
AcDbLine
 10
158.4115458704532
 20
454.1314744473218
 30
0.0
 11
116.9115458704532
 21
454.1314744473218
 31
0.0
  0
LINE
  5
48F
330
17
100
AcDbEntity
  8
4
100
AcDbLine
 10
165.9115458704532
 20
438.1314744473218
 30
0.0
 11
117.9115458704532
 21
438.1314744473218
 31
0.0
  0
LINE
  5
490
330
17
100
AcDbEntity
  8
4
100
AcDbLine
 10
165.9115458704532
 20
463.1314744473218
 30
0.0
 11
117.9115458704532
 21
463.1314744473218
 31
0.0
  0
LINE
  5
491
330
17
100
AcDbEntity
  8
4
100
AcDbLine
 10
166.9115458704532
 20
465.6314744473218
 30
0.0
 11
166.9115458704532
 21
435.6314744473218
 31
0.0
  0
ARC
  5
492
330
17
100
AcDbEntity
  8
4
100
AcDbCircle
 10
158.4115458704532
 20
450.6314744473218
 30
0.0
 40
3.5
100
AcDbArc
 50
270.0
 51
90.0
  0
ARC
  5
493
330
17
100
AcDbEntity
  8
4
100
AcDbCircle
 10
165.9115458704532
 20
437.1314744473218
 30
0.0
 40
1.0
100
AcDbArc
 50
0.0
 51
90.0
  0
ARC
  5
494
330
17
100
AcDbEntity
  8
4
100
AcDbCircle
 10
165.9115458704532
 20
464.1314744473218
 30
0.0
 40
1.0
100
AcDbArc
 50
270.0
 51
0.0
  0
LINE
  5
495
330
17
100
AcDbEntity
  8
4
100
AcDbLine
 10
116.9115458704532
 20
462.1314744473218
 30
0.0
 11
116.9115458704532
 21
439.1314744473218
 31
0.0
  0
LINE
  5
496
330
17
100
AcDbEntity
  8
4
100
AcDbLine
 10
117.9115458704532
 20
438.1314744473218
 30
0.0
 11
116.9115458704532
 21
439.1314744473218
 31
0.0
  0
LINE
  5
497
330
17
100
AcDbEntity
  8
4
100
AcDbLine
 10
117.9115458704532
 20
447.1314744473218
 30
0.0
 11
117.9115458704532
 21
438.1314744473218
 31
0.0
  0
LINE
  5
498
330
17
100
AcDbEntity
  8
4
100
AcDbLine
 10
117.9115458704532
 20
463.1314744473218
 30
0.0
 11
116.9115458704532
 21
462.1314744473218
 31
0.0
  0
LINE
  5
499
330
17
100
AcDbEntity
  8
4
100
AcDbLine
 10
117.9115458704532
 20
463.1314744473218
 30
0.0
 11
117.9115458704532
 21
454.1314744473218
 31
0.0
  0
LINE
  5
49A
330
17
100
AcDbEntity
  8
4
100
AcDbLine
 10
184.4115908704531
 20
465.6314744473219
 30
0.0
 11
166.9115458704532
 21
465.6314744473218
 31
0.0
  0
LINE
  5
49B
330
17
100
AcDbEntity
  8
4
100
AcDbLine
 10
184.4115908704531
 20
435.6314744473218
 30
0.0
 11
166.9115458704532
 21
435.6314744473218
 31
0.0
  0
ENDSEC
  0
SECTION
  2
OBJECTS
  0
DICTIONARY
  5
5
330
0
100
AcDbDictionary
281
     1
  3
ACAD_COLOR
350
28
  3
ACAD_GROUP
350
26
  3
ACAD_LAYOUT
350
1E
  3
ACAD_MATERIAL
350
7
  3
ACAD_MLEADERSTYLE
350
44F
  3
ACAD_MLINESTYLE
350
15
  3
ACAD_PLOTSETTINGS
350
27
  3
ACAD_PLOTSTYLENAME
350
4
  3
ACAD_SCALELIST
350
2C
  3
ACAD_TABLESTYLE
350
44E
  3
ACAD_VISUALSTYLE
350
29
  3
ACDBHEADERROUNDTRIPXREC
350
1EAB
  3
AcDbVariableDictionary
350
44C
  3
DWGPROPS
350
1EAE
  0
DICTIONARY
  5
1EAF
330
25
100
AcDbDictionary
280
     1
281
     1
  3
ACAD_XREC_ROUNDTRIP
360
1EB0
  0
DICTIONARY
  5
18
330
17
100
AcDbDictionary
280
     1
281
     1
  3
ACAD_SORTENTS
360
19
  0
DICTIONARY
  5
28
102
{ACAD_REACTORS
330
5
102
}
330
5
100
AcDbDictionary
281
     1
  0
DICTIONARY
  5
26
102
{ACAD_REACTORS
330
5
102
}
330
5
100
AcDbDictionary
281
     1
  0
DICTIONARY
  5
1E
102
{ACAD_REACTORS
330
5
102
}
330
5
100
AcDbDictionary
281
     1
  3
Model
350
1D
  3
ﾚｲｱｳﾄ1
350
22
  0
DICTIONARY
  5
7
102
{ACAD_REACTORS
330
5
102
}
330
5
100
AcDbDictionary
281
     1
  3
ByBlock
350
4F
  3
ByLayer
350
10
  3
Global
350
6
  0
DICTIONARY
  5
44F
102
{ACAD_REACTORS
330
5
102
}
330
5
100
AcDbDictionary
281
     1
  3
Standard
350
1E9D
  0
DICTIONARY
  5
15
102
{ACAD_REACTORS
330
5
102
}
330
5
100
AcDbDictionary
281
     1
  3
STANDARD
350
14
  0
DICTIONARY
  5
27
102
{ACAD_REACTORS
330
5
102
}
330
5
100
AcDbDictionary
281
     1
  0
ACDBDICTIONARYWDFLT
  5
4
102
{ACAD_REACTORS
330
5
102
}
330
5
100
AcDbDictionary
281
     1
  3
Normal
350
3
100
AcDbDictionaryWithDefault
340
3
  0
DICTIONARY
  5
2C
102
{ACAD_REACTORS
330
5
102
}
330
5
100
AcDbDictionary
281
     1
  3
*A1
350
4E
  0
DICTIONARY
  5
44E
102
{ACAD_REACTORS
330
5
102
}
330
5
100
AcDbDictionary
281
     1
  3
Standard
350
1EA7
  0
DICTIONARY
  5
29
102
{ACAD_REACTORS
330
5
102
}
330
5
100
AcDbDictionary
281
     1
  3
2dWireframe
350
457
  3
Basic
350
45A
  3
Brighten
350
45E
  3
ColorChange
350
462
  3
Conceptual
350
45C
  3
Dim
350
45D
  3
EdgeColorOff
350
465
  3
Facepattern
350
461
  3
Flat
350
453
  3
FlatWithEdges
350
454
  3
Gouraud
350
455
  3
GouraudWithEdges
350
456
  3
Hidden
350
459
  3
JitterOff
350
463
  3
Linepattern
350
460
  3
OverhangOff
350
464
  3
Realistic
350
45B
  3
Shaded
350
46A
  3
Shaded with edges
350
469
  3
Shades of Gray
350
466
  3
Sketchy
350
467
  3
Thicken
350
45F
  3
Wireframe
350
458
  3
X-Ray
350
468
  0
DICTIONARY
  5
1EAB
102
{ACAD_REACTORS
330
5
102
}
330
5
100
AcDbDictionary
281
     1
  3
COLORDICT
350
1EAC
  3
MATERIALDICT
350
1EAD
  0
DICTIONARY
  5
44C
102
{ACAD_REACTORS
330
5
102
}
330
5
100
AcDbDictionary
281
     1
  3
CANNOSCALE
350
44D
  3
CMLEADERSTYLE
350
1EA2
  3
CTABLESTYLE
350
1EA8
  3
DIMASSOC
350
1EA9
  3
HIDETEXT
350
1EAA
  3
MSLTSCALE
350
1EB1
  3
XCLIPFRAME
350
450
  0
XRECORD
  5
1EAE
102
{ACAD_REACTORS
330
5
102
}
330
5
100
AcDbXrecord
280
     1
  1
DWGPROPS COOKIE
  2

  3

  4

  6

  7

  8
sg-d04
  9

300
=
301
=
302
=
303
=
304
=
305
=
306
=
307
=
308
=
309
=
 40
0.0
 41
2457576.36283941
 42
2457871.46271669
  1

 90
        0
  0
XRECORD
  5
1EB0
102
{ACAD_REACTORS
330
1EAF
102
}
330
1EAF
100
AcDbXrecord
280
     1
102
VTR_0.000_0.000_1.000_1.000_VISUALSTYLE
340
457
102
VTR_0.000_0.000_1.000_1.000_GRIDDISPLAY
 70
     3
102
VTR_0.000_0.000_1.000_1.000_GRIDMAJOR
 70
     5
102
VTR_0.000_0.000_1.000_1.000_DEFAULTLIGHTING
280
     1
102
VTR_0.000_0.000_1.000_1.000_DEFAULTLIGHTINGTYPE
 70
     1
102
VTR_0.000_0.000_1.000_1.000_BRIGHTNESS
141
0.0
102
VTR_0.000_0.000_1.000_1.000_CONTRAST
142
0.0
  0
SORTENTSTABLE
  5
19
102
{ACAD_REACTORS
330
18
102
}
330
18
100
AcDbSortentsTable
330
17
331
0
  5
1EA6
331
1BB
  5
449
331
1BC
  5
448
331
1BD
  5
447
331
1BE
  5
446
331
1BF
  5
445
331
1C0
  5
444
331
1C1
  5
443
331
1C2
  5
442
331
1C3
  5
441
331
1C4
  5
440
331
1C5
  5
43F
331
1C6
  5
43E
331
1C7
  5
43D
331
1C8
  5
43C
331
1C9
  5
43B
331
1CA
  5
43A
331
1CB
  5
439
331
1CC
  5
438
331
1CD
  5
437
331
1CE
  5
436
331
1CF
  5
435
331
1D0
  5
434
331
1D1
  5
433
331
1D2
  5
432
331
1D3
  5
431
331
1D4
  5
430
331
1D5
  5
42F
331
1D6
  5
42E
331
1D7
  5
42D
331
1D8
  5
42C
331
1D9
  5
42B
331
1DA
  5
42A
331
1DB
  5
429
331
1DC
  5
428
331
1DD
  5
427
331
1DE
  5
426
331
1DF
  5
425
331
1E0
  5
424
331
1E1
  5
423
331
1E2
  5
422
331
1E3
  5
421
331
1E4
  5
420
331
1E5
  5
41F
331
1E6
  5
41E
331
1E7
  5
41D
331
1E8
  5
41C
331
1E9
  5
41B
331
1EA
  5
41A
331
1EB
  5
419
331
1EC
  5
418
331
1ED
  5
417
331
1EE
  5
416
331
1EF
  5
415
331
1F0
  5
414
331
1F1
  5
413
331
1F2
  5
412
331
1F3
  5
411
331
1F4
  5
410
331
1F5
  5
40F
331
1F6
  5
40E
331
1F7
  5
40D
331
1F8
  5
40C
331
1F9
  5
40B
331
1FA
  5
40A
331
1FB
  5
409
331
1FC
  5
408
331
1FD
  5
407
331
1FE
  5
406
331
1FF
  5
405
331
200
  5
404
331
201
  5
403
331
202
  5
402
331
203
  5
401
331
204
  5
400
331
205
  5
3FF
331
206
  5
3FE
331
207
  5
3FD
331
208
  5
3FC
331
209
  5
3FB
331
20A
  5
3FA
331
20B
  5
3F9
331
20C
  5
3F8
331
20D
  5
3F7
331
20E
  5
3F6
331
20F
  5
3F5
331
210
  5
3F4
331
211
  5
3F3
331
212
  5
3F2
331
213
  5
3F1
331
214
  5
3F0
331
215
  5
3EF
331
216
  5
3EE
331
217
  5
3ED
331
218
  5
3EC
331
219
  5
3EB
331
21A
  5
3EA
331
21B
  5
3E9
331
21C
  5
3E8
331
21D
  5
3E7
331
21E
  5
3E6
331
21F
  5
3E5
331
220
  5
3E4
331
221
  5
3E3
331
222
  5
3E2
331
223
  5
3E1
331
224
  5
3E0
331
225
  5
3DF
331
226
  5
3DE
331
227
  5
3DD
331
228
  5
3DC
331
229
  5
3DB
331
22A
  5
3DA
331
22B
  5
3D9
331
22C
  5
3D8
331
22D
  5
3D7
331
22E
  5
3D6
331
22F
  5
3D5
331
230
  5
3D4
331
231
  5
3D3
331
232
  5
3D2
331
233
  5
3D1
331
234
  5
3D0
331
235
  5
3CF
331
236
  5
3CE
331
237
  5
3CD
331
238
  5
3CC
331
239
  5
3CB
331
23A
  5
3CA
331
23B
  5
3C9
331
23C
  5
3C8
331
23D
  5
3C7
331
23E
  5
3C6
331
23F
  5
3C5
331
240
  5
3C4
331
241
  5
3C3
331
242
  5
3C2
331
243
  5
3C1
331
244
  5
3C0
331
245
  5
3BF
331
246
  5
3BE
331
247
  5
3BD
331
248
  5
3BC
331
249
  5
3BB
331
24A
  5
3BA
331
24B
  5
3B9
331
24C
  5
3B8
331
24D
  5
3B7
331
24E
  5
3B6
331
24F
  5
3B5
331
250
  5
3B4
331
251
  5
3B3
331
252
  5
3B2
331
253
  5
3B1
331
254
  5
3B0
331
255
  5
3AF
331
256
  5
3AE
331
257
  5
3AD
331
258
  5
3AC
331
259
  5
3AB
331
25A
  5
3AA
331
25B
  5
3A9
331
25C
  5
3A8
331
25D
  5
3A7
331
25E
  5
3A6
331
25F
  5
3A5
331
260
  5
3A4
331
261
  5
3A3
331
262
  5
3A2
331
263
  5
3A1
331
264
  5
3A0
331
265
  5
39F
331
266
  5
39E
331
267
  5
39D
331
268
  5
39C
331
269
  5
39B
331
26A
  5
39A
331
26B
  5
399
331
26C
  5
398
331
26D
  5
397
331
26E
  5
396
331
26F
  5
395
331
270
  5
394
331
271
  5
393
331
272
  5
392
331
273
  5
391
331
274
  5
390
331
275
  5
38F
331
276
  5
38E
331
277
  5
38D
331
278
  5
38C
331
279
  5
38B
331
27A
  5
38A
331
27B
  5
389
331
27C
  5
388
331
27D
  5
387
331
27E
  5
386
331
27F
  5
385
331
280
  5
384
331
281
  5
383
331
282
  5
382
331
283
  5
381
331
284
  5
380
331
285
  5
37F
331
286
  5
37E
331
287
  5
37D
331
288
  5
37C
331
289
  5
37B
331
28A
  5
37A
331
28B
  5
379
331
28C
  5
378
331
28D
  5
377
331
28E
  5
376
331
28F
  5
375
331
290
  5
374
331
291
  5
373
331
292
  5
372
331
293
  5
371
331
294
  5
370
331
295
  5
36F
331
296
  5
36E
331
297
  5
36D
331
298
  5
36C
331
299
  5
36B
331
29A
  5
36A
331
29B
  5
369
331
29C
  5
368
331
29D
  5
367
331
29E
  5
366
331
29F
  5
365
331
2A0
  5
364
331
2A1
  5
363
331
2A2
  5
362
331
2A3
  5
361
331
2A4
  5
360
331
2A5
  5
35F
331
2A6
  5
35E
331
2A7
  5
35D
331
2A8
  5
35C
331
2A9
  5
35B
331
2AA
  5
35A
331
2AB
  5
359
331
2AC
  5
358
331
2AD
  5
357
331
2AE
  5
356
331
2AF
  5
355
331
2B0
  5
354
331
2B1
  5
353
331
2B2
  5
352
331
2B3
  5
351
331
2B4
  5
350
331
2B5
  5
34F
331
2B6
  5
34E
331
2B7
  5
34D
331
2B8
  5
34C
331
2B9
  5
34B
331
2BA
  5
34A
331
2BB
  5
349
331
2BC
  5
348
331
2BD
  5
347
331
2BE
  5
346
331
2BF
  5
345
331
2C0
  5
344
331
2C1
  5
343
331
2C2
  5
342
331
2C3
  5
341
331
2C4
  5
340
331
2C5
  5
33F
331
2C6
  5
33E
331
2C7
  5
33D
331
2C8
  5
33C
331
2C9
  5
33B
331
2CA
  5
33A
331
2CB
  5
339
331
2CC
  5
338
331
2CD
  5
337
331
2CE
  5
336
331
2CF
  5
335
331
2D0
  5
334
331
2D1
  5
333
331
2D2
  5
332
331
2D3
  5
331
331
2D4
  5
330
331
2D5
  5
32F
331
2D6
  5
32E
331
2D7
  5
32D
331
2D8
  5
32C
331
2D9
  5
32B
331
2DA
  5
32A
331
2DB
  5
329
331
2DC
  5
328
331
2DD
  5
327
331
2DE
  5
326
331
2DF
  5
325
331
2E0
  5
324
331
2E1
  5
323
331
2E2
  5
322
331
2E3
  5
321
331
2E4
  5
320
331
2E5
  5
31F
331
2E6
  5
31E
331
2E7
  5
31D
331
2E8
  5
31C
331
2E9
  5
31B
331
2EA
  5
31A
331
2EB
  5
319
331
2EC
  5
318
331
2ED
  5
317
331
2EE
  5
316
331
2EF
  5
315
331
2F0
  5
314
331
2F1
  5
313
331
2F2
  5
312
331
2F3
  5
311
331
2F4
  5
310
331
2F5
  5
30F
331
2F6
  5
30E
331
2F7
  5
30D
331
2F8
  5
30C
331
2F9
  5
30B
331
2FB
  5
30A
331
2FC
  5
309
331
2FE
  5
308
331
2FF
  5
306
331
300
  5
305
331
301
  5
303
331
30E
  5
2F6
331
311
  5
2F3
331
312
  5
2F2
331
315
  5
2EF
331
316
  5
2EE
331
31C
  5
2E8
331
31D
  5
2E7
331
31E
  5
2E6
331
31F
  5
2E5
331
320
  5
2E4
331
321
  5
2E3
331
322
  5
2E2
331
323
  5
2E1
331
324
  5
2E0
331
325
  5
2DF
331
326
  5
2DE
331
327
  5
2DD
331
328
  5
2DC
331
329
  5
2DB
331
32A
  5
2DA
331
32B
  5
2D9
331
32C
  5
2D8
331
32D
  5
2D7
331
32E
  5
2D6
331
330
  5
2D4
331
331
  5
2D3
331
332
  5
2D2
331
333
  5
2D1
331
334
  5
2D0
331
336
  5
2CE
331
33C
  5
2C8
331
340
  5
2C4
331
341
  5
2C3
331
342
  5
2C2
331
34C
  5
2B8
331
34D
  5
2B7
331
34E
  5
2B6
331
34F
  5
2B5
331
350
  5
2B4
331
351
  5
2B3
331
352
  5
2B2
331
353
  5
2B1
331
354
  5
2B0
331
355
  5
2AF
331
356
  5
2AE
331
357
  5
2AD
331
358
  5
2AC
331
359
  5
2AB
331
35A
  5
2AA
331
35B
  5
2A9
331
35C
  5
2A8
331
35D
  5
2A7
331
35E
  5
2A6
331
35F
  5
2A5
331
360
  5
2A4
331
361
  5
2A3
331
362
  5
2A2
331
363
  5
2A1
331
364
  5
2A0
331
365
  5
29F
331
366
  5
29E
331
367
  5
29D
331
36F
  5
295
331
370
  5
294
331
371
  5
293
331
372
  5
292
331
373
  5
291
331
374
  5
290
331
375
  5
28F
331
376
  5
28E
331
377
  5
28D
331
37C
  5
288
331
37E
  5
286
331
37F
  5
285
331
380
  5
284
331
381
  5
283
331
38A
  5
27A
331
38B
  5
279
331
38C
  5
278
331
38E
  5
276
331
38F
  5
275
331
390
  5
274
331
391
  5
273
331
392
  5
272
331
393
  5
271
331
394
  5
270
331
395
  5
26F
331
396
  5
26E
331
39F
  5
265
331
3AE
  5
256
331
3AF
  5
255
331
3B1
  5
253
331
3B2
  5
252
331
3B3
  5
251
331
3BA
  5
24A
331
3BB
  5
249
331
3BC
  5
248
331
3BD
  5
247
331
3BE
  5
246
331
3BF
  5
245
331
3C0
  5
244
331
3C1
  5
243
331
3C2
  5
242
331
3C3
  5
241
331
3C4
  5
240
331
3C5
  5
23F
331
3C6
  5
23E
331
3C7
  5
23D
331
3C8
  5
23C
331
3CA
  5
23A
331
3CB
  5
239
331
3CC
  5
238
331
3CD
  5
237
331
3CE
  5
236
331
3CF
  5
235
331
3D0
  5
234
331
3D1
  5
233
331
3D2
  5
232
331
3D3
  5
231
331
3D4
  5
230
331
3D5
  5
22F
331
3D6
  5
22E
331
3D7
  5
22D
331
3D8
  5
22C
331
3D9
  5
22B
331
3DA
  5
22A
331
3DB
  5
229
331
3DC
  5
228
331
3DD
  5
227
331
3DE
  5
226
331
3DF
  5
225
331
3E0
  5
224
331
3E1
  5
223
331
3E2
  5
222
331
3E3
  5
221
331
3E4
  5
220
331
3E5
  5
21F
331
3E6
  5
21E
331
3E7
  5
21D
331
3E8
  5
21C
331
3E9
  5
21B
331
3EA
  5
21A
331
3EB
  5
219
331
3EC
  5
218
331
3ED
  5
217
331
3EE
  5
216
331
3EF
  5
215
331
3F0
  5
214
331
3F1
  5
213
331
3F2
  5
212
331
3F3
  5
20F
331
3F4
  5
20D
331
3F5
  5
20C
331
3F8
  5
209
331
3F9
  5
208
331
3FA
  5
207
331
3FB
  5
206
331
3FC
  5
205
331
3FD
  5
204
331
3FE
  5
203
331
3FF
  5
202
331
442
  5
1BF
331
443
  5
1BE
331
444
  5
1BD
331
445
  5
1BC
331
446
  5
1BB
331
447
  5
44A
331
448
  5
44B
331
449
  5
46C
331
46C
  5
46F
331
46D
  5
470
331
46E
  5
471
331
46F
  5
472
331
470
  5
473
331
471
  5
474
331
472
  5
475
331
473
  5
476
331
474
  5
477
331
475
  5
478
331
476
  5
47A
331
48D
  5
490
331
48E
  5
491
331
48F
  5
492
331
490
  5
493
331
491
  5
494
331
492
  5
495
331
493
  5
496
331
494
  5
497
331
495
  5
498
331
496
  5
499
331
497
  5
49A
331
498
  5
49B
331
499
  5
49C
331
49A
  5
49D
331
49B
  5
1EA3
  0
LAYOUT
  5
1D
102
{ACAD_REACTORS
330
1E
102
}
330
1E
100
AcDbPlotSettings
  1

  2
Bullzip PDF Printer.pc3
  4
A3
  6

 40
0.2
 41
0.0
 42
0.0
 43
0.0
 44
420.2
 45
297.1
 46
25.0
 47
12.0
 48
57.4999997758332
 49
10.0
140
1012.499997588333
141
691.2499984104165
142
1.0
143
2.5
 70
 11936
 72
     1
 73
     0
 74
     4
  7
monochrome.ctb
 75
     0
147
0.4
148
-57.4999997758332
149
-10.0
100
AcDbLayout
  1
Model
 70
     1
 71
     0
 10
0.0
 20
0.0
 11
12.0
 21
9.0
 12
0.0
 22
0.0
 32
0.0
 14
112.5611824888044
 24
18.64986194764748
 34
0.0
 15
843.6026945760082
 25
670.7633400614457
 35
0.0
146
0.0
 13
0.0
 23
0.0
 33
0.0
 16
1.0
 26
0.0
 36
0.0
 17
0.0
 27
1.0
 37
0.0
 76
     0
330
17
331
2A
1001
ACAD_PSEXT
1000
Bullzip PDF Printer.pc3
1000
Bullzip PDF Printer
1000
BULLZIP
1000
Bullzip PDF Printer 10.1.0.1871
1070
     0
  0
LAYOUT
  5
22
102
{ACAD_REACTORS
330
1E
102
}
330
1E
100
AcDbPlotSettings
  1

  2
C:\Program Files\ACAD LT 2000\plotters\Draftpro-DXL (7575A).pc3
  4

  6

 40
0.0
 41
0.0
 42
0.0
 43
0.0
 44
0.0
 45
0.0
 46
0.0
 47
0.0
 48
0.0
 49
0.0
140
0.0
141
0.0
142
1.0
143
1.0
 70
   688
 72
     0
 73
     0
 74
     5
  7
monochrome.ctb
 75
    16
147
1.0
148
0.0
149
0.0
100
AcDbLayout
  1
ﾚｲｱｳﾄ1
 70
     1
 71
     1
 10
0.0
 20
0.0
 11
12.0
 21
9.0
 12
0.0
 22
0.0
 32
0.0
 14
1.000000000000000E+20
 24
1.000000000000000E+20
 34
1.000000000000000E+20
 15
-1.000000000000000E+20
 25
-1.000000000000000E+20
 35
-1.000000000000000E+20
146
0.0
 13
0.0
 23
0.0
 33
0.0
 16
1.0
 26
0.0
 36
0.0
 17
0.0
 27
1.0
 37
0.0
 76
     0
330
1F
  0
MATERIAL
  5
4F
102
{ACAD_REACTORS
330
7
102
}
102
{ACAD_XDICTIONARY
360
1EB6
102
}
330
7
100
AcDbMaterial
  1
ByBlock
  0
MATERIAL
  5
10
102
{ACAD_REACTORS
330
7
102
}
102
{ACAD_XDICTIONARY
360
1EB2
102
}
330
7
100
AcDbMaterial
  1
ByLayer
  0
MATERIAL
  5
6
102
{ACAD_REACTORS
330
7
102
}
102
{ACAD_XDICTIONARY
360
1EB4
102
}
330
7
100
AcDbMaterial
  1
Global
1001
ACAD
1070
    -1
1070
     3
1070
     0
1000

1071
        0
  0
MLEADERSTYLE
  5
1E9D
102
{ACAD_REACTORS
330
44F
102
}
102
{ACAD_XDICTIONARY
360
1EE8
102
}
330
44F
100
AcDbMLeaderStyle
170
     2
171
     1
172
     0
 90
        2
 40
0.0
 41
0.0
173
     1
 91
-1056964608
340
D
 92
       -2
290
     1
 42
0.09
291
     1
 43
0.36
  3
Standard
341
0
 44
0.18
300

342
E
174
     1
178
     6
175
     1
176
     0
 93
-1056964608
 45
0.18
292
     0
297
     0
 46
0.18
343
0
 94
-1056964608
 47
1.0
 49
1.0
140
1.0
293
     1
141
0.0
294
     1
177
     0
142
1.0
295
     0
296
     0
143
0.125
1001
ACAD_MLEADERVER
1070
     2
  0
MLINESTYLE
  5
14
102
{ACAD_REACTORS
330
15
102
}
330
15
100
AcDbMlineStyle
  2
STANDARD
 70
     0
  3

 62
     0
 51
90.0
 52
90.0
 71
     2
 49
0.5
 62
   256
  6
BYLAYER
 49
-0.5
 62
   256
  6
BYLAYER
  0
ACDBPLACEHOLDER
  5
3
102
{ACAD_REACTORS
330
4
102
}
330
4
  0
SCALE
  5
4E
102
{ACAD_REACTORS
330
2C
102
}
330
2C
100
AcDbScale
 70
     0
300
1:1
140
1.0
141
1.0
290
     1
  0
TABLESTYLE
  5
1EA7
102
{ACAD_REACTORS
330
44E
102
}
330
44E
100
AcDbTableStyle
  3
Standard
 70
     0
 71
     0
 40
0.06
 41
0.06
280
     0
281
     0
  7
STANDARD
140
0.18
170
     2
 62
     0
 63
   257
283
     0
274
    -2
284
     1
 64
     0
275
    -2
285
     1
 65
     0
276
    -2
286
     1
 66
     0
277
    -2
287
     1
 67
     0
278
    -2
288
     1
 68
     0
279
    -2
289
     1
 69
     0
  7
STANDARD
140
0.25
170
     5
 62
     0
 63
   257
283
     0
274
    -2
284
     1
 64
     0
275
    -2
285
     1
 65
     0
276
    -2
286
     1
 66
     0
277
    -2
287
     1
 67
     0
278
    -2
288
     1
 68
     0
279
    -2
289
     1
 69
     0
  7
STANDARD
140
0.18
170
     5
 62
     0
 63
   257
283
     0
274
    -2
284
     1
 64
     0
275
    -2
285
     1
 65
     0
276
    -2
286
     1
 66
     0
277
    -2
287
     1
 67
     0
278
    -2
288
     1
 68
     0
279
    -2
289
     1
 69
     0
  0
VISUALSTYLE
  5
457
102
{ACAD_REACTORS
330
29
102
}
102
{ACAD_XDICTIONARY
360
1EC0
102
}
330
29
100
AcDbVisualStyle
  2
2dWireframe
 70
     4
 71
     0
 72
     2
 73
     0
 90
        0
 40
0.6
 41
30.0
 62
     5
 63
     7
 74
     1
 91
        4
 64
     7
 65
   257
 75
     1
175
     1
 42
1.0
 92
        0
 66
   257
 43
1.0
 76
     1
 77
     6
 78
     2
 67
     7
 79
     5
170
     0
171
     0
290
     0
174
     0
 93
        1
 44
0.0
173
     0
291
     0
 45
0.0
1001
ACAD
1000
AcDbSavedByObjectVersion
1070
     0
  0
VISUALSTYLE
  5
45A
102
{ACAD_REACTORS
330
29
102
}
102
{ACAD_XDICTIONARY
360
1EC6
102
}
330
29
100
AcDbVisualStyle
  2
Basic
 70
     7
 71
     1
 72
     0
 73
     1
 90
        0
 40
0.6
 41
30.0
 62
     5
 63
     7
 74
     0
 91
        4
 64
     7
 65
   257
 75
     1
175
     1
 42
1.0
 92
        8
 66
     7
 43
1.0
 76
     1
 77
     6
 78
     2
 67
     7
 79
     5
170
     0
171
     0
290
     0
174
     0
 93
        1
 44
0.0
173
     0
291
     1
 45
0.0
1001
ACAD
1000
AcDbSavedByObjectVersion
1070
     0
  0
VISUALSTYLE
  5
45E
102
{ACAD_REACTORS
330
29
102
}
102
{ACAD_XDICTIONARY
360
1ECE
102
}
330
29
100
AcDbVisualStyle
  2
Brighten
 70
    12
 71
     2
 72
     2
 73
     0
 90
        0
 40
0.6
 41
30.0
 62
     5
 63
     7
 74
     1
 91
        4
 64
     7
 65
   257
 75
     1
175
     1
 42
1.0
 92
        8
 66
     7
 43
1.0
 76
     1
 77
     6
 78
     2
 67
     7
 79
     5
170
     0
171
     0
290
     0
174
     0
 93
        1
 44
50.0
173
     0
291
     1
 45
0.0
1001
ACAD
1000
AcDbSavedByObjectVersion
1070
     0
  0
VISUALSTYLE
  5
462
102
{ACAD_REACTORS
330
29
102
}
102
{ACAD_XDICTIONARY
360
1ED6
102
}
330
29
100
AcDbVisualStyle
  2
ColorChange
 70
    16
 71
     2
 72
     2
 73
     3
 90
        0
 40
0.6
 41
30.0
 62
     5
 63
     8
 74
     1
 91
        4
 64
     7
 65
   257
 75
     1
175
     1
 42
1.0
 92
        8
 66
     8
 43
1.0
 76
     1
 77
     6
 78
     2
 67
     7
 79
     5
170
     0
171
     0
290
     0
174
     0
 93
        1
 44
0.0
173
     0
291
     1
 45
0.0
1001
ACAD
1000
AcDbSavedByObjectVersion
1070
     0
  0
VISUALSTYLE
  5
45C
102
{ACAD_REACTORS
330
29
102
}
102
{ACAD_XDICTIONARY
360
1ECA
102
}
330
29
100
AcDbVisualStyle
  2
Conceptual
 70
     9
 71
     3
 72
     2
 73
     0
 90
        0
 40
0.6
 41
30.0
 62
     5
 63
     7
 74
     2
 91
        2
 64
     7
 65
   257
 75
     1
175
     1
 42
40.0
 92
        8
 66
     7
 43
1.0
 76
     1
 77
     6
 78
     2
 67
     7
 79
     3
170
     0
171
     0
290
     0
174
     0
 93
        1
 44
0.0
173
     0
291
     0
 45
0.0
1001
ACAD
1000
AcDbSavedByObjectVersion
1070
     0
  0
VISUALSTYLE
  5
45D
102
{ACAD_REACTORS
330
29
102
}
102
{ACAD_XDICTIONARY
360
1ECC
102
}
330
29
100
AcDbVisualStyle
  2
Dim
 70
    11
 71
     2
 72
     2
 73
     0
 90
        0
 40
0.6
 41
30.0
 62
     5
 63
     7
 74
     1
 91
        4
 64
     7
 65
   257
 75
     1
175
     1
 42
1.0
 92
        8
 66
     7
 43
1.0
 76
     1
 77
     6
 78
     2
 67
     7
 79
     5
170
     0
171
     0
290
     0
174
     0
 93
        1
 44
-50.0
173
     0
291
     1
 45
0.0
1001
ACAD
1000
AcDbSavedByObjectVersion
1070
     0
  0
VISUALSTYLE
  5
465
102
{ACAD_REACTORS
330
29
102
}
102
{ACAD_XDICTIONARY
360
1EDC
102
}
330
29
100
AcDbVisualStyle
  2
EdgeColorOff
 70
    22
 71
     2
 72
     2
 73
     0
 90
        0
 40
0.6
 41
30.0
 62
     5
 63
     7
 74
     1
 91
        4
 64
     7
 65
   257
 75
     1
175
     1
 42
1.0
 92
        8
 66
     7
 43
1.0
 76
     1
 77
     6
 78
     2
 67
     7
 79
     5
170
     0
171
     0
290
     0
174
     0
 93
        1
 44
0.0
173
     0
291
     1
 45
0.0
1001
ACAD
1000
AcDbSavedByObjectVersion
1070
     0
  0
VISUALSTYLE
  5
461
102
{ACAD_REACTORS
330
29
102
}
102
{ACAD_XDICTIONARY
360
1ED4
102
}
330
29
100
AcDbVisualStyle
  2
Facepattern
 70
    15
 71
     2
 72
     2
 73
     0
 90
        0
 40
0.6
 41
30.0
 62
     5
 63
     7
 74
     1
 91
        4
 64
     7
 65
   257
 75
     1
175
     1
 42
1.0
 92
        8
 66
     7
 43
1.0
 76
     1
 77
     6
 78
     2
 67
     7
 79
     5
170
     0
171
     0
290
     0
174
     0
 93
        1
 44
0.0
173
     0
291
     1
 45
0.0
1001
ACAD
1000
AcDbSavedByObjectVersion
1070
     0
  0
VISUALSTYLE
  5
453
102
{ACAD_REACTORS
330
29
102
}
102
{ACAD_XDICTIONARY
360
1EB8
102
}
330
29
100
AcDbVisualStyle
  2
Flat
 70
     0
 71
     2
 72
     1
 73
     1
 90
        2
 40
0.6
 41
30.0
 62
     5
 63
     7
 74
     0
 91
        4
 64
     7
 65
   257
 75
     1
175
     1
 42
1.0
 92
        8
 66
     7
 43
1.0
 76
     1
 77
     6
 78
     2
 67
     7
 79
     5
170
     0
171
     0
290
     0
174
     0
 93
       13
 44
0.0
173
     0
291
     1
 45
0.0
1001
ACAD
1000
AcDbSavedByObjectVersion
1070
     0
  0
VISUALSTYLE
  5
454
102
{ACAD_REACTORS
330
29
102
}
102
{ACAD_XDICTIONARY
360
1EBA
102
}
330
29
100
AcDbVisualStyle
  2
FlatWithEdges
 70
     1
 71
     2
 72
     1
 73
     1
 90
        2
 40
0.6
 41
30.0
 62
     5
 63
     7
 74
     1
 91
        4
 64
     7
 65
   257
 75
     1
175
     1
 42
1.0
 92
        0
 66
   257
 43
1.0
 76
     1
 77
     6
 78
     2
 67
     7
 79
     5
170
     0
171
     0
290
     0
174
     0
 93
       13
 44
0.0
173
     0
291
     1
 45
0.0
1001
ACAD
1000
AcDbSavedByObjectVersion
1070
     0
  0
VISUALSTYLE
  5
455
102
{ACAD_REACTORS
330
29
102
}
102
{ACAD_XDICTIONARY
360
1EBC
102
}
330
29
100
AcDbVisualStyle
  2
Gouraud
 70
     2
 71
     2
 72
     2
 73
     1
 90
        2
 40
0.6
 41
30.0
 62
     5
 63
     7
 74
     0
 91
        4
 64
     7
 65
   257
 75
     1
175
     1
 42
1.0
 92
        0
 66
     7
 43
1.0
 76
     1
 77
     6
 78
     2
 67
     7
 79
     5
170
     0
171
     0
290
     0
174
     0
 93
       13
 44
0.0
173
     0
291
     1
 45
0.0
1001
ACAD
1000
AcDbSavedByObjectVersion
1070
     0
  0
VISUALSTYLE
  5
456
102
{ACAD_REACTORS
330
29
102
}
102
{ACAD_XDICTIONARY
360
1EBE
102
}
330
29
100
AcDbVisualStyle
  2
GouraudWithEdges
 70
     3
 71
     2
 72
     2
 73
     1
 90
        2
 40
0.6
 41
30.0
 62
     5
 63
     7
 74
     1
 91
        4
 64
     7
 65
   257
 75
     1
175
     1
 42
1.0
 92
        0
 66
   257
 43
1.0
 76
     1
 77
     6
 78
     2
 67
     7
 79
     5
170
     0
171
     0
290
     0
174
     0
 93
       13
 44
0.0
173
     0
291
     1
 45
0.0
1001
ACAD
1000
AcDbSavedByObjectVersion
1070
     0
  0
VISUALSTYLE
  5
459
102
{ACAD_REACTORS
330
29
102
}
102
{ACAD_XDICTIONARY
360
1EC4
102
}
330
29
100
AcDbVisualStyle
  2
Hidden
 70
     6
 71
     1
 72
     2
 73
     2
 90
        0
 40
0.6
 41
30.0
 62
     5
 63
     7
 74
     2
 91
        2
 64
     7
 65
   257
 75
     2
175
     1
 42
40.0
 92
        0
 66
   257
 43
1.0
 76
     1
 77
     6
 78
     2
 67
     7
 79
     3
170
     0
171
     0
290
     0
174
     0
 93
        1
 44
0.0
173
     0
291
     0
 45
0.0
1001
ACAD
1000
AcDbSavedByObjectVersion
1070
     0
  0
VISUALSTYLE
  5
463
102
{ACAD_REACTORS
330
29
102
}
102
{ACAD_XDICTIONARY
360
1ED8
102
}
330
29
100
AcDbVisualStyle
  2
JitterOff
 70
    20
 71
     2
 72
     2
 73
     0
 90
        0
 40
0.6
 41
30.0
 62
     5
 63
     7
 74
     1
 91
        4
 64
     7
 65
   257
 75
     1
175
     1
 42
1.0
 92
       10
 66
     7
 43
1.0
 76
     1
 77
     6
 78
     2
 67
     7
 79
     5
170
     0
171
     0
290
     0
174
     0
 93
        1
 44
0.0
173
     0
291
     1
 45
0.0
1001
ACAD
1000
AcDbSavedByObjectVersion
1070
     0
  0
VISUALSTYLE
  5
460
102
{ACAD_REACTORS
330
29
102
}
102
{ACAD_XDICTIONARY
360
1ED2
102
}
330
29
100
AcDbVisualStyle
  2
Linepattern
 70
    14
 71
     2
 72
     2
 73
     0
 90
        0
 40
0.6
 41
30.0
 62
     5
 63
     7
 74
     1
 91
        4
 64
     7
 65
   257
 75
     7
175
     7
 42
1.0
 92
        8
 66
     7
 43
1.0
 76
     1
 77
     6
 78
     2
 67
     7
 79
     5
170
     0
171
     0
290
     0
174
     0
 93
        1
 44
0.0
173
     0
291
     1
 45
0.0
1001
ACAD
1000
AcDbSavedByObjectVersion
1070
     0
  0
VISUALSTYLE
  5
464
102
{ACAD_REACTORS
330
29
102
}
102
{ACAD_XDICTIONARY
360
1EDA
102
}
330
29
100
AcDbVisualStyle
  2
OverhangOff
 70
    21
 71
     2
 72
     2
 73
     0
 90
        0
 40
0.6
 41
30.0
 62
     5
 63
     7
 74
     1
 91
        4
 64
     7
 65
   257
 75
     1
175
     1
 42
1.0
 92
        9
 66
     7
 43
1.0
 76
     1
 77
     6
 78
     2
 67
     7
 79
     5
170
     0
171
     0
290
     0
174
     0
 93
        1
 44
0.0
173
     0
291
     1
 45
0.0
1001
ACAD
1000
AcDbSavedByObjectVersion
1070
     0
  0
VISUALSTYLE
  5
45B
102
{ACAD_REACTORS
330
29
102
}
102
{ACAD_XDICTIONARY
360
1EC8
102
}
330
29
100
AcDbVisualStyle
  2
Realistic
 70
     8
 71
     2
 72
     3
 73
     0
 90
        2
 40
0.6
 41
30.0
 62
     5
 63
     7
 74
     0
 91
        0
 64
     7
 65
   257
 75
     1
175
     1
 42
1.0
 92
        8
 66
   257
 43
1.0
 76
     1
 77
     6
 78
     2
 67
     7
 79
     3
170
     0
171
     0
290
     0
174
     0
 93
       13
 44
0.0
173
     0
291
     0
 45
0.0
1001
ACAD
1000
AcDbSavedByObjectVersion
1070
     0
  0
VISUALSTYLE
  5
46A
102
{ACAD_REACTORS
330
29
102
}
102
{ACAD_XDICTIONARY
360
1EE6
102
}
330
29
100
AcDbVisualStyle
  2
Shaded
 70
    27
 71
     2
 72
     2
 73
     1
 90
        2
 40
0.6
 41
30.0
 62
     5
 63
     7
 74
     0
 91
        4
 64
     7
 65
   257
 75
     1
175
     1
 42
1.0
 92
        8
 66
   257
 43
1.0
 76
     1
 77
     6
 78
     2
 67
   251
 79
     3
170
     0
171
     0
290
     0
174
     0
 93
        5
 44
0.0
173
     0
291
     0
 45
0.0
1001
ACAD
1000
AcDbSavedByObjectVersion
1070
     0
  0
VISUALSTYLE
  5
469
102
{ACAD_REACTORS
330
29
102
}
102
{ACAD_XDICTIONARY
360
1EE4
102
}
330
29
100
AcDbVisualStyle
  2
Shaded with edges
 70
    26
 71
     2
 72
     2
 73
     1
 90
        2
 40
0.6
 41
30.0
 62
     5
 63
     7
 74
     1
 91
       10
 64
     7
 65
   257
 75
     2
175
     1
 42
1.0
 92
        8
 66
   257
 43
1.0
 76
     1
 77
     6
 78
     2
 67
     7
 79
     3
170
     0
171
     0
290
     0
174
     0
 93
        5
 44
0.0
173
     0
291
     0
 45
0.0
1001
ACAD
1000
AcDbSavedByObjectVersion
1070
     0
  0
VISUALSTYLE
  5
466
102
{ACAD_REACTORS
330
29
102
}
102
{ACAD_XDICTIONARY
360
1EDE
102
}
330
29
100
AcDbVisualStyle
  2
Shades of Gray
 70
    23
 71
     2
 72
     2
 73
     3
 90
        0
 40
0.6
 41
30.0
 62
     5
 63
     7
 74
     2
 91
        2
 64
     7
 65
     7
 75
     1
175
     1
 42
40.0
 92
        8
 66
     7
 43
1.0
 76
     1
 77
     6
 78
     2
 67
     7
 79
     3
170
     0
171
     0
290
     0
174
     0
 93
        1
 44
0.0
173
     0
291
     0
 45
0.0
1001
ACAD
1000
AcDbSavedByObjectVersion
1070
     0
  0
VISUALSTYLE
  5
467
102
{ACAD_REACTORS
330
29
102
}
102
{ACAD_XDICTIONARY
360
1EE0
102
}
330
29
100
AcDbVisualStyle
  2
Sketchy
 70
    24
 71
     1
 72
     2
 73
     2
 90
        0
 40
0.6
 41
30.0
 62
     5
 63
     7
 74
     2
 91
        2
 64
     7
 65
     7
 75
     1
175
     1
 42
40.0
 92
       11
 66
     7
 43
1.0
 76
     1
 77
     6
 78
     2
 67
     7
 79
     6
170
     0
171
     0
290
     0
174
     0
 93
        1
 44
0.0
173
     0
291
     0
 45
0.0
1001
ACAD
1000
AcDbSavedByObjectVersion
1070
     0
  0
VISUALSTYLE
  5
45F
102
{ACAD_REACTORS
330
29
102
}
102
{ACAD_XDICTIONARY
360
1ED0
102
}
330
29
100
AcDbVisualStyle
  2
Thicken
 70
    13
 71
     2
 72
     2
 73
     0
 90
        0
 40
0.6
 41
30.0
 62
     5
 63
     7
 74
     1
 91
        4
 64
     7
 65
   257
 75
     1
175
     1
 42
1.0
 92
       12
 66
     7
 43
1.0
 76
     1
 77
     6
 78
     2
 67
     7
 79
     5
170
     0
171
     0
290
     0
174
     0
 93
        1
 44
0.0
173
     0
291
     1
 45
0.0
1001
ACAD
1000
AcDbSavedByObjectVersion
1070
     0
  0
VISUALSTYLE
  5
458
102
{ACAD_REACTORS
330
29
102
}
102
{ACAD_XDICTIONARY
360
1EC2
102
}
330
29
100
AcDbVisualStyle
  2
Wireframe
 70
     5
 71
     0
 72
     2
 73
     0
 90
        0
 40
0.6
 41
30.0
 62
     5
 63
     7
 74
     1
 91
        4
 64
     7
 65
   257
 75
     1
175
     1
 42
1.0
 92
        0
 66
   257
 43
1.0
 76
     1
 77
     6
 78
     2
 67
     7
 79
     5
170
     0
171
     0
290
     0
174
     0
 93
        1
 44
0.0
173
     0
291
     0
 45
0.0
1001
ACAD
1000
AcDbSavedByObjectVersion
1070
     0
  0
VISUALSTYLE
  5
468
102
{ACAD_REACTORS
330
29
102
}
102
{ACAD_XDICTIONARY
360
1EE2
102
}
330
29
100
AcDbVisualStyle
  2
X-Ray
 70
    25
 71
     2
 72
     2
 73
     1
 90
        1
 40
0.5
 41
30.0
 62
     5
 63
     7
 74
     1
 91
        0
 64
     7
 65
   257
 75
     1
175
     1
 42
1.0
 92
        8
 66
     7
 43
1.0
 76
     1
 77
     6
 78
     2
 67
     7
 79
     3
170
     0
171
     0
290
     0
174
     0
 93
       13
 44
0.0
173
     0
291
     0
 45
0.0
1001
ACAD
1000
AcDbSavedByObjectVersion
1070
     0
  0
XRECORD
  5
1EAC
102
{ACAD_REACTORS
330
1EAB
102
}
330
1EAB
100
AcDbXrecord
280
     1
340
28
  0
XRECORD
  5
1EAD
102
{ACAD_REACTORS
330
1EAB
102
}
330
1EAB
100
AcDbXrecord
280
     1
340
7
  0
DICTIONARYVAR
  5
44D
102
{ACAD_REACTORS
330
44C
102
}
330
44C
100
DictionaryVariables
280
     0
  1
1:1
  0
DICTIONARYVAR
  5
1EA2
102
{ACAD_REACTORS
330
44C
102
}
330
44C
100
DictionaryVariables
280
     0
  1
Standard
  0
DICTIONARYVAR
  5
1EA8
102
{ACAD_REACTORS
330
44C
102
}
330
44C
100
DictionaryVariables
280
     0
  1
Standard
  0
DICTIONARYVAR
  5
1EA9
102
{ACAD_REACTORS
330
44C
102
}
330
44C
100
DictionaryVariables
280
     0
  1
0
  0
DICTIONARYVAR
  5
1EAA
102
{ACAD_REACTORS
330
44C
102
}
330
44C
100
DictionaryVariables
280
     0
  1
1
  0
DICTIONARYVAR
  5
1EB1
102
{ACAD_REACTORS
330
44C
102
}
330
44C
100
DictionaryVariables
280
     0
  1
1
  0
DICTIONARYVAR
  5
450
102
{ACAD_REACTORS
330
44C
102
}
330
44C
100
DictionaryVariables
280
     0
  1
0
  0
DICTIONARY
  5
1EB6
330
4F
100
AcDbDictionary
280
     1
281
     1
  3
ACAD_XREC_ROUNDTRIP
360
1EB7
  0
DICTIONARY
  5
1EB2
330
10
100
AcDbDictionary
280
     1
281
     1
  3
ACAD_XREC_ROUNDTRIP
360
1EB3
  0
DICTIONARY
  5
1EB4
330
6
100
AcDbDictionary
280
     1
281
     1
  3
ACAD_XREC_ROUNDTRIP
360
1EB5
  0
DICTIONARY
  5
1EE8
330
1E9D
100
AcDbDictionary
280
     1
281
     1
  3
ACAD_XREC_ROUNDTRIP
360
1EE9
  0
DICTIONARY
  5
1EC0
330
457
100
AcDbDictionary
280
     1
281
     1
  3
ACAD_XREC_ROUNDTRIP
360
1EC1
  0
DICTIONARY
  5
1EC6
330
45A
100
AcDbDictionary
280
     1
281
     1
  3
ACAD_XREC_ROUNDTRIP
360
1EC7
  0
DICTIONARY
  5
1ECE
330
45E
100
AcDbDictionary
280
     1
281
     1
  3
ACAD_XREC_ROUNDTRIP
360
1ECF
  0
DICTIONARY
  5
1ED6
330
462
100
AcDbDictionary
280
     1
281
     1
  3
ACAD_XREC_ROUNDTRIP
360
1ED7
  0
DICTIONARY
  5
1ECA
330
45C
100
AcDbDictionary
280
     1
281
     1
  3
ACAD_XREC_ROUNDTRIP
360
1ECB
  0
DICTIONARY
  5
1ECC
330
45D
100
AcDbDictionary
280
     1
281
     1
  3
ACAD_XREC_ROUNDTRIP
360
1ECD
  0
DICTIONARY
  5
1EDC
330
465
100
AcDbDictionary
280
     1
281
     1
  3
ACAD_XREC_ROUNDTRIP
360
1EDD
  0
DICTIONARY
  5
1ED4
330
461
100
AcDbDictionary
280
     1
281
     1
  3
ACAD_XREC_ROUNDTRIP
360
1ED5
  0
DICTIONARY
  5
1EB8
330
453
100
AcDbDictionary
280
     1
281
     1
  3
ACAD_XREC_ROUNDTRIP
360
1EB9
  0
DICTIONARY
  5
1EBA
330
454
100
AcDbDictionary
280
     1
281
     1
  3
ACAD_XREC_ROUNDTRIP
360
1EBB
  0
DICTIONARY
  5
1EBC
330
455
100
AcDbDictionary
280
     1
281
     1
  3
ACAD_XREC_ROUNDTRIP
360
1EBD
  0
DICTIONARY
  5
1EBE
330
456
100
AcDbDictionary
280
     1
281
     1
  3
ACAD_XREC_ROUNDTRIP
360
1EBF
  0
DICTIONARY
  5
1EC4
330
459
100
AcDbDictionary
280
     1
281
     1
  3
ACAD_XREC_ROUNDTRIP
360
1EC5
  0
DICTIONARY
  5
1ED8
330
463
100
AcDbDictionary
280
     1
281
     1
  3
ACAD_XREC_ROUNDTRIP
360
1ED9
  0
DICTIONARY
  5
1ED2
330
460
100
AcDbDictionary
280
     1
281
     1
  3
ACAD_XREC_ROUNDTRIP
360
1ED3
  0
DICTIONARY
  5
1EDA
330
464
100
AcDbDictionary
280
     1
281
     1
  3
ACAD_XREC_ROUNDTRIP
360
1EDB
  0
DICTIONARY
  5
1EC8
330
45B
100
AcDbDictionary
280
     1
281
     1
  3
ACAD_XREC_ROUNDTRIP
360
1EC9
  0
DICTIONARY
  5
1EE6
330
46A
100
AcDbDictionary
280
     1
281
     1
  3
ACAD_XREC_ROUNDTRIP
360
1EE7
  0
DICTIONARY
  5
1EE4
330
469
100
AcDbDictionary
280
     1
281
     1
  3
ACAD_XREC_ROUNDTRIP
360
1EE5
  0
DICTIONARY
  5
1EDE
330
466
100
AcDbDictionary
280
     1
281
     1
  3
ACAD_XREC_ROUNDTRIP
360
1EDF
  0
DICTIONARY
  5
1EE0
330
467
100
AcDbDictionary
280
     1
281
     1
  3
ACAD_XREC_ROUNDTRIP
360
1EE1
  0
DICTIONARY
  5
1ED0
330
45F
100
AcDbDictionary
280
     1
281
     1
  3
ACAD_XREC_ROUNDTRIP
360
1ED1
  0
DICTIONARY
  5
1EC2
330
458
100
AcDbDictionary
280
     1
281
     1
  3
ACAD_XREC_ROUNDTRIP
360
1EC3
  0
DICTIONARY
  5
1EE2
330
468
100
AcDbDictionary
280
     1
281
     1
  3
ACAD_XREC_ROUNDTRIP
360
1EE3
  0
XRECORD
  5
1EB7
102
{ACAD_REACTORS
330
1EB6
102
}
330
1EB6
100
AcDbXrecord
280
     1
102
MATERIAL
148
0.0
149
0.0
149
0.0
 93
        0
 94
      127
282
     0
 72
     1
 77
     1
171
     1
175
     1
179
     1
273
     0
  0
XRECORD
  5
1EB3
102
{ACAD_REACTORS
330
1EB2
102
}
330
1EB2
100
AcDbXrecord
280
     1
102
MATERIAL
148
0.0
149
0.0
149
0.0
 93
        0
 94
      127
282
     0
 72
     1
 77
     1
171
     1
175
     1
179
     1
273
     0
  0
XRECORD
  5
1EB5
102
{ACAD_REACTORS
330
1EB4
102
}
330
1EB4
100
AcDbXrecord
280
     1
102
MATERIAL
148
0.0
149
0.0
149
0.0
 93
        0
 94
      127
282
     0
 72
     1
 77
     1
171
     1
175
     1
179
     1
273
     0
  0
XRECORD
  5
1EE9
102
{ACAD_REACTORS
330
1EE8
102
}
330
1EE8
100
AcDbXrecord
280
     1
102
ACAD_ROUNDTRIP_2010_MLEADER_STYLE
  0
XRECORD
  5
1EC1
102
{ACAD_REACTORS
330
1EC0
102
}
330
1EC0
100
AcDbXrecord
280
     1
102
RTVSPropertyOp0
 70
     1
102
RTVSPropertyOp1
 70
     1
102
RTVSPropertyOp2
 70
     1
102
RTVSPropertyOp3
 70
     1
102
RTVSPropertyOp4
 70
     1
102
RTVSPropertyOp5
 70
     1
102
RTVSPropertyOp6
 70
     1
102
RTVSPropertyOp7
 70
     1
102
RTVSPropertyOp8
 70
     1
102
RTVSPropertyOp9
 70
     1
102
RTVSPropertyOp10
 70
     1
102
RTVSPropertyOp11
 70
     1
102
RTVSPropertyOp12
 70
     1
102
RTVSPropertyOp13
 70
     1
102
RTVSPropertyOp14
 70
     1
102
RTVSPropertyOp15
 70
     1
102
RTVSPropertyOp16
 70
     1
102
RTVSPropertyOp17
 70
     1
102
RTVSPropertyOp18
 70
     1
102
RTVSPropertyOp19
 70
     1
102
RTVSPropertyOp20
 70
     1
102
RTVSPropertyOp21
 70
     1
102
RTVSPropertyOp22
 70
     1
102
RTVSPropertyOp23
 70
     1
102
RTVSPropertyOp24
 70
     1
102
RTVSPropertyOp25
 70
     1
102
RTVSPropertyOp26
 70
     1
102
RTVSPropertyOp27
 70
     1
102
RTVSPropertyOp28
 70
     1
102
RTVSPropertyOp29
 70
     1
102
RTVSPropertyOp30
 70
     1
102
RTVSPropertyOp31
 70
     1
102
RTVSPropertyOp32
 70
     1
102
RTVSPropertyOp33
 70
     1
102
RTVSPropertyOp34
 70
     1
102
RTVSPropertyOp35
 70
     1
102
RTVSPropertyOp36
 70
     1
102
RTVSPropertyOp37
 70
     1
102
RTVSPropertyOp38
 70
     1
102
RTVSPropertyOp39
 70
     1
102
RTVSPropertyOp40
 70
     1
102
RTVSPropertyOp41
 70
     1
102
RTVSPropertyOp42
 70
     1
102
RTVSPropertyOp43
 70
     1
102
RTVSPropertyOp44
 70
     1
102
RTVSPropertyOp45
 70
     1
102
RTVSPropertyOp46
 70
     1
102
RTVSPropertyOp47
 70
     1
102
RTVSPropertyOp48
 70
     1
102
RTVSPropertyOp49
 70
     1
102
RTVSPropertyOp50
 70
     1
102
RTVSPropertyOp51
 70
     0
102
RTVSPropertyOp52
 70
     0
102
RTVSPropertyOp53
 70
     1
102
RTVSPropertyOp54
 70
     1
102
RTVSPropertyOp55
 70
     1
102
RTVSPropertyOp56
 70
     1
102
RTVSPropertyOp57
 70
     1
102
RTVSPost2010Prop28
280
     1
102
RTVSPost2010PropOp28
 70
     1
102
RTVSPost2010Prop29
280
     1
102
RTVSPost2010PropOp29
 70
     1
102
RTVSPost2010Prop30
280
     0
102
RTVSPost2010PropOp30
 70
     1
102
RTVSPost2010Prop31
280
     0
102
RTVSPost2010PropOp31
 70
     1
102
RTVSPost2010Prop32
280
     0
102
RTVSPost2010PropOp32
 70
     1
102
RTVSPost2010Prop33
280
     0
102
RTVSPost2010PropOp33
 70
     1
102
RTVSPost2010Prop34
280
     0
102
RTVSPost2010PropOp34
 70
     1
102
RTVSPost2010Prop35
280
     0
102
RTVSPost2010PropOp35
 70
     1
102
RTVSPost2010Prop36
280
     0
102
RTVSPost2010PropOp36
 70
     1
102
RTVSPost2010Prop37
 90
       50
102
RTVSPost2010PropOp37
 70
     1
102
RTVSPost2010Prop38
140
0.0
102
RTVSPost2010PropOp38
 70
     1
102
RTVSPost2010Prop39
140
1.0
102
RTVSPost2010PropOp39
 70
     1
102
RTVSPost2010Prop40
 90
        0
102
RTVSPost2010PropOp40
 70
     1
102
RTVSPost2010Prop41ColorIndex
 90
       18
102
RTVSPost2010Prop41ColorRGB
 90
        0
102
RTVSPost2010PropOp41
 70
     1
102
RTVSPost2010Prop42
 90
       50
102
RTVSPost2010PropOp42
 70
     1
102
RTVSPost2010Prop43
 90
        3
102
RTVSPost2010PropOp43
 70
     1
102
RTVSPost2010Prop44ColorIndex
 90
        5
102
RTVSPost2010Prop44ColorRGB
 90
      255
102
RTVSPost2010PropOp44
 70
     1
102
RTVSPost2010Prop45
280
     0
102
RTVSPost2010PropOp45
 70
     1
102
RTVSPost2010Prop46
 90
       50
102
RTVSPost2010PropOp46
 70
     1
102
RTVSPost2010Prop47
 90
       50
102
RTVSPost2010PropOp47
 70
     1
102
RTVSPost2010Prop48
 90
       50
102
RTVSPost2010PropOp48
 70
     1
102
RTVSPost2010Prop49
280
     0
102
RTVSPost2010PropOp49
 70
     1
102
RTVSPost2010Prop50
 90
       50
102
RTVSPost2010PropOp50
 70
     1
102
RTVSPost2010Prop51ColorIndex
 90
      256
102
RTVSPost2010Prop51ColorRGB
 90
-16777216
102
RTVSPost2010PropOp51
 70
     0
102
RTVSPost2010Prop52
140
1.0
102
RTVSPost2010PropOp52
 70
     0
102
RTVSPost2010Prop53
 90
        2
102
RTVSPost2010PropOp53
 70
     1
102
RTVSPost2010Prop54
  1
strokes_ogs.tif
102
RTVSPost2010PropOp54
 70
     1
102
RTVSPost2010Prop55
280
     0
102
RTVSPost2010PropOp55
 70
     1
102
RTVSPost2010Prop56
140
1.0
102
RTVSPost2010PropOp56
 70
     1
102
RTVSPost2010Prop57
140
1.0
102
RTVSPost2010PropOp57
 70
     1
  0
XRECORD
  5
1EC7
102
{ACAD_REACTORS
330
1EC6
102
}
330
1EC6
100
AcDbXrecord
280
     1
102
RTVSPropertyOp0
 70
     1
102
RTVSPropertyOp1
 70
     1
102
RTVSPropertyOp2
 70
     1
102
RTVSPropertyOp3
 70
     1
102
RTVSPropertyOp4
 70
     1
102
RTVSPropertyOp5
 70
     1
102
RTVSPropertyOp6
 70
     1
102
RTVSPropertyOp7
 70
     1
102
RTVSPropertyOp8
 70
     1
102
RTVSPropertyOp9
 70
     1
102
RTVSPropertyOp10
 70
     1
102
RTVSPropertyOp11
 70
     1
102
RTVSPropertyOp12
 70
     1
102
RTVSPropertyOp13
 70
     1
102
RTVSPropertyOp14
 70
     1
102
RTVSPropertyOp15
 70
     1
102
RTVSPropertyOp16
 70
     1
102
RTVSPropertyOp17
 70
     1
102
RTVSPropertyOp18
 70
     1
102
RTVSPropertyOp19
 70
     1
102
RTVSPropertyOp20
 70
     1
102
RTVSPropertyOp21
 70
     1
102
RTVSPropertyOp22
 70
     1
102
RTVSPropertyOp23
 70
     1
102
RTVSPropertyOp24
 70
     1
102
RTVSPropertyOp25
 70
     1
102
RTVSPropertyOp26
 70
     1
102
RTVSPropertyOp27
 70
     1
102
RTVSPropertyOp28
 70
     1
102
RTVSPropertyOp29
 70
     1
102
RTVSPropertyOp30
 70
     1
102
RTVSPropertyOp31
 70
     1
102
RTVSPropertyOp32
 70
     1
102
RTVSPropertyOp33
 70
     1
102
RTVSPropertyOp34
 70
     1
102
RTVSPropertyOp35
 70
     1
102
RTVSPropertyOp36
 70
     1
102
RTVSPropertyOp37
 70
     1
102
RTVSPropertyOp38
 70
     1
102
RTVSPropertyOp39
 70
     1
102
RTVSPropertyOp40
 70
     1
102
RTVSPropertyOp41
 70
     1
102
RTVSPropertyOp42
 70
     1
102
RTVSPropertyOp43
 70
     1
102
RTVSPropertyOp44
 70
     1
102
RTVSPropertyOp45
 70
     1
102
RTVSPropertyOp46
 70
     1
102
RTVSPropertyOp47
 70
     1
102
RTVSPropertyOp48
 70
     1
102
RTVSPropertyOp49
 70
     1
102
RTVSPropertyOp50
 70
     1
102
RTVSPropertyOp51
 70
     0
102
RTVSPropertyOp52
 70
     0
102
RTVSPropertyOp53
 70
     1
102
RTVSPropertyOp54
 70
     1
102
RTVSPropertyOp55
 70
     1
102
RTVSPropertyOp56
 70
     1
102
RTVSPropertyOp57
 70
     1
102
RTVSPost2010Prop28
280
     0
102
RTVSPost2010PropOp28
 70
     1
102
RTVSPost2010Prop29
280
     1
102
RTVSPost2010PropOp29
 70
     1
102
RTVSPost2010Prop30
280
     1
102
RTVSPost2010PropOp30
 70
     1
102
RTVSPost2010Prop31
280
     0
102
RTVSPost2010PropOp31
 70
     1
102
RTVSPost2010Prop32
280
     0
102
RTVSPost2010PropOp32
 70
     1
102
RTVSPost2010Prop33
280
     0
102
RTVSPost2010PropOp33
 70
     1
102
RTVSPost2010Prop34
280
     0
102
RTVSPost2010PropOp34
 70
     1
102
RTVSPost2010Prop35
280
     0
102
RTVSPost2010PropOp35
 70
     1
102
RTVSPost2010Prop36
280
     0
102
RTVSPost2010PropOp36
 70
     1
102
RTVSPost2010Prop37
 90
       50
102
RTVSPost2010PropOp37
 70
     1
102
RTVSPost2010Prop38
140
0.0
102
RTVSPost2010PropOp38
 70
     1
102
RTVSPost2010Prop39
140
1.0
102
RTVSPost2010PropOp39
 70
     1
102
RTVSPost2010Prop40
 90
        0
102
RTVSPost2010PropOp40
 70
     1
102
RTVSPost2010Prop41ColorIndex
 90
       18
102
RTVSPost2010Prop41ColorRGB
 90
        0
102
RTVSPost2010PropOp41
 70
     1
102
RTVSPost2010Prop42
 90
       50
102
RTVSPost2010PropOp42
 70
     1
102
RTVSPost2010Prop43
 90
        3
102
RTVSPost2010PropOp43
 70
     1
102
RTVSPost2010Prop44ColorIndex
 90
        5
102
RTVSPost2010Prop44ColorRGB
 90
      255
102
RTVSPost2010PropOp44
 70
     1
102
RTVSPost2010Prop45
280
     0
102
RTVSPost2010PropOp45
 70
     1
102
RTVSPost2010Prop46
 90
       50
102
RTVSPost2010PropOp46
 70
     1
102
RTVSPost2010Prop47
 90
       50
102
RTVSPost2010PropOp47
 70
     1
102
RTVSPost2010Prop48
 90
       50
102
RTVSPost2010PropOp48
 70
     1
102
RTVSPost2010Prop49
280
     0
102
RTVSPost2010PropOp49
 70
     1
102
RTVSPost2010Prop50
 90
       50
102
RTVSPost2010PropOp50
 70
     1
102
RTVSPost2010Prop51ColorIndex
 90
      256
102
RTVSPost2010Prop51ColorRGB
 90
-16777216
102
RTVSPost2010PropOp51
 70
     0
102
RTVSPost2010Prop52
140
1.0
102
RTVSPost2010PropOp52
 70
     0
102
RTVSPost2010Prop53
 90
        2
102
RTVSPost2010PropOp53
 70
     1
102
RTVSPost2010Prop54
  1
strokes_ogs.tif
102
RTVSPost2010PropOp54
 70
     1
102
RTVSPost2010Prop55
280
     0
102
RTVSPost2010PropOp55
 70
     1
102
RTVSPost2010Prop56
140
1.0
102
RTVSPost2010PropOp56
 70
     1
102
RTVSPost2010Prop57
140
1.0
102
RTVSPost2010PropOp57
 70
     1
  0
XRECORD
  5
1ECF
102
{ACAD_REACTORS
330
1ECE
102
}
330
1ECE
100
AcDbXrecord
280
     1
102
RTVSPropertyOp0
 70
     1
102
RTVSPropertyOp1
 70
     1
102
RTVSPropertyOp2
 70
     1
102
RTVSPropertyOp3
 70
     1
102
RTVSPropertyOp4
 70
     1
102
RTVSPropertyOp5
 70
     1
102
RTVSPropertyOp6
 70
     1
102
RTVSPropertyOp7
 70
     1
102
RTVSPropertyOp8
 70
     1
102
RTVSPropertyOp9
 70
     1
102
RTVSPropertyOp10
 70
     1
102
RTVSPropertyOp11
 70
     1
102
RTVSPropertyOp12
 70
     1
102
RTVSPropertyOp13
 70
     1
102
RTVSPropertyOp14
 70
     1
102
RTVSPropertyOp15
 70
     1
102
RTVSPropertyOp16
 70
     1
102
RTVSPropertyOp17
 70
     1
102
RTVSPropertyOp18
 70
     1
102
RTVSPropertyOp19
 70
     1
102
RTVSPropertyOp20
 70
     1
102
RTVSPropertyOp21
 70
     1
102
RTVSPropertyOp22
 70
     1
102
RTVSPropertyOp23
 70
     1
102
RTVSPropertyOp24
 70
     1
102
RTVSPropertyOp25
 70
     1
102
RTVSPropertyOp26
 70
     1
102
RTVSPropertyOp27
 70
     1
102
RTVSPropertyOp28
 70
     1
102
RTVSPropertyOp29
 70
     1
102
RTVSPropertyOp30
 70
     1
102
RTVSPropertyOp31
 70
     1
102
RTVSPropertyOp32
 70
     1
102
RTVSPropertyOp33
 70
     1
102
RTVSPropertyOp34
 70
     1
102
RTVSPropertyOp35
 70
     1
102
RTVSPropertyOp36
 70
     1
102
RTVSPropertyOp37
 70
     1
102
RTVSPropertyOp38
 70
     1
102
RTVSPropertyOp39
 70
     1
102
RTVSPropertyOp40
 70
     1
102
RTVSPropertyOp41
 70
     1
102
RTVSPropertyOp42
 70
     1
102
RTVSPropertyOp43
 70
     1
102
RTVSPropertyOp44
 70
     1
102
RTVSPropertyOp45
 70
     1
102
RTVSPropertyOp46
 70
     1
102
RTVSPropertyOp47
 70
     1
102
RTVSPropertyOp48
 70
     1
102
RTVSPropertyOp49
 70
     1
102
RTVSPropertyOp50
 70
     1
102
RTVSPropertyOp51
 70
     0
102
RTVSPropertyOp52
 70
     0
102
RTVSPropertyOp53
 70
     1
102
RTVSPropertyOp54
 70
     1
102
RTVSPropertyOp55
 70
     1
102
RTVSPropertyOp56
 70
     1
102
RTVSPropertyOp57
 70
     1
102
RTVSPost2010Prop28
280
     0
102
RTVSPost2010PropOp28
 70
     1
102
RTVSPost2010Prop29
280
     1
102
RTVSPost2010PropOp29
 70
     1
102
RTVSPost2010Prop30
280
     1
102
RTVSPost2010PropOp30
 70
     1
102
RTVSPost2010Prop31
280
     0
102
RTVSPost2010PropOp31
 70
     1
102
RTVSPost2010Prop32
280
     0
102
RTVSPost2010PropOp32
 70
     1
102
RTVSPost2010Prop33
280
     0
102
RTVSPost2010PropOp33
 70
     1
102
RTVSPost2010Prop34
280
     0
102
RTVSPost2010PropOp34
 70
     1
102
RTVSPost2010Prop35
280
     0
102
RTVSPost2010PropOp35
 70
     1
102
RTVSPost2010Prop36
280
     0
102
RTVSPost2010PropOp36
 70
     1
102
RTVSPost2010Prop37
 90
       50
102
RTVSPost2010PropOp37
 70
     1
102
RTVSPost2010Prop38
140
0.0
102
RTVSPost2010PropOp38
 70
     1
102
RTVSPost2010Prop39
140
1.0
102
RTVSPost2010PropOp39
 70
     1
102
RTVSPost2010Prop40
 90
        0
102
RTVSPost2010PropOp40
 70
     1
102
RTVSPost2010Prop41ColorIndex
 90
       18
102
RTVSPost2010Prop41ColorRGB
 90
        0
102
RTVSPost2010PropOp41
 70
     1
102
RTVSPost2010Prop42
 90
       50
102
RTVSPost2010PropOp42
 70
     1
102
RTVSPost2010Prop43
 90
        3
102
RTVSPost2010PropOp43
 70
     1
102
RTVSPost2010Prop44ColorIndex
 90
        5
102
RTVSPost2010Prop44ColorRGB
 90
      255
102
RTVSPost2010PropOp44
 70
     1
102
RTVSPost2010Prop45
280
     0
102
RTVSPost2010PropOp45
 70
     1
102
RTVSPost2010Prop46
 90
       50
102
RTVSPost2010PropOp46
 70
     1
102
RTVSPost2010Prop47
 90
       50
102
RTVSPost2010PropOp47
 70
     1
102
RTVSPost2010Prop48
 90
       50
102
RTVSPost2010PropOp48
 70
     1
102
RTVSPost2010Prop49
280
     0
102
RTVSPost2010PropOp49
 70
     1
102
RTVSPost2010Prop50
 90
       50
102
RTVSPost2010PropOp50
 70
     1
102
RTVSPost2010Prop51ColorIndex
 90
      256
102
RTVSPost2010Prop51ColorRGB
 90
-16777216
102
RTVSPost2010PropOp51
 70
     0
102
RTVSPost2010Prop52
140
1.0
102
RTVSPost2010PropOp52
 70
     0
102
RTVSPost2010Prop53
 90
        2
102
RTVSPost2010PropOp53
 70
     1
102
RTVSPost2010Prop54
  1
strokes_ogs.tif
102
RTVSPost2010PropOp54
 70
     1
102
RTVSPost2010Prop55
280
     0
102
RTVSPost2010PropOp55
 70
     1
102
RTVSPost2010Prop56
140
1.0
102
RTVSPost2010PropOp56
 70
     1
102
RTVSPost2010Prop57
140
1.0
102
RTVSPost2010PropOp57
 70
     1
  0
XRECORD
  5
1ED7
102
{ACAD_REACTORS
330
1ED6
102
}
330
1ED6
100
AcDbXrecord
280
     1
102
RTVSPropertyOp0
 70
     1
102
RTVSPropertyOp1
 70
     1
102
RTVSPropertyOp2
 70
     1
102
RTVSPropertyOp3
 70
     1
102
RTVSPropertyOp4
 70
     1
102
RTVSPropertyOp5
 70
     1
102
RTVSPropertyOp6
 70
     1
102
RTVSPropertyOp7
 70
     1
102
RTVSPropertyOp8
 70
     1
102
RTVSPropertyOp9
 70
     1
102
RTVSPropertyOp10
 70
     1
102
RTVSPropertyOp11
 70
     1
102
RTVSPropertyOp12
 70
     1
102
RTVSPropertyOp13
 70
     1
102
RTVSPropertyOp14
 70
     1
102
RTVSPropertyOp15
 70
     1
102
RTVSPropertyOp16
 70
     1
102
RTVSPropertyOp17
 70
     1
102
RTVSPropertyOp18
 70
     1
102
RTVSPropertyOp19
 70
     1
102
RTVSPropertyOp20
 70
     1
102
RTVSPropertyOp21
 70
     1
102
RTVSPropertyOp22
 70
     1
102
RTVSPropertyOp23
 70
     1
102
RTVSPropertyOp24
 70
     1
102
RTVSPropertyOp25
 70
     1
102
RTVSPropertyOp26
 70
     1
102
RTVSPropertyOp27
 70
     1
102
RTVSPropertyOp28
 70
     1
102
RTVSPropertyOp29
 70
     1
102
RTVSPropertyOp30
 70
     1
102
RTVSPropertyOp31
 70
     1
102
RTVSPropertyOp32
 70
     1
102
RTVSPropertyOp33
 70
     1
102
RTVSPropertyOp34
 70
     1
102
RTVSPropertyOp35
 70
     1
102
RTVSPropertyOp36
 70
     1
102
RTVSPropertyOp37
 70
     1
102
RTVSPropertyOp38
 70
     1
102
RTVSPropertyOp39
 70
     1
102
RTVSPropertyOp40
 70
     1
102
RTVSPropertyOp41
 70
     1
102
RTVSPropertyOp42
 70
     1
102
RTVSPropertyOp43
 70
     1
102
RTVSPropertyOp44
 70
     1
102
RTVSPropertyOp45
 70
     1
102
RTVSPropertyOp46
 70
     1
102
RTVSPropertyOp47
 70
     1
102
RTVSPropertyOp48
 70
     1
102
RTVSPropertyOp49
 70
     1
102
RTVSPropertyOp50
 70
     1
102
RTVSPropertyOp51
 70
     0
102
RTVSPropertyOp52
 70
     0
102
RTVSPropertyOp53
 70
     1
102
RTVSPropertyOp54
 70
     1
102
RTVSPropertyOp55
 70
     1
102
RTVSPropertyOp56
 70
     1
102
RTVSPropertyOp57
 70
     1
102
RTVSPost2010Prop28
280
     0
102
RTVSPost2010PropOp28
 70
     1
102
RTVSPost2010Prop29
280
     1
102
RTVSPost2010PropOp29
 70
     1
102
RTVSPost2010Prop30
280
     1
102
RTVSPost2010PropOp30
 70
     1
102
RTVSPost2010Prop31
280
     0
102
RTVSPost2010PropOp31
 70
     1
102
RTVSPost2010Prop32
280
     0
102
RTVSPost2010PropOp32
 70
     1
102
RTVSPost2010Prop33
280
     0
102
RTVSPost2010PropOp33
 70
     1
102
RTVSPost2010Prop34
280
     0
102
RTVSPost2010PropOp34
 70
     1
102
RTVSPost2010Prop35
280
     0
102
RTVSPost2010PropOp35
 70
     1
102
RTVSPost2010Prop36
280
     0
102
RTVSPost2010PropOp36
 70
     1
102
RTVSPost2010Prop37
 90
       50
102
RTVSPost2010PropOp37
 70
     1
102
RTVSPost2010Prop38
140
0.0
102
RTVSPost2010PropOp38
 70
     1
102
RTVSPost2010Prop39
140
1.0
102
RTVSPost2010PropOp39
 70
     1
102
RTVSPost2010Prop40
 90
        0
102
RTVSPost2010PropOp40
 70
     1
102
RTVSPost2010Prop41ColorIndex
 90
       18
102
RTVSPost2010Prop41ColorRGB
 90
        0
102
RTVSPost2010PropOp41
 70
     1
102
RTVSPost2010Prop42
 90
       50
102
RTVSPost2010PropOp42
 70
     1
102
RTVSPost2010Prop43
 90
        3
102
RTVSPost2010PropOp43
 70
     1
102
RTVSPost2010Prop44ColorIndex
 90
        5
102
RTVSPost2010Prop44ColorRGB
 90
      255
102
RTVSPost2010PropOp44
 70
     1
102
RTVSPost2010Prop45
280
     0
102
RTVSPost2010PropOp45
 70
     1
102
RTVSPost2010Prop46
 90
       50
102
RTVSPost2010PropOp46
 70
     1
102
RTVSPost2010Prop47
 90
       50
102
RTVSPost2010PropOp47
 70
     1
102
RTVSPost2010Prop48
 90
       50
102
RTVSPost2010PropOp48
 70
     1
102
RTVSPost2010Prop49
280
     0
102
RTVSPost2010PropOp49
 70
     1
102
RTVSPost2010Prop50
 90
       50
102
RTVSPost2010PropOp50
 70
     1
102
RTVSPost2010Prop51ColorIndex
 90
      256
102
RTVSPost2010Prop51ColorRGB
 90
-16777216
102
RTVSPost2010PropOp51
 70
     0
102
RTVSPost2010Prop52
140
1.0
102
RTVSPost2010PropOp52
 70
     0
102
RTVSPost2010Prop53
 90
        2
102
RTVSPost2010PropOp53
 70
     1
102
RTVSPost2010Prop54
  1
strokes_ogs.tif
102
RTVSPost2010PropOp54
 70
     1
102
RTVSPost2010Prop55
280
     0
102
RTVSPost2010PropOp55
 70
     1
102
RTVSPost2010Prop56
140
1.0
102
RTVSPost2010PropOp56
 70
     1
102
RTVSPost2010Prop57
140
1.0
102
RTVSPost2010PropOp57
 70
     1
  0
XRECORD
  5
1ECB
102
{ACAD_REACTORS
330
1ECA
102
}
330
1ECA
100
AcDbXrecord
280
     1
102
RTVSPropertyOp0
 70
     1
102
RTVSPropertyOp1
 70
     1
102
RTVSPropertyOp2
 70
     1
102
RTVSPropertyOp3
 70
     1
102
RTVSPropertyOp4
 70
     1
102
RTVSPropertyOp5
 70
     1
102
RTVSPropertyOp6
 70
     1
102
RTVSPropertyOp7
 70
     1
102
RTVSPropertyOp8
 70
     1
102
RTVSPropertyOp9
 70
     1
102
RTVSPropertyOp10
 70
     1
102
RTVSPropertyOp11
 70
     1
102
RTVSPropertyOp12
 70
     1
102
RTVSPropertyOp13
 70
     1
102
RTVSPropertyOp14
 70
     1
102
RTVSPropertyOp15
 70
     1
102
RTVSPropertyOp16
 70
     1
102
RTVSPropertyOp17
 70
     1
102
RTVSPropertyOp18
 70
     1
102
RTVSPropertyOp19
 70
     1
102
RTVSPropertyOp20
 70
     1
102
RTVSPropertyOp21
 70
     1
102
RTVSPropertyOp22
 70
     1
102
RTVSPropertyOp23
 70
     1
102
RTVSPropertyOp24
 70
     1
102
RTVSPropertyOp25
 70
     1
102
RTVSPropertyOp26
 70
     1
102
RTVSPropertyOp27
 70
     1
102
RTVSPropertyOp28
 70
     1
102
RTVSPropertyOp29
 70
     1
102
RTVSPropertyOp30
 70
     1
102
RTVSPropertyOp31
 70
     1
102
RTVSPropertyOp32
 70
     1
102
RTVSPropertyOp33
 70
     1
102
RTVSPropertyOp34
 70
     1
102
RTVSPropertyOp35
 70
     1
102
RTVSPropertyOp36
 70
     1
102
RTVSPropertyOp37
 70
     1
102
RTVSPropertyOp38
 70
     1
102
RTVSPropertyOp39
 70
     1
102
RTVSPropertyOp40
 70
     1
102
RTVSPropertyOp41
 70
     1
102
RTVSPropertyOp42
 70
     1
102
RTVSPropertyOp43
 70
     1
102
RTVSPropertyOp44
 70
     1
102
RTVSPropertyOp45
 70
     1
102
RTVSPropertyOp46
 70
     1
102
RTVSPropertyOp47
 70
     1
102
RTVSPropertyOp48
 70
     1
102
RTVSPropertyOp49
 70
     1
102
RTVSPropertyOp50
 70
     1
102
RTVSPropertyOp51
 70
     0
102
RTVSPropertyOp52
 70
     0
102
RTVSPropertyOp53
 70
     1
102
RTVSPropertyOp54
 70
     1
102
RTVSPropertyOp55
 70
     1
102
RTVSPropertyOp56
 70
     1
102
RTVSPropertyOp57
 70
     1
102
RTVSPost2010Prop28
280
     0
102
RTVSPost2010PropOp28
 70
     1
102
RTVSPost2010Prop29
280
     1
102
RTVSPost2010PropOp29
 70
     1
102
RTVSPost2010Prop30
280
     1
102
RTVSPost2010PropOp30
 70
     1
102
RTVSPost2010Prop31
280
     0
102
RTVSPost2010PropOp31
 70
     1
102
RTVSPost2010Prop32
280
     0
102
RTVSPost2010PropOp32
 70
     1
102
RTVSPost2010Prop33
280
     0
102
RTVSPost2010PropOp33
 70
     1
102
RTVSPost2010Prop34
280
     0
102
RTVSPost2010PropOp34
 70
     1
102
RTVSPost2010Prop35
280
     0
102
RTVSPost2010PropOp35
 70
     1
102
RTVSPost2010Prop36
280
     0
102
RTVSPost2010PropOp36
 70
     1
102
RTVSPost2010Prop37
 90
       50
102
RTVSPost2010PropOp37
 70
     1
102
RTVSPost2010Prop38
140
0.0
102
RTVSPost2010PropOp38
 70
     1
102
RTVSPost2010Prop39
140
1.0
102
RTVSPost2010PropOp39
 70
     1
102
RTVSPost2010Prop40
 90
        0
102
RTVSPost2010PropOp40
 70
     1
102
RTVSPost2010Prop41ColorIndex
 90
       18
102
RTVSPost2010Prop41ColorRGB
 90
        0
102
RTVSPost2010PropOp41
 70
     1
102
RTVSPost2010Prop42
 90
       50
102
RTVSPost2010PropOp42
 70
     1
102
RTVSPost2010Prop43
 90
        3
102
RTVSPost2010PropOp43
 70
     1
102
RTVSPost2010Prop44ColorIndex
 90
        5
102
RTVSPost2010Prop44ColorRGB
 90
      255
102
RTVSPost2010PropOp44
 70
     1
102
RTVSPost2010Prop45
280
     0
102
RTVSPost2010PropOp45
 70
     1
102
RTVSPost2010Prop46
 90
       50
102
RTVSPost2010PropOp46
 70
     1
102
RTVSPost2010Prop47
 90
       50
102
RTVSPost2010PropOp47
 70
     1
102
RTVSPost2010Prop48
 90
       50
102
RTVSPost2010PropOp48
 70
     1
102
RTVSPost2010Prop49
280
     0
102
RTVSPost2010PropOp49
 70
     1
102
RTVSPost2010Prop50
 90
       50
102
RTVSPost2010PropOp50
 70
     1
102
RTVSPost2010Prop51ColorIndex
 90
      256
102
RTVSPost2010Prop51ColorRGB
 90
-16777216
102
RTVSPost2010PropOp51
 70
     0
102
RTVSPost2010Prop52
140
1.0
102
RTVSPost2010PropOp52
 70
     0
102
RTVSPost2010Prop53
 90
        2
102
RTVSPost2010PropOp53
 70
     1
102
RTVSPost2010Prop54
  1
strokes_ogs.tif
102
RTVSPost2010PropOp54
 70
     1
102
RTVSPost2010Prop55
280
     0
102
RTVSPost2010PropOp55
 70
     1
102
RTVSPost2010Prop56
140
1.0
102
RTVSPost2010PropOp56
 70
     1
102
RTVSPost2010Prop57
140
1.0
102
RTVSPost2010PropOp57
 70
     1
  0
XRECORD
  5
1ECD
102
{ACAD_REACTORS
330
1ECC
102
}
330
1ECC
100
AcDbXrecord
280
     1
102
RTVSPropertyOp0
 70
     1
102
RTVSPropertyOp1
 70
     1
102
RTVSPropertyOp2
 70
     1
102
RTVSPropertyOp3
 70
     1
102
RTVSPropertyOp4
 70
     1
102
RTVSPropertyOp5
 70
     1
102
RTVSPropertyOp6
 70
     1
102
RTVSPropertyOp7
 70
     1
102
RTVSPropertyOp8
 70
     1
102
RTVSPropertyOp9
 70
     1
102
RTVSPropertyOp10
 70
     1
102
RTVSPropertyOp11
 70
     1
102
RTVSPropertyOp12
 70
     1
102
RTVSPropertyOp13
 70
     1
102
RTVSPropertyOp14
 70
     1
102
RTVSPropertyOp15
 70
     1
102
RTVSPropertyOp16
 70
     1
102
RTVSPropertyOp17
 70
     1
102
RTVSPropertyOp18
 70
     1
102
RTVSPropertyOp19
 70
     1
102
RTVSPropertyOp20
 70
     1
102
RTVSPropertyOp21
 70
     1
102
RTVSPropertyOp22
 70
     1
102
RTVSPropertyOp23
 70
     1
102
RTVSPropertyOp24
 70
     1
102
RTVSPropertyOp25
 70
     1
102
RTVSPropertyOp26
 70
     1
102
RTVSPropertyOp27
 70
     1
102
RTVSPropertyOp28
 70
     1
102
RTVSPropertyOp29
 70
     1
102
RTVSPropertyOp30
 70
     1
102
RTVSPropertyOp31
 70
     1
102
RTVSPropertyOp32
 70
     1
102
RTVSPropertyOp33
 70
     1
102
RTVSPropertyOp34
 70
     1
102
RTVSPropertyOp35
 70
     1
102
RTVSPropertyOp36
 70
     1
102
RTVSPropertyOp37
 70
     1
102
RTVSPropertyOp38
 70
     1
102
RTVSPropertyOp39
 70
     1
102
RTVSPropertyOp40
 70
     1
102
RTVSPropertyOp41
 70
     1
102
RTVSPropertyOp42
 70
     1
102
RTVSPropertyOp43
 70
     1
102
RTVSPropertyOp44
 70
     1
102
RTVSPropertyOp45
 70
     1
102
RTVSPropertyOp46
 70
     1
102
RTVSPropertyOp47
 70
     1
102
RTVSPropertyOp48
 70
     1
102
RTVSPropertyOp49
 70
     1
102
RTVSPropertyOp50
 70
     1
102
RTVSPropertyOp51
 70
     0
102
RTVSPropertyOp52
 70
     0
102
RTVSPropertyOp53
 70
     1
102
RTVSPropertyOp54
 70
     1
102
RTVSPropertyOp55
 70
     1
102
RTVSPropertyOp56
 70
     1
102
RTVSPropertyOp57
 70
     1
102
RTVSPost2010Prop28
280
     0
102
RTVSPost2010PropOp28
 70
     1
102
RTVSPost2010Prop29
280
     1
102
RTVSPost2010PropOp29
 70
     1
102
RTVSPost2010Prop30
280
     1
102
RTVSPost2010PropOp30
 70
     1
102
RTVSPost2010Prop31
280
     0
102
RTVSPost2010PropOp31
 70
     1
102
RTVSPost2010Prop32
280
     0
102
RTVSPost2010PropOp32
 70
     1
102
RTVSPost2010Prop33
280
     0
102
RTVSPost2010PropOp33
 70
     1
102
RTVSPost2010Prop34
280
     0
102
RTVSPost2010PropOp34
 70
     1
102
RTVSPost2010Prop35
280
     0
102
RTVSPost2010PropOp35
 70
     1
102
RTVSPost2010Prop36
280
     0
102
RTVSPost2010PropOp36
 70
     1
102
RTVSPost2010Prop37
 90
       50
102
RTVSPost2010PropOp37
 70
     1
102
RTVSPost2010Prop38
140
0.0
102
RTVSPost2010PropOp38
 70
     1
102
RTVSPost2010Prop39
140
1.0
102
RTVSPost2010PropOp39
 70
     1
102
RTVSPost2010Prop40
 90
        0
102
RTVSPost2010PropOp40
 70
     1
102
RTVSPost2010Prop41ColorIndex
 90
       18
102
RTVSPost2010Prop41ColorRGB
 90
        0
102
RTVSPost2010PropOp41
 70
     1
102
RTVSPost2010Prop42
 90
       50
102
RTVSPost2010PropOp42
 70
     1
102
RTVSPost2010Prop43
 90
        3
102
RTVSPost2010PropOp43
 70
     1
102
RTVSPost2010Prop44ColorIndex
 90
        5
102
RTVSPost2010Prop44ColorRGB
 90
      255
102
RTVSPost2010PropOp44
 70
     1
102
RTVSPost2010Prop45
280
     0
102
RTVSPost2010PropOp45
 70
     1
102
RTVSPost2010Prop46
 90
       50
102
RTVSPost2010PropOp46
 70
     1
102
RTVSPost2010Prop47
 90
       50
102
RTVSPost2010PropOp47
 70
     1
102
RTVSPost2010Prop48
 90
       50
102
RTVSPost2010PropOp48
 70
     1
102
RTVSPost2010Prop49
280
     0
102
RTVSPost2010PropOp49
 70
     1
102
RTVSPost2010Prop50
 90
       50
102
RTVSPost2010PropOp50
 70
     1
102
RTVSPost2010Prop51ColorIndex
 90
      256
102
RTVSPost2010Prop51ColorRGB
 90
-16777216
102
RTVSPost2010PropOp51
 70
     0
102
RTVSPost2010Prop52
140
1.0
102
RTVSPost2010PropOp52
 70
     0
102
RTVSPost2010Prop53
 90
        2
102
RTVSPost2010PropOp53
 70
     1
102
RTVSPost2010Prop54
  1
strokes_ogs.tif
102
RTVSPost2010PropOp54
 70
     1
102
RTVSPost2010Prop55
280
     0
102
RTVSPost2010PropOp55
 70
     1
102
RTVSPost2010Prop56
140
1.0
102
RTVSPost2010PropOp56
 70
     1
102
RTVSPost2010Prop57
140
1.0
102
RTVSPost2010PropOp57
 70
     1
  0
XRECORD
  5
1EDD
102
{ACAD_REACTORS
330
1EDC
102
}
330
1EDC
100
AcDbXrecord
280
     1
102
RTVSPropertyOp0
 70
     0
102
RTVSPropertyOp1
 70
     0
102
RTVSPropertyOp2
 70
     0
102
RTVSPropertyOp3
 70
     0
102
RTVSPropertyOp4
 70
     0
102
RTVSPropertyOp5
 70
     0
102
RTVSPropertyOp6
 70
     0
102
RTVSPropertyOp7
 70
     0
102
RTVSPropertyOp8
 70
     0
102
RTVSPropertyOp9
 70
     0
102
RTVSPropertyOp10
 70
     0
102
RTVSPropertyOp11
 70
     0
102
RTVSPropertyOp12
 70
     0
102
RTVSPropertyOp13
 70
     0
102
RTVSPropertyOp14
 70
     0
102
RTVSPropertyOp15
 70
     0
102
RTVSPropertyOp16
 70
     0
102
RTVSPropertyOp17
 70
     0
102
RTVSPropertyOp18
 70
     0
102
RTVSPropertyOp19
 70
     0
102
RTVSPropertyOp20
 70
     0
102
RTVSPropertyOp21
 70
     0
102
RTVSPropertyOp22
 70
     0
102
RTVSPropertyOp23
 70
     0
102
RTVSPropertyOp24
 70
     0
102
RTVSPropertyOp25
 70
     0
102
RTVSPropertyOp26
 70
     0
102
RTVSPropertyOp27
 70
     0
102
RTVSPropertyOp28
 70
     1
102
RTVSPropertyOp29
 70
     1
102
RTVSPropertyOp30
 70
     1
102
RTVSPropertyOp31
 70
     1
102
RTVSPropertyOp32
 70
     1
102
RTVSPropertyOp33
 70
     1
102
RTVSPropertyOp34
 70
     1
102
RTVSPropertyOp35
 70
     1
102
RTVSPropertyOp36
 70
     1
102
RTVSPropertyOp37
 70
     1
102
RTVSPropertyOp38
 70
     1
102
RTVSPropertyOp39
 70
     1
102
RTVSPropertyOp40
 70
     1
102
RTVSPropertyOp41
 70
     1
102
RTVSPropertyOp42
 70
     1
102
RTVSPropertyOp43
 70
     1
102
RTVSPropertyOp44
 70
     1
102
RTVSPropertyOp45
 70
     1
102
RTVSPropertyOp46
 70
     1
102
RTVSPropertyOp47
 70
     1
102
RTVSPropertyOp48
 70
     1
102
RTVSPropertyOp49
 70
     1
102
RTVSPropertyOp50
 70
     1
102
RTVSPropertyOp51
 70
     0
102
RTVSPropertyOp52
 70
     0
102
RTVSPropertyOp53
 70
     1
102
RTVSPropertyOp54
 70
     1
102
RTVSPropertyOp55
 70
     1
102
RTVSPropertyOp56
 70
     1
102
RTVSPropertyOp57
 70
     1
102
RTVSPost2010Prop28
280
     0
102
RTVSPost2010PropOp28
 70
     1
102
RTVSPost2010Prop29
280
     1
102
RTVSPost2010PropOp29
 70
     1
102
RTVSPost2010Prop30
280
     1
102
RTVSPost2010PropOp30
 70
     1
102
RTVSPost2010Prop31
280
     0
102
RTVSPost2010PropOp31
 70
     1
102
RTVSPost2010Prop32
280
     0
102
RTVSPost2010PropOp32
 70
     1
102
RTVSPost2010Prop33
280
     0
102
RTVSPost2010PropOp33
 70
     1
102
RTVSPost2010Prop34
280
     0
102
RTVSPost2010PropOp34
 70
     1
102
RTVSPost2010Prop35
280
     0
102
RTVSPost2010PropOp35
 70
     1
102
RTVSPost2010Prop36
280
     0
102
RTVSPost2010PropOp36
 70
     1
102
RTVSPost2010Prop37
 90
       50
102
RTVSPost2010PropOp37
 70
     1
102
RTVSPost2010Prop38
140
0.0
102
RTVSPost2010PropOp38
 70
     1
102
RTVSPost2010Prop39
140
1.0
102
RTVSPost2010PropOp39
 70
     1
102
RTVSPost2010Prop40
 90
        0
102
RTVSPost2010PropOp40
 70
     1
102
RTVSPost2010Prop41ColorIndex
 90
       18
102
RTVSPost2010Prop41ColorRGB
 90
        0
102
RTVSPost2010PropOp41
 70
     1
102
RTVSPost2010Prop42
 90
       50
102
RTVSPost2010PropOp42
 70
     1
102
RTVSPost2010Prop43
 90
        3
102
RTVSPost2010PropOp43
 70
     1
102
RTVSPost2010Prop44ColorIndex
 90
        5
102
RTVSPost2010Prop44ColorRGB
 90
      255
102
RTVSPost2010PropOp44
 70
     1
102
RTVSPost2010Prop45
280
     0
102
RTVSPost2010PropOp45
 70
     1
102
RTVSPost2010Prop46
 90
       50
102
RTVSPost2010PropOp46
 70
     1
102
RTVSPost2010Prop47
 90
       50
102
RTVSPost2010PropOp47
 70
     1
102
RTVSPost2010Prop48
 90
       50
102
RTVSPost2010PropOp48
 70
     1
102
RTVSPost2010Prop49
280
     0
102
RTVSPost2010PropOp49
 70
     1
102
RTVSPost2010Prop50
 90
       50
102
RTVSPost2010PropOp50
 70
     1
102
RTVSPost2010Prop51ColorIndex
 90
      256
102
RTVSPost2010Prop51ColorRGB
 90
-16777216
102
RTVSPost2010PropOp51
 70
     0
102
RTVSPost2010Prop52
140
1.0
102
RTVSPost2010PropOp52
 70
     0
102
RTVSPost2010Prop53
 90
        2
102
RTVSPost2010PropOp53
 70
     1
102
RTVSPost2010Prop54
  1
strokes_ogs.tif
102
RTVSPost2010PropOp54
 70
     1
102
RTVSPost2010Prop55
280
     0
102
RTVSPost2010PropOp55
 70
     1
102
RTVSPost2010Prop56
140
1.0
102
RTVSPost2010PropOp56
 70
     1
102
RTVSPost2010Prop57
140
1.0
102
RTVSPost2010PropOp57
 70
     1
  0
XRECORD
  5
1ED5
102
{ACAD_REACTORS
330
1ED4
102
}
330
1ED4
100
AcDbXrecord
280
     1
102
RTVSPropertyOp0
 70
     1
102
RTVSPropertyOp1
 70
     1
102
RTVSPropertyOp2
 70
     1
102
RTVSPropertyOp3
 70
     1
102
RTVSPropertyOp4
 70
     1
102
RTVSPropertyOp5
 70
     1
102
RTVSPropertyOp6
 70
     1
102
RTVSPropertyOp7
 70
     1
102
RTVSPropertyOp8
 70
     1
102
RTVSPropertyOp9
 70
     1
102
RTVSPropertyOp10
 70
     1
102
RTVSPropertyOp11
 70
     1
102
RTVSPropertyOp12
 70
     1
102
RTVSPropertyOp13
 70
     1
102
RTVSPropertyOp14
 70
     1
102
RTVSPropertyOp15
 70
     1
102
RTVSPropertyOp16
 70
     1
102
RTVSPropertyOp17
 70
     1
102
RTVSPropertyOp18
 70
     1
102
RTVSPropertyOp19
 70
     1
102
RTVSPropertyOp20
 70
     1
102
RTVSPropertyOp21
 70
     1
102
RTVSPropertyOp22
 70
     1
102
RTVSPropertyOp23
 70
     1
102
RTVSPropertyOp24
 70
     1
102
RTVSPropertyOp25
 70
     1
102
RTVSPropertyOp26
 70
     1
102
RTVSPropertyOp27
 70
     1
102
RTVSPropertyOp28
 70
     1
102
RTVSPropertyOp29
 70
     1
102
RTVSPropertyOp30
 70
     1
102
RTVSPropertyOp31
 70
     1
102
RTVSPropertyOp32
 70
     1
102
RTVSPropertyOp33
 70
     1
102
RTVSPropertyOp34
 70
     1
102
RTVSPropertyOp35
 70
     1
102
RTVSPropertyOp36
 70
     1
102
RTVSPropertyOp37
 70
     1
102
RTVSPropertyOp38
 70
     1
102
RTVSPropertyOp39
 70
     1
102
RTVSPropertyOp40
 70
     1
102
RTVSPropertyOp41
 70
     1
102
RTVSPropertyOp42
 70
     1
102
RTVSPropertyOp43
 70
     1
102
RTVSPropertyOp44
 70
     1
102
RTVSPropertyOp45
 70
     1
102
RTVSPropertyOp46
 70
     1
102
RTVSPropertyOp47
 70
     1
102
RTVSPropertyOp48
 70
     1
102
RTVSPropertyOp49
 70
     1
102
RTVSPropertyOp50
 70
     1
102
RTVSPropertyOp51
 70
     0
102
RTVSPropertyOp52
 70
     0
102
RTVSPropertyOp53
 70
     1
102
RTVSPropertyOp54
 70
     1
102
RTVSPropertyOp55
 70
     1
102
RTVSPropertyOp56
 70
     1
102
RTVSPropertyOp57
 70
     1
102
RTVSPost2010Prop28
280
     0
102
RTVSPost2010PropOp28
 70
     1
102
RTVSPost2010Prop29
280
     1
102
RTVSPost2010PropOp29
 70
     1
102
RTVSPost2010Prop30
280
     1
102
RTVSPost2010PropOp30
 70
     1
102
RTVSPost2010Prop31
280
     0
102
RTVSPost2010PropOp31
 70
     1
102
RTVSPost2010Prop32
280
     0
102
RTVSPost2010PropOp32
 70
     1
102
RTVSPost2010Prop33
280
     0
102
RTVSPost2010PropOp33
 70
     1
102
RTVSPost2010Prop34
280
     0
102
RTVSPost2010PropOp34
 70
     1
102
RTVSPost2010Prop35
280
     0
102
RTVSPost2010PropOp35
 70
     1
102
RTVSPost2010Prop36
280
     0
102
RTVSPost2010PropOp36
 70
     1
102
RTVSPost2010Prop37
 90
       50
102
RTVSPost2010PropOp37
 70
     1
102
RTVSPost2010Prop38
140
0.0
102
RTVSPost2010PropOp38
 70
     1
102
RTVSPost2010Prop39
140
1.0
102
RTVSPost2010PropOp39
 70
     1
102
RTVSPost2010Prop40
 90
        0
102
RTVSPost2010PropOp40
 70
     1
102
RTVSPost2010Prop41ColorIndex
 90
       18
102
RTVSPost2010Prop41ColorRGB
 90
        0
102
RTVSPost2010PropOp41
 70
     1
102
RTVSPost2010Prop42
 90
       50
102
RTVSPost2010PropOp42
 70
     1
102
RTVSPost2010Prop43
 90
        3
102
RTVSPost2010PropOp43
 70
     1
102
RTVSPost2010Prop44ColorIndex
 90
        5
102
RTVSPost2010Prop44ColorRGB
 90
      255
102
RTVSPost2010PropOp44
 70
     1
102
RTVSPost2010Prop45
280
     0
102
RTVSPost2010PropOp45
 70
     1
102
RTVSPost2010Prop46
 90
       50
102
RTVSPost2010PropOp46
 70
     1
102
RTVSPost2010Prop47
 90
       50
102
RTVSPost2010PropOp47
 70
     1
102
RTVSPost2010Prop48
 90
       50
102
RTVSPost2010PropOp48
 70
     1
102
RTVSPost2010Prop49
280
     0
102
RTVSPost2010PropOp49
 70
     1
102
RTVSPost2010Prop50
 90
       50
102
RTVSPost2010PropOp50
 70
     1
102
RTVSPost2010Prop51ColorIndex
 90
      256
102
RTVSPost2010Prop51ColorRGB
 90
-16777216
102
RTVSPost2010PropOp51
 70
     0
102
RTVSPost2010Prop52
140
1.0
102
RTVSPost2010PropOp52
 70
     0
102
RTVSPost2010Prop53
 90
        2
102
RTVSPost2010PropOp53
 70
     1
102
RTVSPost2010Prop54
  1
strokes_ogs.tif
102
RTVSPost2010PropOp54
 70
     1
102
RTVSPost2010Prop55
280
     0
102
RTVSPost2010PropOp55
 70
     1
102
RTVSPost2010Prop56
140
1.0
102
RTVSPost2010PropOp56
 70
     1
102
RTVSPost2010Prop57
140
1.0
102
RTVSPost2010PropOp57
 70
     1
  0
XRECORD
  5
1EB9
102
{ACAD_REACTORS
330
1EB8
102
}
330
1EB8
100
AcDbXrecord
280
     1
102
RTVSPropertyOp0
 70
     1
102
RTVSPropertyOp1
 70
     1
102
RTVSPropertyOp2
 70
     1
102
RTVSPropertyOp3
 70
     1
102
RTVSPropertyOp4
 70
     1
102
RTVSPropertyOp5
 70
     1
102
RTVSPropertyOp6
 70
     1
102
RTVSPropertyOp7
 70
     1
102
RTVSPropertyOp8
 70
     1
102
RTVSPropertyOp9
 70
     1
102
RTVSPropertyOp10
 70
     1
102
RTVSPropertyOp11
 70
     1
102
RTVSPropertyOp12
 70
     1
102
RTVSPropertyOp13
 70
     1
102
RTVSPropertyOp14
 70
     1
102
RTVSPropertyOp15
 70
     1
102
RTVSPropertyOp16
 70
     1
102
RTVSPropertyOp17
 70
     1
102
RTVSPropertyOp18
 70
     1
102
RTVSPropertyOp19
 70
     1
102
RTVSPropertyOp20
 70
     1
102
RTVSPropertyOp21
 70
     1
102
RTVSPropertyOp22
 70
     1
102
RTVSPropertyOp23
 70
     1
102
RTVSPropertyOp24
 70
     1
102
RTVSPropertyOp25
 70
     1
102
RTVSPropertyOp26
 70
     1
102
RTVSPropertyOp27
 70
     1
102
RTVSPropertyOp28
 70
     1
102
RTVSPropertyOp29
 70
     1
102
RTVSPropertyOp30
 70
     1
102
RTVSPropertyOp31
 70
     1
102
RTVSPropertyOp32
 70
     1
102
RTVSPropertyOp33
 70
     1
102
RTVSPropertyOp34
 70
     1
102
RTVSPropertyOp35
 70
     1
102
RTVSPropertyOp36
 70
     1
102
RTVSPropertyOp37
 70
     1
102
RTVSPropertyOp38
 70
     1
102
RTVSPropertyOp39
 70
     1
102
RTVSPropertyOp40
 70
     1
102
RTVSPropertyOp41
 70
     1
102
RTVSPropertyOp42
 70
     1
102
RTVSPropertyOp43
 70
     1
102
RTVSPropertyOp44
 70
     1
102
RTVSPropertyOp45
 70
     1
102
RTVSPropertyOp46
 70
     1
102
RTVSPropertyOp47
 70
     1
102
RTVSPropertyOp48
 70
     1
102
RTVSPropertyOp49
 70
     1
102
RTVSPropertyOp50
 70
     1
102
RTVSPropertyOp51
 70
     0
102
RTVSPropertyOp52
 70
     0
102
RTVSPropertyOp53
 70
     1
102
RTVSPropertyOp54
 70
     1
102
RTVSPropertyOp55
 70
     1
102
RTVSPropertyOp56
 70
     1
102
RTVSPropertyOp57
 70
     1
102
RTVSPost2010Prop28
280
     0
102
RTVSPost2010PropOp28
 70
     1
102
RTVSPost2010Prop29
280
     1
102
RTVSPost2010PropOp29
 70
     1
102
RTVSPost2010Prop30
280
     1
102
RTVSPost2010PropOp30
 70
     1
102
RTVSPost2010Prop31
280
     0
102
RTVSPost2010PropOp31
 70
     1
102
RTVSPost2010Prop32
280
     0
102
RTVSPost2010PropOp32
 70
     1
102
RTVSPost2010Prop33
280
     0
102
RTVSPost2010PropOp33
 70
     1
102
RTVSPost2010Prop34
280
     0
102
RTVSPost2010PropOp34
 70
     1
102
RTVSPost2010Prop35
280
     0
102
RTVSPost2010PropOp35
 70
     1
102
RTVSPost2010Prop36
280
     0
102
RTVSPost2010PropOp36
 70
     1
102
RTVSPost2010Prop37
 90
       50
102
RTVSPost2010PropOp37
 70
     1
102
RTVSPost2010Prop38
140
0.0
102
RTVSPost2010PropOp38
 70
     1
102
RTVSPost2010Prop39
140
1.0
102
RTVSPost2010PropOp39
 70
     1
102
RTVSPost2010Prop40
 90
        0
102
RTVSPost2010PropOp40
 70
     1
102
RTVSPost2010Prop41ColorIndex
 90
       18
102
RTVSPost2010Prop41ColorRGB
 90
        0
102
RTVSPost2010PropOp41
 70
     1
102
RTVSPost2010Prop42
 90
       50
102
RTVSPost2010PropOp42
 70
     1
102
RTVSPost2010Prop43
 90
        3
102
RTVSPost2010PropOp43
 70
     1
102
RTVSPost2010Prop44ColorIndex
 90
        5
102
RTVSPost2010Prop44ColorRGB
 90
      255
102
RTVSPost2010PropOp44
 70
     1
102
RTVSPost2010Prop45
280
     0
102
RTVSPost2010PropOp45
 70
     1
102
RTVSPost2010Prop46
 90
       50
102
RTVSPost2010PropOp46
 70
     1
102
RTVSPost2010Prop47
 90
       50
102
RTVSPost2010PropOp47
 70
     1
102
RTVSPost2010Prop48
 90
       50
102
RTVSPost2010PropOp48
 70
     1
102
RTVSPost2010Prop49
280
     0
102
RTVSPost2010PropOp49
 70
     1
102
RTVSPost2010Prop50
 90
       50
102
RTVSPost2010PropOp50
 70
     1
102
RTVSPost2010Prop51ColorIndex
 90
      256
102
RTVSPost2010Prop51ColorRGB
 90
-16777216
102
RTVSPost2010PropOp51
 70
     0
102
RTVSPost2010Prop52
140
1.0
102
RTVSPost2010PropOp52
 70
     0
102
RTVSPost2010Prop53
 90
        2
102
RTVSPost2010PropOp53
 70
     1
102
RTVSPost2010Prop54
  1
strokes_ogs.tif
102
RTVSPost2010PropOp54
 70
     1
102
RTVSPost2010Prop55
280
     0
102
RTVSPost2010PropOp55
 70
     1
102
RTVSPost2010Prop56
140
1.0
102
RTVSPost2010PropOp56
 70
     1
102
RTVSPost2010Prop57
140
1.0
102
RTVSPost2010PropOp57
 70
     1
  0
XRECORD
  5
1EBB
102
{ACAD_REACTORS
330
1EBA
102
}
330
1EBA
100
AcDbXrecord
280
     1
102
RTVSPropertyOp0
 70
     1
102
RTVSPropertyOp1
 70
     1
102
RTVSPropertyOp2
 70
     1
102
RTVSPropertyOp3
 70
     1
102
RTVSPropertyOp4
 70
     1
102
RTVSPropertyOp5
 70
     1
102
RTVSPropertyOp6
 70
     1
102
RTVSPropertyOp7
 70
     1
102
RTVSPropertyOp8
 70
     1
102
RTVSPropertyOp9
 70
     1
102
RTVSPropertyOp10
 70
     1
102
RTVSPropertyOp11
 70
     1
102
RTVSPropertyOp12
 70
     1
102
RTVSPropertyOp13
 70
     1
102
RTVSPropertyOp14
 70
     1
102
RTVSPropertyOp15
 70
     1
102
RTVSPropertyOp16
 70
     1
102
RTVSPropertyOp17
 70
     1
102
RTVSPropertyOp18
 70
     1
102
RTVSPropertyOp19
 70
     1
102
RTVSPropertyOp20
 70
     1
102
RTVSPropertyOp21
 70
     1
102
RTVSPropertyOp22
 70
     1
102
RTVSPropertyOp23
 70
     1
102
RTVSPropertyOp24
 70
     1
102
RTVSPropertyOp25
 70
     1
102
RTVSPropertyOp26
 70
     1
102
RTVSPropertyOp27
 70
     1
102
RTVSPropertyOp28
 70
     1
102
RTVSPropertyOp29
 70
     1
102
RTVSPropertyOp30
 70
     1
102
RTVSPropertyOp31
 70
     1
102
RTVSPropertyOp32
 70
     1
102
RTVSPropertyOp33
 70
     1
102
RTVSPropertyOp34
 70
     1
102
RTVSPropertyOp35
 70
     1
102
RTVSPropertyOp36
 70
     1
102
RTVSPropertyOp37
 70
     1
102
RTVSPropertyOp38
 70
     1
102
RTVSPropertyOp39
 70
     1
102
RTVSPropertyOp40
 70
     1
102
RTVSPropertyOp41
 70
     1
102
RTVSPropertyOp42
 70
     1
102
RTVSPropertyOp43
 70
     1
102
RTVSPropertyOp44
 70
     1
102
RTVSPropertyOp45
 70
     1
102
RTVSPropertyOp46
 70
     1
102
RTVSPropertyOp47
 70
     1
102
RTVSPropertyOp48
 70
     1
102
RTVSPropertyOp49
 70
     1
102
RTVSPropertyOp50
 70
     1
102
RTVSPropertyOp51
 70
     0
102
RTVSPropertyOp52
 70
     0
102
RTVSPropertyOp53
 70
     1
102
RTVSPropertyOp54
 70
     1
102
RTVSPropertyOp55
 70
     1
102
RTVSPropertyOp56
 70
     1
102
RTVSPropertyOp57
 70
     1
102
RTVSPost2010Prop28
280
     0
102
RTVSPost2010PropOp28
 70
     1
102
RTVSPost2010Prop29
280
     1
102
RTVSPost2010PropOp29
 70
     1
102
RTVSPost2010Prop30
280
     1
102
RTVSPost2010PropOp30
 70
     1
102
RTVSPost2010Prop31
280
     0
102
RTVSPost2010PropOp31
 70
     1
102
RTVSPost2010Prop32
280
     0
102
RTVSPost2010PropOp32
 70
     1
102
RTVSPost2010Prop33
280
     0
102
RTVSPost2010PropOp33
 70
     1
102
RTVSPost2010Prop34
280
     0
102
RTVSPost2010PropOp34
 70
     1
102
RTVSPost2010Prop35
280
     0
102
RTVSPost2010PropOp35
 70
     1
102
RTVSPost2010Prop36
280
     0
102
RTVSPost2010PropOp36
 70
     1
102
RTVSPost2010Prop37
 90
       50
102
RTVSPost2010PropOp37
 70
     1
102
RTVSPost2010Prop38
140
0.0
102
RTVSPost2010PropOp38
 70
     1
102
RTVSPost2010Prop39
140
1.0
102
RTVSPost2010PropOp39
 70
     1
102
RTVSPost2010Prop40
 90
        0
102
RTVSPost2010PropOp40
 70
     1
102
RTVSPost2010Prop41ColorIndex
 90
       18
102
RTVSPost2010Prop41ColorRGB
 90
        0
102
RTVSPost2010PropOp41
 70
     1
102
RTVSPost2010Prop42
 90
       50
102
RTVSPost2010PropOp42
 70
     1
102
RTVSPost2010Prop43
 90
        3
102
RTVSPost2010PropOp43
 70
     1
102
RTVSPost2010Prop44ColorIndex
 90
        5
102
RTVSPost2010Prop44ColorRGB
 90
      255
102
RTVSPost2010PropOp44
 70
     1
102
RTVSPost2010Prop45
280
     0
102
RTVSPost2010PropOp45
 70
     1
102
RTVSPost2010Prop46
 90
       50
102
RTVSPost2010PropOp46
 70
     1
102
RTVSPost2010Prop47
 90
       50
102
RTVSPost2010PropOp47
 70
     1
102
RTVSPost2010Prop48
 90
       50
102
RTVSPost2010PropOp48
 70
     1
102
RTVSPost2010Prop49
280
     0
102
RTVSPost2010PropOp49
 70
     1
102
RTVSPost2010Prop50
 90
       50
102
RTVSPost2010PropOp50
 70
     1
102
RTVSPost2010Prop51ColorIndex
 90
      256
102
RTVSPost2010Prop51ColorRGB
 90
-16777216
102
RTVSPost2010PropOp51
 70
     0
102
RTVSPost2010Prop52
140
1.0
102
RTVSPost2010PropOp52
 70
     0
102
RTVSPost2010Prop53
 90
        2
102
RTVSPost2010PropOp53
 70
     1
102
RTVSPost2010Prop54
  1
strokes_ogs.tif
102
RTVSPost2010PropOp54
 70
     1
102
RTVSPost2010Prop55
280
     0
102
RTVSPost2010PropOp55
 70
     1
102
RTVSPost2010Prop56
140
1.0
102
RTVSPost2010PropOp56
 70
     1
102
RTVSPost2010Prop57
140
1.0
102
RTVSPost2010PropOp57
 70
     1
  0
XRECORD
  5
1EBD
102
{ACAD_REACTORS
330
1EBC
102
}
330
1EBC
100
AcDbXrecord
280
     1
102
RTVSPropertyOp0
 70
     1
102
RTVSPropertyOp1
 70
     1
102
RTVSPropertyOp2
 70
     1
102
RTVSPropertyOp3
 70
     1
102
RTVSPropertyOp4
 70
     1
102
RTVSPropertyOp5
 70
     1
102
RTVSPropertyOp6
 70
     1
102
RTVSPropertyOp7
 70
     1
102
RTVSPropertyOp8
 70
     1
102
RTVSPropertyOp9
 70
     1
102
RTVSPropertyOp10
 70
     1
102
RTVSPropertyOp11
 70
     1
102
RTVSPropertyOp12
 70
     1
102
RTVSPropertyOp13
 70
     1
102
RTVSPropertyOp14
 70
     1
102
RTVSPropertyOp15
 70
     1
102
RTVSPropertyOp16
 70
     1
102
RTVSPropertyOp17
 70
     1
102
RTVSPropertyOp18
 70
     1
102
RTVSPropertyOp19
 70
     1
102
RTVSPropertyOp20
 70
     1
102
RTVSPropertyOp21
 70
     1
102
RTVSPropertyOp22
 70
     1
102
RTVSPropertyOp23
 70
     1
102
RTVSPropertyOp24
 70
     1
102
RTVSPropertyOp25
 70
     1
102
RTVSPropertyOp26
 70
     1
102
RTVSPropertyOp27
 70
     1
102
RTVSPropertyOp28
 70
     1
102
RTVSPropertyOp29
 70
     1
102
RTVSPropertyOp30
 70
     1
102
RTVSPropertyOp31
 70
     1
102
RTVSPropertyOp32
 70
     1
102
RTVSPropertyOp33
 70
     1
102
RTVSPropertyOp34
 70
     1
102
RTVSPropertyOp35
 70
     1
102
RTVSPropertyOp36
 70
     1
102
RTVSPropertyOp37
 70
     1
102
RTVSPropertyOp38
 70
     1
102
RTVSPropertyOp39
 70
     1
102
RTVSPropertyOp40
 70
     1
102
RTVSPropertyOp41
 70
     1
102
RTVSPropertyOp42
 70
     1
102
RTVSPropertyOp43
 70
     1
102
RTVSPropertyOp44
 70
     1
102
RTVSPropertyOp45
 70
     1
102
RTVSPropertyOp46
 70
     1
102
RTVSPropertyOp47
 70
     1
102
RTVSPropertyOp48
 70
     1
102
RTVSPropertyOp49
 70
     1
102
RTVSPropertyOp50
 70
     1
102
RTVSPropertyOp51
 70
     0
102
RTVSPropertyOp52
 70
     0
102
RTVSPropertyOp53
 70
     1
102
RTVSPropertyOp54
 70
     1
102
RTVSPropertyOp55
 70
     1
102
RTVSPropertyOp56
 70
     1
102
RTVSPropertyOp57
 70
     1
102
RTVSPost2010Prop28
280
     0
102
RTVSPost2010PropOp28
 70
     1
102
RTVSPost2010Prop29
280
     1
102
RTVSPost2010PropOp29
 70
     1
102
RTVSPost2010Prop30
280
     1
102
RTVSPost2010PropOp30
 70
     1
102
RTVSPost2010Prop31
280
     0
102
RTVSPost2010PropOp31
 70
     1
102
RTVSPost2010Prop32
280
     0
102
RTVSPost2010PropOp32
 70
     1
102
RTVSPost2010Prop33
280
     0
102
RTVSPost2010PropOp33
 70
     1
102
RTVSPost2010Prop34
280
     0
102
RTVSPost2010PropOp34
 70
     1
102
RTVSPost2010Prop35
280
     0
102
RTVSPost2010PropOp35
 70
     1
102
RTVSPost2010Prop36
280
     0
102
RTVSPost2010PropOp36
 70
     1
102
RTVSPost2010Prop37
 90
       50
102
RTVSPost2010PropOp37
 70
     1
102
RTVSPost2010Prop38
140
0.0
102
RTVSPost2010PropOp38
 70
     1
102
RTVSPost2010Prop39
140
1.0
102
RTVSPost2010PropOp39
 70
     1
102
RTVSPost2010Prop40
 90
        0
102
RTVSPost2010PropOp40
 70
     1
102
RTVSPost2010Prop41ColorIndex
 90
       18
102
RTVSPost2010Prop41ColorRGB
 90
        0
102
RTVSPost2010PropOp41
 70
     1
102
RTVSPost2010Prop42
 90
       50
102
RTVSPost2010PropOp42
 70
     1
102
RTVSPost2010Prop43
 90
        3
102
RTVSPost2010PropOp43
 70
     1
102
RTVSPost2010Prop44ColorIndex
 90
        5
102
RTVSPost2010Prop44ColorRGB
 90
      255
102
RTVSPost2010PropOp44
 70
     1
102
RTVSPost2010Prop45
280
     0
102
RTVSPost2010PropOp45
 70
     1
102
RTVSPost2010Prop46
 90
       50
102
RTVSPost2010PropOp46
 70
     1
102
RTVSPost2010Prop47
 90
       50
102
RTVSPost2010PropOp47
 70
     1
102
RTVSPost2010Prop48
 90
       50
102
RTVSPost2010PropOp48
 70
     1
102
RTVSPost2010Prop49
280
     0
102
RTVSPost2010PropOp49
 70
     1
102
RTVSPost2010Prop50
 90
       50
102
RTVSPost2010PropOp50
 70
     1
102
RTVSPost2010Prop51ColorIndex
 90
      256
102
RTVSPost2010Prop51ColorRGB
 90
-16777216
102
RTVSPost2010PropOp51
 70
     0
102
RTVSPost2010Prop52
140
1.0
102
RTVSPost2010PropOp52
 70
     0
102
RTVSPost2010Prop53
 90
        2
102
RTVSPost2010PropOp53
 70
     1
102
RTVSPost2010Prop54
  1
strokes_ogs.tif
102
RTVSPost2010PropOp54
 70
     1
102
RTVSPost2010Prop55
280
     0
102
RTVSPost2010PropOp55
 70
     1
102
RTVSPost2010Prop56
140
1.0
102
RTVSPost2010PropOp56
 70
     1
102
RTVSPost2010Prop57
140
1.0
102
RTVSPost2010PropOp57
 70
     1
  0
XRECORD
  5
1EBF
102
{ACAD_REACTORS
330
1EBE
102
}
330
1EBE
100
AcDbXrecord
280
     1
102
RTVSPropertyOp0
 70
     1
102
RTVSPropertyOp1
 70
     1
102
RTVSPropertyOp2
 70
     1
102
RTVSPropertyOp3
 70
     1
102
RTVSPropertyOp4
 70
     1
102
RTVSPropertyOp5
 70
     1
102
RTVSPropertyOp6
 70
     1
102
RTVSPropertyOp7
 70
     1
102
RTVSPropertyOp8
 70
     1
102
RTVSPropertyOp9
 70
     1
102
RTVSPropertyOp10
 70
     1
102
RTVSPropertyOp11
 70
     1
102
RTVSPropertyOp12
 70
     1
102
RTVSPropertyOp13
 70
     1
102
RTVSPropertyOp14
 70
     1
102
RTVSPropertyOp15
 70
     1
102
RTVSPropertyOp16
 70
     1
102
RTVSPropertyOp17
 70
     1
102
RTVSPropertyOp18
 70
     1
102
RTVSPropertyOp19
 70
     1
102
RTVSPropertyOp20
 70
     1
102
RTVSPropertyOp21
 70
     1
102
RTVSPropertyOp22
 70
     1
102
RTVSPropertyOp23
 70
     1
102
RTVSPropertyOp24
 70
     1
102
RTVSPropertyOp25
 70
     1
102
RTVSPropertyOp26
 70
     1
102
RTVSPropertyOp27
 70
     1
102
RTVSPropertyOp28
 70
     1
102
RTVSPropertyOp29
 70
     1
102
RTVSPropertyOp30
 70
     1
102
RTVSPropertyOp31
 70
     1
102
RTVSPropertyOp32
 70
     1
102
RTVSPropertyOp33
 70
     1
102
RTVSPropertyOp34
 70
     1
102
RTVSPropertyOp35
 70
     1
102
RTVSPropertyOp36
 70
     1
102
RTVSPropertyOp37
 70
     1
102
RTVSPropertyOp38
 70
     1
102
RTVSPropertyOp39
 70
     1
102
RTVSPropertyOp40
 70
     1
102
RTVSPropertyOp41
 70
     1
102
RTVSPropertyOp42
 70
     1
102
RTVSPropertyOp43
 70
     1
102
RTVSPropertyOp44
 70
     1
102
RTVSPropertyOp45
 70
     1
102
RTVSPropertyOp46
 70
     1
102
RTVSPropertyOp47
 70
     1
102
RTVSPropertyOp48
 70
     1
102
RTVSPropertyOp49
 70
     1
102
RTVSPropertyOp50
 70
     1
102
RTVSPropertyOp51
 70
     0
102
RTVSPropertyOp52
 70
     0
102
RTVSPropertyOp53
 70
     1
102
RTVSPropertyOp54
 70
     1
102
RTVSPropertyOp55
 70
     1
102
RTVSPropertyOp56
 70
     1
102
RTVSPropertyOp57
 70
     1
102
RTVSPost2010Prop28
280
     0
102
RTVSPost2010PropOp28
 70
     1
102
RTVSPost2010Prop29
280
     1
102
RTVSPost2010PropOp29
 70
     1
102
RTVSPost2010Prop30
280
     1
102
RTVSPost2010PropOp30
 70
     1
102
RTVSPost2010Prop31
280
     0
102
RTVSPost2010PropOp31
 70
     1
102
RTVSPost2010Prop32
280
     0
102
RTVSPost2010PropOp32
 70
     1
102
RTVSPost2010Prop33
280
     0
102
RTVSPost2010PropOp33
 70
     1
102
RTVSPost2010Prop34
280
     0
102
RTVSPost2010PropOp34
 70
     1
102
RTVSPost2010Prop35
280
     0
102
RTVSPost2010PropOp35
 70
     1
102
RTVSPost2010Prop36
280
     0
102
RTVSPost2010PropOp36
 70
     1
102
RTVSPost2010Prop37
 90
       50
102
RTVSPost2010PropOp37
 70
     1
102
RTVSPost2010Prop38
140
0.0
102
RTVSPost2010PropOp38
 70
     1
102
RTVSPost2010Prop39
140
1.0
102
RTVSPost2010PropOp39
 70
     1
102
RTVSPost2010Prop40
 90
        0
102
RTVSPost2010PropOp40
 70
     1
102
RTVSPost2010Prop41ColorIndex
 90
       18
102
RTVSPost2010Prop41ColorRGB
 90
        0
102
RTVSPost2010PropOp41
 70
     1
102
RTVSPost2010Prop42
 90
       50
102
RTVSPost2010PropOp42
 70
     1
102
RTVSPost2010Prop43
 90
        3
102
RTVSPost2010PropOp43
 70
     1
102
RTVSPost2010Prop44ColorIndex
 90
        5
102
RTVSPost2010Prop44ColorRGB
 90
      255
102
RTVSPost2010PropOp44
 70
     1
102
RTVSPost2010Prop45
280
     0
102
RTVSPost2010PropOp45
 70
     1
102
RTVSPost2010Prop46
 90
       50
102
RTVSPost2010PropOp46
 70
     1
102
RTVSPost2010Prop47
 90
       50
102
RTVSPost2010PropOp47
 70
     1
102
RTVSPost2010Prop48
 90
       50
102
RTVSPost2010PropOp48
 70
     1
102
RTVSPost2010Prop49
280
     0
102
RTVSPost2010PropOp49
 70
     1
102
RTVSPost2010Prop50
 90
       50
102
RTVSPost2010PropOp50
 70
     1
102
RTVSPost2010Prop51ColorIndex
 90
      256
102
RTVSPost2010Prop51ColorRGB
 90
-16777216
102
RTVSPost2010PropOp51
 70
     0
102
RTVSPost2010Prop52
140
1.0
102
RTVSPost2010PropOp52
 70
     0
102
RTVSPost2010Prop53
 90
        2
102
RTVSPost2010PropOp53
 70
     1
102
RTVSPost2010Prop54
  1
strokes_ogs.tif
102
RTVSPost2010PropOp54
 70
     1
102
RTVSPost2010Prop55
280
     0
102
RTVSPost2010PropOp55
 70
     1
102
RTVSPost2010Prop56
140
1.0
102
RTVSPost2010PropOp56
 70
     1
102
RTVSPost2010Prop57
140
1.0
102
RTVSPost2010PropOp57
 70
     1
  0
XRECORD
  5
1EC5
102
{ACAD_REACTORS
330
1EC4
102
}
330
1EC4
100
AcDbXrecord
280
     1
102
RTVSPropertyOp0
 70
     1
102
RTVSPropertyOp1
 70
     1
102
RTVSPropertyOp2
 70
     1
102
RTVSPropertyOp3
 70
     1
102
RTVSPropertyOp4
 70
     1
102
RTVSPropertyOp5
 70
     1
102
RTVSPropertyOp6
 70
     1
102
RTVSPropertyOp7
 70
     1
102
RTVSPropertyOp8
 70
     1
102
RTVSPropertyOp9
 70
     1
102
RTVSPropertyOp10
 70
     1
102
RTVSPropertyOp11
 70
     1
102
RTVSPropertyOp12
 70
     1
102
RTVSPropertyOp13
 70
     1
102
RTVSPropertyOp14
 70
     1
102
RTVSPropertyOp15
 70
     1
102
RTVSPropertyOp16
 70
     1
102
RTVSPropertyOp17
 70
     1
102
RTVSPropertyOp18
 70
     1
102
RTVSPropertyOp19
 70
     1
102
RTVSPropertyOp20
 70
     1
102
RTVSPropertyOp21
 70
     1
102
RTVSPropertyOp22
 70
     1
102
RTVSPropertyOp23
 70
     1
102
RTVSPropertyOp24
 70
     1
102
RTVSPropertyOp25
 70
     1
102
RTVSPropertyOp26
 70
     1
102
RTVSPropertyOp27
 70
     1
102
RTVSPropertyOp28
 70
     1
102
RTVSPropertyOp29
 70
     1
102
RTVSPropertyOp30
 70
     1
102
RTVSPropertyOp31
 70
     1
102
RTVSPropertyOp32
 70
     1
102
RTVSPropertyOp33
 70
     1
102
RTVSPropertyOp34
 70
     1
102
RTVSPropertyOp35
 70
     1
102
RTVSPropertyOp36
 70
     1
102
RTVSPropertyOp37
 70
     1
102
RTVSPropertyOp38
 70
     1
102
RTVSPropertyOp39
 70
     1
102
RTVSPropertyOp40
 70
     1
102
RTVSPropertyOp41
 70
     1
102
RTVSPropertyOp42
 70
     1
102
RTVSPropertyOp43
 70
     1
102
RTVSPropertyOp44
 70
     1
102
RTVSPropertyOp45
 70
     1
102
RTVSPropertyOp46
 70
     1
102
RTVSPropertyOp47
 70
     1
102
RTVSPropertyOp48
 70
     1
102
RTVSPropertyOp49
 70
     1
102
RTVSPropertyOp50
 70
     1
102
RTVSPropertyOp51
 70
     0
102
RTVSPropertyOp52
 70
     0
102
RTVSPropertyOp53
 70
     1
102
RTVSPropertyOp54
 70
     1
102
RTVSPropertyOp55
 70
     1
102
RTVSPropertyOp56
 70
     1
102
RTVSPropertyOp57
 70
     1
102
RTVSPost2010Prop28
280
     0
102
RTVSPost2010PropOp28
 70
     1
102
RTVSPost2010Prop29
280
     1
102
RTVSPost2010PropOp29
 70
     1
102
RTVSPost2010Prop30
280
     1
102
RTVSPost2010PropOp30
 70
     1
102
RTVSPost2010Prop31
280
     0
102
RTVSPost2010PropOp31
 70
     1
102
RTVSPost2010Prop32
280
     0
102
RTVSPost2010PropOp32
 70
     1
102
RTVSPost2010Prop33
280
     0
102
RTVSPost2010PropOp33
 70
     1
102
RTVSPost2010Prop34
280
     0
102
RTVSPost2010PropOp34
 70
     1
102
RTVSPost2010Prop35
280
     0
102
RTVSPost2010PropOp35
 70
     1
102
RTVSPost2010Prop36
280
     0
102
RTVSPost2010PropOp36
 70
     1
102
RTVSPost2010Prop37
 90
       50
102
RTVSPost2010PropOp37
 70
     1
102
RTVSPost2010Prop38
140
0.0
102
RTVSPost2010PropOp38
 70
     1
102
RTVSPost2010Prop39
140
1.0
102
RTVSPost2010PropOp39
 70
     1
102
RTVSPost2010Prop40
 90
        0
102
RTVSPost2010PropOp40
 70
     1
102
RTVSPost2010Prop41ColorIndex
 90
       18
102
RTVSPost2010Prop41ColorRGB
 90
        0
102
RTVSPost2010PropOp41
 70
     1
102
RTVSPost2010Prop42
 90
       50
102
RTVSPost2010PropOp42
 70
     1
102
RTVSPost2010Prop43
 90
        3
102
RTVSPost2010PropOp43
 70
     1
102
RTVSPost2010Prop44ColorIndex
 90
        5
102
RTVSPost2010Prop44ColorRGB
 90
      255
102
RTVSPost2010PropOp44
 70
     1
102
RTVSPost2010Prop45
280
     0
102
RTVSPost2010PropOp45
 70
     1
102
RTVSPost2010Prop46
 90
       50
102
RTVSPost2010PropOp46
 70
     1
102
RTVSPost2010Prop47
 90
       50
102
RTVSPost2010PropOp47
 70
     1
102
RTVSPost2010Prop48
 90
       50
102
RTVSPost2010PropOp48
 70
     1
102
RTVSPost2010Prop49
280
     0
102
RTVSPost2010PropOp49
 70
     1
102
RTVSPost2010Prop50
 90
       50
102
RTVSPost2010PropOp50
 70
     1
102
RTVSPost2010Prop51ColorIndex
 90
      256
102
RTVSPost2010Prop51ColorRGB
 90
-16777216
102
RTVSPost2010PropOp51
 70
     0
102
RTVSPost2010Prop52
140
1.0
102
RTVSPost2010PropOp52
 70
     0
102
RTVSPost2010Prop53
 90
        2
102
RTVSPost2010PropOp53
 70
     1
102
RTVSPost2010Prop54
  1
strokes_ogs.tif
102
RTVSPost2010PropOp54
 70
     1
102
RTVSPost2010Prop55
280
     0
102
RTVSPost2010PropOp55
 70
     1
102
RTVSPost2010Prop56
140
1.0
102
RTVSPost2010PropOp56
 70
     1
102
RTVSPost2010Prop57
140
1.0
102
RTVSPost2010PropOp57
 70
     1
  0
XRECORD
  5
1ED9
102
{ACAD_REACTORS
330
1ED8
102
}
330
1ED8
100
AcDbXrecord
280
     1
102
RTVSPropertyOp0
 70
     0
102
RTVSPropertyOp1
 70
     0
102
RTVSPropertyOp2
 70
     0
102
RTVSPropertyOp3
 70
     0
102
RTVSPropertyOp4
 70
     0
102
RTVSPropertyOp5
 70
     0
102
RTVSPropertyOp6
 70
     0
102
RTVSPropertyOp7
 70
     0
102
RTVSPropertyOp8
 70
     0
102
RTVSPropertyOp9
 70
     0
102
RTVSPropertyOp10
 70
     0
102
RTVSPropertyOp11
 70
     0
102
RTVSPropertyOp12
 70
     0
102
RTVSPropertyOp13
 70
     0
102
RTVSPropertyOp14
 70
     0
102
RTVSPropertyOp15
 70
     0
102
RTVSPropertyOp16
 70
     0
102
RTVSPropertyOp17
 70
     0
102
RTVSPropertyOp18
 70
     0
102
RTVSPropertyOp19
 70
     0
102
RTVSPropertyOp20
 70
     0
102
RTVSPropertyOp21
 70
     0
102
RTVSPropertyOp22
 70
     0
102
RTVSPropertyOp23
 70
     0
102
RTVSPropertyOp24
 70
     0
102
RTVSPropertyOp25
 70
     0
102
RTVSPropertyOp26
 70
     0
102
RTVSPropertyOp27
 70
     0
102
RTVSPropertyOp28
 70
     1
102
RTVSPropertyOp29
 70
     1
102
RTVSPropertyOp30
 70
     1
102
RTVSPropertyOp31
 70
     1
102
RTVSPropertyOp32
 70
     1
102
RTVSPropertyOp33
 70
     1
102
RTVSPropertyOp34
 70
     1
102
RTVSPropertyOp35
 70
     1
102
RTVSPropertyOp36
 70
     1
102
RTVSPropertyOp37
 70
     1
102
RTVSPropertyOp38
 70
     1
102
RTVSPropertyOp39
 70
     1
102
RTVSPropertyOp40
 70
     1
102
RTVSPropertyOp41
 70
     1
102
RTVSPropertyOp42
 70
     1
102
RTVSPropertyOp43
 70
     1
102
RTVSPropertyOp44
 70
     1
102
RTVSPropertyOp45
 70
     1
102
RTVSPropertyOp46
 70
     1
102
RTVSPropertyOp47
 70
     1
102
RTVSPropertyOp48
 70
     1
102
RTVSPropertyOp49
 70
     1
102
RTVSPropertyOp50
 70
     1
102
RTVSPropertyOp51
 70
     0
102
RTVSPropertyOp52
 70
     0
102
RTVSPropertyOp53
 70
     1
102
RTVSPropertyOp54
 70
     1
102
RTVSPropertyOp55
 70
     1
102
RTVSPropertyOp56
 70
     1
102
RTVSPropertyOp57
 70
     1
102
RTVSPost2010Prop28
280
     0
102
RTVSPost2010PropOp28
 70
     1
102
RTVSPost2010Prop29
280
     1
102
RTVSPost2010PropOp29
 70
     1
102
RTVSPost2010Prop30
280
     1
102
RTVSPost2010PropOp30
 70
     1
102
RTVSPost2010Prop31
280
     0
102
RTVSPost2010PropOp31
 70
     1
102
RTVSPost2010Prop32
280
     0
102
RTVSPost2010PropOp32
 70
     1
102
RTVSPost2010Prop33
280
     0
102
RTVSPost2010PropOp33
 70
     1
102
RTVSPost2010Prop34
280
     0
102
RTVSPost2010PropOp34
 70
     1
102
RTVSPost2010Prop35
280
     0
102
RTVSPost2010PropOp35
 70
     1
102
RTVSPost2010Prop36
280
     0
102
RTVSPost2010PropOp36
 70
     1
102
RTVSPost2010Prop37
 90
       50
102
RTVSPost2010PropOp37
 70
     1
102
RTVSPost2010Prop38
140
0.0
102
RTVSPost2010PropOp38
 70
     1
102
RTVSPost2010Prop39
140
1.0
102
RTVSPost2010PropOp39
 70
     1
102
RTVSPost2010Prop40
 90
        0
102
RTVSPost2010PropOp40
 70
     1
102
RTVSPost2010Prop41ColorIndex
 90
       18
102
RTVSPost2010Prop41ColorRGB
 90
        0
102
RTVSPost2010PropOp41
 70
     1
102
RTVSPost2010Prop42
 90
       50
102
RTVSPost2010PropOp42
 70
     1
102
RTVSPost2010Prop43
 90
        3
102
RTVSPost2010PropOp43
 70
     1
102
RTVSPost2010Prop44ColorIndex
 90
        5
102
RTVSPost2010Prop44ColorRGB
 90
      255
102
RTVSPost2010PropOp44
 70
     1
102
RTVSPost2010Prop45
280
     0
102
RTVSPost2010PropOp45
 70
     1
102
RTVSPost2010Prop46
 90
       50
102
RTVSPost2010PropOp46
 70
     1
102
RTVSPost2010Prop47
 90
       50
102
RTVSPost2010PropOp47
 70
     1
102
RTVSPost2010Prop48
 90
       50
102
RTVSPost2010PropOp48
 70
     1
102
RTVSPost2010Prop49
280
     0
102
RTVSPost2010PropOp49
 70
     1
102
RTVSPost2010Prop50
 90
       50
102
RTVSPost2010PropOp50
 70
     1
102
RTVSPost2010Prop51ColorIndex
 90
      256
102
RTVSPost2010Prop51ColorRGB
 90
-16777216
102
RTVSPost2010PropOp51
 70
     0
102
RTVSPost2010Prop52
140
1.0
102
RTVSPost2010PropOp52
 70
     0
102
RTVSPost2010Prop53
 90
        2
102
RTVSPost2010PropOp53
 70
     1
102
RTVSPost2010Prop54
  1
strokes_ogs.tif
102
RTVSPost2010PropOp54
 70
     1
102
RTVSPost2010Prop55
280
     0
102
RTVSPost2010PropOp55
 70
     1
102
RTVSPost2010Prop56
140
1.0
102
RTVSPost2010PropOp56
 70
     1
102
RTVSPost2010Prop57
140
1.0
102
RTVSPost2010PropOp57
 70
     1
  0
XRECORD
  5
1ED3
102
{ACAD_REACTORS
330
1ED2
102
}
330
1ED2
100
AcDbXrecord
280
     1
102
RTVSPropertyOp0
 70
     1
102
RTVSPropertyOp1
 70
     1
102
RTVSPropertyOp2
 70
     1
102
RTVSPropertyOp3
 70
     1
102
RTVSPropertyOp4
 70
     1
102
RTVSPropertyOp5
 70
     1
102
RTVSPropertyOp6
 70
     1
102
RTVSPropertyOp7
 70
     1
102
RTVSPropertyOp8
 70
     1
102
RTVSPropertyOp9
 70
     1
102
RTVSPropertyOp10
 70
     1
102
RTVSPropertyOp11
 70
     1
102
RTVSPropertyOp12
 70
     1
102
RTVSPropertyOp13
 70
     1
102
RTVSPropertyOp14
 70
     1
102
RTVSPropertyOp15
 70
     1
102
RTVSPropertyOp16
 70
     1
102
RTVSPropertyOp17
 70
     1
102
RTVSPropertyOp18
 70
     1
102
RTVSPropertyOp19
 70
     1
102
RTVSPropertyOp20
 70
     1
102
RTVSPropertyOp21
 70
     1
102
RTVSPropertyOp22
 70
     1
102
RTVSPropertyOp23
 70
     1
102
RTVSPropertyOp24
 70
     1
102
RTVSPropertyOp25
 70
     1
102
RTVSPropertyOp26
 70
     1
102
RTVSPropertyOp27
 70
     1
102
RTVSPropertyOp28
 70
     1
102
RTVSPropertyOp29
 70
     1
102
RTVSPropertyOp30
 70
     1
102
RTVSPropertyOp31
 70
     1
102
RTVSPropertyOp32
 70
     1
102
RTVSPropertyOp33
 70
     1
102
RTVSPropertyOp34
 70
     1
102
RTVSPropertyOp35
 70
     1
102
RTVSPropertyOp36
 70
     1
102
RTVSPropertyOp37
 70
     1
102
RTVSPropertyOp38
 70
     1
102
RTVSPropertyOp39
 70
     1
102
RTVSPropertyOp40
 70
     1
102
RTVSPropertyOp41
 70
     1
102
RTVSPropertyOp42
 70
     1
102
RTVSPropertyOp43
 70
     1
102
RTVSPropertyOp44
 70
     1
102
RTVSPropertyOp45
 70
     1
102
RTVSPropertyOp46
 70
     1
102
RTVSPropertyOp47
 70
     1
102
RTVSPropertyOp48
 70
     1
102
RTVSPropertyOp49
 70
     1
102
RTVSPropertyOp50
 70
     1
102
RTVSPropertyOp51
 70
     0
102
RTVSPropertyOp52
 70
     0
102
RTVSPropertyOp53
 70
     1
102
RTVSPropertyOp54
 70
     1
102
RTVSPropertyOp55
 70
     1
102
RTVSPropertyOp56
 70
     1
102
RTVSPropertyOp57
 70
     1
102
RTVSPost2010Prop28
280
     0
102
RTVSPost2010PropOp28
 70
     1
102
RTVSPost2010Prop29
280
     1
102
RTVSPost2010PropOp29
 70
     1
102
RTVSPost2010Prop30
280
     1
102
RTVSPost2010PropOp30
 70
     1
102
RTVSPost2010Prop31
280
     0
102
RTVSPost2010PropOp31
 70
     1
102
RTVSPost2010Prop32
280
     0
102
RTVSPost2010PropOp32
 70
     1
102
RTVSPost2010Prop33
280
     0
102
RTVSPost2010PropOp33
 70
     1
102
RTVSPost2010Prop34
280
     0
102
RTVSPost2010PropOp34
 70
     1
102
RTVSPost2010Prop35
280
     0
102
RTVSPost2010PropOp35
 70
     1
102
RTVSPost2010Prop36
280
     0
102
RTVSPost2010PropOp36
 70
     1
102
RTVSPost2010Prop37
 90
       50
102
RTVSPost2010PropOp37
 70
     1
102
RTVSPost2010Prop38
140
0.0
102
RTVSPost2010PropOp38
 70
     1
102
RTVSPost2010Prop39
140
1.0
102
RTVSPost2010PropOp39
 70
     1
102
RTVSPost2010Prop40
 90
        0
102
RTVSPost2010PropOp40
 70
     1
102
RTVSPost2010Prop41ColorIndex
 90
       18
102
RTVSPost2010Prop41ColorRGB
 90
        0
102
RTVSPost2010PropOp41
 70
     1
102
RTVSPost2010Prop42
 90
       50
102
RTVSPost2010PropOp42
 70
     1
102
RTVSPost2010Prop43
 90
        3
102
RTVSPost2010PropOp43
 70
     1
102
RTVSPost2010Prop44ColorIndex
 90
        5
102
RTVSPost2010Prop44ColorRGB
 90
      255
102
RTVSPost2010PropOp44
 70
     1
102
RTVSPost2010Prop45
280
     0
102
RTVSPost2010PropOp45
 70
     1
102
RTVSPost2010Prop46
 90
       50
102
RTVSPost2010PropOp46
 70
     1
102
RTVSPost2010Prop47
 90
       50
102
RTVSPost2010PropOp47
 70
     1
102
RTVSPost2010Prop48
 90
       50
102
RTVSPost2010PropOp48
 70
     1
102
RTVSPost2010Prop49
280
     0
102
RTVSPost2010PropOp49
 70
     1
102
RTVSPost2010Prop50
 90
       50
102
RTVSPost2010PropOp50
 70
     1
102
RTVSPost2010Prop51ColorIndex
 90
      256
102
RTVSPost2010Prop51ColorRGB
 90
-16777216
102
RTVSPost2010PropOp51
 70
     0
102
RTVSPost2010Prop52
140
1.0
102
RTVSPost2010PropOp52
 70
     0
102
RTVSPost2010Prop53
 90
        2
102
RTVSPost2010PropOp53
 70
     1
102
RTVSPost2010Prop54
  1
strokes_ogs.tif
102
RTVSPost2010PropOp54
 70
     1
102
RTVSPost2010Prop55
280
     0
102
RTVSPost2010PropOp55
 70
     1
102
RTVSPost2010Prop56
140
1.0
102
RTVSPost2010PropOp56
 70
     1
102
RTVSPost2010Prop57
140
1.0
102
RTVSPost2010PropOp57
 70
     1
  0
XRECORD
  5
1EDB
102
{ACAD_REACTORS
330
1EDA
102
}
330
1EDA
100
AcDbXrecord
280
     1
102
RTVSPropertyOp0
 70
     0
102
RTVSPropertyOp1
 70
     0
102
RTVSPropertyOp2
 70
     0
102
RTVSPropertyOp3
 70
     0
102
RTVSPropertyOp4
 70
     0
102
RTVSPropertyOp5
 70
     0
102
RTVSPropertyOp6
 70
     0
102
RTVSPropertyOp7
 70
     0
102
RTVSPropertyOp8
 70
     0
102
RTVSPropertyOp9
 70
     0
102
RTVSPropertyOp10
 70
     0
102
RTVSPropertyOp11
 70
     0
102
RTVSPropertyOp12
 70
     0
102
RTVSPropertyOp13
 70
     0
102
RTVSPropertyOp14
 70
     0
102
RTVSPropertyOp15
 70
     0
102
RTVSPropertyOp16
 70
     0
102
RTVSPropertyOp17
 70
     0
102
RTVSPropertyOp18
 70
     0
102
RTVSPropertyOp19
 70
     0
102
RTVSPropertyOp20
 70
     0
102
RTVSPropertyOp21
 70
     0
102
RTVSPropertyOp22
 70
     0
102
RTVSPropertyOp23
 70
     0
102
RTVSPropertyOp24
 70
     0
102
RTVSPropertyOp25
 70
     0
102
RTVSPropertyOp26
 70
     0
102
RTVSPropertyOp27
 70
     0
102
RTVSPropertyOp28
 70
     1
102
RTVSPropertyOp29
 70
     1
102
RTVSPropertyOp30
 70
     1
102
RTVSPropertyOp31
 70
     1
102
RTVSPropertyOp32
 70
     1
102
RTVSPropertyOp33
 70
     1
102
RTVSPropertyOp34
 70
     1
102
RTVSPropertyOp35
 70
     1
102
RTVSPropertyOp36
 70
     1
102
RTVSPropertyOp37
 70
     1
102
RTVSPropertyOp38
 70
     1
102
RTVSPropertyOp39
 70
     1
102
RTVSPropertyOp40
 70
     1
102
RTVSPropertyOp41
 70
     1
102
RTVSPropertyOp42
 70
     1
102
RTVSPropertyOp43
 70
     1
102
RTVSPropertyOp44
 70
     1
102
RTVSPropertyOp45
 70
     1
102
RTVSPropertyOp46
 70
     1
102
RTVSPropertyOp47
 70
     1
102
RTVSPropertyOp48
 70
     1
102
RTVSPropertyOp49
 70
     1
102
RTVSPropertyOp50
 70
     1
102
RTVSPropertyOp51
 70
     0
102
RTVSPropertyOp52
 70
     0
102
RTVSPropertyOp53
 70
     1
102
RTVSPropertyOp54
 70
     1
102
RTVSPropertyOp55
 70
     1
102
RTVSPropertyOp56
 70
     1
102
RTVSPropertyOp57
 70
     1
102
RTVSPost2010Prop28
280
     0
102
RTVSPost2010PropOp28
 70
     1
102
RTVSPost2010Prop29
280
     1
102
RTVSPost2010PropOp29
 70
     1
102
RTVSPost2010Prop30
280
     1
102
RTVSPost2010PropOp30
 70
     1
102
RTVSPost2010Prop31
280
     0
102
RTVSPost2010PropOp31
 70
     1
102
RTVSPost2010Prop32
280
     0
102
RTVSPost2010PropOp32
 70
     1
102
RTVSPost2010Prop33
280
     0
102
RTVSPost2010PropOp33
 70
     1
102
RTVSPost2010Prop34
280
     0
102
RTVSPost2010PropOp34
 70
     1
102
RTVSPost2010Prop35
280
     0
102
RTVSPost2010PropOp35
 70
     1
102
RTVSPost2010Prop36
280
     0
102
RTVSPost2010PropOp36
 70
     1
102
RTVSPost2010Prop37
 90
       50
102
RTVSPost2010PropOp37
 70
     1
102
RTVSPost2010Prop38
140
0.0
102
RTVSPost2010PropOp38
 70
     1
102
RTVSPost2010Prop39
140
1.0
102
RTVSPost2010PropOp39
 70
     1
102
RTVSPost2010Prop40
 90
        0
102
RTVSPost2010PropOp40
 70
     1
102
RTVSPost2010Prop41ColorIndex
 90
       18
102
RTVSPost2010Prop41ColorRGB
 90
        0
102
RTVSPost2010PropOp41
 70
     1
102
RTVSPost2010Prop42
 90
       50
102
RTVSPost2010PropOp42
 70
     1
102
RTVSPost2010Prop43
 90
        3
102
RTVSPost2010PropOp43
 70
     1
102
RTVSPost2010Prop44ColorIndex
 90
        5
102
RTVSPost2010Prop44ColorRGB
 90
      255
102
RTVSPost2010PropOp44
 70
     1
102
RTVSPost2010Prop45
280
     0
102
RTVSPost2010PropOp45
 70
     1
102
RTVSPost2010Prop46
 90
       50
102
RTVSPost2010PropOp46
 70
     1
102
RTVSPost2010Prop47
 90
       50
102
RTVSPost2010PropOp47
 70
     1
102
RTVSPost2010Prop48
 90
       50
102
RTVSPost2010PropOp48
 70
     1
102
RTVSPost2010Prop49
280
     0
102
RTVSPost2010PropOp49
 70
     1
102
RTVSPost2010Prop50
 90
       50
102
RTVSPost2010PropOp50
 70
     1
102
RTVSPost2010Prop51ColorIndex
 90
      256
102
RTVSPost2010Prop51ColorRGB
 90
-16777216
102
RTVSPost2010PropOp51
 70
     0
102
RTVSPost2010Prop52
140
1.0
102
RTVSPost2010PropOp52
 70
     0
102
RTVSPost2010Prop53
 90
        2
102
RTVSPost2010PropOp53
 70
     1
102
RTVSPost2010Prop54
  1
strokes_ogs.tif
102
RTVSPost2010PropOp54
 70
     1
102
RTVSPost2010Prop55
280
     0
102
RTVSPost2010PropOp55
 70
     1
102
RTVSPost2010Prop56
140
1.0
102
RTVSPost2010PropOp56
 70
     1
102
RTVSPost2010Prop57
140
1.0
102
RTVSPost2010PropOp57
 70
     1
  0
XRECORD
  5
1EC9
102
{ACAD_REACTORS
330
1EC8
102
}
330
1EC8
100
AcDbXrecord
280
     1
102
RTVSPropertyOp0
 70
     1
102
RTVSPropertyOp1
 70
     1
102
RTVSPropertyOp2
 70
     1
102
RTVSPropertyOp3
 70
     1
102
RTVSPropertyOp4
 70
     1
102
RTVSPropertyOp5
 70
     1
102
RTVSPropertyOp6
 70
     1
102
RTVSPropertyOp7
 70
     1
102
RTVSPropertyOp8
 70
     1
102
RTVSPropertyOp9
 70
     1
102
RTVSPropertyOp10
 70
     1
102
RTVSPropertyOp11
 70
     1
102
RTVSPropertyOp12
 70
     1
102
RTVSPropertyOp13
 70
     1
102
RTVSPropertyOp14
 70
     1
102
RTVSPropertyOp15
 70
     1
102
RTVSPropertyOp16
 70
     1
102
RTVSPropertyOp17
 70
     1
102
RTVSPropertyOp18
 70
     1
102
RTVSPropertyOp19
 70
     1
102
RTVSPropertyOp20
 70
     1
102
RTVSPropertyOp21
 70
     1
102
RTVSPropertyOp22
 70
     1
102
RTVSPropertyOp23
 70
     1
102
RTVSPropertyOp24
 70
     1
102
RTVSPropertyOp25
 70
     1
102
RTVSPropertyOp26
 70
     1
102
RTVSPropertyOp27
 70
     1
102
RTVSPropertyOp28
 70
     1
102
RTVSPropertyOp29
 70
     1
102
RTVSPropertyOp30
 70
     1
102
RTVSPropertyOp31
 70
     1
102
RTVSPropertyOp32
 70
     1
102
RTVSPropertyOp33
 70
     1
102
RTVSPropertyOp34
 70
     1
102
RTVSPropertyOp35
 70
     1
102
RTVSPropertyOp36
 70
     1
102
RTVSPropertyOp37
 70
     1
102
RTVSPropertyOp38
 70
     1
102
RTVSPropertyOp39
 70
     1
102
RTVSPropertyOp40
 70
     1
102
RTVSPropertyOp41
 70
     1
102
RTVSPropertyOp42
 70
     1
102
RTVSPropertyOp43
 70
     1
102
RTVSPropertyOp44
 70
     1
102
RTVSPropertyOp45
 70
     1
102
RTVSPropertyOp46
 70
     1
102
RTVSPropertyOp47
 70
     1
102
RTVSPropertyOp48
 70
     1
102
RTVSPropertyOp49
 70
     1
102
RTVSPropertyOp50
 70
     1
102
RTVSPropertyOp51
 70
     0
102
RTVSPropertyOp52
 70
     0
102
RTVSPropertyOp53
 70
     1
102
RTVSPropertyOp54
 70
     1
102
RTVSPropertyOp55
 70
     1
102
RTVSPropertyOp56
 70
     1
102
RTVSPropertyOp57
 70
     1
102
RTVSPost2010Prop28
280
     0
102
RTVSPost2010PropOp28
 70
     1
102
RTVSPost2010Prop29
280
     1
102
RTVSPost2010PropOp29
 70
     1
102
RTVSPost2010Prop30
280
     1
102
RTVSPost2010PropOp30
 70
     1
102
RTVSPost2010Prop31
280
     0
102
RTVSPost2010PropOp31
 70
     1
102
RTVSPost2010Prop32
280
     0
102
RTVSPost2010PropOp32
 70
     1
102
RTVSPost2010Prop33
280
     0
102
RTVSPost2010PropOp33
 70
     1
102
RTVSPost2010Prop34
280
     0
102
RTVSPost2010PropOp34
 70
     1
102
RTVSPost2010Prop35
280
     0
102
RTVSPost2010PropOp35
 70
     1
102
RTVSPost2010Prop36
280
     0
102
RTVSPost2010PropOp36
 70
     1
102
RTVSPost2010Prop37
 90
       50
102
RTVSPost2010PropOp37
 70
     1
102
RTVSPost2010Prop38
140
0.0
102
RTVSPost2010PropOp38
 70
     1
102
RTVSPost2010Prop39
140
1.0
102
RTVSPost2010PropOp39
 70
     1
102
RTVSPost2010Prop40
 90
        0
102
RTVSPost2010PropOp40
 70
     1
102
RTVSPost2010Prop41ColorIndex
 90
       18
102
RTVSPost2010Prop41ColorRGB
 90
        0
102
RTVSPost2010PropOp41
 70
     1
102
RTVSPost2010Prop42
 90
       50
102
RTVSPost2010PropOp42
 70
     1
102
RTVSPost2010Prop43
 90
        3
102
RTVSPost2010PropOp43
 70
     1
102
RTVSPost2010Prop44ColorIndex
 90
        5
102
RTVSPost2010Prop44ColorRGB
 90
      255
102
RTVSPost2010PropOp44
 70
     1
102
RTVSPost2010Prop45
280
     0
102
RTVSPost2010PropOp45
 70
     1
102
RTVSPost2010Prop46
 90
       50
102
RTVSPost2010PropOp46
 70
     1
102
RTVSPost2010Prop47
 90
       50
102
RTVSPost2010PropOp47
 70
     1
102
RTVSPost2010Prop48
 90
       50
102
RTVSPost2010PropOp48
 70
     1
102
RTVSPost2010Prop49
280
     0
102
RTVSPost2010PropOp49
 70
     1
102
RTVSPost2010Prop50
 90
       50
102
RTVSPost2010PropOp50
 70
     1
102
RTVSPost2010Prop51ColorIndex
 90
      256
102
RTVSPost2010Prop51ColorRGB
 90
-16777216
102
RTVSPost2010PropOp51
 70
     0
102
RTVSPost2010Prop52
140
1.0
102
RTVSPost2010PropOp52
 70
     0
102
RTVSPost2010Prop53
 90
        2
102
RTVSPost2010PropOp53
 70
     1
102
RTVSPost2010Prop54
  1
strokes_ogs.tif
102
RTVSPost2010PropOp54
 70
     1
102
RTVSPost2010Prop55
280
     0
102
RTVSPost2010PropOp55
 70
     1
102
RTVSPost2010Prop56
140
1.0
102
RTVSPost2010PropOp56
 70
     1
102
RTVSPost2010Prop57
140
1.0
102
RTVSPost2010PropOp57
 70
     1
  0
XRECORD
  5
1EE7
102
{ACAD_REACTORS
330
1EE6
102
}
330
1EE6
100
AcDbXrecord
280
     1
102
RTVSPropertyOp0
 70
     1
102
RTVSPropertyOp1
 70
     1
102
RTVSPropertyOp2
 70
     1
102
RTVSPropertyOp3
 70
     1
102
RTVSPropertyOp4
 70
     1
102
RTVSPropertyOp5
 70
     1
102
RTVSPropertyOp6
 70
     1
102
RTVSPropertyOp7
 70
     1
102
RTVSPropertyOp8
 70
     1
102
RTVSPropertyOp9
 70
     1
102
RTVSPropertyOp10
 70
     1
102
RTVSPropertyOp11
 70
     1
102
RTVSPropertyOp12
 70
     1
102
RTVSPropertyOp13
 70
     1
102
RTVSPropertyOp14
 70
     1
102
RTVSPropertyOp15
 70
     1
102
RTVSPropertyOp16
 70
     1
102
RTVSPropertyOp17
 70
     1
102
RTVSPropertyOp18
 70
     1
102
RTVSPropertyOp19
 70
     1
102
RTVSPropertyOp20
 70
     1
102
RTVSPropertyOp21
 70
     1
102
RTVSPropertyOp22
 70
     1
102
RTVSPropertyOp23
 70
     1
102
RTVSPropertyOp24
 70
     1
102
RTVSPropertyOp25
 70
     1
102
RTVSPropertyOp26
 70
     1
102
RTVSPropertyOp27
 70
     1
102
RTVSPropertyOp28
 70
     1
102
RTVSPropertyOp29
 70
     1
102
RTVSPropertyOp30
 70
     1
102
RTVSPropertyOp31
 70
     1
102
RTVSPropertyOp32
 70
     1
102
RTVSPropertyOp33
 70
     1
102
RTVSPropertyOp34
 70
     1
102
RTVSPropertyOp35
 70
     1
102
RTVSPropertyOp36
 70
     1
102
RTVSPropertyOp37
 70
     1
102
RTVSPropertyOp38
 70
     1
102
RTVSPropertyOp39
 70
     1
102
RTVSPropertyOp40
 70
     1
102
RTVSPropertyOp41
 70
     1
102
RTVSPropertyOp42
 70
     1
102
RTVSPropertyOp43
 70
     1
102
RTVSPropertyOp44
 70
     1
102
RTVSPropertyOp45
 70
     1
102
RTVSPropertyOp46
 70
     1
102
RTVSPropertyOp47
 70
     1
102
RTVSPropertyOp48
 70
     1
102
RTVSPropertyOp49
 70
     1
102
RTVSPropertyOp50
 70
     1
102
RTVSPropertyOp51
 70
     0
102
RTVSPropertyOp52
 70
     0
102
RTVSPropertyOp53
 70
     1
102
RTVSPropertyOp54
 70
     1
102
RTVSPropertyOp55
 70
     1
102
RTVSPropertyOp56
 70
     1
102
RTVSPropertyOp57
 70
     1
102
RTVSPost2010Prop28
280
     0
102
RTVSPost2010PropOp28
 70
     1
102
RTVSPost2010Prop29
280
     1
102
RTVSPost2010PropOp29
 70
     1
102
RTVSPost2010Prop30
280
     1
102
RTVSPost2010PropOp30
 70
     1
102
RTVSPost2010Prop31
280
     0
102
RTVSPost2010PropOp31
 70
     1
102
RTVSPost2010Prop32
280
     0
102
RTVSPost2010PropOp32
 70
     1
102
RTVSPost2010Prop33
280
     0
102
RTVSPost2010PropOp33
 70
     1
102
RTVSPost2010Prop34
280
     0
102
RTVSPost2010PropOp34
 70
     1
102
RTVSPost2010Prop35
280
     0
102
RTVSPost2010PropOp35
 70
     1
102
RTVSPost2010Prop36
280
     0
102
RTVSPost2010PropOp36
 70
     1
102
RTVSPost2010Prop37
 90
       50
102
RTVSPost2010PropOp37
 70
     1
102
RTVSPost2010Prop38
140
0.0
102
RTVSPost2010PropOp38
 70
     1
102
RTVSPost2010Prop39
140
1.0
102
RTVSPost2010PropOp39
 70
     1
102
RTVSPost2010Prop40
 90
        0
102
RTVSPost2010PropOp40
 70
     1
102
RTVSPost2010Prop41ColorIndex
 90
       18
102
RTVSPost2010Prop41ColorRGB
 90
        0
102
RTVSPost2010PropOp41
 70
     1
102
RTVSPost2010Prop42
 90
       50
102
RTVSPost2010PropOp42
 70
     1
102
RTVSPost2010Prop43
 90
        3
102
RTVSPost2010PropOp43
 70
     1
102
RTVSPost2010Prop44ColorIndex
 90
        5
102
RTVSPost2010Prop44ColorRGB
 90
      255
102
RTVSPost2010PropOp44
 70
     1
102
RTVSPost2010Prop45
280
     0
102
RTVSPost2010PropOp45
 70
     1
102
RTVSPost2010Prop46
 90
       50
102
RTVSPost2010PropOp46
 70
     1
102
RTVSPost2010Prop47
 90
       50
102
RTVSPost2010PropOp47
 70
     1
102
RTVSPost2010Prop48
 90
       50
102
RTVSPost2010PropOp48
 70
     1
102
RTVSPost2010Prop49
280
     0
102
RTVSPost2010PropOp49
 70
     1
102
RTVSPost2010Prop50
 90
       50
102
RTVSPost2010PropOp50
 70
     1
102
RTVSPost2010Prop51ColorIndex
 90
      256
102
RTVSPost2010Prop51ColorRGB
 90
-16777216
102
RTVSPost2010PropOp51
 70
     0
102
RTVSPost2010Prop52
140
1.0
102
RTVSPost2010PropOp52
 70
     0
102
RTVSPost2010Prop53
 90
        2
102
RTVSPost2010PropOp53
 70
     1
102
RTVSPost2010Prop54
  1
strokes_ogs.tif
102
RTVSPost2010PropOp54
 70
     1
102
RTVSPost2010Prop55
280
     0
102
RTVSPost2010PropOp55
 70
     1
102
RTVSPost2010Prop56
140
1.0
102
RTVSPost2010PropOp56
 70
     1
102
RTVSPost2010Prop57
140
1.0
102
RTVSPost2010PropOp57
 70
     1
  0
XRECORD
  5
1EE5
102
{ACAD_REACTORS
330
1EE4
102
}
330
1EE4
100
AcDbXrecord
280
     1
102
RTVSPropertyOp0
 70
     1
102
RTVSPropertyOp1
 70
     1
102
RTVSPropertyOp2
 70
     1
102
RTVSPropertyOp3
 70
     1
102
RTVSPropertyOp4
 70
     1
102
RTVSPropertyOp5
 70
     1
102
RTVSPropertyOp6
 70
     1
102
RTVSPropertyOp7
 70
     1
102
RTVSPropertyOp8
 70
     1
102
RTVSPropertyOp9
 70
     1
102
RTVSPropertyOp10
 70
     1
102
RTVSPropertyOp11
 70
     1
102
RTVSPropertyOp12
 70
     1
102
RTVSPropertyOp13
 70
     1
102
RTVSPropertyOp14
 70
     1
102
RTVSPropertyOp15
 70
     1
102
RTVSPropertyOp16
 70
     1
102
RTVSPropertyOp17
 70
     1
102
RTVSPropertyOp18
 70
     1
102
RTVSPropertyOp19
 70
     1
102
RTVSPropertyOp20
 70
     1
102
RTVSPropertyOp21
 70
     1
102
RTVSPropertyOp22
 70
     1
102
RTVSPropertyOp23
 70
     1
102
RTVSPropertyOp24
 70
     1
102
RTVSPropertyOp25
 70
     1
102
RTVSPropertyOp26
 70
     1
102
RTVSPropertyOp27
 70
     1
102
RTVSPropertyOp28
 70
     1
102
RTVSPropertyOp29
 70
     1
102
RTVSPropertyOp30
 70
     1
102
RTVSPropertyOp31
 70
     1
102
RTVSPropertyOp32
 70
     1
102
RTVSPropertyOp33
 70
     1
102
RTVSPropertyOp34
 70
     1
102
RTVSPropertyOp35
 70
     1
102
RTVSPropertyOp36
 70
     1
102
RTVSPropertyOp37
 70
     1
102
RTVSPropertyOp38
 70
     1
102
RTVSPropertyOp39
 70
     1
102
RTVSPropertyOp40
 70
     1
102
RTVSPropertyOp41
 70
     1
102
RTVSPropertyOp42
 70
     1
102
RTVSPropertyOp43
 70
     1
102
RTVSPropertyOp44
 70
     1
102
RTVSPropertyOp45
 70
     1
102
RTVSPropertyOp46
 70
     1
102
RTVSPropertyOp47
 70
     1
102
RTVSPropertyOp48
 70
     1
102
RTVSPropertyOp49
 70
     1
102
RTVSPropertyOp50
 70
     1
102
RTVSPropertyOp51
 70
     0
102
RTVSPropertyOp52
 70
     0
102
RTVSPropertyOp53
 70
     1
102
RTVSPropertyOp54
 70
     1
102
RTVSPropertyOp55
 70
     1
102
RTVSPropertyOp56
 70
     1
102
RTVSPropertyOp57
 70
     1
102
RTVSPost2010Prop28
280
     0
102
RTVSPost2010PropOp28
 70
     1
102
RTVSPost2010Prop29
280
     1
102
RTVSPost2010PropOp29
 70
     1
102
RTVSPost2010Prop30
280
     1
102
RTVSPost2010PropOp30
 70
     1
102
RTVSPost2010Prop31
280
     0
102
RTVSPost2010PropOp31
 70
     1
102
RTVSPost2010Prop32
280
     0
102
RTVSPost2010PropOp32
 70
     1
102
RTVSPost2010Prop33
280
     0
102
RTVSPost2010PropOp33
 70
     1
102
RTVSPost2010Prop34
280
     0
102
RTVSPost2010PropOp34
 70
     1
102
RTVSPost2010Prop35
280
     0
102
RTVSPost2010PropOp35
 70
     1
102
RTVSPost2010Prop36
280
     0
102
RTVSPost2010PropOp36
 70
     1
102
RTVSPost2010Prop37
 90
       50
102
RTVSPost2010PropOp37
 70
     1
102
RTVSPost2010Prop38
140
0.0
102
RTVSPost2010PropOp38
 70
     1
102
RTVSPost2010Prop39
140
1.0
102
RTVSPost2010PropOp39
 70
     1
102
RTVSPost2010Prop40
 90
        0
102
RTVSPost2010PropOp40
 70
     1
102
RTVSPost2010Prop41ColorIndex
 90
       18
102
RTVSPost2010Prop41ColorRGB
 90
        0
102
RTVSPost2010PropOp41
 70
     1
102
RTVSPost2010Prop42
 90
       50
102
RTVSPost2010PropOp42
 70
     1
102
RTVSPost2010Prop43
 90
        3
102
RTVSPost2010PropOp43
 70
     1
102
RTVSPost2010Prop44ColorIndex
 90
        5
102
RTVSPost2010Prop44ColorRGB
 90
      255
102
RTVSPost2010PropOp44
 70
     1
102
RTVSPost2010Prop45
280
     0
102
RTVSPost2010PropOp45
 70
     1
102
RTVSPost2010Prop46
 90
       50
102
RTVSPost2010PropOp46
 70
     1
102
RTVSPost2010Prop47
 90
       50
102
RTVSPost2010PropOp47
 70
     1
102
RTVSPost2010Prop48
 90
       50
102
RTVSPost2010PropOp48
 70
     1
102
RTVSPost2010Prop49
280
     0
102
RTVSPost2010PropOp49
 70
     1
102
RTVSPost2010Prop50
 90
       50
102
RTVSPost2010PropOp50
 70
     1
102
RTVSPost2010Prop51ColorIndex
 90
      256
102
RTVSPost2010Prop51ColorRGB
 90
-16777216
102
RTVSPost2010PropOp51
 70
     0
102
RTVSPost2010Prop52
140
1.0
102
RTVSPost2010PropOp52
 70
     0
102
RTVSPost2010Prop53
 90
        2
102
RTVSPost2010PropOp53
 70
     1
102
RTVSPost2010Prop54
  1
strokes_ogs.tif
102
RTVSPost2010PropOp54
 70
     1
102
RTVSPost2010Prop55
280
     0
102
RTVSPost2010PropOp55
 70
     1
102
RTVSPost2010Prop56
140
1.0
102
RTVSPost2010PropOp56
 70
     1
102
RTVSPost2010Prop57
140
1.0
102
RTVSPost2010PropOp57
 70
     1
  0
XRECORD
  5
1EDF
102
{ACAD_REACTORS
330
1EDE
102
}
330
1EDE
100
AcDbXrecord
280
     1
102
RTVSPropertyOp0
 70
     1
102
RTVSPropertyOp1
 70
     1
102
RTVSPropertyOp2
 70
     1
102
RTVSPropertyOp3
 70
     1
102
RTVSPropertyOp4
 70
     1
102
RTVSPropertyOp5
 70
     1
102
RTVSPropertyOp6
 70
     1
102
RTVSPropertyOp7
 70
     1
102
RTVSPropertyOp8
 70
     1
102
RTVSPropertyOp9
 70
     1
102
RTVSPropertyOp10
 70
     1
102
RTVSPropertyOp11
 70
     1
102
RTVSPropertyOp12
 70
     1
102
RTVSPropertyOp13
 70
     1
102
RTVSPropertyOp14
 70
     1
102
RTVSPropertyOp15
 70
     1
102
RTVSPropertyOp16
 70
     1
102
RTVSPropertyOp17
 70
     1
102
RTVSPropertyOp18
 70
     1
102
RTVSPropertyOp19
 70
     1
102
RTVSPropertyOp20
 70
     1
102
RTVSPropertyOp21
 70
     1
102
RTVSPropertyOp22
 70
     1
102
RTVSPropertyOp23
 70
     1
102
RTVSPropertyOp24
 70
     1
102
RTVSPropertyOp25
 70
     1
102
RTVSPropertyOp26
 70
     1
102
RTVSPropertyOp27
 70
     1
102
RTVSPropertyOp28
 70
     1
102
RTVSPropertyOp29
 70
     1
102
RTVSPropertyOp30
 70
     1
102
RTVSPropertyOp31
 70
     1
102
RTVSPropertyOp32
 70
     1
102
RTVSPropertyOp33
 70
     1
102
RTVSPropertyOp34
 70
     1
102
RTVSPropertyOp35
 70
     1
102
RTVSPropertyOp36
 70
     1
102
RTVSPropertyOp37
 70
     1
102
RTVSPropertyOp38
 70
     1
102
RTVSPropertyOp39
 70
     1
102
RTVSPropertyOp40
 70
     1
102
RTVSPropertyOp41
 70
     1
102
RTVSPropertyOp42
 70
     1
102
RTVSPropertyOp43
 70
     1
102
RTVSPropertyOp44
 70
     1
102
RTVSPropertyOp45
 70
     1
102
RTVSPropertyOp46
 70
     1
102
RTVSPropertyOp47
 70
     1
102
RTVSPropertyOp48
 70
     1
102
RTVSPropertyOp49
 70
     1
102
RTVSPropertyOp50
 70
     1
102
RTVSPropertyOp51
 70
     0
102
RTVSPropertyOp52
 70
     0
102
RTVSPropertyOp53
 70
     1
102
RTVSPropertyOp54
 70
     1
102
RTVSPropertyOp55
 70
     1
102
RTVSPropertyOp56
 70
     1
102
RTVSPropertyOp57
 70
     1
102
RTVSPost2010Prop28
280
     0
102
RTVSPost2010PropOp28
 70
     1
102
RTVSPost2010Prop29
280
     1
102
RTVSPost2010PropOp29
 70
     1
102
RTVSPost2010Prop30
280
     1
102
RTVSPost2010PropOp30
 70
     1
102
RTVSPost2010Prop31
280
     0
102
RTVSPost2010PropOp31
 70
     1
102
RTVSPost2010Prop32
280
     0
102
RTVSPost2010PropOp32
 70
     1
102
RTVSPost2010Prop33
280
     0
102
RTVSPost2010PropOp33
 70
     1
102
RTVSPost2010Prop34
280
     0
102
RTVSPost2010PropOp34
 70
     1
102
RTVSPost2010Prop35
280
     0
102
RTVSPost2010PropOp35
 70
     1
102
RTVSPost2010Prop36
280
     0
102
RTVSPost2010PropOp36
 70
     1
102
RTVSPost2010Prop37
 90
       50
102
RTVSPost2010PropOp37
 70
     1
102
RTVSPost2010Prop38
140
0.0
102
RTVSPost2010PropOp38
 70
     1
102
RTVSPost2010Prop39
140
1.0
102
RTVSPost2010PropOp39
 70
     1
102
RTVSPost2010Prop40
 90
        0
102
RTVSPost2010PropOp40
 70
     1
102
RTVSPost2010Prop41ColorIndex
 90
       18
102
RTVSPost2010Prop41ColorRGB
 90
        0
102
RTVSPost2010PropOp41
 70
     1
102
RTVSPost2010Prop42
 90
       50
102
RTVSPost2010PropOp42
 70
     1
102
RTVSPost2010Prop43
 90
        3
102
RTVSPost2010PropOp43
 70
     1
102
RTVSPost2010Prop44ColorIndex
 90
        5
102
RTVSPost2010Prop44ColorRGB
 90
      255
102
RTVSPost2010PropOp44
 70
     1
102
RTVSPost2010Prop45
280
     0
102
RTVSPost2010PropOp45
 70
     1
102
RTVSPost2010Prop46
 90
       50
102
RTVSPost2010PropOp46
 70
     1
102
RTVSPost2010Prop47
 90
       50
102
RTVSPost2010PropOp47
 70
     1
102
RTVSPost2010Prop48
 90
       50
102
RTVSPost2010PropOp48
 70
     1
102
RTVSPost2010Prop49
280
     0
102
RTVSPost2010PropOp49
 70
     1
102
RTVSPost2010Prop50
 90
       50
102
RTVSPost2010PropOp50
 70
     1
102
RTVSPost2010Prop51ColorIndex
 90
      256
102
RTVSPost2010Prop51ColorRGB
 90
-16777216
102
RTVSPost2010PropOp51
 70
     0
102
RTVSPost2010Prop52
140
1.0
102
RTVSPost2010PropOp52
 70
     0
102
RTVSPost2010Prop53
 90
        2
102
RTVSPost2010PropOp53
 70
     1
102
RTVSPost2010Prop54
  1
strokes_ogs.tif
102
RTVSPost2010PropOp54
 70
     1
102
RTVSPost2010Prop55
280
     0
102
RTVSPost2010PropOp55
 70
     1
102
RTVSPost2010Prop56
140
1.0
102
RTVSPost2010PropOp56
 70
     1
102
RTVSPost2010Prop57
140
1.0
102
RTVSPost2010PropOp57
 70
     1
  0
XRECORD
  5
1EE1
102
{ACAD_REACTORS
330
1EE0
102
}
330
1EE0
100
AcDbXrecord
280
     1
102
RTVSPropertyOp0
 70
     1
102
RTVSPropertyOp1
 70
     1
102
RTVSPropertyOp2
 70
     1
102
RTVSPropertyOp3
 70
     1
102
RTVSPropertyOp4
 70
     1
102
RTVSPropertyOp5
 70
     1
102
RTVSPropertyOp6
 70
     1
102
RTVSPropertyOp7
 70
     1
102
RTVSPropertyOp8
 70
     1
102
RTVSPropertyOp9
 70
     1
102
RTVSPropertyOp10
 70
     1
102
RTVSPropertyOp11
 70
     1
102
RTVSPropertyOp12
 70
     1
102
RTVSPropertyOp13
 70
     1
102
RTVSPropertyOp14
 70
     1
102
RTVSPropertyOp15
 70
     1
102
RTVSPropertyOp16
 70
     1
102
RTVSPropertyOp17
 70
     1
102
RTVSPropertyOp18
 70
     1
102
RTVSPropertyOp19
 70
     1
102
RTVSPropertyOp20
 70
     1
102
RTVSPropertyOp21
 70
     1
102
RTVSPropertyOp22
 70
     1
102
RTVSPropertyOp23
 70
     1
102
RTVSPropertyOp24
 70
     1
102
RTVSPropertyOp25
 70
     1
102
RTVSPropertyOp26
 70
     1
102
RTVSPropertyOp27
 70
     1
102
RTVSPropertyOp28
 70
     1
102
RTVSPropertyOp29
 70
     1
102
RTVSPropertyOp30
 70
     1
102
RTVSPropertyOp31
 70
     1
102
RTVSPropertyOp32
 70
     1
102
RTVSPropertyOp33
 70
     1
102
RTVSPropertyOp34
 70
     1
102
RTVSPropertyOp35
 70
     1
102
RTVSPropertyOp36
 70
     1
102
RTVSPropertyOp37
 70
     1
102
RTVSPropertyOp38
 70
     1
102
RTVSPropertyOp39
 70
     1
102
RTVSPropertyOp40
 70
     1
102
RTVSPropertyOp41
 70
     1
102
RTVSPropertyOp42
 70
     1
102
RTVSPropertyOp43
 70
     1
102
RTVSPropertyOp44
 70
     1
102
RTVSPropertyOp45
 70
     1
102
RTVSPropertyOp46
 70
     1
102
RTVSPropertyOp47
 70
     1
102
RTVSPropertyOp48
 70
     1
102
RTVSPropertyOp49
 70
     1
102
RTVSPropertyOp50
 70
     1
102
RTVSPropertyOp51
 70
     0
102
RTVSPropertyOp52
 70
     0
102
RTVSPropertyOp53
 70
     1
102
RTVSPropertyOp54
 70
     1
102
RTVSPropertyOp55
 70
     1
102
RTVSPropertyOp56
 70
     1
102
RTVSPropertyOp57
 70
     1
102
RTVSPost2010Prop28
280
     0
102
RTVSPost2010PropOp28
 70
     1
102
RTVSPost2010Prop29
280
     1
102
RTVSPost2010PropOp29
 70
     1
102
RTVSPost2010Prop30
280
     1
102
RTVSPost2010PropOp30
 70
     1
102
RTVSPost2010Prop31
280
     0
102
RTVSPost2010PropOp31
 70
     1
102
RTVSPost2010Prop32
280
     0
102
RTVSPost2010PropOp32
 70
     1
102
RTVSPost2010Prop33
280
     0
102
RTVSPost2010PropOp33
 70
     1
102
RTVSPost2010Prop34
280
     0
102
RTVSPost2010PropOp34
 70
     1
102
RTVSPost2010Prop35
280
     0
102
RTVSPost2010PropOp35
 70
     1
102
RTVSPost2010Prop36
280
     0
102
RTVSPost2010PropOp36
 70
     1
102
RTVSPost2010Prop37
 90
       50
102
RTVSPost2010PropOp37
 70
     1
102
RTVSPost2010Prop38
140
0.0
102
RTVSPost2010PropOp38
 70
     1
102
RTVSPost2010Prop39
140
1.0
102
RTVSPost2010PropOp39
 70
     1
102
RTVSPost2010Prop40
 90
        0
102
RTVSPost2010PropOp40
 70
     1
102
RTVSPost2010Prop41ColorIndex
 90
       18
102
RTVSPost2010Prop41ColorRGB
 90
        0
102
RTVSPost2010PropOp41
 70
     1
102
RTVSPost2010Prop42
 90
       50
102
RTVSPost2010PropOp42
 70
     1
102
RTVSPost2010Prop43
 90
        3
102
RTVSPost2010PropOp43
 70
     1
102
RTVSPost2010Prop44ColorIndex
 90
        5
102
RTVSPost2010Prop44ColorRGB
 90
      255
102
RTVSPost2010PropOp44
 70
     1
102
RTVSPost2010Prop45
280
     0
102
RTVSPost2010PropOp45
 70
     1
102
RTVSPost2010Prop46
 90
       50
102
RTVSPost2010PropOp46
 70
     1
102
RTVSPost2010Prop47
 90
       50
102
RTVSPost2010PropOp47
 70
     1
102
RTVSPost2010Prop48
 90
       50
102
RTVSPost2010PropOp48
 70
     1
102
RTVSPost2010Prop49
280
     0
102
RTVSPost2010PropOp49
 70
     1
102
RTVSPost2010Prop50
 90
       50
102
RTVSPost2010PropOp50
 70
     1
102
RTVSPost2010Prop51ColorIndex
 90
      256
102
RTVSPost2010Prop51ColorRGB
 90
-16777216
102
RTVSPost2010PropOp51
 70
     0
102
RTVSPost2010Prop52
140
1.0
102
RTVSPost2010PropOp52
 70
     0
102
RTVSPost2010Prop53
 90
        2
102
RTVSPost2010PropOp53
 70
     1
102
RTVSPost2010Prop54
  1
strokes_ogs.tif
102
RTVSPost2010PropOp54
 70
     1
102
RTVSPost2010Prop55
280
     0
102
RTVSPost2010PropOp55
 70
     1
102
RTVSPost2010Prop56
140
1.0
102
RTVSPost2010PropOp56
 70
     1
102
RTVSPost2010Prop57
140
1.0
102
RTVSPost2010PropOp57
 70
     1
  0
XRECORD
  5
1ED1
102
{ACAD_REACTORS
330
1ED0
102
}
330
1ED0
100
AcDbXrecord
280
     1
102
RTVSPropertyOp0
 70
     1
102
RTVSPropertyOp1
 70
     1
102
RTVSPropertyOp2
 70
     1
102
RTVSPropertyOp3
 70
     1
102
RTVSPropertyOp4
 70
     1
102
RTVSPropertyOp5
 70
     1
102
RTVSPropertyOp6
 70
     1
102
RTVSPropertyOp7
 70
     1
102
RTVSPropertyOp8
 70
     1
102
RTVSPropertyOp9
 70
     1
102
RTVSPropertyOp10
 70
     1
102
RTVSPropertyOp11
 70
     1
102
RTVSPropertyOp12
 70
     1
102
RTVSPropertyOp13
 70
     1
102
RTVSPropertyOp14
 70
     1
102
RTVSPropertyOp15
 70
     1
102
RTVSPropertyOp16
 70
     1
102
RTVSPropertyOp17
 70
     1
102
RTVSPropertyOp18
 70
     1
102
RTVSPropertyOp19
 70
     1
102
RTVSPropertyOp20
 70
     1
102
RTVSPropertyOp21
 70
     1
102
RTVSPropertyOp22
 70
     1
102
RTVSPropertyOp23
 70
     1
102
RTVSPropertyOp24
 70
     1
102
RTVSPropertyOp25
 70
     1
102
RTVSPropertyOp26
 70
     1
102
RTVSPropertyOp27
 70
     1
102
RTVSPropertyOp28
 70
     1
102
RTVSPropertyOp29
 70
     1
102
RTVSPropertyOp30
 70
     1
102
RTVSPropertyOp31
 70
     1
102
RTVSPropertyOp32
 70
     1
102
RTVSPropertyOp33
 70
     1
102
RTVSPropertyOp34
 70
     1
102
RTVSPropertyOp35
 70
     1
102
RTVSPropertyOp36
 70
     1
102
RTVSPropertyOp37
 70
     1
102
RTVSPropertyOp38
 70
     1
102
RTVSPropertyOp39
 70
     1
102
RTVSPropertyOp40
 70
     1
102
RTVSPropertyOp41
 70
     1
102
RTVSPropertyOp42
 70
     1
102
RTVSPropertyOp43
 70
     1
102
RTVSPropertyOp44
 70
     1
102
RTVSPropertyOp45
 70
     1
102
RTVSPropertyOp46
 70
     1
102
RTVSPropertyOp47
 70
     1
102
RTVSPropertyOp48
 70
     1
102
RTVSPropertyOp49
 70
     1
102
RTVSPropertyOp50
 70
     1
102
RTVSPropertyOp51
 70
     0
102
RTVSPropertyOp52
 70
     0
102
RTVSPropertyOp53
 70
     1
102
RTVSPropertyOp54
 70
     1
102
RTVSPropertyOp55
 70
     1
102
RTVSPropertyOp56
 70
     1
102
RTVSPropertyOp57
 70
     1
102
RTVSPost2010Prop28
280
     0
102
RTVSPost2010PropOp28
 70
     1
102
RTVSPost2010Prop29
280
     1
102
RTVSPost2010PropOp29
 70
     1
102
RTVSPost2010Prop30
280
     1
102
RTVSPost2010PropOp30
 70
     1
102
RTVSPost2010Prop31
280
     0
102
RTVSPost2010PropOp31
 70
     1
102
RTVSPost2010Prop32
280
     0
102
RTVSPost2010PropOp32
 70
     1
102
RTVSPost2010Prop33
280
     0
102
RTVSPost2010PropOp33
 70
     1
102
RTVSPost2010Prop34
280
     0
102
RTVSPost2010PropOp34
 70
     1
102
RTVSPost2010Prop35
280
     0
102
RTVSPost2010PropOp35
 70
     1
102
RTVSPost2010Prop36
280
     0
102
RTVSPost2010PropOp36
 70
     1
102
RTVSPost2010Prop37
 90
       50
102
RTVSPost2010PropOp37
 70
     1
102
RTVSPost2010Prop38
140
0.0
102
RTVSPost2010PropOp38
 70
     1
102
RTVSPost2010Prop39
140
1.0
102
RTVSPost2010PropOp39
 70
     1
102
RTVSPost2010Prop40
 90
        0
102
RTVSPost2010PropOp40
 70
     1
102
RTVSPost2010Prop41ColorIndex
 90
       18
102
RTVSPost2010Prop41ColorRGB
 90
        0
102
RTVSPost2010PropOp41
 70
     1
102
RTVSPost2010Prop42
 90
       50
102
RTVSPost2010PropOp42
 70
     1
102
RTVSPost2010Prop43
 90
        3
102
RTVSPost2010PropOp43
 70
     1
102
RTVSPost2010Prop44ColorIndex
 90
        5
102
RTVSPost2010Prop44ColorRGB
 90
      255
102
RTVSPost2010PropOp44
 70
     1
102
RTVSPost2010Prop45
280
     0
102
RTVSPost2010PropOp45
 70
     1
102
RTVSPost2010Prop46
 90
       50
102
RTVSPost2010PropOp46
 70
     1
102
RTVSPost2010Prop47
 90
       50
102
RTVSPost2010PropOp47
 70
     1
102
RTVSPost2010Prop48
 90
       50
102
RTVSPost2010PropOp48
 70
     1
102
RTVSPost2010Prop49
280
     0
102
RTVSPost2010PropOp49
 70
     1
102
RTVSPost2010Prop50
 90
       50
102
RTVSPost2010PropOp50
 70
     1
102
RTVSPost2010Prop51ColorIndex
 90
      256
102
RTVSPost2010Prop51ColorRGB
 90
-16777216
102
RTVSPost2010PropOp51
 70
     0
102
RTVSPost2010Prop52
140
1.0
102
RTVSPost2010PropOp52
 70
     0
102
RTVSPost2010Prop53
 90
        2
102
RTVSPost2010PropOp53
 70
     1
102
RTVSPost2010Prop54
  1
strokes_ogs.tif
102
RTVSPost2010PropOp54
 70
     1
102
RTVSPost2010Prop55
280
     0
102
RTVSPost2010PropOp55
 70
     1
102
RTVSPost2010Prop56
140
1.0
102
RTVSPost2010PropOp56
 70
     1
102
RTVSPost2010Prop57
140
1.0
102
RTVSPost2010PropOp57
 70
     1
  0
XRECORD
  5
1EC3
102
{ACAD_REACTORS
330
1EC2
102
}
330
1EC2
100
AcDbXrecord
280
     1
102
RTVSPropertyOp0
 70
     1
102
RTVSPropertyOp1
 70
     1
102
RTVSPropertyOp2
 70
     1
102
RTVSPropertyOp3
 70
     1
102
RTVSPropertyOp4
 70
     1
102
RTVSPropertyOp5
 70
     1
102
RTVSPropertyOp6
 70
     1
102
RTVSPropertyOp7
 70
     1
102
RTVSPropertyOp8
 70
     1
102
RTVSPropertyOp9
 70
     1
102
RTVSPropertyOp10
 70
     1
102
RTVSPropertyOp11
 70
     1
102
RTVSPropertyOp12
 70
     1
102
RTVSPropertyOp13
 70
     1
102
RTVSPropertyOp14
 70
     1
102
RTVSPropertyOp15
 70
     1
102
RTVSPropertyOp16
 70
     1
102
RTVSPropertyOp17
 70
     1
102
RTVSPropertyOp18
 70
     1
102
RTVSPropertyOp19
 70
     1
102
RTVSPropertyOp20
 70
     1
102
RTVSPropertyOp21
 70
     1
102
RTVSPropertyOp22
 70
     1
102
RTVSPropertyOp23
 70
     1
102
RTVSPropertyOp24
 70
     1
102
RTVSPropertyOp25
 70
     1
102
RTVSPropertyOp26
 70
     1
102
RTVSPropertyOp27
 70
     1
102
RTVSPropertyOp28
 70
     1
102
RTVSPropertyOp29
 70
     1
102
RTVSPropertyOp30
 70
     1
102
RTVSPropertyOp31
 70
     1
102
RTVSPropertyOp32
 70
     1
102
RTVSPropertyOp33
 70
     1
102
RTVSPropertyOp34
 70
     1
102
RTVSPropertyOp35
 70
     1
102
RTVSPropertyOp36
 70
     1
102
RTVSPropertyOp37
 70
     1
102
RTVSPropertyOp38
 70
     1
102
RTVSPropertyOp39
 70
     1
102
RTVSPropertyOp40
 70
     1
102
RTVSPropertyOp41
 70
     1
102
RTVSPropertyOp42
 70
     1
102
RTVSPropertyOp43
 70
     1
102
RTVSPropertyOp44
 70
     1
102
RTVSPropertyOp45
 70
     1
102
RTVSPropertyOp46
 70
     1
102
RTVSPropertyOp47
 70
     1
102
RTVSPropertyOp48
 70
     1
102
RTVSPropertyOp49
 70
     1
102
RTVSPropertyOp50
 70
     1
102
RTVSPropertyOp51
 70
     0
102
RTVSPropertyOp52
 70
     0
102
RTVSPropertyOp53
 70
     1
102
RTVSPropertyOp54
 70
     1
102
RTVSPropertyOp55
 70
     1
102
RTVSPropertyOp56
 70
     1
102
RTVSPropertyOp57
 70
     1
102
RTVSPost2010Prop28
280
     0
102
RTVSPost2010PropOp28
 70
     1
102
RTVSPost2010Prop29
280
     1
102
RTVSPost2010PropOp29
 70
     1
102
RTVSPost2010Prop30
280
     1
102
RTVSPost2010PropOp30
 70
     1
102
RTVSPost2010Prop31
280
     0
102
RTVSPost2010PropOp31
 70
     1
102
RTVSPost2010Prop32
280
     0
102
RTVSPost2010PropOp32
 70
     1
102
RTVSPost2010Prop33
280
     0
102
RTVSPost2010PropOp33
 70
     1
102
RTVSPost2010Prop34
280
     0
102
RTVSPost2010PropOp34
 70
     1
102
RTVSPost2010Prop35
280
     0
102
RTVSPost2010PropOp35
 70
     1
102
RTVSPost2010Prop36
280
     0
102
RTVSPost2010PropOp36
 70
     1
102
RTVSPost2010Prop37
 90
       50
102
RTVSPost2010PropOp37
 70
     1
102
RTVSPost2010Prop38
140
0.0
102
RTVSPost2010PropOp38
 70
     1
102
RTVSPost2010Prop39
140
1.0
102
RTVSPost2010PropOp39
 70
     1
102
RTVSPost2010Prop40
 90
        0
102
RTVSPost2010PropOp40
 70
     1
102
RTVSPost2010Prop41ColorIndex
 90
       18
102
RTVSPost2010Prop41ColorRGB
 90
        0
102
RTVSPost2010PropOp41
 70
     1
102
RTVSPost2010Prop42
 90
       50
102
RTVSPost2010PropOp42
 70
     1
102
RTVSPost2010Prop43
 90
        3
102
RTVSPost2010PropOp43
 70
     1
102
RTVSPost2010Prop44ColorIndex
 90
        5
102
RTVSPost2010Prop44ColorRGB
 90
      255
102
RTVSPost2010PropOp44
 70
     1
102
RTVSPost2010Prop45
280
     0
102
RTVSPost2010PropOp45
 70
     1
102
RTVSPost2010Prop46
 90
       50
102
RTVSPost2010PropOp46
 70
     1
102
RTVSPost2010Prop47
 90
       50
102
RTVSPost2010PropOp47
 70
     1
102
RTVSPost2010Prop48
 90
       50
102
RTVSPost2010PropOp48
 70
     1
102
RTVSPost2010Prop49
280
     0
102
RTVSPost2010PropOp49
 70
     1
102
RTVSPost2010Prop50
 90
       50
102
RTVSPost2010PropOp50
 70
     1
102
RTVSPost2010Prop51ColorIndex
 90
      256
102
RTVSPost2010Prop51ColorRGB
 90
-16777216
102
RTVSPost2010PropOp51
 70
     0
102
RTVSPost2010Prop52
140
1.0
102
RTVSPost2010PropOp52
 70
     0
102
RTVSPost2010Prop53
 90
        2
102
RTVSPost2010PropOp53
 70
     1
102
RTVSPost2010Prop54
  1
strokes_ogs.tif
102
RTVSPost2010PropOp54
 70
     1
102
RTVSPost2010Prop55
280
     0
102
RTVSPost2010PropOp55
 70
     1
102
RTVSPost2010Prop56
140
1.0
102
RTVSPost2010PropOp56
 70
     1
102
RTVSPost2010Prop57
140
1.0
102
RTVSPost2010PropOp57
 70
     1
  0
XRECORD
  5
1EE3
102
{ACAD_REACTORS
330
1EE2
102
}
330
1EE2
100
AcDbXrecord
280
     1
102
RTVSPropertyOp0
 70
     1
102
RTVSPropertyOp1
 70
     1
102
RTVSPropertyOp2
 70
     1
102
RTVSPropertyOp3
 70
     1
102
RTVSPropertyOp4
 70
     1
102
RTVSPropertyOp5
 70
     1
102
RTVSPropertyOp6
 70
     1
102
RTVSPropertyOp7
 70
     1
102
RTVSPropertyOp8
 70
     1
102
RTVSPropertyOp9
 70
     1
102
RTVSPropertyOp10
 70
     1
102
RTVSPropertyOp11
 70
     1
102
RTVSPropertyOp12
 70
     1
102
RTVSPropertyOp13
 70
     1
102
RTVSPropertyOp14
 70
     1
102
RTVSPropertyOp15
 70
     1
102
RTVSPropertyOp16
 70
     1
102
RTVSPropertyOp17
 70
     1
102
RTVSPropertyOp18
 70
     1
102
RTVSPropertyOp19
 70
     1
102
RTVSPropertyOp20
 70
     1
102
RTVSPropertyOp21
 70
     1
102
RTVSPropertyOp22
 70
     1
102
RTVSPropertyOp23
 70
     1
102
RTVSPropertyOp24
 70
     1
102
RTVSPropertyOp25
 70
     1
102
RTVSPropertyOp26
 70
     1
102
RTVSPropertyOp27
 70
     1
102
RTVSPropertyOp28
 70
     1
102
RTVSPropertyOp29
 70
     1
102
RTVSPropertyOp30
 70
     1
102
RTVSPropertyOp31
 70
     1
102
RTVSPropertyOp32
 70
     1
102
RTVSPropertyOp33
 70
     1
102
RTVSPropertyOp34
 70
     1
102
RTVSPropertyOp35
 70
     1
102
RTVSPropertyOp36
 70
     1
102
RTVSPropertyOp37
 70
     1
102
RTVSPropertyOp38
 70
     1
102
RTVSPropertyOp39
 70
     1
102
RTVSPropertyOp40
 70
     1
102
RTVSPropertyOp41
 70
     1
102
RTVSPropertyOp42
 70
     1
102
RTVSPropertyOp43
 70
     1
102
RTVSPropertyOp44
 70
     1
102
RTVSPropertyOp45
 70
     1
102
RTVSPropertyOp46
 70
     1
102
RTVSPropertyOp47
 70
     1
102
RTVSPropertyOp48
 70
     1
102
RTVSPropertyOp49
 70
     1
102
RTVSPropertyOp50
 70
     1
102
RTVSPropertyOp51
 70
     0
102
RTVSPropertyOp52
 70
     0
102
RTVSPropertyOp53
 70
     1
102
RTVSPropertyOp54
 70
     1
102
RTVSPropertyOp55
 70
     1
102
RTVSPropertyOp56
 70
     1
102
RTVSPropertyOp57
 70
     1
102
RTVSPost2010Prop28
280
     0
102
RTVSPost2010PropOp28
 70
     1
102
RTVSPost2010Prop29
280
     1
102
RTVSPost2010PropOp29
 70
     1
102
RTVSPost2010Prop30
280
     1
102
RTVSPost2010PropOp30
 70
     1
102
RTVSPost2010Prop31
280
     0
102
RTVSPost2010PropOp31
 70
     1
102
RTVSPost2010Prop32
280
     0
102
RTVSPost2010PropOp32
 70
     1
102
RTVSPost2010Prop33
280
     0
102
RTVSPost2010PropOp33
 70
     1
102
RTVSPost2010Prop34
280
     0
102
RTVSPost2010PropOp34
 70
     1
102
RTVSPost2010Prop35
280
     0
102
RTVSPost2010PropOp35
 70
     1
102
RTVSPost2010Prop36
280
     0
102
RTVSPost2010PropOp36
 70
     1
102
RTVSPost2010Prop37
 90
       50
102
RTVSPost2010PropOp37
 70
     1
102
RTVSPost2010Prop38
140
0.0
102
RTVSPost2010PropOp38
 70
     1
102
RTVSPost2010Prop39
140
1.0
102
RTVSPost2010PropOp39
 70
     1
102
RTVSPost2010Prop40
 90
        0
102
RTVSPost2010PropOp40
 70
     1
102
RTVSPost2010Prop41ColorIndex
 90
       18
102
RTVSPost2010Prop41ColorRGB
 90
        0
102
RTVSPost2010PropOp41
 70
     1
102
RTVSPost2010Prop42
 90
       50
102
RTVSPost2010PropOp42
 70
     1
102
RTVSPost2010Prop43
 90
        3
102
RTVSPost2010PropOp43
 70
     1
102
RTVSPost2010Prop44ColorIndex
 90
        5
102
RTVSPost2010Prop44ColorRGB
 90
      255
102
RTVSPost2010PropOp44
 70
     1
102
RTVSPost2010Prop45
280
     0
102
RTVSPost2010PropOp45
 70
     1
102
RTVSPost2010Prop46
 90
       50
102
RTVSPost2010PropOp46
 70
     1
102
RTVSPost2010Prop47
 90
       50
102
RTVSPost2010PropOp47
 70
     1
102
RTVSPost2010Prop48
 90
       50
102
RTVSPost2010PropOp48
 70
     1
102
RTVSPost2010Prop49
280
     0
102
RTVSPost2010PropOp49
 70
     1
102
RTVSPost2010Prop50
 90
       50
102
RTVSPost2010PropOp50
 70
     1
102
RTVSPost2010Prop51ColorIndex
 90
      256
102
RTVSPost2010Prop51ColorRGB
 90
-16777216
102
RTVSPost2010PropOp51
 70
     0
102
RTVSPost2010Prop52
140
1.0
102
RTVSPost2010PropOp52
 70
     0
102
RTVSPost2010Prop53
 90
        2
102
RTVSPost2010PropOp53
 70
     1
102
RTVSPost2010Prop54
  1
strokes_ogs.tif
102
RTVSPost2010PropOp54
 70
     1
102
RTVSPost2010Prop55
280
     0
102
RTVSPost2010PropOp55
 70
     1
102
RTVSPost2010Prop56
140
1.0
102
RTVSPost2010PropOp56
 70
     1
102
RTVSPost2010Prop57
140
1.0
102
RTVSPost2010PropOp57
 70
     1
  0
ENDSEC
  0
EOF
