  0
SECTION
  2
HEADER
  9
$ACADVER
  1
AC1015
  9
$ACADMAINTVER
 70
     6
  9
$DWGCODEPAGE
  3
ANSI_932
  9
$INSBASE
 10
1078.688667170699
 20
940.9316950147363
 30
0.0
  9
$EXTMIN
 10
65.63671977583294
 20
32.1536323987832
 30
0.0
  9
$EXTMAX
 10
871.6026945760082
 20
732.2548214218358
 30
0.0
  9
$LIMMIN
 10
-210.0
 20
-148.5
  9
$LIMMAX
 10
210.0
 20
148.5
  9
$ORTHOMODE
 70
     1
  9
$REGENMODE
 70
     1
  9
$FILLMODE
 70
     1
  9
$QTEXTMODE
 70
     0
  9
$MIRRTEXT
 70
     1
  9
$LTSCALE
 40
3.0
  9
$ATTMODE
 70
     1
  9
$TEXTSIZE
 40
7.5
  9
$TRACEWID
 40
0.05
  9
$TEXTSTYLE
  7
KANJI
  9
$CLAYER
  8
2
  9
$CELTYPE
  6
BYLAYER
  9
$CECOLOR
 62
   256
  9
$CELTSCALE
 40
1.0
  9
$DISPSILH
 70
     0
  9
$DIMSCALE
 40
2.5
  9
$DIMASZ
 40
2.0
  9
$DIMEXO
 40
0.5
  9
$DIMDLI
 40
10.0
  9
$DIMRND
 40
0.0
  9
$DIMDLE
 40
0.0
  9
$DIMEXE
 40
1.0
  9
$DIMTP
 40
0.0
  9
$DIMTM
 40
0.0
  9
$DIMTXT
 40
3.0
  9
$DIMCEN
 40
0.09
  9
$DIMTSZ
 40
0.0
  9
$DIMTOL
 70
     0
  9
$DIMLIM
 70
     0
  9
$DIMTIH
 70
     0
  9
$DIMTOH
 70
     0
  9
$DIMSE1
 70
     0
  9
$DIMSE2
 70
     0
  9
$DIMTAD
 70
     0
  9
$DIMZIN
 70
     8
  9
$DIMBLK
  1

  9
$DIMASO
 70
     0
  9
$DIMSHO
 70
     0
  9
$DIMPOST
  1

  9
$DIMAPOST
  1

  9
$DIMALT
 70
     0
  9
$DIMALTD
 70
     2
  9
$DIMALTF
 40
25.4
  9
$DIMLFAC
 40
1.0
  9
$DIMTOFL
 70
     1
  9
$DIMTVP
 40
1.0
  9
$DIMTIX
 70
     1
  9
$DIMSOXD
 70
     1
  9
$DIMSAH
 70
     0
  9
$DIMBLK1
  1

  9
$DIMBLK2
  1

  9
$DIMSTYLE
  2
STANDARD
  9
$DIMCLRD
 70
   256
  9
$DIMCLRE
 70
   256
  9
$DIMCLRT
 70
   256
  9
$DIMTFAC
 40
1.0
  9
$DIMGAP
 40
0.09
  9
$DIMJUST
 70
     0
  9
$DIMSD1
 70
     0
  9
$DIMSD2
 70
     0
  9
$DIMTOLJ
 70
     1
  9
$DIMTZIN
 70
     0
  9
$DIMALTZ
 70
     0
  9
$DIMALTTZ
 70
     0
  9
$DIMUPT
 70
     0
  9
$DIMDEC
 70
     4
  9
$DIMTDEC
 70
     4
  9
$DIMALTU
 70
     2
  9
$DIMALTTD
 70
     2
  9
$DIMTXSTY
  7
STANDARD
  9
$DIMAUNIT
 70
     0
  9
$DIMADEC
 70
     0
  9
$DIMALTRND
 40
0.0
  9
$DIMAZIN
 70
     0
  9
$DIMDSEP
 70
    46
  9
$DIMATFIT
 70
     3
  9
$DIMFRAC
 70
     0
  9
$DIMLDRBLK
  1

  9
$DIMLUNIT
 70
     2
  9
$DIMLWD
 70
    -2
  9
$DIMLWE
 70
    -2
  9
$DIMTMOVE
 70
     0
  9
$LUNITS
 70
     2
  9
$LUPREC
 70
     4
  9
$SKETCHINC
 40
0.1
  9
$FILLETRAD
 40
2.0
  9
$AUNITS
 70
     0
  9
$AUPREC
 70
     0
  9
$MENU
  1
.
  9
$ELEVATION
 40
0.0
  9
$PELEVATION
 40
0.0
  9
$THICKNESS
 40
0.0
  9
$LIMCHECK
 70
     0
  9
$CHAMFERA
 40
0.0
  9
$CHAMFERB
 40
0.0
  9
$CHAMFERC
 40
0.0
  9
$CHAMFERD
 40
0.0
  9
$SKPOLY
 70
     0
  9
$TDCREATE
 40
2457533.808284363
  9
$TDUCREATE
 40
2457533.433284363
  9
$TDUPDATE
 40
2457871.837544259
  9
$TDUUPDATE
 40
2457871.462544259
  9
$TDINDWG
 40
0.0166722801
  9
$TDUSRTIMER
 40
0.0166718171
  9
$USRTIMER
 70
     1
  9
$ANGBASE
 50
0.0
  9
$ANGDIR
 70
     0
  9
$PDMODE
 70
     0
  9
$PDSIZE
 40
0.0
  9
$PLINEWID
 40
0.0
  9
$SPLFRAME
 70
     0
  9
$SPLINETYPE
 70
     6
  9
$SPLINESEGS
 70
     8
  9
$HANDSEED
  5
1F20
  9
$SURFTAB1
 70
     6
  9
$SURFTAB2
 70
     6
  9
$SURFTYPE
 70
     6
  9
$SURFU
 70
     6
  9
$SURFV
 70
     6
  9
$UCSBASE
  2

  9
$UCSNAME
  2

  9
$UCSORG
 10
0.0
 20
0.0
 30
0.0
  9
$UCSXDIR
 10
1.0
 20
0.0
 30
0.0
  9
$UCSYDIR
 10
0.0
 20
1.0
 30
0.0
  9
$UCSORTHOREF
  2

  9
$UCSORTHOVIEW
 70
     0
  9
$UCSORGTOP
 10
0.0
 20
0.0
 30
0.0
  9
$UCSORGBOTTOM
 10
0.0
 20
0.0
 30
0.0
  9
$UCSORGLEFT
 10
0.0
 20
0.0
 30
0.0
  9
$UCSORGRIGHT
 10
0.0
 20
0.0
 30
0.0
  9
$UCSORGFRONT
 10
0.0
 20
0.0
 30
0.0
  9
$UCSORGBACK
 10
0.0
 20
0.0
 30
0.0
  9
$PUCSBASE
  2

  9
$PUCSNAME
  2

  9
$PUCSORG
 10
0.0
 20
0.0
 30
0.0
  9
$PUCSXDIR
 10
1.0
 20
0.0
 30
0.0
  9
$PUCSYDIR
 10
0.0
 20
1.0
 30
0.0
  9
$PUCSORTHOREF
  2

  9
$PUCSORTHOVIEW
 70
     0
  9
$PUCSORGTOP
 10
0.0
 20
0.0
 30
0.0
  9
$PUCSORGBOTTOM
 10
0.0
 20
0.0
 30
0.0
  9
$PUCSORGLEFT
 10
0.0
 20
0.0
 30
0.0
  9
$PUCSORGRIGHT
 10
0.0
 20
0.0
 30
0.0
  9
$PUCSORGFRONT
 10
0.0
 20
0.0
 30
0.0
  9
$PUCSORGBACK
 10
0.0
 20
0.0
 30
0.0
  9
$USERI1
 70
     0
  9
$USERI2
 70
     0
  9
$USERI3
 70
     0
  9
$USERI4
 70
     0
  9
$USERI5
 70
     0
  9
$USERR1
 40
0.0
  9
$USERR2
 40
0.0
  9
$USERR3
 40
0.0
  9
$USERR4
 40
0.0
  9
$USERR5
 40
0.0
  9
$WORLDVIEW
 70
     1
  9
$SHADEDGE
 70
     3
  9
$SHADEDIF
 70
    70
  9
$TILEMODE
 70
     1
  9
$MAXACTVP
 70
    16
  9
$PINSBASE
 10
0.0
 20
0.0
 30
0.0
  9
$PLIMCHECK
 70
     0
  9
$PEXTMIN
 10
1.000000000000000E+20
 20
1.000000000000000E+20
 30
1.000000000000000E+20
  9
$PEXTMAX
 10
-1.000000000000000E+20
 20
-1.000000000000000E+20
 30
-1.000000000000000E+20
  9
$PLIMMIN
 10
0.0
 20
0.0
  9
$PLIMMAX
 10
12.0
 20
9.0
  9
$UNITMODE
 70
     0
  9
$VISRETAIN
 70
     0
  9
$PLINEGEN
 70
     0
  9
$PSLTSCALE
 70
     1
  9
$TREEDEPTH
 70
  3020
  9
$CMLSTYLE
  2
STANDARD
  9
$CMLJUST
 70
     0
  9
$CMLSCALE
 40
1.0
  9
$PROXYGRAPHICS
 70
     1
  9
$MEASUREMENT
 70
     0
  9
$CELWEIGHT
370
    -1
  9
$ENDCAPS
280
     0
  9
$JOINSTYLE
280
     0
  9
$LWDISPLAY
290
     0
  9
$INSUNITS
 70
     0
  9
$HYPERLINKBASE
  1

  9
$STYLESHEET
  1
R14.ctb
  9
$XEDIT
290
     1
  9
$CEPSNTYPE
380
     0
  9
$PSTYLEMODE
290
     1
  9
$FINGERPRINTGUID
  2
{D3E51C88-5ABD-4E5E-B413-4C2EB90F8AD1}
  9
$VERSIONGUID
  2
{7DC941CB-36D8-4DAE-9AE3-273A430FE1D1}
  9
$EXTNAMES
290
     1
  9
$PSVPSCALE
 40
0.0
  9
$OLESTARTUP
290
     0
  0
ENDSEC
  0
SECTION
  2
CLASSES
  0
CLASS
  1
ACDBDICTIONARYWDFLT
  2
AcDbDictionaryWithDefault
  3
ObjectDBX Classes
 90
        0
280
     0
281
     0
  0
CLASS
  1
MATERIAL
  2
AcDbMaterial
  3
ObjectDBX Classes
 90
     1153
280
     0
281
     0
  0
CLASS
  1
SORTENTSTABLE
  2
AcDbSortentsTable
  3
ObjectDBX Classes
 90
        0
280
     0
281
     0
  0
CLASS
  1
SCALE
  2
AcDbScale
  3
ObjectDBX Classes
 90
     1153
280
     0
281
     0
  0
CLASS
  1
DICTIONARYVAR
  2
AcDbDictionaryVar
  3
ObjectDBX Classes
 90
        0
280
     0
281
     0
  0
CLASS
  1
VISUALSTYLE
  2
AcDbVisualStyle
  3
ObjectDBX Classes
 90
     4095
280
     0
281
     0
  0
CLASS
  1
MLEADERSTYLE
  2
AcDbMLeaderStyle
  3
ACDB_MLEADERSTYLE_CLASS
 90
     4095
280
     0
281
     0
  0
CLASS
  1
TABLESTYLE
  2
AcDbTableStyle
  3
ObjectDBX Classes
 90
     4095
280
     0
281
     0
  0
CLASS
  1
ACDBPLACEHOLDER
  2
AcDbPlaceHolder
  3
ObjectDBX Classes
 90
        0
280
     0
281
     0
  0
CLASS
  1
LAYOUT
  2
AcDbLayout
  3
ObjectDBX Classes
 90
        0
280
     0
281
     0
  0
ENDSEC
  0
SECTION
  2
TABLES
  0
TABLE
  2
VPORT
  5
25
102
{ACAD_XDICTIONARY
360
1EE5
102
}
330
0
100
AcDbSymbolTable
 70
     2
  0
VPORT
  5
2A
330
25
100
AcDbSymbolTableRecord
100
AcDbViewportTableRecord
  2
*ACTIVE
 70
     0
 10
0.0
 20
0.0
 11
1.0
 21
1.0
 12
848.9014644413377
 22
436.4970670415987
 13
0.0
 23
0.0
 14
1.0
 24
1.0
 15
0.0
 25
0.0
 16
0.0
 26
0.0
 36
1.0
 17
0.0
 27
0.0
 37
0.0
 40
838.6694766616268
 41
2.177611940298507
 42
50.0
 43
0.0
 44
0.0
 50
0.0
 51
0.0
 71
     0
 72
 20000
 73
     1
 74
     0
 75
     1
 76
     0
 77
     0
 78
     0
281
     0
 65
     1
110
0.0
120
0.0
130
0.0
111
1.0
121
0.0
131
0.0
112
0.0
122
1.0
132
0.0
 79
     0
146
0.0
  0
ENDTAB
  0
TABLE
  2
LTYPE
  5
B
330
0
100
AcDbSymbolTable
 70
     3
  0
LTYPE
  5
C
330
B
100
AcDbSymbolTableRecord
100
AcDbLinetypeTableRecord
  2
BYBLOCK
 70
     0
  3

 72
    65
 73
     0
 40
0.0
  0
LTYPE
  5
D
330
B
100
AcDbSymbolTableRecord
100
AcDbLinetypeTableRecord
  2
BYLAYER
 70
     0
  3

 72
    65
 73
     0
 40
0.0
  0
LTYPE
  5
A
330
B
100
AcDbSymbolTableRecord
100
AcDbLinetypeTableRecord
  2
CONTINUOUS
 70
     0
  3
Solid line
 72
    65
 73
     0
 40
0.0
  0
LTYPE
  5
52
330
B
100
AcDbSymbolTableRecord
100
AcDbLinetypeTableRecord
  2
CENTER
 70
     0
  3
Center ____ _ ____ _ ____ _ ____ _ ____ _ ____
 72
    65
 73
     4
 40
2.0
 49
1.25
 74
     0
 49
-0.25
 74
     0
 49
0.25
 74
     0
 49
-0.25
 74
     0
  0
ENDTAB
  0
TABLE
  2
LAYER
  5
2
330
0
100
AcDbSymbolTable
 70
     9
  0
LAYER
  5
1B
330
2
100
AcDbSymbolTableRecord
100
AcDbLayerTableRecord
  2
0
 70
     0
 62
     7
  6
CONTINUOUS
370
    -3
390
3
  0
LAYER
  5
C4
330
2
100
AcDbSymbolTableRecord
100
AcDbLayerTableRecord
  2
1
 70
     0
 62
     7
  6
CONTINUOUS
370
    -3
390
3
  0
LAYER
  5
1
330
2
100
AcDbSymbolTableRecord
100
AcDbLayerTableRecord
  2
2
 70
     0
 62
     4
  6
CONTINUOUS
370
    -3
390
3
  0
LAYER
  5
C0
330
2
100
AcDbSymbolTableRecord
100
AcDbLayerTableRecord
  2
4
 70
     0
 62
     3
  6
CONTINUOUS
370
    -3
390
3
  0
LAYER
  5
51
330
2
100
AcDbSymbolTableRecord
100
AcDbLayerTableRecord
  2
L-CENTER
 70
     0
 62
     1
  6
CENTER
370
    -3
390
3
  0
LAYER
  5
BB
330
2
100
AcDbSymbolTableRecord
100
AcDbLayerTableRecord
  2
5
 70
     0
 62
     6
  6
CONTINUOUS
370
    -3
390
3
  0
LAYER
  5
57
330
2
100
AcDbSymbolTableRecord
100
AcDbLayerTableRecord
  2
3
 70
     0
 62
     2
  6
CONTINUOUS
370
    -3
390
3
  0
LAYER
  5
493
330
2
100
AcDbSymbolTableRecord
100
AcDbLayerTableRecord
  2
Defpoints
 70
     0
 62
     7
  6
CONTINUOUS
290
     0
370
    -3
390
3
  0
ENDTAB
  0
TABLE
  2
STYLE
  5
F
330
0
100
AcDbSymbolTable
 70
     2
  0
STYLE
  5
13
330
F
100
AcDbSymbolTableRecord
100
AcDbTextStyleTableRecord
  2
STANDARD
 70
     0
 40
0.0
 41
1.0
 50
0.0
 71
     0
 42
4.5
  3
txt
  4

  0
STYLE
  5
E
330
F
100
AcDbSymbolTableRecord
100
AcDbTextStyleTableRecord
  2
KANJI
 70
     0
 40
0.0
 41
1.0
 50
0.0
 71
     0
 42
7.5
  3
TXT
  4
BIGFONT
  0
ENDTAB
  0
TABLE
  2
VIEW
  5
23
330
0
100
AcDbSymbolTable
 70
     0
  0
ENDTAB
  0
TABLE
  2
UCS
  5
24
330
0
100
AcDbSymbolTable
 70
     0
  0
ENDTAB
  0
TABLE
  2
APPID
  5
9
330
0
100
AcDbSymbolTable
 70
     3
  0
APPID
  5
8
330
9
100
AcDbSymbolTableRecord
100
AcDbRegAppTableRecord
  2
ACAD
 70
     0
  0
APPID
  5
46B
330
9
100
AcDbSymbolTableRecord
100
AcDbRegAppTableRecord
  2
ACAD_PSEXT
 70
     0
  0
APPID
  5
1ED0
330
9
100
AcDbSymbolTableRecord
100
AcDbRegAppTableRecord
  2
ACAD_MLEADERVER
 70
     0
  0
ENDTAB
  0
TABLE
  2
DIMSTYLE
  5
12
330
0
100
AcDbSymbolTable
 70
     1
100
AcDbDimStyleTable
  0
DIMSTYLE
105
11
330
12
100
AcDbSymbolTableRecord
100
AcDbDimStyleTableRecord
  2
STANDARD
 70
     0
178
     0
340
13
  0
ENDTAB
  0
TABLE
  2
BLOCK_RECORD
  5
16
330
0
100
AcDbSymbolTable
 70
     0
  0
BLOCK_RECORD
  5
17
102
{ACAD_XDICTIONARY
360
18
102
}
330
16
100
AcDbSymbolTableRecord
100
AcDbBlockTableRecord
  2
*MODEL_SPACE
340
1D
  0
BLOCK_RECORD
  5
1F
330
16
100
AcDbSymbolTableRecord
100
AcDbBlockTableRecord
  2
*PAPER_SPACE
340
22
  0
ENDTAB
  0
ENDSEC
  0
SECTION
  2
BLOCKS
  0
BLOCK
  5
1A
330
17
100
AcDbEntity
  8
0
100
AcDbBlockBegin
  2
*MODEL_SPACE
 70
     0
 10
0.0
 20
0.0
 30
0.0
  3
*MODEL_SPACE
  1

  0
ENDBLK
  5
1C
330
17
100
AcDbEntity
  8
0
100
AcDbBlockEnd
  0
BLOCK
  5
20
330
1F
100
AcDbEntity
 67
     1
  8
0
100
AcDbBlockBegin
  2
*PAPER_SPACE
 70
     0
 10
0.0
 20
0.0
 30
0.0
  3
*PAPER_SPACE
  1

  0
ENDBLK
  5
21
330
1F
100
AcDbEntity
 67
     1
  8
0
100
AcDbBlockEnd
  0
ENDSEC
  0
SECTION
  2
ENTITIES
  0
SOLID
  5
61
330
17
100
AcDbEntity
  8
2
100
AcDbTrace
 10
867.4768460045589
 20
283.3792463635887
 30
0.0
 11
867.1300395760084
 21
278.3215973028618
 31
0.0
 12
869.1045609669334
 22
282.9907893097443
 32
0.0
 13
869.1045609669334
 23
282.9907893097443
 33
0.0
  0
SOLID
  5
B5
330
17
100
AcDbEntity
  8
2
100
AcDbTrace
 10
864.8964346127048
 20
228.083508525142
 30
0.0
 11
860.629942076009
 21
230.8215973028614
 31
0.0
 12
863.7725555120084
 22
226.84364940071
 32
0.0
 13
863.7725555120084
 23
226.84364940071
 33
0.0
  0
ARC
  5
1A2
330
17
100
AcDbEntity
  8
4
100
AcDbCircle
 10
704.0008325568584
 20
341.3490077333066
 30
0.0
 40
2.0
100
AcDbArc
 50
285.3183357934528
 51
344.744881296942
  0
ARC
  5
1A3
330
17
100
AcDbEntity
  8
4
100
AcDbCircle
 10
797.2592465951578
 20
341.3490077333066
 30
0.0
 40
2.0
100
AcDbArc
 50
195.255118703058
 51
254.6816642065472
  0
ARC
  5
1A4
330
17
100
AcDbEntity
  8
4
100
AcDbCircle
 10
791.8662437350088
 20
349.721597302861
 30
0.0
 40
1.0
100
AcDbArc
 50
15.25511870305491
 51
90.0
  0
ARC
  5
1A5
330
17
100
AcDbEntity
  8
4
100
AcDbCircle
 10
709.3938354170075
 20
349.721597302861
 30
0.0
 40
1.0
100
AcDbArc
 50
90.0
 51
164.7448812969451
  0
LINE
  5
1A6
330
17
100
AcDbEntity
  8
4
100
AcDbLine
 10
775.6300395760081
 20
339.7215973028615
 30
0.0
 11
772.9206641014805
 21
330.1215973028609
 31
0.0
  0
LINE
  5
1A7
330
17
100
AcDbEntity
  8
4
100
AcDbLine
 10
775.6300395760081
 20
341.2946052011839
 30
0.0
 11
772.476719411798
 21
330.1215973028609
 31
0.0
  0
LINE
  5
1A8
330
17
100
AcDbEntity
  8
4
 48
5.0
100
AcDbLine
 10
775.6300395760081
 20
341.2946052011839
 30
0.0
 11
775.6300395760081
 21
339.7215973028615
 31
0.0
  0
LINE
  5
1A9
330
17
100
AcDbEntity
  8
4
100
AcDbLine
 10
725.6300395760081
 20
339.7215973028615
 30
0.0
 11
728.3394150505358
 21
330.1215973028609
 31
0.0
  0
LINE
  5
1AA
330
17
100
AcDbEntity
  8
4
100
AcDbLine
 10
725.6300395760081
 20
341.2946052011839
 30
0.0
 11
728.7833597402183
 21
330.1215973028609
 31
0.0
  0
LINE
  5
1AB
330
17
100
AcDbEntity
  8
4
100
AcDbLine
 10
725.6300395760081
 20
341.2946052011839
 30
0.0
 11
738.1300395760081
 21
341.2946052011839
 31
0.0
  0
LINE
  5
1AC
330
17
100
AcDbEntity
  8
4
100
AcDbLine
 10
830.6165545506674
 20
331.5938331180919
 30
0.0
 11
795.2010374219201
 21
341.2946052011839
 31
0.0
  0
LINE
  5
1AD
330
17
100
AcDbEntity
  8
4
100
AcDbLine
 10
830.6165545506674
 20
330.1383345054544
 30
0.0
 11
796.7308831669957
 21
339.4200618844604
 31
0.0
  0
LINE
  5
1AE
330
17
100
AcDbEntity
  8
4
100
AcDbLine
 10
670.6435246013489
 20
331.5938331180919
 30
0.0
 11
706.0590417300962
 21
341.2946052011839
 31
0.0
  0
LINE
  5
1AF
330
17
100
AcDbEntity
  8
4
100
AcDbLine
 10
670.6435246013489
 20
330.1383345054544
 30
0.0
 11
704.5291959850206
 21
339.4200618844604
 31
0.0
  0
ARC
  5
1B0
330
17
100
AcDbEntity
  8
4
100
AcDbCircle
 10
646.6300395760081
 20
329.1215973028609
 30
0.0
 40
1.0
100
AcDbArc
 50
90.0
 51
180.0
  0
ARC
  5
1B1
330
17
100
AcDbEntity
  8
4
100
AcDbCircle
 10
854.6300395760081
 20
329.1215973028609
 30
0.0
 40
1.0
100
AcDbArc
 50
0.0
 51
90.0
  0
LINE
  5
1B2
330
17
100
AcDbEntity
  8
4
100
AcDbLine
 10
775.6300395760081
 20
350.721597302861
 30
0.0
 11
775.6300395760081
 21
351.7215973028606
 31
0.0
  0
LINE
  5
1B3
330
17
100
AcDbEntity
  8
4
100
AcDbLine
 10
792.8310075562465
 20
349.9847147086531
 30
0.0
 11
795.3297189526825
 21
340.8227729217224
 31
0.0
  0
LINE
  5
1B4
330
17
100
AcDbEntity
  8
4
100
AcDbLine
 10
725.6300395760081
 20
350.721597302861
 30
0.0
 11
725.6300395760081
 21
351.7215973028606
 31
0.0
  0
LINE
  5
1B5
330
17
100
AcDbEntity
  8
4
100
AcDbLine
 10
708.4290715957698
 20
349.9847147086531
 30
0.0
 11
705.9303601993338
 21
340.8227729217224
 31
0.0
  0
LINE
  5
1B6
330
17
100
AcDbEntity
  8
4
100
AcDbLine
 10
725.6300395760081
 20
339.7215973028615
 30
0.0
 11
705.6300395760081
 21
339.7215973028615
 31
0.0
  0
LINE
  5
1B7
330
17
100
AcDbEntity
  8
4
100
AcDbLine
 10
795.6300395760081
 20
339.7215973028615
 30
0.0
 11
775.6300395760081
 21
339.7215973028615
 31
0.0
  0
LINE
  5
1B8
330
17
100
AcDbEntity
  8
4
100
AcDbLine
 10
725.6300395760081
 20
351.7215973028606
 30
0.0
 11
775.6300395760081
 21
351.7215973028606
 31
0.0
  0
LINE
  5
1B9
330
17
100
AcDbEntity
  8
4
100
AcDbLine
 10
709.3938354170075
 20
350.721597302861
 30
0.0
 11
791.8662437350088
 21
350.721597302861
 31
0.0
  0
LINE
  5
1BA
330
17
100
AcDbEntity
  8
4
 48
5.0
100
AcDbLine
 10
855.6300395760081
 20
329.1215973028609
 30
0.0
 11
855.6300395760081
 21
313.8215973028612
 31
0.0
  0
LINE
  5
1BB
330
17
100
AcDbEntity
  8
4
 48
5.0
100
AcDbLine
 10
645.6300395760081
 20
329.1215973028609
 30
0.0
 11
645.6300395760081
 21
313.8215973028612
 31
0.0
  0
LINE
  5
1BC
330
17
100
AcDbEntity
  8
4
 48
5.0
100
AcDbLine
 10
725.6300395760081
 20
341.2946052011839
 30
0.0
 11
725.6300395760081
 21
339.7215973028615
 31
0.0
  0
LINE
  5
1BD
330
17
100
AcDbEntity
  8
4
 48
5.0
100
AcDbLine
 10
854.6300395760081
 20
330.1215973028609
 30
0.0
 11
646.6300395760081
 21
330.1215973028609
 31
0.0
  0
LINE
  5
1BE
330
17
100
AcDbEntity
  8
4
 48
5.0
100
AcDbLine
 10
855.6300395760081
 20
319.1215973028609
 30
0.0
 11
645.6300395760081
 21
319.1215973028609
 31
0.0
  0
LINE
  5
1BF
330
17
100
AcDbEntity
  8
4
 48
5.0
100
AcDbLine
 10
855.6300395760081
 20
318.8215973028609
 30
0.0
 11
645.6300395760081
 21
318.8215973028609
 31
0.0
  0
ARC
  5
1C0
330
17
100
AcDbEntity
  8
4
100
AcDbCircle
 10
371.540752889603
 20
341.3490077333065
 30
0.0
 40
2.0
100
AcDbArc
 50
195.2551187030616
 51
254.6816642065448
  0
ARC
  5
1C1
330
17
100
AcDbEntity
  8
4
100
AcDbCircle
 10
278.2823388513035
 20
341.3490077333068
 30
0.0
 40
2.0
100
AcDbArc
 50
285.3183357934537
 51
344.744881296942
  0
ARC
  5
1C2
330
17
100
AcDbEntity
  8
4
100
AcDbCircle
 10
283.6753417114526
 20
349.7215973028611
 30
0.0
 40
1.0
100
AcDbArc
 50
90.0
 51
164.7448812969451
  0
ARC
  5
1C3
330
17
100
AcDbEntity
  8
4
100
AcDbCircle
 10
366.147750029454
 20
349.7215973028608
 30
0.0
 40
1.0
100
AcDbArc
 50
15.2551187030612
 51
90.0
  0
LINE
  5
1C4
330
17
100
AcDbEntity
  8
4
100
AcDbLine
 10
349.9115458704532
 20
339.7215973028615
 30
0.0
 11
347.2021703959256
 21
330.1215973028609
 31
0.0
  0
LINE
  5
1C5
330
17
100
AcDbEntity
  8
4
100
AcDbLine
 10
349.9115458704532
 20
341.2946052011839
 30
0.0
 11
346.758225706243
 21
330.1215973028609
 31
0.0
  0
LINE
  5
1C6
330
17
100
AcDbEntity
  8
4
 48
5.0
100
AcDbLine
 10
349.9115458704532
 20
341.2946052011839
 30
0.0
 11
349.9115458704532
 21
339.7215973028615
 31
0.0
  0
LINE
  5
1C7
330
17
100
AcDbEntity
  8
4
100
AcDbLine
 10
299.9115458704532
 20
339.7215973028615
 30
0.0
 11
302.6209213449808
 21
330.1215973028609
 31
0.0
  0
LINE
  5
1C8
330
17
100
AcDbEntity
  8
4
100
AcDbLine
 10
299.9115458704532
 20
341.2946052011839
 30
0.0
 11
303.0648660346634
 21
330.1215973028609
 31
0.0
  0
LINE
  5
1C9
330
17
100
AcDbEntity
  8
4
100
AcDbLine
 10
299.9115458704532
 20
341.2946052011839
 30
0.0
 11
349.9115458704532
 21
341.2946052011839
 31
0.0
  0
LINE
  5
1CA
330
17
100
AcDbEntity
  8
4
100
AcDbLine
 10
239.550201729078
 20
330.1215973028613
 30
0.0
 11
280.3405480245412
 21
341.2946052011841
 31
0.0
  0
LINE
  5
1CB
330
17
100
AcDbEntity
  8
4
100
AcDbLine
 10
272.2448792037852
 20
337.6215973028611
 30
0.0
 11
278.8107022794657
 21
339.4200618844607
 31
0.0
  0
LINE
  5
1CC
330
17
100
AcDbEntity
  8
4
100
AcDbLine
 10
244.8639268228338
 20
330.1215973028613
 30
0.0
 11
270.4115458704536
 21
337.1194233898182
 31
0.0
  0
LINE
  5
1CD
330
17
100
AcDbEntity
  8
4
100
AcDbLine
 10
410.2728900118286
 20
330.1215973028607
 30
0.0
 11
369.4825437163653
 21
341.2946052011838
 31
0.0
  0
LINE
  5
1CE
330
17
100
AcDbEntity
  8
4
100
AcDbLine
 10
377.5782125371213
 20
337.6215973028608
 30
0.0
 11
371.0123894614408
 21
339.4200618844604
 31
0.0
  0
LINE
  5
1CF
330
17
100
AcDbEntity
  8
4
100
AcDbLine
 10
404.9591649180728
 20
330.1215973028607
 30
0.0
 11
379.4115458704529
 21
337.1194233898177
 31
0.0
  0
ARC
  5
1D0
330
17
100
AcDbEntity
  8
4
100
AcDbCircle
 10
220.9115458704532
 20
329.1215973028609
 30
0.0
 40
1.0
100
AcDbArc
 50
89.99999999999837
 51
180.0
  0
ARC
  5
1D1
330
17
100
AcDbEntity
  8
4
100
AcDbCircle
 10
428.9115458704532
 20
329.1215973028609
 30
0.0
 40
1.0
100
AcDbArc
 50
0.0
 51
90.0
  0
LINE
  5
1D2
330
17
100
AcDbEntity
  8
2
100
AcDbLine
 10
421.0247945245049
 20
612.1229563077118
 30
0.0
 11
422.4681701974788
 21
609.6229563077121
 31
0.0
  0
LINE
  5
1D3
330
17
100
AcDbEntity
  8
2
100
AcDbLine
 10
422.4681701974789
 20
614.6229563077119
 30
0.0
 11
421.0247945245049
 21
612.1229563077118
 31
0.0
  0
LINE
  5
1D4
330
17
100
AcDbEntity
  8
2
100
AcDbLine
 10
425.3549215434272
 20
614.622956307712
 30
0.0
 11
426.7982972164011
 21
612.122956307712
 31
0.0
  0
LINE
  5
1D5
330
17
100
AcDbEntity
  8
2
100
AcDbLine
 10
426.7982972164011
 20
612.122956307712
 30
0.0
 11
425.3549215434272
 21
609.6229563077119
 31
0.0
  0
LINE
  5
1D6
330
17
100
AcDbEntity
  8
2
100
AcDbLine
 10
422.4681701974788
 20
609.6229563077121
 30
0.0
 11
425.3549215434272
 21
609.6229563077119
 31
0.0
  0
LINE
  5
1D7
330
17
100
AcDbEntity
  8
2
100
AcDbLine
 10
422.4681701974789
 20
614.6229563077119
 30
0.0
 11
425.3549215434272
 21
614.622956307712
 31
0.0
  0
CIRCLE
  5
1D8
330
17
100
AcDbEntity
  8
4
100
AcDbCircle
 10
423.911545870453
 20
612.1229563077119
 30
0.0
 40
5.0
  0
CIRCLE
  5
1D9
330
17
100
AcDbEntity
  8
4
100
AcDbCircle
 10
423.911545870453
 20
612.1229563077119
 30
0.0
 40
5.75
  0
LINE
  5
1DA
330
17
100
AcDbEntity
  8
2
100
AcDbLine
 10
227.3549215434275
 20
614.6229563077119
 30
0.0
 11
228.7982972164015
 21
612.1229563077118
 31
0.0
  0
LINE
  5
1DB
330
17
100
AcDbEntity
  8
2
100
AcDbLine
 10
228.7982972164015
 20
612.1229563077118
 30
0.0
 11
227.3549215434276
 21
609.6229563077121
 31
0.0
  0
LINE
  5
1DC
330
17
100
AcDbEntity
  8
2
100
AcDbLine
 10
223.0247945245053
 20
612.122956307712
 30
0.0
 11
224.4681701974793
 21
609.6229563077119
 31
0.0
  0
LINE
  5
1DD
330
17
100
AcDbEntity
  8
2
100
AcDbLine
 10
224.4681701974793
 20
614.622956307712
 30
0.0
 11
223.0247945245053
 21
612.122956307712
 31
0.0
  0
CIRCLE
  5
1DE
330
17
100
AcDbEntity
  8
4
100
AcDbCircle
 10
225.9115458704534
 20
612.1229563077119
 30
0.0
 40
5.75
  0
CIRCLE
  5
1DF
330
17
100
AcDbEntity
  8
4
100
AcDbCircle
 10
225.9115458704534
 20
612.1229563077119
 30
0.0
 40
5.0
  0
LINE
  5
1E0
330
17
100
AcDbEntity
  8
2
100
AcDbLine
 10
227.3549215434275
 20
614.6229563077119
 30
0.0
 11
224.4681701974793
 21
614.622956307712
 31
0.0
  0
LINE
  5
1E1
330
17
100
AcDbEntity
  8
2
100
AcDbLine
 10
227.3549215434276
 20
609.6229563077121
 30
0.0
 11
224.4681701974793
 21
609.6229563077119
 31
0.0
  0
LINE
  5
1E2
330
17
100
AcDbEntity
  8
2
100
AcDbLine
 10
372.9681701974787
 20
700.359471282371
 30
0.0
 11
375.8549215434271
 21
700.3594712823713
 31
0.0
  0
LINE
  5
1E3
330
17
100
AcDbEntity
  8
2
100
AcDbLine
 10
372.9681701974788
 20
695.3594712823713
 30
0.0
 11
375.8549215434271
 21
695.3594712823711
 31
0.0
  0
LINE
  5
1E4
330
17
100
AcDbEntity
  8
2
100
AcDbLine
 10
375.8549215434271
 20
695.3594712823711
 30
0.0
 11
377.298297216401
 21
697.8594712823711
 31
0.0
  0
LINE
  5
1E5
330
17
100
AcDbEntity
  8
2
100
AcDbLine
 10
377.298297216401
 20
697.8594712823711
 30
0.0
 11
375.8549215434271
 21
700.3594712823713
 31
0.0
  0
LINE
  5
1E6
330
17
100
AcDbEntity
  8
2
100
AcDbLine
 10
371.5247945245048
 20
697.8594712823714
 30
0.0
 11
372.9681701974787
 21
700.359471282371
 31
0.0
  0
LINE
  5
1E7
330
17
100
AcDbEntity
  8
2
100
AcDbLine
 10
372.9681701974788
 20
695.3594712823713
 30
0.0
 11
371.5247945245048
 21
697.8594712823714
 31
0.0
  0
CIRCLE
  5
1E8
330
17
100
AcDbEntity
  8
4
100
AcDbCircle
 10
374.4115458704529
 20
697.8594712823713
 30
0.0
 40
5.0
  0
CIRCLE
  5
1E9
330
17
100
AcDbEntity
  8
4
100
AcDbCircle
 10
374.4115458704529
 20
697.8594712823713
 30
0.0
 40
5.75
  0
LINE
  5
1EA
330
17
100
AcDbEntity
  8
L-CENTER
 48
5.0
100
AcDbLine
 10
368.4115458704533
 20
687.467166436958
 30
0.0
 11
380.4115458704533
 21
708.2517761277845
 31
0.0
  0
LINE
  5
1EB
330
17
100
AcDbEntity
  8
2
100
AcDbLine
 10
276.8549215434276
 20
695.3594712823713
 30
0.0
 11
278.2982972164016
 21
697.8594712823714
 31
0.0
  0
LINE
  5
1EC
330
17
100
AcDbEntity
  8
2
100
AcDbLine
 10
278.2982972164016
 20
697.8594712823714
 30
0.0
 11
276.8549215434277
 21
700.359471282371
 31
0.0
  0
LINE
  5
1ED
330
17
100
AcDbEntity
  8
2
100
AcDbLine
 10
272.5247945245054
 20
697.8594712823711
 30
0.0
 11
273.9681701974794
 21
700.3594712823713
 31
0.0
  0
LINE
  5
1EE
330
17
100
AcDbEntity
  8
2
100
AcDbLine
 10
273.9681701974794
 20
695.3594712823711
 30
0.0
 11
272.5247945245054
 21
697.8594712823711
 31
0.0
  0
CIRCLE
  5
1EF
330
17
100
AcDbEntity
  8
4
100
AcDbCircle
 10
275.4115458704535
 20
697.8594712823713
 30
0.0
 40
5.75
  0
CIRCLE
  5
1F0
330
17
100
AcDbEntity
  8
4
100
AcDbCircle
 10
275.4115458704535
 20
697.8594712823713
 30
0.0
 40
5.0
  0
LINE
  5
1F1
330
17
100
AcDbEntity
  8
2
100
AcDbLine
 10
276.8549215434276
 20
695.3594712823713
 30
0.0
 11
273.9681701974794
 21
695.3594712823711
 31
0.0
  0
LINE
  5
1F2
330
17
100
AcDbEntity
  8
2
100
AcDbLine
 10
276.8549215434277
 20
700.359471282371
 30
0.0
 11
273.9681701974794
 21
700.3594712823713
 31
0.0
  0
LINE
  5
1F3
330
17
100
AcDbEntity
  8
L-CENTER
 48
5.0
100
AcDbLine
 10
281.4115458704536
 20
687.4671664369579
 30
0.0
 11
269.4115458704536
 21
708.2517761277844
 31
0.0
  0
LINE
  5
1F4
330
17
100
AcDbEntity
  8
2
100
AcDbLine
 10
372.9681701974788
 20
528.8864413330525
 30
0.0
 11
371.5247945245048
 21
526.3864413330524
 31
0.0
  0
LINE
  5
1F5
330
17
100
AcDbEntity
  8
2
100
AcDbLine
 10
371.5247945245048
 20
526.3864413330524
 30
0.0
 11
372.9681701974787
 21
523.8864413330527
 31
0.0
  0
LINE
  5
1F6
330
17
100
AcDbEntity
  8
2
100
AcDbLine
 10
377.298297216401
 20
526.3864413330526
 30
0.0
 11
375.8549215434271
 21
523.8864413330525
 31
0.0
  0
LINE
  5
1F7
330
17
100
AcDbEntity
  8
2
100
AcDbLine
 10
375.8549215434271
 20
528.8864413330526
 30
0.0
 11
377.298297216401
 21
526.3864413330526
 31
0.0
  0
CIRCLE
  5
1F8
330
17
100
AcDbEntity
  8
4
100
AcDbCircle
 10
374.4115458704529
 20
526.3864413330525
 30
0.0
 40
5.75
  0
CIRCLE
  5
1F9
330
17
100
AcDbEntity
  8
4
100
AcDbCircle
 10
374.4115458704529
 20
526.3864413330525
 30
0.0
 40
5.0
  0
LINE
  5
1FA
330
17
100
AcDbEntity
  8
2
100
AcDbLine
 10
372.9681701974788
 20
528.8864413330525
 30
0.0
 11
375.8549215434271
 21
528.8864413330526
 31
0.0
  0
LINE
  5
1FB
330
17
100
AcDbEntity
  8
2
100
AcDbLine
 10
372.9681701974787
 20
523.8864413330527
 30
0.0
 11
375.8549215434271
 21
523.8864413330525
 31
0.0
  0
LINE
  5
1FC
330
17
100
AcDbEntity
  8
2
100
AcDbLine
 10
276.8549215434277
 20
523.8864413330527
 30
0.0
 11
273.9681701974794
 21
523.8864413330525
 31
0.0
  0
LINE
  5
1FD
330
17
100
AcDbEntity
  8
2
100
AcDbLine
 10
276.8549215434276
 20
528.8864413330525
 30
0.0
 11
273.9681701974794
 21
528.8864413330526
 31
0.0
  0
LINE
  5
1FE
330
17
100
AcDbEntity
  8
2
100
AcDbLine
 10
278.2982972164016
 20
526.3864413330524
 30
0.0
 11
276.8549215434277
 21
523.8864413330527
 31
0.0
  0
LINE
  5
1FF
330
17
100
AcDbEntity
  8
2
100
AcDbLine
 10
273.9681701974794
 20
528.8864413330526
 30
0.0
 11
272.5247945245054
 21
526.3864413330526
 31
0.0
  0
LINE
  5
200
330
17
100
AcDbEntity
  8
2
100
AcDbLine
 10
276.8549215434276
 20
528.8864413330525
 30
0.0
 11
278.2982972164016
 21
526.3864413330524
 31
0.0
  0
LINE
  5
201
330
17
100
AcDbEntity
  8
2
100
AcDbLine
 10
272.5247945245054
 20
526.3864413330526
 30
0.0
 11
273.9681701974794
 21
523.8864413330525
 31
0.0
  0
CIRCLE
  5
202
330
17
100
AcDbEntity
  8
4
100
AcDbCircle
 10
275.4115458704535
 20
526.3864413330525
 30
0.0
 40
5.0
  0
CIRCLE
  5
203
330
17
100
AcDbEntity
  8
4
100
AcDbCircle
 10
275.4115458704535
 20
526.3864413330525
 30
0.0
 40
5.75
  0
LINE
  5
204
330
17
100
AcDbEntity
  8
L-CENTER
 48
5.0
100
AcDbLine
 10
836.3665545506674
 20
340.5281243535901
 30
0.0
 11
836.3665545506674
 21
310.5299456827855
 31
0.0
  0
LINE
  5
205
330
17
100
AcDbEntity
  8
4
100
AcDbLine
 10
831.3665545506674
 20
337.6215973028609
 30
0.0
 11
841.3665545506674
 21
337.6215973028609
 31
0.0
  0
LINE
  5
206
330
17
100
AcDbEntity
  8
4
100
AcDbLine
 10
830.6165545506674
 20
331.6215973028609
 30
0.0
 11
830.6165545506674
 21
330.1215973028609
 31
0.0
  0
LINE
  5
207
330
17
100
AcDbEntity
  8
4
100
AcDbLine
 10
842.1165545506674
 20
331.6215973028609
 30
0.0
 11
842.1165545506674
 21
330.1215973028609
 31
0.0
  0
LINE
  5
208
330
17
100
AcDbEntity
  8
4
100
AcDbLine
 10
830.6165545506674
 20
331.6215973028609
 30
0.0
 11
842.1165545506674
 21
331.6215973028609
 31
0.0
  0
LINE
  5
209
330
17
100
AcDbEntity
  8
4
100
AcDbLine
 10
831.3665545506674
 20
337.6215973028609
 30
0.0
 11
831.3665545506674
 21
331.6215973028609
 31
0.0
  0
LINE
  5
20A
330
17
100
AcDbEntity
  8
4
100
AcDbLine
 10
841.3665545506674
 20
337.6215973028609
 30
0.0
 11
841.3665545506674
 21
331.6215973028609
 31
0.0
  0
LINE
  5
20B
330
17
100
AcDbEntity
  8
4
100
AcDbLine
 10
755.6300395760081
 20
337.6215973028609
 30
0.0
 11
745.6300395760081
 21
337.6215973028609
 31
0.0
  0
LINE
  5
20C
330
17
100
AcDbEntity
  8
4
100
AcDbLine
 10
756.3800395760081
 20
331.6215973028609
 30
0.0
 11
756.3800395760081
 21
330.1215973028609
 31
0.0
  0
LINE
  5
20D
330
17
100
AcDbEntity
  8
4
100
AcDbLine
 10
744.8800395760081
 20
331.6215973028609
 30
0.0
 11
744.8800395760081
 21
330.1215973028609
 31
0.0
  0
LINE
  5
20E
330
17
100
AcDbEntity
  8
4
100
AcDbLine
 10
756.3800395760081
 20
331.6215973028609
 30
0.0
 11
744.8800395760081
 21
331.6215973028609
 31
0.0
  0
LINE
  5
20F
330
17
100
AcDbEntity
  8
4
100
AcDbLine
 10
755.6300395760081
 20
337.6215973028609
 30
0.0
 11
755.6300395760081
 21
331.6215973028609
 31
0.0
  0
LINE
  5
210
330
17
100
AcDbEntity
  8
4
100
AcDbLine
 10
745.6300395760081
 20
337.6215973028609
 30
0.0
 11
745.6300395760081
 21
331.6215973028609
 31
0.0
  0
LINE
  5
211
330
17
100
AcDbEntity
  8
4
100
AcDbLine
 10
669.8935246013489
 20
337.6215973028609
 30
0.0
 11
659.8935246013489
 21
337.6215973028609
 31
0.0
  0
LINE
  5
212
330
17
100
AcDbEntity
  8
4
100
AcDbLine
 10
670.6435246013489
 20
331.6215973028609
 30
0.0
 11
670.6435246013489
 21
330.1215973028609
 31
0.0
  0
LINE
  5
213
330
17
100
AcDbEntity
  8
4
100
AcDbLine
 10
659.1435246013489
 20
331.6215973028609
 30
0.0
 11
659.1435246013489
 21
330.1215973028609
 31
0.0
  0
LINE
  5
214
330
17
100
AcDbEntity
  8
4
100
AcDbLine
 10
670.6435246013489
 20
331.6215973028609
 30
0.0
 11
659.1435246013489
 21
331.6215973028609
 31
0.0
  0
LINE
  5
215
330
17
100
AcDbEntity
  8
4
100
AcDbLine
 10
669.8935246013489
 20
337.6215973028609
 30
0.0
 11
669.8935246013489
 21
331.6215973028609
 31
0.0
  0
LINE
  5
216
330
17
100
AcDbEntity
  8
4
100
AcDbLine
 10
659.8935246013489
 20
337.6215973028609
 30
0.0
 11
659.8935246013489
 21
331.6215973028609
 31
0.0
  0
LINE
  5
217
330
17
100
AcDbEntity
  8
4
100
AcDbLine
 10
270.4115458704536
 20
337.6215973028611
 30
0.0
 11
280.4115458704536
 21
337.6215973028611
 31
0.0
  0
LINE
  5
218
330
17
100
AcDbEntity
  8
2
100
AcDbLine
 10
276.9115458704535
 20
331.6215973028611
 30
0.0
 11
275.4115458704536
 21
330.1215973028611
 31
0.0
  0
LINE
  5
219
330
17
100
AcDbEntity
  8
4
100
AcDbLine
 10
281.1615458704536
 20
331.6215973028611
 30
0.0
 11
281.1615458704536
 21
330.1215973028611
 31
0.0
  0
LINE
  5
21A
330
17
100
AcDbEntity
  8
4
100
AcDbLine
 10
269.6615458704536
 20
331.6215973028611
 30
0.0
 11
269.6615458704536
 21
330.1215973028611
 31
0.0
  0
LINE
  5
21B
330
17
100
AcDbEntity
  8
4
100
AcDbLine
 10
269.6615458704536
 20
331.6215973028611
 30
0.0
 11
281.1615458704536
 21
331.6215973028611
 31
0.0
  0
LINE
  5
21C
330
17
100
AcDbEntity
  8
2
100
AcDbLine
 10
274.7902255268938
 20
331.6215973028611
 30
0.0
 11
273.2902255268939
 21
330.1215973028611
 31
0.0
  0
LINE
  5
21D
330
17
100
AcDbEntity
  8
4
100
AcDbLine
 10
280.4115458704536
 20
337.6215973028611
 30
0.0
 11
280.4115458704536
 21
331.6215973028611
 31
0.0
  0
LINE
  5
21E
330
17
100
AcDbEntity
  8
4
100
AcDbLine
 10
270.4115458704536
 20
337.6215973028611
 30
0.0
 11
270.4115458704536
 21
331.6215973028611
 31
0.0
  0
LINE
  5
21F
330
17
100
AcDbEntity
  8
L-CENTER
 48
5.0
100
AcDbLine
 10
275.4115458704536
 20
339.9119056649386
 30
0.0
 11
275.4115458704535
 21
310.5299456827857
 31
0.0
  0
LINE
  5
220
330
17
100
AcDbEntity
  8
L-CENTER
 48
5.0
100
AcDbLine
 10
423.911545870453
 20
339.9119056649383
 30
0.0
 11
423.911545870453
 21
310.5299456827855
 31
0.0
  0
LINE
  5
221
330
17
100
AcDbEntity
  8
4
100
AcDbLine
 10
418.1615458704531
 20
331.6215973028609
 30
0.0
 11
418.1615458704531
 21
330.1215973028609
 31
0.0
  0
LINE
  5
222
330
17
100
AcDbEntity
  8
4
100
AcDbLine
 10
429.661545870453
 20
331.6215973028609
 30
0.0
 11
429.661545870453
 21
330.1215973028609
 31
0.0
  0
LINE
  5
223
330
17
100
AcDbEntity
  8
2
100
AcDbLine
 10
424.5328662140128
 20
331.6215973028609
 30
0.0
 11
426.0328662140127
 21
330.1215973028609
 31
0.0
  0
LINE
  5
224
330
17
100
AcDbEntity
  8
2
100
AcDbLine
 10
422.4115458704531
 20
331.6215973028609
 30
0.0
 11
423.911545870453
 21
330.1215973028609
 31
0.0
  0
LINE
  5
225
330
17
100
AcDbEntity
  8
4
100
AcDbLine
 10
428.911545870453
 20
337.6215973028609
 30
0.0
 11
418.911545870453
 21
337.6215973028609
 31
0.0
  0
LINE
  5
226
330
17
100
AcDbEntity
  8
4
100
AcDbLine
 10
429.661545870453
 20
331.6215973028609
 30
0.0
 11
418.1615458704531
 21
331.6215973028609
 31
0.0
  0
LINE
  5
227
330
17
100
AcDbEntity
  8
4
100
AcDbLine
 10
428.911545870453
 20
337.6215973028609
 30
0.0
 11
428.911545870453
 21
331.6215973028609
 31
0.0
  0
LINE
  5
228
330
17
100
AcDbEntity
  8
4
100
AcDbLine
 10
418.911545870453
 20
337.6215973028609
 30
0.0
 11
418.911545870453
 21
331.6215973028609
 31
0.0
  0
LINE
  5
229
330
17
100
AcDbEntity
  8
4
100
AcDbLine
 10
379.4115458704529
 20
337.6215973028608
 30
0.0
 11
369.4115458704529
 21
337.6215973028609
 31
0.0
  0
LINE
  5
22A
330
17
100
AcDbEntity
  8
4
100
AcDbLine
 10
368.6615458704529
 20
331.6215973028608
 30
0.0
 11
368.6615458704529
 21
330.1215973028609
 31
0.0
  0
LINE
  5
22B
330
17
100
AcDbEntity
  8
4
100
AcDbLine
 10
380.1615458704529
 20
331.6215973028607
 30
0.0
 11
380.1615458704529
 21
330.1215973028608
 31
0.0
  0
LINE
  5
22C
330
17
100
AcDbEntity
  8
2
100
AcDbLine
 10
375.0328662140126
 20
331.6215973028608
 30
0.0
 11
376.5328662140125
 21
330.1215973028609
 31
0.0
  0
LINE
  5
22D
330
17
100
AcDbEntity
  8
4
100
AcDbLine
 10
380.1615458704529
 20
331.6215973028607
 30
0.0
 11
368.6615458704529
 21
331.6215973028608
 31
0.0
  0
LINE
  5
22E
330
17
100
AcDbEntity
  8
2
100
AcDbLine
 10
372.9115458704529
 20
331.6215973028608
 30
0.0
 11
374.4115458704529
 21
330.1215973028609
 31
0.0
  0
LINE
  5
22F
330
17
100
AcDbEntity
  8
4
100
AcDbLine
 10
379.4115458704529
 20
337.6215973028608
 30
0.0
 11
379.4115458704529
 21
331.6215973028608
 31
0.0
  0
LINE
  5
230
330
17
100
AcDbEntity
  8
4
100
AcDbLine
 10
369.4115458704529
 20
337.6215973028609
 30
0.0
 11
369.4115458704529
 21
331.6215973028609
 31
0.0
  0
LINE
  5
231
330
17
100
AcDbEntity
  8
2
100
AcDbLine
 10
225.2902255268937
 20
331.6215973028609
 30
0.0
 11
223.7902255268937
 21
330.1215973028609
 31
0.0
  0
LINE
  5
232
330
17
100
AcDbEntity
  8
2
100
AcDbLine
 10
227.4115458704533
 20
331.6215973028609
 30
0.0
 11
225.9115458704534
 21
330.1215973028609
 31
0.0
  0
LINE
  5
233
330
17
100
AcDbEntity
  8
4
100
AcDbLine
 10
230.9115458704534
 20
337.6215973028609
 30
0.0
 11
230.9115458704534
 21
331.6215973028609
 31
0.0
  0
LINE
  5
234
330
17
100
AcDbEntity
  8
4
100
AcDbLine
 10
220.9115458704534
 20
337.6215973028609
 30
0.0
 11
220.9115458704534
 21
331.6215973028609
 31
0.0
  0
LINE
  5
235
330
17
100
AcDbEntity
  8
4
100
AcDbLine
 10
220.9115458704534
 20
337.6215973028609
 30
0.0
 11
230.9115458704534
 21
337.6215973028609
 31
0.0
  0
LINE
  5
236
330
17
100
AcDbEntity
  8
4
100
AcDbLine
 10
220.1615458704534
 20
331.6215973028609
 30
0.0
 11
220.1615458704534
 21
330.1215973028609
 31
0.0
  0
LINE
  5
237
330
17
100
AcDbEntity
  8
4
100
AcDbLine
 10
231.6615458704534
 20
331.6215973028609
 30
0.0
 11
231.6615458704534
 21
330.1215973028609
 31
0.0
  0
LINE
  5
238
330
17
100
AcDbEntity
  8
4
100
AcDbLine
 10
220.1615458704534
 20
331.6215973028609
 30
0.0
 11
231.6615458704534
 21
331.6215973028609
 31
0.0
  0
LWPOLYLINE
  5
239
330
17
100
AcDbEntity
  8
4
100
AcDbPolyline
 90
        2
 70
     0
 43
0.0
 10
314.0862283231477
 20
728.6229563077118
 10
314.0862283231477
 20
723.6229563077118
  0
LINE
  5
23A
330
17
100
AcDbEntity
  8
4
100
AcDbLine
 10
312.4115458704532
 20
723.6229563077118
 30
0.0
 11
312.4115458704532
 21
721.6229563077118
 31
0.0
  0
LINE
  5
23B
330
17
100
AcDbEntity
  8
4
100
AcDbLine
 10
313.4115458704532
 20
721.6229563077118
 30
0.0
 11
313.4115458704532
 21
720.1229563077118
 31
0.0
  0
LWPOLYLINE
  5
23C
330
17
100
AcDbEntity
  8
4
100
AcDbPolyline
 90
        2
 70
     0
 43
0.0
 10
335.7368634177587
 20
723.6229563077118
 10
335.7368634177587
 20
728.6229563077118
  0
LINE
  5
23D
330
17
100
AcDbEntity
  8
4
100
AcDbLine
 10
337.4115458704532
 20
723.6229563077118
 30
0.0
 11
337.4115458704532
 21
721.6229563077118
 31
0.0
  0
LINE
  5
23E
330
17
100
AcDbEntity
  8
4
100
AcDbLine
 10
336.4115458704532
 20
721.6229563077118
 30
0.0
 11
336.4115458704532
 21
720.1229563077118
 31
0.0
  0
LINE
  5
23F
330
17
100
AcDbEntity
  8
4
100
AcDbLine
 10
312.4115458704532
 20
721.6229563077118
 30
0.0
 11
337.4115458704532
 21
721.6229563077118
 31
0.0
  0
LINE
  5
240
330
17
100
AcDbEntity
  8
4
100
AcDbLine
 10
312.4115458704532
 20
723.6229563077118
 30
0.0
 11
337.4115458704532
 21
723.6229563077118
 31
0.0
  0
LINE
  5
241
330
17
100
AcDbEntity
  8
4
100
AcDbLine
 10
314.0862283231477
 20
728.6229563077118
 30
0.0
 11
335.7368634177587
 21
728.6229563077118
 31
0.0
  0
LINE
  5
242
330
17
100
AcDbEntity
  8
4
100
AcDbLine
 10
313.4115458704532
 20
720.1229563077118
 30
0.0
 11
336.4115458704532
 21
720.1229563077118
 31
0.0
  0
LINE
  5
243
330
17
100
AcDbEntity
  8
L-CENTER
 48
5.0
100
AcDbLine
 10
664.8935246013489
 20
340.5281243535901
 30
0.0
 11
664.8935246013489
 21
310.5299456827855
 31
0.0
  0
LINE
  5
244
330
17
100
AcDbEntity
  8
L-CENTER
 48
5.0
100
AcDbLine
 10
374.4115458704529
 20
339.9119056649383
 30
0.0
 11
374.4115458704528
 21
310.5299456827854
 31
0.0
  0
LINE
  5
245
330
17
100
AcDbEntity
  8
L-CENTER
 48
5.0
100
AcDbLine
 10
225.9115458704534
 20
339.9119056649383
 30
0.0
 11
225.9115458704534
 21
310.5299456827855
 31
0.0
  0
LWPOLYLINE
  5
246
330
17
100
AcDbEntity
  8
4
100
AcDbPolyline
 90
        6
 70
     1
 43
0.0
 10
377.4115458704531
 20
612.1229563077119
 10
383.6615458704531
 20
622.9482738550174
 10
396.1615458704531
 20
622.9482738550174
 10
402.4115458704531
 20
612.1229563077119
 10
396.1615458704531
 20
601.2976387604064
 10
383.6615458704531
 20
601.2976387604064
  0
CIRCLE
  5
247
330
17
100
AcDbEntity
  8
4
100
AcDbCircle
 10
389.9115458704531
 20
612.1229563077119
 30
0.0
 40
12.5
  0
LINE
  5
25C
330
17
100
AcDbEntity
  8
4
100
AcDbLine
 10
214.4115453704533
 20
543.1229558077117
 30
0.0
 11
212.4115908704531
 21
543.1229558077117
 31
0.0
  0
LINE
  5
25D
330
17
100
AcDbEntity
  8
4
100
AcDbLine
 10
214.4115453704533
 20
481.1229558077122
 30
0.0
 11
212.4115908704531
 21
481.1229558077122
 31
0.0
  0
LINE
  5
25E
330
17
100
AcDbEntity
  8
4
100
AcDbLine
 10
212.4115908704531
 20
481.1229558077122
 30
0.0
 11
212.4115908704531
 21
543.1229558077117
 31
0.0
  0
LINE
  5
25F
330
17
100
AcDbEntity
  8
4
100
AcDbLine
 10
435.4115463704532
 20
543.1229558077117
 30
0.0
 11
437.4115008704533
 21
543.1229558077117
 31
0.0
  0
LINE
  5
260
330
17
100
AcDbEntity
  8
4
100
AcDbLine
 10
435.4115463704532
 20
481.1229558077122
 30
0.0
 11
437.4115008704533
 21
481.1229558077122
 31
0.0
  0
LINE
  5
261
330
17
100
AcDbEntity
  8
4
100
AcDbLine
 10
437.4115008704533
 20
481.1229558077122
 30
0.0
 11
437.4115008704533
 21
543.1229558077117
 31
0.0
  0
LINE
  5
262
330
17
100
AcDbEntity
  8
4
100
AcDbLine
 10
435.4115458704533
 20
301.8215973028607
 30
0.0
 11
437.4115008704533
 21
301.8215973028607
 31
0.0
  0
LINE
  5
263
330
17
100
AcDbEntity
  8
4
100
AcDbLine
 10
435.4115458704533
 20
239.8215973028612
 30
0.0
 11
437.4115008704533
 21
239.8215973028612
 31
0.0
  0
LINE
  5
264
330
17
100
AcDbEntity
  8
4
100
AcDbLine
 10
437.4115008704533
 20
239.8215973028612
 30
0.0
 11
437.4115008704533
 21
301.8215973028607
 31
0.0
  0
LINE
  5
265
330
17
100
AcDbEntity
  8
4
100
AcDbLine
 10
348.4777428704533
 20
498.1236013077115
 30
0.0
 11
351.9115518704534
 21
498.1236013077115
 31
0.0
  0
LINE
  5
266
330
17
100
AcDbEntity
  8
4
100
AcDbLine
 10
352.9115523704531
 20
486.6236008077118
 30
0.0
 11
352.9115523704531
 21
497.1236008077118
 31
0.0
  0
ARC
  5
267
330
17
100
AcDbEntity
  8
4
100
AcDbCircle
 10
351.9115518704534
 20
497.1236008077118
 30
0.0
 40
1.0000005
100
AcDbArc
 50
0.0
 51
90.0
  0
ARC
  5
268
330
17
100
AcDbEntity
  8
4
100
AcDbCircle
 10
348.4777428704533
 20
497.1236008077118
 30
0.0
 40
1.0000005
100
AcDbArc
 50
90.0
 51
149.0362430000011
  0
ARC
  5
269
330
17
100
AcDbEntity
  8
4
100
AcDbCircle
 10
354.4115523704531
 20
481.6236013077115
 30
0.0
 40
1.0000005
100
AcDbArc
 50
270.0
 51
0.0
  0
LINE
  5
26A
330
17
100
AcDbEntity
  8
4
100
AcDbLine
 10
355.4115528704533
 20
484.6236013077115
 30
0.0
 11
355.4115528704533
 21
481.6236013077115
 31
0.0
  0
LINE
  5
26B
330
17
100
AcDbEntity
  8
4
100
AcDbLine
 10
348.9115518704534
 20
478.1236003077116
 30
0.0
 11
351.9115518704534
 21
478.1236003077116
 31
0.0
  0
LINE
  5
26C
330
17
100
AcDbEntity
  8
4
100
AcDbLine
 10
347.9115528704533
 20
479.6236003077116
 30
0.0
 11
347.9115528704533
 21
479.1236008077118
 31
0.0
  0
LINE
  5
26D
330
17
100
AcDbEntity
  8
4
100
AcDbLine
 10
352.9115523704531
 20
479.1236008077118
 30
0.0
 11
352.9115523704531
 21
479.6236003077116
 31
0.0
  0
ARC
  5
26E
330
17
100
AcDbEntity
  8
4
100
AcDbCircle
 10
346.9115523704531
 20
479.6236003077116
 30
0.0
 40
1.0000005
100
AcDbArc
 50
0.0
 51
90.0
  0
ARC
  5
26F
330
17
100
AcDbEntity
  8
4
100
AcDbCircle
 10
348.9115518704534
 20
479.1236008077118
 30
0.0
 40
1.0000005
100
AcDbArc
 50
180.0
 51
270.0
  0
ARC
  5
270
330
17
100
AcDbEntity
  8
4
100
AcDbCircle
 10
351.9115518704534
 20
479.1236008077118
 30
0.0
 40
1.0000005
100
AcDbArc
 50
270.0
 51
0.0
  0
ARC
  5
271
330
17
100
AcDbEntity
  8
4
100
AcDbCircle
 10
353.9115528704533
 20
479.6236003077116
 30
0.0
 40
1.0000005
100
AcDbArc
 50
90.0
 51
180.0
  0
LINE
  5
272
330
17
100
AcDbEntity
  8
4
100
AcDbLine
 10
353.9115528704533
 20
480.6236008077118
 30
0.0
 11
354.4115523704531
 21
480.6236008077118
 31
0.0
  0
LINE
  5
273
330
17
100
AcDbEntity
  8
4
100
AcDbLine
 10
353.9115528704533
 20
485.6236003077116
 30
0.0
 11
354.4115523704531
 21
485.6236003077116
 31
0.0
  0
ARC
  5
274
330
17
100
AcDbEntity
  8
4
100
AcDbCircle
 10
354.4115523704531
 20
484.6236013077115
 30
0.0
 40
1.0000005
100
AcDbArc
 50
0.0
 51
90.0
  0
ARC
  5
275
330
17
100
AcDbEntity
  8
4
100
AcDbCircle
 10
353.9115528704533
 20
486.6236008077118
 30
0.0
 40
1.0000005
100
AcDbArc
 50
180.0
 51
270.0
  0
LINE
  5
276
330
17
100
AcDbEntity
  8
4
100
AcDbLine
 10
335.4115518704534
 20
490.6236013077115
 30
0.0
 11
332.4115518704534
 21
490.6236013077115
 31
0.0
  0
LINE
  5
277
330
17
100
AcDbEntity
  8
4
100
AcDbLine
 10
336.4115523704531
 20
486.6236008077118
 30
0.0
 11
336.4115523704531
 21
489.6236008077118
 31
0.0
  0
LINE
  5
278
330
17
100
AcDbEntity
  8
4
100
AcDbLine
 10
331.4115528704533
 20
486.6236008077118
 30
0.0
 11
331.4115528704533
 21
489.6236008077118
 31
0.0
  0
ARC
  5
279
330
17
100
AcDbEntity
  8
4
100
AcDbCircle
 10
332.4115518704534
 20
489.6236008077118
 30
0.0
 40
1.0000005
100
AcDbArc
 50
90.0
 51
180.0
  0
ARC
  5
27A
330
17
100
AcDbEntity
  8
4
100
AcDbCircle
 10
335.4115518704534
 20
489.6236008077118
 30
0.0
 40
1.0000005
100
AcDbArc
 50
0.0
 51
90.0
  0
LINE
  5
27B
330
17
100
AcDbEntity
  8
4
100
AcDbLine
 10
318.9115413704531
 20
498.1236013077115
 30
0.0
 11
320.9113023704531
 21
498.1236013077115
 31
0.0
  0
LINE
  5
27C
330
17
100
AcDbEntity
  8
4
100
AcDbLine
 10
324.9424308704533
 20
491.6236003077116
 30
0.0
 11
324.9115413704531
 21
491.6236003077116
 31
0.0
  0
ARC
  5
27D
330
17
100
AcDbEntity
  8
4
100
AcDbCircle
 10
320.9113023704531
 20
491.6236003077116
 30
0.0
 40
6.499999500000001
100
AcDbArc
 50
26.38780000000033
 51
90.0
  0
ARC
  5
27E
330
17
100
AcDbEntity
  8
4
100
AcDbCircle
 10
324.9424308704533
 20
493.6236013077115
 30
0.0
 40
1.9999995
100
AcDbArc
 50
270.0
 51
26.38780000000155
  0
ARC
  5
27F
330
17
100
AcDbEntity
  8
4
100
AcDbCircle
 10
341.4115518704534
 20
481.6236013077115
 30
0.0
 40
1.0000005
100
AcDbArc
 50
180.0
 51
270.0
  0
LINE
  5
280
330
17
100
AcDbEntity
  8
4
100
AcDbLine
 10
335.4115518704534
 20
485.6236003077116
 30
0.0
 11
332.4115518704534
 21
485.6236003077116
 31
0.0
  0
LINE
  5
281
330
17
100
AcDbEntity
  8
4
100
AcDbLine
 10
340.4115528704533
 20
485.3466178077116
 30
0.0
 11
340.4115528704533
 21
481.6236013077115
 31
0.0
  0
ARC
  5
282
330
17
100
AcDbEntity
  8
4
100
AcDbCircle
 10
320.9115438704534
 20
484.6236013077115
 30
0.0
 40
6.499999500000001
100
AcDbArc
 50
270.0
 51
333.6121999999997
  0
LINE
  5
283
330
17
100
AcDbEntity
  8
4
100
AcDbLine
 10
318.9115413704531
 20
478.1236003077116
 30
0.0
 11
320.9115438704534
 21
478.1236003077116
 31
0.0
  0
LINE
  5
284
330
17
100
AcDbEntity
  8
4
100
AcDbLine
 10
324.9426723704532
 20
484.6236013077115
 30
0.0
 11
324.9115413704531
 21
484.6236013077115
 31
0.0
  0
ARC
  5
285
330
17
100
AcDbEntity
  8
4
100
AcDbCircle
 10
324.9426723704532
 20
482.6236003077116
 30
0.0
 40
1.9999995
100
AcDbArc
 50
333.6121999999984
 51
90.0
  0
ARC
  5
286
330
17
100
AcDbEntity
  8
4
100
AcDbCircle
 10
335.4115518704534
 20
486.6236008077118
 30
0.0
 40
1.0000005
100
AcDbArc
 50
270.0
 51
0.0
  0
ARC
  5
287
330
17
100
AcDbEntity
  8
4
100
AcDbCircle
 10
332.4115518704534
 20
486.6236008077118
 30
0.0
 40
1.0000005
100
AcDbArc
 50
180.0
 51
270.0
  0
ARC
  5
288
330
17
100
AcDbEntity
  8
4
100
AcDbCircle
 10
324.9115413704531
 20
488.1236008077118
 30
0.0
 40
3.4999995
100
AcDbArc
 50
90.0
 51
270.0
  0
ARC
  5
289
330
17
100
AcDbEntity
  8
4
100
AcDbCircle
 10
341.4115518704534
 20
485.3466178077116
 30
0.0
 40
1.0000005
100
AcDbArc
 50
149.0362430000011
 51
180.0
  0
LINE
  5
28A
330
17
100
AcDbEntity
  8
4
100
AcDbLine
 10
341.4115518704534
 20
480.6236008077118
 30
0.0
 11
346.9115523704531
 21
480.6236008077118
 31
0.0
  0
LINE
  5
28B
330
17
100
AcDbEntity
  8
4
100
AcDbLine
 10
340.5540588704534
 20
485.8611133077117
 30
0.0
 11
347.6202498704533
 21
497.6380963077116
 31
0.0
  0
LINE
  5
28C
330
17
100
AcDbEntity
  8
4
100
AcDbLine
 10
312.4115418704532
 20
484.6236013077115
 30
0.0
 11
312.4115418704532
 21
491.6236003077116
 31
0.0
  0
ARC
  5
28D
330
17
100
AcDbEntity
  8
4
100
AcDbCircle
 10
318.9115413704531
 20
484.6236013077115
 30
0.0
 40
6.499999500000001
100
AcDbArc
 50
180.0
 51
270.0
  0
ARC
  5
28E
330
17
100
AcDbEntity
  8
4
100
AcDbCircle
 10
318.9115413704531
 20
491.6236003077116
 30
0.0
 40
6.499999500000001
100
AcDbArc
 50
90.0
 51
180.0
  0
ARC
  5
28F
330
17
100
AcDbEntity
  8
4
100
AcDbCircle
 10
349.2811285955335
 20
696.6813588340457
 30
0.0
 40
3.0
100
AcDbArc
 50
73.92311168739165
 51
185.1263803664052
  0
ARC
  5
290
330
17
100
AcDbEntity
  8
4
100
AcDbCircle
 10
409.4699483967869
 20
636.492539032792
 30
0.0
 40
3.0
100
AcDbArc
 50
264.8736196335936
 51
16.0768883126076
  0
ARC
  5
291
330
17
100
AcDbEntity
  8
4
100
AcDbCircle
 10
364.289495282591
 20
651.5009057198496
 30
0.0
 40
3.0
100
AcDbArc
 50
7.619035016427544
 51
82.38096498357137
  0
ARC
  5
292
330
17
100
AcDbEntity
  8
4
100
AcDbCircle
 10
374.3848110534974
 20
642.6521356084355
 30
0.0
 40
6.0
100
AcDbArc
 50
185.7258432824331
 51
264.8736196335937
  0
ARC
  5
293
330
17
100
AcDbEntity
  8
4
100
AcDbCircle
 10
355.4407251711767
 20
661.596221490756
 30
0.0
 40
6.0
100
AcDbArc
 50
185.1263803664062
 51
264.2741567175669
  0
ARC
  5
294
330
17
100
AcDbEntity
  8
4
100
AcDbCircle
 10
361.6326972060627
 20
648.8441076433215
 30
0.0
 40
3.0
100
AcDbArc
 50
7.102238149571051
 51
82.89776185043004
  0
LINE
  5
295
330
17
100
AcDbEntity
  8
4
100
AcDbLine
 10
409.2018897301169
 20
633.5045389405525
 30
0.0
 11
373.848693720157
 21
636.6761354239563
 31
0.0
  0
LINE
  5
296
330
17
100
AcDbEntity
  8
4
100
AcDbLine
 10
346.293128503294
 20
696.4133001673754
 30
0.0
 11
349.4647249866979
 21
661.0601041574157
 31
0.0
  0
ARC
  5
297
330
17
100
AcDbEntity
  8
4
100
AcDbCircle
 10
409.4699483967868
 20
587.7533735826318
 30
0.0
 40
3.0
100
AcDbArc
 50
343.9231116873924
 51
95.12638036640642
  0
ARC
  5
298
330
17
100
AcDbEntity
  8
4
100
AcDbCircle
 10
364.2894952825909
 20
572.7450068955742
 30
0.0
 40
3.0
100
AcDbArc
 50
277.6190350164276
 51
352.3809649835702
  0
ARC
  5
299
330
17
100
AcDbEntity
  8
4
100
AcDbCircle
 10
374.3848110534973
 20
581.5937770069885
 30
0.0
 40
6.0
100
AcDbArc
 50
95.1263803664063
 51
174.2741567175669
  0
ARC
  5
29A
330
17
100
AcDbEntity
  8
4
100
AcDbCircle
 10
361.6326972060626
 20
575.4018049721025
 30
0.0
 40
3.0
100
AcDbArc
 50
277.1022381495711
 51
352.8977618504289
  0
ARC
  5
29B
330
17
100
AcDbEntity
  8
4
100
AcDbCircle
 10
355.4407251711766
 20
562.6496911246678
 30
0.0
 40
6.0
100
AcDbArc
 50
95.72584328243254
 51
174.8736196335938
  0
LINE
  5
29C
330
17
100
AcDbEntity
  8
4
100
AcDbLine
 10
409.2018897301169
 20
590.741373674871
 30
0.0
 11
373.848693720157
 21
587.5697771914672
 31
0.0
  0
ARC
  5
29D
330
17
100
AcDbEntity
  8
4
100
AcDbCircle
 10
349.2811285955333
 20
527.5645537813783
 30
0.0
 40
3.0
100
AcDbArc
 50
174.8736196335927
 51
286.0768883126083
  0
LINE
  5
29E
330
17
100
AcDbEntity
  8
L-CENTER
 48
5.0
100
AcDbLine
 10
368.4115458704533
 20
536.7787461784658
 30
0.0
 11
380.4115458704533
 21
515.9941364876393
 31
0.0
  0
LINE
  5
29F
330
17
100
AcDbEntity
  8
4
100
AcDbLine
 10
346.293128503294
 20
527.8326124480482
 30
0.0
 11
349.4647249866979
 21
563.1858084580081
 31
0.0
  0
ARC
  5
2A0
330
17
100
AcDbEntity
  8
4
100
AcDbCircle
 10
66.91154587045327
 20
612.1229563077119
 30
0.0
 40
300.0
100
AcDbArc
 50
352.8977618504284
 51
7.102238149571463
  0
ARC
  5
2A1
330
17
100
AcDbEntity
  8
4
100
AcDbCircle
 10
69.91154587045327
 20
612.1229563077119
 30
0.0
 40
300.0
100
AcDbArc
 50
352.3809649835721
 51
7.619035016427927
  0
ARC
  5
2A2
330
17
100
AcDbEntity
  8
4
100
AcDbCircle
 10
300.541963145373
 20
696.6813588340457
 30
0.0
 40
3.0
100
AcDbArc
 50
354.8736196335927
 51
106.0768883126083
  0
ARC
  5
2A3
330
17
100
AcDbEntity
  8
4
100
AcDbCircle
 10
294.3823665697297
 20
661.596221490756
 30
0.0
 40
6.0
100
AcDbArc
 50
275.7258432824325
 51
354.8736196335938
  0
ARC
  5
2A4
330
17
100
AcDbEntity
  8
4
100
AcDbCircle
 10
288.1903945348437
 20
648.8441076433215
 30
0.0
 40
3.0
100
AcDbArc
 50
97.10223814957105
 51
172.897761850429
  0
ARC
  5
2A5
330
17
100
AcDbEntity
  8
4
100
AcDbCircle
 10
285.5335964583156
 20
651.5009057198498
 30
0.0
 40
3.0
100
AcDbArc
 50
97.61903501642861
 51
172.3809649835725
  0
ARC
  5
2A6
330
17
100
AcDbEntity
  8
4
100
AcDbCircle
 10
275.4382806874092
 20
642.6521356084355
 30
0.0
 40
6.0
100
AcDbArc
 50
275.1263803664063
 51
354.2741567175669
  0
LINE
  5
2A7
330
17
100
AcDbEntity
  8
4
100
AcDbLine
 10
303.5299632376126
 20
696.4133001673755
 30
0.0
 11
300.3583667542088
 21
661.0601041574158
 31
0.0
  0
ARC
  5
2A8
330
17
100
AcDbEntity
  8
4
100
AcDbCircle
 10
240.3531433441195
 20
636.492539032792
 30
0.0
 40
3.0
100
AcDbArc
 50
163.9231116873926
 51
275.1263803664064
  0
LINE
  5
2A9
330
17
100
AcDbEntity
  8
4
100
AcDbLine
 10
240.6212020107897
 20
633.5045389405526
 30
0.0
 11
275.9743980207494
 21
636.6761354239565
 31
0.0
  0
ARC
  5
2AA
330
17
100
AcDbEntity
  8
4
100
AcDbCircle
 10
294.3823665697296
 20
562.6496911246678
 30
0.0
 40
6.0
100
AcDbArc
 50
5.126380366406224
 51
84.27415671756695
  0
ARC
  5
2AB
330
17
100
AcDbEntity
  8
4
100
AcDbCircle
 10
288.1903945348436
 20
575.4018049721025
 30
0.0
 40
3.0
100
AcDbArc
 50
187.102238149571
 51
262.8977618504289
  0
ARC
  5
2AC
330
17
100
AcDbEntity
  8
4
100
AcDbCircle
 10
285.5335964583155
 20
572.7450068955742
 30
0.0
 40
3.0
100
AcDbArc
 50
187.6190350164275
 51
262.3809649835703
  0
ARC
  5
2AD
330
17
100
AcDbEntity
  8
4
100
AcDbCircle
 10
275.4382806874091
 20
581.5937770069885
 30
0.0
 40
6.0
100
AcDbArc
 50
5.72584328243309
 51
84.87361963359369
  0
ARC
  5
2AE
330
17
100
AcDbEntity
  8
4
100
AcDbCircle
 10
300.5419631453728
 20
527.5645537813783
 30
0.0
 40
3.0
100
AcDbArc
 50
253.9231116873916
 51
5.126380366405226
  0
LINE
  5
2AF
330
17
100
AcDbEntity
  8
4
100
AcDbLine
 10
303.5299632376126
 20
527.8326124480483
 30
0.0
 11
300.3583667542088
 21
563.1858084580082
 31
0.0
  0
LINE
  5
2B0
330
17
100
AcDbEntity
  8
L-CENTER
 48
5.0
100
AcDbLine
 10
281.4115458704536
 20
536.7787461784659
 30
0.0
 11
269.4115458704536
 21
515.9941364876394
 31
0.0
  0
ARC
  5
2B1
330
17
100
AcDbEntity
  8
4
100
AcDbCircle
 10
240.3531433441194
 20
587.7533735826318
 30
0.0
 40
3.0
100
AcDbArc
 50
84.8736196335936
 51
196.0768883126074
  0
LINE
  5
2B2
330
17
100
AcDbEntity
  8
4
100
AcDbLine
 10
240.6212020107897
 20
590.7413736748712
 30
0.0
 11
275.9743980207494
 21
587.5697771914673
 31
0.0
  0
LINE
  5
2B3
330
17
100
AcDbEntity
  8
L-CENTER
 48
5.0
100
AcDbLine
 10
389.9115458704531
 20
592.522956307712
 30
0.0
 11
389.9115458704531
 21
631.722956307712
 31
0.0
  0
ARC
  5
2B4
330
17
100
AcDbEntity
  8
4
100
AcDbCircle
 10
582.9115458704532
 20
612.1229563077118
 30
0.0
 40
300.0
100
AcDbArc
 50
172.8977618504285
 51
187.1022381495714
  0
ARC
  5
2B5
330
17
100
AcDbEntity
  8
4
100
AcDbCircle
 10
579.9115458704532
 20
612.1229563077118
 30
0.0
 40
300.0
100
AcDbArc
 50
172.3809649835721
 51
187.6190350164279
  0
CIRCLE
  5
2B6
330
17
100
AcDbEntity
  8
4
100
AcDbCircle
 10
389.9115458704532
 20
612.1229563077119
 30
0.0
 40
14.0
  0
CIRCLE
  5
2B7
330
17
100
AcDbEntity
  8
4
100
AcDbCircle
 10
324.9115458704532
 20
612.1229563077119
 30
0.0
 40
25.0
  0
CIRCLE
  5
2B8
330
17
100
AcDbEntity
  8
4
100
AcDbCircle
 10
324.9115458704532
 20
612.1229563077119
 30
0.0
 40
105.0
  0
CIRCLE
  5
2B9
330
17
100
AcDbEntity
  8
L-CENTER
 48
5.0
100
AcDbCircle
 10
324.9115458704532
 20
612.1229563077119
 30
0.0
 40
98.99999999999983
  0
ARC
  5
2BA
330
17
100
AcDbEntity
  8
4
100
AcDbCircle
 10
324.9115458704532
 20
354.1229563077119
 30
0.0
 40
300.0
100
AcDbArc
 50
82.89776185042847
 51
97.10223814957149
  0
ARC
  5
2BB
330
17
100
AcDbEntity
  8
4
100
AcDbCircle
 10
324.9115458704532
 20
357.1229563077119
 30
0.0
 40
300.0
100
AcDbArc
 50
82.38096498357208
 51
97.61903501642792
  0
ARC
  5
2BC
330
17
100
AcDbEntity
  8
4
100
AcDbCircle
 10
324.9115458704533
 20
870.1229563077118
 30
0.0
 40
300.0
100
AcDbArc
 50
262.8977618504285
 51
277.1022381495715
  0
ARC
  5
2BD
330
17
100
AcDbEntity
  8
4
100
AcDbCircle
 10
324.9115458704533
 20
867.1229563077118
 30
0.0
 40
300.0
100
AcDbArc
 50
262.3809649835721
 51
277.6190350164279
  0
CIRCLE
  5
2BE
330
17
100
AcDbEntity
  8
4
100
AcDbCircle
 10
324.9115458704532
 20
612.1229563077119
 30
0.0
 40
91.0
  0
LINE
  5
2BF
330
17
100
AcDbEntity
  8
L-CENTER
 48
5.0
100
AcDbLine
 10
433.9678866589605
 20
687.1229563077119
 30
0.0
 11
469.8552060819458
 21
687.1229563077119
 31
0.0
  0
LINE
  5
2C0
330
17
100
AcDbEntity
  8
4
100
AcDbLine
 10
428.9115453704533
 20
471.1229563077119
 30
0.0
 11
428.9115453704533
 21
567.727010807712
 31
0.0
  0
ARC
  5
2C1
330
17
100
AcDbEntity
  8
4
100
AcDbCircle
 10
415.1682063704532
 20
521.8662958077117
 30
0.0
 40
4.0000005
100
AcDbArc
 50
286.0729439999994
 51
343.9270559999995
  0
ARC
  5
2C2
330
17
100
AcDbEntity
  8
4
100
AcDbCircle
 10
415.1682063704532
 20
702.3796168077116
 30
0.0
 40
4.0000005
100
AcDbArc
 50
16.07294400000047
 51
73.92705600000056
  0
ARC
  5
2C3
330
17
100
AcDbEntity
  8
4
100
AcDbCircle
 10
101.9115453704533
 20
612.1229563077119
 30
0.0
 40
330.0
100
AcDbArc
 50
343.927056
 51
16.07294400000001
  0
ARC
  5
2C4
330
17
100
AcDbEntity
  8
4
100
AcDbCircle
 10
468.4115463704532
 20
708.1229563077119
 30
0.0
 40
4.0000005
100
AcDbArc
 50
0.0
 51
90.0
  0
ARC
  5
2C5
330
17
100
AcDbEntity
  8
4
100
AcDbCircle
 10
468.4115463704532
 20
665.298346307712
 30
0.0
 40
4.0000005
100
AcDbArc
 50
283.1115560000001
 51
0.0
  0
CIRCLE
  5
2C6
330
17
100
AcDbEntity
  8
4
100
AcDbCircle
 10
451.9115463704532
 20
687.1229563077119
 30
0.0
 40
7.5
  0
LINE
  5
2C7
330
17
100
AcDbEntity
  8
4
100
AcDbLine
 10
472.4115453704533
 20
665.298346307712
 30
0.0
 11
472.4115453704533
 21
708.1229563077119
 31
0.0
  0
LINE
  5
2C8
330
17
100
AcDbEntity
  8
L-CENTER
 48
5.0
100
AcDbLine
 10
451.9115463704532
 20
669.1792965962193
 30
0.0
 11
451.9115463704532
 21
705.0666160192045
 31
0.0
  0
LINE
  5
2C9
330
17
100
AcDbEntity
  8
4
100
AcDbLine
 10
469.3189368704534
 20
661.4026258077116
 30
0.0
 11
429.4783323704532
 21
652.1229568077118
 31
0.0
  0
LINE
  5
2CA
330
17
100
AcDbEntity
  8
4
100
AcDbLine
 10
343.9115463704532
 20
719.5181743077119
 30
0.0
 11
343.9115463704532
 21
720.1229563077118
 31
0.0
  0
ARC
  5
2CB
330
17
100
AcDbEntity
  8
4
100
AcDbCircle
 10
344.9115453704533
 20
719.5181743077119
 30
0.0
 40
1.0000005
100
AcDbArc
 50
180.0
 51
266.5359089999985
  0
LINE
  5
2CC
330
17
100
AcDbEntity
  8
4
100
AcDbLine
 10
305.9115453704533
 20
719.5181743077119
 30
0.0
 11
305.9115453704533
 21
720.1229563077118
 31
0.0
  0
ARC
  5
2CD
330
17
100
AcDbEntity
  8
4
100
AcDbCircle
 10
304.9115463704532
 20
719.5181743077119
 30
0.0
 40
1.0000005
100
AcDbArc
 50
273.4640909999983
 51
0.0
  0
LINE
  5
2CE
330
17
100
AcDbEntity
  8
4
100
AcDbLine
 10
343.9115463704532
 20
720.1229563077118
 30
0.0
 11
305.9115453704533
 21
720.1229563077118
 31
0.0
  0
ARC
  5
2CF
330
17
100
AcDbEntity
  8
4
100
AcDbCircle
 10
234.6548853704533
 20
702.3796168077116
 30
0.0
 40
4.0000005
100
AcDbArc
 50
106.0729439999999
 51
163.9270559999995
  0
ARC
  5
2D0
330
17
100
AcDbEntity
  8
4
100
AcDbCircle
 10
324.9115458704532
 20
389.1229558077119
 30
0.0
 40
330.0
100
AcDbArc
 50
73.92652589385055
 51
106.072944
  0
ARC
  5
2D1
330
17
100
AcDbEntity
  8
4
100
AcDbCircle
 10
181.4115453704533
 20
708.1229563077119
 30
0.0
 40
4.0000005
100
AcDbArc
 50
90.0
 51
180.0
  0
ARC
  5
2D2
330
17
100
AcDbEntity
  8
4
100
AcDbCircle
 10
181.4115453704533
 20
665.298346307712
 30
0.0
 40
4.0000005
100
AcDbArc
 50
180.0
 51
256.8884439999999
  0
LINE
  5
2D3
330
17
100
AcDbEntity
  8
4
100
AcDbLine
 10
177.4115463704532
 20
665.298346307712
 30
0.0
 11
177.4115463704532
 21
708.1229563077119
 31
0.0
  0
LINE
  5
2D4
330
17
100
AcDbEntity
  8
L-CENTER
 48
5.0
100
AcDbLine
 10
197.9115453704533
 20
669.1792965962193
 30
0.0
 11
197.9115453704533
 21
705.0666160192045
 31
0.0
  0
CIRCLE
  5
2D5
330
17
100
AcDbEntity
  8
4
100
AcDbCircle
 10
197.9115453704533
 20
687.1229563077119
 30
0.0
 40
7.5
  0
LINE
  5
2D6
330
17
100
AcDbEntity
  8
4
100
AcDbLine
 10
181.4115453704533
 20
712.122956807712
 30
0.0
 11
257.302374370453
 21
712.122956807712
 31
0.0
  0
LINE
  5
2D7
330
17
100
AcDbEntity
  8
4
100
AcDbLine
 10
180.504154870453
 20
661.4026258077116
 30
0.0
 11
220.3447593704532
 21
652.1229568077118
 31
0.0
  0
LINE
  5
2D8
330
17
100
AcDbEntity
  8
L-CENTER
 48
5.0
100
AcDbLine
 10
215.8552050819459
 20
687.1229563077119
 30
0.0
 11
179.9678856589607
 21
687.1229563077119
 31
0.0
  0
LINE
  5
2D9
330
17
100
AcDbEntity
  8
4
100
AcDbLine
 10
392.5207173704532
 20
712.122956807712
 30
0.0
 11
468.4115463704532
 21
712.122956807712
 31
0.0
  0
LINE
  5
2DA
330
17
100
AcDbEntity
  8
L-CENTER
 48
5.0
100
AcDbLine
 10
438.345246370453
 20
612.1229563077119
 30
0.0
 11
211.4778453704535
 21
612.1229563077119
 31
0.0
  0
ARC
  5
2DB
330
17
100
AcDbEntity
  8
4
100
AcDbCircle
 10
468.4115463704532
 20
558.9475663077118
 30
0.0
 40
4.0000005
100
AcDbArc
 50
0.0
 51
76.8884439999999
  0
CIRCLE
  5
2DC
330
17
100
AcDbEntity
  8
4
100
AcDbCircle
 10
451.9115463704532
 20
537.1229563077119
 30
0.0
 40
7.5
  0
LINE
  5
2DD
330
17
100
AcDbEntity
  8
L-CENTER
 48
5.0
100
AcDbLine
 10
451.9115463704532
 20
519.1792965962193
 30
0.0
 11
451.9115463704532
 21
555.0666160192045
 31
0.0
  0
LINE
  5
2DE
330
17
100
AcDbEntity
  8
4
100
AcDbLine
 10
428.9115453704533
 20
556.1229568077118
 30
0.0
 11
428.9115453704533
 21
567.727010807712
 31
0.0
  0
LINE
  5
2DF
330
17
100
AcDbEntity
  8
4
100
AcDbLine
 10
435.4115463704532
 20
554.122955807712
 30
0.0
 11
430.9115463704532
 21
554.122955807712
 31
0.0
  0
ARC
  5
2E0
330
17
100
AcDbEntity
  8
4
100
AcDbCircle
 10
430.9115463704532
 20
556.1229568077118
 30
0.0
 40
1.9999995
100
AcDbArc
 50
180.0
 51
270.0
  0
LINE
  5
2E1
330
17
100
AcDbEntity
  8
L-CENTER
 48
5.0
100
AcDbLine
 10
433.9678866589605
 20
537.1229563077119
 30
0.0
 11
469.8552060819458
 21
537.1229563077119
 31
0.0
  0
LINE
  5
2E2
330
17
100
AcDbEntity
  8
4
100
AcDbLine
 10
469.3189368704534
 20
562.8432868077122
 30
0.0
 11
429.4783323704532
 21
572.122955807712
 31
0.0
  0
LINE
  5
2E3
330
17
100
AcDbEntity
  8
4
100
AcDbLine
 10
435.4115463704532
 20
470.1229558077119
 30
0.0
 11
435.4115463704532
 21
554.122955807712
 31
0.0
  0
LINE
  5
2E5
330
17
100
AcDbEntity
  8
4
100
AcDbLine
 10
308.4115368704533
 20
479.123600807712
 30
0.0
 11
308.4115368704533
 21
482.123600807712
 31
0.0
  0
ARC
  5
2E6
330
17
100
AcDbEntity
  8
4
100
AcDbCircle
 10
307.4115363704532
 20
482.123600807712
 30
0.0
 40
1.0000005
100
AcDbArc
 50
0.0
 51
90.0
  0
ARC
  5
2E7
330
17
100
AcDbEntity
  8
4
100
AcDbCircle
 10
307.4115363704532
 20
479.123600807712
 30
0.0
 40
1.0000005
100
AcDbArc
 50
270.0
 51
0.0
  0
LINE
  5
2E8
330
17
100
AcDbEntity
  8
4
100
AcDbLine
 10
218.9115453704533
 20
554.122955807712
 30
0.0
 11
214.4115453704533
 21
554.122955807712
 31
0.0
  0
ARC
  5
2E9
330
17
100
AcDbEntity
  8
4
100
AcDbCircle
 10
218.9115453704533
 20
556.1229568077118
 30
0.0
 40
1.9999995
100
AcDbArc
 50
270.0
 51
0.0
  0
ARC
  5
2EA
330
17
100
AcDbEntity
  8
4
100
AcDbCircle
 10
298.4115738704531
 20
497.123600807712
 30
0.0
 40
1.0000005
100
AcDbArc
 50
359.9998459985447
 51
89.99984600000093
  0
LINE
  5
2EB
330
17
100
AcDbEntity
  8
4
100
AcDbLine
 10
295.4115768704532
 20
498.1235983077119
 30
0.0
 11
298.4115768704532
 21
498.1236028077118
 31
0.0
  0
ARC
  5
2EC
330
17
100
AcDbEntity
  8
4
 62
     3
100
AcDbCircle
 10
295.4115753704532
 20
497.123600807712
 30
0.0
 40
1.0000005
100
AcDbArc
 50
89.99988399999943
 51
179.9998839998386
  0
ARC
  5
2ED
330
17
100
AcDbEntity
  8
4
100
AcDbCircle
 10
300.4115388704533
 20
484.1236003077116
 30
0.0
 40
1.0000005
100
AcDbArc
 50
180.0
 51
270.0
  0
ARC
  5
2EE
330
17
100
AcDbEntity
  8
4
100
AcDbCircle
 10
295.4115393704533
 20
479.123600807712
 30
0.0
 40
1.0000005
100
AcDbArc
 50
179.9998839998386
 51
269.9998839999994
  0
LINE
  5
2EF
330
17
100
AcDbEntity
  8
4
100
AcDbLine
 10
294.4115388704533
 20
479.1236023077118
 30
0.0
 11
294.4115748704533
 21
497.1236023077118
 31
0.0
  0
LINE
  5
2F0
330
17
100
AcDbEntity
  8
4
100
AcDbLine
 10
299.4115368704533
 20
484.1236003077116
 30
0.0
 11
299.4115743704533
 21
497.1235978077121
 31
0.0
  0
ARC
  5
2F1
330
17
100
AcDbEntity
  8
4
100
AcDbCircle
 10
234.6548853704533
 20
521.8662958077117
 30
0.0
 40
4.0000005
100
AcDbArc
 50
196.0729440000005
 51
253.9270560000001
  0
LINE
  5
2F2
330
17
100
AcDbEntity
  8
4
100
AcDbLine
 10
214.4115453704533
 20
470.1229558077119
 30
0.0
 11
214.4115453704533
 21
554.122955807712
 31
0.0
  0
LINE
  5
2F3
330
17
100
AcDbEntity
  8
4
100
AcDbLine
 10
220.9115463704532
 20
471.1229563077119
 30
0.0
 11
220.9115463704532
 21
567.727010807712
 31
0.0
  0
ARC
  5
2F4
330
17
100
AcDbEntity
  8
4
100
AcDbCircle
 10
324.9115458704532
 20
835.122956807712
 30
0.0
 40
330.0
100
AcDbArc
 50
253.927056
 51
286.0734741062778
  0
LINE
  5
2F5
330
17
100
AcDbEntity
  8
4
100
AcDbLine
 10
295.4115363704532
 20
478.123598807712
 30
0.0
 11
307.4115363704532
 21
478.1236003077116
 31
0.0
  0
LINE
  5
2F6
330
17
100
AcDbEntity
  8
4
100
AcDbLine
 10
300.4115388704533
 20
483.123601307712
 30
0.0
 11
307.4115363704532
 21
483.123601307712
 31
0.0
  0
ARC
  5
2F7
330
17
100
AcDbEntity
  8
4
100
AcDbCircle
 10
181.4115453704533
 20
558.9475663077118
 30
0.0
 40
4.0000005
100
AcDbArc
 50
103.1115560000001
 51
180.0
  0
LINE
  5
2F8
330
17
100
AcDbEntity
  8
L-CENTER
 48
5.0
100
AcDbLine
 10
197.9115453704533
 20
519.1792965962193
 30
0.0
 11
197.9115453704533
 21
555.0666160192045
 31
0.0
  0
CIRCLE
  5
2F9
330
17
100
AcDbEntity
  8
4
100
AcDbCircle
 10
197.9115453704533
 20
537.1229563077119
 30
0.0
 40
7.5
  0
LINE
  5
2FC
330
17
100
AcDbEntity
  8
L-CENTER
 48
5.0
100
AcDbLine
 10
215.8552050819459
 20
537.1229563077119
 30
0.0
 11
179.9678856589607
 21
537.1229563077119
 31
0.0
  0
LINE
  5
2FE
330
17
100
AcDbEntity
  8
4
100
AcDbLine
 10
180.504154870453
 20
562.8432868077122
 30
0.0
 11
220.3447593704532
 21
572.122955807712
 31
0.0
  0
LINE
  5
300
330
17
100
AcDbEntity
  8
4
100
AcDbLine
 10
435.4115463704532
 20
470.1229558077119
 30
0.0
 11
214.4115453704533
 21
470.1229558077119
 31
0.0
  0
LINE
  5
301
330
17
100
AcDbEntity
  8
L-CENTER
 48
5.0
100
AcDbLine
 10
324.9115458704532
 20
464.1702575619674
 30
0.0
 11
324.9115458704532
 21
732.2548214218357
 31
0.0
  0
ARC
  5
302
330
17
100
AcDbEntity
  8
4
100
AcDbCircle
 10
547.9115463704532
 20
612.1229563077119
 30
0.0
 40
330.0
100
AcDbArc
 50
163.927056
 51
196.072944
  0
LINE
  5
311
330
17
100
AcDbEntity
  8
4
100
AcDbLine
 10
862.1300395760081
 20
278.3215973028609
 30
0.0
 11
867.1300395760081
 21
278.3215973028609
 31
0.0
  0
LINE
  5
312
330
17
100
AcDbEntity
  8
4
100
AcDbLine
 10
862.1300395760081
 20
263.3215973028609
 30
0.0
 11
867.1300395760081
 21
263.3215973028609
 31
0.0
  0
LINE
  5
315
330
17
100
AcDbEntity
  8
4
100
AcDbLine
 10
867.1300395760081
 20
285.8215973028609
 30
0.0
 11
867.1300395760081
 21
255.8215973028609
 31
0.0
  0
LINE
  5
316
330
17
100
AcDbEntity
  8
4
100
AcDbLine
 10
862.1300395760081
 20
285.8215973028609
 30
0.0
 11
862.1300395760081
 21
255.8215973028609
 31
0.0
  0
LINE
  5
31C
330
17
100
AcDbEntity
  8
4
100
AcDbLine
 10
860.6299420760081
 20
237.559634802861
 30
0.0
 11
860.6299420760081
 21
224.0835598028609
 31
0.0
  0
LINE
  5
31D
330
17
100
AcDbEntity
  8
4
100
AcDbLine
 10
858.6300395760081
 20
288.8215973028612
 30
0.0
 11
857.6300395760081
 21
288.8215973028612
 31
0.0
  0
LINE
  5
31E
330
17
100
AcDbEntity
  8
4
100
AcDbLine
 10
860.1300395760081
 20
284.8215973028612
 30
0.0
 11
858.6300395760081
 21
284.8215973028612
 31
0.0
  0
LINE
  5
31F
330
17
100
AcDbEntity
  8
4
100
AcDbLine
 10
860.1300395760081
 20
256.8215973028607
 30
0.0
 11
858.6300395760081
 21
256.8215973028607
 31
0.0
  0
LINE
  5
320
330
17
100
AcDbEntity
  8
4
100
AcDbLine
 10
860.1300395760081
 20
285.8215973028609
 30
0.0
 11
860.1300395760081
 21
255.8215973028609
 31
0.0
  0
LINE
  5
321
330
17
100
AcDbEntity
  8
4
100
AcDbLine
 10
857.6300395760081
 20
220.8215973028609
 30
0.0
 11
858.6300395760081
 21
220.8215973028609
 31
0.0
  0
LINE
  5
322
330
17
100
AcDbEntity
  8
4
100
AcDbLine
 10
857.6300395760081
 20
213.8215973028612
 30
0.0
 11
850.6300395760081
 21
213.8215973028612
 31
0.0
  0
ARC
  5
323
330
17
100
AcDbEntity
  8
4
100
AcDbCircle
 10
848.6300395760081
 20
198.8215973028612
 30
0.0
 40
2.0
100
AcDbArc
 50
0.0
 51
90.0
  0
LINE
  5
324
330
17
100
AcDbEntity
  8
4
100
AcDbLine
 10
850.6300395760081
 20
213.8215973028612
 30
0.0
 11
850.6300395760081
 21
170.8215973028609
 31
0.0
  0
LINE
  5
325
330
17
100
AcDbEntity
  8
L-CENTER
 48
5.0
100
AcDbLine
 10
825.6300395760081
 20
210.3571165641845
 30
0.0
 11
825.6300395760081
 21
161.2860780415373
 31
0.0
  0
ARC
  5
326
330
17
100
AcDbEntity
  8
4
100
AcDbCircle
 10
792.630039576008
 20
198.8215973028612
 30
0.0
 40
2.0
100
AcDbArc
 50
90.0
 51
180.0
  0
ARC
  5
327
330
17
100
AcDbEntity
  8
4
100
AcDbCircle
 10
802.6300395760081
 20
198.8215973028612
 30
0.0
 40
2.0
100
AcDbArc
 50
90.0
 51
180.0
  0
ARC
  5
328
330
17
100
AcDbEntity
  8
4
100
AcDbCircle
 10
784.6300395760081
 20
201.8215973028607
 30
0.0
 40
6.0
100
AcDbArc
 50
0.0
 51
90.0
  0
LINE
  5
329
330
17
100
AcDbEntity
  8
4
100
AcDbLine
 10
790.6300395760081
 20
200.8215973028609
 30
0.0
 11
783.6300395760082
 21
193.8215973028612
 31
0.0
  0
LINE
  5
32A
330
17
100
AcDbEntity
  8
4
100
AcDbLine
 10
790.6300395760081
 20
201.8215973028607
 30
0.0
 11
790.6300395760081
 21
170.8215973028609
 31
0.0
  0
LINE
  5
32B
330
17
100
AcDbEntity
  8
4
100
AcDbLine
 10
800.6300395760081
 20
198.8215973028612
 30
0.0
 11
800.6300395760081
 21
170.8215973028609
 31
0.0
  0
LINE
  5
32C
330
17
100
AcDbEntity
  8
4
100
AcDbLine
 10
848.6300395760081
 20
200.8215973028609
 30
0.0
 11
792.630039576008
 21
200.8215973028609
 31
0.0
  0
LINE
  5
32D
330
17
100
AcDbEntity
  8
4
100
AcDbLine
 10
790.6300395760081
 20
170.8215973028609
 30
0.0
 11
850.6300395760081
 21
170.8215973028609
 31
0.0
  0
LINE
  5
32E
330
17
100
AcDbEntity
  8
4
100
AcDbLine
 10
858.6300395760081
 20
288.8215973028612
 30
0.0
 11
858.6300395760081
 21
220.8215973028609
 31
0.0
  0
LINE
  5
330
330
17
100
AcDbEntity
  8
4
100
AcDbLine
 10
860.1300395760081
 20
285.8215973028609
 30
0.0
 11
867.1300395760081
 21
285.8215973028609
 31
0.0
  0
LINE
  5
331
330
17
100
AcDbEntity
  8
4
100
AcDbLine
 10
867.1300395760081
 20
255.8215973028609
 30
0.0
 11
860.1300395760081
 21
255.8215973028609
 31
0.0
  0
LINE
  5
332
330
17
100
AcDbEntity
  8
4
100
AcDbLine
 10
858.6300395760081
 20
237.397279802861
 30
0.0
 11
860.6299420760081
 21
237.559634802861
 31
0.0
  0
LINE
  5
333
330
17
100
AcDbEntity
  8
4
100
AcDbLine
 10
858.6300395760081
 20
224.2459123028614
 30
0.0
 11
860.6299420760081
 21
224.0835598028609
 31
0.0
  0
LINE
  5
334
330
17
100
AcDbEntity
  8
L-CENTER
 48
5.0
100
AcDbLine
 10
862.479374576008
 20
230.8215973028609
 30
0.0
 11
848.5462995760081
 21
230.8215973028609
 31
0.0
  0
LINE
  5
336
330
17
100
AcDbEntity
  8
4
100
AcDbLine
 10
857.6300395760081
 20
213.8215973028612
 30
0.0
 11
857.6300395760081
 21
313.8215973028612
 31
0.0
  0
LINE
  5
34E
330
17
100
AcDbEntity
  8
4
100
AcDbLine
 10
644.6300395760081
 20
313.8215973028612
 30
0.0
 11
644.6300395760081
 21
312.761587302861
 31
0.0
  0
ARC
  5
34F
330
17
100
AcDbEntity
  8
4
100
AcDbCircle
 10
615.704747076008
 20
305.7468898028612
 30
0.0
 40
5.000005
100
AcDbArc
 50
96.80022000000018
 51
173.2025579999997
  0
ARC
  5
350
330
17
100
AcDbEntity
  8
4
100
AcDbCircle
 10
650.6302845760081
 20
12.82159730286071
 30
0.0
 40
300.0
100
AcDbArc
 50
90.000326
 51
96.80000900000003
  0
ARC
  5
351
330
17
100
AcDbEntity
  8
4
100
AcDbCircle
 10
708.6300395760082
 20
198.8215973028612
 30
0.0
 40
2.0
100
AcDbArc
 50
0.0
 51
90.0
  0
ARC
  5
352
330
17
100
AcDbEntity
  8
4
100
AcDbCircle
 10
716.6300395760081
 20
201.8215973028607
 30
0.0
 40
6.0
100
AcDbArc
 50
90.0
 51
180.0
  0
ARC
  5
353
330
17
100
AcDbEntity
  8
4
100
AcDbCircle
 10
698.6300395760082
 20
198.8215973028612
 30
0.0
 40
2.0
100
AcDbArc
 50
0.0
 51
90.0
  0
LINE
  5
354
330
17
100
AcDbEntity
  8
4
100
AcDbLine
 10
710.6300395760081
 20
200.8220848028607
 30
0.0
 11
717.6305270760082
 21
193.8215973028612
 31
0.0
  0
LINE
  5
355
330
17
100
AcDbEntity
  8
L-CENTER
 48
5.0
100
AcDbLine
 10
675.6300395760081
 20
210.3571165641845
 30
0.0
 11
675.6300395760081
 21
161.2860780415373
 31
0.0
  0
LINE
  5
356
330
17
100
AcDbEntity
  8
4
100
AcDbLine
 10
710.6300395760081
 20
201.8215973028607
 30
0.0
 11
710.6300395760081
 21
170.8215973028609
 31
0.0
  0
LINE
  5
357
330
17
100
AcDbEntity
  8
4
100
AcDbLine
 10
700.6300395760081
 20
198.8215973028612
 30
0.0
 11
700.6300395760081
 21
170.8215973028609
 31
0.0
  0
ARC
  5
35D
330
17
100
AcDbEntity
  8
4
100
AcDbCircle
 10
615.704747076008
 20
235.8965473028609
 30
0.0
 40
5.000020000000001
100
AcDbArc
 50
186.8002180000003
 51
263.1997819999998
  0
ARC
  5
35E
330
17
100
AcDbEntity
  8
4
100
AcDbCircle
 10
650.6302845760081
 20
528.8218423028609
 30
0.0
 40
300.0000325
100
AcDbArc
 50
263.201402
 51
269.061488
  0
ARC
  5
35F
330
17
100
AcDbEntity
  8
4
100
AcDbCircle
 10
652.630039576008
 20
198.8215973028612
 30
0.0
 40
2.0
100
AcDbArc
 50
90.0
 51
180.0
  0
LINE
  5
360
330
17
100
AcDbEntity
  8
4
100
AcDbLine
 10
650.6300395760081
 20
223.862612302861
 30
0.0
 11
650.6300395760081
 21
170.8215973028609
 31
0.0
  0
ARC
  5
361
330
17
100
AcDbEntity
  8
4
100
AcDbCircle
 10
645.6300395760081
 20
223.862612302861
 30
0.0
 40
4.99997
100
AcDbArc
 50
0.0
 51
89.05994100000018
  0
LINE
  5
362
330
17
100
AcDbEntity
  8
4
100
AcDbLine
 10
652.630039576008
 20
200.8215973028609
 30
0.0
 11
708.6300395760082
 21
200.8215973028609
 31
0.0
  0
LINE
  5
363
330
17
100
AcDbEntity
  8
4
100
AcDbLine
 10
650.6300395760081
 20
170.8215973028609
 30
0.0
 11
710.6300395760081
 21
170.8215973028609
 31
0.0
  0
CIRCLE
  5
364
330
17
100
AcDbEntity
  8
4
100
AcDbCircle
 10
650.6300395760081
 20
270.8215973028609
 30
0.0
 40
32.5
  0
LINE
  5
365
330
17
100
AcDbEntity
  8
L-CENTER
 48
5.0
100
AcDbLine
 10
650.6300395760081
 20
319.0637848028609
 30
0.0
 11
650.6300395760081
 21
222.5794098028609
 31
0.0
  0
ARC
  5
366
330
17
100
AcDbEntity
  8
4
100
AcDbCircle
 10
908.6300395760081
 20
270.8215973028609
 30
0.0
 40
299.9999675
100
AcDbArc
 50
173.2015870000001
 51
186.799917
  0
CIRCLE
  5
367
330
17
100
AcDbEntity
  8
4
100
AcDbCircle
 10
650.6300395760081
 20
270.8215973028609
 30
0.0
 40
42.0
  0
LINE
  5
36F
330
17
100
AcDbEntity
  8
4
100
AcDbLine
 10
145.9115458704531
 20
283.3215973028613
 30
0.0
 11
144.9115458704531
 21
282.3215973028615
 31
0.0
  0
LINE
  5
370
330
17
100
AcDbEntity
  8
4
100
AcDbLine
 10
144.911545870453
 20
259.3215973028611
 30
0.0
 11
145.911545870453
 21
258.3215973028613
 31
0.0
  0
LINE
  5
371
330
17
100
AcDbEntity
  8
4
100
AcDbLine
 10
145.9115458704531
 20
283.3215973028613
 30
0.0
 11
145.911545870453
 21
258.3215973028613
 31
0.0
  0
LINE
  5
372
330
17
100
AcDbEntity
  8
4
100
AcDbLine
 10
144.911545870453
 20
259.3215973028611
 30
0.0
 11
144.9115458704531
 21
286.3215973028615
 31
0.0
  0
LINE
  5
373
330
17
100
AcDbEntity
  8
4
100
AcDbLine
 10
189.9115458704531
 20
283.3215973028612
 30
0.0
 11
189.9115458704531
 21
286.3215973028614
 31
0.0
  0
LINE
  5
374
330
17
100
AcDbEntity
  8
4
100
AcDbLine
 10
194.9115458704531
 20
285.8215973028612
 30
0.0
 11
194.911545870453
 21
255.8215973028612
 31
0.0
  0
LINE
  5
375
330
17
100
AcDbEntity
  8
4
100
AcDbLine
 10
194.911545870453
 20
258.3215973028612
 30
0.0
 11
145.911545870453
 21
258.3215973028613
 31
0.0
  0
LINE
  5
376
330
17
100
AcDbEntity
  8
4
100
AcDbLine
 10
194.9115458704531
 20
283.3215973028612
 30
0.0
 11
145.9115458704531
 21
283.3215973028613
 31
0.0
  0
LINE
  5
377
330
17
100
AcDbEntity
  8
4
100
AcDbLine
 10
144.9115458704531
 20
286.3215973028615
 30
0.0
 11
189.9115458704531
 21
286.3215973028614
 31
0.0
  0
ARC
  5
37C
330
17
100
AcDbEntity
  8
4
100
AcDbCircle
 10
470.4115458704533
 20
198.8215973028612
 30
0.0
 40
2.0
100
AcDbArc
 50
0.0
 51
90.0
  0
LINE
  5
37E
330
17
100
AcDbEntity
  8
4
100
AcDbLine
 10
472.4115458704532
 20
198.8215973028612
 30
0.0
 11
472.4115458704532
 21
170.8215973028609
 31
0.0
  0
LINE
  5
37F
330
17
100
AcDbEntity
  8
L-CENTER
 48
5.0
100
AcDbLine
 10
451.9115458704531
 20
161.2860780415373
 30
0.0
 11
451.9115458704531
 21
210.3571165641845
 31
0.0
  0
LINE
  5
380
330
17
100
AcDbEntity
  8
4
100
AcDbLine
 10
444.4115458704531
 20
200.8215973028609
 30
0.0
 11
444.4115458704531
 21
170.8215973028609
 31
0.0
  0
LINE
  5
381
330
17
100
AcDbEntity
  8
4
100
AcDbLine
 10
459.4115458704531
 20
200.8215973028609
 30
0.0
 11
459.4115458704531
 21
170.8215973028609
 31
0.0
  0
LINE
  5
38C
330
17
100
AcDbEntity
  8
L-CENTER
 48
5.0
100
AcDbLine
 10
750.6300395760081
 20
111.4968054364761
 30
0.0
 11
750.6300395760081
 21
356.275200797766
 31
0.0
  0
LINE
  5
391
330
17
100
AcDbEntity
  8
4
100
AcDbLine
 10
644.6300395760081
 20
313.8215973028612
 30
0.0
 11
857.6300395760081
 21
313.8215973028612
 31
0.0
  0
LINE
  5
392
330
17
100
AcDbEntity
  8
L-CENTER
 48
5.0
100
AcDbLine
 10
871.6026945760082
 20
270.8215973028609
 30
0.0
 11
602.3878520760081
 21
270.8215973028609
 31
0.0
  0
LINE
  5
393
330
17
100
AcDbEntity
  8
4
100
AcDbLine
 10
650.6300395760081
 20
312.8215973028607
 30
0.0
 11
857.6300395760081
 21
312.8215973028607
 31
0.0
  0
LINE
  5
394
330
17
100
AcDbEntity
  8
4
100
AcDbLine
 10
784.6300395760081
 20
207.8215973028607
 30
0.0
 11
716.6300395760081
 21
207.8215973028607
 31
0.0
  0
LINE
  5
395
330
17
100
AcDbEntity
  8
4
100
AcDbLine
 10
790.2868945760082
 20
203.8215973028612
 30
0.0
 11
710.9731845760081
 21
203.8215973028612
 31
0.0
  0
LINE
  5
396
330
17
100
AcDbEntity
  8
4
100
AcDbLine
 10
717.630039576008
 20
193.8215973028612
 30
0.0
 11
783.6300395760082
 21
193.8215973028612
 31
0.0
  0
TEXT
  5
39F
330
17
100
AcDbEntity
  8
3
  6
Continuous
100
AcDbText
 10
508.9271605376513
 20
135.6847676635905
 30
0.0
 40
7.4999998125
  1
LC4-03
  7
KANJI
 72
     1
 11
529.5521600220263
 21
135.6847676635905
 31
0.0
100
AcDbText
  0
LINE
  5
3BA
330
17
100
AcDbEntity
  8
4
100
AcDbLine
 10
430.9115458704532
 20
313.8215973028612
 30
0.0
 11
430.9115458704532
 21
312.8215973028607
 31
0.0
  0
LINE
  5
3BB
330
17
100
AcDbEntity
  8
4
100
AcDbLine
 10
349.9115458704532
 20
350.721597302861
 30
0.0
 11
349.9115458704532
 21
351.7215973028606
 31
0.0
  0
LINE
  5
3BC
330
17
100
AcDbEntity
  8
4
100
AcDbLine
 10
282.7105778902148
 20
349.9847147086532
 30
0.0
 11
280.2118664937789
 21
340.8227729217226
 31
0.0
  0
LINE
  5
3BF
330
17
100
AcDbEntity
  8
4
100
AcDbLine
 10
299.9115458704532
 20
350.721597302861
 30
0.0
 11
299.9115458704532
 21
351.7215973028606
 31
0.0
  0
LINE
  5
3C0
330
17
100
AcDbEntity
  8
4
100
AcDbLine
 10
367.1125138506917
 20
349.984714708653
 30
0.0
 11
369.6112252471275
 21
340.8227729217222
 31
0.0
  0
LINE
  5
3C1
330
17
100
AcDbEntity
  8
4
100
AcDbLine
 10
383.6615458704532
 20
341.7215973028603
 30
0.0
 11
383.6615458704533
 21
345.7215973028608
 31
0.0
  0
LINE
  5
3C2
330
17
100
AcDbEntity
  8
4
100
AcDbLine
 10
378.4115458704532
 20
338.8488350459335
 30
0.0
 11
378.4115458704532
 21
339.7215973028613
 31
0.0
  0
LINE
  5
3C3
330
17
100
AcDbEntity
  8
4
100
AcDbLine
 10
377.4115458704533
 20
345.7215973028608
 30
0.0
 11
377.4115458704532
 21
339.7215973028613
 31
0.0
  0
LINE
  5
3C4
330
17
100
AcDbEntity
  8
L-CENTER
 48
5.0
100
AcDbLine
 10
389.9115458704533
 20
349.1745723028605
 30
0.0
 11
389.9115458704532
 21
325.3334148028605
 31
0.0
  0
LINE
  5
3C5
330
17
100
AcDbEntity
  8
4
100
AcDbLine
 10
299.9115458704532
 20
339.7215973028615
 30
0.0
 11
279.9115458704532
 21
339.7215973028615
 31
0.0
  0
LINE
  5
3C6
330
17
100
AcDbEntity
  8
4
100
AcDbLine
 10
369.9115458704532
 20
339.7215973028615
 30
0.0
 11
349.9115458704532
 21
339.7215973028615
 31
0.0
  0
LINE
  5
3CA
330
17
100
AcDbEntity
  8
4
100
AcDbLine
 10
299.9115458704532
 20
351.7215973028606
 30
0.0
 11
349.9115458704532
 21
351.7215973028606
 31
0.0
  0
LINE
  5
3CB
330
17
100
AcDbEntity
  8
4
100
AcDbLine
 10
283.6753417114525
 20
350.721597302861
 30
0.0
 11
366.1477500294539
 21
350.721597302861
 31
0.0
  0
ARC
  5
3CC
330
17
100
AcDbEntity
  8
4
100
AcDbCircle
 10
434.9115458704532
 20
205.8215973028609
 30
0.0
 40
5.0
100
AcDbArc
 50
180.0
 51
270.0027959999998
  0
LWPOLYLINE
  5
3CD
330
17
100
AcDbEntity
  8
4
100
AcDbPolyline
 90
       30
 70
     0
 43
0.0
 10
427.8527320582628
 20
200.7421723028608
 10
428.4094820582629
 20
200.3130198028605
 10
428.9422470582629
 20
199.8818448028608
 10
429.4270420582631
 20
199.4466273028609
 10
429.839882058263
 20
199.0053473028609
 10
430.1567845582629
 20
198.5559823028609
 10
430.353762058263
 20
198.0965073028608
 10
430.4129345582629
 20
197.5874698028611
 10
430.3268945582629
 20
197.0651423028614
 10
430.1180770582629
 20
196.5303573028609
 10
428.9793495582631
 20
194.8596523028612
 10
427.5433970582628
 20
193.1069973028609
 10
427.1034070582629
 20
192.508474802861
 10
426.7201420582631
 20
191.9041973028613
 10
426.4160420582629
 20
191.294997302861
 10
426.1504845582629
 20
190.4279298028609
 10
426.0639445582629
 20
189.5538248028613
 10
426.1329145582629
 20
188.6737823028609
 10
427.0377820582628
 20
186.0090023028608
 10
428.495887058263
 20
183.3303298028607
 10
429.8724695582628
 20
180.6674348028612
 10
430.203502058263
 20
179.7884348028613
 10
430.431437058263
 20
178.9155848028611
 10
430.532767058263
 20
178.0499823028611
 10
430.435967058263
 20
176.850809802861
 10
430.0937120582631
 20
175.6652848028609
 10
429.5550970582629
 20
174.4906748028609
 10
428.8692120582629
 20
173.3242523028609
 10
428.0851420582629
 20
172.1632898028611
 10
427.2519845582629
 20
171.0050573028609
  0
ARC
  5
3CE
330
17
100
AcDbEntity
  8
4
100
AcDbCircle
 10
376.9115458704531
 20
198.8215973028612
 30
0.0
 40
2.0
100
AcDbArc
 50
90.0
 51
180.0
  0
LINE
  5
3CF
330
17
100
AcDbEntity
  8
4
100
AcDbLine
 10
367.9115458704533
 20
207.8215973028607
 30
0.0
 11
367.9115458704533
 21
203.8215973028612
 31
0.0
  0
ARC
  5
3D0
330
17
100
AcDbEntity
  8
4
100
AcDbCircle
 10
368.9115458704532
 20
201.8215973028607
 30
0.0
 40
6.0
100
AcDbArc
 50
0.0
 51
90.0
  0
LINE
  5
3D1
330
17
100
AcDbEntity
  8
4
100
AcDbLine
 10
367.9115458704533
 20
203.8215973028612
 30
0.0
 11
357.9115458704533
 21
193.8215973028612
 31
0.0
  0
LINE
  5
3D2
330
17
100
AcDbEntity
  8
4
100
AcDbLine
 10
374.9115458704532
 20
201.8215973028607
 30
0.0
 11
374.9115458704532
 21
170.8215973028609
 31
0.0
  0
LINE
  5
3D3
330
17
100
AcDbEntity
  8
4
100
AcDbLine
 10
429.9115458704532
 20
228.8215973028612
 30
0.0
 11
429.9115458704532
 21
205.8215973028609
 31
0.0
  0
LINE
  5
3D4
330
17
100
AcDbEntity
  8
4
100
AcDbLine
 10
281.9115458704531
 20
207.8215973028607
 30
0.0
 11
281.9115458704531
 21
203.8215973028612
 31
0.0
  0
ARC
  5
3D5
330
17
100
AcDbEntity
  8
4
100
AcDbCircle
 10
272.9115458704533
 20
198.8215973028612
 30
0.0
 40
2.0
100
AcDbArc
 50
0.0
 51
90.0
  0
ARC
  5
3D6
330
17
100
AcDbEntity
  8
4
100
AcDbCircle
 10
280.9115458704532
 20
201.8215973028607
 30
0.0
 40
6.0
100
AcDbArc
 50
90.0
 51
180.0
  0
LINE
  5
3D7
330
17
100
AcDbEntity
  8
4
100
AcDbLine
 10
281.9120333704533
 20
203.8215973028612
 30
0.0
 11
291.9120333704533
 21
193.8215973028612
 31
0.0
  0
LINE
  5
3D8
330
17
100
AcDbEntity
  8
4
100
AcDbLine
 10
274.9115458704532
 20
201.8215973028607
 30
0.0
 11
274.9115458704532
 21
170.8215973028609
 31
0.0
  0
LINE
  5
3D9
330
17
100
AcDbEntity
  8
4
100
AcDbLine
 10
367.9115458704533
 20
203.8215973028612
 30
0.0
 11
281.9115458704531
 21
203.8215973028612
 31
0.0
  0
LINE
  5
3DA
330
17
100
AcDbEntity
  8
4
100
AcDbLine
 10
291.9115458704531
 20
193.8215973028612
 30
0.0
 11
357.9115458704533
 21
193.8215973028612
 31
0.0
  0
LINE
  5
3DB
330
17
100
AcDbEntity
  8
4
100
AcDbLine
 10
368.9115458704532
 20
207.8215973028607
 30
0.0
 11
280.9115458704532
 21
207.8215973028607
 31
0.0
  0
LINE
  5
3DC
330
17
100
AcDbEntity
  8
4
100
AcDbLine
 10
428.911300870453
 20
228.8215973028612
 30
0.0
 11
428.911300870453
 21
312.8215973028607
 31
0.0
  0
LINE
  5
3DD
330
17
100
AcDbEntity
  8
4
100
AcDbLine
 10
435.4115458704533
 20
228.8215973028612
 30
0.0
 11
435.4115458704533
 21
312.8215973028607
 31
0.0
  0
LINE
  5
3DE
330
17
100
AcDbEntity
  8
4
100
AcDbLine
 10
396.1615458704532
 20
341.7215973028603
 30
0.0
 11
396.1615458704533
 21
345.7215973028608
 31
0.0
  0
LINE
  5
3DF
330
17
100
AcDbEntity
  8
4
100
AcDbLine
 10
401.4115458704533
 20
338.2215973028608
 30
0.0
 11
401.4115458704533
 21
339.7215973028613
 31
0.0
  0
LINE
  5
3E0
330
17
100
AcDbEntity
  8
4
100
AcDbLine
 10
403.9115458704533
 20
331.8640524372374
 30
0.0
 11
403.9115458704533
 21
338.2215973028608
 31
0.0
  0
LINE
  5
3E1
330
17
100
AcDbEntity
  8
4
100
AcDbLine
 10
402.4115458704532
 20
339.7215973028613
 30
0.0
 11
402.4115458704533
 21
345.7215973028608
 31
0.0
  0
LINE
  5
3E2
330
17
100
AcDbEntity
  8
4
100
AcDbLine
 10
218.9115458704533
 20
313.8215973028612
 30
0.0
 11
218.9115458704533
 21
312.8215973028607
 31
0.0
  0
LINE
  5
3E3
330
17
100
AcDbEntity
  8
4
100
AcDbLine
 10
214.411590870453
 20
301.8215973028607
 30
0.0
 11
212.4115908704531
 21
301.8215973028607
 31
0.0
  0
LINE
  5
3E4
330
17
100
AcDbEntity
  8
4
100
AcDbLine
 10
214.411590870453
 20
239.8215973028612
 30
0.0
 11
212.4115908704531
 21
239.8215973028612
 31
0.0
  0
ARC
  5
3E5
330
17
100
AcDbEntity
  8
4
100
AcDbCircle
 10
214.9116208704533
 20
205.8215973028609
 30
0.0
 40
5.0
100
AcDbArc
 50
270.00157
 51
0.0
  0
ARC
  5
3E6
330
17
100
AcDbEntity
  8
4
100
AcDbCircle
 10
179.4116208704532
 20
198.8215973028612
 30
0.0
 40
2.0
100
AcDbArc
 50
90.0
 51
180.0
  0
LINE
  5
3E7
330
17
100
AcDbEntity
  8
4
100
AcDbLine
 10
177.4116208704533
 20
198.8215973028612
 30
0.0
 11
177.4116208704533
 21
170.8215973028609
 31
0.0
  0
LINE
  5
3E8
330
17
100
AcDbEntity
  8
L-CENTER
 48
5.0
100
AcDbLine
 10
197.9115458704532
 20
210.3571165641845
 30
0.0
 11
197.9115458704532
 21
161.2860780415373
 31
0.0
  0
LINE
  5
3E9
330
17
100
AcDbEntity
  8
4
100
AcDbLine
 10
219.9116208704533
 20
228.8215973028612
 30
0.0
 11
219.9116208704533
 21
205.8215973028609
 31
0.0
  0
LINE
  5
3EA
330
17
100
AcDbEntity
  8
4
100
AcDbLine
 10
220.9117908704531
 20
228.8215973028612
 30
0.0
 11
220.9117908704531
 21
312.8215973028607
 31
0.0
  0
LINE
  5
3EB
330
17
100
AcDbEntity
  8
4
100
AcDbLine
 10
214.411590870453
 20
228.8215973028612
 30
0.0
 11
214.411590870453
 21
312.8215973028607
 31
0.0
  0
LINE
  5
3EC
330
17
100
AcDbEntity
  8
4
100
AcDbLine
 10
212.4115908704531
 20
239.8215973028612
 30
0.0
 11
212.4115908704531
 21
301.8215973028607
 31
0.0
  0
LINE
  5
3ED
330
17
100
AcDbEntity
  8
4
100
AcDbLine
 10
403.9115458704533
 20
338.2215973028608
 30
0.0
 11
380.701461440401
 21
338.2215973028608
 31
0.0
  0
LINE
  5
3EE
330
17
100
AcDbEntity
  8
4
100
AcDbLine
 10
402.4115458704532
 20
339.7215973028613
 30
0.0
 11
377.4115458704532
 21
339.7215973028613
 31
0.0
  0
LINE
  5
3EF
330
17
100
AcDbEntity
  8
4
100
AcDbLine
 10
402.4115458704532
 20
341.7215973028603
 30
0.0
 11
377.4115458704532
 21
341.7215973028603
 31
0.0
  0
LINE
  5
3F0
330
17
100
AcDbEntity
  8
4
100
AcDbLine
 10
402.4115458704533
 20
345.7215973028608
 30
0.0
 11
377.4115458704533
 21
345.7215973028608
 31
0.0
  0
LINE
  5
3F1
330
17
100
AcDbEntity
  8
4
100
AcDbLine
 10
214.4115908704531
 20
312.8215973028607
 30
0.0
 11
435.4115458704533
 21
312.8215973028607
 31
0.0
  0
LINE
  5
3F2
330
17
100
AcDbEntity
  8
4
100
AcDbLine
 10
218.9115458704533
 20
313.8215973028612
 30
0.0
 11
430.9115458704532
 21
313.8215973028612
 31
0.0
  0
LINE
  5
3F3
330
17
100
AcDbEntity
  8
4
100
AcDbLine
 10
177.4116208704533
 20
170.8215973028609
 30
0.0
 11
274.9115458704532
 21
170.8215973028609
 31
0.0
  0
LINE
  5
3F4
330
17
100
AcDbEntity
  8
4
100
AcDbLine
 10
272.9115458704533
 20
200.8215973028609
 30
0.0
 11
179.4116208704532
 21
200.8215973028609
 31
0.0
  0
LINE
  5
3F5
330
17
100
AcDbEntity
  8
4
100
AcDbLine
 10
435.4115458704533
 20
228.8215973028612
 30
0.0
 11
214.4115908704531
 21
228.8215973028612
 31
0.0
  0
LINE
  5
3FC
330
17
100
AcDbEntity
  8
4
 48
5.0
100
AcDbLine
 10
429.9115458704532
 20
329.1215973028609
 30
0.0
 11
429.9115458704532
 21
313.8215973028612
 31
0.0
  0
LINE
  5
3FD
330
17
100
AcDbEntity
  8
4
 48
5.0
100
AcDbLine
 10
219.9115458704532
 20
329.1215973028609
 30
0.0
 11
219.9115458704532
 21
313.8215973028612
 31
0.0
  0
LINE
  5
3FE
330
17
100
AcDbEntity
  8
4
 48
5.0
100
AcDbLine
 10
299.9115458704532
 20
341.2946052011839
 30
0.0
 11
299.9115458704532
 21
339.7215973028615
 31
0.0
  0
LINE
  5
3FF
330
17
100
AcDbEntity
  8
L-CENTER
 48
5.0
100
AcDbLine
 10
324.9115458704532
 20
356.2752007977662
 30
0.0
 11
324.9115458704531
 21
111.4968054364761
 31
0.0
  0
LINE
  5
403
330
17
100
AcDbEntity
  8
4
100
AcDbLine
 10
319.9115458704531
 20
78.46393216427373
 30
0.0
 11
329.9115458704531
 21
78.46393216427373
 31
0.0
  0
LINE
  5
409
330
17
100
AcDbEntity
  8
4
100
AcDbLine
 10
319.9115458704531
 20
70.46393216427373
 30
0.0
 11
329.9115458704531
 21
70.46393216427373
 31
0.0
  0
LINE
  5
413
330
17
100
AcDbEntity
  8
L-CENTER
 48
5.0
100
AcDbLine
 10
350.7221373987354
 20
57.9641886574737
 30
0.0
 11
299.101292632831
 21
57.96392090558311
 31
0.0
  0
LINE
  5
41B
330
17
100
AcDbEntity
  8
4
100
AcDbLine
 10
329.9115458704531
 20
70.46393216427373
 30
0.0
 11
329.9115458704531
 21
78.46393216427373
 31
0.0
  0
LINE
  5
41C
330
17
100
AcDbEntity
  8
4
100
AcDbLine
 10
319.9115458704531
 20
78.46393216427373
 30
0.0
 11
319.9115458704531
 21
70.46393216427373
 31
0.0
  0
LINE
  5
41D
330
17
100
AcDbEntity
  8
L-CENTER
 48
5.0
100
AcDbLine
 10
324.9115458704531
 20
83.77447716427355
 30
0.0
 11
324.9115458704531
 21
32.15363239878326
 31
0.0
  0
LINE
  5
442
330
17
100
AcDbEntity
  8
4
100
AcDbLine
 10
212.411590870453
 20
285.8215973028612
 30
0.0
 11
194.9115458704531
 21
285.8215973028612
 31
0.0
  0
LINE
  5
443
330
17
100
AcDbEntity
  8
4
100
AcDbLine
 10
212.4115908704529
 20
255.8215973028612
 30
0.0
 11
194.911545870453
 21
255.8215973028612
 31
0.0
  0
LINE
  5
444
330
17
100
AcDbEntity
  8
4
 48
5.0
100
AcDbLine
 10
428.9115458704532
 20
330.1215973028609
 30
0.0
 11
220.9115458704532
 21
330.1215973028609
 31
0.0
  0
LINE
  5
445
330
17
100
AcDbEntity
  8
4
 48
5.0
100
AcDbLine
 10
429.9115458704532
 20
319.1215973028609
 30
0.0
 11
219.9115458704532
 21
319.1215973028609
 31
0.0
  0
LINE
  5
446
330
17
100
AcDbEntity
  8
4
 48
5.0
100
AcDbLine
 10
429.9115458704532
 20
318.8215973028609
 30
0.0
 11
219.9115458704532
 21
318.8215973028609
 31
0.0
  0
LINE
  5
447
330
17
100
AcDbEntity
  8
L-CENTER
 48
5.0
100
AcDbLine
 10
140.7230708704532
 20
270.8215973028613
 30
0.0
 11
442.2534750915125
 21
270.8215973028608
 31
0.0
  0
LINE
  5
448
330
17
100
AcDbEntity
  8
4
100
AcDbLine
 10
374.9115458704532
 20
170.8215973028609
 30
0.0
 11
472.4115458704532
 21
170.8215973028609
 31
0.0
  0
LINE
  5
449
330
17
100
AcDbEntity
  8
4
100
AcDbLine
 10
470.4115458704533
 20
200.8215973028609
 30
0.0
 11
376.9115458704531
 21
200.8215973028609
 31
0.0
  0
ARC
  5
46E
330
17
100
AcDbEntity
  8
4
100
AcDbCircle
 10
324.9115458704531
 20
57.96393216427373
 30
0.0
 40
17.0
100
AcDbArc
 50
107.1046351766438
 51
72.8945040000002
  0
LINE
  5
470
330
17
100
AcDbEntity
  8
L-CENTER
 48
5.0
100
AcDbLine
 10
137.6845005115733
 20
512.122955807712
 30
0.0
 11
439.2490521411296
 21
512.122955807712
 31
0.0
  0
LINE
  5
472
330
17
100
AcDbEntity
  8
4
100
AcDbLine
 10
468.4115463704532
 20
512.122955807712
 30
0.0
 11
437.4115008704533
 21
512.1229558077118
 31
0.0
  0
LINE
  5
474
330
17
100
AcDbEntity
  8
4
100
AcDbLine
 10
472.4115453704533
 20
558.9475663077118
 30
0.0
 11
472.4115453704533
 21
516.1229563077119
 31
0.0
  0
ARC
  5
475
330
17
100
AcDbEntity
  8
4
100
AcDbCircle
 10
468.4115463704532
 20
516.1229563077119
 30
0.0
 40
4.0000005
100
AcDbArc
 50
270.0
 51
0.0
  0
LINE
  5
479
330
17
100
AcDbEntity
  8
4
100
AcDbLine
 10
177.4115463704532
 20
558.9475663077118
 30
0.0
 11
177.4115463704532
 21
524.622955807712
 31
0.0
  0
LINE
  5
47F
330
17
100
AcDbEntity
  8
4
100
AcDbLine
 10
186.4115458704532
 20
508.6229558077119
 30
0.0
 11
144.9115458704532
 21
508.6229558077119
 31
0.0
  0
LINE
  5
480
330
17
100
AcDbEntity
  8
4
100
AcDbLine
 10
186.4115458704532
 20
515.622955807712
 30
0.0
 11
144.9115458704532
 21
515.622955807712
 31
0.0
  0
LINE
  5
481
330
17
100
AcDbEntity
  8
4
100
AcDbLine
 10
193.9115458704532
 20
499.6229558077119
 30
0.0
 11
145.9115458704532
 21
499.6229558077119
 31
0.0
  0
LINE
  5
482
330
17
100
AcDbEntity
  8
4
100
AcDbLine
 10
193.9115458704532
 20
524.622955807712
 30
0.0
 11
145.9115458704532
 21
524.622955807712
 31
0.0
  0
LINE
  5
483
330
17
100
AcDbEntity
  8
4
100
AcDbLine
 10
194.9115458704532
 20
527.122955807712
 30
0.0
 11
194.9115458704532
 21
497.1229558077119
 31
0.0
  0
ARC
  5
484
330
17
100
AcDbEntity
  8
4
100
AcDbCircle
 10
186.4115458704532
 20
512.122955807712
 30
0.0
 40
3.5
100
AcDbArc
 50
270.0
 51
90.0
  0
ARC
  5
485
330
17
100
AcDbEntity
  8
4
100
AcDbCircle
 10
193.9115458704532
 20
498.6229558077119
 30
0.0
 40
1.0
100
AcDbArc
 50
0.0
 51
90.0
  0
ARC
  5
486
330
17
100
AcDbEntity
  8
4
100
AcDbCircle
 10
193.9115458704532
 20
525.622955807712
 30
0.0
 40
1.0
100
AcDbArc
 50
270.0
 51
0.0
  0
LINE
  5
487
330
17
100
AcDbEntity
  8
4
100
AcDbLine
 10
144.9115458704532
 20
523.622955807712
 30
0.0
 11
144.9115458704532
 21
500.6229558077119
 31
0.0
  0
LINE
  5
488
330
17
100
AcDbEntity
  8
4
100
AcDbLine
 10
145.9115458704532
 20
499.6229558077119
 30
0.0
 11
144.9115458704532
 21
500.6229558077119
 31
0.0
  0
LINE
  5
489
330
17
100
AcDbEntity
  8
4
100
AcDbLine
 10
145.9115458704532
 20
508.6229558077119
 30
0.0
 11
145.9115458704532
 21
499.6229558077119
 31
0.0
  0
LINE
  5
48A
330
17
100
AcDbEntity
  8
4
100
AcDbLine
 10
145.9115458704532
 20
524.622955807712
 30
0.0
 11
144.9115458704532
 21
523.622955807712
 31
0.0
  0
LINE
  5
48B
330
17
100
AcDbEntity
  8
4
100
AcDbLine
 10
145.9115458704532
 20
524.622955807712
 30
0.0
 11
145.9115458704532
 21
515.622955807712
 31
0.0
  0
LINE
  5
48C
330
17
100
AcDbEntity
  8
4
100
AcDbLine
 10
212.4115908704531
 20
527.1229558077121
 30
0.0
 11
194.9115458704532
 21
527.122955807712
 31
0.0
  0
LINE
  5
48D
330
17
100
AcDbEntity
  8
4
100
AcDbLine
 10
212.4115908704531
 20
497.1229558077119
 30
0.0
 11
194.9115458704532
 21
497.1229558077119
 31
0.0
  0
LINE
  5
48F
330
17
100
AcDbEntity
  8
4
100
AcDbLine
 10
764.6300395760082
 20
338.2215973028608
 30
0.0
 11
736.630039576008
 21
338.2215973028608
 31
0.0
  0
LINE
  5
490
330
17
100
AcDbEntity
  8
4
100
AcDbLine
 10
764.6300395760081
 20
331.8640524372374
 30
0.0
 11
764.6300395760082
 21
338.2215973028608
 31
0.0
  0
LINE
  5
491
330
17
100
AcDbEntity
  8
4
100
AcDbLine
 10
736.6300395760081
 20
331.8640524372374
 30
0.0
 11
736.630039576008
 21
338.2215973028608
 31
0.0
  0
LINE
  5
1E73
330
17
100
AcDbEntity
  8
4
100
AcDbLine
 10
738.6300395760081
 20
338.2215973028608
 30
0.0
 11
762.6300395760081
 21
338.2215973028608
 31
0.0
  0
LINE
  5
1E74
330
17
100
AcDbEntity
  8
4
100
AcDbLine
 10
738.1300395760081
 20
339.7215973028608
 30
0.0
 11
763.1300395760081
 21
339.7215973028608
 31
0.0
  0
LINE
  5
1E75
330
17
100
AcDbEntity
  8
4
100
AcDbLine
 10
738.1300395760081
 20
341.7215973028608
 30
0.0
 11
763.1300395760081
 21
341.7215973028608
 31
0.0
  0
LINE
  5
1E76
330
17
100
AcDbEntity
  8
4
100
AcDbLine
 10
739.6300395760081
 20
345.7215973028608
 30
0.0
 11
761.6300395760081
 21
345.7215973028608
 31
0.0
  0
LINE
  5
1E77
330
17
100
AcDbEntity
  8
4
100
AcDbLine
 10
738.6300395760081
 20
338.2215973028608
 30
0.0
 11
738.6300395760081
 21
339.7215973028608
 31
0.0
  0
LINE
  5
1E78
330
17
100
AcDbEntity
  8
4
100
AcDbLine
 10
738.1300395760081
 20
339.7215973028608
 30
0.0
 11
738.1300395760081
 21
341.7215973028608
 31
0.0
  0
LINE
  5
1E79
330
17
100
AcDbEntity
  8
4
100
AcDbLine
 10
739.6300395760081
 20
345.7215973028608
 30
0.0
 11
739.6300395760081
 21
341.7215973028608
 31
0.0
  0
LINE
  5
1E7A
330
17
100
AcDbEntity
  8
4
100
AcDbLine
 10
762.6300395760081
 20
338.2215973028608
 30
0.0
 11
762.6300395760081
 21
339.7215973028608
 31
0.0
  0
LINE
  5
1E7B
330
17
100
AcDbEntity
  8
4
100
AcDbLine
 10
763.1300395760081
 20
339.7215973028608
 30
0.0
 11
763.1300395760081
 21
341.7215973028608
 31
0.0
  0
LINE
  5
1E7C
330
17
100
AcDbEntity
  8
4
100
AcDbLine
 10
761.6300395760081
 20
345.7215973028608
 30
0.0
 11
761.6300395760081
 21
341.7215973028608
 31
0.0
  0
LINE
  5
1E7D
330
17
100
AcDbEntity
  8
4
100
AcDbLine
 10
763.1300395760081
 20
341.2946052011839
 30
0.0
 11
775.6300395760081
 21
341.2946052011839
 31
0.0
  0
LINE
  5
1E83
330
17
100
AcDbEntity
  8
4
100
AcDbLine
 10
775.6300395760081
 20
193.8215973028612
 30
0.0
 11
775.6300395760081
 21
192.8215973028616
 31
0.0
  0
LINE
  5
1E84
330
17
100
AcDbEntity
  8
4
100
AcDbLine
 10
725.6300395760081
 20
193.8215973028612
 30
0.0
 11
725.6300395760081
 21
192.8215973028616
 31
0.0
  0
LINE
  5
1E85
330
17
100
AcDbEntity
  8
4
100
AcDbLine
 10
725.6300395760081
 20
192.8215973028616
 30
0.0
 11
775.6300395760081
 21
192.8215973028616
 31
0.0
  0
LINE
  5
1E86
330
17
100
AcDbEntity
  8
4
100
AcDbLine
 10
341.9115458704531
 20
175.8215973028609
 30
0.0
 11
341.9115458704531
 21
116.8215973028607
 31
0.0
  0
LINE
  5
1E87
330
17
100
AcDbEntity
  8
4
100
AcDbLine
 10
307.9115458704533
 20
175.8215973028609
 30
0.0
 11
307.9115458704533
 21
116.8215973028607
 31
0.0
  0
LINE
  5
1E88
330
17
100
AcDbEntity
  8
4
100
AcDbLine
 10
329.9115458704532
 20
165.8215973028609
 30
0.0
 11
329.9115458704532
 21
115.8215973028609
 31
0.0
  0
LINE
  5
1E89
330
17
100
AcDbEntity
  8
4
100
AcDbLine
 10
319.9115458704532
 20
165.8215973028609
 30
0.0
 11
319.9115458704532
 21
115.8215973028609
 31
0.0
  0
LINE
  5
1E8A
330
17
100
AcDbEntity
  8
4
100
AcDbLine
 10
299.9115458704532
 20
192.8215973028616
 30
0.0
 11
349.9115458704532
 21
192.8215973028616
 31
0.0
  0
LINE
  5
1E8B
330
17
100
AcDbEntity
  8
4
100
AcDbLine
 10
342.4115458704532
 20
192.8215973028616
 30
0.0
 11
342.4115458704532
 21
175.8215973028609
 31
0.0
  0
LINE
  5
1E8C
330
17
100
AcDbEntity
  8
4
100
AcDbLine
 10
307.4115458704532
 20
192.8215973028616
 30
0.0
 11
307.4115458704532
 21
175.8215973028609
 31
0.0
  0
LINE
  5
1E8D
330
17
100
AcDbEntity
  8
4
100
AcDbLine
 10
299.9115458704532
 20
193.8215973028612
 30
0.0
 11
299.9115458704532
 21
192.8215973028616
 31
0.0
  0
LINE
  5
1E8E
330
17
100
AcDbEntity
  8
4
100
AcDbLine
 10
342.4115458704532
 20
175.8215973028609
 30
0.0
 11
307.4115458704532
 21
175.8215973028609
 31
0.0
  0
ARC
  5
1E8F
330
17
100
AcDbEntity
  8
4
100
AcDbCircle
 10
324.9115458704532
 20
165.8215973028609
 30
0.0
 40
5.0
100
AcDbArc
 50
0.0
 51
180.0
  0
LINE
  5
1E90
330
17
100
AcDbEntity
  8
4
100
AcDbLine
 10
349.9115458704532
 20
193.8215973028612
 30
0.0
 11
349.9115458704532
 21
192.8215973028616
 31
0.0
  0
LINE
  5
1E91
330
17
100
AcDbEntity
  8
4
100
AcDbLine
 10
340.9115458704532
 20
115.8215973028609
 30
0.0
 11
308.9115458704533
 21
115.8215973028609
 31
0.0
  0
LINE
  5
1E92
330
17
100
AcDbEntity
  8
4
100
AcDbLine
 10
307.9115458704533
 20
116.8215973028607
 30
0.0
 11
319.9115458704532
 21
116.8215973028607
 31
0.0
  0
LINE
  5
1E93
330
17
100
AcDbEntity
  8
4
100
AcDbLine
 10
308.9115458704533
 20
115.8215973028609
 30
0.0
 11
307.9115458704533
 21
116.8215973028607
 31
0.0
  0
LINE
  5
1E94
330
17
100
AcDbEntity
  8
4
100
AcDbLine
 10
341.9115458704531
 20
116.8215973028607
 30
0.0
 11
329.9115458704532
 21
116.8215973028607
 31
0.0
  0
LINE
  5
1E95
330
17
100
AcDbEntity
  8
4
100
AcDbLine
 10
340.9115458704532
 20
115.8215973028609
 30
0.0
 11
341.9115458704531
 21
116.8215973028607
 31
0.0
  0
LINE
  5
1E96
330
17
100
AcDbEntity
  8
4
100
AcDbLine
 10
768.1300395760081
 20
175.8215973028609
 30
0.0
 11
733.1300395760081
 21
175.8215973028609
 31
0.0
  0
LINE
  5
1E97
330
17
100
AcDbEntity
  8
4
100
AcDbLine
 10
767.630039576008
 20
116.8215973028607
 30
0.0
 11
750.6300395760081
 21
116.8215973028607
 31
0.0
  0
LINE
  5
1E98
330
17
100
AcDbEntity
  8
4
100
AcDbLine
 10
766.6300395760081
 20
115.8215973028609
 30
0.0
 11
767.630039576008
 21
116.8215973028607
 31
0.0
  0
LINE
  5
1E99
330
17
100
AcDbEntity
  8
4
100
AcDbLine
 10
730.130039576008
 20
170.8215973028609
 30
0.0
 11
730.130039576008
 21
115.8215973028609
 31
0.0
  0
LINE
  5
1E9A
330
17
100
AcDbEntity
  8
4
100
AcDbLine
 10
733.6300395760082
 20
175.8215973028609
 30
0.0
 11
733.6300395760082
 21
116.8215973028607
 31
0.0
  0
LINE
  5
1E9B
330
17
100
AcDbEntity
  8
4
100
AcDbLine
 10
733.1300395760081
 20
192.8215973028616
 30
0.0
 11
733.1300395760081
 21
175.8215973028609
 31
0.0
  0
LINE
  5
1E9C
330
17
100
AcDbEntity
  8
4
100
AcDbLine
 10
730.130039576008
 20
170.8215973028609
 30
0.0
 11
733.6300395760082
 21
170.8215973028609
 31
0.0
  0
LINE
  5
1E9D
330
17
100
AcDbEntity
  8
4
100
AcDbLine
 10
733.6300395760082
 20
116.8215973028607
 30
0.0
 11
750.6300395760081
 21
116.8215973028607
 31
0.0
  0
LINE
  5
1E9E
330
17
100
AcDbEntity
  8
4
100
AcDbLine
 10
766.6300395760081
 20
115.8215973028609
 30
0.0
 11
730.130039576008
 21
115.8215973028609
 31
0.0
  0
LINE
  5
1E9F
330
17
100
AcDbEntity
  8
4
100
AcDbLine
 10
734.6300395760081
 20
115.8215973028609
 30
0.0
 11
733.6300395760082
 21
116.8215973028607
 31
0.0
  0
LINE
  5
1EA0
330
17
100
AcDbEntity
  8
4
100
AcDbLine
 10
767.630039576008
 20
175.8215973028609
 30
0.0
 11
767.630039576008
 21
116.8215973028607
 31
0.0
  0
LINE
  5
1EA1
330
17
100
AcDbEntity
  8
4
100
AcDbLine
 10
768.1300395760081
 20
192.8215973028616
 30
0.0
 11
768.1300395760081
 21
175.8215973028609
 31
0.0
  0
LINE
  5
1ED5
330
17
100
AcDbEntity
  8
L-CENTER
 48
5.0
100
AcDbLine
 10
85.4999997758332
 20
250.958317302861
 30
0.0
 11
85.4999997758332
 21
290.6848773028615
 31
0.0
  0
LINE
  5
1ED6
330
17
100
AcDbEntity
  8
L-CENTER
 48
5.0
100
AcDbLine
 10
105.3632797758335
 20
270.8215973028613
 30
0.0
 11
65.63671977583294
 21
270.8215973028613
 31
0.0
  0
LINE
  5
1ED7
330
17
100
AcDbEntity
  8
4
100
AcDbLine
 10
88.99999977583315
 20
279.3215973028611
 30
0.0
 11
81.99999977583326
 21
279.3215973028611
 31
0.0
  0
LINE
  5
1ED8
330
17
100
AcDbEntity
  8
4
100
AcDbLine
 10
88.99999977583315
 20
286.3215973028615
 30
0.0
 11
81.99999977583326
 21
286.3215973028615
 31
0.0
  0
LINE
  5
1ED9
330
17
100
AcDbEntity
  8
4
100
AcDbLine
 10
81.99999977583326
 20
286.3215973028615
 30
0.0
 11
81.99999977583326
 21
279.3215973028611
 31
0.0
  0
LINE
  5
1EDA
330
17
100
AcDbEntity
  8
4
100
AcDbLine
 10
88.99999977583315
 20
279.3215973028611
 30
0.0
 11
88.99999977583315
 21
286.3215973028615
 31
0.0
  0
ARC
  5
1EDB
330
17
100
AcDbEntity
  8
4
100
AcDbCircle
 10
85.4999997758332
 20
270.8215973028613
 30
0.0
 40
12.5
100
AcDbArc
 50
106.2602047083117
 51
73.73979500000009
  0
ENDSEC
  0
SECTION
  2
OBJECTS
  0
DICTIONARY
  5
5
330
0
100
AcDbDictionary
281
     1
  3
ACAD_COLOR
350
28
  3
ACAD_GROUP
350
26
  3
ACAD_LAYOUT
350
1E
  3
ACAD_MATERIAL
350
7
  3
ACAD_MLEADERSTYLE
350
44F
  3
ACAD_MLINESTYLE
350
15
  3
ACAD_PLOTSETTINGS
350
27
  3
ACAD_PLOTSTYLENAME
350
4
  3
ACAD_SCALELIST
350
2C
  3
ACAD_TABLESTYLE
350
44E
  3
ACAD_VISUALSTYLE
350
29
  3
ACDBHEADERROUNDTRIPXREC
350
1EE1
  3
AcDbVariableDictionary
350
44C
  3
DWGPROPS
350
1EE4
  0
DICTIONARY
  5
1EE5
330
25
100
AcDbDictionary
280
     1
281
     1
  3
ACAD_XREC_ROUNDTRIP
360
1EE6
  0
DICTIONARY
  5
18
330
17
100
AcDbDictionary
280
     1
281
     1
  3
ACAD_SORTENTS
360
19
  0
DICTIONARY
  5
28
102
{ACAD_REACTORS
330
5
102
}
330
5
100
AcDbDictionary
281
     1
  0
DICTIONARY
  5
26
102
{ACAD_REACTORS
330
5
102
}
330
5
100
AcDbDictionary
281
     1
  0
DICTIONARY
  5
1E
102
{ACAD_REACTORS
330
5
102
}
330
5
100
AcDbDictionary
281
     1
  3
Model
350
1D
  3
ﾚｲｱｳﾄ1
350
22
  0
DICTIONARY
  5
7
102
{ACAD_REACTORS
330
5
102
}
330
5
100
AcDbDictionary
281
     1
  3
ByBlock
350
4F
  3
ByLayer
350
10
  3
Global
350
6
  0
DICTIONARY
  5
44F
102
{ACAD_REACTORS
330
5
102
}
330
5
100
AcDbDictionary
281
     1
  3
Standard
350
1ECF
  0
DICTIONARY
  5
15
102
{ACAD_REACTORS
330
5
102
}
330
5
100
AcDbDictionary
281
     1
  3
STANDARD
350
14
  0
DICTIONARY
  5
27
102
{ACAD_REACTORS
330
5
102
}
330
5
100
AcDbDictionary
281
     1
  0
ACDBDICTIONARYWDFLT
  5
4
102
{ACAD_REACTORS
330
5
102
}
330
5
100
AcDbDictionary
281
     1
  3
Normal
350
3
100
AcDbDictionaryWithDefault
340
3
  0
DICTIONARY
  5
2C
102
{ACAD_REACTORS
330
5
102
}
330
5
100
AcDbDictionary
281
     1
  3
*A1
350
4E
  3
*A10
350
4A8
  3
*A11
350
4A9
  3
*A12
350
4AA
  3
*A13
350
4AB
  3
*A14
350
4AC
  3
*A15
350
4AD
  3
*A16
350
4AE
  3
*A17
350
4AF
  3
*A18
350
4B0
  3
*A19
350
4B1
  3
*A2
350
4A0
  3
*A20
350
4B2
  3
*A21
350
4B3
  3
*A22
350
4B4
  3
*A23
350
4B5
  3
*A24
350
4B6
  3
*A25
350
4B7
  3
*A26
350
4B8
  3
*A27
350
4B9
  3
*A28
350
4BA
  3
*A29
350
4BB
  3
*A3
350
4A1
  3
*A30
350
4BC
  3
*A31
350
4BD
  3
*A32
350
4BE
  3
*A33
350
4BF
  3
*A4
350
4A2
  3
*A5
350
4A3
  3
*A6
350
4A4
  3
*A7
350
4A5
  3
*A8
350
4A6
  3
*A9
350
4A7
  0
DICTIONARY
  5
44E
102
{ACAD_REACTORS
330
5
102
}
330
5
100
AcDbDictionary
281
     1
  3
Standard
350
1EDD
  0
DICTIONARY
  5
29
102
{ACAD_REACTORS
330
5
102
}
330
5
100
AcDbDictionary
281
     1
  3
2dWireframe
350
457
  3
Basic
350
45A
  3
Brighten
350
45E
  3
ColorChange
350
462
  3
Conceptual
350
45C
  3
Dim
350
45D
  3
EdgeColorOff
350
465
  3
Facepattern
350
461
  3
Flat
350
453
  3
FlatWithEdges
350
454
  3
Gouraud
350
455
  3
GouraudWithEdges
350
456
  3
Hidden
350
459
  3
JitterOff
350
463
  3
Linepattern
350
460
  3
OverhangOff
350
464
  3
Realistic
350
45B
  3
Shaded
350
46A
  3
Shaded with edges
350
469
  3
Shades of Gray
350
466
  3
Sketchy
350
467
  3
Thicken
350
45F
  3
Wireframe
350
458
  3
X-Ray
350
468
  0
DICTIONARY
  5
1EE1
102
{ACAD_REACTORS
330
5
102
}
330
5
100
AcDbDictionary
281
     1
  3
COLORDICT
350
1EE2
  3
MATERIALDICT
350
1EE3
  0
DICTIONARY
  5
44C
102
{ACAD_REACTORS
330
5
102
}
330
5
100
AcDbDictionary
281
     1
  3
CANNOSCALE
350
44D
  3
CMLEADERSTYLE
350
1ED3
  3
CTABLESTYLE
350
1EDE
  3
DIMASSOC
350
1EDF
  3
HIDETEXT
350
1EE0
  3
MSLTSCALE
350
1EE7
  3
XCLIPFRAME
350
450
  0
XRECORD
  5
1EE4
102
{ACAD_REACTORS
330
5
102
}
330
5
100
AcDbXrecord
280
     1
  1
DWGPROPS COOKIE
  2

  3

  4

  6

  7

  8
sg-d04
  9

300
=
301
=
302
=
303
=
304
=
305
=
306
=
307
=
308
=
309
=
 40
0.0
 41
2457533.433284363
 42
2457871.462544259
  1

 90
        0
  0
XRECORD
  5
1EE6
102
{ACAD_REACTORS
330
1EE5
102
}
330
1EE5
100
AcDbXrecord
280
     1
102
VTR_0.000_0.000_1.000_1.000_VISUALSTYLE
340
457
102
VTR_0.000_0.000_1.000_1.000_GRIDDISPLAY
 70
     3
102
VTR_0.000_0.000_1.000_1.000_GRIDMAJOR
 70
     5
102
VTR_0.000_0.000_1.000_1.000_DEFAULTLIGHTING
280
     1
102
VTR_0.000_0.000_1.000_1.000_DEFAULTLIGHTINGTYPE
 70
     1
102
VTR_0.000_0.000_1.000_1.000_BRIGHTNESS
141
0.0
102
VTR_0.000_0.000_1.000_1.000_CONTRAST
142
0.0
  0
SORTENTSTABLE
  5
19
102
{ACAD_REACTORS
330
18
102
}
330
18
100
AcDbSortentsTable
330
17
331
0
  5
3BA
331
1AC
  5
1AD
331
1AD
  5
1AE
331
1AE
  5
1AF
331
1AF
  5
1B0
331
1B0
  5
1B1
331
1B1
  5
1B2
331
1B2
  5
1B3
331
1B3
  5
1B4
331
1B4
  5
1B5
331
1B5
  5
1B6
331
1B6
  5
1B7
331
1B7
  5
1B8
331
1B8
  5
1B9
331
1B9
  5
1BA
331
1BA
  5
1BB
331
1BB
  5
447
331
1BC
  5
446
331
1BD
  5
445
331
1BE
  5
444
331
1BF
  5
443
331
1C0
  5
442
331
1C1
  5
441
331
1C2
  5
440
331
1C3
  5
43F
331
1C4
  5
43E
331
1C5
  5
43D
331
1C6
  5
43C
331
1C7
  5
43B
331
1C8
  5
43A
331
1C9
  5
439
331
1CA
  5
438
331
1CB
  5
437
331
1CC
  5
436
331
1CD
  5
435
331
1CE
  5
434
331
1CF
  5
433
331
1D0
  5
432
331
1D1
  5
431
331
1D2
  5
430
331
1D3
  5
42F
331
1D4
  5
42E
331
1D5
  5
42D
331
1D6
  5
42C
331
1D7
  5
42B
331
1D8
  5
42A
331
1D9
  5
429
331
1DA
  5
428
331
1DB
  5
427
331
1DC
  5
426
331
1DD
  5
425
331
1DE
  5
424
331
1DF
  5
423
331
1E0
  5
422
331
1E1
  5
421
331
1E2
  5
420
331
1E3
  5
41F
331
1E4
  5
41E
331
1E5
  5
41D
331
1E6
  5
41C
331
1E7
  5
41B
331
1E8
  5
41A
331
1E9
  5
419
331
1EA
  5
418
331
1EB
  5
417
331
1EC
  5
416
331
1ED
  5
415
331
1EE
  5
414
331
1EF
  5
413
331
1F0
  5
412
331
1F1
  5
411
331
1F2
  5
410
331
1F3
  5
40F
331
1F4
  5
40E
331
1F5
  5
40D
331
1F6
  5
40C
331
1F7
  5
40B
331
1F8
  5
40A
331
1F9
  5
409
331
1FA
  5
408
331
1FB
  5
407
331
1FC
  5
406
331
1FD
  5
405
331
1FE
  5
404
331
1FF
  5
403
331
200
  5
402
331
201
  5
401
331
202
  5
400
331
203
  5
3FF
331
204
  5
3FE
331
205
  5
3FD
331
206
  5
3FC
331
207
  5
3FB
331
208
  5
3FA
331
209
  5
3F9
331
20A
  5
3F8
331
20B
  5
3F7
331
20C
  5
3F6
331
20D
  5
3F5
331
20E
  5
3F4
331
20F
  5
3F3
331
210
  5
3F2
331
211
  5
3F1
331
212
  5
3F0
331
213
  5
3EF
331
214
  5
3EE
331
215
  5
3ED
331
216
  5
3EC
331
217
  5
3EB
331
218
  5
3EA
331
219
  5
3E9
331
21A
  5
3E8
331
21B
  5
3E7
331
21C
  5
3E6
331
21D
  5
3E5
331
21E
  5
3E4
331
21F
  5
3E3
331
220
  5
3E2
331
221
  5
3E1
331
222
  5
3E0
331
223
  5
3DF
331
224
  5
3DE
331
225
  5
3DD
331
226
  5
3DC
331
227
  5
3DB
331
228
  5
3DA
331
229
  5
3D9
331
22A
  5
3D8
331
22B
  5
3D7
331
22C
  5
3D6
331
22D
  5
3D5
331
22E
  5
3D4
331
22F
  5
3D3
331
230
  5
3D2
331
231
  5
3D1
331
232
  5
3D0
331
233
  5
3CF
331
234
  5
3CE
331
235
  5
3CD
331
236
  5
3CC
331
237
  5
3CB
331
238
  5
3CA
331
239
  5
3C9
331
23A
  5
3C8
331
23B
  5
3C7
331
23C
  5
3C6
331
23D
  5
3C5
331
23E
  5
3C4
331
23F
  5
3C3
331
240
  5
3C2
331
241
  5
3C1
331
242
  5
3C0
331
243
  5
3BF
331
244
  5
3BE
331
245
  5
3BD
331
246
  5
3BC
331
247
  5
3BB
331
25C
  5
3A6
331
25D
  5
3A5
331
25E
  5
3A4
331
25F
  5
3A3
331
260
  5
3A2
331
261
  5
3A1
331
262
  5
3A0
331
263
  5
39F
331
264
  5
39E
331
265
  5
39D
331
266
  5
39C
331
267
  5
39B
331
268
  5
39A
331
269
  5
399
331
26A
  5
398
331
26B
  5
397
331
26C
  5
396
331
26D
  5
395
331
26E
  5
394
331
26F
  5
393
331
270
  5
392
331
271
  5
391
331
272
  5
390
331
273
  5
38F
331
274
  5
38E
331
275
  5
38D
331
276
  5
38C
331
277
  5
38B
331
278
  5
38A
331
279
  5
389
331
27A
  5
388
331
27B
  5
387
331
27C
  5
386
331
27D
  5
385
331
27E
  5
384
331
27F
  5
383
331
280
  5
382
331
281
  5
381
331
282
  5
380
331
283
  5
37F
331
284
  5
37E
331
285
  5
37D
331
286
  5
37C
331
287
  5
37B
331
288
  5
37A
331
289
  5
379
331
28A
  5
378
331
28B
  5
377
331
28C
  5
376
331
28D
  5
375
331
28E
  5
374
331
28F
  5
373
331
290
  5
372
331
291
  5
371
331
292
  5
370
331
293
  5
36F
331
294
  5
36E
331
295
  5
36D
331
296
  5
36C
331
297
  5
36B
331
298
  5
36A
331
299
  5
369
331
29A
  5
368
331
29B
  5
367
331
29C
  5
366
331
29D
  5
365
331
29E
  5
364
331
29F
  5
363
331
2A0
  5
362
331
2A1
  5
361
331
2A2
  5
360
331
2A3
  5
35F
331
2A4
  5
35E
331
2A5
  5
35D
331
2A6
  5
35C
331
2A7
  5
35B
331
2A8
  5
35A
331
2A9
  5
359
331
2AA
  5
358
331
2AB
  5
357
331
2AC
  5
356
331
2AD
  5
355
331
2AE
  5
354
331
2AF
  5
353
331
2B0
  5
352
331
2B1
  5
351
331
2B2
  5
350
331
2B3
  5
34F
331
2B4
  5
34E
331
2B5
  5
34D
331
2B6
  5
34C
331
2B7
  5
34B
331
2B8
  5
34A
331
2B9
  5
349
331
2BA
  5
348
331
2BB
  5
347
331
2BC
  5
346
331
2BD
  5
345
331
2BE
  5
344
331
2BF
  5
343
331
2C0
  5
342
331
2C1
  5
341
331
2C2
  5
340
331
2C3
  5
33F
331
2C4
  5
33E
331
2C5
  5
33D
331
2C6
  5
33C
331
2C7
  5
33B
331
2C8
  5
33A
331
2C9
  5
339
331
2CA
  5
338
331
2CB
  5
337
331
2CC
  5
336
331
2CD
  5
335
331
2CE
  5
334
331
2CF
  5
333
331
2D0
  5
332
331
2D1
  5
331
331
2D2
  5
330
331
2D3
  5
32F
331
2D4
  5
32E
331
2D5
  5
32D
331
2D6
  5
32C
331
2D7
  5
32B
331
2D8
  5
32A
331
2D9
  5
329
331
2DA
  5
328
331
2DB
  5
327
331
2DC
  5
326
331
2DD
  5
325
331
2DE
  5
324
331
2DF
  5
323
331
2E0
  5
322
331
2E1
  5
321
331
2E2
  5
320
331
2E3
  5
31F
331
2E5
  5
31D
331
2E6
  5
31C
331
2E7
  5
31B
331
2E8
  5
31A
331
2E9
  5
319
331
2EA
  5
318
331
2EB
  5
317
331
2EC
  5
316
331
2ED
  5
315
331
2EE
  5
314
331
2EF
  5
313
331
2F0
  5
312
331
2F1
  5
311
331
2F2
  5
310
331
2F3
  5
30F
331
2F4
  5
30E
331
2F5
  5
30D
331
2F6
  5
30C
331
2F7
  5
30B
331
2F8
  5
30A
331
2F9
  5
309
331
2FC
  5
306
331
2FE
  5
304
331
300
  5
302
331
302
  5
300
331
311
  5
2F1
331
312
  5
2F0
331
315
  5
2ED
331
316
  5
2EC
331
31C
  5
2E6
331
31D
  5
2E5
331
31E
  5
2E4
331
31F
  5
2E3
331
320
  5
2E2
331
321
  5
2E1
331
322
  5
2E0
331
323
  5
2DF
331
324
  5
2DE
331
325
  5
2DD
331
326
  5
2DC
331
327
  5
2DB
331
328
  5
2DA
331
329
  5
2D9
331
32A
  5
2D8
331
32B
  5
2D7
331
32C
  5
2D6
331
32D
  5
2D5
331
32E
  5
2D4
331
330
  5
2D2
331
331
  5
2D1
331
332
  5
2D0
331
333
  5
2CF
331
334
  5
2CE
331
336
  5
2CC
331
34E
  5
2B4
331
34F
  5
2B3
331
350
  5
2B2
331
351
  5
2B1
331
352
  5
2B0
331
353
  5
2AF
331
354
  5
2AE
331
355
  5
2AD
331
356
  5
2AC
331
357
  5
2AB
331
35D
  5
2A5
331
35E
  5
2A4
331
35F
  5
2A3
331
360
  5
2A2
331
361
  5
2A1
331
362
  5
2A0
331
363
  5
29F
331
364
  5
29E
331
365
  5
29D
331
366
  5
29C
331
367
  5
29B
331
36F
  5
293
331
370
  5
292
331
371
  5
291
331
372
  5
290
331
373
  5
28F
331
374
  5
28E
331
375
  5
28D
331
376
  5
28C
331
377
  5
28B
331
37C
  5
286
331
37E
  5
284
331
37F
  5
283
331
380
  5
282
331
381
  5
281
331
38C
  5
276
331
391
  5
271
331
392
  5
270
331
393
  5
26F
331
394
  5
26E
331
395
  5
26D
331
396
  5
26C
331
39F
  5
263
331
3BA
  5
248
331
3BB
  5
247
331
3BC
  5
246
331
3BF
  5
243
331
3C0
  5
242
331
3C1
  5
241
331
3C2
  5
240
331
3C3
  5
23F
331
3C4
  5
23E
331
3C5
  5
23D
331
3C6
  5
23C
331
3CA
  5
238
331
3CB
  5
237
331
3CC
  5
236
331
3CD
  5
235
331
3CE
  5
234
331
3CF
  5
233
331
3D0
  5
232
331
3D1
  5
231
331
3D2
  5
230
331
3D3
  5
22F
331
3D4
  5
22E
331
3D5
  5
22D
331
3D6
  5
22C
331
3D7
  5
22B
331
3D8
  5
22A
331
3D9
  5
229
331
3DA
  5
228
331
3DB
  5
227
331
3DC
  5
226
331
3DD
  5
225
331
3DE
  5
224
331
3DF
  5
223
331
3E0
  5
222
331
3E1
  5
221
331
3E2
  5
220
331
3E3
  5
21F
331
3E4
  5
21E
331
3E5
  5
21D
331
3E6
  5
21C
331
3E7
  5
21B
331
3E8
  5
21A
331
3E9
  5
219
331
3EA
  5
218
331
3EB
  5
217
331
3EC
  5
216
331
3ED
  5
215
331
3EE
  5
214
331
3EF
  5
213
331
3F0
  5
212
331
3F1
  5
211
331
3F2
  5
210
331
3F3
  5
20F
331
3F4
  5
20E
331
3F5
  5
20D
331
3FC
  5
206
331
3FD
  5
205
331
3FE
  5
204
331
3FF
  5
203
331
403
  5
1FF
331
409
  5
1F9
331
413
  5
1EF
331
41B
  5
1E7
331
41C
  5
1E6
331
41D
  5
1E5
331
442
  5
1C0
331
443
  5
1BF
331
444
  5
1BE
331
445
  5
1BD
331
446
  5
1BC
331
447
  5
448
331
448
  5
449
331
449
  5
44A
331
46E
  5
46F
331
470
  5
471
331
472
  5
473
331
474
  5
475
331
475
  5
476
331
479
  5
47A
331
47F
  5
480
331
480
  5
481
331
481
  5
482
331
482
  5
483
331
483
  5
484
331
484
  5
485
331
485
  5
486
331
486
  5
487
331
487
  5
488
331
488
  5
489
331
489
  5
48A
331
48A
  5
48B
331
48B
  5
48C
331
48C
  5
48D
331
48D
  5
48E
331
48F
  5
490
331
490
  5
491
331
491
  5
11A2
331
1E73
  5
1E74
331
1E74
  5
1E75
331
1E75
  5
1E76
331
1E76
  5
1E77
331
1E77
  5
1E78
331
1E78
  5
1E79
331
1E79
  5
1E7A
331
1E7A
  5
1E7B
331
1E7B
  5
1E7C
331
1E7C
  5
1E7D
331
1E7D
  5
1AC
331
1E8F
  5
1E90
331
1E90
  5
1E91
331
1E91
  5
1E92
331
1E92
  5
1E93
331
1E93
  5
1E94
331
1E94
  5
1E95
331
1E95
  5
1E96
331
1E96
  5
1E97
331
1E97
  5
1E98
331
1E98
  5
1E99
331
1E99
  5
1E9A
331
1E9A
  5
1E9B
331
1E9B
  5
1E9C
331
1E9C
  5
1E9D
331
1E9D
  5
1E9E
331
1E9E
  5
1E9F
331
1E9F
  5
1EA0
331
1EA0
  5
1EA1
331
1EA1
  5
1EA2
  0
LAYOUT
  5
1D
102
{ACAD_REACTORS
330
1E
102
}
330
1E
100
AcDbPlotSettings
  1

  2
Bullzip PDF Printer.pc3
  4
A3
  6

 40
0.2
 41
0.0
 42
0.0
 43
0.0
 44
420.2
 45
297.1
 46
25.0
 47
12.0
 48
57.4999997758332
 49
10.0
140
1012.499997588333
141
691.2499984104165
142
1.0
143
2.5
 70
 11936
 72
     1
 73
     0
 74
     4
  7
monochrome.ctb
 75
     0
147
0.4
148
-57.4999997758332
149
-10.0
100
AcDbLayout
  1
Model
 70
     1
 71
     0
 10
0.0
 20
0.0
 11
12.0
 21
9.0
 12
0.0
 22
0.0
 32
0.0
 14
65.63671977583294
 24
32.1536323987832
 34
0.0
 15
871.6026945760082
 25
732.2548214218358
 35
0.0
146
0.0
 13
0.0
 23
0.0
 33
0.0
 16
1.0
 26
0.0
 36
0.0
 17
0.0
 27
1.0
 37
0.0
 76
     0
330
17
331
2A
1001
ACAD_PSEXT
1000
Bullzip PDF Printer.pc3
1000
Bullzip PDF Printer
1000
BULLZIP
1000
Bullzip PDF Printer 10.1.0.1871
1070
     0
  0
LAYOUT
  5
22
102
{ACAD_REACTORS
330
1E
102
}
330
1E
100
AcDbPlotSettings
  1

  2
C:\Program Files\ACAD LT 2000\plotters\Draftpro-DXL (7575A).pc3
  4

  6

 40
0.0
 41
0.0
 42
0.0
 43
0.0
 44
0.0
 45
0.0
 46
0.0
 47
0.0
 48
0.0
 49
0.0
140
0.0
141
0.0
142
1.0
143
1.0
 70
   688
 72
     0
 73
     0
 74
     5
  7
monochrome.ctb
 75
    16
147
1.0
148
0.0
149
0.0
100
AcDbLayout
  1
ﾚｲｱｳﾄ1
 70
     1
 71
     1
 10
0.0
 20
0.0
 11
12.0
 21
9.0
 12
0.0
 22
0.0
 32
0.0
 14
1.000000000000000E+20
 24
1.000000000000000E+20
 34
1.000000000000000E+20
 15
-1.000000000000000E+20
 25
-1.000000000000000E+20
 35
-1.000000000000000E+20
146
0.0
 13
0.0
 23
0.0
 33
0.0
 16
1.0
 26
0.0
 36
0.0
 17
0.0
 27
1.0
 37
0.0
 76
     0
330
1F
  0
MATERIAL
  5
4F
102
{ACAD_REACTORS
330
7
102
}
102
{ACAD_XDICTIONARY
360
1EEC
102
}
330
7
100
AcDbMaterial
  1
ByBlock
  0
MATERIAL
  5
10
102
{ACAD_REACTORS
330
7
102
}
102
{ACAD_XDICTIONARY
360
1EE8
102
}
330
7
100
AcDbMaterial
  1
ByLayer
  0
MATERIAL
  5
6
102
{ACAD_REACTORS
330
7
102
}
102
{ACAD_XDICTIONARY
360
1EEA
102
}
330
7
100
AcDbMaterial
  1
Global
1001
ACAD
1070
    -1
1070
     3
1070
     0
1000

1071
        0
  0
MLEADERSTYLE
  5
1ECF
102
{ACAD_REACTORS
330
44F
102
}
102
{ACAD_XDICTIONARY
360
1F1E
102
}
330
44F
100
AcDbMLeaderStyle
170
     2
171
     1
172
     0
 90
        2
 40
0.0
 41
0.0
173
     1
 91
-1056964608
340
D
 92
       -2
290
     1
 42
0.09
291
     1
 43
0.36
  3
Standard
341
0
 44
0.18
300

342
E
174
     1
178
     6
175
     1
176
     0
 93
-1056964608
 45
0.18
292
     0
297
     0
 46
0.18
343
0
 94
-1056964608
 47
1.0
 49
1.0
140
1.0
293
     1
141
0.0
294
     1
177
     0
142
1.0
295
     0
296
     0
143
0.125
1001
ACAD_MLEADERVER
1070
     2
  0
MLINESTYLE
  5
14
102
{ACAD_REACTORS
330
15
102
}
330
15
100
AcDbMlineStyle
  2
STANDARD
 70
     0
  3

 62
     0
 51
90.0
 52
90.0
 71
     2
 49
0.5
 62
   256
  6
BYLAYER
 49
-0.5
 62
   256
  6
BYLAYER
  0
ACDBPLACEHOLDER
  5
3
102
{ACAD_REACTORS
330
4
102
}
330
4
  0
SCALE
  5
4E
102
{ACAD_REACTORS
330
2C
102
}
330
2C
100
AcDbScale
 70
     0
300
1:1
140
1.0
141
1.0
290
     1
  0
SCALE
  5
4A8
102
{ACAD_REACTORS
330
2C
102
}
330
2C
100
AcDbScale
 70
     0
300
1:40
140
1.0
141
40.0
290
     0
  0
SCALE
  5
4A9
102
{ACAD_REACTORS
330
2C
102
}
330
2C
100
AcDbScale
 70
     0
300
1:50
140
1.0
141
50.0
290
     0
  0
SCALE
  5
4AA
102
{ACAD_REACTORS
330
2C
102
}
330
2C
100
AcDbScale
 70
     0
300
1:100
140
1.0
141
100.0
290
     0
  0
SCALE
  5
4AB
102
{ACAD_REACTORS
330
2C
102
}
330
2C
100
AcDbScale
 70
     0
300
2:1
140
2.0
141
1.0
290
     0
  0
SCALE
  5
4AC
102
{ACAD_REACTORS
330
2C
102
}
330
2C
100
AcDbScale
 70
     0
300
4:1
140
4.0
141
1.0
290
     0
  0
SCALE
  5
4AD
102
{ACAD_REACTORS
330
2C
102
}
330
2C
100
AcDbScale
 70
     0
300
8:1
140
8.0
141
1.0
290
     0
  0
SCALE
  5
4AE
102
{ACAD_REACTORS
330
2C
102
}
330
2C
100
AcDbScale
 70
     0
300
10:1
140
10.0
141
1.0
290
     0
  0
SCALE
  5
4AF
102
{ACAD_REACTORS
330
2C
102
}
330
2C
100
AcDbScale
 70
     0
300
100:1
140
100.0
141
1.0
290
     0
  0
SCALE
  5
4B0
102
{ACAD_REACTORS
330
2C
102
}
330
2C
100
AcDbScale
 70
     0
300
1/128" = 1'-0"
140
0.0078125
141
12.0
290
     0
  0
SCALE
  5
4B1
102
{ACAD_REACTORS
330
2C
102
}
330
2C
100
AcDbScale
 70
     0
300
1/64" = 1'-0"
140
0.015625
141
12.0
290
     0
  0
SCALE
  5
4A0
102
{ACAD_REACTORS
330
2C
102
}
330
2C
100
AcDbScale
 70
     0
300
1:2
140
1.0
141
2.0
290
     0
  0
SCALE
  5
4B2
102
{ACAD_REACTORS
330
2C
102
}
330
2C
100
AcDbScale
 70
     0
300
1/32" = 1'-0"
140
0.03125
141
12.0
290
     0
  0
SCALE
  5
4B3
102
{ACAD_REACTORS
330
2C
102
}
330
2C
100
AcDbScale
 70
     0
300
1/16" = 1'-0"
140
0.0625
141
12.0
290
     0
  0
SCALE
  5
4B4
102
{ACAD_REACTORS
330
2C
102
}
330
2C
100
AcDbScale
 70
     0
300
3/32" = 1'-0"
140
0.09375
141
12.0
290
     0
  0
SCALE
  5
4B5
102
{ACAD_REACTORS
330
2C
102
}
330
2C
100
AcDbScale
 70
     0
300
1/8" = 1'-0"
140
0.125
141
12.0
290
     0
  0
SCALE
  5
4B6
102
{ACAD_REACTORS
330
2C
102
}
330
2C
100
AcDbScale
 70
     0
300
3/16" = 1'-0"
140
0.1875
141
12.0
290
     0
  0
SCALE
  5
4B7
102
{ACAD_REACTORS
330
2C
102
}
330
2C
100
AcDbScale
 70
     0
300
1/4" = 1'-0"
140
0.25
141
12.0
290
     0
  0
SCALE
  5
4B8
102
{ACAD_REACTORS
330
2C
102
}
330
2C
100
AcDbScale
 70
     0
300
3/8" = 1'-0"
140
0.375
141
12.0
290
     0
  0
SCALE
  5
4B9
102
{ACAD_REACTORS
330
2C
102
}
330
2C
100
AcDbScale
 70
     0
300
1/2" = 1'-0"
140
0.5
141
12.0
290
     0
  0
SCALE
  5
4BA
102
{ACAD_REACTORS
330
2C
102
}
330
2C
100
AcDbScale
 70
     0
300
3/4" = 1'-0"
140
0.75
141
12.0
290
     0
  0
SCALE
  5
4BB
102
{ACAD_REACTORS
330
2C
102
}
330
2C
100
AcDbScale
 70
     0
300
1" = 1'-0"
140
1.0
141
12.0
290
     0
  0
SCALE
  5
4A1
102
{ACAD_REACTORS
330
2C
102
}
330
2C
100
AcDbScale
 70
     0
300
1:4
140
1.0
141
4.0
290
     0
  0
SCALE
  5
4BC
102
{ACAD_REACTORS
330
2C
102
}
330
2C
100
AcDbScale
 70
     0
300
1-1/2" = 1'-0"
140
1.5
141
12.0
290
     0
  0
SCALE
  5
4BD
102
{ACAD_REACTORS
330
2C
102
}
330
2C
100
AcDbScale
 70
     0
300
3" = 1'-0"
140
3.0
141
12.0
290
     0
  0
SCALE
  5
4BE
102
{ACAD_REACTORS
330
2C
102
}
330
2C
100
AcDbScale
 70
     0
300
6" = 1'-0"
140
6.0
141
12.0
290
     0
  0
SCALE
  5
4BF
102
{ACAD_REACTORS
330
2C
102
}
330
2C
100
AcDbScale
 70
     0
300
1'-0" = 1'-0"
140
12.0
141
12.0
290
     0
  0
SCALE
  5
4A2
102
{ACAD_REACTORS
330
2C
102
}
330
2C
100
AcDbScale
 70
     0
300
1:5
140
1.0
141
5.0
290
     0
  0
SCALE
  5
4A3
102
{ACAD_REACTORS
330
2C
102
}
330
2C
100
AcDbScale
 70
     0
300
1:8
140
1.0
141
8.0
290
     0
  0
SCALE
  5
4A4
102
{ACAD_REACTORS
330
2C
102
}
330
2C
100
AcDbScale
 70
     0
300
1:10
140
1.0
141
10.0
290
     0
  0
SCALE
  5
4A5
102
{ACAD_REACTORS
330
2C
102
}
330
2C
100
AcDbScale
 70
     0
300
1:16
140
1.0
141
16.0
290
     0
  0
SCALE
  5
4A6
102
{ACAD_REACTORS
330
2C
102
}
330
2C
100
AcDbScale
 70
     0
300
1:20
140
1.0
141
20.0
290
     0
  0
SCALE
  5
4A7
102
{ACAD_REACTORS
330
2C
102
}
330
2C
100
AcDbScale
 70
     0
300
1:30
140
1.0
141
30.0
290
     0
  0
TABLESTYLE
  5
1EDD
102
{ACAD_REACTORS
330
44E
102
}
330
44E
100
AcDbTableStyle
  3
Standard
 70
     0
 71
     0
 40
0.06
 41
0.06
280
     0
281
     0
  7
STANDARD
140
0.18
170
     2
 62
     0
 63
   257
283
     0
274
    -2
284
     1
 64
     0
275
    -2
285
     1
 65
     0
276
    -2
286
     1
 66
     0
277
    -2
287
     1
 67
     0
278
    -2
288
     1
 68
     0
279
    -2
289
     1
 69
     0
  7
STANDARD
140
0.25
170
     5
 62
     0
 63
   257
283
     0
274
    -2
284
     1
 64
     0
275
    -2
285
     1
 65
     0
276
    -2
286
     1
 66
     0
277
    -2
287
     1
 67
     0
278
    -2
288
     1
 68
     0
279
    -2
289
     1
 69
     0
  7
STANDARD
140
0.18
170
     5
 62
     0
 63
   257
283
     0
274
    -2
284
     1
 64
     0
275
    -2
285
     1
 65
     0
276
    -2
286
     1
 66
     0
277
    -2
287
     1
 67
     0
278
    -2
288
     1
 68
     0
279
    -2
289
     1
 69
     0
  0
VISUALSTYLE
  5
457
102
{ACAD_REACTORS
330
29
102
}
102
{ACAD_XDICTIONARY
360
1EF6
102
}
330
29
100
AcDbVisualStyle
  2
2dWireframe
 70
     4
 71
     0
 72
     2
 73
     0
 90
        0
 40
0.6
 41
30.0
 62
     5
 63
     7
 74
     1
 91
        4
 64
     7
 65
   257
 75
     1
175
     1
 42
1.0
 92
        0
 66
   257
 43
1.0
 76
     1
 77
     6
 78
     2
 67
     7
 79
     5
170
     0
171
     0
290
     0
174
     0
 93
        1
 44
0.0
173
     0
291
     0
 45
0.0
1001
ACAD
1000
AcDbSavedByObjectVersion
1070
     0
  0
VISUALSTYLE
  5
45A
102
{ACAD_REACTORS
330
29
102
}
102
{ACAD_XDICTIONARY
360
1EFC
102
}
330
29
100
AcDbVisualStyle
  2
Basic
 70
     7
 71
     1
 72
     0
 73
     1
 90
        0
 40
0.6
 41
30.0
 62
     5
 63
     7
 74
     0
 91
        4
 64
     7
 65
   257
 75
     1
175
     1
 42
1.0
 92
        8
 66
     7
 43
1.0
 76
     1
 77
     6
 78
     2
 67
     7
 79
     5
170
     0
171
     0
290
     0
174
     0
 93
        1
 44
0.0
173
     0
291
     1
 45
0.0
1001
ACAD
1000
AcDbSavedByObjectVersion
1070
     0
  0
VISUALSTYLE
  5
45E
102
{ACAD_REACTORS
330
29
102
}
102
{ACAD_XDICTIONARY
360
1F04
102
}
330
29
100
AcDbVisualStyle
  2
Brighten
 70
    12
 71
     2
 72
     2
 73
     0
 90
        0
 40
0.6
 41
30.0
 62
     5
 63
     7
 74
     1
 91
        4
 64
     7
 65
   257
 75
     1
175
     1
 42
1.0
 92
        8
 66
     7
 43
1.0
 76
     1
 77
     6
 78
     2
 67
     7
 79
     5
170
     0
171
     0
290
     0
174
     0
 93
        1
 44
50.0
173
     0
291
     1
 45
0.0
1001
ACAD
1000
AcDbSavedByObjectVersion
1070
     0
  0
VISUALSTYLE
  5
462
102
{ACAD_REACTORS
330
29
102
}
102
{ACAD_XDICTIONARY
360
1F0C
102
}
330
29
100
AcDbVisualStyle
  2
ColorChange
 70
    16
 71
     2
 72
     2
 73
     3
 90
        0
 40
0.6
 41
30.0
 62
     5
 63
     8
 74
     1
 91
        4
 64
     7
 65
   257
 75
     1
175
     1
 42
1.0
 92
        8
 66
     8
 43
1.0
 76
     1
 77
     6
 78
     2
 67
     7
 79
     5
170
     0
171
     0
290
     0
174
     0
 93
        1
 44
0.0
173
     0
291
     1
 45
0.0
1001
ACAD
1000
AcDbSavedByObjectVersion
1070
     0
  0
VISUALSTYLE
  5
45C
102
{ACAD_REACTORS
330
29
102
}
102
{ACAD_XDICTIONARY
360
1F00
102
}
330
29
100
AcDbVisualStyle
  2
Conceptual
 70
     9
 71
     3
 72
     2
 73
     0
 90
        0
 40
0.6
 41
30.0
 62
     5
 63
     7
 74
     2
 91
        2
 64
     7
 65
   257
 75
     1
175
     1
 42
40.0
 92
        8
 66
     7
 43
1.0
 76
     1
 77
     6
 78
     2
 67
     7
 79
     3
170
     0
171
     0
290
     0
174
     0
 93
        1
 44
0.0
173
     0
291
     0
 45
0.0
1001
ACAD
1000
AcDbSavedByObjectVersion
1070
     0
  0
VISUALSTYLE
  5
45D
102
{ACAD_REACTORS
330
29
102
}
102
{ACAD_XDICTIONARY
360
1F02
102
}
330
29
100
AcDbVisualStyle
  2
Dim
 70
    11
 71
     2
 72
     2
 73
     0
 90
        0
 40
0.6
 41
30.0
 62
     5
 63
     7
 74
     1
 91
        4
 64
     7
 65
   257
 75
     1
175
     1
 42
1.0
 92
        8
 66
     7
 43
1.0
 76
     1
 77
     6
 78
     2
 67
     7
 79
     5
170
     0
171
     0
290
     0
174
     0
 93
        1
 44
-50.0
173
     0
291
     1
 45
0.0
1001
ACAD
1000
AcDbSavedByObjectVersion
1070
     0
  0
VISUALSTYLE
  5
465
102
{ACAD_REACTORS
330
29
102
}
102
{ACAD_XDICTIONARY
360
1F12
102
}
330
29
100
AcDbVisualStyle
  2
EdgeColorOff
 70
    22
 71
     2
 72
     2
 73
     0
 90
        0
 40
0.6
 41
30.0
 62
     5
 63
     7
 74
     1
 91
        4
 64
     7
 65
   257
 75
     1
175
     1
 42
1.0
 92
        8
 66
     7
 43
1.0
 76
     1
 77
     6
 78
     2
 67
     7
 79
     5
170
     0
171
     0
290
     0
174
     0
 93
        1
 44
0.0
173
     0
291
     1
 45
0.0
1001
ACAD
1000
AcDbSavedByObjectVersion
1070
     0
  0
VISUALSTYLE
  5
461
102
{ACAD_REACTORS
330
29
102
}
102
{ACAD_XDICTIONARY
360
1F0A
102
}
330
29
100
AcDbVisualStyle
  2
Facepattern
 70
    15
 71
     2
 72
     2
 73
     0
 90
        0
 40
0.6
 41
30.0
 62
     5
 63
     7
 74
     1
 91
        4
 64
     7
 65
   257
 75
     1
175
     1
 42
1.0
 92
        8
 66
     7
 43
1.0
 76
     1
 77
     6
 78
     2
 67
     7
 79
     5
170
     0
171
     0
290
     0
174
     0
 93
        1
 44
0.0
173
     0
291
     1
 45
0.0
1001
ACAD
1000
AcDbSavedByObjectVersion
1070
     0
  0
VISUALSTYLE
  5
453
102
{ACAD_REACTORS
330
29
102
}
102
{ACAD_XDICTIONARY
360
1EEE
102
}
330
29
100
AcDbVisualStyle
  2
Flat
 70
     0
 71
     2
 72
     1
 73
     1
 90
        2
 40
0.6
 41
30.0
 62
     5
 63
     7
 74
     0
 91
        4
 64
     7
 65
   257
 75
     1
175
     1
 42
1.0
 92
        8
 66
     7
 43
1.0
 76
     1
 77
     6
 78
     2
 67
     7
 79
     5
170
     0
171
     0
290
     0
174
     0
 93
       13
 44
0.0
173
     0
291
     1
 45
0.0
1001
ACAD
1000
AcDbSavedByObjectVersion
1070
     0
  0
VISUALSTYLE
  5
454
102
{ACAD_REACTORS
330
29
102
}
102
{ACAD_XDICTIONARY
360
1EF0
102
}
330
29
100
AcDbVisualStyle
  2
FlatWithEdges
 70
     1
 71
     2
 72
     1
 73
     1
 90
        2
 40
0.6
 41
30.0
 62
     5
 63
     7
 74
     1
 91
        4
 64
     7
 65
   257
 75
     1
175
     1
 42
1.0
 92
        0
 66
   257
 43
1.0
 76
     1
 77
     6
 78
     2
 67
     7
 79
     5
170
     0
171
     0
290
     0
174
     0
 93
       13
 44
0.0
173
     0
291
     1
 45
0.0
1001
ACAD
1000
AcDbSavedByObjectVersion
1070
     0
  0
VISUALSTYLE
  5
455
102
{ACAD_REACTORS
330
29
102
}
102
{ACAD_XDICTIONARY
360
1EF2
102
}
330
29
100
AcDbVisualStyle
  2
Gouraud
 70
     2
 71
     2
 72
     2
 73
     1
 90
        2
 40
0.6
 41
30.0
 62
     5
 63
     7
 74
     0
 91
        4
 64
     7
 65
   257
 75
     1
175
     1
 42
1.0
 92
        0
 66
     7
 43
1.0
 76
     1
 77
     6
 78
     2
 67
     7
 79
     5
170
     0
171
     0
290
     0
174
     0
 93
       13
 44
0.0
173
     0
291
     1
 45
0.0
1001
ACAD
1000
AcDbSavedByObjectVersion
1070
     0
  0
VISUALSTYLE
  5
456
102
{ACAD_REACTORS
330
29
102
}
102
{ACAD_XDICTIONARY
360
1EF4
102
}
330
29
100
AcDbVisualStyle
  2
GouraudWithEdges
 70
     3
 71
     2
 72
     2
 73
     1
 90
        2
 40
0.6
 41
30.0
 62
     5
 63
     7
 74
     1
 91
        4
 64
     7
 65
   257
 75
     1
175
     1
 42
1.0
 92
        0
 66
   257
 43
1.0
 76
     1
 77
     6
 78
     2
 67
     7
 79
     5
170
     0
171
     0
290
     0
174
     0
 93
       13
 44
0.0
173
     0
291
     1
 45
0.0
1001
ACAD
1000
AcDbSavedByObjectVersion
1070
     0
  0
VISUALSTYLE
  5
459
102
{ACAD_REACTORS
330
29
102
}
102
{ACAD_XDICTIONARY
360
1EFA
102
}
330
29
100
AcDbVisualStyle
  2
Hidden
 70
     6
 71
     1
 72
     2
 73
     2
 90
        0
 40
0.6
 41
30.0
 62
     5
 63
     7
 74
     2
 91
        2
 64
     7
 65
   257
 75
     2
175
     1
 42
40.0
 92
        0
 66
   257
 43
1.0
 76
     1
 77
     6
 78
     2
 67
     7
 79
     3
170
     0
171
     0
290
     0
174
     0
 93
        1
 44
0.0
173
     0
291
     0
 45
0.0
1001
ACAD
1000
AcDbSavedByObjectVersion
1070
     0
  0
VISUALSTYLE
  5
463
102
{ACAD_REACTORS
330
29
102
}
102
{ACAD_XDICTIONARY
360
1F0E
102
}
330
29
100
AcDbVisualStyle
  2
JitterOff
 70
    20
 71
     2
 72
     2
 73
     0
 90
        0
 40
0.6
 41
30.0
 62
     5
 63
     7
 74
     1
 91
        4
 64
     7
 65
   257
 75
     1
175
     1
 42
1.0
 92
       10
 66
     7
 43
1.0
 76
     1
 77
     6
 78
     2
 67
     7
 79
     5
170
     0
171
     0
290
     0
174
     0
 93
        1
 44
0.0
173
     0
291
     1
 45
0.0
1001
ACAD
1000
AcDbSavedByObjectVersion
1070
     0
  0
VISUALSTYLE
  5
460
102
{ACAD_REACTORS
330
29
102
}
102
{ACAD_XDICTIONARY
360
1F08
102
}
330
29
100
AcDbVisualStyle
  2
Linepattern
 70
    14
 71
     2
 72
     2
 73
     0
 90
        0
 40
0.6
 41
30.0
 62
     5
 63
     7
 74
     1
 91
        4
 64
     7
 65
   257
 75
     7
175
     7
 42
1.0
 92
        8
 66
     7
 43
1.0
 76
     1
 77
     6
 78
     2
 67
     7
 79
     5
170
     0
171
     0
290
     0
174
     0
 93
        1
 44
0.0
173
     0
291
     1
 45
0.0
1001
ACAD
1000
AcDbSavedByObjectVersion
1070
     0
  0
VISUALSTYLE
  5
464
102
{ACAD_REACTORS
330
29
102
}
102
{ACAD_XDICTIONARY
360
1F10
102
}
330
29
100
AcDbVisualStyle
  2
OverhangOff
 70
    21
 71
     2
 72
     2
 73
     0
 90
        0
 40
0.6
 41
30.0
 62
     5
 63
     7
 74
     1
 91
        4
 64
     7
 65
   257
 75
     1
175
     1
 42
1.0
 92
        9
 66
     7
 43
1.0
 76
     1
 77
     6
 78
     2
 67
     7
 79
     5
170
     0
171
     0
290
     0
174
     0
 93
        1
 44
0.0
173
     0
291
     1
 45
0.0
1001
ACAD
1000
AcDbSavedByObjectVersion
1070
     0
  0
VISUALSTYLE
  5
45B
102
{ACAD_REACTORS
330
29
102
}
102
{ACAD_XDICTIONARY
360
1EFE
102
}
330
29
100
AcDbVisualStyle
  2
Realistic
 70
     8
 71
     2
 72
     3
 73
     0
 90
        2
 40
0.6
 41
30.0
 62
     5
 63
     7
 74
     0
 91
        0
 64
     7
 65
   257
 75
     1
175
     1
 42
1.0
 92
        8
 66
   257
 43
1.0
 76
     1
 77
     6
 78
     2
 67
     7
 79
     3
170
     0
171
     0
290
     0
174
     0
 93
       13
 44
0.0
173
     0
291
     0
 45
0.0
1001
ACAD
1000
AcDbSavedByObjectVersion
1070
     0
  0
VISUALSTYLE
  5
46A
102
{ACAD_REACTORS
330
29
102
}
102
{ACAD_XDICTIONARY
360
1F1C
102
}
330
29
100
AcDbVisualStyle
  2
Shaded
 70
    27
 71
     2
 72
     2
 73
     1
 90
        2
 40
0.6
 41
30.0
 62
     5
 63
     7
 74
     0
 91
        4
 64
     7
 65
   257
 75
     1
175
     1
 42
1.0
 92
        8
 66
   257
 43
1.0
 76
     1
 77
     6
 78
     2
 67
   251
 79
     3
170
     0
171
     0
290
     0
174
     0
 93
        5
 44
0.0
173
     0
291
     0
 45
0.0
1001
ACAD
1000
AcDbSavedByObjectVersion
1070
     0
  0
VISUALSTYLE
  5
469
102
{ACAD_REACTORS
330
29
102
}
102
{ACAD_XDICTIONARY
360
1F1A
102
}
330
29
100
AcDbVisualStyle
  2
Shaded with edges
 70
    26
 71
     2
 72
     2
 73
     1
 90
        2
 40
0.6
 41
30.0
 62
     5
 63
     7
 74
     1
 91
       10
 64
     7
 65
   257
 75
     2
175
     1
 42
1.0
 92
        8
 66
   257
 43
1.0
 76
     1
 77
     6
 78
     2
 67
     7
 79
     3
170
     0
171
     0
290
     0
174
     0
 93
        5
 44
0.0
173
     0
291
     0
 45
0.0
1001
ACAD
1000
AcDbSavedByObjectVersion
1070
     0
  0
VISUALSTYLE
  5
466
102
{ACAD_REACTORS
330
29
102
}
102
{ACAD_XDICTIONARY
360
1F14
102
}
330
29
100
AcDbVisualStyle
  2
Shades of Gray
 70
    23
 71
     2
 72
     2
 73
     3
 90
        0
 40
0.6
 41
30.0
 62
     5
 63
     7
 74
     2
 91
        2
 64
     7
 65
     7
 75
     1
175
     1
 42
40.0
 92
        8
 66
     7
 43
1.0
 76
     1
 77
     6
 78
     2
 67
     7
 79
     3
170
     0
171
     0
290
     0
174
     0
 93
        1
 44
0.0
173
     0
291
     0
 45
0.0
1001
ACAD
1000
AcDbSavedByObjectVersion
1070
     0
  0
VISUALSTYLE
  5
467
102
{ACAD_REACTORS
330
29
102
}
102
{ACAD_XDICTIONARY
360
1F16
102
}
330
29
100
AcDbVisualStyle
  2
Sketchy
 70
    24
 71
     1
 72
     2
 73
     2
 90
        0
 40
0.6
 41
30.0
 62
     5
 63
     7
 74
     2
 91
        2
 64
     7
 65
     7
 75
     1
175
     1
 42
40.0
 92
       11
 66
     7
 43
1.0
 76
     1
 77
     6
 78
     2
 67
     7
 79
     6
170
     0
171
     0
290
     0
174
     0
 93
        1
 44
0.0
173
     0
291
     0
 45
0.0
1001
ACAD
1000
AcDbSavedByObjectVersion
1070
     0
  0
VISUALSTYLE
  5
45F
102
{ACAD_REACTORS
330
29
102
}
102
{ACAD_XDICTIONARY
360
1F06
102
}
330
29
100
AcDbVisualStyle
  2
Thicken
 70
    13
 71
     2
 72
     2
 73
     0
 90
        0
 40
0.6
 41
30.0
 62
     5
 63
     7
 74
     1
 91
        4
 64
     7
 65
   257
 75
     1
175
     1
 42
1.0
 92
       12
 66
     7
 43
1.0
 76
     1
 77
     6
 78
     2
 67
     7
 79
     5
170
     0
171
     0
290
     0
174
     0
 93
        1
 44
0.0
173
     0
291
     1
 45
0.0
1001
ACAD
1000
AcDbSavedByObjectVersion
1070
     0
  0
VISUALSTYLE
  5
458
102
{ACAD_REACTORS
330
29
102
}
102
{ACAD_XDICTIONARY
360
1EF8
102
}
330
29
100
AcDbVisualStyle
  2
Wireframe
 70
     5
 71
     0
 72
     2
 73
     0
 90
        0
 40
0.6
 41
30.0
 62
     5
 63
     7
 74
     1
 91
        4
 64
     7
 65
   257
 75
     1
175
     1
 42
1.0
 92
        0
 66
   257
 43
1.0
 76
     1
 77
     6
 78
     2
 67
     7
 79
     5
170
     0
171
     0
290
     0
174
     0
 93
        1
 44
0.0
173
     0
291
     0
 45
0.0
1001
ACAD
1000
AcDbSavedByObjectVersion
1070
     0
  0
VISUALSTYLE
  5
468
102
{ACAD_REACTORS
330
29
102
}
102
{ACAD_XDICTIONARY
360
1F18
102
}
330
29
100
AcDbVisualStyle
  2
X-Ray
 70
    25
 71
     2
 72
     2
 73
     1
 90
        1
 40
0.5
 41
30.0
 62
     5
 63
     7
 74
     1
 91
        0
 64
     7
 65
   257
 75
     1
175
     1
 42
1.0
 92
        8
 66
     7
 43
1.0
 76
     1
 77
     6
 78
     2
 67
     7
 79
     3
170
     0
171
     0
290
     0
174
     0
 93
       13
 44
0.0
173
     0
291
     0
 45
0.0
1001
ACAD
1000
AcDbSavedByObjectVersion
1070
     0
  0
XRECORD
  5
1EE2
102
{ACAD_REACTORS
330
1EE1
102
}
330
1EE1
100
AcDbXrecord
280
     1
340
28
  0
XRECORD
  5
1EE3
102
{ACAD_REACTORS
330
1EE1
102
}
330
1EE1
100
AcDbXrecord
280
     1
340
7
  0
DICTIONARYVAR
  5
44D
102
{ACAD_REACTORS
330
44C
102
}
330
44C
100
DictionaryVariables
280
     0
  1
1:1
  0
DICTIONARYVAR
  5
1ED3
102
{ACAD_REACTORS
330
44C
102
}
330
44C
100
DictionaryVariables
280
     0
  1
Standard
  0
DICTIONARYVAR
  5
1EDE
102
{ACAD_REACTORS
330
44C
102
}
330
44C
100
DictionaryVariables
280
     0
  1
Standard
  0
DICTIONARYVAR
  5
1EDF
102
{ACAD_REACTORS
330
44C
102
}
330
44C
100
DictionaryVariables
280
     0
  1
0
  0
DICTIONARYVAR
  5
1EE0
102
{ACAD_REACTORS
330
44C
102
}
330
44C
100
DictionaryVariables
280
     0
  1
1
  0
DICTIONARYVAR
  5
1EE7
102
{ACAD_REACTORS
330
44C
102
}
330
44C
100
DictionaryVariables
280
     0
  1
1
  0
DICTIONARYVAR
  5
450
102
{ACAD_REACTORS
330
44C
102
}
330
44C
100
DictionaryVariables
280
     0
  1
0
  0
DICTIONARY
  5
1EEC
330
4F
100
AcDbDictionary
280
     1
281
     1
  3
ACAD_XREC_ROUNDTRIP
360
1EED
  0
DICTIONARY
  5
1EE8
330
10
100
AcDbDictionary
280
     1
281
     1
  3
ACAD_XREC_ROUNDTRIP
360
1EE9
  0
DICTIONARY
  5
1EEA
330
6
100
AcDbDictionary
280
     1
281
     1
  3
ACAD_XREC_ROUNDTRIP
360
1EEB
  0
DICTIONARY
  5
1F1E
330
1ECF
100
AcDbDictionary
280
     1
281
     1
  3
ACAD_XREC_ROUNDTRIP
360
1F1F
  0
DICTIONARY
  5
1EF6
330
457
100
AcDbDictionary
280
     1
281
     1
  3
ACAD_XREC_ROUNDTRIP
360
1EF7
  0
DICTIONARY
  5
1EFC
330
45A
100
AcDbDictionary
280
     1
281
     1
  3
ACAD_XREC_ROUNDTRIP
360
1EFD
  0
DICTIONARY
  5
1F04
330
45E
100
AcDbDictionary
280
     1
281
     1
  3
ACAD_XREC_ROUNDTRIP
360
1F05
  0
DICTIONARY
  5
1F0C
330
462
100
AcDbDictionary
280
     1
281
     1
  3
ACAD_XREC_ROUNDTRIP
360
1F0D
  0
DICTIONARY
  5
1F00
330
45C
100
AcDbDictionary
280
     1
281
     1
  3
ACAD_XREC_ROUNDTRIP
360
1F01
  0
DICTIONARY
  5
1F02
330
45D
100
AcDbDictionary
280
     1
281
     1
  3
ACAD_XREC_ROUNDTRIP
360
1F03
  0
DICTIONARY
  5
1F12
330
465
100
AcDbDictionary
280
     1
281
     1
  3
ACAD_XREC_ROUNDTRIP
360
1F13
  0
DICTIONARY
  5
1F0A
330
461
100
AcDbDictionary
280
     1
281
     1
  3
ACAD_XREC_ROUNDTRIP
360
1F0B
  0
DICTIONARY
  5
1EEE
330
453
100
AcDbDictionary
280
     1
281
     1
  3
ACAD_XREC_ROUNDTRIP
360
1EEF
  0
DICTIONARY
  5
1EF0
330
454
100
AcDbDictionary
280
     1
281
     1
  3
ACAD_XREC_ROUNDTRIP
360
1EF1
  0
DICTIONARY
  5
1EF2
330
455
100
AcDbDictionary
280
     1
281
     1
  3
ACAD_XREC_ROUNDTRIP
360
1EF3
  0
DICTIONARY
  5
1EF4
330
456
100
AcDbDictionary
280
     1
281
     1
  3
ACAD_XREC_ROUNDTRIP
360
1EF5
  0
DICTIONARY
  5
1EFA
330
459
100
AcDbDictionary
280
     1
281
     1
  3
ACAD_XREC_ROUNDTRIP
360
1EFB
  0
DICTIONARY
  5
1F0E
330
463
100
AcDbDictionary
280
     1
281
     1
  3
ACAD_XREC_ROUNDTRIP
360
1F0F
  0
DICTIONARY
  5
1F08
330
460
100
AcDbDictionary
280
     1
281
     1
  3
ACAD_XREC_ROUNDTRIP
360
1F09
  0
DICTIONARY
  5
1F10
330
464
100
AcDbDictionary
280
     1
281
     1
  3
ACAD_XREC_ROUNDTRIP
360
1F11
  0
DICTIONARY
  5
1EFE
330
45B
100
AcDbDictionary
280
     1
281
     1
  3
ACAD_XREC_ROUNDTRIP
360
1EFF
  0
DICTIONARY
  5
1F1C
330
46A
100
AcDbDictionary
280
     1
281
     1
  3
ACAD_XREC_ROUNDTRIP
360
1F1D
  0
DICTIONARY
  5
1F1A
330
469
100
AcDbDictionary
280
     1
281
     1
  3
ACAD_XREC_ROUNDTRIP
360
1F1B
  0
DICTIONARY
  5
1F14
330
466
100
AcDbDictionary
280
     1
281
     1
  3
ACAD_XREC_ROUNDTRIP
360
1F15
  0
DICTIONARY
  5
1F16
330
467
100
AcDbDictionary
280
     1
281
     1
  3
ACAD_XREC_ROUNDTRIP
360
1F17
  0
DICTIONARY
  5
1F06
330
45F
100
AcDbDictionary
280
     1
281
     1
  3
ACAD_XREC_ROUNDTRIP
360
1F07
  0
DICTIONARY
  5
1EF8
330
458
100
AcDbDictionary
280
     1
281
     1
  3
ACAD_XREC_ROUNDTRIP
360
1EF9
  0
DICTIONARY
  5
1F18
330
468
100
AcDbDictionary
280
     1
281
     1
  3
ACAD_XREC_ROUNDTRIP
360
1F19
  0
XRECORD
  5
1EED
102
{ACAD_REACTORS
330
1EEC
102
}
330
1EEC
100
AcDbXrecord
280
     1
102
MATERIAL
148
0.0
149
0.0
149
0.0
 93
        0
 94
      127
282
     0
 72
     1
 77
     1
171
     1
175
     1
179
     1
273
     0
  0
XRECORD
  5
1EE9
102
{ACAD_REACTORS
330
1EE8
102
}
330
1EE8
100
AcDbXrecord
280
     1
102
MATERIAL
148
0.0
149
0.0
149
0.0
 93
        0
 94
      127
282
     0
 72
     1
 77
     1
171
     1
175
     1
179
     1
273
     0
  0
XRECORD
  5
1EEB
102
{ACAD_REACTORS
330
1EEA
102
}
330
1EEA
100
AcDbXrecord
280
     1
102
MATERIAL
148
0.0
149
0.0
149
0.0
 93
        0
 94
      127
282
     0
 72
     1
 77
     1
171
     1
175
     1
179
     1
273
     0
  0
XRECORD
  5
1F1F
102
{ACAD_REACTORS
330
1F1E
102
}
330
1F1E
100
AcDbXrecord
280
     1
102
ACAD_ROUNDTRIP_2010_MLEADER_STYLE
  0
XRECORD
  5
1EF7
102
{ACAD_REACTORS
330
1EF6
102
}
330
1EF6
100
AcDbXrecord
280
     1
102
RTVSPropertyOp0
 70
     1
102
RTVSPropertyOp1
 70
     1
102
RTVSPropertyOp2
 70
     1
102
RTVSPropertyOp3
 70
     1
102
RTVSPropertyOp4
 70
     1
102
RTVSPropertyOp5
 70
     1
102
RTVSPropertyOp6
 70
     1
102
RTVSPropertyOp7
 70
     1
102
RTVSPropertyOp8
 70
     1
102
RTVSPropertyOp9
 70
     1
102
RTVSPropertyOp10
 70
     1
102
RTVSPropertyOp11
 70
     1
102
RTVSPropertyOp12
 70
     1
102
RTVSPropertyOp13
 70
     1
102
RTVSPropertyOp14
 70
     1
102
RTVSPropertyOp15
 70
     1
102
RTVSPropertyOp16
 70
     1
102
RTVSPropertyOp17
 70
     1
102
RTVSPropertyOp18
 70
     1
102
RTVSPropertyOp19
 70
     1
102
RTVSPropertyOp20
 70
     1
102
RTVSPropertyOp21
 70
     1
102
RTVSPropertyOp22
 70
     1
102
RTVSPropertyOp23
 70
     1
102
RTVSPropertyOp24
 70
     1
102
RTVSPropertyOp25
 70
     1
102
RTVSPropertyOp26
 70
     1
102
RTVSPropertyOp27
 70
     1
102
RTVSPropertyOp28
 70
     1
102
RTVSPropertyOp29
 70
     1
102
RTVSPropertyOp30
 70
     1
102
RTVSPropertyOp31
 70
     1
102
RTVSPropertyOp32
 70
     1
102
RTVSPropertyOp33
 70
     1
102
RTVSPropertyOp34
 70
     1
102
RTVSPropertyOp35
 70
     1
102
RTVSPropertyOp36
 70
     1
102
RTVSPropertyOp37
 70
     1
102
RTVSPropertyOp38
 70
     1
102
RTVSPropertyOp39
 70
     1
102
RTVSPropertyOp40
 70
     1
102
RTVSPropertyOp41
 70
     1
102
RTVSPropertyOp42
 70
     1
102
RTVSPropertyOp43
 70
     1
102
RTVSPropertyOp44
 70
     1
102
RTVSPropertyOp45
 70
     1
102
RTVSPropertyOp46
 70
     1
102
RTVSPropertyOp47
 70
     1
102
RTVSPropertyOp48
 70
     1
102
RTVSPropertyOp49
 70
     1
102
RTVSPropertyOp50
 70
     1
102
RTVSPropertyOp51
 70
     0
102
RTVSPropertyOp52
 70
     0
102
RTVSPropertyOp53
 70
     1
102
RTVSPropertyOp54
 70
     1
102
RTVSPropertyOp55
 70
     1
102
RTVSPropertyOp56
 70
     1
102
RTVSPropertyOp57
 70
     1
102
RTVSPost2010Prop28
280
     1
102
RTVSPost2010PropOp28
 70
     1
102
RTVSPost2010Prop29
280
     1
102
RTVSPost2010PropOp29
 70
     1
102
RTVSPost2010Prop30
280
     0
102
RTVSPost2010PropOp30
 70
     1
102
RTVSPost2010Prop31
280
     0
102
RTVSPost2010PropOp31
 70
     1
102
RTVSPost2010Prop32
280
     0
102
RTVSPost2010PropOp32
 70
     1
102
RTVSPost2010Prop33
280
     0
102
RTVSPost2010PropOp33
 70
     1
102
RTVSPost2010Prop34
280
     0
102
RTVSPost2010PropOp34
 70
     1
102
RTVSPost2010Prop35
280
     0
102
RTVSPost2010PropOp35
 70
     1
102
RTVSPost2010Prop36
280
     0
102
RTVSPost2010PropOp36
 70
     1
102
RTVSPost2010Prop37
 90
       50
102
RTVSPost2010PropOp37
 70
     1
102
RTVSPost2010Prop38
140
0.0
102
RTVSPost2010PropOp38
 70
     1
102
RTVSPost2010Prop39
140
1.0
102
RTVSPost2010PropOp39
 70
     1
102
RTVSPost2010Prop40
 90
        0
102
RTVSPost2010PropOp40
 70
     1
102
RTVSPost2010Prop41ColorIndex
 90
       18
102
RTVSPost2010Prop41ColorRGB
 90
        0
102
RTVSPost2010PropOp41
 70
     1
102
RTVSPost2010Prop42
 90
       50
102
RTVSPost2010PropOp42
 70
     1
102
RTVSPost2010Prop43
 90
        3
102
RTVSPost2010PropOp43
 70
     1
102
RTVSPost2010Prop44ColorIndex
 90
        5
102
RTVSPost2010Prop44ColorRGB
 90
      255
102
RTVSPost2010PropOp44
 70
     1
102
RTVSPost2010Prop45
280
     0
102
RTVSPost2010PropOp45
 70
     1
102
RTVSPost2010Prop46
 90
       50
102
RTVSPost2010PropOp46
 70
     1
102
RTVSPost2010Prop47
 90
       50
102
RTVSPost2010PropOp47
 70
     1
102
RTVSPost2010Prop48
 90
       50
102
RTVSPost2010PropOp48
 70
     1
102
RTVSPost2010Prop49
280
     0
102
RTVSPost2010PropOp49
 70
     1
102
RTVSPost2010Prop50
 90
       50
102
RTVSPost2010PropOp50
 70
     1
102
RTVSPost2010Prop51ColorIndex
 90
      256
102
RTVSPost2010Prop51ColorRGB
 90
-16777216
102
RTVSPost2010PropOp51
 70
     0
102
RTVSPost2010Prop52
140
1.0
102
RTVSPost2010PropOp52
 70
     0
102
RTVSPost2010Prop53
 90
        2
102
RTVSPost2010PropOp53
 70
     1
102
RTVSPost2010Prop54
  1
strokes_ogs.tif
102
RTVSPost2010PropOp54
 70
     1
102
RTVSPost2010Prop55
280
     0
102
RTVSPost2010PropOp55
 70
     1
102
RTVSPost2010Prop56
140
1.0
102
RTVSPost2010PropOp56
 70
     1
102
RTVSPost2010Prop57
140
1.0
102
RTVSPost2010PropOp57
 70
     1
  0
XRECORD
  5
1EFD
102
{ACAD_REACTORS
330
1EFC
102
}
330
1EFC
100
AcDbXrecord
280
     1
102
RTVSPropertyOp0
 70
     1
102
RTVSPropertyOp1
 70
     1
102
RTVSPropertyOp2
 70
     1
102
RTVSPropertyOp3
 70
     1
102
RTVSPropertyOp4
 70
     1
102
RTVSPropertyOp5
 70
     1
102
RTVSPropertyOp6
 70
     1
102
RTVSPropertyOp7
 70
     1
102
RTVSPropertyOp8
 70
     1
102
RTVSPropertyOp9
 70
     1
102
RTVSPropertyOp10
 70
     1
102
RTVSPropertyOp11
 70
     1
102
RTVSPropertyOp12
 70
     1
102
RTVSPropertyOp13
 70
     1
102
RTVSPropertyOp14
 70
     1
102
RTVSPropertyOp15
 70
     1
102
RTVSPropertyOp16
 70
     1
102
RTVSPropertyOp17
 70
     1
102
RTVSPropertyOp18
 70
     1
102
RTVSPropertyOp19
 70
     1
102
RTVSPropertyOp20
 70
     1
102
RTVSPropertyOp21
 70
     1
102
RTVSPropertyOp22
 70
     1
102
RTVSPropertyOp23
 70
     1
102
RTVSPropertyOp24
 70
     1
102
RTVSPropertyOp25
 70
     1
102
RTVSPropertyOp26
 70
     1
102
RTVSPropertyOp27
 70
     1
102
RTVSPropertyOp28
 70
     1
102
RTVSPropertyOp29
 70
     1
102
RTVSPropertyOp30
 70
     1
102
RTVSPropertyOp31
 70
     1
102
RTVSPropertyOp32
 70
     1
102
RTVSPropertyOp33
 70
     1
102
RTVSPropertyOp34
 70
     1
102
RTVSPropertyOp35
 70
     1
102
RTVSPropertyOp36
 70
     1
102
RTVSPropertyOp37
 70
     1
102
RTVSPropertyOp38
 70
     1
102
RTVSPropertyOp39
 70
     1
102
RTVSPropertyOp40
 70
     1
102
RTVSPropertyOp41
 70
     1
102
RTVSPropertyOp42
 70
     1
102
RTVSPropertyOp43
 70
     1
102
RTVSPropertyOp44
 70
     1
102
RTVSPropertyOp45
 70
     1
102
RTVSPropertyOp46
 70
     1
102
RTVSPropertyOp47
 70
     1
102
RTVSPropertyOp48
 70
     1
102
RTVSPropertyOp49
 70
     1
102
RTVSPropertyOp50
 70
     1
102
RTVSPropertyOp51
 70
     0
102
RTVSPropertyOp52
 70
     0
102
RTVSPropertyOp53
 70
     1
102
RTVSPropertyOp54
 70
     1
102
RTVSPropertyOp55
 70
     1
102
RTVSPropertyOp56
 70
     1
102
RTVSPropertyOp57
 70
     1
102
RTVSPost2010Prop28
280
     0
102
RTVSPost2010PropOp28
 70
     1
102
RTVSPost2010Prop29
280
     1
102
RTVSPost2010PropOp29
 70
     1
102
RTVSPost2010Prop30
280
     1
102
RTVSPost2010PropOp30
 70
     1
102
RTVSPost2010Prop31
280
     0
102
RTVSPost2010PropOp31
 70
     1
102
RTVSPost2010Prop32
280
     0
102
RTVSPost2010PropOp32
 70
     1
102
RTVSPost2010Prop33
280
     0
102
RTVSPost2010PropOp33
 70
     1
102
RTVSPost2010Prop34
280
     0
102
RTVSPost2010PropOp34
 70
     1
102
RTVSPost2010Prop35
280
     0
102
RTVSPost2010PropOp35
 70
     1
102
RTVSPost2010Prop36
280
     0
102
RTVSPost2010PropOp36
 70
     1
102
RTVSPost2010Prop37
 90
       50
102
RTVSPost2010PropOp37
 70
     1
102
RTVSPost2010Prop38
140
0.0
102
RTVSPost2010PropOp38
 70
     1
102
RTVSPost2010Prop39
140
1.0
102
RTVSPost2010PropOp39
 70
     1
102
RTVSPost2010Prop40
 90
        0
102
RTVSPost2010PropOp40
 70
     1
102
RTVSPost2010Prop41ColorIndex
 90
       18
102
RTVSPost2010Prop41ColorRGB
 90
        0
102
RTVSPost2010PropOp41
 70
     1
102
RTVSPost2010Prop42
 90
       50
102
RTVSPost2010PropOp42
 70
     1
102
RTVSPost2010Prop43
 90
        3
102
RTVSPost2010PropOp43
 70
     1
102
RTVSPost2010Prop44ColorIndex
 90
        5
102
RTVSPost2010Prop44ColorRGB
 90
      255
102
RTVSPost2010PropOp44
 70
     1
102
RTVSPost2010Prop45
280
     0
102
RTVSPost2010PropOp45
 70
     1
102
RTVSPost2010Prop46
 90
       50
102
RTVSPost2010PropOp46
 70
     1
102
RTVSPost2010Prop47
 90
       50
102
RTVSPost2010PropOp47
 70
     1
102
RTVSPost2010Prop48
 90
       50
102
RTVSPost2010PropOp48
 70
     1
102
RTVSPost2010Prop49
280
     0
102
RTVSPost2010PropOp49
 70
     1
102
RTVSPost2010Prop50
 90
       50
102
RTVSPost2010PropOp50
 70
     1
102
RTVSPost2010Prop51ColorIndex
 90
      256
102
RTVSPost2010Prop51ColorRGB
 90
-16777216
102
RTVSPost2010PropOp51
 70
     0
102
RTVSPost2010Prop52
140
1.0
102
RTVSPost2010PropOp52
 70
     0
102
RTVSPost2010Prop53
 90
        2
102
RTVSPost2010PropOp53
 70
     1
102
RTVSPost2010Prop54
  1
strokes_ogs.tif
102
RTVSPost2010PropOp54
 70
     1
102
RTVSPost2010Prop55
280
     0
102
RTVSPost2010PropOp55
 70
     1
102
RTVSPost2010Prop56
140
1.0
102
RTVSPost2010PropOp56
 70
     1
102
RTVSPost2010Prop57
140
1.0
102
RTVSPost2010PropOp57
 70
     1
  0
XRECORD
  5
1F05
102
{ACAD_REACTORS
330
1F04
102
}
330
1F04
100
AcDbXrecord
280
     1
102
RTVSPropertyOp0
 70
     1
102
RTVSPropertyOp1
 70
     1
102
RTVSPropertyOp2
 70
     1
102
RTVSPropertyOp3
 70
     1
102
RTVSPropertyOp4
 70
     1
102
RTVSPropertyOp5
 70
     1
102
RTVSPropertyOp6
 70
     1
102
RTVSPropertyOp7
 70
     1
102
RTVSPropertyOp8
 70
     1
102
RTVSPropertyOp9
 70
     1
102
RTVSPropertyOp10
 70
     1
102
RTVSPropertyOp11
 70
     1
102
RTVSPropertyOp12
 70
     1
102
RTVSPropertyOp13
 70
     1
102
RTVSPropertyOp14
 70
     1
102
RTVSPropertyOp15
 70
     1
102
RTVSPropertyOp16
 70
     1
102
RTVSPropertyOp17
 70
     1
102
RTVSPropertyOp18
 70
     1
102
RTVSPropertyOp19
 70
     1
102
RTVSPropertyOp20
 70
     1
102
RTVSPropertyOp21
 70
     1
102
RTVSPropertyOp22
 70
     1
102
RTVSPropertyOp23
 70
     1
102
RTVSPropertyOp24
 70
     1
102
RTVSPropertyOp25
 70
     1
102
RTVSPropertyOp26
 70
     1
102
RTVSPropertyOp27
 70
     1
102
RTVSPropertyOp28
 70
     1
102
RTVSPropertyOp29
 70
     1
102
RTVSPropertyOp30
 70
     1
102
RTVSPropertyOp31
 70
     1
102
RTVSPropertyOp32
 70
     1
102
RTVSPropertyOp33
 70
     1
102
RTVSPropertyOp34
 70
     1
102
RTVSPropertyOp35
 70
     1
102
RTVSPropertyOp36
 70
     1
102
RTVSPropertyOp37
 70
     1
102
RTVSPropertyOp38
 70
     1
102
RTVSPropertyOp39
 70
     1
102
RTVSPropertyOp40
 70
     1
102
RTVSPropertyOp41
 70
     1
102
RTVSPropertyOp42
 70
     1
102
RTVSPropertyOp43
 70
     1
102
RTVSPropertyOp44
 70
     1
102
RTVSPropertyOp45
 70
     1
102
RTVSPropertyOp46
 70
     1
102
RTVSPropertyOp47
 70
     1
102
RTVSPropertyOp48
 70
     1
102
RTVSPropertyOp49
 70
     1
102
RTVSPropertyOp50
 70
     1
102
RTVSPropertyOp51
 70
     0
102
RTVSPropertyOp52
 70
     0
102
RTVSPropertyOp53
 70
     1
102
RTVSPropertyOp54
 70
     1
102
RTVSPropertyOp55
 70
     1
102
RTVSPropertyOp56
 70
     1
102
RTVSPropertyOp57
 70
     1
102
RTVSPost2010Prop28
280
     0
102
RTVSPost2010PropOp28
 70
     1
102
RTVSPost2010Prop29
280
     1
102
RTVSPost2010PropOp29
 70
     1
102
RTVSPost2010Prop30
280
     1
102
RTVSPost2010PropOp30
 70
     1
102
RTVSPost2010Prop31
280
     0
102
RTVSPost2010PropOp31
 70
     1
102
RTVSPost2010Prop32
280
     0
102
RTVSPost2010PropOp32
 70
     1
102
RTVSPost2010Prop33
280
     0
102
RTVSPost2010PropOp33
 70
     1
102
RTVSPost2010Prop34
280
     0
102
RTVSPost2010PropOp34
 70
     1
102
RTVSPost2010Prop35
280
     0
102
RTVSPost2010PropOp35
 70
     1
102
RTVSPost2010Prop36
280
     0
102
RTVSPost2010PropOp36
 70
     1
102
RTVSPost2010Prop37
 90
       50
102
RTVSPost2010PropOp37
 70
     1
102
RTVSPost2010Prop38
140
0.0
102
RTVSPost2010PropOp38
 70
     1
102
RTVSPost2010Prop39
140
1.0
102
RTVSPost2010PropOp39
 70
     1
102
RTVSPost2010Prop40
 90
        0
102
RTVSPost2010PropOp40
 70
     1
102
RTVSPost2010Prop41ColorIndex
 90
       18
102
RTVSPost2010Prop41ColorRGB
 90
        0
102
RTVSPost2010PropOp41
 70
     1
102
RTVSPost2010Prop42
 90
       50
102
RTVSPost2010PropOp42
 70
     1
102
RTVSPost2010Prop43
 90
        3
102
RTVSPost2010PropOp43
 70
     1
102
RTVSPost2010Prop44ColorIndex
 90
        5
102
RTVSPost2010Prop44ColorRGB
 90
      255
102
RTVSPost2010PropOp44
 70
     1
102
RTVSPost2010Prop45
280
     0
102
RTVSPost2010PropOp45
 70
     1
102
RTVSPost2010Prop46
 90
       50
102
RTVSPost2010PropOp46
 70
     1
102
RTVSPost2010Prop47
 90
       50
102
RTVSPost2010PropOp47
 70
     1
102
RTVSPost2010Prop48
 90
       50
102
RTVSPost2010PropOp48
 70
     1
102
RTVSPost2010Prop49
280
     0
102
RTVSPost2010PropOp49
 70
     1
102
RTVSPost2010Prop50
 90
       50
102
RTVSPost2010PropOp50
 70
     1
102
RTVSPost2010Prop51ColorIndex
 90
      256
102
RTVSPost2010Prop51ColorRGB
 90
-16777216
102
RTVSPost2010PropOp51
 70
     0
102
RTVSPost2010Prop52
140
1.0
102
RTVSPost2010PropOp52
 70
     0
102
RTVSPost2010Prop53
 90
        2
102
RTVSPost2010PropOp53
 70
     1
102
RTVSPost2010Prop54
  1
strokes_ogs.tif
102
RTVSPost2010PropOp54
 70
     1
102
RTVSPost2010Prop55
280
     0
102
RTVSPost2010PropOp55
 70
     1
102
RTVSPost2010Prop56
140
1.0
102
RTVSPost2010PropOp56
 70
     1
102
RTVSPost2010Prop57
140
1.0
102
RTVSPost2010PropOp57
 70
     1
  0
XRECORD
  5
1F0D
102
{ACAD_REACTORS
330
1F0C
102
}
330
1F0C
100
AcDbXrecord
280
     1
102
RTVSPropertyOp0
 70
     1
102
RTVSPropertyOp1
 70
     1
102
RTVSPropertyOp2
 70
     1
102
RTVSPropertyOp3
 70
     1
102
RTVSPropertyOp4
 70
     1
102
RTVSPropertyOp5
 70
     1
102
RTVSPropertyOp6
 70
     1
102
RTVSPropertyOp7
 70
     1
102
RTVSPropertyOp8
 70
     1
102
RTVSPropertyOp9
 70
     1
102
RTVSPropertyOp10
 70
     1
102
RTVSPropertyOp11
 70
     1
102
RTVSPropertyOp12
 70
     1
102
RTVSPropertyOp13
 70
     1
102
RTVSPropertyOp14
 70
     1
102
RTVSPropertyOp15
 70
     1
102
RTVSPropertyOp16
 70
     1
102
RTVSPropertyOp17
 70
     1
102
RTVSPropertyOp18
 70
     1
102
RTVSPropertyOp19
 70
     1
102
RTVSPropertyOp20
 70
     1
102
RTVSPropertyOp21
 70
     1
102
RTVSPropertyOp22
 70
     1
102
RTVSPropertyOp23
 70
     1
102
RTVSPropertyOp24
 70
     1
102
RTVSPropertyOp25
 70
     1
102
RTVSPropertyOp26
 70
     1
102
RTVSPropertyOp27
 70
     1
102
RTVSPropertyOp28
 70
     1
102
RTVSPropertyOp29
 70
     1
102
RTVSPropertyOp30
 70
     1
102
RTVSPropertyOp31
 70
     1
102
RTVSPropertyOp32
 70
     1
102
RTVSPropertyOp33
 70
     1
102
RTVSPropertyOp34
 70
     1
102
RTVSPropertyOp35
 70
     1
102
RTVSPropertyOp36
 70
     1
102
RTVSPropertyOp37
 70
     1
102
RTVSPropertyOp38
 70
     1
102
RTVSPropertyOp39
 70
     1
102
RTVSPropertyOp40
 70
     1
102
RTVSPropertyOp41
 70
     1
102
RTVSPropertyOp42
 70
     1
102
RTVSPropertyOp43
 70
     1
102
RTVSPropertyOp44
 70
     1
102
RTVSPropertyOp45
 70
     1
102
RTVSPropertyOp46
 70
     1
102
RTVSPropertyOp47
 70
     1
102
RTVSPropertyOp48
 70
     1
102
RTVSPropertyOp49
 70
     1
102
RTVSPropertyOp50
 70
     1
102
RTVSPropertyOp51
 70
     0
102
RTVSPropertyOp52
 70
     0
102
RTVSPropertyOp53
 70
     1
102
RTVSPropertyOp54
 70
     1
102
RTVSPropertyOp55
 70
     1
102
RTVSPropertyOp56
 70
     1
102
RTVSPropertyOp57
 70
     1
102
RTVSPost2010Prop28
280
     0
102
RTVSPost2010PropOp28
 70
     1
102
RTVSPost2010Prop29
280
     1
102
RTVSPost2010PropOp29
 70
     1
102
RTVSPost2010Prop30
280
     1
102
RTVSPost2010PropOp30
 70
     1
102
RTVSPost2010Prop31
280
     0
102
RTVSPost2010PropOp31
 70
     1
102
RTVSPost2010Prop32
280
     0
102
RTVSPost2010PropOp32
 70
     1
102
RTVSPost2010Prop33
280
     0
102
RTVSPost2010PropOp33
 70
     1
102
RTVSPost2010Prop34
280
     0
102
RTVSPost2010PropOp34
 70
     1
102
RTVSPost2010Prop35
280
     0
102
RTVSPost2010PropOp35
 70
     1
102
RTVSPost2010Prop36
280
     0
102
RTVSPost2010PropOp36
 70
     1
102
RTVSPost2010Prop37
 90
       50
102
RTVSPost2010PropOp37
 70
     1
102
RTVSPost2010Prop38
140
0.0
102
RTVSPost2010PropOp38
 70
     1
102
RTVSPost2010Prop39
140
1.0
102
RTVSPost2010PropOp39
 70
     1
102
RTVSPost2010Prop40
 90
        0
102
RTVSPost2010PropOp40
 70
     1
102
RTVSPost2010Prop41ColorIndex
 90
       18
102
RTVSPost2010Prop41ColorRGB
 90
        0
102
RTVSPost2010PropOp41
 70
     1
102
RTVSPost2010Prop42
 90
       50
102
RTVSPost2010PropOp42
 70
     1
102
RTVSPost2010Prop43
 90
        3
102
RTVSPost2010PropOp43
 70
     1
102
RTVSPost2010Prop44ColorIndex
 90
        5
102
RTVSPost2010Prop44ColorRGB
 90
      255
102
RTVSPost2010PropOp44
 70
     1
102
RTVSPost2010Prop45
280
     0
102
RTVSPost2010PropOp45
 70
     1
102
RTVSPost2010Prop46
 90
       50
102
RTVSPost2010PropOp46
 70
     1
102
RTVSPost2010Prop47
 90
       50
102
RTVSPost2010PropOp47
 70
     1
102
RTVSPost2010Prop48
 90
       50
102
RTVSPost2010PropOp48
 70
     1
102
RTVSPost2010Prop49
280
     0
102
RTVSPost2010PropOp49
 70
     1
102
RTVSPost2010Prop50
 90
       50
102
RTVSPost2010PropOp50
 70
     1
102
RTVSPost2010Prop51ColorIndex
 90
      256
102
RTVSPost2010Prop51ColorRGB
 90
-16777216
102
RTVSPost2010PropOp51
 70
     0
102
RTVSPost2010Prop52
140
1.0
102
RTVSPost2010PropOp52
 70
     0
102
RTVSPost2010Prop53
 90
        2
102
RTVSPost2010PropOp53
 70
     1
102
RTVSPost2010Prop54
  1
strokes_ogs.tif
102
RTVSPost2010PropOp54
 70
     1
102
RTVSPost2010Prop55
280
     0
102
RTVSPost2010PropOp55
 70
     1
102
RTVSPost2010Prop56
140
1.0
102
RTVSPost2010PropOp56
 70
     1
102
RTVSPost2010Prop57
140
1.0
102
RTVSPost2010PropOp57
 70
     1
  0
XRECORD
  5
1F01
102
{ACAD_REACTORS
330
1F00
102
}
330
1F00
100
AcDbXrecord
280
     1
102
RTVSPropertyOp0
 70
     1
102
RTVSPropertyOp1
 70
     1
102
RTVSPropertyOp2
 70
     1
102
RTVSPropertyOp3
 70
     1
102
RTVSPropertyOp4
 70
     1
102
RTVSPropertyOp5
 70
     1
102
RTVSPropertyOp6
 70
     1
102
RTVSPropertyOp7
 70
     1
102
RTVSPropertyOp8
 70
     1
102
RTVSPropertyOp9
 70
     1
102
RTVSPropertyOp10
 70
     1
102
RTVSPropertyOp11
 70
     1
102
RTVSPropertyOp12
 70
     1
102
RTVSPropertyOp13
 70
     1
102
RTVSPropertyOp14
 70
     1
102
RTVSPropertyOp15
 70
     1
102
RTVSPropertyOp16
 70
     1
102
RTVSPropertyOp17
 70
     1
102
RTVSPropertyOp18
 70
     1
102
RTVSPropertyOp19
 70
     1
102
RTVSPropertyOp20
 70
     1
102
RTVSPropertyOp21
 70
     1
102
RTVSPropertyOp22
 70
     1
102
RTVSPropertyOp23
 70
     1
102
RTVSPropertyOp24
 70
     1
102
RTVSPropertyOp25
 70
     1
102
RTVSPropertyOp26
 70
     1
102
RTVSPropertyOp27
 70
     1
102
RTVSPropertyOp28
 70
     1
102
RTVSPropertyOp29
 70
     1
102
RTVSPropertyOp30
 70
     1
102
RTVSPropertyOp31
 70
     1
102
RTVSPropertyOp32
 70
     1
102
RTVSPropertyOp33
 70
     1
102
RTVSPropertyOp34
 70
     1
102
RTVSPropertyOp35
 70
     1
102
RTVSPropertyOp36
 70
     1
102
RTVSPropertyOp37
 70
     1
102
RTVSPropertyOp38
 70
     1
102
RTVSPropertyOp39
 70
     1
102
RTVSPropertyOp40
 70
     1
102
RTVSPropertyOp41
 70
     1
102
RTVSPropertyOp42
 70
     1
102
RTVSPropertyOp43
 70
     1
102
RTVSPropertyOp44
 70
     1
102
RTVSPropertyOp45
 70
     1
102
RTVSPropertyOp46
 70
     1
102
RTVSPropertyOp47
 70
     1
102
RTVSPropertyOp48
 70
     1
102
RTVSPropertyOp49
 70
     1
102
RTVSPropertyOp50
 70
     1
102
RTVSPropertyOp51
 70
     0
102
RTVSPropertyOp52
 70
     0
102
RTVSPropertyOp53
 70
     1
102
RTVSPropertyOp54
 70
     1
102
RTVSPropertyOp55
 70
     1
102
RTVSPropertyOp56
 70
     1
102
RTVSPropertyOp57
 70
     1
102
RTVSPost2010Prop28
280
     0
102
RTVSPost2010PropOp28
 70
     1
102
RTVSPost2010Prop29
280
     1
102
RTVSPost2010PropOp29
 70
     1
102
RTVSPost2010Prop30
280
     1
102
RTVSPost2010PropOp30
 70
     1
102
RTVSPost2010Prop31
280
     0
102
RTVSPost2010PropOp31
 70
     1
102
RTVSPost2010Prop32
280
     0
102
RTVSPost2010PropOp32
 70
     1
102
RTVSPost2010Prop33
280
     0
102
RTVSPost2010PropOp33
 70
     1
102
RTVSPost2010Prop34
280
     0
102
RTVSPost2010PropOp34
 70
     1
102
RTVSPost2010Prop35
280
     0
102
RTVSPost2010PropOp35
 70
     1
102
RTVSPost2010Prop36
280
     0
102
RTVSPost2010PropOp36
 70
     1
102
RTVSPost2010Prop37
 90
       50
102
RTVSPost2010PropOp37
 70
     1
102
RTVSPost2010Prop38
140
0.0
102
RTVSPost2010PropOp38
 70
     1
102
RTVSPost2010Prop39
140
1.0
102
RTVSPost2010PropOp39
 70
     1
102
RTVSPost2010Prop40
 90
        0
102
RTVSPost2010PropOp40
 70
     1
102
RTVSPost2010Prop41ColorIndex
 90
       18
102
RTVSPost2010Prop41ColorRGB
 90
        0
102
RTVSPost2010PropOp41
 70
     1
102
RTVSPost2010Prop42
 90
       50
102
RTVSPost2010PropOp42
 70
     1
102
RTVSPost2010Prop43
 90
        3
102
RTVSPost2010PropOp43
 70
     1
102
RTVSPost2010Prop44ColorIndex
 90
        5
102
RTVSPost2010Prop44ColorRGB
 90
      255
102
RTVSPost2010PropOp44
 70
     1
102
RTVSPost2010Prop45
280
     0
102
RTVSPost2010PropOp45
 70
     1
102
RTVSPost2010Prop46
 90
       50
102
RTVSPost2010PropOp46
 70
     1
102
RTVSPost2010Prop47
 90
       50
102
RTVSPost2010PropOp47
 70
     1
102
RTVSPost2010Prop48
 90
       50
102
RTVSPost2010PropOp48
 70
     1
102
RTVSPost2010Prop49
280
     0
102
RTVSPost2010PropOp49
 70
     1
102
RTVSPost2010Prop50
 90
       50
102
RTVSPost2010PropOp50
 70
     1
102
RTVSPost2010Prop51ColorIndex
 90
      256
102
RTVSPost2010Prop51ColorRGB
 90
-16777216
102
RTVSPost2010PropOp51
 70
     0
102
RTVSPost2010Prop52
140
1.0
102
RTVSPost2010PropOp52
 70
     0
102
RTVSPost2010Prop53
 90
        2
102
RTVSPost2010PropOp53
 70
     1
102
RTVSPost2010Prop54
  1
strokes_ogs.tif
102
RTVSPost2010PropOp54
 70
     1
102
RTVSPost2010Prop55
280
     0
102
RTVSPost2010PropOp55
 70
     1
102
RTVSPost2010Prop56
140
1.0
102
RTVSPost2010PropOp56
 70
     1
102
RTVSPost2010Prop57
140
1.0
102
RTVSPost2010PropOp57
 70
     1
  0
XRECORD
  5
1F03
102
{ACAD_REACTORS
330
1F02
102
}
330
1F02
100
AcDbXrecord
280
     1
102
RTVSPropertyOp0
 70
     1
102
RTVSPropertyOp1
 70
     1
102
RTVSPropertyOp2
 70
     1
102
RTVSPropertyOp3
 70
     1
102
RTVSPropertyOp4
 70
     1
102
RTVSPropertyOp5
 70
     1
102
RTVSPropertyOp6
 70
     1
102
RTVSPropertyOp7
 70
     1
102
RTVSPropertyOp8
 70
     1
102
RTVSPropertyOp9
 70
     1
102
RTVSPropertyOp10
 70
     1
102
RTVSPropertyOp11
 70
     1
102
RTVSPropertyOp12
 70
     1
102
RTVSPropertyOp13
 70
     1
102
RTVSPropertyOp14
 70
     1
102
RTVSPropertyOp15
 70
     1
102
RTVSPropertyOp16
 70
     1
102
RTVSPropertyOp17
 70
     1
102
RTVSPropertyOp18
 70
     1
102
RTVSPropertyOp19
 70
     1
102
RTVSPropertyOp20
 70
     1
102
RTVSPropertyOp21
 70
     1
102
RTVSPropertyOp22
 70
     1
102
RTVSPropertyOp23
 70
     1
102
RTVSPropertyOp24
 70
     1
102
RTVSPropertyOp25
 70
     1
102
RTVSPropertyOp26
 70
     1
102
RTVSPropertyOp27
 70
     1
102
RTVSPropertyOp28
 70
     1
102
RTVSPropertyOp29
 70
     1
102
RTVSPropertyOp30
 70
     1
102
RTVSPropertyOp31
 70
     1
102
RTVSPropertyOp32
 70
     1
102
RTVSPropertyOp33
 70
     1
102
RTVSPropertyOp34
 70
     1
102
RTVSPropertyOp35
 70
     1
102
RTVSPropertyOp36
 70
     1
102
RTVSPropertyOp37
 70
     1
102
RTVSPropertyOp38
 70
     1
102
RTVSPropertyOp39
 70
     1
102
RTVSPropertyOp40
 70
     1
102
RTVSPropertyOp41
 70
     1
102
RTVSPropertyOp42
 70
     1
102
RTVSPropertyOp43
 70
     1
102
RTVSPropertyOp44
 70
     1
102
RTVSPropertyOp45
 70
     1
102
RTVSPropertyOp46
 70
     1
102
RTVSPropertyOp47
 70
     1
102
RTVSPropertyOp48
 70
     1
102
RTVSPropertyOp49
 70
     1
102
RTVSPropertyOp50
 70
     1
102
RTVSPropertyOp51
 70
     0
102
RTVSPropertyOp52
 70
     0
102
RTVSPropertyOp53
 70
     1
102
RTVSPropertyOp54
 70
     1
102
RTVSPropertyOp55
 70
     1
102
RTVSPropertyOp56
 70
     1
102
RTVSPropertyOp57
 70
     1
102
RTVSPost2010Prop28
280
     0
102
RTVSPost2010PropOp28
 70
     1
102
RTVSPost2010Prop29
280
     1
102
RTVSPost2010PropOp29
 70
     1
102
RTVSPost2010Prop30
280
     1
102
RTVSPost2010PropOp30
 70
     1
102
RTVSPost2010Prop31
280
     0
102
RTVSPost2010PropOp31
 70
     1
102
RTVSPost2010Prop32
280
     0
102
RTVSPost2010PropOp32
 70
     1
102
RTVSPost2010Prop33
280
     0
102
RTVSPost2010PropOp33
 70
     1
102
RTVSPost2010Prop34
280
     0
102
RTVSPost2010PropOp34
 70
     1
102
RTVSPost2010Prop35
280
     0
102
RTVSPost2010PropOp35
 70
     1
102
RTVSPost2010Prop36
280
     0
102
RTVSPost2010PropOp36
 70
     1
102
RTVSPost2010Prop37
 90
       50
102
RTVSPost2010PropOp37
 70
     1
102
RTVSPost2010Prop38
140
0.0
102
RTVSPost2010PropOp38
 70
     1
102
RTVSPost2010Prop39
140
1.0
102
RTVSPost2010PropOp39
 70
     1
102
RTVSPost2010Prop40
 90
        0
102
RTVSPost2010PropOp40
 70
     1
102
RTVSPost2010Prop41ColorIndex
 90
       18
102
RTVSPost2010Prop41ColorRGB
 90
        0
102
RTVSPost2010PropOp41
 70
     1
102
RTVSPost2010Prop42
 90
       50
102
RTVSPost2010PropOp42
 70
     1
102
RTVSPost2010Prop43
 90
        3
102
RTVSPost2010PropOp43
 70
     1
102
RTVSPost2010Prop44ColorIndex
 90
        5
102
RTVSPost2010Prop44ColorRGB
 90
      255
102
RTVSPost2010PropOp44
 70
     1
102
RTVSPost2010Prop45
280
     0
102
RTVSPost2010PropOp45
 70
     1
102
RTVSPost2010Prop46
 90
       50
102
RTVSPost2010PropOp46
 70
     1
102
RTVSPost2010Prop47
 90
       50
102
RTVSPost2010PropOp47
 70
     1
102
RTVSPost2010Prop48
 90
       50
102
RTVSPost2010PropOp48
 70
     1
102
RTVSPost2010Prop49
280
     0
102
RTVSPost2010PropOp49
 70
     1
102
RTVSPost2010Prop50
 90
       50
102
RTVSPost2010PropOp50
 70
     1
102
RTVSPost2010Prop51ColorIndex
 90
      256
102
RTVSPost2010Prop51ColorRGB
 90
-16777216
102
RTVSPost2010PropOp51
 70
     0
102
RTVSPost2010Prop52
140
1.0
102
RTVSPost2010PropOp52
 70
     0
102
RTVSPost2010Prop53
 90
        2
102
RTVSPost2010PropOp53
 70
     1
102
RTVSPost2010Prop54
  1
strokes_ogs.tif
102
RTVSPost2010PropOp54
 70
     1
102
RTVSPost2010Prop55
280
     0
102
RTVSPost2010PropOp55
 70
     1
102
RTVSPost2010Prop56
140
1.0
102
RTVSPost2010PropOp56
 70
     1
102
RTVSPost2010Prop57
140
1.0
102
RTVSPost2010PropOp57
 70
     1
  0
XRECORD
  5
1F13
102
{ACAD_REACTORS
330
1F12
102
}
330
1F12
100
AcDbXrecord
280
     1
102
RTVSPropertyOp0
 70
     0
102
RTVSPropertyOp1
 70
     0
102
RTVSPropertyOp2
 70
     0
102
RTVSPropertyOp3
 70
     0
102
RTVSPropertyOp4
 70
     0
102
RTVSPropertyOp5
 70
     0
102
RTVSPropertyOp6
 70
     0
102
RTVSPropertyOp7
 70
     0
102
RTVSPropertyOp8
 70
     0
102
RTVSPropertyOp9
 70
     0
102
RTVSPropertyOp10
 70
     0
102
RTVSPropertyOp11
 70
     0
102
RTVSPropertyOp12
 70
     0
102
RTVSPropertyOp13
 70
     0
102
RTVSPropertyOp14
 70
     0
102
RTVSPropertyOp15
 70
     0
102
RTVSPropertyOp16
 70
     0
102
RTVSPropertyOp17
 70
     0
102
RTVSPropertyOp18
 70
     0
102
RTVSPropertyOp19
 70
     0
102
RTVSPropertyOp20
 70
     0
102
RTVSPropertyOp21
 70
     0
102
RTVSPropertyOp22
 70
     0
102
RTVSPropertyOp23
 70
     0
102
RTVSPropertyOp24
 70
     0
102
RTVSPropertyOp25
 70
     0
102
RTVSPropertyOp26
 70
     0
102
RTVSPropertyOp27
 70
     0
102
RTVSPropertyOp28
 70
     1
102
RTVSPropertyOp29
 70
     1
102
RTVSPropertyOp30
 70
     1
102
RTVSPropertyOp31
 70
     1
102
RTVSPropertyOp32
 70
     1
102
RTVSPropertyOp33
 70
     1
102
RTVSPropertyOp34
 70
     1
102
RTVSPropertyOp35
 70
     1
102
RTVSPropertyOp36
 70
     1
102
RTVSPropertyOp37
 70
     1
102
RTVSPropertyOp38
 70
     1
102
RTVSPropertyOp39
 70
     1
102
RTVSPropertyOp40
 70
     1
102
RTVSPropertyOp41
 70
     1
102
RTVSPropertyOp42
 70
     1
102
RTVSPropertyOp43
 70
     1
102
RTVSPropertyOp44
 70
     1
102
RTVSPropertyOp45
 70
     1
102
RTVSPropertyOp46
 70
     1
102
RTVSPropertyOp47
 70
     1
102
RTVSPropertyOp48
 70
     1
102
RTVSPropertyOp49
 70
     1
102
RTVSPropertyOp50
 70
     1
102
RTVSPropertyOp51
 70
     0
102
RTVSPropertyOp52
 70
     0
102
RTVSPropertyOp53
 70
     1
102
RTVSPropertyOp54
 70
     1
102
RTVSPropertyOp55
 70
     1
102
RTVSPropertyOp56
 70
     1
102
RTVSPropertyOp57
 70
     1
102
RTVSPost2010Prop28
280
     0
102
RTVSPost2010PropOp28
 70
     1
102
RTVSPost2010Prop29
280
     1
102
RTVSPost2010PropOp29
 70
     1
102
RTVSPost2010Prop30
280
     1
102
RTVSPost2010PropOp30
 70
     1
102
RTVSPost2010Prop31
280
     0
102
RTVSPost2010PropOp31
 70
     1
102
RTVSPost2010Prop32
280
     0
102
RTVSPost2010PropOp32
 70
     1
102
RTVSPost2010Prop33
280
     0
102
RTVSPost2010PropOp33
 70
     1
102
RTVSPost2010Prop34
280
     0
102
RTVSPost2010PropOp34
 70
     1
102
RTVSPost2010Prop35
280
     0
102
RTVSPost2010PropOp35
 70
     1
102
RTVSPost2010Prop36
280
     0
102
RTVSPost2010PropOp36
 70
     1
102
RTVSPost2010Prop37
 90
       50
102
RTVSPost2010PropOp37
 70
     1
102
RTVSPost2010Prop38
140
0.0
102
RTVSPost2010PropOp38
 70
     1
102
RTVSPost2010Prop39
140
1.0
102
RTVSPost2010PropOp39
 70
     1
102
RTVSPost2010Prop40
 90
        0
102
RTVSPost2010PropOp40
 70
     1
102
RTVSPost2010Prop41ColorIndex
 90
       18
102
RTVSPost2010Prop41ColorRGB
 90
        0
102
RTVSPost2010PropOp41
 70
     1
102
RTVSPost2010Prop42
 90
       50
102
RTVSPost2010PropOp42
 70
     1
102
RTVSPost2010Prop43
 90
        3
102
RTVSPost2010PropOp43
 70
     1
102
RTVSPost2010Prop44ColorIndex
 90
        5
102
RTVSPost2010Prop44ColorRGB
 90
      255
102
RTVSPost2010PropOp44
 70
     1
102
RTVSPost2010Prop45
280
     0
102
RTVSPost2010PropOp45
 70
     1
102
RTVSPost2010Prop46
 90
       50
102
RTVSPost2010PropOp46
 70
     1
102
RTVSPost2010Prop47
 90
       50
102
RTVSPost2010PropOp47
 70
     1
102
RTVSPost2010Prop48
 90
       50
102
RTVSPost2010PropOp48
 70
     1
102
RTVSPost2010Prop49
280
     0
102
RTVSPost2010PropOp49
 70
     1
102
RTVSPost2010Prop50
 90
       50
102
RTVSPost2010PropOp50
 70
     1
102
RTVSPost2010Prop51ColorIndex
 90
      256
102
RTVSPost2010Prop51ColorRGB
 90
-16777216
102
RTVSPost2010PropOp51
 70
     0
102
RTVSPost2010Prop52
140
1.0
102
RTVSPost2010PropOp52
 70
     0
102
RTVSPost2010Prop53
 90
        2
102
RTVSPost2010PropOp53
 70
     1
102
RTVSPost2010Prop54
  1
strokes_ogs.tif
102
RTVSPost2010PropOp54
 70
     1
102
RTVSPost2010Prop55
280
     0
102
RTVSPost2010PropOp55
 70
     1
102
RTVSPost2010Prop56
140
1.0
102
RTVSPost2010PropOp56
 70
     1
102
RTVSPost2010Prop57
140
1.0
102
RTVSPost2010PropOp57
 70
     1
  0
XRECORD
  5
1F0B
102
{ACAD_REACTORS
330
1F0A
102
}
330
1F0A
100
AcDbXrecord
280
     1
102
RTVSPropertyOp0
 70
     1
102
RTVSPropertyOp1
 70
     1
102
RTVSPropertyOp2
 70
     1
102
RTVSPropertyOp3
 70
     1
102
RTVSPropertyOp4
 70
     1
102
RTVSPropertyOp5
 70
     1
102
RTVSPropertyOp6
 70
     1
102
RTVSPropertyOp7
 70
     1
102
RTVSPropertyOp8
 70
     1
102
RTVSPropertyOp9
 70
     1
102
RTVSPropertyOp10
 70
     1
102
RTVSPropertyOp11
 70
     1
102
RTVSPropertyOp12
 70
     1
102
RTVSPropertyOp13
 70
     1
102
RTVSPropertyOp14
 70
     1
102
RTVSPropertyOp15
 70
     1
102
RTVSPropertyOp16
 70
     1
102
RTVSPropertyOp17
 70
     1
102
RTVSPropertyOp18
 70
     1
102
RTVSPropertyOp19
 70
     1
102
RTVSPropertyOp20
 70
     1
102
RTVSPropertyOp21
 70
     1
102
RTVSPropertyOp22
 70
     1
102
RTVSPropertyOp23
 70
     1
102
RTVSPropertyOp24
 70
     1
102
RTVSPropertyOp25
 70
     1
102
RTVSPropertyOp26
 70
     1
102
RTVSPropertyOp27
 70
     1
102
RTVSPropertyOp28
 70
     1
102
RTVSPropertyOp29
 70
     1
102
RTVSPropertyOp30
 70
     1
102
RTVSPropertyOp31
 70
     1
102
RTVSPropertyOp32
 70
     1
102
RTVSPropertyOp33
 70
     1
102
RTVSPropertyOp34
 70
     1
102
RTVSPropertyOp35
 70
     1
102
RTVSPropertyOp36
 70
     1
102
RTVSPropertyOp37
 70
     1
102
RTVSPropertyOp38
 70
     1
102
RTVSPropertyOp39
 70
     1
102
RTVSPropertyOp40
 70
     1
102
RTVSPropertyOp41
 70
     1
102
RTVSPropertyOp42
 70
     1
102
RTVSPropertyOp43
 70
     1
102
RTVSPropertyOp44
 70
     1
102
RTVSPropertyOp45
 70
     1
102
RTVSPropertyOp46
 70
     1
102
RTVSPropertyOp47
 70
     1
102
RTVSPropertyOp48
 70
     1
102
RTVSPropertyOp49
 70
     1
102
RTVSPropertyOp50
 70
     1
102
RTVSPropertyOp51
 70
     0
102
RTVSPropertyOp52
 70
     0
102
RTVSPropertyOp53
 70
     1
102
RTVSPropertyOp54
 70
     1
102
RTVSPropertyOp55
 70
     1
102
RTVSPropertyOp56
 70
     1
102
RTVSPropertyOp57
 70
     1
102
RTVSPost2010Prop28
280
     0
102
RTVSPost2010PropOp28
 70
     1
102
RTVSPost2010Prop29
280
     1
102
RTVSPost2010PropOp29
 70
     1
102
RTVSPost2010Prop30
280
     1
102
RTVSPost2010PropOp30
 70
     1
102
RTVSPost2010Prop31
280
     0
102
RTVSPost2010PropOp31
 70
     1
102
RTVSPost2010Prop32
280
     0
102
RTVSPost2010PropOp32
 70
     1
102
RTVSPost2010Prop33
280
     0
102
RTVSPost2010PropOp33
 70
     1
102
RTVSPost2010Prop34
280
     0
102
RTVSPost2010PropOp34
 70
     1
102
RTVSPost2010Prop35
280
     0
102
RTVSPost2010PropOp35
 70
     1
102
RTVSPost2010Prop36
280
     0
102
RTVSPost2010PropOp36
 70
     1
102
RTVSPost2010Prop37
 90
       50
102
RTVSPost2010PropOp37
 70
     1
102
RTVSPost2010Prop38
140
0.0
102
RTVSPost2010PropOp38
 70
     1
102
RTVSPost2010Prop39
140
1.0
102
RTVSPost2010PropOp39
 70
     1
102
RTVSPost2010Prop40
 90
        0
102
RTVSPost2010PropOp40
 70
     1
102
RTVSPost2010Prop41ColorIndex
 90
       18
102
RTVSPost2010Prop41ColorRGB
 90
        0
102
RTVSPost2010PropOp41
 70
     1
102
RTVSPost2010Prop42
 90
       50
102
RTVSPost2010PropOp42
 70
     1
102
RTVSPost2010Prop43
 90
        3
102
RTVSPost2010PropOp43
 70
     1
102
RTVSPost2010Prop44ColorIndex
 90
        5
102
RTVSPost2010Prop44ColorRGB
 90
      255
102
RTVSPost2010PropOp44
 70
     1
102
RTVSPost2010Prop45
280
     0
102
RTVSPost2010PropOp45
 70
     1
102
RTVSPost2010Prop46
 90
       50
102
RTVSPost2010PropOp46
 70
     1
102
RTVSPost2010Prop47
 90
       50
102
RTVSPost2010PropOp47
 70
     1
102
RTVSPost2010Prop48
 90
       50
102
RTVSPost2010PropOp48
 70
     1
102
RTVSPost2010Prop49
280
     0
102
RTVSPost2010PropOp49
 70
     1
102
RTVSPost2010Prop50
 90
       50
102
RTVSPost2010PropOp50
 70
     1
102
RTVSPost2010Prop51ColorIndex
 90
      256
102
RTVSPost2010Prop51ColorRGB
 90
-16777216
102
RTVSPost2010PropOp51
 70
     0
102
RTVSPost2010Prop52
140
1.0
102
RTVSPost2010PropOp52
 70
     0
102
RTVSPost2010Prop53
 90
        2
102
RTVSPost2010PropOp53
 70
     1
102
RTVSPost2010Prop54
  1
strokes_ogs.tif
102
RTVSPost2010PropOp54
 70
     1
102
RTVSPost2010Prop55
280
     0
102
RTVSPost2010PropOp55
 70
     1
102
RTVSPost2010Prop56
140
1.0
102
RTVSPost2010PropOp56
 70
     1
102
RTVSPost2010Prop57
140
1.0
102
RTVSPost2010PropOp57
 70
     1
  0
XRECORD
  5
1EEF
102
{ACAD_REACTORS
330
1EEE
102
}
330
1EEE
100
AcDbXrecord
280
     1
102
RTVSPropertyOp0
 70
     1
102
RTVSPropertyOp1
 70
     1
102
RTVSPropertyOp2
 70
     1
102
RTVSPropertyOp3
 70
     1
102
RTVSPropertyOp4
 70
     1
102
RTVSPropertyOp5
 70
     1
102
RTVSPropertyOp6
 70
     1
102
RTVSPropertyOp7
 70
     1
102
RTVSPropertyOp8
 70
     1
102
RTVSPropertyOp9
 70
     1
102
RTVSPropertyOp10
 70
     1
102
RTVSPropertyOp11
 70
     1
102
RTVSPropertyOp12
 70
     1
102
RTVSPropertyOp13
 70
     1
102
RTVSPropertyOp14
 70
     1
102
RTVSPropertyOp15
 70
     1
102
RTVSPropertyOp16
 70
     1
102
RTVSPropertyOp17
 70
     1
102
RTVSPropertyOp18
 70
     1
102
RTVSPropertyOp19
 70
     1
102
RTVSPropertyOp20
 70
     1
102
RTVSPropertyOp21
 70
     1
102
RTVSPropertyOp22
 70
     1
102
RTVSPropertyOp23
 70
     1
102
RTVSPropertyOp24
 70
     1
102
RTVSPropertyOp25
 70
     1
102
RTVSPropertyOp26
 70
     1
102
RTVSPropertyOp27
 70
     1
102
RTVSPropertyOp28
 70
     1
102
RTVSPropertyOp29
 70
     1
102
RTVSPropertyOp30
 70
     1
102
RTVSPropertyOp31
 70
     1
102
RTVSPropertyOp32
 70
     1
102
RTVSPropertyOp33
 70
     1
102
RTVSPropertyOp34
 70
     1
102
RTVSPropertyOp35
 70
     1
102
RTVSPropertyOp36
 70
     1
102
RTVSPropertyOp37
 70
     1
102
RTVSPropertyOp38
 70
     1
102
RTVSPropertyOp39
 70
     1
102
RTVSPropertyOp40
 70
     1
102
RTVSPropertyOp41
 70
     1
102
RTVSPropertyOp42
 70
     1
102
RTVSPropertyOp43
 70
     1
102
RTVSPropertyOp44
 70
     1
102
RTVSPropertyOp45
 70
     1
102
RTVSPropertyOp46
 70
     1
102
RTVSPropertyOp47
 70
     1
102
RTVSPropertyOp48
 70
     1
102
RTVSPropertyOp49
 70
     1
102
RTVSPropertyOp50
 70
     1
102
RTVSPropertyOp51
 70
     0
102
RTVSPropertyOp52
 70
     0
102
RTVSPropertyOp53
 70
     1
102
RTVSPropertyOp54
 70
     1
102
RTVSPropertyOp55
 70
     1
102
RTVSPropertyOp56
 70
     1
102
RTVSPropertyOp57
 70
     1
102
RTVSPost2010Prop28
280
     0
102
RTVSPost2010PropOp28
 70
     1
102
RTVSPost2010Prop29
280
     1
102
RTVSPost2010PropOp29
 70
     1
102
RTVSPost2010Prop30
280
     1
102
RTVSPost2010PropOp30
 70
     1
102
RTVSPost2010Prop31
280
     0
102
RTVSPost2010PropOp31
 70
     1
102
RTVSPost2010Prop32
280
     0
102
RTVSPost2010PropOp32
 70
     1
102
RTVSPost2010Prop33
280
     0
102
RTVSPost2010PropOp33
 70
     1
102
RTVSPost2010Prop34
280
     0
102
RTVSPost2010PropOp34
 70
     1
102
RTVSPost2010Prop35
280
     0
102
RTVSPost2010PropOp35
 70
     1
102
RTVSPost2010Prop36
280
     0
102
RTVSPost2010PropOp36
 70
     1
102
RTVSPost2010Prop37
 90
       50
102
RTVSPost2010PropOp37
 70
     1
102
RTVSPost2010Prop38
140
0.0
102
RTVSPost2010PropOp38
 70
     1
102
RTVSPost2010Prop39
140
1.0
102
RTVSPost2010PropOp39
 70
     1
102
RTVSPost2010Prop40
 90
        0
102
RTVSPost2010PropOp40
 70
     1
102
RTVSPost2010Prop41ColorIndex
 90
       18
102
RTVSPost2010Prop41ColorRGB
 90
        0
102
RTVSPost2010PropOp41
 70
     1
102
RTVSPost2010Prop42
 90
       50
102
RTVSPost2010PropOp42
 70
     1
102
RTVSPost2010Prop43
 90
        3
102
RTVSPost2010PropOp43
 70
     1
102
RTVSPost2010Prop44ColorIndex
 90
        5
102
RTVSPost2010Prop44ColorRGB
 90
      255
102
RTVSPost2010PropOp44
 70
     1
102
RTVSPost2010Prop45
280
     0
102
RTVSPost2010PropOp45
 70
     1
102
RTVSPost2010Prop46
 90
       50
102
RTVSPost2010PropOp46
 70
     1
102
RTVSPost2010Prop47
 90
       50
102
RTVSPost2010PropOp47
 70
     1
102
RTVSPost2010Prop48
 90
       50
102
RTVSPost2010PropOp48
 70
     1
102
RTVSPost2010Prop49
280
     0
102
RTVSPost2010PropOp49
 70
     1
102
RTVSPost2010Prop50
 90
       50
102
RTVSPost2010PropOp50
 70
     1
102
RTVSPost2010Prop51ColorIndex
 90
      256
102
RTVSPost2010Prop51ColorRGB
 90
-16777216
102
RTVSPost2010PropOp51
 70
     0
102
RTVSPost2010Prop52
140
1.0
102
RTVSPost2010PropOp52
 70
     0
102
RTVSPost2010Prop53
 90
        2
102
RTVSPost2010PropOp53
 70
     1
102
RTVSPost2010Prop54
  1
strokes_ogs.tif
102
RTVSPost2010PropOp54
 70
     1
102
RTVSPost2010Prop55
280
     0
102
RTVSPost2010PropOp55
 70
     1
102
RTVSPost2010Prop56
140
1.0
102
RTVSPost2010PropOp56
 70
     1
102
RTVSPost2010Prop57
140
1.0
102
RTVSPost2010PropOp57
 70
     1
  0
XRECORD
  5
1EF1
102
{ACAD_REACTORS
330
1EF0
102
}
330
1EF0
100
AcDbXrecord
280
     1
102
RTVSPropertyOp0
 70
     1
102
RTVSPropertyOp1
 70
     1
102
RTVSPropertyOp2
 70
     1
102
RTVSPropertyOp3
 70
     1
102
RTVSPropertyOp4
 70
     1
102
RTVSPropertyOp5
 70
     1
102
RTVSPropertyOp6
 70
     1
102
RTVSPropertyOp7
 70
     1
102
RTVSPropertyOp8
 70
     1
102
RTVSPropertyOp9
 70
     1
102
RTVSPropertyOp10
 70
     1
102
RTVSPropertyOp11
 70
     1
102
RTVSPropertyOp12
 70
     1
102
RTVSPropertyOp13
 70
     1
102
RTVSPropertyOp14
 70
     1
102
RTVSPropertyOp15
 70
     1
102
RTVSPropertyOp16
 70
     1
102
RTVSPropertyOp17
 70
     1
102
RTVSPropertyOp18
 70
     1
102
RTVSPropertyOp19
 70
     1
102
RTVSPropertyOp20
 70
     1
102
RTVSPropertyOp21
 70
     1
102
RTVSPropertyOp22
 70
     1
102
RTVSPropertyOp23
 70
     1
102
RTVSPropertyOp24
 70
     1
102
RTVSPropertyOp25
 70
     1
102
RTVSPropertyOp26
 70
     1
102
RTVSPropertyOp27
 70
     1
102
RTVSPropertyOp28
 70
     1
102
RTVSPropertyOp29
 70
     1
102
RTVSPropertyOp30
 70
     1
102
RTVSPropertyOp31
 70
     1
102
RTVSPropertyOp32
 70
     1
102
RTVSPropertyOp33
 70
     1
102
RTVSPropertyOp34
 70
     1
102
RTVSPropertyOp35
 70
     1
102
RTVSPropertyOp36
 70
     1
102
RTVSPropertyOp37
 70
     1
102
RTVSPropertyOp38
 70
     1
102
RTVSPropertyOp39
 70
     1
102
RTVSPropertyOp40
 70
     1
102
RTVSPropertyOp41
 70
     1
102
RTVSPropertyOp42
 70
     1
102
RTVSPropertyOp43
 70
     1
102
RTVSPropertyOp44
 70
     1
102
RTVSPropertyOp45
 70
     1
102
RTVSPropertyOp46
 70
     1
102
RTVSPropertyOp47
 70
     1
102
RTVSPropertyOp48
 70
     1
102
RTVSPropertyOp49
 70
     1
102
RTVSPropertyOp50
 70
     1
102
RTVSPropertyOp51
 70
     0
102
RTVSPropertyOp52
 70
     0
102
RTVSPropertyOp53
 70
     1
102
RTVSPropertyOp54
 70
     1
102
RTVSPropertyOp55
 70
     1
102
RTVSPropertyOp56
 70
     1
102
RTVSPropertyOp57
 70
     1
102
RTVSPost2010Prop28
280
     0
102
RTVSPost2010PropOp28
 70
     1
102
RTVSPost2010Prop29
280
     1
102
RTVSPost2010PropOp29
 70
     1
102
RTVSPost2010Prop30
280
     1
102
RTVSPost2010PropOp30
 70
     1
102
RTVSPost2010Prop31
280
     0
102
RTVSPost2010PropOp31
 70
     1
102
RTVSPost2010Prop32
280
     0
102
RTVSPost2010PropOp32
 70
     1
102
RTVSPost2010Prop33
280
     0
102
RTVSPost2010PropOp33
 70
     1
102
RTVSPost2010Prop34
280
     0
102
RTVSPost2010PropOp34
 70
     1
102
RTVSPost2010Prop35
280
     0
102
RTVSPost2010PropOp35
 70
     1
102
RTVSPost2010Prop36
280
     0
102
RTVSPost2010PropOp36
 70
     1
102
RTVSPost2010Prop37
 90
       50
102
RTVSPost2010PropOp37
 70
     1
102
RTVSPost2010Prop38
140
0.0
102
RTVSPost2010PropOp38
 70
     1
102
RTVSPost2010Prop39
140
1.0
102
RTVSPost2010PropOp39
 70
     1
102
RTVSPost2010Prop40
 90
        0
102
RTVSPost2010PropOp40
 70
     1
102
RTVSPost2010Prop41ColorIndex
 90
       18
102
RTVSPost2010Prop41ColorRGB
 90
        0
102
RTVSPost2010PropOp41
 70
     1
102
RTVSPost2010Prop42
 90
       50
102
RTVSPost2010PropOp42
 70
     1
102
RTVSPost2010Prop43
 90
        3
102
RTVSPost2010PropOp43
 70
     1
102
RTVSPost2010Prop44ColorIndex
 90
        5
102
RTVSPost2010Prop44ColorRGB
 90
      255
102
RTVSPost2010PropOp44
 70
     1
102
RTVSPost2010Prop45
280
     0
102
RTVSPost2010PropOp45
 70
     1
102
RTVSPost2010Prop46
 90
       50
102
RTVSPost2010PropOp46
 70
     1
102
RTVSPost2010Prop47
 90
       50
102
RTVSPost2010PropOp47
 70
     1
102
RTVSPost2010Prop48
 90
       50
102
RTVSPost2010PropOp48
 70
     1
102
RTVSPost2010Prop49
280
     0
102
RTVSPost2010PropOp49
 70
     1
102
RTVSPost2010Prop50
 90
       50
102
RTVSPost2010PropOp50
 70
     1
102
RTVSPost2010Prop51ColorIndex
 90
      256
102
RTVSPost2010Prop51ColorRGB
 90
-16777216
102
RTVSPost2010PropOp51
 70
     0
102
RTVSPost2010Prop52
140
1.0
102
RTVSPost2010PropOp52
 70
     0
102
RTVSPost2010Prop53
 90
        2
102
RTVSPost2010PropOp53
 70
     1
102
RTVSPost2010Prop54
  1
strokes_ogs.tif
102
RTVSPost2010PropOp54
 70
     1
102
RTVSPost2010Prop55
280
     0
102
RTVSPost2010PropOp55
 70
     1
102
RTVSPost2010Prop56
140
1.0
102
RTVSPost2010PropOp56
 70
     1
102
RTVSPost2010Prop57
140
1.0
102
RTVSPost2010PropOp57
 70
     1
  0
XRECORD
  5
1EF3
102
{ACAD_REACTORS
330
1EF2
102
}
330
1EF2
100
AcDbXrecord
280
     1
102
RTVSPropertyOp0
 70
     1
102
RTVSPropertyOp1
 70
     1
102
RTVSPropertyOp2
 70
     1
102
RTVSPropertyOp3
 70
     1
102
RTVSPropertyOp4
 70
     1
102
RTVSPropertyOp5
 70
     1
102
RTVSPropertyOp6
 70
     1
102
RTVSPropertyOp7
 70
     1
102
RTVSPropertyOp8
 70
     1
102
RTVSPropertyOp9
 70
     1
102
RTVSPropertyOp10
 70
     1
102
RTVSPropertyOp11
 70
     1
102
RTVSPropertyOp12
 70
     1
102
RTVSPropertyOp13
 70
     1
102
RTVSPropertyOp14
 70
     1
102
RTVSPropertyOp15
 70
     1
102
RTVSPropertyOp16
 70
     1
102
RTVSPropertyOp17
 70
     1
102
RTVSPropertyOp18
 70
     1
102
RTVSPropertyOp19
 70
     1
102
RTVSPropertyOp20
 70
     1
102
RTVSPropertyOp21
 70
     1
102
RTVSPropertyOp22
 70
     1
102
RTVSPropertyOp23
 70
     1
102
RTVSPropertyOp24
 70
     1
102
RTVSPropertyOp25
 70
     1
102
RTVSPropertyOp26
 70
     1
102
RTVSPropertyOp27
 70
     1
102
RTVSPropertyOp28
 70
     1
102
RTVSPropertyOp29
 70
     1
102
RTVSPropertyOp30
 70
     1
102
RTVSPropertyOp31
 70
     1
102
RTVSPropertyOp32
 70
     1
102
RTVSPropertyOp33
 70
     1
102
RTVSPropertyOp34
 70
     1
102
RTVSPropertyOp35
 70
     1
102
RTVSPropertyOp36
 70
     1
102
RTVSPropertyOp37
 70
     1
102
RTVSPropertyOp38
 70
     1
102
RTVSPropertyOp39
 70
     1
102
RTVSPropertyOp40
 70
     1
102
RTVSPropertyOp41
 70
     1
102
RTVSPropertyOp42
 70
     1
102
RTVSPropertyOp43
 70
     1
102
RTVSPropertyOp44
 70
     1
102
RTVSPropertyOp45
 70
     1
102
RTVSPropertyOp46
 70
     1
102
RTVSPropertyOp47
 70
     1
102
RTVSPropertyOp48
 70
     1
102
RTVSPropertyOp49
 70
     1
102
RTVSPropertyOp50
 70
     1
102
RTVSPropertyOp51
 70
     0
102
RTVSPropertyOp52
 70
     0
102
RTVSPropertyOp53
 70
     1
102
RTVSPropertyOp54
 70
     1
102
RTVSPropertyOp55
 70
     1
102
RTVSPropertyOp56
 70
     1
102
RTVSPropertyOp57
 70
     1
102
RTVSPost2010Prop28
280
     0
102
RTVSPost2010PropOp28
 70
     1
102
RTVSPost2010Prop29
280
     1
102
RTVSPost2010PropOp29
 70
     1
102
RTVSPost2010Prop30
280
     1
102
RTVSPost2010PropOp30
 70
     1
102
RTVSPost2010Prop31
280
     0
102
RTVSPost2010PropOp31
 70
     1
102
RTVSPost2010Prop32
280
     0
102
RTVSPost2010PropOp32
 70
     1
102
RTVSPost2010Prop33
280
     0
102
RTVSPost2010PropOp33
 70
     1
102
RTVSPost2010Prop34
280
     0
102
RTVSPost2010PropOp34
 70
     1
102
RTVSPost2010Prop35
280
     0
102
RTVSPost2010PropOp35
 70
     1
102
RTVSPost2010Prop36
280
     0
102
RTVSPost2010PropOp36
 70
     1
102
RTVSPost2010Prop37
 90
       50
102
RTVSPost2010PropOp37
 70
     1
102
RTVSPost2010Prop38
140
0.0
102
RTVSPost2010PropOp38
 70
     1
102
RTVSPost2010Prop39
140
1.0
102
RTVSPost2010PropOp39
 70
     1
102
RTVSPost2010Prop40
 90
        0
102
RTVSPost2010PropOp40
 70
     1
102
RTVSPost2010Prop41ColorIndex
 90
       18
102
RTVSPost2010Prop41ColorRGB
 90
        0
102
RTVSPost2010PropOp41
 70
     1
102
RTVSPost2010Prop42
 90
       50
102
RTVSPost2010PropOp42
 70
     1
102
RTVSPost2010Prop43
 90
        3
102
RTVSPost2010PropOp43
 70
     1
102
RTVSPost2010Prop44ColorIndex
 90
        5
102
RTVSPost2010Prop44ColorRGB
 90
      255
102
RTVSPost2010PropOp44
 70
     1
102
RTVSPost2010Prop45
280
     0
102
RTVSPost2010PropOp45
 70
     1
102
RTVSPost2010Prop46
 90
       50
102
RTVSPost2010PropOp46
 70
     1
102
RTVSPost2010Prop47
 90
       50
102
RTVSPost2010PropOp47
 70
     1
102
RTVSPost2010Prop48
 90
       50
102
RTVSPost2010PropOp48
 70
     1
102
RTVSPost2010Prop49
280
     0
102
RTVSPost2010PropOp49
 70
     1
102
RTVSPost2010Prop50
 90
       50
102
RTVSPost2010PropOp50
 70
     1
102
RTVSPost2010Prop51ColorIndex
 90
      256
102
RTVSPost2010Prop51ColorRGB
 90
-16777216
102
RTVSPost2010PropOp51
 70
     0
102
RTVSPost2010Prop52
140
1.0
102
RTVSPost2010PropOp52
 70
     0
102
RTVSPost2010Prop53
 90
        2
102
RTVSPost2010PropOp53
 70
     1
102
RTVSPost2010Prop54
  1
strokes_ogs.tif
102
RTVSPost2010PropOp54
 70
     1
102
RTVSPost2010Prop55
280
     0
102
RTVSPost2010PropOp55
 70
     1
102
RTVSPost2010Prop56
140
1.0
102
RTVSPost2010PropOp56
 70
     1
102
RTVSPost2010Prop57
140
1.0
102
RTVSPost2010PropOp57
 70
     1
  0
XRECORD
  5
1EF5
102
{ACAD_REACTORS
330
1EF4
102
}
330
1EF4
100
AcDbXrecord
280
     1
102
RTVSPropertyOp0
 70
     1
102
RTVSPropertyOp1
 70
     1
102
RTVSPropertyOp2
 70
     1
102
RTVSPropertyOp3
 70
     1
102
RTVSPropertyOp4
 70
     1
102
RTVSPropertyOp5
 70
     1
102
RTVSPropertyOp6
 70
     1
102
RTVSPropertyOp7
 70
     1
102
RTVSPropertyOp8
 70
     1
102
RTVSPropertyOp9
 70
     1
102
RTVSPropertyOp10
 70
     1
102
RTVSPropertyOp11
 70
     1
102
RTVSPropertyOp12
 70
     1
102
RTVSPropertyOp13
 70
     1
102
RTVSPropertyOp14
 70
     1
102
RTVSPropertyOp15
 70
     1
102
RTVSPropertyOp16
 70
     1
102
RTVSPropertyOp17
 70
     1
102
RTVSPropertyOp18
 70
     1
102
RTVSPropertyOp19
 70
     1
102
RTVSPropertyOp20
 70
     1
102
RTVSPropertyOp21
 70
     1
102
RTVSPropertyOp22
 70
     1
102
RTVSPropertyOp23
 70
     1
102
RTVSPropertyOp24
 70
     1
102
RTVSPropertyOp25
 70
     1
102
RTVSPropertyOp26
 70
     1
102
RTVSPropertyOp27
 70
     1
102
RTVSPropertyOp28
 70
     1
102
RTVSPropertyOp29
 70
     1
102
RTVSPropertyOp30
 70
     1
102
RTVSPropertyOp31
 70
     1
102
RTVSPropertyOp32
 70
     1
102
RTVSPropertyOp33
 70
     1
102
RTVSPropertyOp34
 70
     1
102
RTVSPropertyOp35
 70
     1
102
RTVSPropertyOp36
 70
     1
102
RTVSPropertyOp37
 70
     1
102
RTVSPropertyOp38
 70
     1
102
RTVSPropertyOp39
 70
     1
102
RTVSPropertyOp40
 70
     1
102
RTVSPropertyOp41
 70
     1
102
RTVSPropertyOp42
 70
     1
102
RTVSPropertyOp43
 70
     1
102
RTVSPropertyOp44
 70
     1
102
RTVSPropertyOp45
 70
     1
102
RTVSPropertyOp46
 70
     1
102
RTVSPropertyOp47
 70
     1
102
RTVSPropertyOp48
 70
     1
102
RTVSPropertyOp49
 70
     1
102
RTVSPropertyOp50
 70
     1
102
RTVSPropertyOp51
 70
     0
102
RTVSPropertyOp52
 70
     0
102
RTVSPropertyOp53
 70
     1
102
RTVSPropertyOp54
 70
     1
102
RTVSPropertyOp55
 70
     1
102
RTVSPropertyOp56
 70
     1
102
RTVSPropertyOp57
 70
     1
102
RTVSPost2010Prop28
280
     0
102
RTVSPost2010PropOp28
 70
     1
102
RTVSPost2010Prop29
280
     1
102
RTVSPost2010PropOp29
 70
     1
102
RTVSPost2010Prop30
280
     1
102
RTVSPost2010PropOp30
 70
     1
102
RTVSPost2010Prop31
280
     0
102
RTVSPost2010PropOp31
 70
     1
102
RTVSPost2010Prop32
280
     0
102
RTVSPost2010PropOp32
 70
     1
102
RTVSPost2010Prop33
280
     0
102
RTVSPost2010PropOp33
 70
     1
102
RTVSPost2010Prop34
280
     0
102
RTVSPost2010PropOp34
 70
     1
102
RTVSPost2010Prop35
280
     0
102
RTVSPost2010PropOp35
 70
     1
102
RTVSPost2010Prop36
280
     0
102
RTVSPost2010PropOp36
 70
     1
102
RTVSPost2010Prop37
 90
       50
102
RTVSPost2010PropOp37
 70
     1
102
RTVSPost2010Prop38
140
0.0
102
RTVSPost2010PropOp38
 70
     1
102
RTVSPost2010Prop39
140
1.0
102
RTVSPost2010PropOp39
 70
     1
102
RTVSPost2010Prop40
 90
        0
102
RTVSPost2010PropOp40
 70
     1
102
RTVSPost2010Prop41ColorIndex
 90
       18
102
RTVSPost2010Prop41ColorRGB
 90
        0
102
RTVSPost2010PropOp41
 70
     1
102
RTVSPost2010Prop42
 90
       50
102
RTVSPost2010PropOp42
 70
     1
102
RTVSPost2010Prop43
 90
        3
102
RTVSPost2010PropOp43
 70
     1
102
RTVSPost2010Prop44ColorIndex
 90
        5
102
RTVSPost2010Prop44ColorRGB
 90
      255
102
RTVSPost2010PropOp44
 70
     1
102
RTVSPost2010Prop45
280
     0
102
RTVSPost2010PropOp45
 70
     1
102
RTVSPost2010Prop46
 90
       50
102
RTVSPost2010PropOp46
 70
     1
102
RTVSPost2010Prop47
 90
       50
102
RTVSPost2010PropOp47
 70
     1
102
RTVSPost2010Prop48
 90
       50
102
RTVSPost2010PropOp48
 70
     1
102
RTVSPost2010Prop49
280
     0
102
RTVSPost2010PropOp49
 70
     1
102
RTVSPost2010Prop50
 90
       50
102
RTVSPost2010PropOp50
 70
     1
102
RTVSPost2010Prop51ColorIndex
 90
      256
102
RTVSPost2010Prop51ColorRGB
 90
-16777216
102
RTVSPost2010PropOp51
 70
     0
102
RTVSPost2010Prop52
140
1.0
102
RTVSPost2010PropOp52
 70
     0
102
RTVSPost2010Prop53
 90
        2
102
RTVSPost2010PropOp53
 70
     1
102
RTVSPost2010Prop54
  1
strokes_ogs.tif
102
RTVSPost2010PropOp54
 70
     1
102
RTVSPost2010Prop55
280
     0
102
RTVSPost2010PropOp55
 70
     1
102
RTVSPost2010Prop56
140
1.0
102
RTVSPost2010PropOp56
 70
     1
102
RTVSPost2010Prop57
140
1.0
102
RTVSPost2010PropOp57
 70
     1
  0
XRECORD
  5
1EFB
102
{ACAD_REACTORS
330
1EFA
102
}
330
1EFA
100
AcDbXrecord
280
     1
102
RTVSPropertyOp0
 70
     1
102
RTVSPropertyOp1
 70
     1
102
RTVSPropertyOp2
 70
     1
102
RTVSPropertyOp3
 70
     1
102
RTVSPropertyOp4
 70
     1
102
RTVSPropertyOp5
 70
     1
102
RTVSPropertyOp6
 70
     1
102
RTVSPropertyOp7
 70
     1
102
RTVSPropertyOp8
 70
     1
102
RTVSPropertyOp9
 70
     1
102
RTVSPropertyOp10
 70
     1
102
RTVSPropertyOp11
 70
     1
102
RTVSPropertyOp12
 70
     1
102
RTVSPropertyOp13
 70
     1
102
RTVSPropertyOp14
 70
     1
102
RTVSPropertyOp15
 70
     1
102
RTVSPropertyOp16
 70
     1
102
RTVSPropertyOp17
 70
     1
102
RTVSPropertyOp18
 70
     1
102
RTVSPropertyOp19
 70
     1
102
RTVSPropertyOp20
 70
     1
102
RTVSPropertyOp21
 70
     1
102
RTVSPropertyOp22
 70
     1
102
RTVSPropertyOp23
 70
     1
102
RTVSPropertyOp24
 70
     1
102
RTVSPropertyOp25
 70
     1
102
RTVSPropertyOp26
 70
     1
102
RTVSPropertyOp27
 70
     1
102
RTVSPropertyOp28
 70
     1
102
RTVSPropertyOp29
 70
     1
102
RTVSPropertyOp30
 70
     1
102
RTVSPropertyOp31
 70
     1
102
RTVSPropertyOp32
 70
     1
102
RTVSPropertyOp33
 70
     1
102
RTVSPropertyOp34
 70
     1
102
RTVSPropertyOp35
 70
     1
102
RTVSPropertyOp36
 70
     1
102
RTVSPropertyOp37
 70
     1
102
RTVSPropertyOp38
 70
     1
102
RTVSPropertyOp39
 70
     1
102
RTVSPropertyOp40
 70
     1
102
RTVSPropertyOp41
 70
     1
102
RTVSPropertyOp42
 70
     1
102
RTVSPropertyOp43
 70
     1
102
RTVSPropertyOp44
 70
     1
102
RTVSPropertyOp45
 70
     1
102
RTVSPropertyOp46
 70
     1
102
RTVSPropertyOp47
 70
     1
102
RTVSPropertyOp48
 70
     1
102
RTVSPropertyOp49
 70
     1
102
RTVSPropertyOp50
 70
     1
102
RTVSPropertyOp51
 70
     0
102
RTVSPropertyOp52
 70
     0
102
RTVSPropertyOp53
 70
     1
102
RTVSPropertyOp54
 70
     1
102
RTVSPropertyOp55
 70
     1
102
RTVSPropertyOp56
 70
     1
102
RTVSPropertyOp57
 70
     1
102
RTVSPost2010Prop28
280
     0
102
RTVSPost2010PropOp28
 70
     1
102
RTVSPost2010Prop29
280
     1
102
RTVSPost2010PropOp29
 70
     1
102
RTVSPost2010Prop30
280
     1
102
RTVSPost2010PropOp30
 70
     1
102
RTVSPost2010Prop31
280
     0
102
RTVSPost2010PropOp31
 70
     1
102
RTVSPost2010Prop32
280
     0
102
RTVSPost2010PropOp32
 70
     1
102
RTVSPost2010Prop33
280
     0
102
RTVSPost2010PropOp33
 70
     1
102
RTVSPost2010Prop34
280
     0
102
RTVSPost2010PropOp34
 70
     1
102
RTVSPost2010Prop35
280
     0
102
RTVSPost2010PropOp35
 70
     1
102
RTVSPost2010Prop36
280
     0
102
RTVSPost2010PropOp36
 70
     1
102
RTVSPost2010Prop37
 90
       50
102
RTVSPost2010PropOp37
 70
     1
102
RTVSPost2010Prop38
140
0.0
102
RTVSPost2010PropOp38
 70
     1
102
RTVSPost2010Prop39
140
1.0
102
RTVSPost2010PropOp39
 70
     1
102
RTVSPost2010Prop40
 90
        0
102
RTVSPost2010PropOp40
 70
     1
102
RTVSPost2010Prop41ColorIndex
 90
       18
102
RTVSPost2010Prop41ColorRGB
 90
        0
102
RTVSPost2010PropOp41
 70
     1
102
RTVSPost2010Prop42
 90
       50
102
RTVSPost2010PropOp42
 70
     1
102
RTVSPost2010Prop43
 90
        3
102
RTVSPost2010PropOp43
 70
     1
102
RTVSPost2010Prop44ColorIndex
 90
        5
102
RTVSPost2010Prop44ColorRGB
 90
      255
102
RTVSPost2010PropOp44
 70
     1
102
RTVSPost2010Prop45
280
     0
102
RTVSPost2010PropOp45
 70
     1
102
RTVSPost2010Prop46
 90
       50
102
RTVSPost2010PropOp46
 70
     1
102
RTVSPost2010Prop47
 90
       50
102
RTVSPost2010PropOp47
 70
     1
102
RTVSPost2010Prop48
 90
       50
102
RTVSPost2010PropOp48
 70
     1
102
RTVSPost2010Prop49
280
     0
102
RTVSPost2010PropOp49
 70
     1
102
RTVSPost2010Prop50
 90
       50
102
RTVSPost2010PropOp50
 70
     1
102
RTVSPost2010Prop51ColorIndex
 90
      256
102
RTVSPost2010Prop51ColorRGB
 90
-16777216
102
RTVSPost2010PropOp51
 70
     0
102
RTVSPost2010Prop52
140
1.0
102
RTVSPost2010PropOp52
 70
     0
102
RTVSPost2010Prop53
 90
        2
102
RTVSPost2010PropOp53
 70
     1
102
RTVSPost2010Prop54
  1
strokes_ogs.tif
102
RTVSPost2010PropOp54
 70
     1
102
RTVSPost2010Prop55
280
     0
102
RTVSPost2010PropOp55
 70
     1
102
RTVSPost2010Prop56
140
1.0
102
RTVSPost2010PropOp56
 70
     1
102
RTVSPost2010Prop57
140
1.0
102
RTVSPost2010PropOp57
 70
     1
  0
XRECORD
  5
1F0F
102
{ACAD_REACTORS
330
1F0E
102
}
330
1F0E
100
AcDbXrecord
280
     1
102
RTVSPropertyOp0
 70
     0
102
RTVSPropertyOp1
 70
     0
102
RTVSPropertyOp2
 70
     0
102
RTVSPropertyOp3
 70
     0
102
RTVSPropertyOp4
 70
     0
102
RTVSPropertyOp5
 70
     0
102
RTVSPropertyOp6
 70
     0
102
RTVSPropertyOp7
 70
     0
102
RTVSPropertyOp8
 70
     0
102
RTVSPropertyOp9
 70
     0
102
RTVSPropertyOp10
 70
     0
102
RTVSPropertyOp11
 70
     0
102
RTVSPropertyOp12
 70
     0
102
RTVSPropertyOp13
 70
     0
102
RTVSPropertyOp14
 70
     0
102
RTVSPropertyOp15
 70
     0
102
RTVSPropertyOp16
 70
     0
102
RTVSPropertyOp17
 70
     0
102
RTVSPropertyOp18
 70
     0
102
RTVSPropertyOp19
 70
     0
102
RTVSPropertyOp20
 70
     0
102
RTVSPropertyOp21
 70
     0
102
RTVSPropertyOp22
 70
     0
102
RTVSPropertyOp23
 70
     0
102
RTVSPropertyOp24
 70
     0
102
RTVSPropertyOp25
 70
     0
102
RTVSPropertyOp26
 70
     0
102
RTVSPropertyOp27
 70
     0
102
RTVSPropertyOp28
 70
     1
102
RTVSPropertyOp29
 70
     1
102
RTVSPropertyOp30
 70
     1
102
RTVSPropertyOp31
 70
     1
102
RTVSPropertyOp32
 70
     1
102
RTVSPropertyOp33
 70
     1
102
RTVSPropertyOp34
 70
     1
102
RTVSPropertyOp35
 70
     1
102
RTVSPropertyOp36
 70
     1
102
RTVSPropertyOp37
 70
     1
102
RTVSPropertyOp38
 70
     1
102
RTVSPropertyOp39
 70
     1
102
RTVSPropertyOp40
 70
     1
102
RTVSPropertyOp41
 70
     1
102
RTVSPropertyOp42
 70
     1
102
RTVSPropertyOp43
 70
     1
102
RTVSPropertyOp44
 70
     1
102
RTVSPropertyOp45
 70
     1
102
RTVSPropertyOp46
 70
     1
102
RTVSPropertyOp47
 70
     1
102
RTVSPropertyOp48
 70
     1
102
RTVSPropertyOp49
 70
     1
102
RTVSPropertyOp50
 70
     1
102
RTVSPropertyOp51
 70
     0
102
RTVSPropertyOp52
 70
     0
102
RTVSPropertyOp53
 70
     1
102
RTVSPropertyOp54
 70
     1
102
RTVSPropertyOp55
 70
     1
102
RTVSPropertyOp56
 70
     1
102
RTVSPropertyOp57
 70
     1
102
RTVSPost2010Prop28
280
     0
102
RTVSPost2010PropOp28
 70
     1
102
RTVSPost2010Prop29
280
     1
102
RTVSPost2010PropOp29
 70
     1
102
RTVSPost2010Prop30
280
     1
102
RTVSPost2010PropOp30
 70
     1
102
RTVSPost2010Prop31
280
     0
102
RTVSPost2010PropOp31
 70
     1
102
RTVSPost2010Prop32
280
     0
102
RTVSPost2010PropOp32
 70
     1
102
RTVSPost2010Prop33
280
     0
102
RTVSPost2010PropOp33
 70
     1
102
RTVSPost2010Prop34
280
     0
102
RTVSPost2010PropOp34
 70
     1
102
RTVSPost2010Prop35
280
     0
102
RTVSPost2010PropOp35
 70
     1
102
RTVSPost2010Prop36
280
     0
102
RTVSPost2010PropOp36
 70
     1
102
RTVSPost2010Prop37
 90
       50
102
RTVSPost2010PropOp37
 70
     1
102
RTVSPost2010Prop38
140
0.0
102
RTVSPost2010PropOp38
 70
     1
102
RTVSPost2010Prop39
140
1.0
102
RTVSPost2010PropOp39
 70
     1
102
RTVSPost2010Prop40
 90
        0
102
RTVSPost2010PropOp40
 70
     1
102
RTVSPost2010Prop41ColorIndex
 90
       18
102
RTVSPost2010Prop41ColorRGB
 90
        0
102
RTVSPost2010PropOp41
 70
     1
102
RTVSPost2010Prop42
 90
       50
102
RTVSPost2010PropOp42
 70
     1
102
RTVSPost2010Prop43
 90
        3
102
RTVSPost2010PropOp43
 70
     1
102
RTVSPost2010Prop44ColorIndex
 90
        5
102
RTVSPost2010Prop44ColorRGB
 90
      255
102
RTVSPost2010PropOp44
 70
     1
102
RTVSPost2010Prop45
280
     0
102
RTVSPost2010PropOp45
 70
     1
102
RTVSPost2010Prop46
 90
       50
102
RTVSPost2010PropOp46
 70
     1
102
RTVSPost2010Prop47
 90
       50
102
RTVSPost2010PropOp47
 70
     1
102
RTVSPost2010Prop48
 90
       50
102
RTVSPost2010PropOp48
 70
     1
102
RTVSPost2010Prop49
280
     0
102
RTVSPost2010PropOp49
 70
     1
102
RTVSPost2010Prop50
 90
       50
102
RTVSPost2010PropOp50
 70
     1
102
RTVSPost2010Prop51ColorIndex
 90
      256
102
RTVSPost2010Prop51ColorRGB
 90
-16777216
102
RTVSPost2010PropOp51
 70
     0
102
RTVSPost2010Prop52
140
1.0
102
RTVSPost2010PropOp52
 70
     0
102
RTVSPost2010Prop53
 90
        2
102
RTVSPost2010PropOp53
 70
     1
102
RTVSPost2010Prop54
  1
strokes_ogs.tif
102
RTVSPost2010PropOp54
 70
     1
102
RTVSPost2010Prop55
280
     0
102
RTVSPost2010PropOp55
 70
     1
102
RTVSPost2010Prop56
140
1.0
102
RTVSPost2010PropOp56
 70
     1
102
RTVSPost2010Prop57
140
1.0
102
RTVSPost2010PropOp57
 70
     1
  0
XRECORD
  5
1F09
102
{ACAD_REACTORS
330
1F08
102
}
330
1F08
100
AcDbXrecord
280
     1
102
RTVSPropertyOp0
 70
     1
102
RTVSPropertyOp1
 70
     1
102
RTVSPropertyOp2
 70
     1
102
RTVSPropertyOp3
 70
     1
102
RTVSPropertyOp4
 70
     1
102
RTVSPropertyOp5
 70
     1
102
RTVSPropertyOp6
 70
     1
102
RTVSPropertyOp7
 70
     1
102
RTVSPropertyOp8
 70
     1
102
RTVSPropertyOp9
 70
     1
102
RTVSPropertyOp10
 70
     1
102
RTVSPropertyOp11
 70
     1
102
RTVSPropertyOp12
 70
     1
102
RTVSPropertyOp13
 70
     1
102
RTVSPropertyOp14
 70
     1
102
RTVSPropertyOp15
 70
     1
102
RTVSPropertyOp16
 70
     1
102
RTVSPropertyOp17
 70
     1
102
RTVSPropertyOp18
 70
     1
102
RTVSPropertyOp19
 70
     1
102
RTVSPropertyOp20
 70
     1
102
RTVSPropertyOp21
 70
     1
102
RTVSPropertyOp22
 70
     1
102
RTVSPropertyOp23
 70
     1
102
RTVSPropertyOp24
 70
     1
102
RTVSPropertyOp25
 70
     1
102
RTVSPropertyOp26
 70
     1
102
RTVSPropertyOp27
 70
     1
102
RTVSPropertyOp28
 70
     1
102
RTVSPropertyOp29
 70
     1
102
RTVSPropertyOp30
 70
     1
102
RTVSPropertyOp31
 70
     1
102
RTVSPropertyOp32
 70
     1
102
RTVSPropertyOp33
 70
     1
102
RTVSPropertyOp34
 70
     1
102
RTVSPropertyOp35
 70
     1
102
RTVSPropertyOp36
 70
     1
102
RTVSPropertyOp37
 70
     1
102
RTVSPropertyOp38
 70
     1
102
RTVSPropertyOp39
 70
     1
102
RTVSPropertyOp40
 70
     1
102
RTVSPropertyOp41
 70
     1
102
RTVSPropertyOp42
 70
     1
102
RTVSPropertyOp43
 70
     1
102
RTVSPropertyOp44
 70
     1
102
RTVSPropertyOp45
 70
     1
102
RTVSPropertyOp46
 70
     1
102
RTVSPropertyOp47
 70
     1
102
RTVSPropertyOp48
 70
     1
102
RTVSPropertyOp49
 70
     1
102
RTVSPropertyOp50
 70
     1
102
RTVSPropertyOp51
 70
     0
102
RTVSPropertyOp52
 70
     0
102
RTVSPropertyOp53
 70
     1
102
RTVSPropertyOp54
 70
     1
102
RTVSPropertyOp55
 70
     1
102
RTVSPropertyOp56
 70
     1
102
RTVSPropertyOp57
 70
     1
102
RTVSPost2010Prop28
280
     0
102
RTVSPost2010PropOp28
 70
     1
102
RTVSPost2010Prop29
280
     1
102
RTVSPost2010PropOp29
 70
     1
102
RTVSPost2010Prop30
280
     1
102
RTVSPost2010PropOp30
 70
     1
102
RTVSPost2010Prop31
280
     0
102
RTVSPost2010PropOp31
 70
     1
102
RTVSPost2010Prop32
280
     0
102
RTVSPost2010PropOp32
 70
     1
102
RTVSPost2010Prop33
280
     0
102
RTVSPost2010PropOp33
 70
     1
102
RTVSPost2010Prop34
280
     0
102
RTVSPost2010PropOp34
 70
     1
102
RTVSPost2010Prop35
280
     0
102
RTVSPost2010PropOp35
 70
     1
102
RTVSPost2010Prop36
280
     0
102
RTVSPost2010PropOp36
 70
     1
102
RTVSPost2010Prop37
 90
       50
102
RTVSPost2010PropOp37
 70
     1
102
RTVSPost2010Prop38
140
0.0
102
RTVSPost2010PropOp38
 70
     1
102
RTVSPost2010Prop39
140
1.0
102
RTVSPost2010PropOp39
 70
     1
102
RTVSPost2010Prop40
 90
        0
102
RTVSPost2010PropOp40
 70
     1
102
RTVSPost2010Prop41ColorIndex
 90
       18
102
RTVSPost2010Prop41ColorRGB
 90
        0
102
RTVSPost2010PropOp41
 70
     1
102
RTVSPost2010Prop42
 90
       50
102
RTVSPost2010PropOp42
 70
     1
102
RTVSPost2010Prop43
 90
        3
102
RTVSPost2010PropOp43
 70
     1
102
RTVSPost2010Prop44ColorIndex
 90
        5
102
RTVSPost2010Prop44ColorRGB
 90
      255
102
RTVSPost2010PropOp44
 70
     1
102
RTVSPost2010Prop45
280
     0
102
RTVSPost2010PropOp45
 70
     1
102
RTVSPost2010Prop46
 90
       50
102
RTVSPost2010PropOp46
 70
     1
102
RTVSPost2010Prop47
 90
       50
102
RTVSPost2010PropOp47
 70
     1
102
RTVSPost2010Prop48
 90
       50
102
RTVSPost2010PropOp48
 70
     1
102
RTVSPost2010Prop49
280
     0
102
RTVSPost2010PropOp49
 70
     1
102
RTVSPost2010Prop50
 90
       50
102
RTVSPost2010PropOp50
 70
     1
102
RTVSPost2010Prop51ColorIndex
 90
      256
102
RTVSPost2010Prop51ColorRGB
 90
-16777216
102
RTVSPost2010PropOp51
 70
     0
102
RTVSPost2010Prop52
140
1.0
102
RTVSPost2010PropOp52
 70
     0
102
RTVSPost2010Prop53
 90
        2
102
RTVSPost2010PropOp53
 70
     1
102
RTVSPost2010Prop54
  1
strokes_ogs.tif
102
RTVSPost2010PropOp54
 70
     1
102
RTVSPost2010Prop55
280
     0
102
RTVSPost2010PropOp55
 70
     1
102
RTVSPost2010Prop56
140
1.0
102
RTVSPost2010PropOp56
 70
     1
102
RTVSPost2010Prop57
140
1.0
102
RTVSPost2010PropOp57
 70
     1
  0
XRECORD
  5
1F11
102
{ACAD_REACTORS
330
1F10
102
}
330
1F10
100
AcDbXrecord
280
     1
102
RTVSPropertyOp0
 70
     0
102
RTVSPropertyOp1
 70
     0
102
RTVSPropertyOp2
 70
     0
102
RTVSPropertyOp3
 70
     0
102
RTVSPropertyOp4
 70
     0
102
RTVSPropertyOp5
 70
     0
102
RTVSPropertyOp6
 70
     0
102
RTVSPropertyOp7
 70
     0
102
RTVSPropertyOp8
 70
     0
102
RTVSPropertyOp9
 70
     0
102
RTVSPropertyOp10
 70
     0
102
RTVSPropertyOp11
 70
     0
102
RTVSPropertyOp12
 70
     0
102
RTVSPropertyOp13
 70
     0
102
RTVSPropertyOp14
 70
     0
102
RTVSPropertyOp15
 70
     0
102
RTVSPropertyOp16
 70
     0
102
RTVSPropertyOp17
 70
     0
102
RTVSPropertyOp18
 70
     0
102
RTVSPropertyOp19
 70
     0
102
RTVSPropertyOp20
 70
     0
102
RTVSPropertyOp21
 70
     0
102
RTVSPropertyOp22
 70
     0
102
RTVSPropertyOp23
 70
     0
102
RTVSPropertyOp24
 70
     0
102
RTVSPropertyOp25
 70
     0
102
RTVSPropertyOp26
 70
     0
102
RTVSPropertyOp27
 70
     0
102
RTVSPropertyOp28
 70
     1
102
RTVSPropertyOp29
 70
     1
102
RTVSPropertyOp30
 70
     1
102
RTVSPropertyOp31
 70
     1
102
RTVSPropertyOp32
 70
     1
102
RTVSPropertyOp33
 70
     1
102
RTVSPropertyOp34
 70
     1
102
RTVSPropertyOp35
 70
     1
102
RTVSPropertyOp36
 70
     1
102
RTVSPropertyOp37
 70
     1
102
RTVSPropertyOp38
 70
     1
102
RTVSPropertyOp39
 70
     1
102
RTVSPropertyOp40
 70
     1
102
RTVSPropertyOp41
 70
     1
102
RTVSPropertyOp42
 70
     1
102
RTVSPropertyOp43
 70
     1
102
RTVSPropertyOp44
 70
     1
102
RTVSPropertyOp45
 70
     1
102
RTVSPropertyOp46
 70
     1
102
RTVSPropertyOp47
 70
     1
102
RTVSPropertyOp48
 70
     1
102
RTVSPropertyOp49
 70
     1
102
RTVSPropertyOp50
 70
     1
102
RTVSPropertyOp51
 70
     0
102
RTVSPropertyOp52
 70
     0
102
RTVSPropertyOp53
 70
     1
102
RTVSPropertyOp54
 70
     1
102
RTVSPropertyOp55
 70
     1
102
RTVSPropertyOp56
 70
     1
102
RTVSPropertyOp57
 70
     1
102
RTVSPost2010Prop28
280
     0
102
RTVSPost2010PropOp28
 70
     1
102
RTVSPost2010Prop29
280
     1
102
RTVSPost2010PropOp29
 70
     1
102
RTVSPost2010Prop30
280
     1
102
RTVSPost2010PropOp30
 70
     1
102
RTVSPost2010Prop31
280
     0
102
RTVSPost2010PropOp31
 70
     1
102
RTVSPost2010Prop32
280
     0
102
RTVSPost2010PropOp32
 70
     1
102
RTVSPost2010Prop33
280
     0
102
RTVSPost2010PropOp33
 70
     1
102
RTVSPost2010Prop34
280
     0
102
RTVSPost2010PropOp34
 70
     1
102
RTVSPost2010Prop35
280
     0
102
RTVSPost2010PropOp35
 70
     1
102
RTVSPost2010Prop36
280
     0
102
RTVSPost2010PropOp36
 70
     1
102
RTVSPost2010Prop37
 90
       50
102
RTVSPost2010PropOp37
 70
     1
102
RTVSPost2010Prop38
140
0.0
102
RTVSPost2010PropOp38
 70
     1
102
RTVSPost2010Prop39
140
1.0
102
RTVSPost2010PropOp39
 70
     1
102
RTVSPost2010Prop40
 90
        0
102
RTVSPost2010PropOp40
 70
     1
102
RTVSPost2010Prop41ColorIndex
 90
       18
102
RTVSPost2010Prop41ColorRGB
 90
        0
102
RTVSPost2010PropOp41
 70
     1
102
RTVSPost2010Prop42
 90
       50
102
RTVSPost2010PropOp42
 70
     1
102
RTVSPost2010Prop43
 90
        3
102
RTVSPost2010PropOp43
 70
     1
102
RTVSPost2010Prop44ColorIndex
 90
        5
102
RTVSPost2010Prop44ColorRGB
 90
      255
102
RTVSPost2010PropOp44
 70
     1
102
RTVSPost2010Prop45
280
     0
102
RTVSPost2010PropOp45
 70
     1
102
RTVSPost2010Prop46
 90
       50
102
RTVSPost2010PropOp46
 70
     1
102
RTVSPost2010Prop47
 90
       50
102
RTVSPost2010PropOp47
 70
     1
102
RTVSPost2010Prop48
 90
       50
102
RTVSPost2010PropOp48
 70
     1
102
RTVSPost2010Prop49
280
     0
102
RTVSPost2010PropOp49
 70
     1
102
RTVSPost2010Prop50
 90
       50
102
RTVSPost2010PropOp50
 70
     1
102
RTVSPost2010Prop51ColorIndex
 90
      256
102
RTVSPost2010Prop51ColorRGB
 90
-16777216
102
RTVSPost2010PropOp51
 70
     0
102
RTVSPost2010Prop52
140
1.0
102
RTVSPost2010PropOp52
 70
     0
102
RTVSPost2010Prop53
 90
        2
102
RTVSPost2010PropOp53
 70
     1
102
RTVSPost2010Prop54
  1
strokes_ogs.tif
102
RTVSPost2010PropOp54
 70
     1
102
RTVSPost2010Prop55
280
     0
102
RTVSPost2010PropOp55
 70
     1
102
RTVSPost2010Prop56
140
1.0
102
RTVSPost2010PropOp56
 70
     1
102
RTVSPost2010Prop57
140
1.0
102
RTVSPost2010PropOp57
 70
     1
  0
XRECORD
  5
1EFF
102
{ACAD_REACTORS
330
1EFE
102
}
330
1EFE
100
AcDbXrecord
280
     1
102
RTVSPropertyOp0
 70
     1
102
RTVSPropertyOp1
 70
     1
102
RTVSPropertyOp2
 70
     1
102
RTVSPropertyOp3
 70
     1
102
RTVSPropertyOp4
 70
     1
102
RTVSPropertyOp5
 70
     1
102
RTVSPropertyOp6
 70
     1
102
RTVSPropertyOp7
 70
     1
102
RTVSPropertyOp8
 70
     1
102
RTVSPropertyOp9
 70
     1
102
RTVSPropertyOp10
 70
     1
102
RTVSPropertyOp11
 70
     1
102
RTVSPropertyOp12
 70
     1
102
RTVSPropertyOp13
 70
     1
102
RTVSPropertyOp14
 70
     1
102
RTVSPropertyOp15
 70
     1
102
RTVSPropertyOp16
 70
     1
102
RTVSPropertyOp17
 70
     1
102
RTVSPropertyOp18
 70
     1
102
RTVSPropertyOp19
 70
     1
102
RTVSPropertyOp20
 70
     1
102
RTVSPropertyOp21
 70
     1
102
RTVSPropertyOp22
 70
     1
102
RTVSPropertyOp23
 70
     1
102
RTVSPropertyOp24
 70
     1
102
RTVSPropertyOp25
 70
     1
102
RTVSPropertyOp26
 70
     1
102
RTVSPropertyOp27
 70
     1
102
RTVSPropertyOp28
 70
     1
102
RTVSPropertyOp29
 70
     1
102
RTVSPropertyOp30
 70
     1
102
RTVSPropertyOp31
 70
     1
102
RTVSPropertyOp32
 70
     1
102
RTVSPropertyOp33
 70
     1
102
RTVSPropertyOp34
 70
     1
102
RTVSPropertyOp35
 70
     1
102
RTVSPropertyOp36
 70
     1
102
RTVSPropertyOp37
 70
     1
102
RTVSPropertyOp38
 70
     1
102
RTVSPropertyOp39
 70
     1
102
RTVSPropertyOp40
 70
     1
102
RTVSPropertyOp41
 70
     1
102
RTVSPropertyOp42
 70
     1
102
RTVSPropertyOp43
 70
     1
102
RTVSPropertyOp44
 70
     1
102
RTVSPropertyOp45
 70
     1
102
RTVSPropertyOp46
 70
     1
102
RTVSPropertyOp47
 70
     1
102
RTVSPropertyOp48
 70
     1
102
RTVSPropertyOp49
 70
     1
102
RTVSPropertyOp50
 70
     1
102
RTVSPropertyOp51
 70
     0
102
RTVSPropertyOp52
 70
     0
102
RTVSPropertyOp53
 70
     1
102
RTVSPropertyOp54
 70
     1
102
RTVSPropertyOp55
 70
     1
102
RTVSPropertyOp56
 70
     1
102
RTVSPropertyOp57
 70
     1
102
RTVSPost2010Prop28
280
     0
102
RTVSPost2010PropOp28
 70
     1
102
RTVSPost2010Prop29
280
     1
102
RTVSPost2010PropOp29
 70
     1
102
RTVSPost2010Prop30
280
     1
102
RTVSPost2010PropOp30
 70
     1
102
RTVSPost2010Prop31
280
     0
102
RTVSPost2010PropOp31
 70
     1
102
RTVSPost2010Prop32
280
     0
102
RTVSPost2010PropOp32
 70
     1
102
RTVSPost2010Prop33
280
     0
102
RTVSPost2010PropOp33
 70
     1
102
RTVSPost2010Prop34
280
     0
102
RTVSPost2010PropOp34
 70
     1
102
RTVSPost2010Prop35
280
     0
102
RTVSPost2010PropOp35
 70
     1
102
RTVSPost2010Prop36
280
     0
102
RTVSPost2010PropOp36
 70
     1
102
RTVSPost2010Prop37
 90
       50
102
RTVSPost2010PropOp37
 70
     1
102
RTVSPost2010Prop38
140
0.0
102
RTVSPost2010PropOp38
 70
     1
102
RTVSPost2010Prop39
140
1.0
102
RTVSPost2010PropOp39
 70
     1
102
RTVSPost2010Prop40
 90
        0
102
RTVSPost2010PropOp40
 70
     1
102
RTVSPost2010Prop41ColorIndex
 90
       18
102
RTVSPost2010Prop41ColorRGB
 90
        0
102
RTVSPost2010PropOp41
 70
     1
102
RTVSPost2010Prop42
 90
       50
102
RTVSPost2010PropOp42
 70
     1
102
RTVSPost2010Prop43
 90
        3
102
RTVSPost2010PropOp43
 70
     1
102
RTVSPost2010Prop44ColorIndex
 90
        5
102
RTVSPost2010Prop44ColorRGB
 90
      255
102
RTVSPost2010PropOp44
 70
     1
102
RTVSPost2010Prop45
280
     0
102
RTVSPost2010PropOp45
 70
     1
102
RTVSPost2010Prop46
 90
       50
102
RTVSPost2010PropOp46
 70
     1
102
RTVSPost2010Prop47
 90
       50
102
RTVSPost2010PropOp47
 70
     1
102
RTVSPost2010Prop48
 90
       50
102
RTVSPost2010PropOp48
 70
     1
102
RTVSPost2010Prop49
280
     0
102
RTVSPost2010PropOp49
 70
     1
102
RTVSPost2010Prop50
 90
       50
102
RTVSPost2010PropOp50
 70
     1
102
RTVSPost2010Prop51ColorIndex
 90
      256
102
RTVSPost2010Prop51ColorRGB
 90
-16777216
102
RTVSPost2010PropOp51
 70
     0
102
RTVSPost2010Prop52
140
1.0
102
RTVSPost2010PropOp52
 70
     0
102
RTVSPost2010Prop53
 90
        2
102
RTVSPost2010PropOp53
 70
     1
102
RTVSPost2010Prop54
  1
strokes_ogs.tif
102
RTVSPost2010PropOp54
 70
     1
102
RTVSPost2010Prop55
280
     0
102
RTVSPost2010PropOp55
 70
     1
102
RTVSPost2010Prop56
140
1.0
102
RTVSPost2010PropOp56
 70
     1
102
RTVSPost2010Prop57
140
1.0
102
RTVSPost2010PropOp57
 70
     1
  0
XRECORD
  5
1F1D
102
{ACAD_REACTORS
330
1F1C
102
}
330
1F1C
100
AcDbXrecord
280
     1
102
RTVSPropertyOp0
 70
     1
102
RTVSPropertyOp1
 70
     1
102
RTVSPropertyOp2
 70
     1
102
RTVSPropertyOp3
 70
     1
102
RTVSPropertyOp4
 70
     1
102
RTVSPropertyOp5
 70
     1
102
RTVSPropertyOp6
 70
     1
102
RTVSPropertyOp7
 70
     1
102
RTVSPropertyOp8
 70
     1
102
RTVSPropertyOp9
 70
     1
102
RTVSPropertyOp10
 70
     1
102
RTVSPropertyOp11
 70
     1
102
RTVSPropertyOp12
 70
     1
102
RTVSPropertyOp13
 70
     1
102
RTVSPropertyOp14
 70
     1
102
RTVSPropertyOp15
 70
     1
102
RTVSPropertyOp16
 70
     1
102
RTVSPropertyOp17
 70
     1
102
RTVSPropertyOp18
 70
     1
102
RTVSPropertyOp19
 70
     1
102
RTVSPropertyOp20
 70
     1
102
RTVSPropertyOp21
 70
     1
102
RTVSPropertyOp22
 70
     1
102
RTVSPropertyOp23
 70
     1
102
RTVSPropertyOp24
 70
     1
102
RTVSPropertyOp25
 70
     1
102
RTVSPropertyOp26
 70
     1
102
RTVSPropertyOp27
 70
     1
102
RTVSPropertyOp28
 70
     1
102
RTVSPropertyOp29
 70
     1
102
RTVSPropertyOp30
 70
     1
102
RTVSPropertyOp31
 70
     1
102
RTVSPropertyOp32
 70
     1
102
RTVSPropertyOp33
 70
     1
102
RTVSPropertyOp34
 70
     1
102
RTVSPropertyOp35
 70
     1
102
RTVSPropertyOp36
 70
     1
102
RTVSPropertyOp37
 70
     1
102
RTVSPropertyOp38
 70
     1
102
RTVSPropertyOp39
 70
     1
102
RTVSPropertyOp40
 70
     1
102
RTVSPropertyOp41
 70
     1
102
RTVSPropertyOp42
 70
     1
102
RTVSPropertyOp43
 70
     1
102
RTVSPropertyOp44
 70
     1
102
RTVSPropertyOp45
 70
     1
102
RTVSPropertyOp46
 70
     1
102
RTVSPropertyOp47
 70
     1
102
RTVSPropertyOp48
 70
     1
102
RTVSPropertyOp49
 70
     1
102
RTVSPropertyOp50
 70
     1
102
RTVSPropertyOp51
 70
     0
102
RTVSPropertyOp52
 70
     0
102
RTVSPropertyOp53
 70
     1
102
RTVSPropertyOp54
 70
     1
102
RTVSPropertyOp55
 70
     1
102
RTVSPropertyOp56
 70
     1
102
RTVSPropertyOp57
 70
     1
102
RTVSPost2010Prop28
280
     0
102
RTVSPost2010PropOp28
 70
     1
102
RTVSPost2010Prop29
280
     1
102
RTVSPost2010PropOp29
 70
     1
102
RTVSPost2010Prop30
280
     1
102
RTVSPost2010PropOp30
 70
     1
102
RTVSPost2010Prop31
280
     0
102
RTVSPost2010PropOp31
 70
     1
102
RTVSPost2010Prop32
280
     0
102
RTVSPost2010PropOp32
 70
     1
102
RTVSPost2010Prop33
280
     0
102
RTVSPost2010PropOp33
 70
     1
102
RTVSPost2010Prop34
280
     0
102
RTVSPost2010PropOp34
 70
     1
102
RTVSPost2010Prop35
280
     0
102
RTVSPost2010PropOp35
 70
     1
102
RTVSPost2010Prop36
280
     0
102
RTVSPost2010PropOp36
 70
     1
102
RTVSPost2010Prop37
 90
       50
102
RTVSPost2010PropOp37
 70
     1
102
RTVSPost2010Prop38
140
0.0
102
RTVSPost2010PropOp38
 70
     1
102
RTVSPost2010Prop39
140
1.0
102
RTVSPost2010PropOp39
 70
     1
102
RTVSPost2010Prop40
 90
        0
102
RTVSPost2010PropOp40
 70
     1
102
RTVSPost2010Prop41ColorIndex
 90
       18
102
RTVSPost2010Prop41ColorRGB
 90
        0
102
RTVSPost2010PropOp41
 70
     1
102
RTVSPost2010Prop42
 90
       50
102
RTVSPost2010PropOp42
 70
     1
102
RTVSPost2010Prop43
 90
        3
102
RTVSPost2010PropOp43
 70
     1
102
RTVSPost2010Prop44ColorIndex
 90
        5
102
RTVSPost2010Prop44ColorRGB
 90
      255
102
RTVSPost2010PropOp44
 70
     1
102
RTVSPost2010Prop45
280
     0
102
RTVSPost2010PropOp45
 70
     1
102
RTVSPost2010Prop46
 90
       50
102
RTVSPost2010PropOp46
 70
     1
102
RTVSPost2010Prop47
 90
       50
102
RTVSPost2010PropOp47
 70
     1
102
RTVSPost2010Prop48
 90
       50
102
RTVSPost2010PropOp48
 70
     1
102
RTVSPost2010Prop49
280
     0
102
RTVSPost2010PropOp49
 70
     1
102
RTVSPost2010Prop50
 90
       50
102
RTVSPost2010PropOp50
 70
     1
102
RTVSPost2010Prop51ColorIndex
 90
      256
102
RTVSPost2010Prop51ColorRGB
 90
-16777216
102
RTVSPost2010PropOp51
 70
     0
102
RTVSPost2010Prop52
140
1.0
102
RTVSPost2010PropOp52
 70
     0
102
RTVSPost2010Prop53
 90
        2
102
RTVSPost2010PropOp53
 70
     1
102
RTVSPost2010Prop54
  1
strokes_ogs.tif
102
RTVSPost2010PropOp54
 70
     1
102
RTVSPost2010Prop55
280
     0
102
RTVSPost2010PropOp55
 70
     1
102
RTVSPost2010Prop56
140
1.0
102
RTVSPost2010PropOp56
 70
     1
102
RTVSPost2010Prop57
140
1.0
102
RTVSPost2010PropOp57
 70
     1
  0
XRECORD
  5
1F1B
102
{ACAD_REACTORS
330
1F1A
102
}
330
1F1A
100
AcDbXrecord
280
     1
102
RTVSPropertyOp0
 70
     1
102
RTVSPropertyOp1
 70
     1
102
RTVSPropertyOp2
 70
     1
102
RTVSPropertyOp3
 70
     1
102
RTVSPropertyOp4
 70
     1
102
RTVSPropertyOp5
 70
     1
102
RTVSPropertyOp6
 70
     1
102
RTVSPropertyOp7
 70
     1
102
RTVSPropertyOp8
 70
     1
102
RTVSPropertyOp9
 70
     1
102
RTVSPropertyOp10
 70
     1
102
RTVSPropertyOp11
 70
     1
102
RTVSPropertyOp12
 70
     1
102
RTVSPropertyOp13
 70
     1
102
RTVSPropertyOp14
 70
     1
102
RTVSPropertyOp15
 70
     1
102
RTVSPropertyOp16
 70
     1
102
RTVSPropertyOp17
 70
     1
102
RTVSPropertyOp18
 70
     1
102
RTVSPropertyOp19
 70
     1
102
RTVSPropertyOp20
 70
     1
102
RTVSPropertyOp21
 70
     1
102
RTVSPropertyOp22
 70
     1
102
RTVSPropertyOp23
 70
     1
102
RTVSPropertyOp24
 70
     1
102
RTVSPropertyOp25
 70
     1
102
RTVSPropertyOp26
 70
     1
102
RTVSPropertyOp27
 70
     1
102
RTVSPropertyOp28
 70
     1
102
RTVSPropertyOp29
 70
     1
102
RTVSPropertyOp30
 70
     1
102
RTVSPropertyOp31
 70
     1
102
RTVSPropertyOp32
 70
     1
102
RTVSPropertyOp33
 70
     1
102
RTVSPropertyOp34
 70
     1
102
RTVSPropertyOp35
 70
     1
102
RTVSPropertyOp36
 70
     1
102
RTVSPropertyOp37
 70
     1
102
RTVSPropertyOp38
 70
     1
102
RTVSPropertyOp39
 70
     1
102
RTVSPropertyOp40
 70
     1
102
RTVSPropertyOp41
 70
     1
102
RTVSPropertyOp42
 70
     1
102
RTVSPropertyOp43
 70
     1
102
RTVSPropertyOp44
 70
     1
102
RTVSPropertyOp45
 70
     1
102
RTVSPropertyOp46
 70
     1
102
RTVSPropertyOp47
 70
     1
102
RTVSPropertyOp48
 70
     1
102
RTVSPropertyOp49
 70
     1
102
RTVSPropertyOp50
 70
     1
102
RTVSPropertyOp51
 70
     0
102
RTVSPropertyOp52
 70
     0
102
RTVSPropertyOp53
 70
     1
102
RTVSPropertyOp54
 70
     1
102
RTVSPropertyOp55
 70
     1
102
RTVSPropertyOp56
 70
     1
102
RTVSPropertyOp57
 70
     1
102
RTVSPost2010Prop28
280
     0
102
RTVSPost2010PropOp28
 70
     1
102
RTVSPost2010Prop29
280
     1
102
RTVSPost2010PropOp29
 70
     1
102
RTVSPost2010Prop30
280
     1
102
RTVSPost2010PropOp30
 70
     1
102
RTVSPost2010Prop31
280
     0
102
RTVSPost2010PropOp31
 70
     1
102
RTVSPost2010Prop32
280
     0
102
RTVSPost2010PropOp32
 70
     1
102
RTVSPost2010Prop33
280
     0
102
RTVSPost2010PropOp33
 70
     1
102
RTVSPost2010Prop34
280
     0
102
RTVSPost2010PropOp34
 70
     1
102
RTVSPost2010Prop35
280
     0
102
RTVSPost2010PropOp35
 70
     1
102
RTVSPost2010Prop36
280
     0
102
RTVSPost2010PropOp36
 70
     1
102
RTVSPost2010Prop37
 90
       50
102
RTVSPost2010PropOp37
 70
     1
102
RTVSPost2010Prop38
140
0.0
102
RTVSPost2010PropOp38
 70
     1
102
RTVSPost2010Prop39
140
1.0
102
RTVSPost2010PropOp39
 70
     1
102
RTVSPost2010Prop40
 90
        0
102
RTVSPost2010PropOp40
 70
     1
102
RTVSPost2010Prop41ColorIndex
 90
       18
102
RTVSPost2010Prop41ColorRGB
 90
        0
102
RTVSPost2010PropOp41
 70
     1
102
RTVSPost2010Prop42
 90
       50
102
RTVSPost2010PropOp42
 70
     1
102
RTVSPost2010Prop43
 90
        3
102
RTVSPost2010PropOp43
 70
     1
102
RTVSPost2010Prop44ColorIndex
 90
        5
102
RTVSPost2010Prop44ColorRGB
 90
      255
102
RTVSPost2010PropOp44
 70
     1
102
RTVSPost2010Prop45
280
     0
102
RTVSPost2010PropOp45
 70
     1
102
RTVSPost2010Prop46
 90
       50
102
RTVSPost2010PropOp46
 70
     1
102
RTVSPost2010Prop47
 90
       50
102
RTVSPost2010PropOp47
 70
     1
102
RTVSPost2010Prop48
 90
       50
102
RTVSPost2010PropOp48
 70
     1
102
RTVSPost2010Prop49
280
     0
102
RTVSPost2010PropOp49
 70
     1
102
RTVSPost2010Prop50
 90
       50
102
RTVSPost2010PropOp50
 70
     1
102
RTVSPost2010Prop51ColorIndex
 90
      256
102
RTVSPost2010Prop51ColorRGB
 90
-16777216
102
RTVSPost2010PropOp51
 70
     0
102
RTVSPost2010Prop52
140
1.0
102
RTVSPost2010PropOp52
 70
     0
102
RTVSPost2010Prop53
 90
        2
102
RTVSPost2010PropOp53
 70
     1
102
RTVSPost2010Prop54
  1
strokes_ogs.tif
102
RTVSPost2010PropOp54
 70
     1
102
RTVSPost2010Prop55
280
     0
102
RTVSPost2010PropOp55
 70
     1
102
RTVSPost2010Prop56
140
1.0
102
RTVSPost2010PropOp56
 70
     1
102
RTVSPost2010Prop57
140
1.0
102
RTVSPost2010PropOp57
 70
     1
  0
XRECORD
  5
1F15
102
{ACAD_REACTORS
330
1F14
102
}
330
1F14
100
AcDbXrecord
280
     1
102
RTVSPropertyOp0
 70
     1
102
RTVSPropertyOp1
 70
     1
102
RTVSPropertyOp2
 70
     1
102
RTVSPropertyOp3
 70
     1
102
RTVSPropertyOp4
 70
     1
102
RTVSPropertyOp5
 70
     1
102
RTVSPropertyOp6
 70
     1
102
RTVSPropertyOp7
 70
     1
102
RTVSPropertyOp8
 70
     1
102
RTVSPropertyOp9
 70
     1
102
RTVSPropertyOp10
 70
     1
102
RTVSPropertyOp11
 70
     1
102
RTVSPropertyOp12
 70
     1
102
RTVSPropertyOp13
 70
     1
102
RTVSPropertyOp14
 70
     1
102
RTVSPropertyOp15
 70
     1
102
RTVSPropertyOp16
 70
     1
102
RTVSPropertyOp17
 70
     1
102
RTVSPropertyOp18
 70
     1
102
RTVSPropertyOp19
 70
     1
102
RTVSPropertyOp20
 70
     1
102
RTVSPropertyOp21
 70
     1
102
RTVSPropertyOp22
 70
     1
102
RTVSPropertyOp23
 70
     1
102
RTVSPropertyOp24
 70
     1
102
RTVSPropertyOp25
 70
     1
102
RTVSPropertyOp26
 70
     1
102
RTVSPropertyOp27
 70
     1
102
RTVSPropertyOp28
 70
     1
102
RTVSPropertyOp29
 70
     1
102
RTVSPropertyOp30
 70
     1
102
RTVSPropertyOp31
 70
     1
102
RTVSPropertyOp32
 70
     1
102
RTVSPropertyOp33
 70
     1
102
RTVSPropertyOp34
 70
     1
102
RTVSPropertyOp35
 70
     1
102
RTVSPropertyOp36
 70
     1
102
RTVSPropertyOp37
 70
     1
102
RTVSPropertyOp38
 70
     1
102
RTVSPropertyOp39
 70
     1
102
RTVSPropertyOp40
 70
     1
102
RTVSPropertyOp41
 70
     1
102
RTVSPropertyOp42
 70
     1
102
RTVSPropertyOp43
 70
     1
102
RTVSPropertyOp44
 70
     1
102
RTVSPropertyOp45
 70
     1
102
RTVSPropertyOp46
 70
     1
102
RTVSPropertyOp47
 70
     1
102
RTVSPropertyOp48
 70
     1
102
RTVSPropertyOp49
 70
     1
102
RTVSPropertyOp50
 70
     1
102
RTVSPropertyOp51
 70
     0
102
RTVSPropertyOp52
 70
     0
102
RTVSPropertyOp53
 70
     1
102
RTVSPropertyOp54
 70
     1
102
RTVSPropertyOp55
 70
     1
102
RTVSPropertyOp56
 70
     1
102
RTVSPropertyOp57
 70
     1
102
RTVSPost2010Prop28
280
     0
102
RTVSPost2010PropOp28
 70
     1
102
RTVSPost2010Prop29
280
     1
102
RTVSPost2010PropOp29
 70
     1
102
RTVSPost2010Prop30
280
     1
102
RTVSPost2010PropOp30
 70
     1
102
RTVSPost2010Prop31
280
     0
102
RTVSPost2010PropOp31
 70
     1
102
RTVSPost2010Prop32
280
     0
102
RTVSPost2010PropOp32
 70
     1
102
RTVSPost2010Prop33
280
     0
102
RTVSPost2010PropOp33
 70
     1
102
RTVSPost2010Prop34
280
     0
102
RTVSPost2010PropOp34
 70
     1
102
RTVSPost2010Prop35
280
     0
102
RTVSPost2010PropOp35
 70
     1
102
RTVSPost2010Prop36
280
     0
102
RTVSPost2010PropOp36
 70
     1
102
RTVSPost2010Prop37
 90
       50
102
RTVSPost2010PropOp37
 70
     1
102
RTVSPost2010Prop38
140
0.0
102
RTVSPost2010PropOp38
 70
     1
102
RTVSPost2010Prop39
140
1.0
102
RTVSPost2010PropOp39
 70
     1
102
RTVSPost2010Prop40
 90
        0
102
RTVSPost2010PropOp40
 70
     1
102
RTVSPost2010Prop41ColorIndex
 90
       18
102
RTVSPost2010Prop41ColorRGB
 90
        0
102
RTVSPost2010PropOp41
 70
     1
102
RTVSPost2010Prop42
 90
       50
102
RTVSPost2010PropOp42
 70
     1
102
RTVSPost2010Prop43
 90
        3
102
RTVSPost2010PropOp43
 70
     1
102
RTVSPost2010Prop44ColorIndex
 90
        5
102
RTVSPost2010Prop44ColorRGB
 90
      255
102
RTVSPost2010PropOp44
 70
     1
102
RTVSPost2010Prop45
280
     0
102
RTVSPost2010PropOp45
 70
     1
102
RTVSPost2010Prop46
 90
       50
102
RTVSPost2010PropOp46
 70
     1
102
RTVSPost2010Prop47
 90
       50
102
RTVSPost2010PropOp47
 70
     1
102
RTVSPost2010Prop48
 90
       50
102
RTVSPost2010PropOp48
 70
     1
102
RTVSPost2010Prop49
280
     0
102
RTVSPost2010PropOp49
 70
     1
102
RTVSPost2010Prop50
 90
       50
102
RTVSPost2010PropOp50
 70
     1
102
RTVSPost2010Prop51ColorIndex
 90
      256
102
RTVSPost2010Prop51ColorRGB
 90
-16777216
102
RTVSPost2010PropOp51
 70
     0
102
RTVSPost2010Prop52
140
1.0
102
RTVSPost2010PropOp52
 70
     0
102
RTVSPost2010Prop53
 90
        2
102
RTVSPost2010PropOp53
 70
     1
102
RTVSPost2010Prop54
  1
strokes_ogs.tif
102
RTVSPost2010PropOp54
 70
     1
102
RTVSPost2010Prop55
280
     0
102
RTVSPost2010PropOp55
 70
     1
102
RTVSPost2010Prop56
140
1.0
102
RTVSPost2010PropOp56
 70
     1
102
RTVSPost2010Prop57
140
1.0
102
RTVSPost2010PropOp57
 70
     1
  0
XRECORD
  5
1F17
102
{ACAD_REACTORS
330
1F16
102
}
330
1F16
100
AcDbXrecord
280
     1
102
RTVSPropertyOp0
 70
     1
102
RTVSPropertyOp1
 70
     1
102
RTVSPropertyOp2
 70
     1
102
RTVSPropertyOp3
 70
     1
102
RTVSPropertyOp4
 70
     1
102
RTVSPropertyOp5
 70
     1
102
RTVSPropertyOp6
 70
     1
102
RTVSPropertyOp7
 70
     1
102
RTVSPropertyOp8
 70
     1
102
RTVSPropertyOp9
 70
     1
102
RTVSPropertyOp10
 70
     1
102
RTVSPropertyOp11
 70
     1
102
RTVSPropertyOp12
 70
     1
102
RTVSPropertyOp13
 70
     1
102
RTVSPropertyOp14
 70
     1
102
RTVSPropertyOp15
 70
     1
102
RTVSPropertyOp16
 70
     1
102
RTVSPropertyOp17
 70
     1
102
RTVSPropertyOp18
 70
     1
102
RTVSPropertyOp19
 70
     1
102
RTVSPropertyOp20
 70
     1
102
RTVSPropertyOp21
 70
     1
102
RTVSPropertyOp22
 70
     1
102
RTVSPropertyOp23
 70
     1
102
RTVSPropertyOp24
 70
     1
102
RTVSPropertyOp25
 70
     1
102
RTVSPropertyOp26
 70
     1
102
RTVSPropertyOp27
 70
     1
102
RTVSPropertyOp28
 70
     1
102
RTVSPropertyOp29
 70
     1
102
RTVSPropertyOp30
 70
     1
102
RTVSPropertyOp31
 70
     1
102
RTVSPropertyOp32
 70
     1
102
RTVSPropertyOp33
 70
     1
102
RTVSPropertyOp34
 70
     1
102
RTVSPropertyOp35
 70
     1
102
RTVSPropertyOp36
 70
     1
102
RTVSPropertyOp37
 70
     1
102
RTVSPropertyOp38
 70
     1
102
RTVSPropertyOp39
 70
     1
102
RTVSPropertyOp40
 70
     1
102
RTVSPropertyOp41
 70
     1
102
RTVSPropertyOp42
 70
     1
102
RTVSPropertyOp43
 70
     1
102
RTVSPropertyOp44
 70
     1
102
RTVSPropertyOp45
 70
     1
102
RTVSPropertyOp46
 70
     1
102
RTVSPropertyOp47
 70
     1
102
RTVSPropertyOp48
 70
     1
102
RTVSPropertyOp49
 70
     1
102
RTVSPropertyOp50
 70
     1
102
RTVSPropertyOp51
 70
     0
102
RTVSPropertyOp52
 70
     0
102
RTVSPropertyOp53
 70
     1
102
RTVSPropertyOp54
 70
     1
102
RTVSPropertyOp55
 70
     1
102
RTVSPropertyOp56
 70
     1
102
RTVSPropertyOp57
 70
     1
102
RTVSPost2010Prop28
280
     0
102
RTVSPost2010PropOp28
 70
     1
102
RTVSPost2010Prop29
280
     1
102
RTVSPost2010PropOp29
 70
     1
102
RTVSPost2010Prop30
280
     1
102
RTVSPost2010PropOp30
 70
     1
102
RTVSPost2010Prop31
280
     0
102
RTVSPost2010PropOp31
 70
     1
102
RTVSPost2010Prop32
280
     0
102
RTVSPost2010PropOp32
 70
     1
102
RTVSPost2010Prop33
280
     0
102
RTVSPost2010PropOp33
 70
     1
102
RTVSPost2010Prop34
280
     0
102
RTVSPost2010PropOp34
 70
     1
102
RTVSPost2010Prop35
280
     0
102
RTVSPost2010PropOp35
 70
     1
102
RTVSPost2010Prop36
280
     0
102
RTVSPost2010PropOp36
 70
     1
102
RTVSPost2010Prop37
 90
       50
102
RTVSPost2010PropOp37
 70
     1
102
RTVSPost2010Prop38
140
0.0
102
RTVSPost2010PropOp38
 70
     1
102
RTVSPost2010Prop39
140
1.0
102
RTVSPost2010PropOp39
 70
     1
102
RTVSPost2010Prop40
 90
        0
102
RTVSPost2010PropOp40
 70
     1
102
RTVSPost2010Prop41ColorIndex
 90
       18
102
RTVSPost2010Prop41ColorRGB
 90
        0
102
RTVSPost2010PropOp41
 70
     1
102
RTVSPost2010Prop42
 90
       50
102
RTVSPost2010PropOp42
 70
     1
102
RTVSPost2010Prop43
 90
        3
102
RTVSPost2010PropOp43
 70
     1
102
RTVSPost2010Prop44ColorIndex
 90
        5
102
RTVSPost2010Prop44ColorRGB
 90
      255
102
RTVSPost2010PropOp44
 70
     1
102
RTVSPost2010Prop45
280
     0
102
RTVSPost2010PropOp45
 70
     1
102
RTVSPost2010Prop46
 90
       50
102
RTVSPost2010PropOp46
 70
     1
102
RTVSPost2010Prop47
 90
       50
102
RTVSPost2010PropOp47
 70
     1
102
RTVSPost2010Prop48
 90
       50
102
RTVSPost2010PropOp48
 70
     1
102
RTVSPost2010Prop49
280
     0
102
RTVSPost2010PropOp49
 70
     1
102
RTVSPost2010Prop50
 90
       50
102
RTVSPost2010PropOp50
 70
     1
102
RTVSPost2010Prop51ColorIndex
 90
      256
102
RTVSPost2010Prop51ColorRGB
 90
-16777216
102
RTVSPost2010PropOp51
 70
     0
102
RTVSPost2010Prop52
140
1.0
102
RTVSPost2010PropOp52
 70
     0
102
RTVSPost2010Prop53
 90
        2
102
RTVSPost2010PropOp53
 70
     1
102
RTVSPost2010Prop54
  1
strokes_ogs.tif
102
RTVSPost2010PropOp54
 70
     1
102
RTVSPost2010Prop55
280
     0
102
RTVSPost2010PropOp55
 70
     1
102
RTVSPost2010Prop56
140
1.0
102
RTVSPost2010PropOp56
 70
     1
102
RTVSPost2010Prop57
140
1.0
102
RTVSPost2010PropOp57
 70
     1
  0
XRECORD
  5
1F07
102
{ACAD_REACTORS
330
1F06
102
}
330
1F06
100
AcDbXrecord
280
     1
102
RTVSPropertyOp0
 70
     1
102
RTVSPropertyOp1
 70
     1
102
RTVSPropertyOp2
 70
     1
102
RTVSPropertyOp3
 70
     1
102
RTVSPropertyOp4
 70
     1
102
RTVSPropertyOp5
 70
     1
102
RTVSPropertyOp6
 70
     1
102
RTVSPropertyOp7
 70
     1
102
RTVSPropertyOp8
 70
     1
102
RTVSPropertyOp9
 70
     1
102
RTVSPropertyOp10
 70
     1
102
RTVSPropertyOp11
 70
     1
102
RTVSPropertyOp12
 70
     1
102
RTVSPropertyOp13
 70
     1
102
RTVSPropertyOp14
 70
     1
102
RTVSPropertyOp15
 70
     1
102
RTVSPropertyOp16
 70
     1
102
RTVSPropertyOp17
 70
     1
102
RTVSPropertyOp18
 70
     1
102
RTVSPropertyOp19
 70
     1
102
RTVSPropertyOp20
 70
     1
102
RTVSPropertyOp21
 70
     1
102
RTVSPropertyOp22
 70
     1
102
RTVSPropertyOp23
 70
     1
102
RTVSPropertyOp24
 70
     1
102
RTVSPropertyOp25
 70
     1
102
RTVSPropertyOp26
 70
     1
102
RTVSPropertyOp27
 70
     1
102
RTVSPropertyOp28
 70
     1
102
RTVSPropertyOp29
 70
     1
102
RTVSPropertyOp30
 70
     1
102
RTVSPropertyOp31
 70
     1
102
RTVSPropertyOp32
 70
     1
102
RTVSPropertyOp33
 70
     1
102
RTVSPropertyOp34
 70
     1
102
RTVSPropertyOp35
 70
     1
102
RTVSPropertyOp36
 70
     1
102
RTVSPropertyOp37
 70
     1
102
RTVSPropertyOp38
 70
     1
102
RTVSPropertyOp39
 70
     1
102
RTVSPropertyOp40
 70
     1
102
RTVSPropertyOp41
 70
     1
102
RTVSPropertyOp42
 70
     1
102
RTVSPropertyOp43
 70
     1
102
RTVSPropertyOp44
 70
     1
102
RTVSPropertyOp45
 70
     1
102
RTVSPropertyOp46
 70
     1
102
RTVSPropertyOp47
 70
     1
102
RTVSPropertyOp48
 70
     1
102
RTVSPropertyOp49
 70
     1
102
RTVSPropertyOp50
 70
     1
102
RTVSPropertyOp51
 70
     0
102
RTVSPropertyOp52
 70
     0
102
RTVSPropertyOp53
 70
     1
102
RTVSPropertyOp54
 70
     1
102
RTVSPropertyOp55
 70
     1
102
RTVSPropertyOp56
 70
     1
102
RTVSPropertyOp57
 70
     1
102
RTVSPost2010Prop28
280
     0
102
RTVSPost2010PropOp28
 70
     1
102
RTVSPost2010Prop29
280
     1
102
RTVSPost2010PropOp29
 70
     1
102
RTVSPost2010Prop30
280
     1
102
RTVSPost2010PropOp30
 70
     1
102
RTVSPost2010Prop31
280
     0
102
RTVSPost2010PropOp31
 70
     1
102
RTVSPost2010Prop32
280
     0
102
RTVSPost2010PropOp32
 70
     1
102
RTVSPost2010Prop33
280
     0
102
RTVSPost2010PropOp33
 70
     1
102
RTVSPost2010Prop34
280
     0
102
RTVSPost2010PropOp34
 70
     1
102
RTVSPost2010Prop35
280
     0
102
RTVSPost2010PropOp35
 70
     1
102
RTVSPost2010Prop36
280
     0
102
RTVSPost2010PropOp36
 70
     1
102
RTVSPost2010Prop37
 90
       50
102
RTVSPost2010PropOp37
 70
     1
102
RTVSPost2010Prop38
140
0.0
102
RTVSPost2010PropOp38
 70
     1
102
RTVSPost2010Prop39
140
1.0
102
RTVSPost2010PropOp39
 70
     1
102
RTVSPost2010Prop40
 90
        0
102
RTVSPost2010PropOp40
 70
     1
102
RTVSPost2010Prop41ColorIndex
 90
       18
102
RTVSPost2010Prop41ColorRGB
 90
        0
102
RTVSPost2010PropOp41
 70
     1
102
RTVSPost2010Prop42
 90
       50
102
RTVSPost2010PropOp42
 70
     1
102
RTVSPost2010Prop43
 90
        3
102
RTVSPost2010PropOp43
 70
     1
102
RTVSPost2010Prop44ColorIndex
 90
        5
102
RTVSPost2010Prop44ColorRGB
 90
      255
102
RTVSPost2010PropOp44
 70
     1
102
RTVSPost2010Prop45
280
     0
102
RTVSPost2010PropOp45
 70
     1
102
RTVSPost2010Prop46
 90
       50
102
RTVSPost2010PropOp46
 70
     1
102
RTVSPost2010Prop47
 90
       50
102
RTVSPost2010PropOp47
 70
     1
102
RTVSPost2010Prop48
 90
       50
102
RTVSPost2010PropOp48
 70
     1
102
RTVSPost2010Prop49
280
     0
102
RTVSPost2010PropOp49
 70
     1
102
RTVSPost2010Prop50
 90
       50
102
RTVSPost2010PropOp50
 70
     1
102
RTVSPost2010Prop51ColorIndex
 90
      256
102
RTVSPost2010Prop51ColorRGB
 90
-16777216
102
RTVSPost2010PropOp51
 70
     0
102
RTVSPost2010Prop52
140
1.0
102
RTVSPost2010PropOp52
 70
     0
102
RTVSPost2010Prop53
 90
        2
102
RTVSPost2010PropOp53
 70
     1
102
RTVSPost2010Prop54
  1
strokes_ogs.tif
102
RTVSPost2010PropOp54
 70
     1
102
RTVSPost2010Prop55
280
     0
102
RTVSPost2010PropOp55
 70
     1
102
RTVSPost2010Prop56
140
1.0
102
RTVSPost2010PropOp56
 70
     1
102
RTVSPost2010Prop57
140
1.0
102
RTVSPost2010PropOp57
 70
     1
  0
XRECORD
  5
1EF9
102
{ACAD_REACTORS
330
1EF8
102
}
330
1EF8
100
AcDbXrecord
280
     1
102
RTVSPropertyOp0
 70
     1
102
RTVSPropertyOp1
 70
     1
102
RTVSPropertyOp2
 70
     1
102
RTVSPropertyOp3
 70
     1
102
RTVSPropertyOp4
 70
     1
102
RTVSPropertyOp5
 70
     1
102
RTVSPropertyOp6
 70
     1
102
RTVSPropertyOp7
 70
     1
102
RTVSPropertyOp8
 70
     1
102
RTVSPropertyOp9
 70
     1
102
RTVSPropertyOp10
 70
     1
102
RTVSPropertyOp11
 70
     1
102
RTVSPropertyOp12
 70
     1
102
RTVSPropertyOp13
 70
     1
102
RTVSPropertyOp14
 70
     1
102
RTVSPropertyOp15
 70
     1
102
RTVSPropertyOp16
 70
     1
102
RTVSPropertyOp17
 70
     1
102
RTVSPropertyOp18
 70
     1
102
RTVSPropertyOp19
 70
     1
102
RTVSPropertyOp20
 70
     1
102
RTVSPropertyOp21
 70
     1
102
RTVSPropertyOp22
 70
     1
102
RTVSPropertyOp23
 70
     1
102
RTVSPropertyOp24
 70
     1
102
RTVSPropertyOp25
 70
     1
102
RTVSPropertyOp26
 70
     1
102
RTVSPropertyOp27
 70
     1
102
RTVSPropertyOp28
 70
     1
102
RTVSPropertyOp29
 70
     1
102
RTVSPropertyOp30
 70
     1
102
RTVSPropertyOp31
 70
     1
102
RTVSPropertyOp32
 70
     1
102
RTVSPropertyOp33
 70
     1
102
RTVSPropertyOp34
 70
     1
102
RTVSPropertyOp35
 70
     1
102
RTVSPropertyOp36
 70
     1
102
RTVSPropertyOp37
 70
     1
102
RTVSPropertyOp38
 70
     1
102
RTVSPropertyOp39
 70
     1
102
RTVSPropertyOp40
 70
     1
102
RTVSPropertyOp41
 70
     1
102
RTVSPropertyOp42
 70
     1
102
RTVSPropertyOp43
 70
     1
102
RTVSPropertyOp44
 70
     1
102
RTVSPropertyOp45
 70
     1
102
RTVSPropertyOp46
 70
     1
102
RTVSPropertyOp47
 70
     1
102
RTVSPropertyOp48
 70
     1
102
RTVSPropertyOp49
 70
     1
102
RTVSPropertyOp50
 70
     1
102
RTVSPropertyOp51
 70
     0
102
RTVSPropertyOp52
 70
     0
102
RTVSPropertyOp53
 70
     1
102
RTVSPropertyOp54
 70
     1
102
RTVSPropertyOp55
 70
     1
102
RTVSPropertyOp56
 70
     1
102
RTVSPropertyOp57
 70
     1
102
RTVSPost2010Prop28
280
     0
102
RTVSPost2010PropOp28
 70
     1
102
RTVSPost2010Prop29
280
     1
102
RTVSPost2010PropOp29
 70
     1
102
RTVSPost2010Prop30
280
     1
102
RTVSPost2010PropOp30
 70
     1
102
RTVSPost2010Prop31
280
     0
102
RTVSPost2010PropOp31
 70
     1
102
RTVSPost2010Prop32
280
     0
102
RTVSPost2010PropOp32
 70
     1
102
RTVSPost2010Prop33
280
     0
102
RTVSPost2010PropOp33
 70
     1
102
RTVSPost2010Prop34
280
     0
102
RTVSPost2010PropOp34
 70
     1
102
RTVSPost2010Prop35
280
     0
102
RTVSPost2010PropOp35
 70
     1
102
RTVSPost2010Prop36
280
     0
102
RTVSPost2010PropOp36
 70
     1
102
RTVSPost2010Prop37
 90
       50
102
RTVSPost2010PropOp37
 70
     1
102
RTVSPost2010Prop38
140
0.0
102
RTVSPost2010PropOp38
 70
     1
102
RTVSPost2010Prop39
140
1.0
102
RTVSPost2010PropOp39
 70
     1
102
RTVSPost2010Prop40
 90
        0
102
RTVSPost2010PropOp40
 70
     1
102
RTVSPost2010Prop41ColorIndex
 90
       18
102
RTVSPost2010Prop41ColorRGB
 90
        0
102
RTVSPost2010PropOp41
 70
     1
102
RTVSPost2010Prop42
 90
       50
102
RTVSPost2010PropOp42
 70
     1
102
RTVSPost2010Prop43
 90
        3
102
RTVSPost2010PropOp43
 70
     1
102
RTVSPost2010Prop44ColorIndex
 90
        5
102
RTVSPost2010Prop44ColorRGB
 90
      255
102
RTVSPost2010PropOp44
 70
     1
102
RTVSPost2010Prop45
280
     0
102
RTVSPost2010PropOp45
 70
     1
102
RTVSPost2010Prop46
 90
       50
102
RTVSPost2010PropOp46
 70
     1
102
RTVSPost2010Prop47
 90
       50
102
RTVSPost2010PropOp47
 70
     1
102
RTVSPost2010Prop48
 90
       50
102
RTVSPost2010PropOp48
 70
     1
102
RTVSPost2010Prop49
280
     0
102
RTVSPost2010PropOp49
 70
     1
102
RTVSPost2010Prop50
 90
       50
102
RTVSPost2010PropOp50
 70
     1
102
RTVSPost2010Prop51ColorIndex
 90
      256
102
RTVSPost2010Prop51ColorRGB
 90
-16777216
102
RTVSPost2010PropOp51
 70
     0
102
RTVSPost2010Prop52
140
1.0
102
RTVSPost2010PropOp52
 70
     0
102
RTVSPost2010Prop53
 90
        2
102
RTVSPost2010PropOp53
 70
     1
102
RTVSPost2010Prop54
  1
strokes_ogs.tif
102
RTVSPost2010PropOp54
 70
     1
102
RTVSPost2010Prop55
280
     0
102
RTVSPost2010PropOp55
 70
     1
102
RTVSPost2010Prop56
140
1.0
102
RTVSPost2010PropOp56
 70
     1
102
RTVSPost2010Prop57
140
1.0
102
RTVSPost2010PropOp57
 70
     1
  0
XRECORD
  5
1F19
102
{ACAD_REACTORS
330
1F18
102
}
330
1F18
100
AcDbXrecord
280
     1
102
RTVSPropertyOp0
 70
     1
102
RTVSPropertyOp1
 70
     1
102
RTVSPropertyOp2
 70
     1
102
RTVSPropertyOp3
 70
     1
102
RTVSPropertyOp4
 70
     1
102
RTVSPropertyOp5
 70
     1
102
RTVSPropertyOp6
 70
     1
102
RTVSPropertyOp7
 70
     1
102
RTVSPropertyOp8
 70
     1
102
RTVSPropertyOp9
 70
     1
102
RTVSPropertyOp10
 70
     1
102
RTVSPropertyOp11
 70
     1
102
RTVSPropertyOp12
 70
     1
102
RTVSPropertyOp13
 70
     1
102
RTVSPropertyOp14
 70
     1
102
RTVSPropertyOp15
 70
     1
102
RTVSPropertyOp16
 70
     1
102
RTVSPropertyOp17
 70
     1
102
RTVSPropertyOp18
 70
     1
102
RTVSPropertyOp19
 70
     1
102
RTVSPropertyOp20
 70
     1
102
RTVSPropertyOp21
 70
     1
102
RTVSPropertyOp22
 70
     1
102
RTVSPropertyOp23
 70
     1
102
RTVSPropertyOp24
 70
     1
102
RTVSPropertyOp25
 70
     1
102
RTVSPropertyOp26
 70
     1
102
RTVSPropertyOp27
 70
     1
102
RTVSPropertyOp28
 70
     1
102
RTVSPropertyOp29
 70
     1
102
RTVSPropertyOp30
 70
     1
102
RTVSPropertyOp31
 70
     1
102
RTVSPropertyOp32
 70
     1
102
RTVSPropertyOp33
 70
     1
102
RTVSPropertyOp34
 70
     1
102
RTVSPropertyOp35
 70
     1
102
RTVSPropertyOp36
 70
     1
102
RTVSPropertyOp37
 70
     1
102
RTVSPropertyOp38
 70
     1
102
RTVSPropertyOp39
 70
     1
102
RTVSPropertyOp40
 70
     1
102
RTVSPropertyOp41
 70
     1
102
RTVSPropertyOp42
 70
     1
102
RTVSPropertyOp43
 70
     1
102
RTVSPropertyOp44
 70
     1
102
RTVSPropertyOp45
 70
     1
102
RTVSPropertyOp46
 70
     1
102
RTVSPropertyOp47
 70
     1
102
RTVSPropertyOp48
 70
     1
102
RTVSPropertyOp49
 70
     1
102
RTVSPropertyOp50
 70
     1
102
RTVSPropertyOp51
 70
     0
102
RTVSPropertyOp52
 70
     0
102
RTVSPropertyOp53
 70
     1
102
RTVSPropertyOp54
 70
     1
102
RTVSPropertyOp55
 70
     1
102
RTVSPropertyOp56
 70
     1
102
RTVSPropertyOp57
 70
     1
102
RTVSPost2010Prop28
280
     0
102
RTVSPost2010PropOp28
 70
     1
102
RTVSPost2010Prop29
280
     1
102
RTVSPost2010PropOp29
 70
     1
102
RTVSPost2010Prop30
280
     1
102
RTVSPost2010PropOp30
 70
     1
102
RTVSPost2010Prop31
280
     0
102
RTVSPost2010PropOp31
 70
     1
102
RTVSPost2010Prop32
280
     0
102
RTVSPost2010PropOp32
 70
     1
102
RTVSPost2010Prop33
280
     0
102
RTVSPost2010PropOp33
 70
     1
102
RTVSPost2010Prop34
280
     0
102
RTVSPost2010PropOp34
 70
     1
102
RTVSPost2010Prop35
280
     0
102
RTVSPost2010PropOp35
 70
     1
102
RTVSPost2010Prop36
280
     0
102
RTVSPost2010PropOp36
 70
     1
102
RTVSPost2010Prop37
 90
       50
102
RTVSPost2010PropOp37
 70
     1
102
RTVSPost2010Prop38
140
0.0
102
RTVSPost2010PropOp38
 70
     1
102
RTVSPost2010Prop39
140
1.0
102
RTVSPost2010PropOp39
 70
     1
102
RTVSPost2010Prop40
 90
        0
102
RTVSPost2010PropOp40
 70
     1
102
RTVSPost2010Prop41ColorIndex
 90
       18
102
RTVSPost2010Prop41ColorRGB
 90
        0
102
RTVSPost2010PropOp41
 70
     1
102
RTVSPost2010Prop42
 90
       50
102
RTVSPost2010PropOp42
 70
     1
102
RTVSPost2010Prop43
 90
        3
102
RTVSPost2010PropOp43
 70
     1
102
RTVSPost2010Prop44ColorIndex
 90
        5
102
RTVSPost2010Prop44ColorRGB
 90
      255
102
RTVSPost2010PropOp44
 70
     1
102
RTVSPost2010Prop45
280
     0
102
RTVSPost2010PropOp45
 70
     1
102
RTVSPost2010Prop46
 90
       50
102
RTVSPost2010PropOp46
 70
     1
102
RTVSPost2010Prop47
 90
       50
102
RTVSPost2010PropOp47
 70
     1
102
RTVSPost2010Prop48
 90
       50
102
RTVSPost2010PropOp48
 70
     1
102
RTVSPost2010Prop49
280
     0
102
RTVSPost2010PropOp49
 70
     1
102
RTVSPost2010Prop50
 90
       50
102
RTVSPost2010PropOp50
 70
     1
102
RTVSPost2010Prop51ColorIndex
 90
      256
102
RTVSPost2010Prop51ColorRGB
 90
-16777216
102
RTVSPost2010PropOp51
 70
     0
102
RTVSPost2010Prop52
140
1.0
102
RTVSPost2010PropOp52
 70
     0
102
RTVSPost2010Prop53
 90
        2
102
RTVSPost2010PropOp53
 70
     1
102
RTVSPost2010Prop54
  1
strokes_ogs.tif
102
RTVSPost2010PropOp54
 70
     1
102
RTVSPost2010Prop55
280
     0
102
RTVSPost2010PropOp55
 70
     1
102
RTVSPost2010Prop56
140
1.0
102
RTVSPost2010PropOp56
 70
     1
102
RTVSPost2010Prop57
140
1.0
102
RTVSPost2010PropOp57
 70
     1
  0
ENDSEC
  0
EOF
