  0
SECTION
  2
HEADER
  9
$ACADVER
  1
AC1015
  9
$ACADMAINTVER
 70
     6
  9
$DWGCODEPAGE
  3
ANSI_932
  9
$INSBASE
 10
1078.688667170699
 20
940.9316950147363
 30
0.0
  9
$EXTMIN
 10
149.4115448704533
 20
23.92373553275183
 30
0.0
  9
$EXTMAX
 10
843.6026945760082
 20
691.1356026811035
 30
0.0
  9
$LIMMIN
 10
-210.0
 20
-148.5
  9
$LIMMAX
 10
210.0
 20
148.5
  9
$ORTHOMODE
 70
     1
  9
$REGENMODE
 70
     1
  9
$FILLMODE
 70
     1
  9
$QTEXTMODE
 70
     0
  9
$MIRRTEXT
 70
     1
  9
$LTSCALE
 40
3.0
  9
$ATTMODE
 70
     1
  9
$TEXTSIZE
 40
7.5
  9
$TRACEWID
 40
0.05
  9
$TEXTSTYLE
  7
KANJI
  9
$CLAYER
  8
2
  9
$CELTYPE
  6
BYLAYER
  9
$CECOLOR
 62
   256
  9
$CELTSCALE
 40
1.0
  9
$DISPSILH
 70
     0
  9
$DIMSCALE
 40
2.5
  9
$DIMASZ
 40
2.0
  9
$DIMEXO
 40
0.5
  9
$DIMDLI
 40
10.0
  9
$DIMRND
 40
0.0
  9
$DIMDLE
 40
0.0
  9
$DIMEXE
 40
1.0
  9
$DIMTP
 40
0.0
  9
$DIMTM
 40
0.0
  9
$DIMTXT
 40
3.0
  9
$DIMCEN
 40
0.09
  9
$DIMTSZ
 40
0.0
  9
$DIMTOL
 70
     0
  9
$DIMLIM
 70
     0
  9
$DIMTIH
 70
     0
  9
$DIMTOH
 70
     0
  9
$DIMSE1
 70
     0
  9
$DIMSE2
 70
     0
  9
$DIMTAD
 70
     0
  9
$DIMZIN
 70
     8
  9
$DIMBLK
  1

  9
$DIMASO
 70
     0
  9
$DIMSHO
 70
     0
  9
$DIMPOST
  1

  9
$DIMAPOST
  1

  9
$DIMALT
 70
     0
  9
$DIMALTD
 70
     2
  9
$DIMALTF
 40
25.4
  9
$DIMLFAC
 40
1.0
  9
$DIMTOFL
 70
     1
  9
$DIMTVP
 40
1.0
  9
$DIMTIX
 70
     1
  9
$DIMSOXD
 70
     1
  9
$DIMSAH
 70
     0
  9
$DIMBLK1
  1

  9
$DIMBLK2
  1

  9
$DIMSTYLE
  2
STANDARD
  9
$DIMCLRD
 70
   256
  9
$DIMCLRE
 70
   256
  9
$DIMCLRT
 70
   256
  9
$DIMTFAC
 40
1.0
  9
$DIMGAP
 40
0.09
  9
$DIMJUST
 70
     0
  9
$DIMSD1
 70
     0
  9
$DIMSD2
 70
     0
  9
$DIMTOLJ
 70
     1
  9
$DIMTZIN
 70
     0
  9
$DIMALTZ
 70
     0
  9
$DIMALTTZ
 70
     0
  9
$DIMUPT
 70
     0
  9
$DIMDEC
 70
     4
  9
$DIMTDEC
 70
     4
  9
$DIMALTU
 70
     2
  9
$DIMALTTD
 70
     2
  9
$DIMTXSTY
  7
STANDARD
  9
$DIMAUNIT
 70
     0
  9
$DIMADEC
 70
     0
  9
$DIMALTRND
 40
0.0
  9
$DIMAZIN
 70
     0
  9
$DIMDSEP
 70
    46
  9
$DIMATFIT
 70
     3
  9
$DIMFRAC
 70
     0
  9
$DIMLDRBLK
  1

  9
$DIMLUNIT
 70
     2
  9
$DIMLWD
 70
    -2
  9
$DIMLWE
 70
    -2
  9
$DIMTMOVE
 70
     0
  9
$LUNITS
 70
     2
  9
$LUPREC
 70
     4
  9
$SKETCHINC
 40
0.1
  9
$FILLETRAD
 40
2.0
  9
$AUNITS
 70
     0
  9
$AUPREC
 70
     0
  9
$MENU
  1
.
  9
$ELEVATION
 40
0.0
  9
$PELEVATION
 40
0.0
  9
$THICKNESS
 40
0.0
  9
$LIMCHECK
 70
     0
  9
$CHAMFERA
 40
0.0
  9
$CHAMFERB
 40
0.0
  9
$CHAMFERC
 40
0.0
  9
$CHAMFERD
 40
0.0
  9
$SKPOLY
 70
     0
  9
$TDCREATE
 40
2457533.80646669
  9
$TDUCREATE
 40
2457533.43146669
  9
$TDUPDATE
 40
2457871.836987778
  9
$TDUUPDATE
 40
2457871.461987778
  9
$TDINDWG
 40
0.004883588
  9
$TDUSRTIMER
 40
0.0048831481
  9
$USRTIMER
 70
     1
  9
$ANGBASE
 50
0.0
  9
$ANGDIR
 70
     0
  9
$PDMODE
 70
     0
  9
$PDSIZE
 40
0.0
  9
$PLINEWID
 40
0.0
  9
$SPLFRAME
 70
     0
  9
$SPLINETYPE
 70
     6
  9
$SPLINESEGS
 70
     8
  9
$HANDSEED
  5
4B9
  9
$SURFTAB1
 70
     6
  9
$SURFTAB2
 70
     6
  9
$SURFTYPE
 70
     6
  9
$SURFU
 70
     6
  9
$SURFV
 70
     6
  9
$UCSBASE
  2

  9
$UCSNAME
  2

  9
$UCSORG
 10
0.0
 20
0.0
 30
0.0
  9
$UCSXDIR
 10
1.0
 20
0.0
 30
0.0
  9
$UCSYDIR
 10
0.0
 20
1.0
 30
0.0
  9
$UCSORTHOREF
  2

  9
$UCSORTHOVIEW
 70
     0
  9
$UCSORGTOP
 10
0.0
 20
0.0
 30
0.0
  9
$UCSORGBOTTOM
 10
0.0
 20
0.0
 30
0.0
  9
$UCSORGLEFT
 10
0.0
 20
0.0
 30
0.0
  9
$UCSORGRIGHT
 10
0.0
 20
0.0
 30
0.0
  9
$UCSORGFRONT
 10
0.0
 20
0.0
 30
0.0
  9
$UCSORGBACK
 10
0.0
 20
0.0
 30
0.0
  9
$PUCSBASE
  2

  9
$PUCSNAME
  2

  9
$PUCSORG
 10
0.0
 20
0.0
 30
0.0
  9
$PUCSXDIR
 10
1.0
 20
0.0
 30
0.0
  9
$PUCSYDIR
 10
0.0
 20
1.0
 30
0.0
  9
$PUCSORTHOREF
  2

  9
$PUCSORTHOVIEW
 70
     0
  9
$PUCSORGTOP
 10
0.0
 20
0.0
 30
0.0
  9
$PUCSORGBOTTOM
 10
0.0
 20
0.0
 30
0.0
  9
$PUCSORGLEFT
 10
0.0
 20
0.0
 30
0.0
  9
$PUCSORGRIGHT
 10
0.0
 20
0.0
 30
0.0
  9
$PUCSORGFRONT
 10
0.0
 20
0.0
 30
0.0
  9
$PUCSORGBACK
 10
0.0
 20
0.0
 30
0.0
  9
$USERI1
 70
     0
  9
$USERI2
 70
     0
  9
$USERI3
 70
     0
  9
$USERI4
 70
     0
  9
$USERI5
 70
     0
  9
$USERR1
 40
0.0
  9
$USERR2
 40
0.0
  9
$USERR3
 40
0.0
  9
$USERR4
 40
0.0
  9
$USERR5
 40
0.0
  9
$WORLDVIEW
 70
     1
  9
$SHADEDGE
 70
     3
  9
$SHADEDIF
 70
    70
  9
$TILEMODE
 70
     1
  9
$MAXACTVP
 70
    16
  9
$PINSBASE
 10
0.0
 20
0.0
 30
0.0
  9
$PLIMCHECK
 70
     0
  9
$PEXTMIN
 10
1.000000000000000E+20
 20
1.000000000000000E+20
 30
1.000000000000000E+20
  9
$PEXTMAX
 10
-1.000000000000000E+20
 20
-1.000000000000000E+20
 30
-1.000000000000000E+20
  9
$PLIMMIN
 10
0.0
 20
0.0
  9
$PLIMMAX
 10
12.0
 20
9.0
  9
$UNITMODE
 70
     0
  9
$VISRETAIN
 70
     0
  9
$PLINEGEN
 70
     0
  9
$PSLTSCALE
 70
     1
  9
$TREEDEPTH
 70
  3020
  9
$CMLSTYLE
  2
STANDARD
  9
$CMLJUST
 70
     0
  9
$CMLSCALE
 40
1.0
  9
$PROXYGRAPHICS
 70
     1
  9
$MEASUREMENT
 70
     0
  9
$CELWEIGHT
370
    -1
  9
$ENDCAPS
280
     0
  9
$JOINSTYLE
280
     0
  9
$LWDISPLAY
290
     0
  9
$INSUNITS
 70
     0
  9
$HYPERLINKBASE
  1

  9
$STYLESHEET
  1
R14.ctb
  9
$XEDIT
290
     1
  9
$CEPSNTYPE
380
     0
  9
$PSTYLEMODE
290
     1
  9
$FINGERPRINTGUID
  2
{D3E51C88-5ABD-4E5E-B413-4C2EB90F8AD1}
  9
$VERSIONGUID
  2
{7DC941CB-36D8-4DAE-9AE3-273A430FE1D1}
  9
$EXTNAMES
290
     1
  9
$PSVPSCALE
 40
0.0
  9
$OLESTARTUP
290
     0
  0
ENDSEC
  0
SECTION
  2
CLASSES
  0
CLASS
  1
ACDBDICTIONARYWDFLT
  2
AcDbDictionaryWithDefault
  3
ObjectDBX Classes
 90
        0
280
     0
281
     0
  0
CLASS
  1
MATERIAL
  2
AcDbMaterial
  3
ObjectDBX Classes
 90
     1153
280
     0
281
     0
  0
CLASS
  1
SORTENTSTABLE
  2
AcDbSortentsTable
  3
ObjectDBX Classes
 90
        0
280
     0
281
     0
  0
CLASS
  1
SCALE
  2
AcDbScale
  3
ObjectDBX Classes
 90
     1153
280
     0
281
     0
  0
CLASS
  1
DICTIONARYVAR
  2
AcDbDictionaryVar
  3
ObjectDBX Classes
 90
        0
280
     0
281
     0
  0
CLASS
  1
VISUALSTYLE
  2
AcDbVisualStyle
  3
ObjectDBX Classes
 90
     4095
280
     0
281
     0
  0
CLASS
  1
MLEADERSTYLE
  2
AcDbMLeaderStyle
  3
ACDB_MLEADERSTYLE_CLASS
 90
     4095
280
     0
281
     0
  0
CLASS
  1
TABLESTYLE
  2
AcDbTableStyle
  3
ObjectDBX Classes
 90
     4095
280
     0
281
     0
  0
CLASS
  1
ACDBPLACEHOLDER
  2
AcDbPlaceHolder
  3
ObjectDBX Classes
 90
        0
280
     0
281
     0
  0
CLASS
  1
LAYOUT
  2
AcDbLayout
  3
ObjectDBX Classes
 90
        0
280
     0
281
     0
  0
ENDSEC
  0
SECTION
  2
TABLES
  0
TABLE
  2
VPORT
  5
25
102
{ACAD_XDICTIONARY
360
47E
102
}
330
0
100
AcDbSymbolTable
 70
     2
  0
VPORT
  5
2A
330
25
100
AcDbSymbolTableRecord
100
AcDbViewportTableRecord
  2
*ACTIVE
 70
     0
 10
0.0
 20
0.0
 11
1.0
 21
1.0
 12
781.7592389000935
 22
368.4439038664573
 13
0.0
 23
0.0
 14
1.0
 24
1.0
 15
0.0
 25
0.0
 16
0.0
 26
0.0
 36
1.0
 17
0.0
 27
0.0
 37
0.0
 40
710.9070809984696
 41
2.177611940298507
 42
50.0
 43
0.0
 44
0.0
 50
0.0
 51
0.0
 71
     0
 72
 20000
 73
     1
 74
     0
 75
     0
 76
     0
 77
     0
 78
     0
281
     0
 65
     1
110
0.0
120
0.0
130
0.0
111
1.0
121
0.0
131
0.0
112
0.0
122
1.0
132
0.0
 79
     0
146
0.0
  0
ENDTAB
  0
TABLE
  2
LTYPE
  5
B
330
0
100
AcDbSymbolTable
 70
     3
  0
LTYPE
  5
C
330
B
100
AcDbSymbolTableRecord
100
AcDbLinetypeTableRecord
  2
BYBLOCK
 70
     0
  3

 72
    65
 73
     0
 40
0.0
  0
LTYPE
  5
D
330
B
100
AcDbSymbolTableRecord
100
AcDbLinetypeTableRecord
  2
BYLAYER
 70
     0
  3

 72
    65
 73
     0
 40
0.0
  0
LTYPE
  5
A
330
B
100
AcDbSymbolTableRecord
100
AcDbLinetypeTableRecord
  2
CONTINUOUS
 70
     0
  3
Solid line
 72
    65
 73
     0
 40
0.0
  0
LTYPE
  5
52
330
B
100
AcDbSymbolTableRecord
100
AcDbLinetypeTableRecord
  2
CENTER
 70
     0
  3
Center ____ _ ____ _ ____ _ ____ _ ____ _ ____
 72
    65
 73
     4
 40
2.0
 49
1.25
 74
     0
 49
-0.25
 74
     0
 49
0.25
 74
     0
 49
-0.25
 74
     0
  0
ENDTAB
  0
TABLE
  2
LAYER
  5
2
330
0
100
AcDbSymbolTable
 70
     8
  0
LAYER
  5
1B
330
2
100
AcDbSymbolTableRecord
100
AcDbLayerTableRecord
  2
0
 70
     0
 62
     7
  6
CONTINUOUS
370
    -3
390
3
  0
LAYER
  5
C4
330
2
100
AcDbSymbolTableRecord
100
AcDbLayerTableRecord
  2
1
 70
     0
 62
     7
  6
CONTINUOUS
370
    -3
390
3
  0
LAYER
  5
1
330
2
100
AcDbSymbolTableRecord
100
AcDbLayerTableRecord
  2
2
 70
     0
 62
     4
  6
CONTINUOUS
370
    -3
390
3
  0
LAYER
  5
C0
330
2
100
AcDbSymbolTableRecord
100
AcDbLayerTableRecord
  2
4
 70
     0
 62
     3
  6
CONTINUOUS
370
    -3
390
3
  0
LAYER
  5
51
330
2
100
AcDbSymbolTableRecord
100
AcDbLayerTableRecord
  2
L-CENTER
 70
     0
 62
     1
  6
CENTER
370
    -3
390
3
  0
LAYER
  5
BB
330
2
100
AcDbSymbolTableRecord
100
AcDbLayerTableRecord
  2
5
 70
     0
 62
     6
  6
CONTINUOUS
370
    -3
390
3
  0
LAYER
  5
57
330
2
100
AcDbSymbolTableRecord
100
AcDbLayerTableRecord
  2
3
 70
     0
 62
     2
  6
CONTINUOUS
370
    -3
390
3
  0
ENDTAB
  0
TABLE
  2
STYLE
  5
F
330
0
100
AcDbSymbolTable
 70
     2
  0
STYLE
  5
13
330
F
100
AcDbSymbolTableRecord
100
AcDbTextStyleTableRecord
  2
STANDARD
 70
     0
 40
0.0
 41
1.0
 50
0.0
 71
     0
 42
4.5
  3
txt
  4

  0
STYLE
  5
E
330
F
100
AcDbSymbolTableRecord
100
AcDbTextStyleTableRecord
  2
KANJI
 70
     0
 40
0.0
 41
1.0
 50
0.0
 71
     0
 42
7.5
  3
TXT
  4
BIGFONT
  0
ENDTAB
  0
TABLE
  2
VIEW
  5
23
330
0
100
AcDbSymbolTable
 70
     0
  0
ENDTAB
  0
TABLE
  2
UCS
  5
24
330
0
100
AcDbSymbolTable
 70
     0
  0
ENDTAB
  0
TABLE
  2
APPID
  5
9
330
0
100
AcDbSymbolTable
 70
     3
  0
APPID
  5
8
330
9
100
AcDbSymbolTableRecord
100
AcDbRegAppTableRecord
  2
ACAD
 70
     0
  0
APPID
  5
46B
330
9
100
AcDbSymbolTableRecord
100
AcDbRegAppTableRecord
  2
ACAD_PSEXT
 70
     0
  0
APPID
  5
46E
330
9
100
AcDbSymbolTableRecord
100
AcDbRegAppTableRecord
  2
ACAD_MLEADERVER
 70
     0
  0
ENDTAB
  0
TABLE
  2
DIMSTYLE
  5
12
330
0
100
AcDbSymbolTable
 70
     1
100
AcDbDimStyleTable
  0
DIMSTYLE
105
11
330
12
100
AcDbSymbolTableRecord
100
AcDbDimStyleTableRecord
  2
STANDARD
 70
     0
178
     0
340
13
  0
ENDTAB
  0
TABLE
  2
BLOCK_RECORD
  5
16
330
0
100
AcDbSymbolTable
 70
     0
  0
BLOCK_RECORD
  5
17
102
{ACAD_XDICTIONARY
360
18
102
}
330
16
100
AcDbSymbolTableRecord
100
AcDbBlockTableRecord
  2
*MODEL_SPACE
340
1D
  0
BLOCK_RECORD
  5
1F
330
16
100
AcDbSymbolTableRecord
100
AcDbBlockTableRecord
  2
*PAPER_SPACE
340
22
  0
ENDTAB
  0
ENDSEC
  0
SECTION
  2
BLOCKS
  0
BLOCK
  5
1A
330
17
100
AcDbEntity
  8
0
100
AcDbBlockBegin
  2
*MODEL_SPACE
 70
     0
 10
0.0
 20
0.0
 30
0.0
  3
*MODEL_SPACE
  1

  0
ENDBLK
  5
1C
330
17
100
AcDbEntity
  8
0
100
AcDbBlockEnd
  0
BLOCK
  5
20
330
1F
100
AcDbEntity
 67
     1
  8
0
100
AcDbBlockBegin
  2
*PAPER_SPACE
 70
     0
 10
0.0
 20
0.0
 30
0.0
  3
*PAPER_SPACE
  1

  0
ENDBLK
  5
21
330
1F
100
AcDbEntity
 67
     1
  8
0
100
AcDbBlockEnd
  0
ENDSEC
  0
SECTION
  2
ENTITIES
  0
ARC
  5
1A2
330
17
100
AcDbEntity
  8
4
100
AcDbCircle
 10
676.0008325568584
 20
204.4511459631975
 30
0.0
 40
2.0
100
AcDbArc
 50
285.3183357934532
 51
344.7448812969404
  0
ARC
  5
1A3
330
17
100
AcDbEntity
  8
4
100
AcDbCircle
 10
769.2592465951578
 20
204.4511459631975
 30
0.0
 40
2.0
100
AcDbArc
 50
195.2551187030597
 51
254.6816642065468
  0
ARC
  5
1A4
330
17
100
AcDbEntity
  8
4
100
AcDbCircle
 10
763.8662437350088
 20
212.8237355327519
 30
0.0
 40
1.0
100
AcDbArc
 50
15.25511870305805
 51
90.0
  0
ARC
  5
1A5
330
17
100
AcDbEntity
  8
4
100
AcDbCircle
 10
681.3938354170075
 20
212.8237355327519
 30
0.0
 40
1.0
100
AcDbArc
 50
90.0
 51
164.744881296942
  0
LINE
  5
1A6
330
17
100
AcDbEntity
  8
4
100
AcDbLine
 10
747.6300395760081
 20
202.8237355327523
 30
0.0
 11
744.9206641014805
 21
193.2237355327518
 31
0.0
  0
LINE
  5
1A7
330
17
100
AcDbEntity
  8
4
100
AcDbLine
 10
747.6300395760081
 20
204.3967434310748
 30
0.0
 11
744.476719411798
 21
193.2237355327518
 31
0.0
  0
LINE
  5
1A8
330
17
100
AcDbEntity
  8
4
 48
5.0
100
AcDbLine
 10
747.6300395760081
 20
204.3967434310748
 30
0.0
 11
747.6300395760081
 21
202.8237355327523
 31
0.0
  0
LINE
  5
1A9
330
17
100
AcDbEntity
  8
4
100
AcDbLine
 10
697.6300395760081
 20
202.8237355327523
 30
0.0
 11
700.3394150505358
 21
193.2237355327518
 31
0.0
  0
LINE
  5
1AA
330
17
100
AcDbEntity
  8
4
100
AcDbLine
 10
697.6300395760081
 20
204.3967434310748
 30
0.0
 11
700.7833597402183
 21
193.2237355327518
 31
0.0
  0
LINE
  5
1AB
330
17
100
AcDbEntity
  8
4
100
AcDbLine
 10
697.6300395760081
 20
204.3967434310748
 30
0.0
 11
747.6300395760081
 21
204.3967434310748
 31
0.0
  0
LINE
  5
1AC
330
17
100
AcDbEntity
  8
4
100
AcDbLine
 10
802.6165545506674
 20
194.6959713479828
 30
0.0
 11
767.2010374219201
 21
204.3967434310748
 31
0.0
  0
LINE
  5
1AD
330
17
100
AcDbEntity
  8
4
100
AcDbLine
 10
802.6165545506674
 20
193.2404727353453
 30
0.0
 11
768.7308831669957
 21
202.5222001143514
 31
0.0
  0
LINE
  5
1AE
330
17
100
AcDbEntity
  8
4
100
AcDbLine
 10
642.6435246013489
 20
194.6959713479828
 30
0.0
 11
678.0590417300962
 21
204.3967434310748
 31
0.0
  0
LINE
  5
1AF
330
17
100
AcDbEntity
  8
4
100
AcDbLine
 10
642.6435246013489
 20
193.2404727353453
 30
0.0
 11
676.5291959850206
 21
202.5222001143514
 31
0.0
  0
ARC
  5
1B0
330
17
100
AcDbEntity
  8
4
100
AcDbCircle
 10
618.6300395760081
 20
192.2237355327518
 30
0.0
 40
1.0
100
AcDbArc
 50
90.0
 51
180.0
  0
ARC
  5
1B1
330
17
100
AcDbEntity
  8
4
100
AcDbCircle
 10
826.6300395760081
 20
192.2237355327518
 30
0.0
 40
1.0
100
AcDbArc
 50
0.0
 51
90.0
  0
LINE
  5
1B2
330
17
100
AcDbEntity
  8
4
100
AcDbLine
 10
747.6300395760081
 20
213.8237355327519
 30
0.0
 11
747.6300395760081
 21
214.8237355327514
 31
0.0
  0
LINE
  5
1B3
330
17
100
AcDbEntity
  8
4
100
AcDbLine
 10
764.8310075562465
 20
213.086852938544
 30
0.0
 11
767.3297189526825
 21
203.9249111516132
 31
0.0
  0
LINE
  5
1B4
330
17
100
AcDbEntity
  8
4
100
AcDbLine
 10
697.6300395760081
 20
213.8237355327519
 30
0.0
 11
697.6300395760081
 21
214.8237355327514
 31
0.0
  0
LINE
  5
1B5
330
17
100
AcDbEntity
  8
4
100
AcDbLine
 10
680.4290715957698
 20
213.086852938544
 30
0.0
 11
677.9303601993338
 21
203.9249111516132
 31
0.0
  0
LINE
  5
1B6
330
17
100
AcDbEntity
  8
4
100
AcDbLine
 10
697.6300395760081
 20
202.8237355327523
 30
0.0
 11
677.6300395760081
 21
202.8237355327523
 31
0.0
  0
LINE
  5
1B7
330
17
100
AcDbEntity
  8
4
100
AcDbLine
 10
767.6300395760081
 20
202.8237355327523
 30
0.0
 11
747.6300395760081
 21
202.8237355327523
 31
0.0
  0
LINE
  5
1B8
330
17
100
AcDbEntity
  8
4
100
AcDbLine
 10
697.6300395760081
 20
214.8237355327514
 30
0.0
 11
747.6300395760081
 21
214.8237355327514
 31
0.0
  0
LINE
  5
1B9
330
17
100
AcDbEntity
  8
4
100
AcDbLine
 10
681.3938354170075
 20
213.8237355327519
 30
0.0
 11
763.8662437350088
 21
213.8237355327519
 31
0.0
  0
LINE
  5
1BA
330
17
100
AcDbEntity
  8
4
 48
5.0
100
AcDbLine
 10
827.6300395760081
 20
192.2237355327518
 30
0.0
 11
827.6300395760081
 21
176.9237355327521
 31
0.0
  0
LINE
  5
1BB
330
17
100
AcDbEntity
  8
4
 48
5.0
100
AcDbLine
 10
617.6300395760081
 20
192.2237355327518
 30
0.0
 11
617.6300395760081
 21
176.9237355327521
 31
0.0
  0
LINE
  5
1BC
330
17
100
AcDbEntity
  8
4
 48
5.0
100
AcDbLine
 10
697.6300395760081
 20
204.3967434310748
 30
0.0
 11
697.6300395760081
 21
202.8237355327523
 31
0.0
  0
LINE
  5
1BD
330
17
100
AcDbEntity
  8
4
 48
5.0
100
AcDbLine
 10
826.6300395760081
 20
193.2237355327518
 30
0.0
 11
618.6300395760081
 21
193.2237355327518
 31
0.0
  0
LINE
  5
1BE
330
17
100
AcDbEntity
  8
4
 48
5.0
100
AcDbLine
 10
827.6300395760081
 20
182.2237355327518
 30
0.0
 11
617.6300395760081
 21
182.2237355327518
 31
0.0
  0
LINE
  5
1BF
330
17
100
AcDbEntity
  8
4
 48
5.0
100
AcDbLine
 10
827.6300395760081
 20
181.9237355327518
 30
0.0
 11
617.6300395760081
 21
181.9237355327518
 31
0.0
  0
ARC
  5
1C0
330
17
100
AcDbEntity
  8
4
100
AcDbCircle
 10
250.2823388513035
 20
204.4511459631975
 30
0.0
 40
2.0
100
AcDbArc
 50
285.3183357934556
 51
344.7448812969402
  0
ARC
  5
1C1
330
17
100
AcDbEntity
  8
4
100
AcDbCircle
 10
343.5407528896029
 20
204.4511459631975
 30
0.0
 40
2.0
100
AcDbArc
 50
195.2551187030601
 51
254.6816642065452
  0
ARC
  5
1C2
330
17
100
AcDbEntity
  8
4
100
AcDbCircle
 10
338.1477500294539
 20
212.8237355327519
 30
0.0
 40
1.0
100
AcDbArc
 50
15.25511870305805
 51
90.0
  0
ARC
  5
1C3
330
17
100
AcDbEntity
  8
4
100
AcDbCircle
 10
255.6753417114525
 20
212.8237355327519
 30
0.0
 40
1.0
100
AcDbArc
 50
90.0
 51
164.744881296942
  0
LINE
  5
1C4
330
17
100
AcDbEntity
  8
4
100
AcDbLine
 10
321.9115458704532
 20
202.8237355327523
 30
0.0
 11
319.2021703959256
 21
193.2237355327518
 31
0.0
  0
LINE
  5
1C5
330
17
100
AcDbEntity
  8
4
100
AcDbLine
 10
321.9115458704532
 20
204.3967434310748
 30
0.0
 11
318.758225706243
 21
193.2237355327518
 31
0.0
  0
LINE
  5
1C6
330
17
100
AcDbEntity
  8
4
 48
5.0
100
AcDbLine
 10
321.9115458704532
 20
204.3967434310748
 30
0.0
 11
321.9115458704532
 21
202.8237355327523
 31
0.0
  0
LINE
  5
1C7
330
17
100
AcDbEntity
  8
4
100
AcDbLine
 10
271.9115458704532
 20
202.8237355327523
 30
0.0
 11
274.6209213449808
 21
193.2237355327518
 31
0.0
  0
LINE
  5
1C8
330
17
100
AcDbEntity
  8
4
100
AcDbLine
 10
271.9115458704532
 20
204.3967434310748
 30
0.0
 11
275.0648660346634
 21
193.2237355327518
 31
0.0
  0
LINE
  5
1C9
330
17
100
AcDbEntity
  8
4
100
AcDbLine
 10
271.9115458704532
 20
204.3967434310748
 30
0.0
 11
321.9115458704532
 21
204.3967434310748
 31
0.0
  0
LINE
  5
1CA
330
17
100
AcDbEntity
  8
4
100
AcDbLine
 10
382.2728900118285
 20
193.2237355327518
 30
0.0
 11
341.4825437163652
 21
204.3967434310748
 31
0.0
  0
LINE
  5
1CB
330
17
100
AcDbEntity
  8
4
100
AcDbLine
 10
349.5782125371213
 20
200.7237355327518
 30
0.0
 11
343.0123894614407
 21
202.5222001143514
 31
0.0
  0
LINE
  5
1CC
330
17
100
AcDbEntity
  8
4
100
AcDbLine
 10
376.9591649180726
 20
193.2237355327518
 30
0.0
 11
351.4115458704529
 21
200.2215616197088
 31
0.0
  0
LINE
  5
1CD
330
17
100
AcDbEntity
  8
4
100
AcDbLine
 10
211.5502017290779
 20
193.2237355327518
 30
0.0
 11
252.3405480245412
 21
204.3967434310748
 31
0.0
  0
LINE
  5
1CE
330
17
100
AcDbEntity
  8
4
100
AcDbLine
 10
244.2448792037851
 20
200.7237355327518
 30
0.0
 11
250.8107022794657
 21
202.5222001143514
 31
0.0
  0
LINE
  5
1CF
330
17
100
AcDbEntity
  8
4
100
AcDbLine
 10
216.8639268228336
 20
193.2237355327518
 30
0.0
 11
242.4115458704536
 21
200.2215616197088
 31
0.0
  0
ARC
  5
1D0
330
17
100
AcDbEntity
  8
4
100
AcDbCircle
 10
192.9115458704532
 20
192.2237355327518
 30
0.0
 40
1.0
100
AcDbArc
 50
89.99999999999837
 51
180.0
  0
ARC
  5
1D1
330
17
100
AcDbEntity
  8
4
100
AcDbCircle
 10
400.9115458704532
 20
192.2237355327518
 30
0.0
 40
1.0
100
AcDbArc
 50
0.0
 51
90.0
  0
LINE
  5
1D2
330
17
100
AcDbEntity
  8
2
100
AcDbLine
 10
393.0247945245049
 20
571.0037375669795
 30
0.0
 11
394.4681701974788
 21
568.5037375669798
 31
0.0
  0
LINE
  5
1D3
330
17
100
AcDbEntity
  8
2
100
AcDbLine
 10
394.4681701974789
 20
573.5037375669796
 30
0.0
 11
393.0247945245049
 21
571.0037375669795
 31
0.0
  0
LINE
  5
1D4
330
17
100
AcDbEntity
  8
2
100
AcDbLine
 10
397.3549215434272
 20
573.5037375669797
 30
0.0
 11
398.7982972164011
 21
571.0037375669797
 31
0.0
  0
LINE
  5
1D5
330
17
100
AcDbEntity
  8
2
100
AcDbLine
 10
398.7982972164011
 20
571.0037375669797
 30
0.0
 11
397.3549215434272
 21
568.5037375669796
 31
0.0
  0
LINE
  5
1D6
330
17
100
AcDbEntity
  8
2
100
AcDbLine
 10
394.4681701974788
 20
568.5037375669798
 30
0.0
 11
397.3549215434272
 21
568.5037375669796
 31
0.0
  0
LINE
  5
1D7
330
17
100
AcDbEntity
  8
2
100
AcDbLine
 10
394.4681701974789
 20
573.5037375669796
 30
0.0
 11
397.3549215434272
 21
573.5037375669797
 31
0.0
  0
CIRCLE
  5
1D8
330
17
100
AcDbEntity
  8
4
100
AcDbCircle
 10
395.911545870453
 20
571.0037375669796
 30
0.0
 40
5.0
  0
CIRCLE
  5
1D9
330
17
100
AcDbEntity
  8
4
100
AcDbCircle
 10
395.911545870453
 20
571.0037375669796
 30
0.0
 40
5.75
  0
LINE
  5
1DA
330
17
100
AcDbEntity
  8
2
100
AcDbLine
 10
199.3549215434275
 20
573.5037375669796
 30
0.0
 11
200.7982972164015
 21
571.0037375669795
 31
0.0
  0
LINE
  5
1DB
330
17
100
AcDbEntity
  8
2
100
AcDbLine
 10
200.7982972164015
 20
571.0037375669795
 30
0.0
 11
199.3549215434276
 21
568.5037375669798
 31
0.0
  0
LINE
  5
1DC
330
17
100
AcDbEntity
  8
2
100
AcDbLine
 10
195.0247945245053
 20
571.0037375669797
 30
0.0
 11
196.4681701974793
 21
568.5037375669796
 31
0.0
  0
LINE
  5
1DD
330
17
100
AcDbEntity
  8
2
100
AcDbLine
 10
196.4681701974793
 20
573.5037375669797
 30
0.0
 11
195.0247945245053
 21
571.0037375669797
 31
0.0
  0
CIRCLE
  5
1DE
330
17
100
AcDbEntity
  8
4
100
AcDbCircle
 10
197.9115458704534
 20
571.0037375669796
 30
0.0
 40
5.75
  0
CIRCLE
  5
1DF
330
17
100
AcDbEntity
  8
4
100
AcDbCircle
 10
197.9115458704534
 20
571.0037375669796
 30
0.0
 40
5.0
  0
LINE
  5
1E0
330
17
100
AcDbEntity
  8
2
100
AcDbLine
 10
199.3549215434275
 20
573.5037375669796
 30
0.0
 11
196.4681701974793
 21
573.5037375669797
 31
0.0
  0
LINE
  5
1E1
330
17
100
AcDbEntity
  8
2
100
AcDbLine
 10
199.3549215434276
 20
568.5037375669798
 30
0.0
 11
196.4681701974793
 21
568.5037375669796
 31
0.0
  0
LINE
  5
1E2
330
17
100
AcDbEntity
  8
2
100
AcDbLine
 10
344.9681701974787
 20
659.2402525416387
 30
0.0
 11
347.8549215434271
 21
659.2402525416389
 31
0.0
  0
LINE
  5
1E3
330
17
100
AcDbEntity
  8
2
100
AcDbLine
 10
344.9681701974788
 20
654.2402525416389
 30
0.0
 11
347.8549215434271
 21
654.2402525416388
 31
0.0
  0
LINE
  5
1E4
330
17
100
AcDbEntity
  8
2
100
AcDbLine
 10
347.8549215434271
 20
654.2402525416388
 30
0.0
 11
349.298297216401
 21
656.7402525416388
 31
0.0
  0
LINE
  5
1E5
330
17
100
AcDbEntity
  8
2
100
AcDbLine
 10
349.298297216401
 20
656.7402525416388
 30
0.0
 11
347.8549215434271
 21
659.2402525416389
 31
0.0
  0
LINE
  5
1E6
330
17
100
AcDbEntity
  8
2
100
AcDbLine
 10
343.5247945245048
 20
656.740252541639
 30
0.0
 11
344.9681701974787
 21
659.2402525416387
 31
0.0
  0
LINE
  5
1E7
330
17
100
AcDbEntity
  8
2
100
AcDbLine
 10
344.9681701974788
 20
654.2402525416389
 30
0.0
 11
343.5247945245048
 21
656.740252541639
 31
0.0
  0
CIRCLE
  5
1E8
330
17
100
AcDbEntity
  8
4
100
AcDbCircle
 10
346.4115458704529
 20
656.7402525416389
 30
0.0
 40
5.0
  0
CIRCLE
  5
1E9
330
17
100
AcDbEntity
  8
4
100
AcDbCircle
 10
346.4115458704529
 20
656.7402525416389
 30
0.0
 40
5.75
  0
LINE
  5
1EA
330
17
100
AcDbEntity
  8
L-CENTER
 48
5.0
100
AcDbLine
 10
340.4115458704533
 20
646.3479476962257
 30
0.0
 11
352.4115458704533
 21
667.1325573870522
 31
0.0
  0
LINE
  5
1EB
330
17
100
AcDbEntity
  8
2
100
AcDbLine
 10
248.8549215434276
 20
654.2402525416389
 30
0.0
 11
250.2982972164016
 21
656.740252541639
 31
0.0
  0
LINE
  5
1EC
330
17
100
AcDbEntity
  8
2
100
AcDbLine
 10
250.2982972164016
 20
656.740252541639
 30
0.0
 11
248.8549215434277
 21
659.2402525416387
 31
0.0
  0
LINE
  5
1ED
330
17
100
AcDbEntity
  8
2
100
AcDbLine
 10
244.5247945245054
 20
656.7402525416388
 30
0.0
 11
245.9681701974794
 21
659.2402525416389
 31
0.0
  0
LINE
  5
1EE
330
17
100
AcDbEntity
  8
2
100
AcDbLine
 10
245.9681701974794
 20
654.2402525416388
 30
0.0
 11
244.5247945245054
 21
656.7402525416388
 31
0.0
  0
CIRCLE
  5
1EF
330
17
100
AcDbEntity
  8
4
100
AcDbCircle
 10
247.4115458704535
 20
656.7402525416389
 30
0.0
 40
5.75
  0
CIRCLE
  5
1F0
330
17
100
AcDbEntity
  8
4
100
AcDbCircle
 10
247.4115458704535
 20
656.7402525416389
 30
0.0
 40
5.0
  0
LINE
  5
1F1
330
17
100
AcDbEntity
  8
2
100
AcDbLine
 10
248.8549215434276
 20
654.2402525416389
 30
0.0
 11
245.9681701974794
 21
654.2402525416388
 31
0.0
  0
LINE
  5
1F2
330
17
100
AcDbEntity
  8
2
100
AcDbLine
 10
248.8549215434277
 20
659.2402525416387
 30
0.0
 11
245.9681701974794
 21
659.2402525416389
 31
0.0
  0
LINE
  5
1F3
330
17
100
AcDbEntity
  8
L-CENTER
 48
5.0
100
AcDbLine
 10
253.4115458704536
 20
646.3479476962256
 30
0.0
 11
241.4115458704536
 21
667.1325573870521
 31
0.0
  0
LINE
  5
1F4
330
17
100
AcDbEntity
  8
2
100
AcDbLine
 10
344.9681701974788
 20
487.7672225923202
 30
0.0
 11
343.5247945245048
 21
485.2672225923201
 31
0.0
  0
LINE
  5
1F5
330
17
100
AcDbEntity
  8
2
100
AcDbLine
 10
343.5247945245048
 20
485.2672225923201
 30
0.0
 11
344.9681701974787
 21
482.7672225923204
 31
0.0
  0
LINE
  5
1F6
330
17
100
AcDbEntity
  8
2
100
AcDbLine
 10
349.298297216401
 20
485.2672225923203
 30
0.0
 11
347.8549215434271
 21
482.7672225923202
 31
0.0
  0
LINE
  5
1F7
330
17
100
AcDbEntity
  8
2
100
AcDbLine
 10
347.8549215434271
 20
487.7672225923203
 30
0.0
 11
349.298297216401
 21
485.2672225923203
 31
0.0
  0
CIRCLE
  5
1F8
330
17
100
AcDbEntity
  8
4
100
AcDbCircle
 10
346.4115458704529
 20
485.2672225923202
 30
0.0
 40
5.75
  0
CIRCLE
  5
1F9
330
17
100
AcDbEntity
  8
4
100
AcDbCircle
 10
346.4115458704529
 20
485.2672225923202
 30
0.0
 40
5.0
  0
LINE
  5
1FA
330
17
100
AcDbEntity
  8
2
100
AcDbLine
 10
344.9681701974788
 20
487.7672225923202
 30
0.0
 11
347.8549215434271
 21
487.7672225923203
 31
0.0
  0
LINE
  5
1FB
330
17
100
AcDbEntity
  8
2
100
AcDbLine
 10
344.9681701974787
 20
482.7672225923204
 30
0.0
 11
347.8549215434271
 21
482.7672225923202
 31
0.0
  0
LINE
  5
1FC
330
17
100
AcDbEntity
  8
2
100
AcDbLine
 10
248.8549215434277
 20
482.7672225923204
 30
0.0
 11
245.9681701974794
 21
482.7672225923202
 31
0.0
  0
LINE
  5
1FD
330
17
100
AcDbEntity
  8
2
100
AcDbLine
 10
248.8549215434276
 20
487.7672225923202
 30
0.0
 11
245.9681701974794
 21
487.7672225923203
 31
0.0
  0
LINE
  5
1FE
330
17
100
AcDbEntity
  8
2
100
AcDbLine
 10
250.2982972164016
 20
485.2672225923201
 30
0.0
 11
248.8549215434277
 21
482.7672225923204
 31
0.0
  0
LINE
  5
1FF
330
17
100
AcDbEntity
  8
2
100
AcDbLine
 10
245.9681701974794
 20
487.7672225923203
 30
0.0
 11
244.5247945245054
 21
485.2672225923203
 31
0.0
  0
LINE
  5
200
330
17
100
AcDbEntity
  8
2
100
AcDbLine
 10
248.8549215434276
 20
487.7672225923202
 30
0.0
 11
250.2982972164016
 21
485.2672225923201
 31
0.0
  0
LINE
  5
201
330
17
100
AcDbEntity
  8
2
100
AcDbLine
 10
244.5247945245054
 20
485.2672225923203
 30
0.0
 11
245.9681701974794
 21
482.7672225923202
 31
0.0
  0
CIRCLE
  5
202
330
17
100
AcDbEntity
  8
4
100
AcDbCircle
 10
247.4115458704535
 20
485.2672225923202
 30
0.0
 40
5.0
  0
CIRCLE
  5
203
330
17
100
AcDbEntity
  8
4
100
AcDbCircle
 10
247.4115458704535
 20
485.2672225923202
 30
0.0
 40
5.75
  0
LINE
  5
204
330
17
100
AcDbEntity
  8
L-CENTER
 48
5.0
100
AcDbLine
 10
808.3665545506674
 20
203.6302625834811
 30
0.0
 11
808.3665545506674
 21
173.6320839126764
 31
0.0
  0
LINE
  5
205
330
17
100
AcDbEntity
  8
4
100
AcDbLine
 10
803.3665545506674
 20
200.7237355327518
 30
0.0
 11
813.3665545506674
 21
200.7237355327518
 31
0.0
  0
LINE
  5
206
330
17
100
AcDbEntity
  8
4
100
AcDbLine
 10
802.6165545506674
 20
194.7237355327518
 30
0.0
 11
802.6165545506674
 21
193.2237355327518
 31
0.0
  0
LINE
  5
207
330
17
100
AcDbEntity
  8
4
100
AcDbLine
 10
814.1165545506674
 20
194.7237355327518
 30
0.0
 11
814.1165545506674
 21
193.2237355327518
 31
0.0
  0
LINE
  5
208
330
17
100
AcDbEntity
  8
4
100
AcDbLine
 10
802.6165545506674
 20
194.7237355327518
 30
0.0
 11
814.1165545506674
 21
194.7237355327518
 31
0.0
  0
LINE
  5
209
330
17
100
AcDbEntity
  8
4
100
AcDbLine
 10
803.3665545506674
 20
200.7237355327518
 30
0.0
 11
803.3665545506674
 21
194.7237355327518
 31
0.0
  0
LINE
  5
20A
330
17
100
AcDbEntity
  8
4
100
AcDbLine
 10
813.3665545506674
 20
200.7237355327518
 30
0.0
 11
813.3665545506674
 21
194.7237355327518
 31
0.0
  0
LINE
  5
20B
330
17
100
AcDbEntity
  8
4
100
AcDbLine
 10
727.6300395760081
 20
200.7237355327518
 30
0.0
 11
717.6300395760081
 21
200.7237355327518
 31
0.0
  0
LINE
  5
20C
330
17
100
AcDbEntity
  8
4
100
AcDbLine
 10
728.3800395760081
 20
194.7237355327518
 30
0.0
 11
728.3800395760081
 21
193.2237355327518
 31
0.0
  0
LINE
  5
20D
330
17
100
AcDbEntity
  8
4
100
AcDbLine
 10
716.8800395760081
 20
194.7237355327518
 30
0.0
 11
716.8800395760081
 21
193.2237355327518
 31
0.0
  0
LINE
  5
20E
330
17
100
AcDbEntity
  8
4
100
AcDbLine
 10
728.3800395760081
 20
194.7237355327518
 30
0.0
 11
716.8800395760081
 21
194.7237355327518
 31
0.0
  0
LINE
  5
20F
330
17
100
AcDbEntity
  8
4
100
AcDbLine
 10
727.6300395760081
 20
200.7237355327518
 30
0.0
 11
727.6300395760081
 21
194.7237355327518
 31
0.0
  0
LINE
  5
210
330
17
100
AcDbEntity
  8
4
100
AcDbLine
 10
717.6300395760081
 20
200.7237355327518
 30
0.0
 11
717.6300395760081
 21
194.7237355327518
 31
0.0
  0
LINE
  5
211
330
17
100
AcDbEntity
  8
4
100
AcDbLine
 10
641.8935246013489
 20
200.7237355327518
 30
0.0
 11
631.8935246013489
 21
200.7237355327518
 31
0.0
  0
LINE
  5
212
330
17
100
AcDbEntity
  8
4
100
AcDbLine
 10
642.6435246013489
 20
194.7237355327518
 30
0.0
 11
642.6435246013489
 21
193.2237355327518
 31
0.0
  0
LINE
  5
213
330
17
100
AcDbEntity
  8
4
100
AcDbLine
 10
631.1435246013489
 20
194.7237355327518
 30
0.0
 11
631.1435246013489
 21
193.2237355327518
 31
0.0
  0
LINE
  5
214
330
17
100
AcDbEntity
  8
4
100
AcDbLine
 10
642.6435246013489
 20
194.7237355327518
 30
0.0
 11
631.1435246013489
 21
194.7237355327518
 31
0.0
  0
LINE
  5
215
330
17
100
AcDbEntity
  8
4
100
AcDbLine
 10
641.8935246013489
 20
200.7237355327518
 30
0.0
 11
641.8935246013489
 21
194.7237355327518
 31
0.0
  0
LINE
  5
216
330
17
100
AcDbEntity
  8
4
100
AcDbLine
 10
631.8935246013489
 20
200.7237355327518
 30
0.0
 11
631.8935246013489
 21
194.7237355327518
 31
0.0
  0
LINE
  5
217
330
17
100
AcDbEntity
  8
4
100
AcDbLine
 10
351.4115458704529
 20
200.7237355327518
 30
0.0
 11
341.4115458704529
 21
200.7237355327518
 31
0.0
  0
LINE
  5
218
330
17
100
AcDbEntity
  8
2
100
AcDbLine
 10
344.9115458704529
 20
194.7237355327518
 30
0.0
 11
346.4115458704529
 21
193.2237355327518
 31
0.0
  0
LINE
  5
219
330
17
100
AcDbEntity
  8
4
100
AcDbLine
 10
340.6615458704529
 20
194.7237355327518
 30
0.0
 11
340.6615458704529
 21
193.2237355327518
 31
0.0
  0
LINE
  5
21A
330
17
100
AcDbEntity
  8
4
100
AcDbLine
 10
352.1615458704529
 20
194.7237355327518
 30
0.0
 11
352.1615458704529
 21
193.2237355327518
 31
0.0
  0
LINE
  5
21B
330
17
100
AcDbEntity
  8
4
100
AcDbLine
 10
352.1615458704529
 20
194.7237355327518
 30
0.0
 11
340.6615458704529
 21
194.7237355327518
 31
0.0
  0
LINE
  5
21C
330
17
100
AcDbEntity
  8
2
100
AcDbLine
 10
347.0328662140126
 20
194.7237355327518
 30
0.0
 11
348.5328662140125
 21
193.2237355327518
 31
0.0
  0
LINE
  5
21D
330
17
100
AcDbEntity
  8
4
100
AcDbLine
 10
341.4115458704529
 20
200.7237355327518
 30
0.0
 11
341.4115458704529
 21
194.7237355327518
 31
0.0
  0
LINE
  5
21E
330
17
100
AcDbEntity
  8
4
100
AcDbLine
 10
351.4115458704529
 20
200.7237355327518
 30
0.0
 11
351.4115458704529
 21
194.7237355327518
 31
0.0
  0
LINE
  5
21F
330
17
100
AcDbEntity
  8
L-CENTER
 48
5.0
100
AcDbLine
 10
346.4115458704529
 20
203.0140438948293
 30
0.0
 11
346.4115458704529
 21
173.6320839126764
 31
0.0
  0
LINE
  5
220
330
17
100
AcDbEntity
  8
L-CENTER
 48
5.0
100
AcDbLine
 10
395.911545870453
 20
203.0140438948293
 30
0.0
 11
395.911545870453
 21
173.6320839126764
 31
0.0
  0
LINE
  5
221
330
17
100
AcDbEntity
  8
4
100
AcDbLine
 10
390.1615458704531
 20
194.7237355327518
 30
0.0
 11
390.1615458704531
 21
193.2237355327518
 31
0.0
  0
LINE
  5
222
330
17
100
AcDbEntity
  8
4
100
AcDbLine
 10
401.661545870453
 20
194.7237355327518
 30
0.0
 11
401.661545870453
 21
193.2237355327518
 31
0.0
  0
LINE
  5
223
330
17
100
AcDbEntity
  8
2
100
AcDbLine
 10
396.5328662140128
 20
194.7237355327518
 30
0.0
 11
398.0328662140127
 21
193.2237355327518
 31
0.0
  0
LINE
  5
224
330
17
100
AcDbEntity
  8
2
100
AcDbLine
 10
394.4115458704531
 20
194.7237355327518
 30
0.0
 11
395.911545870453
 21
193.2237355327518
 31
0.0
  0
LINE
  5
225
330
17
100
AcDbEntity
  8
4
100
AcDbLine
 10
400.911545870453
 20
200.7237355327518
 30
0.0
 11
390.911545870453
 21
200.7237355327518
 31
0.0
  0
LINE
  5
226
330
17
100
AcDbEntity
  8
4
100
AcDbLine
 10
401.661545870453
 20
194.7237355327518
 30
0.0
 11
390.1615458704531
 21
194.7237355327518
 31
0.0
  0
LINE
  5
227
330
17
100
AcDbEntity
  8
4
100
AcDbLine
 10
400.911545870453
 20
200.7237355327518
 30
0.0
 11
400.911545870453
 21
194.7237355327518
 31
0.0
  0
LINE
  5
228
330
17
100
AcDbEntity
  8
4
100
AcDbLine
 10
390.911545870453
 20
200.7237355327518
 30
0.0
 11
390.911545870453
 21
194.7237355327518
 31
0.0
  0
LINE
  5
229
330
17
100
AcDbEntity
  8
4
100
AcDbLine
 10
242.4115458704536
 20
200.7237355327518
 30
0.0
 11
252.4115458704536
 21
200.7237355327518
 31
0.0
  0
LINE
  5
22A
330
17
100
AcDbEntity
  8
4
100
AcDbLine
 10
253.1615458704535
 20
194.7237355327518
 30
0.0
 11
253.1615458704535
 21
193.2237355327518
 31
0.0
  0
LINE
  5
22B
330
17
100
AcDbEntity
  8
4
100
AcDbLine
 10
241.6615458704536
 20
194.7237355327518
 30
0.0
 11
241.6615458704536
 21
193.2237355327518
 31
0.0
  0
LINE
  5
22C
330
17
100
AcDbEntity
  8
2
100
AcDbLine
 10
246.7902255268938
 20
194.7237355327518
 30
0.0
 11
245.2902255268939
 21
193.2237355327518
 31
0.0
  0
LINE
  5
22D
330
17
100
AcDbEntity
  8
4
100
AcDbLine
 10
241.6615458704536
 20
194.7237355327518
 30
0.0
 11
253.1615458704535
 21
194.7237355327518
 31
0.0
  0
LINE
  5
22E
330
17
100
AcDbEntity
  8
2
100
AcDbLine
 10
248.9115458704535
 20
194.7237355327518
 30
0.0
 11
247.4115458704536
 21
193.2237355327518
 31
0.0
  0
LINE
  5
22F
330
17
100
AcDbEntity
  8
4
100
AcDbLine
 10
242.4115458704536
 20
200.7237355327518
 30
0.0
 11
242.4115458704536
 21
194.7237355327518
 31
0.0
  0
LINE
  5
230
330
17
100
AcDbEntity
  8
4
100
AcDbLine
 10
252.4115458704536
 20
200.7237355327518
 30
0.0
 11
252.4115458704536
 21
194.7237355327518
 31
0.0
  0
LINE
  5
231
330
17
100
AcDbEntity
  8
2
100
AcDbLine
 10
197.2902255268937
 20
194.7237355327518
 30
0.0
 11
195.7902255268937
 21
193.2237355327518
 31
0.0
  0
LINE
  5
232
330
17
100
AcDbEntity
  8
2
100
AcDbLine
 10
199.4115458704533
 20
194.7237355327518
 30
0.0
 11
197.9115458704534
 21
193.2237355327518
 31
0.0
  0
LINE
  5
233
330
17
100
AcDbEntity
  8
4
100
AcDbLine
 10
202.9115458704534
 20
200.7237355327518
 30
0.0
 11
202.9115458704534
 21
194.7237355327518
 31
0.0
  0
LINE
  5
234
330
17
100
AcDbEntity
  8
4
100
AcDbLine
 10
192.9115458704534
 20
200.7237355327518
 30
0.0
 11
192.9115458704534
 21
194.7237355327518
 31
0.0
  0
LINE
  5
235
330
17
100
AcDbEntity
  8
4
100
AcDbLine
 10
192.9115458704534
 20
200.7237355327518
 30
0.0
 11
202.9115458704534
 21
200.7237355327518
 31
0.0
  0
LINE
  5
236
330
17
100
AcDbEntity
  8
4
100
AcDbLine
 10
192.1615458704534
 20
194.7237355327518
 30
0.0
 11
192.1615458704534
 21
193.2237355327518
 31
0.0
  0
LINE
  5
237
330
17
100
AcDbEntity
  8
4
100
AcDbLine
 10
203.6615458704534
 20
194.7237355327518
 30
0.0
 11
203.6615458704534
 21
193.2237355327518
 31
0.0
  0
LINE
  5
238
330
17
100
AcDbEntity
  8
4
100
AcDbLine
 10
192.1615458704534
 20
194.7237355327518
 30
0.0
 11
203.6615458704534
 21
194.7237355327518
 31
0.0
  0
LWPOLYLINE
  5
239
330
17
100
AcDbEntity
  8
4
100
AcDbPolyline
 90
        2
 70
     0
 43
0.0
 10
286.0862283231477
 20
687.5037375669795
 10
286.0862283231477
 20
682.5037375669795
  0
LINE
  5
23A
330
17
100
AcDbEntity
  8
4
100
AcDbLine
 10
284.4115458704532
 20
682.5037375669795
 30
0.0
 11
284.4115458704532
 21
680.5037375669795
 31
0.0
  0
LINE
  5
23B
330
17
100
AcDbEntity
  8
4
100
AcDbLine
 10
285.4115458704532
 20
680.5037375669795
 30
0.0
 11
285.4115458704532
 21
679.0037375669795
 31
0.0
  0
LWPOLYLINE
  5
23C
330
17
100
AcDbEntity
  8
4
100
AcDbPolyline
 90
        2
 70
     0
 43
0.0
 10
307.7368634177587
 20
682.5037375669795
 10
307.7368634177587
 20
687.5037375669795
  0
LINE
  5
23D
330
17
100
AcDbEntity
  8
4
100
AcDbLine
 10
309.4115458704532
 20
682.5037375669795
 30
0.0
 11
309.4115458704532
 21
680.5037375669795
 31
0.0
  0
LINE
  5
23E
330
17
100
AcDbEntity
  8
4
100
AcDbLine
 10
308.4115458704532
 20
680.5037375669795
 30
0.0
 11
308.4115458704532
 21
679.0037375669795
 31
0.0
  0
LINE
  5
23F
330
17
100
AcDbEntity
  8
4
100
AcDbLine
 10
284.4115458704532
 20
680.5037375669795
 30
0.0
 11
309.4115458704532
 21
680.5037375669795
 31
0.0
  0
LINE
  5
240
330
17
100
AcDbEntity
  8
4
100
AcDbLine
 10
284.4115458704532
 20
682.5037375669795
 30
0.0
 11
309.4115458704532
 21
682.5037375669795
 31
0.0
  0
LINE
  5
241
330
17
100
AcDbEntity
  8
4
100
AcDbLine
 10
286.0862283231477
 20
687.5037375669795
 30
0.0
 11
307.7368634177587
 21
687.5037375669795
 31
0.0
  0
LINE
  5
242
330
17
100
AcDbEntity
  8
4
100
AcDbLine
 10
285.4115458704532
 20
679.0037375669795
 30
0.0
 11
308.4115458704532
 21
679.0037375669795
 31
0.0
  0
LINE
  5
243
330
17
100
AcDbEntity
  8
L-CENTER
 48
5.0
100
AcDbLine
 10
636.8935246013489
 20
203.6302625834811
 30
0.0
 11
636.8935246013489
 21
173.6320839126764
 31
0.0
  0
LINE
  5
244
330
17
100
AcDbEntity
  8
L-CENTER
 48
5.0
100
AcDbLine
 10
247.4115458704536
 20
203.0140438948293
 30
0.0
 11
247.4115458704536
 21
173.6320839126764
 31
0.0
  0
LINE
  5
245
330
17
100
AcDbEntity
  8
L-CENTER
 48
5.0
100
AcDbLine
 10
197.9115458704534
 20
203.0140438948293
 30
0.0
 11
197.9115458704534
 21
173.6320839126764
 31
0.0
  0
LWPOLYLINE
  5
246
330
17
100
AcDbEntity
  8
4
100
AcDbPolyline
 90
        6
 70
     1
 43
0.0
 10
244.4115458704533
 20
571.0037375669796
 10
238.1615458704533
 20
581.8290551142851
 10
225.6615458704533
 20
581.8290551142851
 10
219.4115458704533
 20
571.0037375669796
 10
225.6615458704533
 20
560.178420019674
 10
238.1615458704533
 20
560.178420019674
  0
CIRCLE
  5
247
330
17
100
AcDbEntity
  8
4
100
AcDbCircle
 10
231.9115458704533
 20
571.0037375669796
 30
0.0
 40
12.5
  0
LINE
  5
248
330
17
100
AcDbEntity
  8
4
100
AcDbLine
 10
301.9115458704532
 20
550.5038601833569
 30
0.0
 11
291.9115458704532
 21
550.5038601833569
 31
0.0
  0
LINE
  5
249
330
17
100
AcDbEntity
  8
4
100
AcDbLine
 10
291.9115458704532
 20
558.5038601833569
 30
0.0
 11
291.9115458704532
 21
550.5038601833569
 31
0.0
  0
LINE
  5
24A
330
17
100
AcDbEntity
  8
4
100
AcDbLine
 10
301.9115458704532
 20
558.5038601833569
 30
0.0
 11
291.9115458704532
 21
558.5038601833569
 31
0.0
  0
LINE
  5
24B
330
17
100
AcDbEntity
  8
4
100
AcDbLine
 10
301.9115458704532
 20
550.5038601833569
 30
0.0
 11
301.9115458704532
 21
558.5038601833569
 31
0.0
  0
ARC
  5
24C
330
17
100
AcDbEntity
  8
4
100
AcDbCircle
 10
296.9115458704532
 20
571.0038601833569
 30
0.0
 40
17.0
100
AcDbArc
 50
287.104636
 51
252.894504
  0
LINE
  5
24D
330
17
100
AcDbEntity
  8
4
100
AcDbLine
 10
409.4115008704533
 20
456.0037370669796
 30
0.0
 11
426.9115458704532
 21
456.0037370669796
 31
0.0
  0
LINE
  5
24E
330
17
100
AcDbEntity
  8
4
100
AcDbLine
 10
409.4115008704533
 20
486.0037370669797
 30
0.0
 11
426.9115458704532
 21
486.0037370669796
 31
0.0
  0
LINE
  5
24F
330
17
100
AcDbEntity
  8
4
100
AcDbLine
 10
475.9115458704532
 20
483.5037370669796
 30
0.0
 11
475.9115458704532
 21
474.5037370669796
 31
0.0
  0
LINE
  5
250
330
17
100
AcDbEntity
  8
4
100
AcDbLine
 10
475.9115458704532
 20
483.5037370669796
 30
0.0
 11
476.9115458704532
 21
482.5037370669796
 31
0.0
  0
LINE
  5
251
330
17
100
AcDbEntity
  8
4
100
AcDbLine
 10
475.9115458704532
 20
467.5037370669796
 30
0.0
 11
475.9115458704532
 21
458.5037370669796
 31
0.0
  0
LINE
  5
252
330
17
100
AcDbEntity
  8
4
100
AcDbLine
 10
475.9115458704532
 20
458.5037370669796
 30
0.0
 11
476.9115458704532
 21
459.5037370669796
 31
0.0
  0
LINE
  5
253
330
17
100
AcDbEntity
  8
4
100
AcDbLine
 10
476.9115458704532
 20
482.5037370669796
 30
0.0
 11
476.9115458704532
 21
459.5037370669796
 31
0.0
  0
ARC
  5
254
330
17
100
AcDbEntity
  8
4
100
AcDbCircle
 10
427.9115458704532
 20
484.5037370669796
 30
0.0
 40
1.0
100
AcDbArc
 50
180.0
 51
270.0
  0
ARC
  5
255
330
17
100
AcDbEntity
  8
4
100
AcDbCircle
 10
427.9115458704532
 20
457.5037370669796
 30
0.0
 40
1.0
100
AcDbArc
 50
90.0
 51
180.0
  0
ARC
  5
256
330
17
100
AcDbEntity
  8
4
100
AcDbCircle
 10
435.4115458704532
 20
471.0037370669796
 30
0.0
 40
3.5
100
AcDbArc
 50
90.0
 51
270.0
  0
LINE
  5
257
330
17
100
AcDbEntity
  8
4
100
AcDbLine
 10
426.9115458704532
 20
486.0037370669796
 30
0.0
 11
426.9115458704532
 21
456.0037370669796
 31
0.0
  0
LINE
  5
258
330
17
100
AcDbEntity
  8
4
100
AcDbLine
 10
427.9115458704532
 20
483.5037370669796
 30
0.0
 11
475.9115458704532
 21
483.5037370669796
 31
0.0
  0
LINE
  5
259
330
17
100
AcDbEntity
  8
4
100
AcDbLine
 10
427.9115458704532
 20
458.5037370669796
 30
0.0
 11
475.9115458704532
 21
458.5037370669796
 31
0.0
  0
LINE
  5
25A
330
17
100
AcDbEntity
  8
4
100
AcDbLine
 10
435.4115458704532
 20
474.5037370669796
 30
0.0
 11
476.9115458704532
 21
474.5037370669796
 31
0.0
  0
LINE
  5
25B
330
17
100
AcDbEntity
  8
4
100
AcDbLine
 10
435.4115458704532
 20
467.5037370669796
 30
0.0
 11
476.9115458704532
 21
467.5037370669796
 31
0.0
  0
LINE
  5
25C
330
17
100
AcDbEntity
  8
4
100
AcDbLine
 10
186.4115453704533
 20
502.0037370669794
 30
0.0
 11
184.4115908704531
 21
502.0037370669794
 31
0.0
  0
LINE
  5
25D
330
17
100
AcDbEntity
  8
4
100
AcDbLine
 10
186.4115453704533
 20
440.0037370669799
 30
0.0
 11
184.4115908704531
 21
440.0037370669799
 31
0.0
  0
LINE
  5
25E
330
17
100
AcDbEntity
  8
4
100
AcDbLine
 10
184.4115908704531
 20
440.0037370669799
 30
0.0
 11
184.4115908704531
 21
502.0037370669794
 31
0.0
  0
LINE
  5
25F
330
17
100
AcDbEntity
  8
4
100
AcDbLine
 10
407.4115463704532
 20
502.0037370669794
 30
0.0
 11
409.4115008704533
 21
502.0037370669794
 31
0.0
  0
LINE
  5
260
330
17
100
AcDbEntity
  8
4
100
AcDbLine
 10
407.4115463704532
 20
440.0037370669799
 30
0.0
 11
409.4115008704533
 21
440.0037370669799
 31
0.0
  0
LINE
  5
261
330
17
100
AcDbEntity
  8
4
100
AcDbLine
 10
409.4115008704533
 20
440.0037370669799
 30
0.0
 11
409.4115008704533
 21
502.0037370669794
 31
0.0
  0
LINE
  5
262
330
17
100
AcDbEntity
  8
4
100
AcDbLine
 10
407.4115458704533
 20
164.9237355327516
 30
0.0
 11
409.4115008704533
 21
164.9237355327516
 31
0.0
  0
LINE
  5
263
330
17
100
AcDbEntity
  8
4
100
AcDbLine
 10
407.4115458704533
 20
102.9237355327521
 30
0.0
 11
409.4115008704533
 21
102.9237355327521
 31
0.0
  0
LINE
  5
264
330
17
100
AcDbEntity
  8
4
100
AcDbLine
 10
409.4115008704533
 20
102.9237355327521
 30
0.0
 11
409.4115008704533
 21
164.9237355327516
 31
0.0
  0
LINE
  5
265
330
17
100
AcDbEntity
  8
4
100
AcDbLine
 10
320.4777428704533
 20
457.0043825669792
 30
0.0
 11
323.9115518704534
 21
457.0043825669792
 31
0.0
  0
LINE
  5
266
330
17
100
AcDbEntity
  8
4
100
AcDbLine
 10
324.9115523704531
 20
445.5043820669795
 30
0.0
 11
324.9115523704531
 21
456.0043820669795
 31
0.0
  0
ARC
  5
267
330
17
100
AcDbEntity
  8
4
100
AcDbCircle
 10
323.9115518704534
 20
456.0043820669795
 30
0.0
 40
1.0000005
100
AcDbArc
 50
0.0
 51
90.0
  0
ARC
  5
268
330
17
100
AcDbEntity
  8
4
100
AcDbCircle
 10
320.4777428704533
 20
456.0043820669795
 30
0.0
 40
1.0000005
100
AcDbArc
 50
90.0
 51
149.0362430000011
  0
ARC
  5
269
330
17
100
AcDbEntity
  8
4
100
AcDbCircle
 10
326.4115523704531
 20
440.5043825669792
 30
0.0
 40
1.0000005
100
AcDbArc
 50
270.0
 51
0.0
  0
LINE
  5
26A
330
17
100
AcDbEntity
  8
4
100
AcDbLine
 10
327.4115528704533
 20
443.5043825669792
 30
0.0
 11
327.4115528704533
 21
440.5043825669792
 31
0.0
  0
LINE
  5
26B
330
17
100
AcDbEntity
  8
4
100
AcDbLine
 10
320.9115518704534
 20
437.0043815669793
 30
0.0
 11
323.9115518704534
 21
437.0043815669793
 31
0.0
  0
LINE
  5
26C
330
17
100
AcDbEntity
  8
4
100
AcDbLine
 10
319.9115528704533
 20
438.5043815669793
 30
0.0
 11
319.9115528704533
 21
438.0043820669795
 31
0.0
  0
LINE
  5
26D
330
17
100
AcDbEntity
  8
4
100
AcDbLine
 10
324.9115523704531
 20
438.0043820669795
 30
0.0
 11
324.9115523704531
 21
438.5043815669793
 31
0.0
  0
ARC
  5
26E
330
17
100
AcDbEntity
  8
4
100
AcDbCircle
 10
318.9115523704531
 20
438.5043815669793
 30
0.0
 40
1.0000005
100
AcDbArc
 50
0.0
 51
90.0
  0
ARC
  5
26F
330
17
100
AcDbEntity
  8
4
100
AcDbCircle
 10
320.9115518704534
 20
438.0043820669795
 30
0.0
 40
1.0000005
100
AcDbArc
 50
180.0
 51
270.0
  0
ARC
  5
270
330
17
100
AcDbEntity
  8
4
100
AcDbCircle
 10
323.9115518704534
 20
438.0043820669795
 30
0.0
 40
1.0000005
100
AcDbArc
 50
270.0
 51
0.0
  0
ARC
  5
271
330
17
100
AcDbEntity
  8
4
100
AcDbCircle
 10
325.9115528704533
 20
438.5043815669793
 30
0.0
 40
1.0000005
100
AcDbArc
 50
90.0
 51
180.0
  0
LINE
  5
272
330
17
100
AcDbEntity
  8
4
100
AcDbLine
 10
325.9115528704533
 20
439.5043820669795
 30
0.0
 11
326.4115523704531
 21
439.5043820669795
 31
0.0
  0
LINE
  5
273
330
17
100
AcDbEntity
  8
4
100
AcDbLine
 10
325.9115528704533
 20
444.5043815669793
 30
0.0
 11
326.4115523704531
 21
444.5043815669793
 31
0.0
  0
ARC
  5
274
330
17
100
AcDbEntity
  8
4
100
AcDbCircle
 10
326.4115523704531
 20
443.5043825669792
 30
0.0
 40
1.0000005
100
AcDbArc
 50
0.0
 51
90.0
  0
ARC
  5
275
330
17
100
AcDbEntity
  8
4
100
AcDbCircle
 10
325.9115528704533
 20
445.5043820669795
 30
0.0
 40
1.0000005
100
AcDbArc
 50
180.0
 51
270.0
  0
LINE
  5
276
330
17
100
AcDbEntity
  8
4
100
AcDbLine
 10
307.4115518704534
 20
449.5043825669792
 30
0.0
 11
304.4115518704534
 21
449.5043825669792
 31
0.0
  0
LINE
  5
277
330
17
100
AcDbEntity
  8
4
100
AcDbLine
 10
308.4115523704531
 20
445.5043820669795
 30
0.0
 11
308.4115523704531
 21
448.5043820669795
 31
0.0
  0
LINE
  5
278
330
17
100
AcDbEntity
  8
4
100
AcDbLine
 10
303.4115528704533
 20
445.5043820669795
 30
0.0
 11
303.4115528704533
 21
448.5043820669795
 31
0.0
  0
ARC
  5
279
330
17
100
AcDbEntity
  8
4
100
AcDbCircle
 10
304.4115518704534
 20
448.5043820669795
 30
0.0
 40
1.0000005
100
AcDbArc
 50
90.0
 51
180.0
  0
ARC
  5
27A
330
17
100
AcDbEntity
  8
4
100
AcDbCircle
 10
307.4115518704534
 20
448.5043820669795
 30
0.0
 40
1.0000005
100
AcDbArc
 50
0.0
 51
90.0
  0
LINE
  5
27B
330
17
100
AcDbEntity
  8
4
100
AcDbLine
 10
290.9115413704531
 20
457.0043825669792
 30
0.0
 11
292.9113023704531
 21
457.0043825669792
 31
0.0
  0
LINE
  5
27C
330
17
100
AcDbEntity
  8
4
100
AcDbLine
 10
296.9424308704533
 20
450.5043815669793
 30
0.0
 11
296.9115413704531
 21
450.5043815669793
 31
0.0
  0
ARC
  5
27D
330
17
100
AcDbEntity
  8
4
100
AcDbCircle
 10
292.9113023704531
 20
450.5043815669793
 30
0.0
 40
6.499999500000001
100
AcDbArc
 50
26.38780000000033
 51
90.0
  0
ARC
  5
27E
330
17
100
AcDbEntity
  8
4
100
AcDbCircle
 10
296.9424308704533
 20
452.5043825669792
 30
0.0
 40
1.9999995
100
AcDbArc
 50
270.0
 51
26.38780000000155
  0
ARC
  5
27F
330
17
100
AcDbEntity
  8
4
100
AcDbCircle
 10
313.4115518704534
 20
440.5043825669792
 30
0.0
 40
1.0000005
100
AcDbArc
 50
180.0
 51
270.0
  0
LINE
  5
280
330
17
100
AcDbEntity
  8
4
100
AcDbLine
 10
307.4115518704534
 20
444.5043815669793
 30
0.0
 11
304.4115518704534
 21
444.5043815669793
 31
0.0
  0
LINE
  5
281
330
17
100
AcDbEntity
  8
4
100
AcDbLine
 10
312.4115528704533
 20
444.2273990669793
 30
0.0
 11
312.4115528704533
 21
440.5043825669792
 31
0.0
  0
ARC
  5
282
330
17
100
AcDbEntity
  8
4
100
AcDbCircle
 10
292.9115438704534
 20
443.5043825669792
 30
0.0
 40
6.499999500000001
100
AcDbArc
 50
270.0
 51
333.6121999999997
  0
LINE
  5
283
330
17
100
AcDbEntity
  8
4
100
AcDbLine
 10
290.9115413704531
 20
437.0043815669793
 30
0.0
 11
292.9115438704534
 21
437.0043815669793
 31
0.0
  0
LINE
  5
284
330
17
100
AcDbEntity
  8
4
100
AcDbLine
 10
296.9426723704532
 20
443.5043825669792
 30
0.0
 11
296.9115413704531
 21
443.5043825669792
 31
0.0
  0
ARC
  5
285
330
17
100
AcDbEntity
  8
4
100
AcDbCircle
 10
296.9426723704532
 20
441.5043815669793
 30
0.0
 40
1.9999995
100
AcDbArc
 50
333.6121999999984
 51
90.0
  0
ARC
  5
286
330
17
100
AcDbEntity
  8
4
100
AcDbCircle
 10
307.4115518704534
 20
445.5043820669795
 30
0.0
 40
1.0000005
100
AcDbArc
 50
270.0
 51
0.0
  0
ARC
  5
287
330
17
100
AcDbEntity
  8
4
100
AcDbCircle
 10
304.4115518704534
 20
445.5043820669795
 30
0.0
 40
1.0000005
100
AcDbArc
 50
180.0
 51
270.0
  0
ARC
  5
288
330
17
100
AcDbEntity
  8
4
100
AcDbCircle
 10
296.9115413704531
 20
447.0043820669795
 30
0.0
 40
3.4999995
100
AcDbArc
 50
90.0
 51
270.0
  0
ARC
  5
289
330
17
100
AcDbEntity
  8
4
100
AcDbCircle
 10
313.4115518704534
 20
444.2273990669793
 30
0.0
 40
1.0000005
100
AcDbArc
 50
149.0362430000011
 51
180.0
  0
LINE
  5
28A
330
17
100
AcDbEntity
  8
4
100
AcDbLine
 10
313.4115518704534
 20
439.5043820669795
 30
0.0
 11
318.9115523704531
 21
439.5043820669795
 31
0.0
  0
LINE
  5
28B
330
17
100
AcDbEntity
  8
4
100
AcDbLine
 10
312.5540588704534
 20
444.7418945669793
 30
0.0
 11
319.6202498704533
 21
456.5188775669793
 31
0.0
  0
LINE
  5
28C
330
17
100
AcDbEntity
  8
4
100
AcDbLine
 10
284.4115418704532
 20
443.5043825669792
 30
0.0
 11
284.4115418704532
 21
450.5043815669793
 31
0.0
  0
ARC
  5
28D
330
17
100
AcDbEntity
  8
4
100
AcDbCircle
 10
290.9115413704531
 20
443.5043825669792
 30
0.0
 40
6.499999500000001
100
AcDbArc
 50
180.0
 51
270.0
  0
ARC
  5
28E
330
17
100
AcDbEntity
  8
4
100
AcDbCircle
 10
290.9115413704531
 20
450.5043815669793
 30
0.0
 40
6.499999500000001
100
AcDbArc
 50
90.0
 51
180.0
  0
ARC
  5
28F
330
17
100
AcDbEntity
  8
4
100
AcDbCircle
 10
321.2811285955335
 20
655.5621400933134
 30
0.0
 40
3.0
100
AcDbArc
 50
73.92311168739165
 51
185.1263803664052
  0
ARC
  5
290
330
17
100
AcDbEntity
  8
4
100
AcDbCircle
 10
381.4699483967869
 20
595.3733202920597
 30
0.0
 40
3.0
100
AcDbArc
 50
264.8736196335936
 51
16.0768883126076
  0
ARC
  5
291
330
17
100
AcDbEntity
  8
4
100
AcDbCircle
 10
336.289495282591
 20
610.3816869791173
 30
0.0
 40
3.0
100
AcDbArc
 50
7.619035016427544
 51
82.38096498357137
  0
ARC
  5
292
330
17
100
AcDbEntity
  8
4
100
AcDbCircle
 10
346.3848110534974
 20
601.5329168677032
 30
0.0
 40
6.0
100
AcDbArc
 50
185.7258432824331
 51
264.8736196335937
  0
ARC
  5
293
330
17
100
AcDbEntity
  8
4
100
AcDbCircle
 10
327.4407251711767
 20
620.4770027500236
 30
0.0
 40
6.0
100
AcDbArc
 50
185.1263803664062
 51
264.2741567175669
  0
ARC
  5
294
330
17
100
AcDbEntity
  8
4
100
AcDbCircle
 10
333.6326972060627
 20
607.7248889025892
 30
0.0
 40
3.0
100
AcDbArc
 50
7.102238149571051
 51
82.89776185043004
  0
LINE
  5
295
330
17
100
AcDbEntity
  8
4
100
AcDbLine
 10
381.2018897301169
 20
592.3853201998202
 30
0.0
 11
345.848693720157
 21
595.556916683224
 31
0.0
  0
LINE
  5
296
330
17
100
AcDbEntity
  8
4
100
AcDbLine
 10
318.293128503294
 20
655.2940814266431
 30
0.0
 11
321.4647249866979
 21
619.9408854166834
 31
0.0
  0
ARC
  5
297
330
17
100
AcDbEntity
  8
4
100
AcDbCircle
 10
381.4699483967868
 20
546.6341548418994
 30
0.0
 40
3.0
100
AcDbArc
 50
343.9231116873924
 51
95.12638036640642
  0
ARC
  5
298
330
17
100
AcDbEntity
  8
4
100
AcDbCircle
 10
336.2894952825909
 20
531.6257881548419
 30
0.0
 40
3.0
100
AcDbArc
 50
277.6190350164276
 51
352.3809649835702
  0
ARC
  5
299
330
17
100
AcDbEntity
  8
4
100
AcDbCircle
 10
346.3848110534973
 20
540.4745582662562
 30
0.0
 40
6.0
100
AcDbArc
 50
95.1263803664063
 51
174.2741567175669
  0
ARC
  5
29A
330
17
100
AcDbEntity
  8
4
100
AcDbCircle
 10
333.6326972060626
 20
534.2825862313701
 30
0.0
 40
3.0
100
AcDbArc
 50
277.1022381495711
 51
352.8977618504289
  0
ARC
  5
29B
330
17
100
AcDbEntity
  8
4
100
AcDbCircle
 10
327.4407251711766
 20
521.5304723839355
 30
0.0
 40
6.0
100
AcDbArc
 50
95.72584328243254
 51
174.8736196335938
  0
LINE
  5
29C
330
17
100
AcDbEntity
  8
4
100
AcDbLine
 10
381.2018897301169
 20
549.6221549341387
 30
0.0
 11
345.848693720157
 21
546.4505584507349
 31
0.0
  0
ARC
  5
29D
330
17
100
AcDbEntity
  8
4
100
AcDbCircle
 10
321.2811285955333
 20
486.445335040646
 30
0.0
 40
3.0
100
AcDbArc
 50
174.8736196335927
 51
286.0768883126083
  0
LINE
  5
29E
330
17
100
AcDbEntity
  8
L-CENTER
 48
5.0
100
AcDbLine
 10
340.4115458704533
 20
495.6595274377335
 30
0.0
 11
352.4115458704533
 21
474.8749177469069
 31
0.0
  0
LINE
  5
29F
330
17
100
AcDbEntity
  8
4
100
AcDbLine
 10
318.293128503294
 20
486.7133937073158
 30
0.0
 11
321.4647249866979
 21
522.0665897172757
 31
0.0
  0
ARC
  5
2A0
330
17
100
AcDbEntity
  8
4
100
AcDbCircle
 10
38.91154587045327
 20
571.0037375669796
 30
0.0
 40
300.0
100
AcDbArc
 50
352.8977618504284
 51
7.102238149571463
  0
ARC
  5
2A1
330
17
100
AcDbEntity
  8
4
100
AcDbCircle
 10
41.91154587045327
 20
571.0037375669796
 30
0.0
 40
300.0
100
AcDbArc
 50
352.3809649835721
 51
7.619035016427927
  0
ARC
  5
2A2
330
17
100
AcDbEntity
  8
4
100
AcDbCircle
 10
272.541963145373
 20
655.5621400933134
 30
0.0
 40
3.0
100
AcDbArc
 50
354.8736196335927
 51
106.0768883126083
  0
ARC
  5
2A3
330
17
100
AcDbEntity
  8
4
100
AcDbCircle
 10
266.3823665697297
 20
620.4770027500236
 30
0.0
 40
6.0
100
AcDbArc
 50
275.7258432824325
 51
354.8736196335938
  0
ARC
  5
2A4
330
17
100
AcDbEntity
  8
4
100
AcDbCircle
 10
260.1903945348437
 20
607.7248889025892
 30
0.0
 40
3.0
100
AcDbArc
 50
97.10223814957105
 51
172.897761850429
  0
ARC
  5
2A5
330
17
100
AcDbEntity
  8
4
100
AcDbCircle
 10
257.5335964583156
 20
610.3816869791175
 30
0.0
 40
3.0
100
AcDbArc
 50
97.61903501642861
 51
172.3809649835724
  0
ARC
  5
2A6
330
17
100
AcDbEntity
  8
4
100
AcDbCircle
 10
247.4382806874092
 20
601.5329168677032
 30
0.0
 40
6.0
100
AcDbArc
 50
275.1263803664063
 51
354.2741567175669
  0
LINE
  5
2A7
330
17
100
AcDbEntity
  8
4
100
AcDbLine
 10
275.5299632376126
 20
655.2940814266432
 30
0.0
 11
272.3583667542088
 21
619.9408854166835
 31
0.0
  0
ARC
  5
2A8
330
17
100
AcDbEntity
  8
4
100
AcDbCircle
 10
212.3531433441195
 20
595.3733202920597
 30
0.0
 40
3.0
100
AcDbArc
 50
163.9231116873926
 51
275.1263803664064
  0
LINE
  5
2A9
330
17
100
AcDbEntity
  8
4
100
AcDbLine
 10
212.6212020107897
 20
592.3853201998203
 30
0.0
 11
247.9743980207494
 21
595.5569166832241
 31
0.0
  0
ARC
  5
2AA
330
17
100
AcDbEntity
  8
4
100
AcDbCircle
 10
266.3823665697296
 20
521.5304723839355
 30
0.0
 40
6.0
100
AcDbArc
 50
5.126380366406224
 51
84.27415671756695
  0
ARC
  5
2AB
330
17
100
AcDbEntity
  8
4
100
AcDbCircle
 10
260.1903945348436
 20
534.2825862313701
 30
0.0
 40
3.0
100
AcDbArc
 50
187.102238149571
 51
262.8977618504289
  0
ARC
  5
2AC
330
17
100
AcDbEntity
  8
4
100
AcDbCircle
 10
257.5335964583155
 20
531.6257881548419
 30
0.0
 40
3.0
100
AcDbArc
 50
187.6190350164276
 51
262.3809649835703
  0
ARC
  5
2AD
330
17
100
AcDbEntity
  8
4
100
AcDbCircle
 10
247.4382806874091
 20
540.4745582662562
 30
0.0
 40
6.0
100
AcDbArc
 50
5.72584328243309
 51
84.87361963359369
  0
ARC
  5
2AE
330
17
100
AcDbEntity
  8
4
100
AcDbCircle
 10
272.5419631453728
 20
486.445335040646
 30
0.0
 40
3.0
100
AcDbArc
 50
253.9231116873916
 51
5.126380366405226
  0
LINE
  5
2AF
330
17
100
AcDbEntity
  8
4
100
AcDbLine
 10
275.5299632376126
 20
486.713393707316
 30
0.0
 11
272.3583667542088
 21
522.0665897172759
 31
0.0
  0
LINE
  5
2B0
330
17
100
AcDbEntity
  8
L-CENTER
 48
5.0
100
AcDbLine
 10
253.4115458704536
 20
495.6595274377336
 30
0.0
 11
241.4115458704536
 21
474.874917746907
 31
0.0
  0
ARC
  5
2B1
330
17
100
AcDbEntity
  8
4
100
AcDbCircle
 10
212.3531433441194
 20
546.6341548418994
 30
0.0
 40
3.0
100
AcDbArc
 50
84.8736196335936
 51
196.0768883126074
  0
LINE
  5
2B2
330
17
100
AcDbEntity
  8
4
100
AcDbLine
 10
212.6212020107897
 20
549.6221549341388
 30
0.0
 11
247.9743980207494
 21
546.450558450735
 31
0.0
  0
LINE
  5
2B3
330
17
100
AcDbEntity
  8
L-CENTER
 48
5.0
100
AcDbLine
 10
231.9115458704533
 20
551.4037375669797
 30
0.0
 11
231.9115458704533
 21
590.6037375669797
 31
0.0
  0
ARC
  5
2B4
330
17
100
AcDbEntity
  8
4
100
AcDbCircle
 10
554.9115458704532
 20
571.0037375669795
 30
0.0
 40
300.0
100
AcDbArc
 50
172.8977618504285
 51
187.1022381495714
  0
ARC
  5
2B5
330
17
100
AcDbEntity
  8
4
100
AcDbCircle
 10
551.9115458704532
 20
571.0037375669795
 30
0.0
 40
300.0
100
AcDbArc
 50
172.3809649835721
 51
187.6190350164279
  0
CIRCLE
  5
2B6
330
17
100
AcDbEntity
  8
4
100
AcDbCircle
 10
231.9115458704532
 20
571.0037375669796
 30
0.0
 40
14.0
  0
CIRCLE
  5
2B7
330
17
100
AcDbEntity
  8
4
100
AcDbCircle
 10
296.9115458704532
 20
571.0037375669796
 30
0.0
 40
25.0
  0
CIRCLE
  5
2B8
330
17
100
AcDbEntity
  8
4
100
AcDbCircle
 10
296.9115458704532
 20
571.0037375669796
 30
0.0
 40
105.0
  0
CIRCLE
  5
2B9
330
17
100
AcDbEntity
  8
L-CENTER
 48
5.0
100
AcDbCircle
 10
296.9115458704532
 20
571.0037375669796
 30
0.0
 40
98.99999999999983
  0
ARC
  5
2BA
330
17
100
AcDbEntity
  8
4
100
AcDbCircle
 10
296.9115458704532
 20
313.0037375669796
 30
0.0
 40
300.0
100
AcDbArc
 50
82.89776185042847
 51
97.10223814957149
  0
ARC
  5
2BB
330
17
100
AcDbEntity
  8
4
100
AcDbCircle
 10
296.9115458704532
 20
316.0037375669796
 30
0.0
 40
300.0
100
AcDbArc
 50
82.38096498357208
 51
97.61903501642792
  0
ARC
  5
2BC
330
17
100
AcDbEntity
  8
4
100
AcDbCircle
 10
296.9115458704533
 20
829.0037375669795
 30
0.0
 40
300.0
100
AcDbArc
 50
262.8977618504285
 51
277.1022381495715
  0
ARC
  5
2BD
330
17
100
AcDbEntity
  8
4
100
AcDbCircle
 10
296.9115458704533
 20
826.0037375669795
 30
0.0
 40
300.0
100
AcDbArc
 50
262.3809649835721
 51
277.6190350164279
  0
CIRCLE
  5
2BE
330
17
100
AcDbEntity
  8
4
100
AcDbCircle
 10
296.9115458704532
 20
571.0037375669796
 30
0.0
 40
91.0
  0
LINE
  5
2BF
330
17
100
AcDbEntity
  8
L-CENTER
 48
5.0
100
AcDbLine
 10
405.9678866589605
 20
646.0037375669796
 30
0.0
 11
441.8552060819458
 21
646.0037375669796
 31
0.0
  0
LINE
  5
2C0
330
17
100
AcDbEntity
  8
4
100
AcDbLine
 10
400.9115453704533
 20
430.0037375669796
 30
0.0
 11
400.9115453704533
 21
526.6077920669796
 31
0.0
  0
ARC
  5
2C1
330
17
100
AcDbEntity
  8
4
100
AcDbCircle
 10
387.1682063704532
 20
480.7470770669794
 30
0.0
 40
4.0000005
100
AcDbArc
 50
286.0729439999994
 51
343.9270559999995
  0
ARC
  5
2C2
330
17
100
AcDbEntity
  8
4
100
AcDbCircle
 10
387.1682063704532
 20
661.2603980669793
 30
0.0
 40
4.0000005
100
AcDbArc
 50
16.07294400000047
 51
73.92705600000056
  0
ARC
  5
2C3
330
17
100
AcDbEntity
  8
4
100
AcDbCircle
 10
73.91154537045327
 20
571.0037375669796
 30
0.0
 40
330.0
100
AcDbArc
 50
343.927056
 51
16.07294400000001
  0
ARC
  5
2C4
330
17
100
AcDbEntity
  8
4
100
AcDbCircle
 10
440.4115463704532
 20
667.0037375669796
 30
0.0
 40
4.0000005
100
AcDbArc
 50
0.0
 51
90.0
  0
ARC
  5
2C5
330
17
100
AcDbEntity
  8
4
100
AcDbCircle
 10
440.4115463704532
 20
624.1791275669797
 30
0.0
 40
4.0000005
100
AcDbArc
 50
283.1115560000001
 51
0.0
  0
CIRCLE
  5
2C6
330
17
100
AcDbEntity
  8
4
100
AcDbCircle
 10
423.9115463704532
 20
646.0037375669796
 30
0.0
 40
7.5
  0
LINE
  5
2C7
330
17
100
AcDbEntity
  8
4
100
AcDbLine
 10
444.4115453704533
 20
624.1791275669797
 30
0.0
 11
444.4115453704533
 21
667.0037375669796
 31
0.0
  0
LINE
  5
2C8
330
17
100
AcDbEntity
  8
L-CENTER
 48
5.0
100
AcDbLine
 10
423.9115463704532
 20
628.060077855487
 30
0.0
 11
423.9115463704532
 21
663.9473972784722
 31
0.0
  0
LINE
  5
2C9
330
17
100
AcDbEntity
  8
4
100
AcDbLine
 10
441.3189368704534
 20
620.2834070669793
 30
0.0
 11
401.4783323704532
 21
611.0037380669795
 31
0.0
  0
LINE
  5
2CA
330
17
100
AcDbEntity
  8
4
100
AcDbLine
 10
315.9115463704532
 20
678.3989555669796
 30
0.0
 11
315.9115463704532
 21
679.0037375669795
 31
0.0
  0
ARC
  5
2CB
330
17
100
AcDbEntity
  8
4
100
AcDbCircle
 10
316.9115453704533
 20
678.3989555669796
 30
0.0
 40
1.0000005
100
AcDbArc
 50
180.0
 51
266.5359089999985
  0
LINE
  5
2CC
330
17
100
AcDbEntity
  8
4
100
AcDbLine
 10
277.9115453704533
 20
678.3989555669796
 30
0.0
 11
277.9115453704533
 21
679.0037375669795
 31
0.0
  0
ARC
  5
2CD
330
17
100
AcDbEntity
  8
4
100
AcDbCircle
 10
276.9115463704532
 20
678.3989555669796
 30
0.0
 40
1.0000005
100
AcDbArc
 50
273.4640909999983
 51
0.0
  0
LINE
  5
2CE
330
17
100
AcDbEntity
  8
4
100
AcDbLine
 10
315.9115463704532
 20
679.0037375669795
 30
0.0
 11
277.9115453704533
 21
679.0037375669795
 31
0.0
  0
ARC
  5
2CF
330
17
100
AcDbEntity
  8
4
100
AcDbCircle
 10
206.6548853704533
 20
661.2603980669793
 30
0.0
 40
4.0000005
100
AcDbArc
 50
106.0729439999999
 51
163.9270559999995
  0
ARC
  5
2D0
330
17
100
AcDbEntity
  8
4
100
AcDbCircle
 10
296.9115458704532
 20
348.0037370669796
 30
0.0
 40
330.0
100
AcDbArc
 50
73.92652589385055
 51
106.072944
  0
ARC
  5
2D1
330
17
100
AcDbEntity
  8
4
100
AcDbCircle
 10
153.4115453704533
 20
667.0037375669796
 30
0.0
 40
4.0000005
100
AcDbArc
 50
90.0
 51
180.0
  0
ARC
  5
2D2
330
17
100
AcDbEntity
  8
4
100
AcDbCircle
 10
153.4115453704533
 20
624.1791275669797
 30
0.0
 40
4.0000005
100
AcDbArc
 50
180.0
 51
256.8884439999999
  0
LINE
  5
2D3
330
17
100
AcDbEntity
  8
4
100
AcDbLine
 10
149.4115463704532
 20
624.1791275669797
 30
0.0
 11
149.4115463704532
 21
667.0037375669796
 31
0.0
  0
LINE
  5
2D4
330
17
100
AcDbEntity
  8
L-CENTER
 48
5.0
100
AcDbLine
 10
169.9115453704533
 20
628.060077855487
 30
0.0
 11
169.9115453704533
 21
663.9473972784722
 31
0.0
  0
CIRCLE
  5
2D5
330
17
100
AcDbEntity
  8
4
100
AcDbCircle
 10
169.9115453704533
 20
646.0037375669796
 30
0.0
 40
7.5
  0
LINE
  5
2D6
330
17
100
AcDbEntity
  8
4
100
AcDbLine
 10
153.4115453704533
 20
671.0037380669796
 30
0.0
 11
229.302374370453
 21
671.0037380669796
 31
0.0
  0
LINE
  5
2D7
330
17
100
AcDbEntity
  8
4
100
AcDbLine
 10
152.504154870453
 20
620.2834070669793
 30
0.0
 11
192.3447593704532
 21
611.0037380669795
 31
0.0
  0
LINE
  5
2D8
330
17
100
AcDbEntity
  8
L-CENTER
 48
5.0
100
AcDbLine
 10
187.8552050819459
 20
646.0037375669796
 30
0.0
 11
151.9678856589607
 21
646.0037375669796
 31
0.0
  0
LINE
  5
2D9
330
17
100
AcDbEntity
  8
4
100
AcDbLine
 10
364.5207173704532
 20
671.0037380669796
 30
0.0
 11
440.4115463704532
 21
671.0037380669796
 31
0.0
  0
LINE
  5
2DA
330
17
100
AcDbEntity
  8
L-CENTER
 48
5.0
100
AcDbLine
 10
410.345246370453
 20
571.0037375669796
 30
0.0
 11
183.4778453704535
 21
571.0037375669796
 31
0.0
  0
ARC
  5
2DB
330
17
100
AcDbEntity
  8
4
100
AcDbCircle
 10
440.4115463704532
 20
517.8283475669795
 30
0.0
 40
4.0000005
100
AcDbArc
 50
0.0
 51
76.8884439999999
  0
CIRCLE
  5
2DC
330
17
100
AcDbEntity
  8
4
100
AcDbCircle
 10
423.9115463704532
 20
496.0037375669796
 30
0.0
 40
7.5
  0
LINE
  5
2DD
330
17
100
AcDbEntity
  8
L-CENTER
 48
5.0
100
AcDbLine
 10
423.9115463704532
 20
478.060077855487
 30
0.0
 11
423.9115463704532
 21
513.9473972784722
 31
0.0
  0
LINE
  5
2DE
330
17
100
AcDbEntity
  8
4
100
AcDbLine
 10
400.9115453704533
 20
515.0037380669795
 30
0.0
 11
400.9115453704533
 21
526.6077920669796
 31
0.0
  0
LINE
  5
2DF
330
17
100
AcDbEntity
  8
4
100
AcDbLine
 10
407.4115463704532
 20
513.0037370669796
 30
0.0
 11
402.9115463704532
 21
513.0037370669796
 31
0.0
  0
ARC
  5
2E0
330
17
100
AcDbEntity
  8
4
100
AcDbCircle
 10
402.9115463704532
 20
515.0037380669795
 30
0.0
 40
1.9999995
100
AcDbArc
 50
180.0
 51
270.0
  0
LINE
  5
2E1
330
17
100
AcDbEntity
  8
L-CENTER
 48
5.0
100
AcDbLine
 10
405.9678866589605
 20
496.0037375669796
 30
0.0
 11
441.8552060819458
 21
496.0037375669796
 31
0.0
  0
LINE
  5
2E2
330
17
100
AcDbEntity
  8
4
100
AcDbLine
 10
441.3189368704534
 20
521.7240680669798
 30
0.0
 11
401.4783323704532
 21
531.0037370669796
 31
0.0
  0
LINE
  5
2E3
330
17
100
AcDbEntity
  8
4
100
AcDbLine
 10
407.4115463704532
 20
429.0037370669796
 30
0.0
 11
407.4115463704532
 21
513.0037370669796
 31
0.0
  0
LINE
  5
2E4
330
17
100
AcDbEntity
  8
4
100
AcDbLine
 10
444.4115453704533
 20
517.8283475669795
 30
0.0
 11
444.4115453704533
 21
483.5037370669796
 31
0.0
  0
LINE
  5
2E5
330
17
100
AcDbEntity
  8
4
100
AcDbLine
 10
280.4115368704533
 20
438.0043820669797
 30
0.0
 11
280.4115368704533
 21
441.0043820669797
 31
0.0
  0
ARC
  5
2E6
330
17
100
AcDbEntity
  8
4
100
AcDbCircle
 10
279.4115363704532
 20
441.0043820669797
 30
0.0
 40
1.0000005
100
AcDbArc
 50
0.0
 51
90.0
  0
ARC
  5
2E7
330
17
100
AcDbEntity
  8
4
100
AcDbCircle
 10
279.4115363704532
 20
438.0043820669797
 30
0.0
 40
1.0000005
100
AcDbArc
 50
270.0
 51
0.0
  0
LINE
  5
2E8
330
17
100
AcDbEntity
  8
4
100
AcDbLine
 10
190.9115453704533
 20
513.0037370669796
 30
0.0
 11
186.4115453704533
 21
513.0037370669796
 31
0.0
  0
ARC
  5
2E9
330
17
100
AcDbEntity
  8
4
100
AcDbCircle
 10
190.9115453704533
 20
515.0037380669795
 30
0.0
 40
1.9999995
100
AcDbArc
 50
270.0
 51
0.0
  0
ARC
  5
2EA
330
17
100
AcDbEntity
  8
4
100
AcDbCircle
 10
270.4115738704531
 20
456.0043820669797
 30
0.0
 40
1.0000005
100
AcDbArc
 50
359.9998459985447
 51
89.99984600000093
  0
LINE
  5
2EB
330
17
100
AcDbEntity
  8
4
100
AcDbLine
 10
267.4115768704532
 20
457.0043795669795
 30
0.0
 11
270.4115768704532
 21
457.0043840669795
 31
0.0
  0
ARC
  5
2EC
330
17
100
AcDbEntity
  8
4
 62
     3
100
AcDbCircle
 10
267.4115753704532
 20
456.0043820669797
 30
0.0
 40
1.0000005
100
AcDbArc
 50
89.99988399999943
 51
179.9998839998386
  0
ARC
  5
2ED
330
17
100
AcDbEntity
  8
4
100
AcDbCircle
 10
272.4115388704533
 20
443.0043815669793
 30
0.0
 40
1.0000005
100
AcDbArc
 50
180.0
 51
270.0
  0
ARC
  5
2EE
330
17
100
AcDbEntity
  8
4
100
AcDbCircle
 10
267.4115393704533
 20
438.0043820669797
 30
0.0
 40
1.0000005
100
AcDbArc
 50
179.9998839998386
 51
269.9998839999994
  0
LINE
  5
2EF
330
17
100
AcDbEntity
  8
4
100
AcDbLine
 10
266.4115388704533
 20
438.0043835669795
 30
0.0
 11
266.4115748704533
 21
456.0043835669795
 31
0.0
  0
LINE
  5
2F0
330
17
100
AcDbEntity
  8
4
100
AcDbLine
 10
271.4115368704533
 20
443.0043815669793
 30
0.0
 11
271.4115743704533
 21
456.0043790669798
 31
0.0
  0
ARC
  5
2F1
330
17
100
AcDbEntity
  8
4
100
AcDbCircle
 10
206.6548853704533
 20
480.7470770669794
 30
0.0
 40
4.0000005
100
AcDbArc
 50
196.0729440000005
 51
253.9270560000001
  0
LINE
  5
2F2
330
17
100
AcDbEntity
  8
4
100
AcDbLine
 10
186.4115453704533
 20
429.0037370669796
 30
0.0
 11
186.4115453704533
 21
513.0037370669796
 31
0.0
  0
LINE
  5
2F3
330
17
100
AcDbEntity
  8
4
100
AcDbLine
 10
192.9115463704532
 20
430.0037375669796
 30
0.0
 11
192.9115463704532
 21
526.6077920669796
 31
0.0
  0
ARC
  5
2F4
330
17
100
AcDbEntity
  8
4
100
AcDbCircle
 10
296.9115458704532
 20
794.0037380669796
 30
0.0
 40
330.0
100
AcDbArc
 50
253.927056
 51
286.0734741062778
  0
LINE
  5
2F5
330
17
100
AcDbEntity
  8
4
100
AcDbLine
 10
267.4115363704532
 20
437.0043800669797
 30
0.0
 11
279.4115363704532
 21
437.0043815669793
 31
0.0
  0
LINE
  5
2F6
330
17
100
AcDbEntity
  8
4
100
AcDbLine
 10
272.4115388704533
 20
442.0043825669796
 30
0.0
 11
279.4115363704532
 21
442.0043825669796
 31
0.0
  0
ARC
  5
2F7
330
17
100
AcDbEntity
  8
4
100
AcDbCircle
 10
153.4115453704533
 20
517.8283475669795
 30
0.0
 40
4.0000005
100
AcDbArc
 50
103.1115560000001
 51
180.0
  0
LINE
  5
2F8
330
17
100
AcDbEntity
  8
L-CENTER
 48
5.0
100
AcDbLine
 10
169.9115453704533
 20
478.060077855487
 30
0.0
 11
169.9115453704533
 21
513.9473972784722
 31
0.0
  0
CIRCLE
  5
2F9
330
17
100
AcDbEntity
  8
4
100
AcDbCircle
 10
169.9115453704533
 20
496.0037375669796
 30
0.0
 40
7.5
  0
ARC
  5
2FA
330
17
100
AcDbEntity
  8
4
100
AcDbCircle
 10
153.4115453704533
 20
475.0037375669796
 30
0.0
 40
4.0000005
100
AcDbArc
 50
180.0
 51
270.0
  0
LINE
  5
2FB
330
17
100
AcDbEntity
  8
4
100
AcDbLine
 10
149.4115463704532
 20
517.8283475669795
 30
0.0
 11
149.4115463704532
 21
475.0037375669796
 31
0.0
  0
LINE
  5
2FC
330
17
100
AcDbEntity
  8
L-CENTER
 48
5.0
100
AcDbLine
 10
187.8552050819459
 20
496.0037375669796
 30
0.0
 11
151.9678856589607
 21
496.0037375669796
 31
0.0
  0
LINE
  5
2FD
330
17
100
AcDbEntity
  8
4
100
AcDbLine
 10
153.4115453704533
 20
471.0037370669796
 30
0.0
 11
184.4115908704531
 21
471.0037370669795
 31
0.0
  0
LINE
  5
2FE
330
17
100
AcDbEntity
  8
4
100
AcDbLine
 10
152.504154870453
 20
521.7240680669798
 30
0.0
 11
192.3447593704532
 21
531.0037370669796
 31
0.0
  0
LINE
  5
2FF
330
17
100
AcDbEntity
  8
L-CENTER
 48
5.0
100
AcDbLine
 10
484.1385912293331
 20
471.0037370669796
 30
0.0
 11
182.5740395997768
 21
471.0037370669796
 31
0.0
  0
LINE
  5
300
330
17
100
AcDbEntity
  8
4
100
AcDbLine
 10
407.4115463704532
 20
429.0037370669796
 30
0.0
 11
186.4115453704533
 21
429.0037370669796
 31
0.0
  0
LINE
  5
301
330
17
100
AcDbEntity
  8
L-CENTER
 48
5.0
100
AcDbLine
 10
296.9115458704532
 20
423.0510388212351
 30
0.0
 11
296.9115458704532
 21
691.1356026811034
 31
0.0
  0
ARC
  5
302
330
17
100
AcDbEntity
  8
4
100
AcDbCircle
 10
519.9115463704532
 20
571.0037375669796
 30
0.0
 40
330.0
100
AcDbArc
 50
163.927056
 51
196.072944
  0
LINE
  5
30E
330
17
100
AcDbEntity
  8
4
100
AcDbLine
 10
740.1300395760081
 20
214.8237355327514
 30
0.0
 11
740.1300395760081
 21
228.9237355327518
 31
0.0
  0
LINE
  5
311
330
17
100
AcDbEntity
  8
4
100
AcDbLine
 10
834.1300395760081
 20
141.4237355327518
 30
0.0
 11
839.1300395760081
 21
141.4237355327518
 31
0.0
  0
LINE
  5
312
330
17
100
AcDbEntity
  8
4
100
AcDbLine
 10
834.1300395760081
 20
126.4237355327518
 30
0.0
 11
839.1300395760081
 21
126.4237355327518
 31
0.0
  0
LINE
  5
315
330
17
100
AcDbEntity
  8
4
100
AcDbLine
 10
839.1300395760081
 20
148.9237355327518
 30
0.0
 11
839.1300395760081
 21
118.9237355327518
 31
0.0
  0
LINE
  5
316
330
17
100
AcDbEntity
  8
4
100
AcDbLine
 10
834.1300395760081
 20
148.9237355327518
 30
0.0
 11
834.1300395760081
 21
118.9237355327518
 31
0.0
  0
LINE
  5
31C
330
17
100
AcDbEntity
  8
4
100
AcDbLine
 10
832.6299420760081
 20
100.6617730327519
 30
0.0
 11
832.6299420760081
 21
87.18569803275182
 31
0.0
  0
LINE
  5
31D
330
17
100
AcDbEntity
  8
4
100
AcDbLine
 10
830.6300395760081
 20
151.9237355327521
 30
0.0
 11
829.6300395760081
 21
151.9237355327521
 31
0.0
  0
LINE
  5
31E
330
17
100
AcDbEntity
  8
4
100
AcDbLine
 10
832.1300395760081
 20
147.9237355327521
 30
0.0
 11
830.6300395760081
 21
147.9237355327521
 31
0.0
  0
LINE
  5
31F
330
17
100
AcDbEntity
  8
4
100
AcDbLine
 10
832.1300395760081
 20
119.9237355327516
 30
0.0
 11
830.6300395760081
 21
119.9237355327516
 31
0.0
  0
LINE
  5
320
330
17
100
AcDbEntity
  8
4
100
AcDbLine
 10
832.1300395760081
 20
148.9237355327518
 30
0.0
 11
832.1300395760081
 21
118.9237355327518
 31
0.0
  0
LINE
  5
321
330
17
100
AcDbEntity
  8
4
100
AcDbLine
 10
829.6300395760081
 20
83.92373553275183
 30
0.0
 11
830.6300395760081
 21
83.92373553275183
 31
0.0
  0
LINE
  5
322
330
17
100
AcDbEntity
  8
4
100
AcDbLine
 10
829.6300395760081
 20
76.92373553275206
 30
0.0
 11
822.6300395760081
 21
76.92373553275206
 31
0.0
  0
ARC
  5
323
330
17
100
AcDbEntity
  8
4
100
AcDbCircle
 10
820.6300395760081
 20
61.92373553275206
 30
0.0
 40
2.0
100
AcDbArc
 50
0.0
 51
90.0
  0
LINE
  5
324
330
17
100
AcDbEntity
  8
4
100
AcDbLine
 10
822.6300395760081
 20
76.92373553275206
 30
0.0
 11
822.6300395760081
 21
33.92373553275183
 31
0.0
  0
LINE
  5
325
330
17
100
AcDbEntity
  8
L-CENTER
 48
5.0
100
AcDbLine
 10
797.6300395760081
 20
73.92373553275183
 30
0.0
 11
797.6300395760081
 21
23.92373553275183
 31
0.0
  0
ARC
  5
326
330
17
100
AcDbEntity
  8
4
100
AcDbCircle
 10
764.630039576008
 20
61.92373553275206
 30
0.0
 40
2.0
100
AcDbArc
 50
90.0
 51
180.0
  0
ARC
  5
327
330
17
100
AcDbEntity
  8
4
100
AcDbCircle
 10
774.6300395760081
 20
61.92373553275206
 30
0.0
 40
2.0
100
AcDbArc
 50
90.0
 51
180.0
  0
ARC
  5
328
330
17
100
AcDbEntity
  8
4
100
AcDbCircle
 10
756.6300395760081
 20
64.9237355327516
 30
0.0
 40
6.0
100
AcDbArc
 50
0.0
 51
90.0
  0
LINE
  5
329
330
17
100
AcDbEntity
  8
4
100
AcDbLine
 10
762.6300395760081
 20
63.92373553275183
 30
0.0
 11
755.6300395760082
 21
56.92373553275206
 31
0.0
  0
LINE
  5
32A
330
17
100
AcDbEntity
  8
4
100
AcDbLine
 10
762.6300395760081
 20
64.9237355327516
 30
0.0
 11
762.6300395760081
 21
33.92373553275183
 31
0.0
  0
LINE
  5
32B
330
17
100
AcDbEntity
  8
4
100
AcDbLine
 10
772.6300395760081
 20
61.92373553275206
 30
0.0
 11
772.6300395760081
 21
33.92373553275183
 31
0.0
  0
LINE
  5
32C
330
17
100
AcDbEntity
  8
4
100
AcDbLine
 10
820.6300395760081
 20
63.92373553275183
 30
0.0
 11
764.630039576008
 21
63.92373553275183
 31
0.0
  0
LINE
  5
32D
330
17
100
AcDbEntity
  8
4
100
AcDbLine
 10
762.6300395760081
 20
33.92373553275183
 30
0.0
 11
822.6300395760081
 21
33.92373553275183
 31
0.0
  0
LINE
  5
32E
330
17
100
AcDbEntity
  8
4
100
AcDbLine
 10
830.6300395760081
 20
151.9237355327521
 30
0.0
 11
830.6300395760081
 21
83.92373553275183
 31
0.0
  0
LINE
  5
330
330
17
100
AcDbEntity
  8
4
100
AcDbLine
 10
832.1300395760081
 20
148.9237355327518
 30
0.0
 11
839.1300395760081
 21
148.9237355327518
 31
0.0
  0
LINE
  5
331
330
17
100
AcDbEntity
  8
4
100
AcDbLine
 10
839.1300395760081
 20
118.9237355327518
 30
0.0
 11
832.1300395760081
 21
118.9237355327518
 31
0.0
  0
LINE
  5
332
330
17
100
AcDbEntity
  8
4
100
AcDbLine
 10
830.6300395760081
 20
100.4994180327519
 30
0.0
 11
832.6299420760081
 21
100.6617730327519
 31
0.0
  0
LINE
  5
333
330
17
100
AcDbEntity
  8
4
100
AcDbLine
 10
830.6300395760081
 20
87.34805053275227
 30
0.0
 11
832.6299420760081
 21
87.18569803275182
 31
0.0
  0
LINE
  5
334
330
17
100
AcDbEntity
  8
L-CENTER
 48
5.0
100
AcDbLine
 10
834.479374576008
 20
93.92373553275183
 30
0.0
 11
820.5462995760081
 21
93.92373553275183
 31
0.0
  0
LINE
  5
336
330
17
100
AcDbEntity
  8
4
100
AcDbLine
 10
829.6300395760081
 20
76.92373553275206
 30
0.0
 11
829.6300395760081
 21
176.9237355327521
 31
0.0
  0
LINE
  5
33C
330
17
100
AcDbEntity
  8
4
100
AcDbLine
 10
739.630039576008
 20
228.9237355327518
 30
0.0
 11
739.630039576008
 21
287.9237355327521
 31
0.0
  0
LINE
  5
340
330
17
100
AcDbEntity
  8
4
100
AcDbLine
 10
706.6300395760081
 20
288.9237355327518
 30
0.0
 11
705.6300395760082
 21
287.9237355327521
 31
0.0
  0
LINE
  5
341
330
17
100
AcDbEntity
  8
4
100
AcDbLine
 10
738.6300395760081
 20
288.9237355327518
 30
0.0
 11
702.130039576008
 21
288.9237355327518
 31
0.0
  0
LINE
  5
342
330
17
100
AcDbEntity
  8
4
100
AcDbLine
 10
705.6300395760082
 20
287.9237355327521
 30
0.0
 11
722.6300395760081
 21
287.9237355327521
 31
0.0
  0
LINE
  5
34C
330
17
100
AcDbEntity
  8
4
100
AcDbLine
 10
702.130039576008
 20
233.9237355327518
 30
0.0
 11
705.6300395760082
 21
233.9237355327518
 31
0.0
  0
LINE
  5
34D
330
17
100
AcDbEntity
  8
4
100
AcDbLine
 10
705.1300395760081
 20
214.8237355327514
 30
0.0
 11
705.1300395760081
 21
228.9237355327518
 31
0.0
  0
LINE
  5
34E
330
17
100
AcDbEntity
  8
4
100
AcDbLine
 10
616.6300395760081
 20
176.9237355327521
 30
0.0
 11
616.6300395760081
 21
175.8637255327519
 31
0.0
  0
ARC
  5
34F
330
17
100
AcDbEntity
  8
4
100
AcDbCircle
 10
587.704747076008
 20
168.8490280327521
 30
0.0
 40
5.000005
100
AcDbArc
 50
96.80022000000018
 51
173.2025579999997
  0
ARC
  5
350
330
17
100
AcDbEntity
  8
4
100
AcDbCircle
 10
622.6302845760081
 20
-124.0762644672484
 30
0.0
 40
300.0
100
AcDbArc
 50
90.000326
 51
96.80000900000003
  0
ARC
  5
351
330
17
100
AcDbEntity
  8
4
100
AcDbCircle
 10
680.6300395760082
 20
61.92373553275206
 30
0.0
 40
2.0
100
AcDbArc
 50
0.0
 51
90.0
  0
ARC
  5
352
330
17
100
AcDbEntity
  8
4
100
AcDbCircle
 10
688.6300395760081
 20
64.9237355327516
 30
0.0
 40
6.0
100
AcDbArc
 50
90.0
 51
180.0
  0
ARC
  5
353
330
17
100
AcDbEntity
  8
4
100
AcDbCircle
 10
670.6300395760082
 20
61.92373553275206
 30
0.0
 40
2.0
100
AcDbArc
 50
0.0
 51
90.0
  0
LINE
  5
354
330
17
100
AcDbEntity
  8
4
100
AcDbLine
 10
682.6300395760081
 20
63.92422303275157
 30
0.0
 11
689.6305270760082
 21
56.92373553275206
 31
0.0
  0
LINE
  5
355
330
17
100
AcDbEntity
  8
L-CENTER
 48
5.0
100
AcDbLine
 10
647.6300395760081
 20
73.92373553275183
 30
0.0
 11
647.6300395760081
 21
23.92373553275183
 31
0.0
  0
LINE
  5
356
330
17
100
AcDbEntity
  8
4
100
AcDbLine
 10
682.6300395760081
 20
64.9237355327516
 30
0.0
 11
682.6300395760081
 21
33.92373553275183
 31
0.0
  0
LINE
  5
357
330
17
100
AcDbEntity
  8
4
100
AcDbLine
 10
672.6300395760081
 20
61.92373553275206
 30
0.0
 11
672.6300395760081
 21
33.92373553275183
 31
0.0
  0
LINE
  5
358
330
17
100
AcDbEntity
  8
4
100
AcDbLine
 10
626.1300395760081
 20
142.4237355327516
 30
0.0
 11
626.1300395760081
 21
149.4237355327521
 31
0.0
  0
LINE
  5
359
330
17
100
AcDbEntity
  8
4
100
AcDbLine
 10
619.1300395760081
 20
149.4237355327521
 30
0.0
 11
619.1300395760081
 21
142.4237355327516
 31
0.0
  0
LINE
  5
35A
330
17
100
AcDbEntity
  8
4
100
AcDbLine
 10
626.1300395760081
 20
149.4237355327521
 30
0.0
 11
619.1300395760081
 21
149.4237355327521
 31
0.0
  0
LINE
  5
35B
330
17
100
AcDbEntity
  8
4
100
AcDbLine
 10
626.1300395760081
 20
142.4237355327516
 30
0.0
 11
619.1300395760081
 21
142.4237355327516
 31
0.0
  0
ARC
  5
35C
330
17
100
AcDbEntity
  8
4
100
AcDbCircle
 10
622.6300395760081
 20
133.9237355327518
 30
0.0
 40
12.5
100
AcDbArc
 50
106.2602049999999
 51
73.73979500000009
  0
ARC
  5
35D
330
17
100
AcDbEntity
  8
4
100
AcDbCircle
 10
587.704747076008
 20
98.99868553275178
 30
0.0
 40
5.000020000000001
100
AcDbArc
 50
186.8002180000003
 51
263.1997819999998
  0
ARC
  5
35E
330
17
100
AcDbEntity
  8
4
100
AcDbCircle
 10
622.6302845760081
 20
391.9239805327518
 30
0.0
 40
300.0000325
100
AcDbArc
 50
263.201402
 51
269.061488
  0
ARC
  5
35F
330
17
100
AcDbEntity
  8
4
100
AcDbCircle
 10
624.630039576008
 20
61.92373553275206
 30
0.0
 40
2.0
100
AcDbArc
 50
90.0
 51
180.0
  0
LINE
  5
360
330
17
100
AcDbEntity
  8
4
100
AcDbLine
 10
622.6300395760081
 20
86.96475053275185
 30
0.0
 11
622.6300395760081
 21
33.92373553275183
 31
0.0
  0
ARC
  5
361
330
17
100
AcDbEntity
  8
4
100
AcDbCircle
 10
617.6300395760081
 20
86.96475053275185
 30
0.0
 40
4.99997
100
AcDbArc
 50
0.0
 51
89.05994100000018
  0
LINE
  5
362
330
17
100
AcDbEntity
  8
4
100
AcDbLine
 10
624.630039576008
 20
63.92373553275183
 30
0.0
 11
680.6300395760082
 21
63.92373553275183
 31
0.0
  0
LINE
  5
363
330
17
100
AcDbEntity
  8
4
100
AcDbLine
 10
622.6300395760081
 20
33.92373553275183
 30
0.0
 11
682.6300395760081
 21
33.92373553275183
 31
0.0
  0
CIRCLE
  5
364
330
17
100
AcDbEntity
  8
4
100
AcDbCircle
 10
622.6300395760081
 20
133.9237355327518
 30
0.0
 40
32.5
  0
LINE
  5
365
330
17
100
AcDbEntity
  8
L-CENTER
 48
5.0
100
AcDbLine
 10
622.6300395760081
 20
182.1659230327518
 30
0.0
 11
622.6300395760081
 21
85.68154803275183
 31
0.0
  0
ARC
  5
366
330
17
100
AcDbEntity
  8
4
100
AcDbCircle
 10
880.6300395760081
 20
133.9237355327518
 30
0.0
 40
299.9999675
100
AcDbArc
 50
173.2015870000001
 51
186.799917
  0
CIRCLE
  5
367
330
17
100
AcDbEntity
  8
4
100
AcDbCircle
 10
622.6300395760081
 20
133.9237355327518
 30
0.0
 40
42.0
  0
LINE
  5
36F
330
17
100
AcDbEntity
  8
4
100
AcDbLine
 10
475.9115458704532
 20
146.4237355327518
 30
0.0
 11
476.9115458704532
 21
145.4237355327521
 31
0.0
  0
LINE
  5
370
330
17
100
AcDbEntity
  8
4
100
AcDbLine
 10
476.9115458704532
 20
122.4237355327516
 30
0.0
 11
475.9115458704532
 21
121.4237355327518
 31
0.0
  0
LINE
  5
371
330
17
100
AcDbEntity
  8
4
100
AcDbLine
 10
475.9115458704532
 20
146.4237355327518
 30
0.0
 11
475.9115458704532
 21
121.4237355327518
 31
0.0
  0
LINE
  5
372
330
17
100
AcDbEntity
  8
4
100
AcDbLine
 10
476.9115458704532
 20
122.4237355327516
 30
0.0
 11
476.9115458704532
 21
149.4237355327521
 31
0.0
  0
LINE
  5
373
330
17
100
AcDbEntity
  8
4
100
AcDbLine
 10
431.9115458704532
 20
146.4237355327518
 30
0.0
 11
431.9115458704532
 21
149.4237355327521
 31
0.0
  0
LINE
  5
374
330
17
100
AcDbEntity
  8
4
100
AcDbLine
 10
426.9115458704532
 20
148.9237355327518
 30
0.0
 11
426.9115458704532
 21
118.9237355327518
 31
0.0
  0
LINE
  5
375
330
17
100
AcDbEntity
  8
4
100
AcDbLine
 10
426.9115458704532
 20
121.4237355327518
 30
0.0
 11
475.9115458704532
 21
121.4237355327518
 31
0.0
  0
LINE
  5
376
330
17
100
AcDbEntity
  8
4
100
AcDbLine
 10
426.9115458704532
 20
146.4237355327518
 30
0.0
 11
475.9115458704532
 21
146.4237355327518
 31
0.0
  0
LINE
  5
377
330
17
100
AcDbEntity
  8
4
100
AcDbLine
 10
476.9115458704532
 20
149.4237355327521
 30
0.0
 11
431.9115458704532
 21
149.4237355327521
 31
0.0
  0
ARC
  5
37C
330
17
100
AcDbEntity
  8
4
100
AcDbCircle
 10
442.4115458704533
 20
61.92373553275206
 30
0.0
 40
2.0
100
AcDbArc
 50
0.0
 51
90.0
  0
LINE
  5
37E
330
17
100
AcDbEntity
  8
4
100
AcDbLine
 10
444.4115458704532
 20
61.92373553275206
 30
0.0
 11
444.4115458704532
 21
33.92373553275183
 31
0.0
  0
LINE
  5
37F
330
17
100
AcDbEntity
  8
L-CENTER
 48
5.0
100
AcDbLine
 10
423.9115458704531
 20
23.92373553275183
 30
0.0
 11
423.9115458704531
 21
73.92373553275183
 31
0.0
  0
LINE
  5
380
330
17
100
AcDbEntity
  8
4
100
AcDbLine
 10
416.4115458704531
 20
63.92373553275183
 30
0.0
 11
416.4115458704531
 21
33.92373553275183
 31
0.0
  0
LINE
  5
381
330
17
100
AcDbEntity
  8
4
100
AcDbLine
 10
431.4115458704531
 20
63.92373553275183
 30
0.0
 11
431.4115458704531
 21
33.92373553275183
 31
0.0
  0
LINE
  5
38A
330
17
100
AcDbEntity
  8
4
100
AcDbLine
 10
705.6300395760082
 20
228.9237355327518
 30
0.0
 11
705.6300395760082
 21
287.9237355327521
 31
0.0
  0
LINE
  5
38B
330
17
100
AcDbEntity
  8
4
100
AcDbLine
 10
702.130039576008
 20
233.9237355327518
 30
0.0
 11
702.130039576008
 21
288.9237355327518
 31
0.0
  0
LINE
  5
38C
330
17
100
AcDbEntity
  8
L-CENTER
 48
5.0
100
AcDbLine
 10
722.6300395760081
 20
52.31076761420712
 30
0.0
 11
722.6300395760081
 21
291.1140781846425
 31
0.0
  0
LINE
  5
38E
330
17
100
AcDbEntity
  8
4
100
AcDbLine
 10
738.6300395760081
 20
288.9237355327518
 30
0.0
 11
739.630039576008
 21
287.9237355327521
 31
0.0
  0
LINE
  5
38F
330
17
100
AcDbEntity
  8
4
100
AcDbLine
 10
739.630039576008
 20
287.9237355327521
 30
0.0
 11
722.6300395760081
 21
287.9237355327521
 31
0.0
  0
LINE
  5
390
330
17
100
AcDbEntity
  8
4
100
AcDbLine
 10
740.1300395760081
 20
228.9237355327518
 30
0.0
 11
705.1300395760081
 21
228.9237355327518
 31
0.0
  0
LINE
  5
391
330
17
100
AcDbEntity
  8
4
100
AcDbLine
 10
616.6300395760081
 20
176.9237355327521
 30
0.0
 11
829.6300395760081
 21
176.9237355327521
 31
0.0
  0
LINE
  5
392
330
17
100
AcDbEntity
  8
L-CENTER
 48
5.0
100
AcDbLine
 10
843.6026945760082
 20
133.9237355327518
 30
0.0
 11
574.3878520760081
 21
133.9237355327518
 31
0.0
  0
LINE
  5
393
330
17
100
AcDbEntity
  8
4
100
AcDbLine
 10
622.6300395760081
 20
175.9237355327516
 30
0.0
 11
829.6300395760081
 21
175.9237355327516
 31
0.0
  0
LINE
  5
394
330
17
100
AcDbEntity
  8
4
100
AcDbLine
 10
756.6300395760081
 20
70.9237355327516
 30
0.0
 11
688.6300395760081
 21
70.9237355327516
 31
0.0
  0
LINE
  5
395
330
17
100
AcDbEntity
  8
4
100
AcDbLine
 10
762.2868945760082
 20
66.92373553275206
 30
0.0
 11
682.9731845760081
 21
66.92373553275206
 31
0.0
  0
LINE
  5
396
330
17
100
AcDbEntity
  8
4
100
AcDbLine
 10
689.630039576008
 20
56.92373553275206
 30
0.0
 11
755.6300395760082
 21
56.92373553275206
 31
0.0
  0
TEXT
  5
39F
330
17
100
AcDbEntity
  8
3
  6
Continuous
100
AcDbText
 10
505.5482830206772
 20
27.96592787476186
 30
0.0
 40
7.4999998125
  1
LC4-00
  7
KANJI
 72
     1
 11
525.5482825206772
 21
27.96592787476186
 31
0.0
100
AcDbText
  0
LINE
  5
3AE
330
17
100
AcDbEntity
  8
4
100
AcDbLine
 10
312.9115458704532
 20
288.9237355327518
 30
0.0
 11
313.9115458704531
 21
287.9237355327521
 31
0.0
  0
LINE
  5
3AF
330
17
100
AcDbEntity
  8
4
100
AcDbLine
 10
313.9115458704531
 20
287.9237355327521
 30
0.0
 11
301.9115458704532
 21
287.9237355327521
 31
0.0
  0
LINE
  5
3B1
330
17
100
AcDbEntity
  8
4
100
AcDbLine
 10
280.9115458704533
 20
288.9237355327518
 30
0.0
 11
279.9115458704533
 21
287.9237355327521
 31
0.0
  0
LINE
  5
3B2
330
17
100
AcDbEntity
  8
4
100
AcDbLine
 10
279.9115458704533
 20
287.9237355327521
 30
0.0
 11
291.9115458704532
 21
287.9237355327521
 31
0.0
  0
LINE
  5
3B3
330
17
100
AcDbEntity
  8
4
100
AcDbLine
 10
312.9115458704532
 20
288.9237355327518
 30
0.0
 11
280.9115458704533
 21
288.9237355327518
 31
0.0
  0
LINE
  5
3BA
330
17
100
AcDbEntity
  8
4
100
AcDbLine
 10
402.9115458704532
 20
176.9237355327521
 30
0.0
 11
402.9115458704532
 21
175.9237355327516
 31
0.0
  0
LINE
  5
3BB
330
17
100
AcDbEntity
  8
4
100
AcDbLine
 10
321.9115458704532
 20
213.8237355327519
 30
0.0
 11
321.9115458704532
 21
214.8237355327514
 31
0.0
  0
LINE
  5
3BC
330
17
100
AcDbEntity
  8
4
100
AcDbLine
 10
339.1125138506916
 20
213.086852938544
 30
0.0
 11
341.6112252471275
 21
203.9249111516132
 31
0.0
  0
ARC
  5
3BD
330
17
100
AcDbEntity
  8
4
100
AcDbCircle
 10
296.9115458704532
 20
238.9237355327518
 30
0.0
 40
5.0
100
AcDbArc
 50
180.0
 51
0.0
  0
LINE
  5
3BE
330
17
100
AcDbEntity
  8
4
100
AcDbLine
 10
314.4115458704532
 20
228.9237355327518
 30
0.0
 11
279.4115458704532
 21
228.9237355327518
 31
0.0
  0
LINE
  5
3BF
330
17
100
AcDbEntity
  8
4
100
AcDbLine
 10
271.9115458704532
 20
213.8237355327519
 30
0.0
 11
271.9115458704532
 21
214.8237355327514
 31
0.0
  0
LINE
  5
3C0
330
17
100
AcDbEntity
  8
4
100
AcDbLine
 10
254.7105778902148
 20
213.086852938544
 30
0.0
 11
252.2118664937789
 21
203.9249111516132
 31
0.0
  0
LINE
  5
3C1
330
17
100
AcDbEntity
  8
4
100
AcDbLine
 10
238.1615458704532
 20
204.8237355327514
 30
0.0
 11
238.1615458704532
 21
208.8237355327519
 31
0.0
  0
LINE
  5
3C2
330
17
100
AcDbEntity
  8
4
100
AcDbLine
 10
243.4115458704533
 20
201.9509732758245
 30
0.0
 11
243.4115458704533
 21
202.8237355327523
 31
0.0
  0
LINE
  5
3C3
330
17
100
AcDbEntity
  8
4
100
AcDbLine
 10
244.4115458704532
 20
208.8237355327519
 30
0.0
 11
244.4115458704532
 21
202.8237355327523
 31
0.0
  0
LINE
  5
3C4
330
17
100
AcDbEntity
  8
L-CENTER
 48
5.0
100
AcDbLine
 10
231.9115458704532
 20
212.2767105327516
 30
0.0
 11
231.9115458704532
 21
188.4355530327516
 31
0.0
  0
LINE
  5
3C5
330
17
100
AcDbEntity
  8
4
100
AcDbLine
 10
271.9115458704532
 20
202.8237355327523
 30
0.0
 11
251.9115458704532
 21
202.8237355327523
 31
0.0
  0
LINE
  5
3C6
330
17
100
AcDbEntity
  8
4
100
AcDbLine
 10
341.9115458704532
 20
202.8237355327523
 30
0.0
 11
321.9115458704532
 21
202.8237355327523
 31
0.0
  0
LINE
  5
3C7
330
17
100
AcDbEntity
  8
4
100
AcDbLine
 10
279.4115458704532
 20
214.8237355327514
 30
0.0
 11
279.4115458704532
 21
228.9237355327518
 31
0.0
  0
LINE
  5
3C8
330
17
100
AcDbEntity
  8
4
100
AcDbLine
 10
314.4115458704532
 20
214.8237355327514
 30
0.0
 11
314.4115458704532
 21
228.9237355327518
 31
0.0
  0
LINE
  5
3CA
330
17
100
AcDbEntity
  8
4
100
AcDbLine
 10
271.9115458704532
 20
214.8237355327514
 30
0.0
 11
321.9115458704532
 21
214.8237355327514
 31
0.0
  0
LINE
  5
3CB
330
17
100
AcDbEntity
  8
4
100
AcDbLine
 10
255.6753417114525
 20
213.8237355327519
 30
0.0
 11
338.1477500294539
 21
213.8237355327519
 31
0.0
  0
ARC
  5
3CC
330
17
100
AcDbEntity
  8
4
100
AcDbCircle
 10
406.9115458704532
 20
68.92373553275183
 30
0.0
 40
5.0
100
AcDbArc
 50
180.0
 51
270.0027959999998
  0
LWPOLYLINE
  5
3CD
330
17
100
AcDbEntity
  8
4
100
AcDbPolyline
 90
       30
 70
     0
 43
0.0
 10
399.8527320582628
 20
63.84431053275171
 10
400.4094820582629
 20
63.41515803275138
 10
400.9422470582629
 20
62.98398303275167
 10
401.4270420582631
 20
62.54876553275176
 10
401.839882058263
 20
62.10748553275175
 10
402.1567845582629
 20
61.65812053275181
 10
402.353762058263
 20
61.1986455327517
 10
402.4129345582629
 20
60.68960803275195
 10
402.3268945582629
 20
60.16728053275233
 10
402.1180770582629
 20
59.63249553275182
 10
400.9793495582631
 20
57.96179053275205
 10
399.5433970582628
 20
56.20913553275182
 10
399.1034070582629
 20
55.61061303275187
 10
398.7201420582631
 20
55.00633553275225
 10
398.4160420582629
 20
54.39713553275192
 10
398.1504845582629
 20
53.53006803275184
 10
398.0639445582629
 20
52.6559630327522
 10
398.1329145582629
 20
51.7759205327518
 10
399.0377820582628
 20
49.11114053275173
 10
400.495887058263
 20
46.43246803275156
 10
401.8724695582628
 20
43.76957303275208
 10
402.203502058263
 20
42.89057303275217
 10
402.431437058263
 20
42.01772303275197
 10
402.532767058263
 20
41.15212053275195
 10
402.435967058263
 20
39.95294803275192
 10
402.0937120582631
 20
38.76742303275182
 10
401.5550970582629
 20
37.59281303275179
 10
400.8692120582629
 20
36.42639053275184
 10
400.0851420582629
 20
35.26542803275197
 10
399.2519845582629
 20
34.1071955327518
  0
ARC
  5
3CE
330
17
100
AcDbEntity
  8
4
100
AcDbCircle
 10
348.9115458704531
 20
61.92373553275206
 30
0.0
 40
2.0
100
AcDbArc
 50
90.0
 51
180.0
  0
LINE
  5
3CF
330
17
100
AcDbEntity
  8
4
100
AcDbLine
 10
339.9115458704533
 20
70.9237355327516
 30
0.0
 11
339.9115458704533
 21
66.92373553275206
 31
0.0
  0
ARC
  5
3D0
330
17
100
AcDbEntity
  8
4
100
AcDbCircle
 10
340.9115458704532
 20
64.9237355327516
 30
0.0
 40
6.0
100
AcDbArc
 50
0.0
 51
90.0
  0
LINE
  5
3D1
330
17
100
AcDbEntity
  8
4
100
AcDbLine
 10
339.9115458704533
 20
66.92373553275206
 30
0.0
 11
329.9115458704533
 21
56.92373553275206
 31
0.0
  0
LINE
  5
3D2
330
17
100
AcDbEntity
  8
4
100
AcDbLine
 10
346.9115458704532
 20
64.9237355327516
 30
0.0
 11
346.9115458704532
 21
33.92373553275183
 31
0.0
  0
LINE
  5
3D3
330
17
100
AcDbEntity
  8
4
100
AcDbLine
 10
401.9115458704532
 20
91.92373553275206
 30
0.0
 11
401.9115458704532
 21
68.92373553275183
 31
0.0
  0
LINE
  5
3D4
330
17
100
AcDbEntity
  8
4
100
AcDbLine
 10
253.9115458704531
 20
70.9237355327516
 30
0.0
 11
253.9115458704531
 21
66.92373553275206
 31
0.0
  0
ARC
  5
3D5
330
17
100
AcDbEntity
  8
4
100
AcDbCircle
 10
244.9115458704533
 20
61.92373553275206
 30
0.0
 40
2.0
100
AcDbArc
 50
0.0
 51
90.0
  0
ARC
  5
3D6
330
17
100
AcDbEntity
  8
4
100
AcDbCircle
 10
252.9115458704532
 20
64.9237355327516
 30
0.0
 40
6.0
100
AcDbArc
 50
90.0
 51
180.0
  0
LINE
  5
3D7
330
17
100
AcDbEntity
  8
4
100
AcDbLine
 10
253.9120333704533
 20
66.92373553275206
 30
0.0
 11
263.9120333704533
 21
56.92373553275206
 31
0.0
  0
LINE
  5
3D8
330
17
100
AcDbEntity
  8
4
100
AcDbLine
 10
246.9115458704532
 20
64.9237355327516
 30
0.0
 11
246.9115458704532
 21
33.92373553275183
 31
0.0
  0
LINE
  5
3D9
330
17
100
AcDbEntity
  8
4
100
AcDbLine
 10
339.9115458704533
 20
66.92373553275206
 30
0.0
 11
253.9115458704531
 21
66.92373553275206
 31
0.0
  0
LINE
  5
3DA
330
17
100
AcDbEntity
  8
4
100
AcDbLine
 10
263.9115458704531
 20
56.92373553275206
 30
0.0
 11
329.9115458704533
 21
56.92373553275206
 31
0.0
  0
LINE
  5
3DB
330
17
100
AcDbEntity
  8
4
100
AcDbLine
 10
340.9115458704532
 20
70.9237355327516
 30
0.0
 11
252.9115458704532
 21
70.9237355327516
 31
0.0
  0
LINE
  5
3DC
330
17
100
AcDbEntity
  8
4
100
AcDbLine
 10
400.911300870453
 20
91.92373553275206
 30
0.0
 11
400.911300870453
 21
175.9237355327516
 31
0.0
  0
LINE
  5
3DD
330
17
100
AcDbEntity
  8
4
100
AcDbLine
 10
407.4115458704533
 20
91.92373553275206
 30
0.0
 11
407.4115458704533
 21
175.9237355327516
 31
0.0
  0
LINE
  5
3DE
330
17
100
AcDbEntity
  8
4
100
AcDbLine
 10
225.6615458704532
 20
204.8237355327514
 30
0.0
 11
225.6615458704532
 21
208.8237355327519
 31
0.0
  0
LINE
  5
3DF
330
17
100
AcDbEntity
  8
4
100
AcDbLine
 10
220.4115458704532
 20
201.3237355327519
 30
0.0
 11
220.4115458704532
 21
202.8237355327523
 31
0.0
  0
LINE
  5
3E0
330
17
100
AcDbEntity
  8
4
100
AcDbLine
 10
217.9115458704532
 20
194.9661906671286
 30
0.0
 11
217.9115458704532
 21
201.3237355327519
 31
0.0
  0
LINE
  5
3E1
330
17
100
AcDbEntity
  8
4
100
AcDbLine
 10
219.4115458704532
 20
202.8237355327523
 30
0.0
 11
219.4115458704532
 21
208.8237355327519
 31
0.0
  0
LINE
  5
3E2
330
17
100
AcDbEntity
  8
4
100
AcDbLine
 10
190.9115458704533
 20
176.9237355327521
 30
0.0
 11
190.9115458704533
 21
175.9237355327516
 31
0.0
  0
LINE
  5
3E3
330
17
100
AcDbEntity
  8
4
100
AcDbLine
 10
186.411590870453
 20
164.9237355327516
 30
0.0
 11
184.4115908704531
 21
164.9237355327516
 31
0.0
  0
LINE
  5
3E4
330
17
100
AcDbEntity
  8
4
100
AcDbLine
 10
186.411590870453
 20
102.9237355327521
 30
0.0
 11
184.4115908704531
 21
102.9237355327521
 31
0.0
  0
ARC
  5
3E5
330
17
100
AcDbEntity
  8
4
100
AcDbCircle
 10
186.9116208704533
 20
68.92373553275183
 30
0.0
 40
5.0
100
AcDbArc
 50
270.00157
 51
0.0
  0
ARC
  5
3E6
330
17
100
AcDbEntity
  8
4
100
AcDbCircle
 10
151.4116208704532
 20
61.92373553275206
 30
0.0
 40
2.0
100
AcDbArc
 50
90.0
 51
180.0
  0
LINE
  5
3E7
330
17
100
AcDbEntity
  8
4
100
AcDbLine
 10
149.4116208704533
 20
61.92373553275206
 30
0.0
 11
149.4116208704533
 21
33.92373553275183
 31
0.0
  0
LINE
  5
3E8
330
17
100
AcDbEntity
  8
L-CENTER
 48
5.0
100
AcDbLine
 10
169.9115458704532
 20
73.92373553275183
 30
0.0
 11
169.9115458704532
 21
23.92373553275183
 31
0.0
  0
LINE
  5
3E9
330
17
100
AcDbEntity
  8
4
100
AcDbLine
 10
191.9116208704533
 20
91.92373553275206
 30
0.0
 11
191.9116208704533
 21
68.92373553275183
 31
0.0
  0
LINE
  5
3EA
330
17
100
AcDbEntity
  8
4
100
AcDbLine
 10
192.9117908704531
 20
91.92373553275206
 30
0.0
 11
192.9117908704531
 21
175.9237355327516
 31
0.0
  0
LINE
  5
3EB
330
17
100
AcDbEntity
  8
4
100
AcDbLine
 10
186.411590870453
 20
91.92373553275206
 30
0.0
 11
186.411590870453
 21
175.9237355327516
 31
0.0
  0
LINE
  5
3EC
330
17
100
AcDbEntity
  8
4
100
AcDbLine
 10
184.4115908704531
 20
102.9237355327521
 30
0.0
 11
184.4115908704531
 21
164.9237355327516
 31
0.0
  0
LINE
  5
3ED
330
17
100
AcDbEntity
  8
4
100
AcDbLine
 10
217.9115458704532
 20
201.3237355327519
 30
0.0
 11
241.1216303005054
 21
201.3237355327519
 31
0.0
  0
LINE
  5
3EE
330
17
100
AcDbEntity
  8
4
100
AcDbLine
 10
219.4115458704532
 20
202.8237355327523
 30
0.0
 11
244.4115458704532
 21
202.8237355327523
 31
0.0
  0
LINE
  5
3EF
330
17
100
AcDbEntity
  8
4
100
AcDbLine
 10
219.4115458704532
 20
204.8237355327514
 30
0.0
 11
244.4115458704532
 21
204.8237355327514
 31
0.0
  0
LINE
  5
3F0
330
17
100
AcDbEntity
  8
4
100
AcDbLine
 10
219.4115458704532
 20
208.8237355327519
 30
0.0
 11
244.4115458704532
 21
208.8237355327519
 31
0.0
  0
LINE
  5
3F1
330
17
100
AcDbEntity
  8
4
100
AcDbLine
 10
186.4115908704531
 20
175.9237355327516
 30
0.0
 11
407.4115458704533
 21
175.9237355327516
 31
0.0
  0
LINE
  5
3F2
330
17
100
AcDbEntity
  8
4
100
AcDbLine
 10
190.9115458704533
 20
176.9237355327521
 30
0.0
 11
402.9115458704532
 21
176.9237355327521
 31
0.0
  0
LINE
  5
3F3
330
17
100
AcDbEntity
  8
4
100
AcDbLine
 10
149.4116208704533
 20
33.92373553275183
 30
0.0
 11
246.9115458704532
 21
33.92373553275183
 31
0.0
  0
LINE
  5
3F4
330
17
100
AcDbEntity
  8
4
100
AcDbLine
 10
244.9115458704533
 20
63.92373553275183
 30
0.0
 11
151.4116208704532
 21
63.92373553275183
 31
0.0
  0
LINE
  5
3F5
330
17
100
AcDbEntity
  8
4
100
AcDbLine
 10
407.4115458704533
 20
91.92373553275206
 30
0.0
 11
186.4115908704531
 21
91.92373553275206
 31
0.0
  0
LINE
  5
3F8
330
17
100
AcDbEntity
  8
4
100
AcDbLine
 10
291.9115458704532
 20
238.9237355327518
 30
0.0
 11
291.9115458704532
 21
288.9237355327518
 31
0.0
  0
LINE
  5
3F9
330
17
100
AcDbEntity
  8
4
100
AcDbLine
 10
301.9115458704532
 20
238.9237355327518
 30
0.0
 11
301.9115458704532
 21
288.9237355327518
 31
0.0
  0
LINE
  5
3FA
330
17
100
AcDbEntity
  8
4
100
AcDbLine
 10
279.9115458704533
 20
228.9237355327518
 30
0.0
 11
279.9115458704533
 21
287.9237355327521
 31
0.0
  0
LINE
  5
3FB
330
17
100
AcDbEntity
  8
4
100
AcDbLine
 10
313.9115458704531
 20
228.9237355327518
 30
0.0
 11
313.9115458704531
 21
287.9237355327521
 31
0.0
  0
LINE
  5
3FC
330
17
100
AcDbEntity
  8
4
 48
5.0
100
AcDbLine
 10
401.9115458704532
 20
192.2237355327518
 30
0.0
 11
401.9115458704532
 21
176.9237355327521
 31
0.0
  0
LINE
  5
3FD
330
17
100
AcDbEntity
  8
4
 48
5.0
100
AcDbLine
 10
191.9115458704532
 20
192.2237355327518
 30
0.0
 11
191.9115458704532
 21
176.9237355327521
 31
0.0
  0
LINE
  5
3FE
330
17
100
AcDbEntity
  8
4
 48
5.0
100
AcDbLine
 10
271.9115458704532
 20
204.3967434310748
 30
0.0
 11
271.9115458704532
 21
202.8237355327523
 31
0.0
  0
LINE
  5
3FF
330
17
100
AcDbEntity
  8
L-CENTER
 48
5.0
100
AcDbLine
 10
296.9115458704532
 20
293.2485273991367
 30
0.0
 11
296.9115458704532
 21
52.25937612123835
 31
0.0
  0
LINE
  5
442
330
17
100
AcDbEntity
  8
4
100
AcDbLine
 10
409.4115008704533
 20
148.9237355327518
 30
0.0
 11
426.9115458704532
 21
148.9237355327518
 31
0.0
  0
LINE
  5
443
330
17
100
AcDbEntity
  8
4
100
AcDbLine
 10
409.4115008704533
 20
118.9237355327518
 30
0.0
 11
426.9115458704532
 21
118.9237355327518
 31
0.0
  0
LINE
  5
444
330
17
100
AcDbEntity
  8
4
 48
5.0
100
AcDbLine
 10
400.9115458704532
 20
193.2237355327518
 30
0.0
 11
192.9115458704532
 21
193.2237355327518
 31
0.0
  0
LINE
  5
445
330
17
100
AcDbEntity
  8
4
 48
5.0
100
AcDbLine
 10
401.9115458704532
 20
182.2237355327518
 30
0.0
 11
191.9115458704532
 21
182.2237355327518
 31
0.0
  0
LINE
  5
446
330
17
100
AcDbEntity
  8
4
 48
5.0
100
AcDbLine
 10
401.9115458704532
 20
181.9237355327518
 30
0.0
 11
191.9115458704532
 21
181.9237355327518
 31
0.0
  0
LINE
  5
447
330
17
100
AcDbEntity
  8
L-CENTER
 48
5.0
100
AcDbLine
 10
481.1000208704531
 20
133.9237355327518
 30
0.0
 11
179.5696166493938
 21
133.9237355327518
 31
0.0
  0
LINE
  5
448
330
17
100
AcDbEntity
  8
4
100
AcDbLine
 10
346.9115458704532
 20
33.92373553275183
 30
0.0
 11
444.4115458704532
 21
33.92373553275183
 31
0.0
  0
LINE
  5
449
330
17
100
AcDbEntity
  8
4
100
AcDbLine
 10
442.4115458704533
 20
63.92373553275183
 30
0.0
 11
348.9115458704531
 21
63.92373553275183
 31
0.0
  0
ENDSEC
  0
SECTION
  2
OBJECTS
  0
DICTIONARY
  5
5
330
0
100
AcDbDictionary
281
     1
  3
ACAD_COLOR
350
28
  3
ACAD_GROUP
350
26
  3
ACAD_LAYOUT
350
1E
  3
ACAD_MATERIAL
350
7
  3
ACAD_MLEADERSTYLE
350
44F
  3
ACAD_MLINESTYLE
350
15
  3
ACAD_PLOTSETTINGS
350
27
  3
ACAD_PLOTSTYLENAME
350
4
  3
ACAD_SCALELIST
350
2C
  3
ACAD_TABLESTYLE
350
44E
  3
ACAD_VISUALSTYLE
350
29
  3
ACDBHEADERROUNDTRIPXREC
350
47A
  3
AcDbVariableDictionary
350
44C
  3
DWGPROPS
350
47D
  0
DICTIONARY
  5
47E
330
25
100
AcDbDictionary
280
     1
281
     1
  3
ACAD_XREC_ROUNDTRIP
360
47F
  0
DICTIONARY
  5
18
330
17
100
AcDbDictionary
280
     1
281
     1
  3
ACAD_SORTENTS
360
19
  0
DICTIONARY
  5
28
102
{ACAD_REACTORS
330
5
102
}
330
5
100
AcDbDictionary
281
     1
  0
DICTIONARY
  5
26
102
{ACAD_REACTORS
330
5
102
}
330
5
100
AcDbDictionary
281
     1
  0
DICTIONARY
  5
1E
102
{ACAD_REACTORS
330
5
102
}
330
5
100
AcDbDictionary
281
     1
  3
Model
350
1D
  3
ﾚｲｱｳﾄ1
350
22
  0
DICTIONARY
  5
7
102
{ACAD_REACTORS
330
5
102
}
330
5
100
AcDbDictionary
281
     1
  3
ByBlock
350
4F
  3
ByLayer
350
10
  3
Global
350
6
  0
DICTIONARY
  5
44F
102
{ACAD_REACTORS
330
5
102
}
330
5
100
AcDbDictionary
281
     1
  3
Standard
350
46D
  0
DICTIONARY
  5
15
102
{ACAD_REACTORS
330
5
102
}
330
5
100
AcDbDictionary
281
     1
  3
STANDARD
350
14
  0
DICTIONARY
  5
27
102
{ACAD_REACTORS
330
5
102
}
330
5
100
AcDbDictionary
281
     1
  0
ACDBDICTIONARYWDFLT
  5
4
102
{ACAD_REACTORS
330
5
102
}
330
5
100
AcDbDictionary
281
     1
  3
Normal
350
3
100
AcDbDictionaryWithDefault
340
3
  0
DICTIONARY
  5
2C
102
{ACAD_REACTORS
330
5
102
}
330
5
100
AcDbDictionary
281
     1
  3
*A1
350
4E
  0
DICTIONARY
  5
44E
102
{ACAD_REACTORS
330
5
102
}
330
5
100
AcDbDictionary
281
     1
  3
Standard
350
476
  0
DICTIONARY
  5
29
102
{ACAD_REACTORS
330
5
102
}
330
5
100
AcDbDictionary
281
     1
  3
2dWireframe
350
457
  3
Basic
350
45A
  3
Brighten
350
45E
  3
ColorChange
350
462
  3
Conceptual
350
45C
  3
Dim
350
45D
  3
EdgeColorOff
350
465
  3
Facepattern
350
461
  3
Flat
350
453
  3
FlatWithEdges
350
454
  3
Gouraud
350
455
  3
GouraudWithEdges
350
456
  3
Hidden
350
459
  3
JitterOff
350
463
  3
Linepattern
350
460
  3
OverhangOff
350
464
  3
Realistic
350
45B
  3
Shaded
350
46A
  3
Shaded with edges
350
469
  3
Shades of Gray
350
466
  3
Sketchy
350
467
  3
Thicken
350
45F
  3
Wireframe
350
458
  3
X-Ray
350
468
  0
DICTIONARY
  5
47A
102
{ACAD_REACTORS
330
5
102
}
330
5
100
AcDbDictionary
281
     1
  3
COLORDICT
350
47B
  3
MATERIALDICT
350
47C
  0
DICTIONARY
  5
44C
102
{ACAD_REACTORS
330
5
102
}
330
5
100
AcDbDictionary
281
     1
  3
CANNOSCALE
350
44D
  3
CMLEADERSTYLE
350
46F
  3
CTABLESTYLE
350
477
  3
DIMASSOC
350
478
  3
HIDETEXT
350
479
  3
MSLTSCALE
350
480
  3
XCLIPFRAME
350
450
  0
XRECORD
  5
47D
102
{ACAD_REACTORS
330
5
102
}
330
5
100
AcDbXrecord
280
     1
  1
DWGPROPS COOKIE
  2

  3

  4

  6

  7

  8
sg-d04
  9

300
=
301
=
302
=
303
=
304
=
305
=
306
=
307
=
308
=
309
=
 40
0.0
 41
2457533.43146669
 42
2457871.461987778
  1

 90
        0
  0
XRECORD
  5
47F
102
{ACAD_REACTORS
330
47E
102
}
330
47E
100
AcDbXrecord
280
     1
102
VTR_0.000_0.000_1.000_1.000_VISUALSTYLE
340
457
102
VTR_0.000_0.000_1.000_1.000_GRIDDISPLAY
 70
     3
102
VTR_0.000_0.000_1.000_1.000_GRIDMAJOR
 70
     5
102
VTR_0.000_0.000_1.000_1.000_DEFAULTLIGHTING
280
     1
102
VTR_0.000_0.000_1.000_1.000_DEFAULTLIGHTINGTYPE
 70
     1
102
VTR_0.000_0.000_1.000_1.000_BRIGHTNESS
141
0.0
102
VTR_0.000_0.000_1.000_1.000_CONTRAST
142
0.0
  0
SORTENTSTABLE
  5
19
102
{ACAD_REACTORS
330
18
102
}
330
18
100
AcDbSortentsTable
330
17
331
0
  5
212
331
1BB
  5
44A
331
1BC
  5
449
331
1BD
  5
448
331
1BE
  5
447
331
1BF
  5
446
331
1C0
  5
445
331
1C1
  5
444
331
1C2
  5
443
331
1C3
  5
442
331
1C4
  5
441
331
1C5
  5
440
331
1C6
  5
43F
331
1C7
  5
43E
331
1C8
  5
43D
331
1C9
  5
43C
331
1CA
  5
43B
331
1CB
  5
43A
331
1CC
  5
439
331
1CD
  5
438
331
1CE
  5
437
331
1CF
  5
436
331
1D0
  5
435
331
1D1
  5
434
331
1D2
  5
433
331
1D3
  5
432
331
1D4
  5
431
331
1D5
  5
430
331
1D6
  5
42F
331
1D7
  5
42E
331
1D8
  5
42D
331
1D9
  5
42C
331
1DA
  5
42B
331
1DB
  5
42A
331
1DC
  5
429
331
1DD
  5
428
331
1DE
  5
427
331
1DF
  5
426
331
1E0
  5
425
331
1E1
  5
424
331
1E2
  5
423
331
1E3
  5
422
331
1E4
  5
421
331
1E5
  5
420
331
1E6
  5
41F
331
1E7
  5
41E
331
1E8
  5
41D
331
1E9
  5
41C
331
1EA
  5
41B
331
1EB
  5
41A
331
1EC
  5
419
331
1ED
  5
418
331
1EE
  5
417
331
1EF
  5
416
331
1F0
  5
415
331
1F1
  5
414
331
1F2
  5
413
331
1F3
  5
412
331
1F4
  5
411
331
1F5
  5
410
331
1F6
  5
40F
331
1F7
  5
40E
331
1F8
  5
40D
331
1F9
  5
40C
331
1FA
  5
40B
331
1FB
  5
40A
331
1FC
  5
409
331
1FD
  5
408
331
1FE
  5
407
331
1FF
  5
406
331
200
  5
405
331
201
  5
404
331
202
  5
403
331
203
  5
402
331
204
  5
401
331
205
  5
400
331
206
  5
3FF
331
207
  5
3FE
331
208
  5
3FD
331
209
  5
3FC
331
20A
  5
3FB
331
20B
  5
3FA
331
20C
  5
3F9
331
20D
  5
3F8
331
20E
  5
3F7
331
20F
  5
3F6
331
210
  5
3F5
331
211
  5
3F4
331
212
  5
3F3
331
213
  5
3F2
331
214
  5
3F1
331
215
  5
3F0
331
216
  5
3EF
331
217
  5
3EE
331
218
  5
3ED
331
219
  5
3EC
331
21A
  5
3EB
331
21B
  5
3EA
331
21C
  5
3E9
331
21D
  5
3E8
331
21E
  5
3E7
331
21F
  5
3E6
331
220
  5
3E5
331
221
  5
3E4
331
222
  5
3E3
331
223
  5
3E2
331
224
  5
3E1
331
225
  5
3E0
331
226
  5
3DF
331
227
  5
3DE
331
228
  5
3DD
331
229
  5
3DC
331
22A
  5
3DB
331
22B
  5
3DA
331
22C
  5
3D9
331
22D
  5
3D8
331
22E
  5
3D7
331
22F
  5
3D6
331
230
  5
3D5
331
231
  5
3D4
331
232
  5
3D3
331
233
  5
3D2
331
234
  5
3D1
331
235
  5
3D0
331
236
  5
3CF
331
237
  5
3CE
331
238
  5
3CD
331
239
  5
3CC
331
23A
  5
3CB
331
23B
  5
3CA
331
23C
  5
3C9
331
23D
  5
3C8
331
23E
  5
3C7
331
23F
  5
3C6
331
240
  5
3C5
331
241
  5
3C4
331
242
  5
3C3
331
243
  5
3C2
331
244
  5
3C1
331
245
  5
3C0
331
246
  5
3BF
331
247
  5
3BE
331
248
  5
3BD
331
249
  5
3BC
331
24A
  5
3BB
331
24B
  5
3BA
331
24C
  5
3B9
331
24D
  5
3B8
331
24E
  5
3B7
331
24F
  5
3B6
331
250
  5
3B5
331
251
  5
3B4
331
252
  5
3B3
331
253
  5
3B2
331
254
  5
3B1
331
255
  5
3B0
331
256
  5
3AF
331
257
  5
3AE
331
258
  5
3AD
331
259
  5
3AC
331
25A
  5
3AB
331
25B
  5
3AA
331
25C
  5
3A9
331
25D
  5
3A8
331
25E
  5
3A7
331
25F
  5
3A6
331
260
  5
3A5
331
261
  5
3A4
331
262
  5
3A3
331
263
  5
3A2
331
264
  5
3A1
331
265
  5
3A0
331
266
  5
39F
331
267
  5
39E
331
268
  5
39D
331
269
  5
39C
331
26A
  5
39B
331
26B
  5
39A
331
26C
  5
399
331
26D
  5
398
331
26E
  5
397
331
26F
  5
396
331
270
  5
395
331
271
  5
394
331
272
  5
393
331
273
  5
392
331
274
  5
391
331
275
  5
390
331
276
  5
38F
331
277
  5
38E
331
278
  5
38D
331
279
  5
38C
331
27A
  5
38B
331
27B
  5
38A
331
27C
  5
389
331
27D
  5
388
331
27E
  5
387
331
27F
  5
386
331
280
  5
385
331
281
  5
384
331
282
  5
383
331
283
  5
382
331
284
  5
381
331
285
  5
380
331
286
  5
37F
331
287
  5
37E
331
288
  5
37D
331
289
  5
37C
331
28A
  5
37B
331
28B
  5
37A
331
28C
  5
379
331
28D
  5
378
331
28E
  5
377
331
28F
  5
376
331
290
  5
375
331
291
  5
374
331
292
  5
373
331
293
  5
372
331
294
  5
371
331
295
  5
370
331
296
  5
36F
331
297
  5
36E
331
298
  5
36D
331
299
  5
36C
331
29A
  5
36B
331
29B
  5
36A
331
29C
  5
369
331
29D
  5
368
331
29E
  5
367
331
29F
  5
366
331
2A0
  5
365
331
2A1
  5
364
331
2A2
  5
363
331
2A3
  5
362
331
2A4
  5
361
331
2A5
  5
360
331
2A6
  5
35F
331
2A7
  5
35E
331
2A8
  5
35D
331
2A9
  5
35C
331
2AA
  5
35B
331
2AB
  5
35A
331
2AC
  5
359
331
2AD
  5
358
331
2AE
  5
357
331
2AF
  5
356
331
2B0
  5
355
331
2B1
  5
354
331
2B2
  5
353
331
2B3
  5
352
331
2B4
  5
351
331
2B5
  5
350
331
2B6
  5
34F
331
2B7
  5
34E
331
2B8
  5
34D
331
2B9
  5
34C
331
2BA
  5
34B
331
2BB
  5
34A
331
2BC
  5
349
331
2BD
  5
348
331
2BE
  5
347
331
2BF
  5
346
331
2C0
  5
345
331
2C1
  5
344
331
2C2
  5
343
331
2C3
  5
342
331
2C4
  5
341
331
2C5
  5
340
331
2C6
  5
33F
331
2C7
  5
33E
331
2C8
  5
33D
331
2C9
  5
33C
331
2CA
  5
33B
331
2CB
  5
33A
331
2CC
  5
339
331
2CD
  5
338
331
2CE
  5
337
331
2CF
  5
336
331
2D0
  5
335
331
2D1
  5
334
331
2D2
  5
333
331
2D3
  5
332
331
2D4
  5
331
331
2D5
  5
330
331
2D6
  5
32F
331
2D7
  5
32E
331
2D8
  5
32D
331
2D9
  5
32C
331
2DA
  5
32B
331
2DB
  5
32A
331
2DC
  5
329
331
2DD
  5
328
331
2DE
  5
327
331
2DF
  5
326
331
2E0
  5
325
331
2E1
  5
324
331
2E2
  5
323
331
2E3
  5
322
331
2E4
  5
321
331
2E5
  5
320
331
2E6
  5
31F
331
2E7
  5
31E
331
2E8
  5
31D
331
2E9
  5
31C
331
2EA
  5
31B
331
2EB
  5
31A
331
2EC
  5
319
331
2ED
  5
318
331
2EE
  5
317
331
2EF
  5
316
331
2F0
  5
315
331
2F1
  5
314
331
2F2
  5
313
331
2F3
  5
312
331
2F4
  5
311
331
2F5
  5
310
331
2F6
  5
30F
331
2F7
  5
30E
331
2F8
  5
30D
331
2F9
  5
30C
331
2FA
  5
30B
331
2FB
  5
30A
331
2FC
  5
309
331
2FD
  5
308
331
2FE
  5
307
331
2FF
  5
306
331
300
  5
305
331
301
  5
304
331
302
  5
303
331
30E
  5
2F7
331
311
  5
2F4
331
312
  5
2F3
331
315
  5
2F0
331
316
  5
2EF
331
31C
  5
2E9
331
31D
  5
2E8
331
31E
  5
2E7
331
31F
  5
2E6
331
320
  5
2E5
331
321
  5
2E4
331
322
  5
2E3
331
323
  5
2E2
331
324
  5
2E1
331
325
  5
2E0
331
326
  5
2DF
331
327
  5
2DE
331
328
  5
2DD
331
329
  5
2DC
331
32A
  5
2DB
331
32B
  5
2DA
331
32C
  5
2D9
331
32D
  5
2D8
331
32E
  5
2D7
331
330
  5
2D5
331
331
  5
2D4
331
332
  5
2D3
331
333
  5
2D2
331
334
  5
2D1
331
336
  5
2CF
331
33C
  5
2C9
331
340
  5
2C5
331
341
  5
2C4
331
342
  5
2C3
331
34C
  5
2B9
331
34D
  5
2B8
331
34E
  5
2B7
331
34F
  5
2B6
331
350
  5
2B5
331
351
  5
2B4
331
352
  5
2B3
331
353
  5
2B2
331
354
  5
2B1
331
355
  5
2B0
331
356
  5
2AF
331
357
  5
2AE
331
358
  5
2AD
331
359
  5
2AC
331
35A
  5
2AB
331
35B
  5
2AA
331
35C
  5
2A9
331
35D
  5
2A8
331
35E
  5
2A7
331
35F
  5
2A6
331
360
  5
2A5
331
361
  5
2A4
331
362
  5
2A3
331
363
  5
2A2
331
364
  5
2A1
331
365
  5
2A0
331
366
  5
29F
331
367
  5
29E
331
36F
  5
296
331
370
  5
295
331
371
  5
294
331
372
  5
293
331
373
  5
292
331
374
  5
291
331
375
  5
290
331
376
  5
28F
331
377
  5
28E
331
37C
  5
289
331
37E
  5
287
331
37F
  5
286
331
380
  5
285
331
381
  5
284
331
38A
  5
27B
331
38B
  5
27A
331
38C
  5
279
331
38E
  5
277
331
38F
  5
276
331
390
  5
275
331
391
  5
274
331
392
  5
273
331
393
  5
272
331
394
  5
271
331
395
  5
270
331
396
  5
26F
331
39F
  5
266
331
3AE
  5
257
331
3AF
  5
256
331
3B1
  5
254
331
3B2
  5
253
331
3B3
  5
252
331
3BA
  5
24B
331
3BB
  5
24A
331
3BC
  5
249
331
3BD
  5
248
331
3BE
  5
247
331
3BF
  5
246
331
3C0
  5
245
331
3C1
  5
244
331
3C2
  5
243
331
3C3
  5
242
331
3C4
  5
241
331
3C5
  5
240
331
3C6
  5
23F
331
3C7
  5
23E
331
3C8
  5
23D
331
3CA
  5
23B
331
3CB
  5
23A
331
3CC
  5
239
331
3CD
  5
238
331
3CE
  5
237
331
3CF
  5
236
331
3D0
  5
235
331
3D1
  5
234
331
3D2
  5
233
331
3D3
  5
232
331
3D4
  5
231
331
3D5
  5
230
331
3D6
  5
22F
331
3D7
  5
22E
331
3D8
  5
22D
331
3D9
  5
22C
331
3DA
  5
22B
331
3DB
  5
22A
331
3DC
  5
229
331
3DD
  5
228
331
3DE
  5
227
331
3DF
  5
226
331
3E0
  5
225
331
3E1
  5
224
331
3E2
  5
223
331
3E3
  5
222
331
3E4
  5
221
331
3E5
  5
220
331
3E6
  5
21F
331
3E7
  5
21E
331
3E8
  5
21D
331
3E9
  5
21C
331
3EA
  5
21B
331
3EB
  5
21A
331
3EC
  5
219
331
3ED
  5
218
331
3EE
  5
217
331
3EF
  5
216
331
3F0
  5
215
331
3F1
  5
214
331
3F2
  5
213
331
3F3
  5
210
331
3F4
  5
20D
331
3F5
  5
20C
331
3F8
  5
209
331
3F9
  5
208
331
3FA
  5
207
331
3FB
  5
206
331
3FC
  5
205
331
3FD
  5
204
331
3FE
  5
203
331
3FF
  5
202
331
442
  5
1BF
331
443
  5
1BE
331
444
  5
1BD
331
445
  5
1BC
331
446
  5
1BB
331
447
  5
44B
331
448
  5
472
331
449
  5
473
  0
LAYOUT
  5
1D
102
{ACAD_REACTORS
330
1E
102
}
330
1E
100
AcDbPlotSettings
  1

  2
Bullzip PDF Printer.pc3
  4
A3
  6

 40
0.2
 41
0.0
 42
0.0
 43
0.0
 44
420.2
 45
297.1
 46
25.0
 47
12.0
 48
57.4999997758332
 49
10.0
140
1012.499997588333
141
691.2499984104165
142
1.0
143
2.5
 70
 11936
 72
     1
 73
     0
 74
     4
  7
monochrome.ctb
 75
     0
147
0.4
148
-57.4999997758332
149
-10.0
100
AcDbLayout
  1
Model
 70
     1
 71
     0
 10
0.0
 20
0.0
 11
12.0
 21
9.0
 12
0.0
 22
0.0
 32
0.0
 14
149.4115448704533
 24
23.92373553275183
 34
0.0
 15
843.6026945760082
 25
691.1356026811035
 35
0.0
146
0.0
 13
0.0
 23
0.0
 33
0.0
 16
1.0
 26
0.0
 36
0.0
 17
0.0
 27
1.0
 37
0.0
 76
     0
330
17
331
2A
1001
ACAD_PSEXT
1000
Bullzip PDF Printer.pc3
1000
Bullzip PDF Printer
1000
BULLZIP
1000
Bullzip PDF Printer 10.1.0.1871
1070
     0
  0
LAYOUT
  5
22
102
{ACAD_REACTORS
330
1E
102
}
330
1E
100
AcDbPlotSettings
  1

  2
C:\Program Files\ACAD LT 2000\plotters\Draftpro-DXL (7575A).pc3
  4

  6

 40
0.0
 41
0.0
 42
0.0
 43
0.0
 44
0.0
 45
0.0
 46
0.0
 47
0.0
 48
0.0
 49
0.0
140
0.0
141
0.0
142
1.0
143
1.0
 70
   688
 72
     0
 73
     0
 74
     5
  7
monochrome.ctb
 75
    16
147
1.0
148
0.0
149
0.0
100
AcDbLayout
  1
ﾚｲｱｳﾄ1
 70
     1
 71
     1
 10
0.0
 20
0.0
 11
12.0
 21
9.0
 12
0.0
 22
0.0
 32
0.0
 14
1.000000000000000E+20
 24
1.000000000000000E+20
 34
1.000000000000000E+20
 15
-1.000000000000000E+20
 25
-1.000000000000000E+20
 35
-1.000000000000000E+20
146
0.0
 13
0.0
 23
0.0
 33
0.0
 16
1.0
 26
0.0
 36
0.0
 17
0.0
 27
1.0
 37
0.0
 76
     0
330
1F
  0
MATERIAL
  5
4F
102
{ACAD_REACTORS
330
7
102
}
102
{ACAD_XDICTIONARY
360
485
102
}
330
7
100
AcDbMaterial
  1
ByBlock
  0
MATERIAL
  5
10
102
{ACAD_REACTORS
330
7
102
}
102
{ACAD_XDICTIONARY
360
481
102
}
330
7
100
AcDbMaterial
  1
ByLayer
  0
MATERIAL
  5
6
102
{ACAD_REACTORS
330
7
102
}
102
{ACAD_XDICTIONARY
360
483
102
}
330
7
100
AcDbMaterial
  1
Global
1001
ACAD
1070
    -1
1070
     3
1070
     0
1000

1071
        0
  0
MLEADERSTYLE
  5
46D
102
{ACAD_REACTORS
330
44F
102
}
102
{ACAD_XDICTIONARY
360
4B7
102
}
330
44F
100
AcDbMLeaderStyle
170
     2
171
     1
172
     0
 90
        2
 40
0.0
 41
0.0
173
     1
 91
-1056964608
340
D
 92
       -2
290
     1
 42
0.09
291
     1
 43
0.36
  3
Standard
341
0
 44
0.18
300

342
E
174
     1
178
     6
175
     1
176
     0
 93
-1056964608
 45
0.18
292
     0
297
     0
 46
0.18
343
0
 94
-1056964608
 47
1.0
 49
1.0
140
1.0
293
     1
141
0.0
294
     1
177
     0
142
1.0
295
     0
296
     0
143
0.125
1001
ACAD_MLEADERVER
1070
     2
  0
MLINESTYLE
  5
14
102
{ACAD_REACTORS
330
15
102
}
330
15
100
AcDbMlineStyle
  2
STANDARD
 70
     0
  3

 62
     0
 51
90.0
 52
90.0
 71
     2
 49
0.5
 62
   256
  6
BYLAYER
 49
-0.5
 62
   256
  6
BYLAYER
  0
ACDBPLACEHOLDER
  5
3
102
{ACAD_REACTORS
330
4
102
}
330
4
  0
SCALE
  5
4E
102
{ACAD_REACTORS
330
2C
102
}
330
2C
100
AcDbScale
 70
     0
300
1:1
140
1.0
141
1.0
290
     1
  0
TABLESTYLE
  5
476
102
{ACAD_REACTORS
330
44E
102
}
330
44E
100
AcDbTableStyle
  3
Standard
 70
     0
 71
     0
 40
0.06
 41
0.06
280
     0
281
     0
  7
STANDARD
140
0.18
170
     2
 62
     0
 63
   257
283
     0
274
    -2
284
     1
 64
     0
275
    -2
285
     1
 65
     0
276
    -2
286
     1
 66
     0
277
    -2
287
     1
 67
     0
278
    -2
288
     1
 68
     0
279
    -2
289
     1
 69
     0
  7
STANDARD
140
0.25
170
     5
 62
     0
 63
   257
283
     0
274
    -2
284
     1
 64
     0
275
    -2
285
     1
 65
     0
276
    -2
286
     1
 66
     0
277
    -2
287
     1
 67
     0
278
    -2
288
     1
 68
     0
279
    -2
289
     1
 69
     0
  7
STANDARD
140
0.18
170
     5
 62
     0
 63
   257
283
     0
274
    -2
284
     1
 64
     0
275
    -2
285
     1
 65
     0
276
    -2
286
     1
 66
     0
277
    -2
287
     1
 67
     0
278
    -2
288
     1
 68
     0
279
    -2
289
     1
 69
     0
  0
VISUALSTYLE
  5
457
102
{ACAD_REACTORS
330
29
102
}
102
{ACAD_XDICTIONARY
360
48F
102
}
330
29
100
AcDbVisualStyle
  2
2dWireframe
 70
     4
 71
     0
 72
     2
 73
     0
 90
        0
 40
0.6
 41
30.0
 62
     5
 63
     7
 74
     1
 91
        4
 64
     7
 65
   257
 75
     1
175
     1
 42
1.0
 92
        0
 66
   257
 43
1.0
 76
     1
 77
     6
 78
     2
 67
     7
 79
     5
170
     0
171
     0
290
     0
174
     0
 93
        1
 44
0.0
173
     0
291
     0
 45
0.0
1001
ACAD
1000
AcDbSavedByObjectVersion
1070
     0
  0
VISUALSTYLE
  5
45A
102
{ACAD_REACTORS
330
29
102
}
102
{ACAD_XDICTIONARY
360
495
102
}
330
29
100
AcDbVisualStyle
  2
Basic
 70
     7
 71
     1
 72
     0
 73
     1
 90
        0
 40
0.6
 41
30.0
 62
     5
 63
     7
 74
     0
 91
        4
 64
     7
 65
   257
 75
     1
175
     1
 42
1.0
 92
        8
 66
     7
 43
1.0
 76
     1
 77
     6
 78
     2
 67
     7
 79
     5
170
     0
171
     0
290
     0
174
     0
 93
        1
 44
0.0
173
     0
291
     1
 45
0.0
1001
ACAD
1000
AcDbSavedByObjectVersion
1070
     0
  0
VISUALSTYLE
  5
45E
102
{ACAD_REACTORS
330
29
102
}
102
{ACAD_XDICTIONARY
360
49D
102
}
330
29
100
AcDbVisualStyle
  2
Brighten
 70
    12
 71
     2
 72
     2
 73
     0
 90
        0
 40
0.6
 41
30.0
 62
     5
 63
     7
 74
     1
 91
        4
 64
     7
 65
   257
 75
     1
175
     1
 42
1.0
 92
        8
 66
     7
 43
1.0
 76
     1
 77
     6
 78
     2
 67
     7
 79
     5
170
     0
171
     0
290
     0
174
     0
 93
        1
 44
50.0
173
     0
291
     1
 45
0.0
1001
ACAD
1000
AcDbSavedByObjectVersion
1070
     0
  0
VISUALSTYLE
  5
462
102
{ACAD_REACTORS
330
29
102
}
102
{ACAD_XDICTIONARY
360
4A5
102
}
330
29
100
AcDbVisualStyle
  2
ColorChange
 70
    16
 71
     2
 72
     2
 73
     3
 90
        0
 40
0.6
 41
30.0
 62
     5
 63
     8
 74
     1
 91
        4
 64
     7
 65
   257
 75
     1
175
     1
 42
1.0
 92
        8
 66
     8
 43
1.0
 76
     1
 77
     6
 78
     2
 67
     7
 79
     5
170
     0
171
     0
290
     0
174
     0
 93
        1
 44
0.0
173
     0
291
     1
 45
0.0
1001
ACAD
1000
AcDbSavedByObjectVersion
1070
     0
  0
VISUALSTYLE
  5
45C
102
{ACAD_REACTORS
330
29
102
}
102
{ACAD_XDICTIONARY
360
499
102
}
330
29
100
AcDbVisualStyle
  2
Conceptual
 70
     9
 71
     3
 72
     2
 73
     0
 90
        0
 40
0.6
 41
30.0
 62
     5
 63
     7
 74
     2
 91
        2
 64
     7
 65
   257
 75
     1
175
     1
 42
40.0
 92
        8
 66
     7
 43
1.0
 76
     1
 77
     6
 78
     2
 67
     7
 79
     3
170
     0
171
     0
290
     0
174
     0
 93
        1
 44
0.0
173
     0
291
     0
 45
0.0
1001
ACAD
1000
AcDbSavedByObjectVersion
1070
     0
  0
VISUALSTYLE
  5
45D
102
{ACAD_REACTORS
330
29
102
}
102
{ACAD_XDICTIONARY
360
49B
102
}
330
29
100
AcDbVisualStyle
  2
Dim
 70
    11
 71
     2
 72
     2
 73
     0
 90
        0
 40
0.6
 41
30.0
 62
     5
 63
     7
 74
     1
 91
        4
 64
     7
 65
   257
 75
     1
175
     1
 42
1.0
 92
        8
 66
     7
 43
1.0
 76
     1
 77
     6
 78
     2
 67
     7
 79
     5
170
     0
171
     0
290
     0
174
     0
 93
        1
 44
-50.0
173
     0
291
     1
 45
0.0
1001
ACAD
1000
AcDbSavedByObjectVersion
1070
     0
  0
VISUALSTYLE
  5
465
102
{ACAD_REACTORS
330
29
102
}
102
{ACAD_XDICTIONARY
360
4AB
102
}
330
29
100
AcDbVisualStyle
  2
EdgeColorOff
 70
    22
 71
     2
 72
     2
 73
     0
 90
        0
 40
0.6
 41
30.0
 62
     5
 63
     7
 74
     1
 91
        4
 64
     7
 65
   257
 75
     1
175
     1
 42
1.0
 92
        8
 66
     7
 43
1.0
 76
     1
 77
     6
 78
     2
 67
     7
 79
     5
170
     0
171
     0
290
     0
174
     0
 93
        1
 44
0.0
173
     0
291
     1
 45
0.0
1001
ACAD
1000
AcDbSavedByObjectVersion
1070
     0
  0
VISUALSTYLE
  5
461
102
{ACAD_REACTORS
330
29
102
}
102
{ACAD_XDICTIONARY
360
4A3
102
}
330
29
100
AcDbVisualStyle
  2
Facepattern
 70
    15
 71
     2
 72
     2
 73
     0
 90
        0
 40
0.6
 41
30.0
 62
     5
 63
     7
 74
     1
 91
        4
 64
     7
 65
   257
 75
     1
175
     1
 42
1.0
 92
        8
 66
     7
 43
1.0
 76
     1
 77
     6
 78
     2
 67
     7
 79
     5
170
     0
171
     0
290
     0
174
     0
 93
        1
 44
0.0
173
     0
291
     1
 45
0.0
1001
ACAD
1000
AcDbSavedByObjectVersion
1070
     0
  0
VISUALSTYLE
  5
453
102
{ACAD_REACTORS
330
29
102
}
102
{ACAD_XDICTIONARY
360
487
102
}
330
29
100
AcDbVisualStyle
  2
Flat
 70
     0
 71
     2
 72
     1
 73
     1
 90
        2
 40
0.6
 41
30.0
 62
     5
 63
     7
 74
     0
 91
        4
 64
     7
 65
   257
 75
     1
175
     1
 42
1.0
 92
        8
 66
     7
 43
1.0
 76
     1
 77
     6
 78
     2
 67
     7
 79
     5
170
     0
171
     0
290
     0
174
     0
 93
       13
 44
0.0
173
     0
291
     1
 45
0.0
1001
ACAD
1000
AcDbSavedByObjectVersion
1070
     0
  0
VISUALSTYLE
  5
454
102
{ACAD_REACTORS
330
29
102
}
102
{ACAD_XDICTIONARY
360
489
102
}
330
29
100
AcDbVisualStyle
  2
FlatWithEdges
 70
     1
 71
     2
 72
     1
 73
     1
 90
        2
 40
0.6
 41
30.0
 62
     5
 63
     7
 74
     1
 91
        4
 64
     7
 65
   257
 75
     1
175
     1
 42
1.0
 92
        0
 66
   257
 43
1.0
 76
     1
 77
     6
 78
     2
 67
     7
 79
     5
170
     0
171
     0
290
     0
174
     0
 93
       13
 44
0.0
173
     0
291
     1
 45
0.0
1001
ACAD
1000
AcDbSavedByObjectVersion
1070
     0
  0
VISUALSTYLE
  5
455
102
{ACAD_REACTORS
330
29
102
}
102
{ACAD_XDICTIONARY
360
48B
102
}
330
29
100
AcDbVisualStyle
  2
Gouraud
 70
     2
 71
     2
 72
     2
 73
     1
 90
        2
 40
0.6
 41
30.0
 62
     5
 63
     7
 74
     0
 91
        4
 64
     7
 65
   257
 75
     1
175
     1
 42
1.0
 92
        0
 66
     7
 43
1.0
 76
     1
 77
     6
 78
     2
 67
     7
 79
     5
170
     0
171
     0
290
     0
174
     0
 93
       13
 44
0.0
173
     0
291
     1
 45
0.0
1001
ACAD
1000
AcDbSavedByObjectVersion
1070
     0
  0
VISUALSTYLE
  5
456
102
{ACAD_REACTORS
330
29
102
}
102
{ACAD_XDICTIONARY
360
48D
102
}
330
29
100
AcDbVisualStyle
  2
GouraudWithEdges
 70
     3
 71
     2
 72
     2
 73
     1
 90
        2
 40
0.6
 41
30.0
 62
     5
 63
     7
 74
     1
 91
        4
 64
     7
 65
   257
 75
     1
175
     1
 42
1.0
 92
        0
 66
   257
 43
1.0
 76
     1
 77
     6
 78
     2
 67
     7
 79
     5
170
     0
171
     0
290
     0
174
     0
 93
       13
 44
0.0
173
     0
291
     1
 45
0.0
1001
ACAD
1000
AcDbSavedByObjectVersion
1070
     0
  0
VISUALSTYLE
  5
459
102
{ACAD_REACTORS
330
29
102
}
102
{ACAD_XDICTIONARY
360
493
102
}
330
29
100
AcDbVisualStyle
  2
Hidden
 70
     6
 71
     1
 72
     2
 73
     2
 90
        0
 40
0.6
 41
30.0
 62
     5
 63
     7
 74
     2
 91
        2
 64
     7
 65
   257
 75
     2
175
     1
 42
40.0
 92
        0
 66
   257
 43
1.0
 76
     1
 77
     6
 78
     2
 67
     7
 79
     3
170
     0
171
     0
290
     0
174
     0
 93
        1
 44
0.0
173
     0
291
     0
 45
0.0
1001
ACAD
1000
AcDbSavedByObjectVersion
1070
     0
  0
VISUALSTYLE
  5
463
102
{ACAD_REACTORS
330
29
102
}
102
{ACAD_XDICTIONARY
360
4A7
102
}
330
29
100
AcDbVisualStyle
  2
JitterOff
 70
    20
 71
     2
 72
     2
 73
     0
 90
        0
 40
0.6
 41
30.0
 62
     5
 63
     7
 74
     1
 91
        4
 64
     7
 65
   257
 75
     1
175
     1
 42
1.0
 92
       10
 66
     7
 43
1.0
 76
     1
 77
     6
 78
     2
 67
     7
 79
     5
170
     0
171
     0
290
     0
174
     0
 93
        1
 44
0.0
173
     0
291
     1
 45
0.0
1001
ACAD
1000
AcDbSavedByObjectVersion
1070
     0
  0
VISUALSTYLE
  5
460
102
{ACAD_REACTORS
330
29
102
}
102
{ACAD_XDICTIONARY
360
4A1
102
}
330
29
100
AcDbVisualStyle
  2
Linepattern
 70
    14
 71
     2
 72
     2
 73
     0
 90
        0
 40
0.6
 41
30.0
 62
     5
 63
     7
 74
     1
 91
        4
 64
     7
 65
   257
 75
     7
175
     7
 42
1.0
 92
        8
 66
     7
 43
1.0
 76
     1
 77
     6
 78
     2
 67
     7
 79
     5
170
     0
171
     0
290
     0
174
     0
 93
        1
 44
0.0
173
     0
291
     1
 45
0.0
1001
ACAD
1000
AcDbSavedByObjectVersion
1070
     0
  0
VISUALSTYLE
  5
464
102
{ACAD_REACTORS
330
29
102
}
102
{ACAD_XDICTIONARY
360
4A9
102
}
330
29
100
AcDbVisualStyle
  2
OverhangOff
 70
    21
 71
     2
 72
     2
 73
     0
 90
        0
 40
0.6
 41
30.0
 62
     5
 63
     7
 74
     1
 91
        4
 64
     7
 65
   257
 75
     1
175
     1
 42
1.0
 92
        9
 66
     7
 43
1.0
 76
     1
 77
     6
 78
     2
 67
     7
 79
     5
170
     0
171
     0
290
     0
174
     0
 93
        1
 44
0.0
173
     0
291
     1
 45
0.0
1001
ACAD
1000
AcDbSavedByObjectVersion
1070
     0
  0
VISUALSTYLE
  5
45B
102
{ACAD_REACTORS
330
29
102
}
102
{ACAD_XDICTIONARY
360
497
102
}
330
29
100
AcDbVisualStyle
  2
Realistic
 70
     8
 71
     2
 72
     3
 73
     0
 90
        2
 40
0.6
 41
30.0
 62
     5
 63
     7
 74
     0
 91
        0
 64
     7
 65
   257
 75
     1
175
     1
 42
1.0
 92
        8
 66
   257
 43
1.0
 76
     1
 77
     6
 78
     2
 67
     7
 79
     3
170
     0
171
     0
290
     0
174
     0
 93
       13
 44
0.0
173
     0
291
     0
 45
0.0
1001
ACAD
1000
AcDbSavedByObjectVersion
1070
     0
  0
VISUALSTYLE
  5
46A
102
{ACAD_REACTORS
330
29
102
}
102
{ACAD_XDICTIONARY
360
4B5
102
}
330
29
100
AcDbVisualStyle
  2
Shaded
 70
    27
 71
     2
 72
     2
 73
     1
 90
        2
 40
0.6
 41
30.0
 62
     5
 63
     7
 74
     0
 91
        4
 64
     7
 65
   257
 75
     1
175
     1
 42
1.0
 92
        8
 66
   257
 43
1.0
 76
     1
 77
     6
 78
     2
 67
   251
 79
     3
170
     0
171
     0
290
     0
174
     0
 93
        5
 44
0.0
173
     0
291
     0
 45
0.0
1001
ACAD
1000
AcDbSavedByObjectVersion
1070
     0
  0
VISUALSTYLE
  5
469
102
{ACAD_REACTORS
330
29
102
}
102
{ACAD_XDICTIONARY
360
4B3
102
}
330
29
100
AcDbVisualStyle
  2
Shaded with edges
 70
    26
 71
     2
 72
     2
 73
     1
 90
        2
 40
0.6
 41
30.0
 62
     5
 63
     7
 74
     1
 91
       10
 64
     7
 65
   257
 75
     2
175
     1
 42
1.0
 92
        8
 66
   257
 43
1.0
 76
     1
 77
     6
 78
     2
 67
     7
 79
     3
170
     0
171
     0
290
     0
174
     0
 93
        5
 44
0.0
173
     0
291
     0
 45
0.0
1001
ACAD
1000
AcDbSavedByObjectVersion
1070
     0
  0
VISUALSTYLE
  5
466
102
{ACAD_REACTORS
330
29
102
}
102
{ACAD_XDICTIONARY
360
4AD
102
}
330
29
100
AcDbVisualStyle
  2
Shades of Gray
 70
    23
 71
     2
 72
     2
 73
     3
 90
        0
 40
0.6
 41
30.0
 62
     5
 63
     7
 74
     2
 91
        2
 64
     7
 65
     7
 75
     1
175
     1
 42
40.0
 92
        8
 66
     7
 43
1.0
 76
     1
 77
     6
 78
     2
 67
     7
 79
     3
170
     0
171
     0
290
     0
174
     0
 93
        1
 44
0.0
173
     0
291
     0
 45
0.0
1001
ACAD
1000
AcDbSavedByObjectVersion
1070
     0
  0
VISUALSTYLE
  5
467
102
{ACAD_REACTORS
330
29
102
}
102
{ACAD_XDICTIONARY
360
4AF
102
}
330
29
100
AcDbVisualStyle
  2
Sketchy
 70
    24
 71
     1
 72
     2
 73
     2
 90
        0
 40
0.6
 41
30.0
 62
     5
 63
     7
 74
     2
 91
        2
 64
     7
 65
     7
 75
     1
175
     1
 42
40.0
 92
       11
 66
     7
 43
1.0
 76
     1
 77
     6
 78
     2
 67
     7
 79
     6
170
     0
171
     0
290
     0
174
     0
 93
        1
 44
0.0
173
     0
291
     0
 45
0.0
1001
ACAD
1000
AcDbSavedByObjectVersion
1070
     0
  0
VISUALSTYLE
  5
45F
102
{ACAD_REACTORS
330
29
102
}
102
{ACAD_XDICTIONARY
360
49F
102
}
330
29
100
AcDbVisualStyle
  2
Thicken
 70
    13
 71
     2
 72
     2
 73
     0
 90
        0
 40
0.6
 41
30.0
 62
     5
 63
     7
 74
     1
 91
        4
 64
     7
 65
   257
 75
     1
175
     1
 42
1.0
 92
       12
 66
     7
 43
1.0
 76
     1
 77
     6
 78
     2
 67
     7
 79
     5
170
     0
171
     0
290
     0
174
     0
 93
        1
 44
0.0
173
     0
291
     1
 45
0.0
1001
ACAD
1000
AcDbSavedByObjectVersion
1070
     0
  0
VISUALSTYLE
  5
458
102
{ACAD_REACTORS
330
29
102
}
102
{ACAD_XDICTIONARY
360
491
102
}
330
29
100
AcDbVisualStyle
  2
Wireframe
 70
     5
 71
     0
 72
     2
 73
     0
 90
        0
 40
0.6
 41
30.0
 62
     5
 63
     7
 74
     1
 91
        4
 64
     7
 65
   257
 75
     1
175
     1
 42
1.0
 92
        0
 66
   257
 43
1.0
 76
     1
 77
     6
 78
     2
 67
     7
 79
     5
170
     0
171
     0
290
     0
174
     0
 93
        1
 44
0.0
173
     0
291
     0
 45
0.0
1001
ACAD
1000
AcDbSavedByObjectVersion
1070
     0
  0
VISUALSTYLE
  5
468
102
{ACAD_REACTORS
330
29
102
}
102
{ACAD_XDICTIONARY
360
4B1
102
}
330
29
100
AcDbVisualStyle
  2
X-Ray
 70
    25
 71
     2
 72
     2
 73
     1
 90
        1
 40
0.5
 41
30.0
 62
     5
 63
     7
 74
     1
 91
        0
 64
     7
 65
   257
 75
     1
175
     1
 42
1.0
 92
        8
 66
     7
 43
1.0
 76
     1
 77
     6
 78
     2
 67
     7
 79
     3
170
     0
171
     0
290
     0
174
     0
 93
       13
 44
0.0
173
     0
291
     0
 45
0.0
1001
ACAD
1000
AcDbSavedByObjectVersion
1070
     0
  0
XRECORD
  5
47B
102
{ACAD_REACTORS
330
47A
102
}
330
47A
100
AcDbXrecord
280
     1
340
28
  0
XRECORD
  5
47C
102
{ACAD_REACTORS
330
47A
102
}
330
47A
100
AcDbXrecord
280
     1
340
7
  0
DICTIONARYVAR
  5
44D
102
{ACAD_REACTORS
330
44C
102
}
330
44C
100
DictionaryVariables
280
     0
  1
1:1
  0
DICTIONARYVAR
  5
46F
102
{ACAD_REACTORS
330
44C
102
}
330
44C
100
DictionaryVariables
280
     0
  1
Standard
  0
DICTIONARYVAR
  5
477
102
{ACAD_REACTORS
330
44C
102
}
330
44C
100
DictionaryVariables
280
     0
  1
Standard
  0
DICTIONARYVAR
  5
478
102
{ACAD_REACTORS
330
44C
102
}
330
44C
100
DictionaryVariables
280
     0
  1
0
  0
DICTIONARYVAR
  5
479
102
{ACAD_REACTORS
330
44C
102
}
330
44C
100
DictionaryVariables
280
     0
  1
1
  0
DICTIONARYVAR
  5
480
102
{ACAD_REACTORS
330
44C
102
}
330
44C
100
DictionaryVariables
280
     0
  1
1
  0
DICTIONARYVAR
  5
450
102
{ACAD_REACTORS
330
44C
102
}
330
44C
100
DictionaryVariables
280
     0
  1
0
  0
DICTIONARY
  5
485
330
4F
100
AcDbDictionary
280
     1
281
     1
  3
ACAD_XREC_ROUNDTRIP
360
486
  0
DICTIONARY
  5
481
330
10
100
AcDbDictionary
280
     1
281
     1
  3
ACAD_XREC_ROUNDTRIP
360
482
  0
DICTIONARY
  5
483
330
6
100
AcDbDictionary
280
     1
281
     1
  3
ACAD_XREC_ROUNDTRIP
360
484
  0
DICTIONARY
  5
4B7
330
46D
100
AcDbDictionary
280
     1
281
     1
  3
ACAD_XREC_ROUNDTRIP
360
4B8
  0
DICTIONARY
  5
48F
330
457
100
AcDbDictionary
280
     1
281
     1
  3
ACAD_XREC_ROUNDTRIP
360
490
  0
DICTIONARY
  5
495
330
45A
100
AcDbDictionary
280
     1
281
     1
  3
ACAD_XREC_ROUNDTRIP
360
496
  0
DICTIONARY
  5
49D
330
45E
100
AcDbDictionary
280
     1
281
     1
  3
ACAD_XREC_ROUNDTRIP
360
49E
  0
DICTIONARY
  5
4A5
330
462
100
AcDbDictionary
280
     1
281
     1
  3
ACAD_XREC_ROUNDTRIP
360
4A6
  0
DICTIONARY
  5
499
330
45C
100
AcDbDictionary
280
     1
281
     1
  3
ACAD_XREC_ROUNDTRIP
360
49A
  0
DICTIONARY
  5
49B
330
45D
100
AcDbDictionary
280
     1
281
     1
  3
ACAD_XREC_ROUNDTRIP
360
49C
  0
DICTIONARY
  5
4AB
330
465
100
AcDbDictionary
280
     1
281
     1
  3
ACAD_XREC_ROUNDTRIP
360
4AC
  0
DICTIONARY
  5
4A3
330
461
100
AcDbDictionary
280
     1
281
     1
  3
ACAD_XREC_ROUNDTRIP
360
4A4
  0
DICTIONARY
  5
487
330
453
100
AcDbDictionary
280
     1
281
     1
  3
ACAD_XREC_ROUNDTRIP
360
488
  0
DICTIONARY
  5
489
330
454
100
AcDbDictionary
280
     1
281
     1
  3
ACAD_XREC_ROUNDTRIP
360
48A
  0
DICTIONARY
  5
48B
330
455
100
AcDbDictionary
280
     1
281
     1
  3
ACAD_XREC_ROUNDTRIP
360
48C
  0
DICTIONARY
  5
48D
330
456
100
AcDbDictionary
280
     1
281
     1
  3
ACAD_XREC_ROUNDTRIP
360
48E
  0
DICTIONARY
  5
493
330
459
100
AcDbDictionary
280
     1
281
     1
  3
ACAD_XREC_ROUNDTRIP
360
494
  0
DICTIONARY
  5
4A7
330
463
100
AcDbDictionary
280
     1
281
     1
  3
ACAD_XREC_ROUNDTRIP
360
4A8
  0
DICTIONARY
  5
4A1
330
460
100
AcDbDictionary
280
     1
281
     1
  3
ACAD_XREC_ROUNDTRIP
360
4A2
  0
DICTIONARY
  5
4A9
330
464
100
AcDbDictionary
280
     1
281
     1
  3
ACAD_XREC_ROUNDTRIP
360
4AA
  0
DICTIONARY
  5
497
330
45B
100
AcDbDictionary
280
     1
281
     1
  3
ACAD_XREC_ROUNDTRIP
360
498
  0
DICTIONARY
  5
4B5
330
46A
100
AcDbDictionary
280
     1
281
     1
  3
ACAD_XREC_ROUNDTRIP
360
4B6
  0
DICTIONARY
  5
4B3
330
469
100
AcDbDictionary
280
     1
281
     1
  3
ACAD_XREC_ROUNDTRIP
360
4B4
  0
DICTIONARY
  5
4AD
330
466
100
AcDbDictionary
280
     1
281
     1
  3
ACAD_XREC_ROUNDTRIP
360
4AE
  0
DICTIONARY
  5
4AF
330
467
100
AcDbDictionary
280
     1
281
     1
  3
ACAD_XREC_ROUNDTRIP
360
4B0
  0
DICTIONARY
  5
49F
330
45F
100
AcDbDictionary
280
     1
281
     1
  3
ACAD_XREC_ROUNDTRIP
360
4A0
  0
DICTIONARY
  5
491
330
458
100
AcDbDictionary
280
     1
281
     1
  3
ACAD_XREC_ROUNDTRIP
360
492
  0
DICTIONARY
  5
4B1
330
468
100
AcDbDictionary
280
     1
281
     1
  3
ACAD_XREC_ROUNDTRIP
360
4B2
  0
XRECORD
  5
486
102
{ACAD_REACTORS
330
485
102
}
330
485
100
AcDbXrecord
280
     1
102
MATERIAL
148
0.0
149
0.0
149
0.0
 93
        0
 94
      127
282
     0
 72
     1
 77
     1
171
     1
175
     1
179
     1
273
     0
  0
XRECORD
  5
482
102
{ACAD_REACTORS
330
481
102
}
330
481
100
AcDbXrecord
280
     1
102
MATERIAL
148
0.0
149
0.0
149
0.0
 93
        0
 94
      127
282
     0
 72
     1
 77
     1
171
     1
175
     1
179
     1
273
     0
  0
XRECORD
  5
484
102
{ACAD_REACTORS
330
483
102
}
330
483
100
AcDbXrecord
280
     1
102
MATERIAL
148
0.0
149
0.0
149
0.0
 93
        0
 94
      127
282
     0
 72
     1
 77
     1
171
     1
175
     1
179
     1
273
     0
  0
XRECORD
  5
4B8
102
{ACAD_REACTORS
330
4B7
102
}
330
4B7
100
AcDbXrecord
280
     1
102
ACAD_ROUNDTRIP_2010_MLEADER_STYLE
  0
XRECORD
  5
490
102
{ACAD_REACTORS
330
48F
102
}
330
48F
100
AcDbXrecord
280
     1
102
RTVSPropertyOp0
 70
     1
102
RTVSPropertyOp1
 70
     1
102
RTVSPropertyOp2
 70
     1
102
RTVSPropertyOp3
 70
     1
102
RTVSPropertyOp4
 70
     1
102
RTVSPropertyOp5
 70
     1
102
RTVSPropertyOp6
 70
     1
102
RTVSPropertyOp7
 70
     1
102
RTVSPropertyOp8
 70
     1
102
RTVSPropertyOp9
 70
     1
102
RTVSPropertyOp10
 70
     1
102
RTVSPropertyOp11
 70
     1
102
RTVSPropertyOp12
 70
     1
102
RTVSPropertyOp13
 70
     1
102
RTVSPropertyOp14
 70
     1
102
RTVSPropertyOp15
 70
     1
102
RTVSPropertyOp16
 70
     1
102
RTVSPropertyOp17
 70
     1
102
RTVSPropertyOp18
 70
     1
102
RTVSPropertyOp19
 70
     1
102
RTVSPropertyOp20
 70
     1
102
RTVSPropertyOp21
 70
     1
102
RTVSPropertyOp22
 70
     1
102
RTVSPropertyOp23
 70
     1
102
RTVSPropertyOp24
 70
     1
102
RTVSPropertyOp25
 70
     1
102
RTVSPropertyOp26
 70
     1
102
RTVSPropertyOp27
 70
     1
102
RTVSPropertyOp28
 70
     1
102
RTVSPropertyOp29
 70
     1
102
RTVSPropertyOp30
 70
     1
102
RTVSPropertyOp31
 70
     1
102
RTVSPropertyOp32
 70
     1
102
RTVSPropertyOp33
 70
     1
102
RTVSPropertyOp34
 70
     1
102
RTVSPropertyOp35
 70
     1
102
RTVSPropertyOp36
 70
     1
102
RTVSPropertyOp37
 70
     1
102
RTVSPropertyOp38
 70
     1
102
RTVSPropertyOp39
 70
     1
102
RTVSPropertyOp40
 70
     1
102
RTVSPropertyOp41
 70
     1
102
RTVSPropertyOp42
 70
     1
102
RTVSPropertyOp43
 70
     1
102
RTVSPropertyOp44
 70
     1
102
RTVSPropertyOp45
 70
     1
102
RTVSPropertyOp46
 70
     1
102
RTVSPropertyOp47
 70
     1
102
RTVSPropertyOp48
 70
     1
102
RTVSPropertyOp49
 70
     1
102
RTVSPropertyOp50
 70
     1
102
RTVSPropertyOp51
 70
     0
102
RTVSPropertyOp52
 70
     0
102
RTVSPropertyOp53
 70
     1
102
RTVSPropertyOp54
 70
     1
102
RTVSPropertyOp55
 70
     1
102
RTVSPropertyOp56
 70
     1
102
RTVSPropertyOp57
 70
     1
102
RTVSPost2010Prop28
280
     1
102
RTVSPost2010PropOp28
 70
     1
102
RTVSPost2010Prop29
280
     1
102
RTVSPost2010PropOp29
 70
     1
102
RTVSPost2010Prop30
280
     0
102
RTVSPost2010PropOp30
 70
     1
102
RTVSPost2010Prop31
280
     0
102
RTVSPost2010PropOp31
 70
     1
102
RTVSPost2010Prop32
280
     0
102
RTVSPost2010PropOp32
 70
     1
102
RTVSPost2010Prop33
280
     0
102
RTVSPost2010PropOp33
 70
     1
102
RTVSPost2010Prop34
280
     0
102
RTVSPost2010PropOp34
 70
     1
102
RTVSPost2010Prop35
280
     0
102
RTVSPost2010PropOp35
 70
     1
102
RTVSPost2010Prop36
280
     0
102
RTVSPost2010PropOp36
 70
     1
102
RTVSPost2010Prop37
 90
       50
102
RTVSPost2010PropOp37
 70
     1
102
RTVSPost2010Prop38
140
0.0
102
RTVSPost2010PropOp38
 70
     1
102
RTVSPost2010Prop39
140
1.0
102
RTVSPost2010PropOp39
 70
     1
102
RTVSPost2010Prop40
 90
        0
102
RTVSPost2010PropOp40
 70
     1
102
RTVSPost2010Prop41ColorIndex
 90
       18
102
RTVSPost2010Prop41ColorRGB
 90
        0
102
RTVSPost2010PropOp41
 70
     1
102
RTVSPost2010Prop42
 90
       50
102
RTVSPost2010PropOp42
 70
     1
102
RTVSPost2010Prop43
 90
        3
102
RTVSPost2010PropOp43
 70
     1
102
RTVSPost2010Prop44ColorIndex
 90
        5
102
RTVSPost2010Prop44ColorRGB
 90
      255
102
RTVSPost2010PropOp44
 70
     1
102
RTVSPost2010Prop45
280
     0
102
RTVSPost2010PropOp45
 70
     1
102
RTVSPost2010Prop46
 90
       50
102
RTVSPost2010PropOp46
 70
     1
102
RTVSPost2010Prop47
 90
       50
102
RTVSPost2010PropOp47
 70
     1
102
RTVSPost2010Prop48
 90
       50
102
RTVSPost2010PropOp48
 70
     1
102
RTVSPost2010Prop49
280
     0
102
RTVSPost2010PropOp49
 70
     1
102
RTVSPost2010Prop50
 90
       50
102
RTVSPost2010PropOp50
 70
     1
102
RTVSPost2010Prop51ColorIndex
 90
      256
102
RTVSPost2010Prop51ColorRGB
 90
-16777216
102
RTVSPost2010PropOp51
 70
     0
102
RTVSPost2010Prop52
140
1.0
102
RTVSPost2010PropOp52
 70
     0
102
RTVSPost2010Prop53
 90
        2
102
RTVSPost2010PropOp53
 70
     1
102
RTVSPost2010Prop54
  1
strokes_ogs.tif
102
RTVSPost2010PropOp54
 70
     1
102
RTVSPost2010Prop55
280
     0
102
RTVSPost2010PropOp55
 70
     1
102
RTVSPost2010Prop56
140
1.0
102
RTVSPost2010PropOp56
 70
     1
102
RTVSPost2010Prop57
140
1.0
102
RTVSPost2010PropOp57
 70
     1
  0
XRECORD
  5
496
102
{ACAD_REACTORS
330
495
102
}
330
495
100
AcDbXrecord
280
     1
102
RTVSPropertyOp0
 70
     1
102
RTVSPropertyOp1
 70
     1
102
RTVSPropertyOp2
 70
     1
102
RTVSPropertyOp3
 70
     1
102
RTVSPropertyOp4
 70
     1
102
RTVSPropertyOp5
 70
     1
102
RTVSPropertyOp6
 70
     1
102
RTVSPropertyOp7
 70
     1
102
RTVSPropertyOp8
 70
     1
102
RTVSPropertyOp9
 70
     1
102
RTVSPropertyOp10
 70
     1
102
RTVSPropertyOp11
 70
     1
102
RTVSPropertyOp12
 70
     1
102
RTVSPropertyOp13
 70
     1
102
RTVSPropertyOp14
 70
     1
102
RTVSPropertyOp15
 70
     1
102
RTVSPropertyOp16
 70
     1
102
RTVSPropertyOp17
 70
     1
102
RTVSPropertyOp18
 70
     1
102
RTVSPropertyOp19
 70
     1
102
RTVSPropertyOp20
 70
     1
102
RTVSPropertyOp21
 70
     1
102
RTVSPropertyOp22
 70
     1
102
RTVSPropertyOp23
 70
     1
102
RTVSPropertyOp24
 70
     1
102
RTVSPropertyOp25
 70
     1
102
RTVSPropertyOp26
 70
     1
102
RTVSPropertyOp27
 70
     1
102
RTVSPropertyOp28
 70
     1
102
RTVSPropertyOp29
 70
     1
102
RTVSPropertyOp30
 70
     1
102
RTVSPropertyOp31
 70
     1
102
RTVSPropertyOp32
 70
     1
102
RTVSPropertyOp33
 70
     1
102
RTVSPropertyOp34
 70
     1
102
RTVSPropertyOp35
 70
     1
102
RTVSPropertyOp36
 70
     1
102
RTVSPropertyOp37
 70
     1
102
RTVSPropertyOp38
 70
     1
102
RTVSPropertyOp39
 70
     1
102
RTVSPropertyOp40
 70
     1
102
RTVSPropertyOp41
 70
     1
102
RTVSPropertyOp42
 70
     1
102
RTVSPropertyOp43
 70
     1
102
RTVSPropertyOp44
 70
     1
102
RTVSPropertyOp45
 70
     1
102
RTVSPropertyOp46
 70
     1
102
RTVSPropertyOp47
 70
     1
102
RTVSPropertyOp48
 70
     1
102
RTVSPropertyOp49
 70
     1
102
RTVSPropertyOp50
 70
     1
102
RTVSPropertyOp51
 70
     0
102
RTVSPropertyOp52
 70
     0
102
RTVSPropertyOp53
 70
     1
102
RTVSPropertyOp54
 70
     1
102
RTVSPropertyOp55
 70
     1
102
RTVSPropertyOp56
 70
     1
102
RTVSPropertyOp57
 70
     1
102
RTVSPost2010Prop28
280
     0
102
RTVSPost2010PropOp28
 70
     1
102
RTVSPost2010Prop29
280
     1
102
RTVSPost2010PropOp29
 70
     1
102
RTVSPost2010Prop30
280
     1
102
RTVSPost2010PropOp30
 70
     1
102
RTVSPost2010Prop31
280
     0
102
RTVSPost2010PropOp31
 70
     1
102
RTVSPost2010Prop32
280
     0
102
RTVSPost2010PropOp32
 70
     1
102
RTVSPost2010Prop33
280
     0
102
RTVSPost2010PropOp33
 70
     1
102
RTVSPost2010Prop34
280
     0
102
RTVSPost2010PropOp34
 70
     1
102
RTVSPost2010Prop35
280
     0
102
RTVSPost2010PropOp35
 70
     1
102
RTVSPost2010Prop36
280
     0
102
RTVSPost2010PropOp36
 70
     1
102
RTVSPost2010Prop37
 90
       50
102
RTVSPost2010PropOp37
 70
     1
102
RTVSPost2010Prop38
140
0.0
102
RTVSPost2010PropOp38
 70
     1
102
RTVSPost2010Prop39
140
1.0
102
RTVSPost2010PropOp39
 70
     1
102
RTVSPost2010Prop40
 90
        0
102
RTVSPost2010PropOp40
 70
     1
102
RTVSPost2010Prop41ColorIndex
 90
       18
102
RTVSPost2010Prop41ColorRGB
 90
        0
102
RTVSPost2010PropOp41
 70
     1
102
RTVSPost2010Prop42
 90
       50
102
RTVSPost2010PropOp42
 70
     1
102
RTVSPost2010Prop43
 90
        3
102
RTVSPost2010PropOp43
 70
     1
102
RTVSPost2010Prop44ColorIndex
 90
        5
102
RTVSPost2010Prop44ColorRGB
 90
      255
102
RTVSPost2010PropOp44
 70
     1
102
RTVSPost2010Prop45
280
     0
102
RTVSPost2010PropOp45
 70
     1
102
RTVSPost2010Prop46
 90
       50
102
RTVSPost2010PropOp46
 70
     1
102
RTVSPost2010Prop47
 90
       50
102
RTVSPost2010PropOp47
 70
     1
102
RTVSPost2010Prop48
 90
       50
102
RTVSPost2010PropOp48
 70
     1
102
RTVSPost2010Prop49
280
     0
102
RTVSPost2010PropOp49
 70
     1
102
RTVSPost2010Prop50
 90
       50
102
RTVSPost2010PropOp50
 70
     1
102
RTVSPost2010Prop51ColorIndex
 90
      256
102
RTVSPost2010Prop51ColorRGB
 90
-16777216
102
RTVSPost2010PropOp51
 70
     0
102
RTVSPost2010Prop52
140
1.0
102
RTVSPost2010PropOp52
 70
     0
102
RTVSPost2010Prop53
 90
        2
102
RTVSPost2010PropOp53
 70
     1
102
RTVSPost2010Prop54
  1
strokes_ogs.tif
102
RTVSPost2010PropOp54
 70
     1
102
RTVSPost2010Prop55
280
     0
102
RTVSPost2010PropOp55
 70
     1
102
RTVSPost2010Prop56
140
1.0
102
RTVSPost2010PropOp56
 70
     1
102
RTVSPost2010Prop57
140
1.0
102
RTVSPost2010PropOp57
 70
     1
  0
XRECORD
  5
49E
102
{ACAD_REACTORS
330
49D
102
}
330
49D
100
AcDbXrecord
280
     1
102
RTVSPropertyOp0
 70
     1
102
RTVSPropertyOp1
 70
     1
102
RTVSPropertyOp2
 70
     1
102
RTVSPropertyOp3
 70
     1
102
RTVSPropertyOp4
 70
     1
102
RTVSPropertyOp5
 70
     1
102
RTVSPropertyOp6
 70
     1
102
RTVSPropertyOp7
 70
     1
102
RTVSPropertyOp8
 70
     1
102
RTVSPropertyOp9
 70
     1
102
RTVSPropertyOp10
 70
     1
102
RTVSPropertyOp11
 70
     1
102
RTVSPropertyOp12
 70
     1
102
RTVSPropertyOp13
 70
     1
102
RTVSPropertyOp14
 70
     1
102
RTVSPropertyOp15
 70
     1
102
RTVSPropertyOp16
 70
     1
102
RTVSPropertyOp17
 70
     1
102
RTVSPropertyOp18
 70
     1
102
RTVSPropertyOp19
 70
     1
102
RTVSPropertyOp20
 70
     1
102
RTVSPropertyOp21
 70
     1
102
RTVSPropertyOp22
 70
     1
102
RTVSPropertyOp23
 70
     1
102
RTVSPropertyOp24
 70
     1
102
RTVSPropertyOp25
 70
     1
102
RTVSPropertyOp26
 70
     1
102
RTVSPropertyOp27
 70
     1
102
RTVSPropertyOp28
 70
     1
102
RTVSPropertyOp29
 70
     1
102
RTVSPropertyOp30
 70
     1
102
RTVSPropertyOp31
 70
     1
102
RTVSPropertyOp32
 70
     1
102
RTVSPropertyOp33
 70
     1
102
RTVSPropertyOp34
 70
     1
102
RTVSPropertyOp35
 70
     1
102
RTVSPropertyOp36
 70
     1
102
RTVSPropertyOp37
 70
     1
102
RTVSPropertyOp38
 70
     1
102
RTVSPropertyOp39
 70
     1
102
RTVSPropertyOp40
 70
     1
102
RTVSPropertyOp41
 70
     1
102
RTVSPropertyOp42
 70
     1
102
RTVSPropertyOp43
 70
     1
102
RTVSPropertyOp44
 70
     1
102
RTVSPropertyOp45
 70
     1
102
RTVSPropertyOp46
 70
     1
102
RTVSPropertyOp47
 70
     1
102
RTVSPropertyOp48
 70
     1
102
RTVSPropertyOp49
 70
     1
102
RTVSPropertyOp50
 70
     1
102
RTVSPropertyOp51
 70
     0
102
RTVSPropertyOp52
 70
     0
102
RTVSPropertyOp53
 70
     1
102
RTVSPropertyOp54
 70
     1
102
RTVSPropertyOp55
 70
     1
102
RTVSPropertyOp56
 70
     1
102
RTVSPropertyOp57
 70
     1
102
RTVSPost2010Prop28
280
     0
102
RTVSPost2010PropOp28
 70
     1
102
RTVSPost2010Prop29
280
     1
102
RTVSPost2010PropOp29
 70
     1
102
RTVSPost2010Prop30
280
     1
102
RTVSPost2010PropOp30
 70
     1
102
RTVSPost2010Prop31
280
     0
102
RTVSPost2010PropOp31
 70
     1
102
RTVSPost2010Prop32
280
     0
102
RTVSPost2010PropOp32
 70
     1
102
RTVSPost2010Prop33
280
     0
102
RTVSPost2010PropOp33
 70
     1
102
RTVSPost2010Prop34
280
     0
102
RTVSPost2010PropOp34
 70
     1
102
RTVSPost2010Prop35
280
     0
102
RTVSPost2010PropOp35
 70
     1
102
RTVSPost2010Prop36
280
     0
102
RTVSPost2010PropOp36
 70
     1
102
RTVSPost2010Prop37
 90
       50
102
RTVSPost2010PropOp37
 70
     1
102
RTVSPost2010Prop38
140
0.0
102
RTVSPost2010PropOp38
 70
     1
102
RTVSPost2010Prop39
140
1.0
102
RTVSPost2010PropOp39
 70
     1
102
RTVSPost2010Prop40
 90
        0
102
RTVSPost2010PropOp40
 70
     1
102
RTVSPost2010Prop41ColorIndex
 90
       18
102
RTVSPost2010Prop41ColorRGB
 90
        0
102
RTVSPost2010PropOp41
 70
     1
102
RTVSPost2010Prop42
 90
       50
102
RTVSPost2010PropOp42
 70
     1
102
RTVSPost2010Prop43
 90
        3
102
RTVSPost2010PropOp43
 70
     1
102
RTVSPost2010Prop44ColorIndex
 90
        5
102
RTVSPost2010Prop44ColorRGB
 90
      255
102
RTVSPost2010PropOp44
 70
     1
102
RTVSPost2010Prop45
280
     0
102
RTVSPost2010PropOp45
 70
     1
102
RTVSPost2010Prop46
 90
       50
102
RTVSPost2010PropOp46
 70
     1
102
RTVSPost2010Prop47
 90
       50
102
RTVSPost2010PropOp47
 70
     1
102
RTVSPost2010Prop48
 90
       50
102
RTVSPost2010PropOp48
 70
     1
102
RTVSPost2010Prop49
280
     0
102
RTVSPost2010PropOp49
 70
     1
102
RTVSPost2010Prop50
 90
       50
102
RTVSPost2010PropOp50
 70
     1
102
RTVSPost2010Prop51ColorIndex
 90
      256
102
RTVSPost2010Prop51ColorRGB
 90
-16777216
102
RTVSPost2010PropOp51
 70
     0
102
RTVSPost2010Prop52
140
1.0
102
RTVSPost2010PropOp52
 70
     0
102
RTVSPost2010Prop53
 90
        2
102
RTVSPost2010PropOp53
 70
     1
102
RTVSPost2010Prop54
  1
strokes_ogs.tif
102
RTVSPost2010PropOp54
 70
     1
102
RTVSPost2010Prop55
280
     0
102
RTVSPost2010PropOp55
 70
     1
102
RTVSPost2010Prop56
140
1.0
102
RTVSPost2010PropOp56
 70
     1
102
RTVSPost2010Prop57
140
1.0
102
RTVSPost2010PropOp57
 70
     1
  0
XRECORD
  5
4A6
102
{ACAD_REACTORS
330
4A5
102
}
330
4A5
100
AcDbXrecord
280
     1
102
RTVSPropertyOp0
 70
     1
102
RTVSPropertyOp1
 70
     1
102
RTVSPropertyOp2
 70
     1
102
RTVSPropertyOp3
 70
     1
102
RTVSPropertyOp4
 70
     1
102
RTVSPropertyOp5
 70
     1
102
RTVSPropertyOp6
 70
     1
102
RTVSPropertyOp7
 70
     1
102
RTVSPropertyOp8
 70
     1
102
RTVSPropertyOp9
 70
     1
102
RTVSPropertyOp10
 70
     1
102
RTVSPropertyOp11
 70
     1
102
RTVSPropertyOp12
 70
     1
102
RTVSPropertyOp13
 70
     1
102
RTVSPropertyOp14
 70
     1
102
RTVSPropertyOp15
 70
     1
102
RTVSPropertyOp16
 70
     1
102
RTVSPropertyOp17
 70
     1
102
RTVSPropertyOp18
 70
     1
102
RTVSPropertyOp19
 70
     1
102
RTVSPropertyOp20
 70
     1
102
RTVSPropertyOp21
 70
     1
102
RTVSPropertyOp22
 70
     1
102
RTVSPropertyOp23
 70
     1
102
RTVSPropertyOp24
 70
     1
102
RTVSPropertyOp25
 70
     1
102
RTVSPropertyOp26
 70
     1
102
RTVSPropertyOp27
 70
     1
102
RTVSPropertyOp28
 70
     1
102
RTVSPropertyOp29
 70
     1
102
RTVSPropertyOp30
 70
     1
102
RTVSPropertyOp31
 70
     1
102
RTVSPropertyOp32
 70
     1
102
RTVSPropertyOp33
 70
     1
102
RTVSPropertyOp34
 70
     1
102
RTVSPropertyOp35
 70
     1
102
RTVSPropertyOp36
 70
     1
102
RTVSPropertyOp37
 70
     1
102
RTVSPropertyOp38
 70
     1
102
RTVSPropertyOp39
 70
     1
102
RTVSPropertyOp40
 70
     1
102
RTVSPropertyOp41
 70
     1
102
RTVSPropertyOp42
 70
     1
102
RTVSPropertyOp43
 70
     1
102
RTVSPropertyOp44
 70
     1
102
RTVSPropertyOp45
 70
     1
102
RTVSPropertyOp46
 70
     1
102
RTVSPropertyOp47
 70
     1
102
RTVSPropertyOp48
 70
     1
102
RTVSPropertyOp49
 70
     1
102
RTVSPropertyOp50
 70
     1
102
RTVSPropertyOp51
 70
     0
102
RTVSPropertyOp52
 70
     0
102
RTVSPropertyOp53
 70
     1
102
RTVSPropertyOp54
 70
     1
102
RTVSPropertyOp55
 70
     1
102
RTVSPropertyOp56
 70
     1
102
RTVSPropertyOp57
 70
     1
102
RTVSPost2010Prop28
280
     0
102
RTVSPost2010PropOp28
 70
     1
102
RTVSPost2010Prop29
280
     1
102
RTVSPost2010PropOp29
 70
     1
102
RTVSPost2010Prop30
280
     1
102
RTVSPost2010PropOp30
 70
     1
102
RTVSPost2010Prop31
280
     0
102
RTVSPost2010PropOp31
 70
     1
102
RTVSPost2010Prop32
280
     0
102
RTVSPost2010PropOp32
 70
     1
102
RTVSPost2010Prop33
280
     0
102
RTVSPost2010PropOp33
 70
     1
102
RTVSPost2010Prop34
280
     0
102
RTVSPost2010PropOp34
 70
     1
102
RTVSPost2010Prop35
280
     0
102
RTVSPost2010PropOp35
 70
     1
102
RTVSPost2010Prop36
280
     0
102
RTVSPost2010PropOp36
 70
     1
102
RTVSPost2010Prop37
 90
       50
102
RTVSPost2010PropOp37
 70
     1
102
RTVSPost2010Prop38
140
0.0
102
RTVSPost2010PropOp38
 70
     1
102
RTVSPost2010Prop39
140
1.0
102
RTVSPost2010PropOp39
 70
     1
102
RTVSPost2010Prop40
 90
        0
102
RTVSPost2010PropOp40
 70
     1
102
RTVSPost2010Prop41ColorIndex
 90
       18
102
RTVSPost2010Prop41ColorRGB
 90
        0
102
RTVSPost2010PropOp41
 70
     1
102
RTVSPost2010Prop42
 90
       50
102
RTVSPost2010PropOp42
 70
     1
102
RTVSPost2010Prop43
 90
        3
102
RTVSPost2010PropOp43
 70
     1
102
RTVSPost2010Prop44ColorIndex
 90
        5
102
RTVSPost2010Prop44ColorRGB
 90
      255
102
RTVSPost2010PropOp44
 70
     1
102
RTVSPost2010Prop45
280
     0
102
RTVSPost2010PropOp45
 70
     1
102
RTVSPost2010Prop46
 90
       50
102
RTVSPost2010PropOp46
 70
     1
102
RTVSPost2010Prop47
 90
       50
102
RTVSPost2010PropOp47
 70
     1
102
RTVSPost2010Prop48
 90
       50
102
RTVSPost2010PropOp48
 70
     1
102
RTVSPost2010Prop49
280
     0
102
RTVSPost2010PropOp49
 70
     1
102
RTVSPost2010Prop50
 90
       50
102
RTVSPost2010PropOp50
 70
     1
102
RTVSPost2010Prop51ColorIndex
 90
      256
102
RTVSPost2010Prop51ColorRGB
 90
-16777216
102
RTVSPost2010PropOp51
 70
     0
102
RTVSPost2010Prop52
140
1.0
102
RTVSPost2010PropOp52
 70
     0
102
RTVSPost2010Prop53
 90
        2
102
RTVSPost2010PropOp53
 70
     1
102
RTVSPost2010Prop54
  1
strokes_ogs.tif
102
RTVSPost2010PropOp54
 70
     1
102
RTVSPost2010Prop55
280
     0
102
RTVSPost2010PropOp55
 70
     1
102
RTVSPost2010Prop56
140
1.0
102
RTVSPost2010PropOp56
 70
     1
102
RTVSPost2010Prop57
140
1.0
102
RTVSPost2010PropOp57
 70
     1
  0
XRECORD
  5
49A
102
{ACAD_REACTORS
330
499
102
}
330
499
100
AcDbXrecord
280
     1
102
RTVSPropertyOp0
 70
     1
102
RTVSPropertyOp1
 70
     1
102
RTVSPropertyOp2
 70
     1
102
RTVSPropertyOp3
 70
     1
102
RTVSPropertyOp4
 70
     1
102
RTVSPropertyOp5
 70
     1
102
RTVSPropertyOp6
 70
     1
102
RTVSPropertyOp7
 70
     1
102
RTVSPropertyOp8
 70
     1
102
RTVSPropertyOp9
 70
     1
102
RTVSPropertyOp10
 70
     1
102
RTVSPropertyOp11
 70
     1
102
RTVSPropertyOp12
 70
     1
102
RTVSPropertyOp13
 70
     1
102
RTVSPropertyOp14
 70
     1
102
RTVSPropertyOp15
 70
     1
102
RTVSPropertyOp16
 70
     1
102
RTVSPropertyOp17
 70
     1
102
RTVSPropertyOp18
 70
     1
102
RTVSPropertyOp19
 70
     1
102
RTVSPropertyOp20
 70
     1
102
RTVSPropertyOp21
 70
     1
102
RTVSPropertyOp22
 70
     1
102
RTVSPropertyOp23
 70
     1
102
RTVSPropertyOp24
 70
     1
102
RTVSPropertyOp25
 70
     1
102
RTVSPropertyOp26
 70
     1
102
RTVSPropertyOp27
 70
     1
102
RTVSPropertyOp28
 70
     1
102
RTVSPropertyOp29
 70
     1
102
RTVSPropertyOp30
 70
     1
102
RTVSPropertyOp31
 70
     1
102
RTVSPropertyOp32
 70
     1
102
RTVSPropertyOp33
 70
     1
102
RTVSPropertyOp34
 70
     1
102
RTVSPropertyOp35
 70
     1
102
RTVSPropertyOp36
 70
     1
102
RTVSPropertyOp37
 70
     1
102
RTVSPropertyOp38
 70
     1
102
RTVSPropertyOp39
 70
     1
102
RTVSPropertyOp40
 70
     1
102
RTVSPropertyOp41
 70
     1
102
RTVSPropertyOp42
 70
     1
102
RTVSPropertyOp43
 70
     1
102
RTVSPropertyOp44
 70
     1
102
RTVSPropertyOp45
 70
     1
102
RTVSPropertyOp46
 70
     1
102
RTVSPropertyOp47
 70
     1
102
RTVSPropertyOp48
 70
     1
102
RTVSPropertyOp49
 70
     1
102
RTVSPropertyOp50
 70
     1
102
RTVSPropertyOp51
 70
     0
102
RTVSPropertyOp52
 70
     0
102
RTVSPropertyOp53
 70
     1
102
RTVSPropertyOp54
 70
     1
102
RTVSPropertyOp55
 70
     1
102
RTVSPropertyOp56
 70
     1
102
RTVSPropertyOp57
 70
     1
102
RTVSPost2010Prop28
280
     0
102
RTVSPost2010PropOp28
 70
     1
102
RTVSPost2010Prop29
280
     1
102
RTVSPost2010PropOp29
 70
     1
102
RTVSPost2010Prop30
280
     1
102
RTVSPost2010PropOp30
 70
     1
102
RTVSPost2010Prop31
280
     0
102
RTVSPost2010PropOp31
 70
     1
102
RTVSPost2010Prop32
280
     0
102
RTVSPost2010PropOp32
 70
     1
102
RTVSPost2010Prop33
280
     0
102
RTVSPost2010PropOp33
 70
     1
102
RTVSPost2010Prop34
280
     0
102
RTVSPost2010PropOp34
 70
     1
102
RTVSPost2010Prop35
280
     0
102
RTVSPost2010PropOp35
 70
     1
102
RTVSPost2010Prop36
280
     0
102
RTVSPost2010PropOp36
 70
     1
102
RTVSPost2010Prop37
 90
       50
102
RTVSPost2010PropOp37
 70
     1
102
RTVSPost2010Prop38
140
0.0
102
RTVSPost2010PropOp38
 70
     1
102
RTVSPost2010Prop39
140
1.0
102
RTVSPost2010PropOp39
 70
     1
102
RTVSPost2010Prop40
 90
        0
102
RTVSPost2010PropOp40
 70
     1
102
RTVSPost2010Prop41ColorIndex
 90
       18
102
RTVSPost2010Prop41ColorRGB
 90
        0
102
RTVSPost2010PropOp41
 70
     1
102
RTVSPost2010Prop42
 90
       50
102
RTVSPost2010PropOp42
 70
     1
102
RTVSPost2010Prop43
 90
        3
102
RTVSPost2010PropOp43
 70
     1
102
RTVSPost2010Prop44ColorIndex
 90
        5
102
RTVSPost2010Prop44ColorRGB
 90
      255
102
RTVSPost2010PropOp44
 70
     1
102
RTVSPost2010Prop45
280
     0
102
RTVSPost2010PropOp45
 70
     1
102
RTVSPost2010Prop46
 90
       50
102
RTVSPost2010PropOp46
 70
     1
102
RTVSPost2010Prop47
 90
       50
102
RTVSPost2010PropOp47
 70
     1
102
RTVSPost2010Prop48
 90
       50
102
RTVSPost2010PropOp48
 70
     1
102
RTVSPost2010Prop49
280
     0
102
RTVSPost2010PropOp49
 70
     1
102
RTVSPost2010Prop50
 90
       50
102
RTVSPost2010PropOp50
 70
     1
102
RTVSPost2010Prop51ColorIndex
 90
      256
102
RTVSPost2010Prop51ColorRGB
 90
-16777216
102
RTVSPost2010PropOp51
 70
     0
102
RTVSPost2010Prop52
140
1.0
102
RTVSPost2010PropOp52
 70
     0
102
RTVSPost2010Prop53
 90
        2
102
RTVSPost2010PropOp53
 70
     1
102
RTVSPost2010Prop54
  1
strokes_ogs.tif
102
RTVSPost2010PropOp54
 70
     1
102
RTVSPost2010Prop55
280
     0
102
RTVSPost2010PropOp55
 70
     1
102
RTVSPost2010Prop56
140
1.0
102
RTVSPost2010PropOp56
 70
     1
102
RTVSPost2010Prop57
140
1.0
102
RTVSPost2010PropOp57
 70
     1
  0
XRECORD
  5
49C
102
{ACAD_REACTORS
330
49B
102
}
330
49B
100
AcDbXrecord
280
     1
102
RTVSPropertyOp0
 70
     1
102
RTVSPropertyOp1
 70
     1
102
RTVSPropertyOp2
 70
     1
102
RTVSPropertyOp3
 70
     1
102
RTVSPropertyOp4
 70
     1
102
RTVSPropertyOp5
 70
     1
102
RTVSPropertyOp6
 70
     1
102
RTVSPropertyOp7
 70
     1
102
RTVSPropertyOp8
 70
     1
102
RTVSPropertyOp9
 70
     1
102
RTVSPropertyOp10
 70
     1
102
RTVSPropertyOp11
 70
     1
102
RTVSPropertyOp12
 70
     1
102
RTVSPropertyOp13
 70
     1
102
RTVSPropertyOp14
 70
     1
102
RTVSPropertyOp15
 70
     1
102
RTVSPropertyOp16
 70
     1
102
RTVSPropertyOp17
 70
     1
102
RTVSPropertyOp18
 70
     1
102
RTVSPropertyOp19
 70
     1
102
RTVSPropertyOp20
 70
     1
102
RTVSPropertyOp21
 70
     1
102
RTVSPropertyOp22
 70
     1
102
RTVSPropertyOp23
 70
     1
102
RTVSPropertyOp24
 70
     1
102
RTVSPropertyOp25
 70
     1
102
RTVSPropertyOp26
 70
     1
102
RTVSPropertyOp27
 70
     1
102
RTVSPropertyOp28
 70
     1
102
RTVSPropertyOp29
 70
     1
102
RTVSPropertyOp30
 70
     1
102
RTVSPropertyOp31
 70
     1
102
RTVSPropertyOp32
 70
     1
102
RTVSPropertyOp33
 70
     1
102
RTVSPropertyOp34
 70
     1
102
RTVSPropertyOp35
 70
     1
102
RTVSPropertyOp36
 70
     1
102
RTVSPropertyOp37
 70
     1
102
RTVSPropertyOp38
 70
     1
102
RTVSPropertyOp39
 70
     1
102
RTVSPropertyOp40
 70
     1
102
RTVSPropertyOp41
 70
     1
102
RTVSPropertyOp42
 70
     1
102
RTVSPropertyOp43
 70
     1
102
RTVSPropertyOp44
 70
     1
102
RTVSPropertyOp45
 70
     1
102
RTVSPropertyOp46
 70
     1
102
RTVSPropertyOp47
 70
     1
102
RTVSPropertyOp48
 70
     1
102
RTVSPropertyOp49
 70
     1
102
RTVSPropertyOp50
 70
     1
102
RTVSPropertyOp51
 70
     0
102
RTVSPropertyOp52
 70
     0
102
RTVSPropertyOp53
 70
     1
102
RTVSPropertyOp54
 70
     1
102
RTVSPropertyOp55
 70
     1
102
RTVSPropertyOp56
 70
     1
102
RTVSPropertyOp57
 70
     1
102
RTVSPost2010Prop28
280
     0
102
RTVSPost2010PropOp28
 70
     1
102
RTVSPost2010Prop29
280
     1
102
RTVSPost2010PropOp29
 70
     1
102
RTVSPost2010Prop30
280
     1
102
RTVSPost2010PropOp30
 70
     1
102
RTVSPost2010Prop31
280
     0
102
RTVSPost2010PropOp31
 70
     1
102
RTVSPost2010Prop32
280
     0
102
RTVSPost2010PropOp32
 70
     1
102
RTVSPost2010Prop33
280
     0
102
RTVSPost2010PropOp33
 70
     1
102
RTVSPost2010Prop34
280
     0
102
RTVSPost2010PropOp34
 70
     1
102
RTVSPost2010Prop35
280
     0
102
RTVSPost2010PropOp35
 70
     1
102
RTVSPost2010Prop36
280
     0
102
RTVSPost2010PropOp36
 70
     1
102
RTVSPost2010Prop37
 90
       50
102
RTVSPost2010PropOp37
 70
     1
102
RTVSPost2010Prop38
140
0.0
102
RTVSPost2010PropOp38
 70
     1
102
RTVSPost2010Prop39
140
1.0
102
RTVSPost2010PropOp39
 70
     1
102
RTVSPost2010Prop40
 90
        0
102
RTVSPost2010PropOp40
 70
     1
102
RTVSPost2010Prop41ColorIndex
 90
       18
102
RTVSPost2010Prop41ColorRGB
 90
        0
102
RTVSPost2010PropOp41
 70
     1
102
RTVSPost2010Prop42
 90
       50
102
RTVSPost2010PropOp42
 70
     1
102
RTVSPost2010Prop43
 90
        3
102
RTVSPost2010PropOp43
 70
     1
102
RTVSPost2010Prop44ColorIndex
 90
        5
102
RTVSPost2010Prop44ColorRGB
 90
      255
102
RTVSPost2010PropOp44
 70
     1
102
RTVSPost2010Prop45
280
     0
102
RTVSPost2010PropOp45
 70
     1
102
RTVSPost2010Prop46
 90
       50
102
RTVSPost2010PropOp46
 70
     1
102
RTVSPost2010Prop47
 90
       50
102
RTVSPost2010PropOp47
 70
     1
102
RTVSPost2010Prop48
 90
       50
102
RTVSPost2010PropOp48
 70
     1
102
RTVSPost2010Prop49
280
     0
102
RTVSPost2010PropOp49
 70
     1
102
RTVSPost2010Prop50
 90
       50
102
RTVSPost2010PropOp50
 70
     1
102
RTVSPost2010Prop51ColorIndex
 90
      256
102
RTVSPost2010Prop51ColorRGB
 90
-16777216
102
RTVSPost2010PropOp51
 70
     0
102
RTVSPost2010Prop52
140
1.0
102
RTVSPost2010PropOp52
 70
     0
102
RTVSPost2010Prop53
 90
        2
102
RTVSPost2010PropOp53
 70
     1
102
RTVSPost2010Prop54
  1
strokes_ogs.tif
102
RTVSPost2010PropOp54
 70
     1
102
RTVSPost2010Prop55
280
     0
102
RTVSPost2010PropOp55
 70
     1
102
RTVSPost2010Prop56
140
1.0
102
RTVSPost2010PropOp56
 70
     1
102
RTVSPost2010Prop57
140
1.0
102
RTVSPost2010PropOp57
 70
     1
  0
XRECORD
  5
4AC
102
{ACAD_REACTORS
330
4AB
102
}
330
4AB
100
AcDbXrecord
280
     1
102
RTVSPropertyOp0
 70
     0
102
RTVSPropertyOp1
 70
     0
102
RTVSPropertyOp2
 70
     0
102
RTVSPropertyOp3
 70
     0
102
RTVSPropertyOp4
 70
     0
102
RTVSPropertyOp5
 70
     0
102
RTVSPropertyOp6
 70
     0
102
RTVSPropertyOp7
 70
     0
102
RTVSPropertyOp8
 70
     0
102
RTVSPropertyOp9
 70
     0
102
RTVSPropertyOp10
 70
     0
102
RTVSPropertyOp11
 70
     0
102
RTVSPropertyOp12
 70
     0
102
RTVSPropertyOp13
 70
     0
102
RTVSPropertyOp14
 70
     0
102
RTVSPropertyOp15
 70
     0
102
RTVSPropertyOp16
 70
     0
102
RTVSPropertyOp17
 70
     0
102
RTVSPropertyOp18
 70
     0
102
RTVSPropertyOp19
 70
     0
102
RTVSPropertyOp20
 70
     0
102
RTVSPropertyOp21
 70
     0
102
RTVSPropertyOp22
 70
     0
102
RTVSPropertyOp23
 70
     0
102
RTVSPropertyOp24
 70
     0
102
RTVSPropertyOp25
 70
     0
102
RTVSPropertyOp26
 70
     0
102
RTVSPropertyOp27
 70
     0
102
RTVSPropertyOp28
 70
     1
102
RTVSPropertyOp29
 70
     1
102
RTVSPropertyOp30
 70
     1
102
RTVSPropertyOp31
 70
     1
102
RTVSPropertyOp32
 70
     1
102
RTVSPropertyOp33
 70
     1
102
RTVSPropertyOp34
 70
     1
102
RTVSPropertyOp35
 70
     1
102
RTVSPropertyOp36
 70
     1
102
RTVSPropertyOp37
 70
     1
102
RTVSPropertyOp38
 70
     1
102
RTVSPropertyOp39
 70
     1
102
RTVSPropertyOp40
 70
     1
102
RTVSPropertyOp41
 70
     1
102
RTVSPropertyOp42
 70
     1
102
RTVSPropertyOp43
 70
     1
102
RTVSPropertyOp44
 70
     1
102
RTVSPropertyOp45
 70
     1
102
RTVSPropertyOp46
 70
     1
102
RTVSPropertyOp47
 70
     1
102
RTVSPropertyOp48
 70
     1
102
RTVSPropertyOp49
 70
     1
102
RTVSPropertyOp50
 70
     1
102
RTVSPropertyOp51
 70
     0
102
RTVSPropertyOp52
 70
     0
102
RTVSPropertyOp53
 70
     1
102
RTVSPropertyOp54
 70
     1
102
RTVSPropertyOp55
 70
     1
102
RTVSPropertyOp56
 70
     1
102
RTVSPropertyOp57
 70
     1
102
RTVSPost2010Prop28
280
     0
102
RTVSPost2010PropOp28
 70
     1
102
RTVSPost2010Prop29
280
     1
102
RTVSPost2010PropOp29
 70
     1
102
RTVSPost2010Prop30
280
     1
102
RTVSPost2010PropOp30
 70
     1
102
RTVSPost2010Prop31
280
     0
102
RTVSPost2010PropOp31
 70
     1
102
RTVSPost2010Prop32
280
     0
102
RTVSPost2010PropOp32
 70
     1
102
RTVSPost2010Prop33
280
     0
102
RTVSPost2010PropOp33
 70
     1
102
RTVSPost2010Prop34
280
     0
102
RTVSPost2010PropOp34
 70
     1
102
RTVSPost2010Prop35
280
     0
102
RTVSPost2010PropOp35
 70
     1
102
RTVSPost2010Prop36
280
     0
102
RTVSPost2010PropOp36
 70
     1
102
RTVSPost2010Prop37
 90
       50
102
RTVSPost2010PropOp37
 70
     1
102
RTVSPost2010Prop38
140
0.0
102
RTVSPost2010PropOp38
 70
     1
102
RTVSPost2010Prop39
140
1.0
102
RTVSPost2010PropOp39
 70
     1
102
RTVSPost2010Prop40
 90
        0
102
RTVSPost2010PropOp40
 70
     1
102
RTVSPost2010Prop41ColorIndex
 90
       18
102
RTVSPost2010Prop41ColorRGB
 90
        0
102
RTVSPost2010PropOp41
 70
     1
102
RTVSPost2010Prop42
 90
       50
102
RTVSPost2010PropOp42
 70
     1
102
RTVSPost2010Prop43
 90
        3
102
RTVSPost2010PropOp43
 70
     1
102
RTVSPost2010Prop44ColorIndex
 90
        5
102
RTVSPost2010Prop44ColorRGB
 90
      255
102
RTVSPost2010PropOp44
 70
     1
102
RTVSPost2010Prop45
280
     0
102
RTVSPost2010PropOp45
 70
     1
102
RTVSPost2010Prop46
 90
       50
102
RTVSPost2010PropOp46
 70
     1
102
RTVSPost2010Prop47
 90
       50
102
RTVSPost2010PropOp47
 70
     1
102
RTVSPost2010Prop48
 90
       50
102
RTVSPost2010PropOp48
 70
     1
102
RTVSPost2010Prop49
280
     0
102
RTVSPost2010PropOp49
 70
     1
102
RTVSPost2010Prop50
 90
       50
102
RTVSPost2010PropOp50
 70
     1
102
RTVSPost2010Prop51ColorIndex
 90
      256
102
RTVSPost2010Prop51ColorRGB
 90
-16777216
102
RTVSPost2010PropOp51
 70
     0
102
RTVSPost2010Prop52
140
1.0
102
RTVSPost2010PropOp52
 70
     0
102
RTVSPost2010Prop53
 90
        2
102
RTVSPost2010PropOp53
 70
     1
102
RTVSPost2010Prop54
  1
strokes_ogs.tif
102
RTVSPost2010PropOp54
 70
     1
102
RTVSPost2010Prop55
280
     0
102
RTVSPost2010PropOp55
 70
     1
102
RTVSPost2010Prop56
140
1.0
102
RTVSPost2010PropOp56
 70
     1
102
RTVSPost2010Prop57
140
1.0
102
RTVSPost2010PropOp57
 70
     1
  0
XRECORD
  5
4A4
102
{ACAD_REACTORS
330
4A3
102
}
330
4A3
100
AcDbXrecord
280
     1
102
RTVSPropertyOp0
 70
     1
102
RTVSPropertyOp1
 70
     1
102
RTVSPropertyOp2
 70
     1
102
RTVSPropertyOp3
 70
     1
102
RTVSPropertyOp4
 70
     1
102
RTVSPropertyOp5
 70
     1
102
RTVSPropertyOp6
 70
     1
102
RTVSPropertyOp7
 70
     1
102
RTVSPropertyOp8
 70
     1
102
RTVSPropertyOp9
 70
     1
102
RTVSPropertyOp10
 70
     1
102
RTVSPropertyOp11
 70
     1
102
RTVSPropertyOp12
 70
     1
102
RTVSPropertyOp13
 70
     1
102
RTVSPropertyOp14
 70
     1
102
RTVSPropertyOp15
 70
     1
102
RTVSPropertyOp16
 70
     1
102
RTVSPropertyOp17
 70
     1
102
RTVSPropertyOp18
 70
     1
102
RTVSPropertyOp19
 70
     1
102
RTVSPropertyOp20
 70
     1
102
RTVSPropertyOp21
 70
     1
102
RTVSPropertyOp22
 70
     1
102
RTVSPropertyOp23
 70
     1
102
RTVSPropertyOp24
 70
     1
102
RTVSPropertyOp25
 70
     1
102
RTVSPropertyOp26
 70
     1
102
RTVSPropertyOp27
 70
     1
102
RTVSPropertyOp28
 70
     1
102
RTVSPropertyOp29
 70
     1
102
RTVSPropertyOp30
 70
     1
102
RTVSPropertyOp31
 70
     1
102
RTVSPropertyOp32
 70
     1
102
RTVSPropertyOp33
 70
     1
102
RTVSPropertyOp34
 70
     1
102
RTVSPropertyOp35
 70
     1
102
RTVSPropertyOp36
 70
     1
102
RTVSPropertyOp37
 70
     1
102
RTVSPropertyOp38
 70
     1
102
RTVSPropertyOp39
 70
     1
102
RTVSPropertyOp40
 70
     1
102
RTVSPropertyOp41
 70
     1
102
RTVSPropertyOp42
 70
     1
102
RTVSPropertyOp43
 70
     1
102
RTVSPropertyOp44
 70
     1
102
RTVSPropertyOp45
 70
     1
102
RTVSPropertyOp46
 70
     1
102
RTVSPropertyOp47
 70
     1
102
RTVSPropertyOp48
 70
     1
102
RTVSPropertyOp49
 70
     1
102
RTVSPropertyOp50
 70
     1
102
RTVSPropertyOp51
 70
     0
102
RTVSPropertyOp52
 70
     0
102
RTVSPropertyOp53
 70
     1
102
RTVSPropertyOp54
 70
     1
102
RTVSPropertyOp55
 70
     1
102
RTVSPropertyOp56
 70
     1
102
RTVSPropertyOp57
 70
     1
102
RTVSPost2010Prop28
280
     0
102
RTVSPost2010PropOp28
 70
     1
102
RTVSPost2010Prop29
280
     1
102
RTVSPost2010PropOp29
 70
     1
102
RTVSPost2010Prop30
280
     1
102
RTVSPost2010PropOp30
 70
     1
102
RTVSPost2010Prop31
280
     0
102
RTVSPost2010PropOp31
 70
     1
102
RTVSPost2010Prop32
280
     0
102
RTVSPost2010PropOp32
 70
     1
102
RTVSPost2010Prop33
280
     0
102
RTVSPost2010PropOp33
 70
     1
102
RTVSPost2010Prop34
280
     0
102
RTVSPost2010PropOp34
 70
     1
102
RTVSPost2010Prop35
280
     0
102
RTVSPost2010PropOp35
 70
     1
102
RTVSPost2010Prop36
280
     0
102
RTVSPost2010PropOp36
 70
     1
102
RTVSPost2010Prop37
 90
       50
102
RTVSPost2010PropOp37
 70
     1
102
RTVSPost2010Prop38
140
0.0
102
RTVSPost2010PropOp38
 70
     1
102
RTVSPost2010Prop39
140
1.0
102
RTVSPost2010PropOp39
 70
     1
102
RTVSPost2010Prop40
 90
        0
102
RTVSPost2010PropOp40
 70
     1
102
RTVSPost2010Prop41ColorIndex
 90
       18
102
RTVSPost2010Prop41ColorRGB
 90
        0
102
RTVSPost2010PropOp41
 70
     1
102
RTVSPost2010Prop42
 90
       50
102
RTVSPost2010PropOp42
 70
     1
102
RTVSPost2010Prop43
 90
        3
102
RTVSPost2010PropOp43
 70
     1
102
RTVSPost2010Prop44ColorIndex
 90
        5
102
RTVSPost2010Prop44ColorRGB
 90
      255
102
RTVSPost2010PropOp44
 70
     1
102
RTVSPost2010Prop45
280
     0
102
RTVSPost2010PropOp45
 70
     1
102
RTVSPost2010Prop46
 90
       50
102
RTVSPost2010PropOp46
 70
     1
102
RTVSPost2010Prop47
 90
       50
102
RTVSPost2010PropOp47
 70
     1
102
RTVSPost2010Prop48
 90
       50
102
RTVSPost2010PropOp48
 70
     1
102
RTVSPost2010Prop49
280
     0
102
RTVSPost2010PropOp49
 70
     1
102
RTVSPost2010Prop50
 90
       50
102
RTVSPost2010PropOp50
 70
     1
102
RTVSPost2010Prop51ColorIndex
 90
      256
102
RTVSPost2010Prop51ColorRGB
 90
-16777216
102
RTVSPost2010PropOp51
 70
     0
102
RTVSPost2010Prop52
140
1.0
102
RTVSPost2010PropOp52
 70
     0
102
RTVSPost2010Prop53
 90
        2
102
RTVSPost2010PropOp53
 70
     1
102
RTVSPost2010Prop54
  1
strokes_ogs.tif
102
RTVSPost2010PropOp54
 70
     1
102
RTVSPost2010Prop55
280
     0
102
RTVSPost2010PropOp55
 70
     1
102
RTVSPost2010Prop56
140
1.0
102
RTVSPost2010PropOp56
 70
     1
102
RTVSPost2010Prop57
140
1.0
102
RTVSPost2010PropOp57
 70
     1
  0
XRECORD
  5
488
102
{ACAD_REACTORS
330
487
102
}
330
487
100
AcDbXrecord
280
     1
102
RTVSPropertyOp0
 70
     1
102
RTVSPropertyOp1
 70
     1
102
RTVSPropertyOp2
 70
     1
102
RTVSPropertyOp3
 70
     1
102
RTVSPropertyOp4
 70
     1
102
RTVSPropertyOp5
 70
     1
102
RTVSPropertyOp6
 70
     1
102
RTVSPropertyOp7
 70
     1
102
RTVSPropertyOp8
 70
     1
102
RTVSPropertyOp9
 70
     1
102
RTVSPropertyOp10
 70
     1
102
RTVSPropertyOp11
 70
     1
102
RTVSPropertyOp12
 70
     1
102
RTVSPropertyOp13
 70
     1
102
RTVSPropertyOp14
 70
     1
102
RTVSPropertyOp15
 70
     1
102
RTVSPropertyOp16
 70
     1
102
RTVSPropertyOp17
 70
     1
102
RTVSPropertyOp18
 70
     1
102
RTVSPropertyOp19
 70
     1
102
RTVSPropertyOp20
 70
     1
102
RTVSPropertyOp21
 70
     1
102
RTVSPropertyOp22
 70
     1
102
RTVSPropertyOp23
 70
     1
102
RTVSPropertyOp24
 70
     1
102
RTVSPropertyOp25
 70
     1
102
RTVSPropertyOp26
 70
     1
102
RTVSPropertyOp27
 70
     1
102
RTVSPropertyOp28
 70
     1
102
RTVSPropertyOp29
 70
     1
102
RTVSPropertyOp30
 70
     1
102
RTVSPropertyOp31
 70
     1
102
RTVSPropertyOp32
 70
     1
102
RTVSPropertyOp33
 70
     1
102
RTVSPropertyOp34
 70
     1
102
RTVSPropertyOp35
 70
     1
102
RTVSPropertyOp36
 70
     1
102
RTVSPropertyOp37
 70
     1
102
RTVSPropertyOp38
 70
     1
102
RTVSPropertyOp39
 70
     1
102
RTVSPropertyOp40
 70
     1
102
RTVSPropertyOp41
 70
     1
102
RTVSPropertyOp42
 70
     1
102
RTVSPropertyOp43
 70
     1
102
RTVSPropertyOp44
 70
     1
102
RTVSPropertyOp45
 70
     1
102
RTVSPropertyOp46
 70
     1
102
RTVSPropertyOp47
 70
     1
102
RTVSPropertyOp48
 70
     1
102
RTVSPropertyOp49
 70
     1
102
RTVSPropertyOp50
 70
     1
102
RTVSPropertyOp51
 70
     0
102
RTVSPropertyOp52
 70
     0
102
RTVSPropertyOp53
 70
     1
102
RTVSPropertyOp54
 70
     1
102
RTVSPropertyOp55
 70
     1
102
RTVSPropertyOp56
 70
     1
102
RTVSPropertyOp57
 70
     1
102
RTVSPost2010Prop28
280
     0
102
RTVSPost2010PropOp28
 70
     1
102
RTVSPost2010Prop29
280
     1
102
RTVSPost2010PropOp29
 70
     1
102
RTVSPost2010Prop30
280
     1
102
RTVSPost2010PropOp30
 70
     1
102
RTVSPost2010Prop31
280
     0
102
RTVSPost2010PropOp31
 70
     1
102
RTVSPost2010Prop32
280
     0
102
RTVSPost2010PropOp32
 70
     1
102
RTVSPost2010Prop33
280
     0
102
RTVSPost2010PropOp33
 70
     1
102
RTVSPost2010Prop34
280
     0
102
RTVSPost2010PropOp34
 70
     1
102
RTVSPost2010Prop35
280
     0
102
RTVSPost2010PropOp35
 70
     1
102
RTVSPost2010Prop36
280
     0
102
RTVSPost2010PropOp36
 70
     1
102
RTVSPost2010Prop37
 90
       50
102
RTVSPost2010PropOp37
 70
     1
102
RTVSPost2010Prop38
140
0.0
102
RTVSPost2010PropOp38
 70
     1
102
RTVSPost2010Prop39
140
1.0
102
RTVSPost2010PropOp39
 70
     1
102
RTVSPost2010Prop40
 90
        0
102
RTVSPost2010PropOp40
 70
     1
102
RTVSPost2010Prop41ColorIndex
 90
       18
102
RTVSPost2010Prop41ColorRGB
 90
        0
102
RTVSPost2010PropOp41
 70
     1
102
RTVSPost2010Prop42
 90
       50
102
RTVSPost2010PropOp42
 70
     1
102
RTVSPost2010Prop43
 90
        3
102
RTVSPost2010PropOp43
 70
     1
102
RTVSPost2010Prop44ColorIndex
 90
        5
102
RTVSPost2010Prop44ColorRGB
 90
      255
102
RTVSPost2010PropOp44
 70
     1
102
RTVSPost2010Prop45
280
     0
102
RTVSPost2010PropOp45
 70
     1
102
RTVSPost2010Prop46
 90
       50
102
RTVSPost2010PropOp46
 70
     1
102
RTVSPost2010Prop47
 90
       50
102
RTVSPost2010PropOp47
 70
     1
102
RTVSPost2010Prop48
 90
       50
102
RTVSPost2010PropOp48
 70
     1
102
RTVSPost2010Prop49
280
     0
102
RTVSPost2010PropOp49
 70
     1
102
RTVSPost2010Prop50
 90
       50
102
RTVSPost2010PropOp50
 70
     1
102
RTVSPost2010Prop51ColorIndex
 90
      256
102
RTVSPost2010Prop51ColorRGB
 90
-16777216
102
RTVSPost2010PropOp51
 70
     0
102
RTVSPost2010Prop52
140
1.0
102
RTVSPost2010PropOp52
 70
     0
102
RTVSPost2010Prop53
 90
        2
102
RTVSPost2010PropOp53
 70
     1
102
RTVSPost2010Prop54
  1
strokes_ogs.tif
102
RTVSPost2010PropOp54
 70
     1
102
RTVSPost2010Prop55
280
     0
102
RTVSPost2010PropOp55
 70
     1
102
RTVSPost2010Prop56
140
1.0
102
RTVSPost2010PropOp56
 70
     1
102
RTVSPost2010Prop57
140
1.0
102
RTVSPost2010PropOp57
 70
     1
  0
XRECORD
  5
48A
102
{ACAD_REACTORS
330
489
102
}
330
489
100
AcDbXrecord
280
     1
102
RTVSPropertyOp0
 70
     1
102
RTVSPropertyOp1
 70
     1
102
RTVSPropertyOp2
 70
     1
102
RTVSPropertyOp3
 70
     1
102
RTVSPropertyOp4
 70
     1
102
RTVSPropertyOp5
 70
     1
102
RTVSPropertyOp6
 70
     1
102
RTVSPropertyOp7
 70
     1
102
RTVSPropertyOp8
 70
     1
102
RTVSPropertyOp9
 70
     1
102
RTVSPropertyOp10
 70
     1
102
RTVSPropertyOp11
 70
     1
102
RTVSPropertyOp12
 70
     1
102
RTVSPropertyOp13
 70
     1
102
RTVSPropertyOp14
 70
     1
102
RTVSPropertyOp15
 70
     1
102
RTVSPropertyOp16
 70
     1
102
RTVSPropertyOp17
 70
     1
102
RTVSPropertyOp18
 70
     1
102
RTVSPropertyOp19
 70
     1
102
RTVSPropertyOp20
 70
     1
102
RTVSPropertyOp21
 70
     1
102
RTVSPropertyOp22
 70
     1
102
RTVSPropertyOp23
 70
     1
102
RTVSPropertyOp24
 70
     1
102
RTVSPropertyOp25
 70
     1
102
RTVSPropertyOp26
 70
     1
102
RTVSPropertyOp27
 70
     1
102
RTVSPropertyOp28
 70
     1
102
RTVSPropertyOp29
 70
     1
102
RTVSPropertyOp30
 70
     1
102
RTVSPropertyOp31
 70
     1
102
RTVSPropertyOp32
 70
     1
102
RTVSPropertyOp33
 70
     1
102
RTVSPropertyOp34
 70
     1
102
RTVSPropertyOp35
 70
     1
102
RTVSPropertyOp36
 70
     1
102
RTVSPropertyOp37
 70
     1
102
RTVSPropertyOp38
 70
     1
102
RTVSPropertyOp39
 70
     1
102
RTVSPropertyOp40
 70
     1
102
RTVSPropertyOp41
 70
     1
102
RTVSPropertyOp42
 70
     1
102
RTVSPropertyOp43
 70
     1
102
RTVSPropertyOp44
 70
     1
102
RTVSPropertyOp45
 70
     1
102
RTVSPropertyOp46
 70
     1
102
RTVSPropertyOp47
 70
     1
102
RTVSPropertyOp48
 70
     1
102
RTVSPropertyOp49
 70
     1
102
RTVSPropertyOp50
 70
     1
102
RTVSPropertyOp51
 70
     0
102
RTVSPropertyOp52
 70
     0
102
RTVSPropertyOp53
 70
     1
102
RTVSPropertyOp54
 70
     1
102
RTVSPropertyOp55
 70
     1
102
RTVSPropertyOp56
 70
     1
102
RTVSPropertyOp57
 70
     1
102
RTVSPost2010Prop28
280
     0
102
RTVSPost2010PropOp28
 70
     1
102
RTVSPost2010Prop29
280
     1
102
RTVSPost2010PropOp29
 70
     1
102
RTVSPost2010Prop30
280
     1
102
RTVSPost2010PropOp30
 70
     1
102
RTVSPost2010Prop31
280
     0
102
RTVSPost2010PropOp31
 70
     1
102
RTVSPost2010Prop32
280
     0
102
RTVSPost2010PropOp32
 70
     1
102
RTVSPost2010Prop33
280
     0
102
RTVSPost2010PropOp33
 70
     1
102
RTVSPost2010Prop34
280
     0
102
RTVSPost2010PropOp34
 70
     1
102
RTVSPost2010Prop35
280
     0
102
RTVSPost2010PropOp35
 70
     1
102
RTVSPost2010Prop36
280
     0
102
RTVSPost2010PropOp36
 70
     1
102
RTVSPost2010Prop37
 90
       50
102
RTVSPost2010PropOp37
 70
     1
102
RTVSPost2010Prop38
140
0.0
102
RTVSPost2010PropOp38
 70
     1
102
RTVSPost2010Prop39
140
1.0
102
RTVSPost2010PropOp39
 70
     1
102
RTVSPost2010Prop40
 90
        0
102
RTVSPost2010PropOp40
 70
     1
102
RTVSPost2010Prop41ColorIndex
 90
       18
102
RTVSPost2010Prop41ColorRGB
 90
        0
102
RTVSPost2010PropOp41
 70
     1
102
RTVSPost2010Prop42
 90
       50
102
RTVSPost2010PropOp42
 70
     1
102
RTVSPost2010Prop43
 90
        3
102
RTVSPost2010PropOp43
 70
     1
102
RTVSPost2010Prop44ColorIndex
 90
        5
102
RTVSPost2010Prop44ColorRGB
 90
      255
102
RTVSPost2010PropOp44
 70
     1
102
RTVSPost2010Prop45
280
     0
102
RTVSPost2010PropOp45
 70
     1
102
RTVSPost2010Prop46
 90
       50
102
RTVSPost2010PropOp46
 70
     1
102
RTVSPost2010Prop47
 90
       50
102
RTVSPost2010PropOp47
 70
     1
102
RTVSPost2010Prop48
 90
       50
102
RTVSPost2010PropOp48
 70
     1
102
RTVSPost2010Prop49
280
     0
102
RTVSPost2010PropOp49
 70
     1
102
RTVSPost2010Prop50
 90
       50
102
RTVSPost2010PropOp50
 70
     1
102
RTVSPost2010Prop51ColorIndex
 90
      256
102
RTVSPost2010Prop51ColorRGB
 90
-16777216
102
RTVSPost2010PropOp51
 70
     0
102
RTVSPost2010Prop52
140
1.0
102
RTVSPost2010PropOp52
 70
     0
102
RTVSPost2010Prop53
 90
        2
102
RTVSPost2010PropOp53
 70
     1
102
RTVSPost2010Prop54
  1
strokes_ogs.tif
102
RTVSPost2010PropOp54
 70
     1
102
RTVSPost2010Prop55
280
     0
102
RTVSPost2010PropOp55
 70
     1
102
RTVSPost2010Prop56
140
1.0
102
RTVSPost2010PropOp56
 70
     1
102
RTVSPost2010Prop57
140
1.0
102
RTVSPost2010PropOp57
 70
     1
  0
XRECORD
  5
48C
102
{ACAD_REACTORS
330
48B
102
}
330
48B
100
AcDbXrecord
280
     1
102
RTVSPropertyOp0
 70
     1
102
RTVSPropertyOp1
 70
     1
102
RTVSPropertyOp2
 70
     1
102
RTVSPropertyOp3
 70
     1
102
RTVSPropertyOp4
 70
     1
102
RTVSPropertyOp5
 70
     1
102
RTVSPropertyOp6
 70
     1
102
RTVSPropertyOp7
 70
     1
102
RTVSPropertyOp8
 70
     1
102
RTVSPropertyOp9
 70
     1
102
RTVSPropertyOp10
 70
     1
102
RTVSPropertyOp11
 70
     1
102
RTVSPropertyOp12
 70
     1
102
RTVSPropertyOp13
 70
     1
102
RTVSPropertyOp14
 70
     1
102
RTVSPropertyOp15
 70
     1
102
RTVSPropertyOp16
 70
     1
102
RTVSPropertyOp17
 70
     1
102
RTVSPropertyOp18
 70
     1
102
RTVSPropertyOp19
 70
     1
102
RTVSPropertyOp20
 70
     1
102
RTVSPropertyOp21
 70
     1
102
RTVSPropertyOp22
 70
     1
102
RTVSPropertyOp23
 70
     1
102
RTVSPropertyOp24
 70
     1
102
RTVSPropertyOp25
 70
     1
102
RTVSPropertyOp26
 70
     1
102
RTVSPropertyOp27
 70
     1
102
RTVSPropertyOp28
 70
     1
102
RTVSPropertyOp29
 70
     1
102
RTVSPropertyOp30
 70
     1
102
RTVSPropertyOp31
 70
     1
102
RTVSPropertyOp32
 70
     1
102
RTVSPropertyOp33
 70
     1
102
RTVSPropertyOp34
 70
     1
102
RTVSPropertyOp35
 70
     1
102
RTVSPropertyOp36
 70
     1
102
RTVSPropertyOp37
 70
     1
102
RTVSPropertyOp38
 70
     1
102
RTVSPropertyOp39
 70
     1
102
RTVSPropertyOp40
 70
     1
102
RTVSPropertyOp41
 70
     1
102
RTVSPropertyOp42
 70
     1
102
RTVSPropertyOp43
 70
     1
102
RTVSPropertyOp44
 70
     1
102
RTVSPropertyOp45
 70
     1
102
RTVSPropertyOp46
 70
     1
102
RTVSPropertyOp47
 70
     1
102
RTVSPropertyOp48
 70
     1
102
RTVSPropertyOp49
 70
     1
102
RTVSPropertyOp50
 70
     1
102
RTVSPropertyOp51
 70
     0
102
RTVSPropertyOp52
 70
     0
102
RTVSPropertyOp53
 70
     1
102
RTVSPropertyOp54
 70
     1
102
RTVSPropertyOp55
 70
     1
102
RTVSPropertyOp56
 70
     1
102
RTVSPropertyOp57
 70
     1
102
RTVSPost2010Prop28
280
     0
102
RTVSPost2010PropOp28
 70
     1
102
RTVSPost2010Prop29
280
     1
102
RTVSPost2010PropOp29
 70
     1
102
RTVSPost2010Prop30
280
     1
102
RTVSPost2010PropOp30
 70
     1
102
RTVSPost2010Prop31
280
     0
102
RTVSPost2010PropOp31
 70
     1
102
RTVSPost2010Prop32
280
     0
102
RTVSPost2010PropOp32
 70
     1
102
RTVSPost2010Prop33
280
     0
102
RTVSPost2010PropOp33
 70
     1
102
RTVSPost2010Prop34
280
     0
102
RTVSPost2010PropOp34
 70
     1
102
RTVSPost2010Prop35
280
     0
102
RTVSPost2010PropOp35
 70
     1
102
RTVSPost2010Prop36
280
     0
102
RTVSPost2010PropOp36
 70
     1
102
RTVSPost2010Prop37
 90
       50
102
RTVSPost2010PropOp37
 70
     1
102
RTVSPost2010Prop38
140
0.0
102
RTVSPost2010PropOp38
 70
     1
102
RTVSPost2010Prop39
140
1.0
102
RTVSPost2010PropOp39
 70
     1
102
RTVSPost2010Prop40
 90
        0
102
RTVSPost2010PropOp40
 70
     1
102
RTVSPost2010Prop41ColorIndex
 90
       18
102
RTVSPost2010Prop41ColorRGB
 90
        0
102
RTVSPost2010PropOp41
 70
     1
102
RTVSPost2010Prop42
 90
       50
102
RTVSPost2010PropOp42
 70
     1
102
RTVSPost2010Prop43
 90
        3
102
RTVSPost2010PropOp43
 70
     1
102
RTVSPost2010Prop44ColorIndex
 90
        5
102
RTVSPost2010Prop44ColorRGB
 90
      255
102
RTVSPost2010PropOp44
 70
     1
102
RTVSPost2010Prop45
280
     0
102
RTVSPost2010PropOp45
 70
     1
102
RTVSPost2010Prop46
 90
       50
102
RTVSPost2010PropOp46
 70
     1
102
RTVSPost2010Prop47
 90
       50
102
RTVSPost2010PropOp47
 70
     1
102
RTVSPost2010Prop48
 90
       50
102
RTVSPost2010PropOp48
 70
     1
102
RTVSPost2010Prop49
280
     0
102
RTVSPost2010PropOp49
 70
     1
102
RTVSPost2010Prop50
 90
       50
102
RTVSPost2010PropOp50
 70
     1
102
RTVSPost2010Prop51ColorIndex
 90
      256
102
RTVSPost2010Prop51ColorRGB
 90
-16777216
102
RTVSPost2010PropOp51
 70
     0
102
RTVSPost2010Prop52
140
1.0
102
RTVSPost2010PropOp52
 70
     0
102
RTVSPost2010Prop53
 90
        2
102
RTVSPost2010PropOp53
 70
     1
102
RTVSPost2010Prop54
  1
strokes_ogs.tif
102
RTVSPost2010PropOp54
 70
     1
102
RTVSPost2010Prop55
280
     0
102
RTVSPost2010PropOp55
 70
     1
102
RTVSPost2010Prop56
140
1.0
102
RTVSPost2010PropOp56
 70
     1
102
RTVSPost2010Prop57
140
1.0
102
RTVSPost2010PropOp57
 70
     1
  0
XRECORD
  5
48E
102
{ACAD_REACTORS
330
48D
102
}
330
48D
100
AcDbXrecord
280
     1
102
RTVSPropertyOp0
 70
     1
102
RTVSPropertyOp1
 70
     1
102
RTVSPropertyOp2
 70
     1
102
RTVSPropertyOp3
 70
     1
102
RTVSPropertyOp4
 70
     1
102
RTVSPropertyOp5
 70
     1
102
RTVSPropertyOp6
 70
     1
102
RTVSPropertyOp7
 70
     1
102
RTVSPropertyOp8
 70
     1
102
RTVSPropertyOp9
 70
     1
102
RTVSPropertyOp10
 70
     1
102
RTVSPropertyOp11
 70
     1
102
RTVSPropertyOp12
 70
     1
102
RTVSPropertyOp13
 70
     1
102
RTVSPropertyOp14
 70
     1
102
RTVSPropertyOp15
 70
     1
102
RTVSPropertyOp16
 70
     1
102
RTVSPropertyOp17
 70
     1
102
RTVSPropertyOp18
 70
     1
102
RTVSPropertyOp19
 70
     1
102
RTVSPropertyOp20
 70
     1
102
RTVSPropertyOp21
 70
     1
102
RTVSPropertyOp22
 70
     1
102
RTVSPropertyOp23
 70
     1
102
RTVSPropertyOp24
 70
     1
102
RTVSPropertyOp25
 70
     1
102
RTVSPropertyOp26
 70
     1
102
RTVSPropertyOp27
 70
     1
102
RTVSPropertyOp28
 70
     1
102
RTVSPropertyOp29
 70
     1
102
RTVSPropertyOp30
 70
     1
102
RTVSPropertyOp31
 70
     1
102
RTVSPropertyOp32
 70
     1
102
RTVSPropertyOp33
 70
     1
102
RTVSPropertyOp34
 70
     1
102
RTVSPropertyOp35
 70
     1
102
RTVSPropertyOp36
 70
     1
102
RTVSPropertyOp37
 70
     1
102
RTVSPropertyOp38
 70
     1
102
RTVSPropertyOp39
 70
     1
102
RTVSPropertyOp40
 70
     1
102
RTVSPropertyOp41
 70
     1
102
RTVSPropertyOp42
 70
     1
102
RTVSPropertyOp43
 70
     1
102
RTVSPropertyOp44
 70
     1
102
RTVSPropertyOp45
 70
     1
102
RTVSPropertyOp46
 70
     1
102
RTVSPropertyOp47
 70
     1
102
RTVSPropertyOp48
 70
     1
102
RTVSPropertyOp49
 70
     1
102
RTVSPropertyOp50
 70
     1
102
RTVSPropertyOp51
 70
     0
102
RTVSPropertyOp52
 70
     0
102
RTVSPropertyOp53
 70
     1
102
RTVSPropertyOp54
 70
     1
102
RTVSPropertyOp55
 70
     1
102
RTVSPropertyOp56
 70
     1
102
RTVSPropertyOp57
 70
     1
102
RTVSPost2010Prop28
280
     0
102
RTVSPost2010PropOp28
 70
     1
102
RTVSPost2010Prop29
280
     1
102
RTVSPost2010PropOp29
 70
     1
102
RTVSPost2010Prop30
280
     1
102
RTVSPost2010PropOp30
 70
     1
102
RTVSPost2010Prop31
280
     0
102
RTVSPost2010PropOp31
 70
     1
102
RTVSPost2010Prop32
280
     0
102
RTVSPost2010PropOp32
 70
     1
102
RTVSPost2010Prop33
280
     0
102
RTVSPost2010PropOp33
 70
     1
102
RTVSPost2010Prop34
280
     0
102
RTVSPost2010PropOp34
 70
     1
102
RTVSPost2010Prop35
280
     0
102
RTVSPost2010PropOp35
 70
     1
102
RTVSPost2010Prop36
280
     0
102
RTVSPost2010PropOp36
 70
     1
102
RTVSPost2010Prop37
 90
       50
102
RTVSPost2010PropOp37
 70
     1
102
RTVSPost2010Prop38
140
0.0
102
RTVSPost2010PropOp38
 70
     1
102
RTVSPost2010Prop39
140
1.0
102
RTVSPost2010PropOp39
 70
     1
102
RTVSPost2010Prop40
 90
        0
102
RTVSPost2010PropOp40
 70
     1
102
RTVSPost2010Prop41ColorIndex
 90
       18
102
RTVSPost2010Prop41ColorRGB
 90
        0
102
RTVSPost2010PropOp41
 70
     1
102
RTVSPost2010Prop42
 90
       50
102
RTVSPost2010PropOp42
 70
     1
102
RTVSPost2010Prop43
 90
        3
102
RTVSPost2010PropOp43
 70
     1
102
RTVSPost2010Prop44ColorIndex
 90
        5
102
RTVSPost2010Prop44ColorRGB
 90
      255
102
RTVSPost2010PropOp44
 70
     1
102
RTVSPost2010Prop45
280
     0
102
RTVSPost2010PropOp45
 70
     1
102
RTVSPost2010Prop46
 90
       50
102
RTVSPost2010PropOp46
 70
     1
102
RTVSPost2010Prop47
 90
       50
102
RTVSPost2010PropOp47
 70
     1
102
RTVSPost2010Prop48
 90
       50
102
RTVSPost2010PropOp48
 70
     1
102
RTVSPost2010Prop49
280
     0
102
RTVSPost2010PropOp49
 70
     1
102
RTVSPost2010Prop50
 90
       50
102
RTVSPost2010PropOp50
 70
     1
102
RTVSPost2010Prop51ColorIndex
 90
      256
102
RTVSPost2010Prop51ColorRGB
 90
-16777216
102
RTVSPost2010PropOp51
 70
     0
102
RTVSPost2010Prop52
140
1.0
102
RTVSPost2010PropOp52
 70
     0
102
RTVSPost2010Prop53
 90
        2
102
RTVSPost2010PropOp53
 70
     1
102
RTVSPost2010Prop54
  1
strokes_ogs.tif
102
RTVSPost2010PropOp54
 70
     1
102
RTVSPost2010Prop55
280
     0
102
RTVSPost2010PropOp55
 70
     1
102
RTVSPost2010Prop56
140
1.0
102
RTVSPost2010PropOp56
 70
     1
102
RTVSPost2010Prop57
140
1.0
102
RTVSPost2010PropOp57
 70
     1
  0
XRECORD
  5
494
102
{ACAD_REACTORS
330
493
102
}
330
493
100
AcDbXrecord
280
     1
102
RTVSPropertyOp0
 70
     1
102
RTVSPropertyOp1
 70
     1
102
RTVSPropertyOp2
 70
     1
102
RTVSPropertyOp3
 70
     1
102
RTVSPropertyOp4
 70
     1
102
RTVSPropertyOp5
 70
     1
102
RTVSPropertyOp6
 70
     1
102
RTVSPropertyOp7
 70
     1
102
RTVSPropertyOp8
 70
     1
102
RTVSPropertyOp9
 70
     1
102
RTVSPropertyOp10
 70
     1
102
RTVSPropertyOp11
 70
     1
102
RTVSPropertyOp12
 70
     1
102
RTVSPropertyOp13
 70
     1
102
RTVSPropertyOp14
 70
     1
102
RTVSPropertyOp15
 70
     1
102
RTVSPropertyOp16
 70
     1
102
RTVSPropertyOp17
 70
     1
102
RTVSPropertyOp18
 70
     1
102
RTVSPropertyOp19
 70
     1
102
RTVSPropertyOp20
 70
     1
102
RTVSPropertyOp21
 70
     1
102
RTVSPropertyOp22
 70
     1
102
RTVSPropertyOp23
 70
     1
102
RTVSPropertyOp24
 70
     1
102
RTVSPropertyOp25
 70
     1
102
RTVSPropertyOp26
 70
     1
102
RTVSPropertyOp27
 70
     1
102
RTVSPropertyOp28
 70
     1
102
RTVSPropertyOp29
 70
     1
102
RTVSPropertyOp30
 70
     1
102
RTVSPropertyOp31
 70
     1
102
RTVSPropertyOp32
 70
     1
102
RTVSPropertyOp33
 70
     1
102
RTVSPropertyOp34
 70
     1
102
RTVSPropertyOp35
 70
     1
102
RTVSPropertyOp36
 70
     1
102
RTVSPropertyOp37
 70
     1
102
RTVSPropertyOp38
 70
     1
102
RTVSPropertyOp39
 70
     1
102
RTVSPropertyOp40
 70
     1
102
RTVSPropertyOp41
 70
     1
102
RTVSPropertyOp42
 70
     1
102
RTVSPropertyOp43
 70
     1
102
RTVSPropertyOp44
 70
     1
102
RTVSPropertyOp45
 70
     1
102
RTVSPropertyOp46
 70
     1
102
RTVSPropertyOp47
 70
     1
102
RTVSPropertyOp48
 70
     1
102
RTVSPropertyOp49
 70
     1
102
RTVSPropertyOp50
 70
     1
102
RTVSPropertyOp51
 70
     0
102
RTVSPropertyOp52
 70
     0
102
RTVSPropertyOp53
 70
     1
102
RTVSPropertyOp54
 70
     1
102
RTVSPropertyOp55
 70
     1
102
RTVSPropertyOp56
 70
     1
102
RTVSPropertyOp57
 70
     1
102
RTVSPost2010Prop28
280
     0
102
RTVSPost2010PropOp28
 70
     1
102
RTVSPost2010Prop29
280
     1
102
RTVSPost2010PropOp29
 70
     1
102
RTVSPost2010Prop30
280
     1
102
RTVSPost2010PropOp30
 70
     1
102
RTVSPost2010Prop31
280
     0
102
RTVSPost2010PropOp31
 70
     1
102
RTVSPost2010Prop32
280
     0
102
RTVSPost2010PropOp32
 70
     1
102
RTVSPost2010Prop33
280
     0
102
RTVSPost2010PropOp33
 70
     1
102
RTVSPost2010Prop34
280
     0
102
RTVSPost2010PropOp34
 70
     1
102
RTVSPost2010Prop35
280
     0
102
RTVSPost2010PropOp35
 70
     1
102
RTVSPost2010Prop36
280
     0
102
RTVSPost2010PropOp36
 70
     1
102
RTVSPost2010Prop37
 90
       50
102
RTVSPost2010PropOp37
 70
     1
102
RTVSPost2010Prop38
140
0.0
102
RTVSPost2010PropOp38
 70
     1
102
RTVSPost2010Prop39
140
1.0
102
RTVSPost2010PropOp39
 70
     1
102
RTVSPost2010Prop40
 90
        0
102
RTVSPost2010PropOp40
 70
     1
102
RTVSPost2010Prop41ColorIndex
 90
       18
102
RTVSPost2010Prop41ColorRGB
 90
        0
102
RTVSPost2010PropOp41
 70
     1
102
RTVSPost2010Prop42
 90
       50
102
RTVSPost2010PropOp42
 70
     1
102
RTVSPost2010Prop43
 90
        3
102
RTVSPost2010PropOp43
 70
     1
102
RTVSPost2010Prop44ColorIndex
 90
        5
102
RTVSPost2010Prop44ColorRGB
 90
      255
102
RTVSPost2010PropOp44
 70
     1
102
RTVSPost2010Prop45
280
     0
102
RTVSPost2010PropOp45
 70
     1
102
RTVSPost2010Prop46
 90
       50
102
RTVSPost2010PropOp46
 70
     1
102
RTVSPost2010Prop47
 90
       50
102
RTVSPost2010PropOp47
 70
     1
102
RTVSPost2010Prop48
 90
       50
102
RTVSPost2010PropOp48
 70
     1
102
RTVSPost2010Prop49
280
     0
102
RTVSPost2010PropOp49
 70
     1
102
RTVSPost2010Prop50
 90
       50
102
RTVSPost2010PropOp50
 70
     1
102
RTVSPost2010Prop51ColorIndex
 90
      256
102
RTVSPost2010Prop51ColorRGB
 90
-16777216
102
RTVSPost2010PropOp51
 70
     0
102
RTVSPost2010Prop52
140
1.0
102
RTVSPost2010PropOp52
 70
     0
102
RTVSPost2010Prop53
 90
        2
102
RTVSPost2010PropOp53
 70
     1
102
RTVSPost2010Prop54
  1
strokes_ogs.tif
102
RTVSPost2010PropOp54
 70
     1
102
RTVSPost2010Prop55
280
     0
102
RTVSPost2010PropOp55
 70
     1
102
RTVSPost2010Prop56
140
1.0
102
RTVSPost2010PropOp56
 70
     1
102
RTVSPost2010Prop57
140
1.0
102
RTVSPost2010PropOp57
 70
     1
  0
XRECORD
  5
4A8
102
{ACAD_REACTORS
330
4A7
102
}
330
4A7
100
AcDbXrecord
280
     1
102
RTVSPropertyOp0
 70
     0
102
RTVSPropertyOp1
 70
     0
102
RTVSPropertyOp2
 70
     0
102
RTVSPropertyOp3
 70
     0
102
RTVSPropertyOp4
 70
     0
102
RTVSPropertyOp5
 70
     0
102
RTVSPropertyOp6
 70
     0
102
RTVSPropertyOp7
 70
     0
102
RTVSPropertyOp8
 70
     0
102
RTVSPropertyOp9
 70
     0
102
RTVSPropertyOp10
 70
     0
102
RTVSPropertyOp11
 70
     0
102
RTVSPropertyOp12
 70
     0
102
RTVSPropertyOp13
 70
     0
102
RTVSPropertyOp14
 70
     0
102
RTVSPropertyOp15
 70
     0
102
RTVSPropertyOp16
 70
     0
102
RTVSPropertyOp17
 70
     0
102
RTVSPropertyOp18
 70
     0
102
RTVSPropertyOp19
 70
     0
102
RTVSPropertyOp20
 70
     0
102
RTVSPropertyOp21
 70
     0
102
RTVSPropertyOp22
 70
     0
102
RTVSPropertyOp23
 70
     0
102
RTVSPropertyOp24
 70
     0
102
RTVSPropertyOp25
 70
     0
102
RTVSPropertyOp26
 70
     0
102
RTVSPropertyOp27
 70
     0
102
RTVSPropertyOp28
 70
     1
102
RTVSPropertyOp29
 70
     1
102
RTVSPropertyOp30
 70
     1
102
RTVSPropertyOp31
 70
     1
102
RTVSPropertyOp32
 70
     1
102
RTVSPropertyOp33
 70
     1
102
RTVSPropertyOp34
 70
     1
102
RTVSPropertyOp35
 70
     1
102
RTVSPropertyOp36
 70
     1
102
RTVSPropertyOp37
 70
     1
102
RTVSPropertyOp38
 70
     1
102
RTVSPropertyOp39
 70
     1
102
RTVSPropertyOp40
 70
     1
102
RTVSPropertyOp41
 70
     1
102
RTVSPropertyOp42
 70
     1
102
RTVSPropertyOp43
 70
     1
102
RTVSPropertyOp44
 70
     1
102
RTVSPropertyOp45
 70
     1
102
RTVSPropertyOp46
 70
     1
102
RTVSPropertyOp47
 70
     1
102
RTVSPropertyOp48
 70
     1
102
RTVSPropertyOp49
 70
     1
102
RTVSPropertyOp50
 70
     1
102
RTVSPropertyOp51
 70
     0
102
RTVSPropertyOp52
 70
     0
102
RTVSPropertyOp53
 70
     1
102
RTVSPropertyOp54
 70
     1
102
RTVSPropertyOp55
 70
     1
102
RTVSPropertyOp56
 70
     1
102
RTVSPropertyOp57
 70
     1
102
RTVSPost2010Prop28
280
     0
102
RTVSPost2010PropOp28
 70
     1
102
RTVSPost2010Prop29
280
     1
102
RTVSPost2010PropOp29
 70
     1
102
RTVSPost2010Prop30
280
     1
102
RTVSPost2010PropOp30
 70
     1
102
RTVSPost2010Prop31
280
     0
102
RTVSPost2010PropOp31
 70
     1
102
RTVSPost2010Prop32
280
     0
102
RTVSPost2010PropOp32
 70
     1
102
RTVSPost2010Prop33
280
     0
102
RTVSPost2010PropOp33
 70
     1
102
RTVSPost2010Prop34
280
     0
102
RTVSPost2010PropOp34
 70
     1
102
RTVSPost2010Prop35
280
     0
102
RTVSPost2010PropOp35
 70
     1
102
RTVSPost2010Prop36
280
     0
102
RTVSPost2010PropOp36
 70
     1
102
RTVSPost2010Prop37
 90
       50
102
RTVSPost2010PropOp37
 70
     1
102
RTVSPost2010Prop38
140
0.0
102
RTVSPost2010PropOp38
 70
     1
102
RTVSPost2010Prop39
140
1.0
102
RTVSPost2010PropOp39
 70
     1
102
RTVSPost2010Prop40
 90
        0
102
RTVSPost2010PropOp40
 70
     1
102
RTVSPost2010Prop41ColorIndex
 90
       18
102
RTVSPost2010Prop41ColorRGB
 90
        0
102
RTVSPost2010PropOp41
 70
     1
102
RTVSPost2010Prop42
 90
       50
102
RTVSPost2010PropOp42
 70
     1
102
RTVSPost2010Prop43
 90
        3
102
RTVSPost2010PropOp43
 70
     1
102
RTVSPost2010Prop44ColorIndex
 90
        5
102
RTVSPost2010Prop44ColorRGB
 90
      255
102
RTVSPost2010PropOp44
 70
     1
102
RTVSPost2010Prop45
280
     0
102
RTVSPost2010PropOp45
 70
     1
102
RTVSPost2010Prop46
 90
       50
102
RTVSPost2010PropOp46
 70
     1
102
RTVSPost2010Prop47
 90
       50
102
RTVSPost2010PropOp47
 70
     1
102
RTVSPost2010Prop48
 90
       50
102
RTVSPost2010PropOp48
 70
     1
102
RTVSPost2010Prop49
280
     0
102
RTVSPost2010PropOp49
 70
     1
102
RTVSPost2010Prop50
 90
       50
102
RTVSPost2010PropOp50
 70
     1
102
RTVSPost2010Prop51ColorIndex
 90
      256
102
RTVSPost2010Prop51ColorRGB
 90
-16777216
102
RTVSPost2010PropOp51
 70
     0
102
RTVSPost2010Prop52
140
1.0
102
RTVSPost2010PropOp52
 70
     0
102
RTVSPost2010Prop53
 90
        2
102
RTVSPost2010PropOp53
 70
     1
102
RTVSPost2010Prop54
  1
strokes_ogs.tif
102
RTVSPost2010PropOp54
 70
     1
102
RTVSPost2010Prop55
280
     0
102
RTVSPost2010PropOp55
 70
     1
102
RTVSPost2010Prop56
140
1.0
102
RTVSPost2010PropOp56
 70
     1
102
RTVSPost2010Prop57
140
1.0
102
RTVSPost2010PropOp57
 70
     1
  0
XRECORD
  5
4A2
102
{ACAD_REACTORS
330
4A1
102
}
330
4A1
100
AcDbXrecord
280
     1
102
RTVSPropertyOp0
 70
     1
102
RTVSPropertyOp1
 70
     1
102
RTVSPropertyOp2
 70
     1
102
RTVSPropertyOp3
 70
     1
102
RTVSPropertyOp4
 70
     1
102
RTVSPropertyOp5
 70
     1
102
RTVSPropertyOp6
 70
     1
102
RTVSPropertyOp7
 70
     1
102
RTVSPropertyOp8
 70
     1
102
RTVSPropertyOp9
 70
     1
102
RTVSPropertyOp10
 70
     1
102
RTVSPropertyOp11
 70
     1
102
RTVSPropertyOp12
 70
     1
102
RTVSPropertyOp13
 70
     1
102
RTVSPropertyOp14
 70
     1
102
RTVSPropertyOp15
 70
     1
102
RTVSPropertyOp16
 70
     1
102
RTVSPropertyOp17
 70
     1
102
RTVSPropertyOp18
 70
     1
102
RTVSPropertyOp19
 70
     1
102
RTVSPropertyOp20
 70
     1
102
RTVSPropertyOp21
 70
     1
102
RTVSPropertyOp22
 70
     1
102
RTVSPropertyOp23
 70
     1
102
RTVSPropertyOp24
 70
     1
102
RTVSPropertyOp25
 70
     1
102
RTVSPropertyOp26
 70
     1
102
RTVSPropertyOp27
 70
     1
102
RTVSPropertyOp28
 70
     1
102
RTVSPropertyOp29
 70
     1
102
RTVSPropertyOp30
 70
     1
102
RTVSPropertyOp31
 70
     1
102
RTVSPropertyOp32
 70
     1
102
RTVSPropertyOp33
 70
     1
102
RTVSPropertyOp34
 70
     1
102
RTVSPropertyOp35
 70
     1
102
RTVSPropertyOp36
 70
     1
102
RTVSPropertyOp37
 70
     1
102
RTVSPropertyOp38
 70
     1
102
RTVSPropertyOp39
 70
     1
102
RTVSPropertyOp40
 70
     1
102
RTVSPropertyOp41
 70
     1
102
RTVSPropertyOp42
 70
     1
102
RTVSPropertyOp43
 70
     1
102
RTVSPropertyOp44
 70
     1
102
RTVSPropertyOp45
 70
     1
102
RTVSPropertyOp46
 70
     1
102
RTVSPropertyOp47
 70
     1
102
RTVSPropertyOp48
 70
     1
102
RTVSPropertyOp49
 70
     1
102
RTVSPropertyOp50
 70
     1
102
RTVSPropertyOp51
 70
     0
102
RTVSPropertyOp52
 70
     0
102
RTVSPropertyOp53
 70
     1
102
RTVSPropertyOp54
 70
     1
102
RTVSPropertyOp55
 70
     1
102
RTVSPropertyOp56
 70
     1
102
RTVSPropertyOp57
 70
     1
102
RTVSPost2010Prop28
280
     0
102
RTVSPost2010PropOp28
 70
     1
102
RTVSPost2010Prop29
280
     1
102
RTVSPost2010PropOp29
 70
     1
102
RTVSPost2010Prop30
280
     1
102
RTVSPost2010PropOp30
 70
     1
102
RTVSPost2010Prop31
280
     0
102
RTVSPost2010PropOp31
 70
     1
102
RTVSPost2010Prop32
280
     0
102
RTVSPost2010PropOp32
 70
     1
102
RTVSPost2010Prop33
280
     0
102
RTVSPost2010PropOp33
 70
     1
102
RTVSPost2010Prop34
280
     0
102
RTVSPost2010PropOp34
 70
     1
102
RTVSPost2010Prop35
280
     0
102
RTVSPost2010PropOp35
 70
     1
102
RTVSPost2010Prop36
280
     0
102
RTVSPost2010PropOp36
 70
     1
102
RTVSPost2010Prop37
 90
       50
102
RTVSPost2010PropOp37
 70
     1
102
RTVSPost2010Prop38
140
0.0
102
RTVSPost2010PropOp38
 70
     1
102
RTVSPost2010Prop39
140
1.0
102
RTVSPost2010PropOp39
 70
     1
102
RTVSPost2010Prop40
 90
        0
102
RTVSPost2010PropOp40
 70
     1
102
RTVSPost2010Prop41ColorIndex
 90
       18
102
RTVSPost2010Prop41ColorRGB
 90
        0
102
RTVSPost2010PropOp41
 70
     1
102
RTVSPost2010Prop42
 90
       50
102
RTVSPost2010PropOp42
 70
     1
102
RTVSPost2010Prop43
 90
        3
102
RTVSPost2010PropOp43
 70
     1
102
RTVSPost2010Prop44ColorIndex
 90
        5
102
RTVSPost2010Prop44ColorRGB
 90
      255
102
RTVSPost2010PropOp44
 70
     1
102
RTVSPost2010Prop45
280
     0
102
RTVSPost2010PropOp45
 70
     1
102
RTVSPost2010Prop46
 90
       50
102
RTVSPost2010PropOp46
 70
     1
102
RTVSPost2010Prop47
 90
       50
102
RTVSPost2010PropOp47
 70
     1
102
RTVSPost2010Prop48
 90
       50
102
RTVSPost2010PropOp48
 70
     1
102
RTVSPost2010Prop49
280
     0
102
RTVSPost2010PropOp49
 70
     1
102
RTVSPost2010Prop50
 90
       50
102
RTVSPost2010PropOp50
 70
     1
102
RTVSPost2010Prop51ColorIndex
 90
      256
102
RTVSPost2010Prop51ColorRGB
 90
-16777216
102
RTVSPost2010PropOp51
 70
     0
102
RTVSPost2010Prop52
140
1.0
102
RTVSPost2010PropOp52
 70
     0
102
RTVSPost2010Prop53
 90
        2
102
RTVSPost2010PropOp53
 70
     1
102
RTVSPost2010Prop54
  1
strokes_ogs.tif
102
RTVSPost2010PropOp54
 70
     1
102
RTVSPost2010Prop55
280
     0
102
RTVSPost2010PropOp55
 70
     1
102
RTVSPost2010Prop56
140
1.0
102
RTVSPost2010PropOp56
 70
     1
102
RTVSPost2010Prop57
140
1.0
102
RTVSPost2010PropOp57
 70
     1
  0
XRECORD
  5
4AA
102
{ACAD_REACTORS
330
4A9
102
}
330
4A9
100
AcDbXrecord
280
     1
102
RTVSPropertyOp0
 70
     0
102
RTVSPropertyOp1
 70
     0
102
RTVSPropertyOp2
 70
     0
102
RTVSPropertyOp3
 70
     0
102
RTVSPropertyOp4
 70
     0
102
RTVSPropertyOp5
 70
     0
102
RTVSPropertyOp6
 70
     0
102
RTVSPropertyOp7
 70
     0
102
RTVSPropertyOp8
 70
     0
102
RTVSPropertyOp9
 70
     0
102
RTVSPropertyOp10
 70
     0
102
RTVSPropertyOp11
 70
     0
102
RTVSPropertyOp12
 70
     0
102
RTVSPropertyOp13
 70
     0
102
RTVSPropertyOp14
 70
     0
102
RTVSPropertyOp15
 70
     0
102
RTVSPropertyOp16
 70
     0
102
RTVSPropertyOp17
 70
     0
102
RTVSPropertyOp18
 70
     0
102
RTVSPropertyOp19
 70
     0
102
RTVSPropertyOp20
 70
     0
102
RTVSPropertyOp21
 70
     0
102
RTVSPropertyOp22
 70
     0
102
RTVSPropertyOp23
 70
     0
102
RTVSPropertyOp24
 70
     0
102
RTVSPropertyOp25
 70
     0
102
RTVSPropertyOp26
 70
     0
102
RTVSPropertyOp27
 70
     0
102
RTVSPropertyOp28
 70
     1
102
RTVSPropertyOp29
 70
     1
102
RTVSPropertyOp30
 70
     1
102
RTVSPropertyOp31
 70
     1
102
RTVSPropertyOp32
 70
     1
102
RTVSPropertyOp33
 70
     1
102
RTVSPropertyOp34
 70
     1
102
RTVSPropertyOp35
 70
     1
102
RTVSPropertyOp36
 70
     1
102
RTVSPropertyOp37
 70
     1
102
RTVSPropertyOp38
 70
     1
102
RTVSPropertyOp39
 70
     1
102
RTVSPropertyOp40
 70
     1
102
RTVSPropertyOp41
 70
     1
102
RTVSPropertyOp42
 70
     1
102
RTVSPropertyOp43
 70
     1
102
RTVSPropertyOp44
 70
     1
102
RTVSPropertyOp45
 70
     1
102
RTVSPropertyOp46
 70
     1
102
RTVSPropertyOp47
 70
     1
102
RTVSPropertyOp48
 70
     1
102
RTVSPropertyOp49
 70
     1
102
RTVSPropertyOp50
 70
     1
102
RTVSPropertyOp51
 70
     0
102
RTVSPropertyOp52
 70
     0
102
RTVSPropertyOp53
 70
     1
102
RTVSPropertyOp54
 70
     1
102
RTVSPropertyOp55
 70
     1
102
RTVSPropertyOp56
 70
     1
102
RTVSPropertyOp57
 70
     1
102
RTVSPost2010Prop28
280
     0
102
RTVSPost2010PropOp28
 70
     1
102
RTVSPost2010Prop29
280
     1
102
RTVSPost2010PropOp29
 70
     1
102
RTVSPost2010Prop30
280
     1
102
RTVSPost2010PropOp30
 70
     1
102
RTVSPost2010Prop31
280
     0
102
RTVSPost2010PropOp31
 70
     1
102
RTVSPost2010Prop32
280
     0
102
RTVSPost2010PropOp32
 70
     1
102
RTVSPost2010Prop33
280
     0
102
RTVSPost2010PropOp33
 70
     1
102
RTVSPost2010Prop34
280
     0
102
RTVSPost2010PropOp34
 70
     1
102
RTVSPost2010Prop35
280
     0
102
RTVSPost2010PropOp35
 70
     1
102
RTVSPost2010Prop36
280
     0
102
RTVSPost2010PropOp36
 70
     1
102
RTVSPost2010Prop37
 90
       50
102
RTVSPost2010PropOp37
 70
     1
102
RTVSPost2010Prop38
140
0.0
102
RTVSPost2010PropOp38
 70
     1
102
RTVSPost2010Prop39
140
1.0
102
RTVSPost2010PropOp39
 70
     1
102
RTVSPost2010Prop40
 90
        0
102
RTVSPost2010PropOp40
 70
     1
102
RTVSPost2010Prop41ColorIndex
 90
       18
102
RTVSPost2010Prop41ColorRGB
 90
        0
102
RTVSPost2010PropOp41
 70
     1
102
RTVSPost2010Prop42
 90
       50
102
RTVSPost2010PropOp42
 70
     1
102
RTVSPost2010Prop43
 90
        3
102
RTVSPost2010PropOp43
 70
     1
102
RTVSPost2010Prop44ColorIndex
 90
        5
102
RTVSPost2010Prop44ColorRGB
 90
      255
102
RTVSPost2010PropOp44
 70
     1
102
RTVSPost2010Prop45
280
     0
102
RTVSPost2010PropOp45
 70
     1
102
RTVSPost2010Prop46
 90
       50
102
RTVSPost2010PropOp46
 70
     1
102
RTVSPost2010Prop47
 90
       50
102
RTVSPost2010PropOp47
 70
     1
102
RTVSPost2010Prop48
 90
       50
102
RTVSPost2010PropOp48
 70
     1
102
RTVSPost2010Prop49
280
     0
102
RTVSPost2010PropOp49
 70
     1
102
RTVSPost2010Prop50
 90
       50
102
RTVSPost2010PropOp50
 70
     1
102
RTVSPost2010Prop51ColorIndex
 90
      256
102
RTVSPost2010Prop51ColorRGB
 90
-16777216
102
RTVSPost2010PropOp51
 70
     0
102
RTVSPost2010Prop52
140
1.0
102
RTVSPost2010PropOp52
 70
     0
102
RTVSPost2010Prop53
 90
        2
102
RTVSPost2010PropOp53
 70
     1
102
RTVSPost2010Prop54
  1
strokes_ogs.tif
102
RTVSPost2010PropOp54
 70
     1
102
RTVSPost2010Prop55
280
     0
102
RTVSPost2010PropOp55
 70
     1
102
RTVSPost2010Prop56
140
1.0
102
RTVSPost2010PropOp56
 70
     1
102
RTVSPost2010Prop57
140
1.0
102
RTVSPost2010PropOp57
 70
     1
  0
XRECORD
  5
498
102
{ACAD_REACTORS
330
497
102
}
330
497
100
AcDbXrecord
280
     1
102
RTVSPropertyOp0
 70
     1
102
RTVSPropertyOp1
 70
     1
102
RTVSPropertyOp2
 70
     1
102
RTVSPropertyOp3
 70
     1
102
RTVSPropertyOp4
 70
     1
102
RTVSPropertyOp5
 70
     1
102
RTVSPropertyOp6
 70
     1
102
RTVSPropertyOp7
 70
     1
102
RTVSPropertyOp8
 70
     1
102
RTVSPropertyOp9
 70
     1
102
RTVSPropertyOp10
 70
     1
102
RTVSPropertyOp11
 70
     1
102
RTVSPropertyOp12
 70
     1
102
RTVSPropertyOp13
 70
     1
102
RTVSPropertyOp14
 70
     1
102
RTVSPropertyOp15
 70
     1
102
RTVSPropertyOp16
 70
     1
102
RTVSPropertyOp17
 70
     1
102
RTVSPropertyOp18
 70
     1
102
RTVSPropertyOp19
 70
     1
102
RTVSPropertyOp20
 70
     1
102
RTVSPropertyOp21
 70
     1
102
RTVSPropertyOp22
 70
     1
102
RTVSPropertyOp23
 70
     1
102
RTVSPropertyOp24
 70
     1
102
RTVSPropertyOp25
 70
     1
102
RTVSPropertyOp26
 70
     1
102
RTVSPropertyOp27
 70
     1
102
RTVSPropertyOp28
 70
     1
102
RTVSPropertyOp29
 70
     1
102
RTVSPropertyOp30
 70
     1
102
RTVSPropertyOp31
 70
     1
102
RTVSPropertyOp32
 70
     1
102
RTVSPropertyOp33
 70
     1
102
RTVSPropertyOp34
 70
     1
102
RTVSPropertyOp35
 70
     1
102
RTVSPropertyOp36
 70
     1
102
RTVSPropertyOp37
 70
     1
102
RTVSPropertyOp38
 70
     1
102
RTVSPropertyOp39
 70
     1
102
RTVSPropertyOp40
 70
     1
102
RTVSPropertyOp41
 70
     1
102
RTVSPropertyOp42
 70
     1
102
RTVSPropertyOp43
 70
     1
102
RTVSPropertyOp44
 70
     1
102
RTVSPropertyOp45
 70
     1
102
RTVSPropertyOp46
 70
     1
102
RTVSPropertyOp47
 70
     1
102
RTVSPropertyOp48
 70
     1
102
RTVSPropertyOp49
 70
     1
102
RTVSPropertyOp50
 70
     1
102
RTVSPropertyOp51
 70
     0
102
RTVSPropertyOp52
 70
     0
102
RTVSPropertyOp53
 70
     1
102
RTVSPropertyOp54
 70
     1
102
RTVSPropertyOp55
 70
     1
102
RTVSPropertyOp56
 70
     1
102
RTVSPropertyOp57
 70
     1
102
RTVSPost2010Prop28
280
     0
102
RTVSPost2010PropOp28
 70
     1
102
RTVSPost2010Prop29
280
     1
102
RTVSPost2010PropOp29
 70
     1
102
RTVSPost2010Prop30
280
     1
102
RTVSPost2010PropOp30
 70
     1
102
RTVSPost2010Prop31
280
     0
102
RTVSPost2010PropOp31
 70
     1
102
RTVSPost2010Prop32
280
     0
102
RTVSPost2010PropOp32
 70
     1
102
RTVSPost2010Prop33
280
     0
102
RTVSPost2010PropOp33
 70
     1
102
RTVSPost2010Prop34
280
     0
102
RTVSPost2010PropOp34
 70
     1
102
RTVSPost2010Prop35
280
     0
102
RTVSPost2010PropOp35
 70
     1
102
RTVSPost2010Prop36
280
     0
102
RTVSPost2010PropOp36
 70
     1
102
RTVSPost2010Prop37
 90
       50
102
RTVSPost2010PropOp37
 70
     1
102
RTVSPost2010Prop38
140
0.0
102
RTVSPost2010PropOp38
 70
     1
102
RTVSPost2010Prop39
140
1.0
102
RTVSPost2010PropOp39
 70
     1
102
RTVSPost2010Prop40
 90
        0
102
RTVSPost2010PropOp40
 70
     1
102
RTVSPost2010Prop41ColorIndex
 90
       18
102
RTVSPost2010Prop41ColorRGB
 90
        0
102
RTVSPost2010PropOp41
 70
     1
102
RTVSPost2010Prop42
 90
       50
102
RTVSPost2010PropOp42
 70
     1
102
RTVSPost2010Prop43
 90
        3
102
RTVSPost2010PropOp43
 70
     1
102
RTVSPost2010Prop44ColorIndex
 90
        5
102
RTVSPost2010Prop44ColorRGB
 90
      255
102
RTVSPost2010PropOp44
 70
     1
102
RTVSPost2010Prop45
280
     0
102
RTVSPost2010PropOp45
 70
     1
102
RTVSPost2010Prop46
 90
       50
102
RTVSPost2010PropOp46
 70
     1
102
RTVSPost2010Prop47
 90
       50
102
RTVSPost2010PropOp47
 70
     1
102
RTVSPost2010Prop48
 90
       50
102
RTVSPost2010PropOp48
 70
     1
102
RTVSPost2010Prop49
280
     0
102
RTVSPost2010PropOp49
 70
     1
102
RTVSPost2010Prop50
 90
       50
102
RTVSPost2010PropOp50
 70
     1
102
RTVSPost2010Prop51ColorIndex
 90
      256
102
RTVSPost2010Prop51ColorRGB
 90
-16777216
102
RTVSPost2010PropOp51
 70
     0
102
RTVSPost2010Prop52
140
1.0
102
RTVSPost2010PropOp52
 70
     0
102
RTVSPost2010Prop53
 90
        2
102
RTVSPost2010PropOp53
 70
     1
102
RTVSPost2010Prop54
  1
strokes_ogs.tif
102
RTVSPost2010PropOp54
 70
     1
102
RTVSPost2010Prop55
280
     0
102
RTVSPost2010PropOp55
 70
     1
102
RTVSPost2010Prop56
140
1.0
102
RTVSPost2010PropOp56
 70
     1
102
RTVSPost2010Prop57
140
1.0
102
RTVSPost2010PropOp57
 70
     1
  0
XRECORD
  5
4B6
102
{ACAD_REACTORS
330
4B5
102
}
330
4B5
100
AcDbXrecord
280
     1
102
RTVSPropertyOp0
 70
     1
102
RTVSPropertyOp1
 70
     1
102
RTVSPropertyOp2
 70
     1
102
RTVSPropertyOp3
 70
     1
102
RTVSPropertyOp4
 70
     1
102
RTVSPropertyOp5
 70
     1
102
RTVSPropertyOp6
 70
     1
102
RTVSPropertyOp7
 70
     1
102
RTVSPropertyOp8
 70
     1
102
RTVSPropertyOp9
 70
     1
102
RTVSPropertyOp10
 70
     1
102
RTVSPropertyOp11
 70
     1
102
RTVSPropertyOp12
 70
     1
102
RTVSPropertyOp13
 70
     1
102
RTVSPropertyOp14
 70
     1
102
RTVSPropertyOp15
 70
     1
102
RTVSPropertyOp16
 70
     1
102
RTVSPropertyOp17
 70
     1
102
RTVSPropertyOp18
 70
     1
102
RTVSPropertyOp19
 70
     1
102
RTVSPropertyOp20
 70
     1
102
RTVSPropertyOp21
 70
     1
102
RTVSPropertyOp22
 70
     1
102
RTVSPropertyOp23
 70
     1
102
RTVSPropertyOp24
 70
     1
102
RTVSPropertyOp25
 70
     1
102
RTVSPropertyOp26
 70
     1
102
RTVSPropertyOp27
 70
     1
102
RTVSPropertyOp28
 70
     1
102
RTVSPropertyOp29
 70
     1
102
RTVSPropertyOp30
 70
     1
102
RTVSPropertyOp31
 70
     1
102
RTVSPropertyOp32
 70
     1
102
RTVSPropertyOp33
 70
     1
102
RTVSPropertyOp34
 70
     1
102
RTVSPropertyOp35
 70
     1
102
RTVSPropertyOp36
 70
     1
102
RTVSPropertyOp37
 70
     1
102
RTVSPropertyOp38
 70
     1
102
RTVSPropertyOp39
 70
     1
102
RTVSPropertyOp40
 70
     1
102
RTVSPropertyOp41
 70
     1
102
RTVSPropertyOp42
 70
     1
102
RTVSPropertyOp43
 70
     1
102
RTVSPropertyOp44
 70
     1
102
RTVSPropertyOp45
 70
     1
102
RTVSPropertyOp46
 70
     1
102
RTVSPropertyOp47
 70
     1
102
RTVSPropertyOp48
 70
     1
102
RTVSPropertyOp49
 70
     1
102
RTVSPropertyOp50
 70
     1
102
RTVSPropertyOp51
 70
     0
102
RTVSPropertyOp52
 70
     0
102
RTVSPropertyOp53
 70
     1
102
RTVSPropertyOp54
 70
     1
102
RTVSPropertyOp55
 70
     1
102
RTVSPropertyOp56
 70
     1
102
RTVSPropertyOp57
 70
     1
102
RTVSPost2010Prop28
280
     0
102
RTVSPost2010PropOp28
 70
     1
102
RTVSPost2010Prop29
280
     1
102
RTVSPost2010PropOp29
 70
     1
102
RTVSPost2010Prop30
280
     1
102
RTVSPost2010PropOp30
 70
     1
102
RTVSPost2010Prop31
280
     0
102
RTVSPost2010PropOp31
 70
     1
102
RTVSPost2010Prop32
280
     0
102
RTVSPost2010PropOp32
 70
     1
102
RTVSPost2010Prop33
280
     0
102
RTVSPost2010PropOp33
 70
     1
102
RTVSPost2010Prop34
280
     0
102
RTVSPost2010PropOp34
 70
     1
102
RTVSPost2010Prop35
280
     0
102
RTVSPost2010PropOp35
 70
     1
102
RTVSPost2010Prop36
280
     0
102
RTVSPost2010PropOp36
 70
     1
102
RTVSPost2010Prop37
 90
       50
102
RTVSPost2010PropOp37
 70
     1
102
RTVSPost2010Prop38
140
0.0
102
RTVSPost2010PropOp38
 70
     1
102
RTVSPost2010Prop39
140
1.0
102
RTVSPost2010PropOp39
 70
     1
102
RTVSPost2010Prop40
 90
        0
102
RTVSPost2010PropOp40
 70
     1
102
RTVSPost2010Prop41ColorIndex
 90
       18
102
RTVSPost2010Prop41ColorRGB
 90
        0
102
RTVSPost2010PropOp41
 70
     1
102
RTVSPost2010Prop42
 90
       50
102
RTVSPost2010PropOp42
 70
     1
102
RTVSPost2010Prop43
 90
        3
102
RTVSPost2010PropOp43
 70
     1
102
RTVSPost2010Prop44ColorIndex
 90
        5
102
RTVSPost2010Prop44ColorRGB
 90
      255
102
RTVSPost2010PropOp44
 70
     1
102
RTVSPost2010Prop45
280
     0
102
RTVSPost2010PropOp45
 70
     1
102
RTVSPost2010Prop46
 90
       50
102
RTVSPost2010PropOp46
 70
     1
102
RTVSPost2010Prop47
 90
       50
102
RTVSPost2010PropOp47
 70
     1
102
RTVSPost2010Prop48
 90
       50
102
RTVSPost2010PropOp48
 70
     1
102
RTVSPost2010Prop49
280
     0
102
RTVSPost2010PropOp49
 70
     1
102
RTVSPost2010Prop50
 90
       50
102
RTVSPost2010PropOp50
 70
     1
102
RTVSPost2010Prop51ColorIndex
 90
      256
102
RTVSPost2010Prop51ColorRGB
 90
-16777216
102
RTVSPost2010PropOp51
 70
     0
102
RTVSPost2010Prop52
140
1.0
102
RTVSPost2010PropOp52
 70
     0
102
RTVSPost2010Prop53
 90
        2
102
RTVSPost2010PropOp53
 70
     1
102
RTVSPost2010Prop54
  1
strokes_ogs.tif
102
RTVSPost2010PropOp54
 70
     1
102
RTVSPost2010Prop55
280
     0
102
RTVSPost2010PropOp55
 70
     1
102
RTVSPost2010Prop56
140
1.0
102
RTVSPost2010PropOp56
 70
     1
102
RTVSPost2010Prop57
140
1.0
102
RTVSPost2010PropOp57
 70
     1
  0
XRECORD
  5
4B4
102
{ACAD_REACTORS
330
4B3
102
}
330
4B3
100
AcDbXrecord
280
     1
102
RTVSPropertyOp0
 70
     1
102
RTVSPropertyOp1
 70
     1
102
RTVSPropertyOp2
 70
     1
102
RTVSPropertyOp3
 70
     1
102
RTVSPropertyOp4
 70
     1
102
RTVSPropertyOp5
 70
     1
102
RTVSPropertyOp6
 70
     1
102
RTVSPropertyOp7
 70
     1
102
RTVSPropertyOp8
 70
     1
102
RTVSPropertyOp9
 70
     1
102
RTVSPropertyOp10
 70
     1
102
RTVSPropertyOp11
 70
     1
102
RTVSPropertyOp12
 70
     1
102
RTVSPropertyOp13
 70
     1
102
RTVSPropertyOp14
 70
     1
102
RTVSPropertyOp15
 70
     1
102
RTVSPropertyOp16
 70
     1
102
RTVSPropertyOp17
 70
     1
102
RTVSPropertyOp18
 70
     1
102
RTVSPropertyOp19
 70
     1
102
RTVSPropertyOp20
 70
     1
102
RTVSPropertyOp21
 70
     1
102
RTVSPropertyOp22
 70
     1
102
RTVSPropertyOp23
 70
     1
102
RTVSPropertyOp24
 70
     1
102
RTVSPropertyOp25
 70
     1
102
RTVSPropertyOp26
 70
     1
102
RTVSPropertyOp27
 70
     1
102
RTVSPropertyOp28
 70
     1
102
RTVSPropertyOp29
 70
     1
102
RTVSPropertyOp30
 70
     1
102
RTVSPropertyOp31
 70
     1
102
RTVSPropertyOp32
 70
     1
102
RTVSPropertyOp33
 70
     1
102
RTVSPropertyOp34
 70
     1
102
RTVSPropertyOp35
 70
     1
102
RTVSPropertyOp36
 70
     1
102
RTVSPropertyOp37
 70
     1
102
RTVSPropertyOp38
 70
     1
102
RTVSPropertyOp39
 70
     1
102
RTVSPropertyOp40
 70
     1
102
RTVSPropertyOp41
 70
     1
102
RTVSPropertyOp42
 70
     1
102
RTVSPropertyOp43
 70
     1
102
RTVSPropertyOp44
 70
     1
102
RTVSPropertyOp45
 70
     1
102
RTVSPropertyOp46
 70
     1
102
RTVSPropertyOp47
 70
     1
102
RTVSPropertyOp48
 70
     1
102
RTVSPropertyOp49
 70
     1
102
RTVSPropertyOp50
 70
     1
102
RTVSPropertyOp51
 70
     0
102
RTVSPropertyOp52
 70
     0
102
RTVSPropertyOp53
 70
     1
102
RTVSPropertyOp54
 70
     1
102
RTVSPropertyOp55
 70
     1
102
RTVSPropertyOp56
 70
     1
102
RTVSPropertyOp57
 70
     1
102
RTVSPost2010Prop28
280
     0
102
RTVSPost2010PropOp28
 70
     1
102
RTVSPost2010Prop29
280
     1
102
RTVSPost2010PropOp29
 70
     1
102
RTVSPost2010Prop30
280
     1
102
RTVSPost2010PropOp30
 70
     1
102
RTVSPost2010Prop31
280
     0
102
RTVSPost2010PropOp31
 70
     1
102
RTVSPost2010Prop32
280
     0
102
RTVSPost2010PropOp32
 70
     1
102
RTVSPost2010Prop33
280
     0
102
RTVSPost2010PropOp33
 70
     1
102
RTVSPost2010Prop34
280
     0
102
RTVSPost2010PropOp34
 70
     1
102
RTVSPost2010Prop35
280
     0
102
RTVSPost2010PropOp35
 70
     1
102
RTVSPost2010Prop36
280
     0
102
RTVSPost2010PropOp36
 70
     1
102
RTVSPost2010Prop37
 90
       50
102
RTVSPost2010PropOp37
 70
     1
102
RTVSPost2010Prop38
140
0.0
102
RTVSPost2010PropOp38
 70
     1
102
RTVSPost2010Prop39
140
1.0
102
RTVSPost2010PropOp39
 70
     1
102
RTVSPost2010Prop40
 90
        0
102
RTVSPost2010PropOp40
 70
     1
102
RTVSPost2010Prop41ColorIndex
 90
       18
102
RTVSPost2010Prop41ColorRGB
 90
        0
102
RTVSPost2010PropOp41
 70
     1
102
RTVSPost2010Prop42
 90
       50
102
RTVSPost2010PropOp42
 70
     1
102
RTVSPost2010Prop43
 90
        3
102
RTVSPost2010PropOp43
 70
     1
102
RTVSPost2010Prop44ColorIndex
 90
        5
102
RTVSPost2010Prop44ColorRGB
 90
      255
102
RTVSPost2010PropOp44
 70
     1
102
RTVSPost2010Prop45
280
     0
102
RTVSPost2010PropOp45
 70
     1
102
RTVSPost2010Prop46
 90
       50
102
RTVSPost2010PropOp46
 70
     1
102
RTVSPost2010Prop47
 90
       50
102
RTVSPost2010PropOp47
 70
     1
102
RTVSPost2010Prop48
 90
       50
102
RTVSPost2010PropOp48
 70
     1
102
RTVSPost2010Prop49
280
     0
102
RTVSPost2010PropOp49
 70
     1
102
RTVSPost2010Prop50
 90
       50
102
RTVSPost2010PropOp50
 70
     1
102
RTVSPost2010Prop51ColorIndex
 90
      256
102
RTVSPost2010Prop51ColorRGB
 90
-16777216
102
RTVSPost2010PropOp51
 70
     0
102
RTVSPost2010Prop52
140
1.0
102
RTVSPost2010PropOp52
 70
     0
102
RTVSPost2010Prop53
 90
        2
102
RTVSPost2010PropOp53
 70
     1
102
RTVSPost2010Prop54
  1
strokes_ogs.tif
102
RTVSPost2010PropOp54
 70
     1
102
RTVSPost2010Prop55
280
     0
102
RTVSPost2010PropOp55
 70
     1
102
RTVSPost2010Prop56
140
1.0
102
RTVSPost2010PropOp56
 70
     1
102
RTVSPost2010Prop57
140
1.0
102
RTVSPost2010PropOp57
 70
     1
  0
XRECORD
  5
4AE
102
{ACAD_REACTORS
330
4AD
102
}
330
4AD
100
AcDbXrecord
280
     1
102
RTVSPropertyOp0
 70
     1
102
RTVSPropertyOp1
 70
     1
102
RTVSPropertyOp2
 70
     1
102
RTVSPropertyOp3
 70
     1
102
RTVSPropertyOp4
 70
     1
102
RTVSPropertyOp5
 70
     1
102
RTVSPropertyOp6
 70
     1
102
RTVSPropertyOp7
 70
     1
102
RTVSPropertyOp8
 70
     1
102
RTVSPropertyOp9
 70
     1
102
RTVSPropertyOp10
 70
     1
102
RTVSPropertyOp11
 70
     1
102
RTVSPropertyOp12
 70
     1
102
RTVSPropertyOp13
 70
     1
102
RTVSPropertyOp14
 70
     1
102
RTVSPropertyOp15
 70
     1
102
RTVSPropertyOp16
 70
     1
102
RTVSPropertyOp17
 70
     1
102
RTVSPropertyOp18
 70
     1
102
RTVSPropertyOp19
 70
     1
102
RTVSPropertyOp20
 70
     1
102
RTVSPropertyOp21
 70
     1
102
RTVSPropertyOp22
 70
     1
102
RTVSPropertyOp23
 70
     1
102
RTVSPropertyOp24
 70
     1
102
RTVSPropertyOp25
 70
     1
102
RTVSPropertyOp26
 70
     1
102
RTVSPropertyOp27
 70
     1
102
RTVSPropertyOp28
 70
     1
102
RTVSPropertyOp29
 70
     1
102
RTVSPropertyOp30
 70
     1
102
RTVSPropertyOp31
 70
     1
102
RTVSPropertyOp32
 70
     1
102
RTVSPropertyOp33
 70
     1
102
RTVSPropertyOp34
 70
     1
102
RTVSPropertyOp35
 70
     1
102
RTVSPropertyOp36
 70
     1
102
RTVSPropertyOp37
 70
     1
102
RTVSPropertyOp38
 70
     1
102
RTVSPropertyOp39
 70
     1
102
RTVSPropertyOp40
 70
     1
102
RTVSPropertyOp41
 70
     1
102
RTVSPropertyOp42
 70
     1
102
RTVSPropertyOp43
 70
     1
102
RTVSPropertyOp44
 70
     1
102
RTVSPropertyOp45
 70
     1
102
RTVSPropertyOp46
 70
     1
102
RTVSPropertyOp47
 70
     1
102
RTVSPropertyOp48
 70
     1
102
RTVSPropertyOp49
 70
     1
102
RTVSPropertyOp50
 70
     1
102
RTVSPropertyOp51
 70
     0
102
RTVSPropertyOp52
 70
     0
102
RTVSPropertyOp53
 70
     1
102
RTVSPropertyOp54
 70
     1
102
RTVSPropertyOp55
 70
     1
102
RTVSPropertyOp56
 70
     1
102
RTVSPropertyOp57
 70
     1
102
RTVSPost2010Prop28
280
     0
102
RTVSPost2010PropOp28
 70
     1
102
RTVSPost2010Prop29
280
     1
102
RTVSPost2010PropOp29
 70
     1
102
RTVSPost2010Prop30
280
     1
102
RTVSPost2010PropOp30
 70
     1
102
RTVSPost2010Prop31
280
     0
102
RTVSPost2010PropOp31
 70
     1
102
RTVSPost2010Prop32
280
     0
102
RTVSPost2010PropOp32
 70
     1
102
RTVSPost2010Prop33
280
     0
102
RTVSPost2010PropOp33
 70
     1
102
RTVSPost2010Prop34
280
     0
102
RTVSPost2010PropOp34
 70
     1
102
RTVSPost2010Prop35
280
     0
102
RTVSPost2010PropOp35
 70
     1
102
RTVSPost2010Prop36
280
     0
102
RTVSPost2010PropOp36
 70
     1
102
RTVSPost2010Prop37
 90
       50
102
RTVSPost2010PropOp37
 70
     1
102
RTVSPost2010Prop38
140
0.0
102
RTVSPost2010PropOp38
 70
     1
102
RTVSPost2010Prop39
140
1.0
102
RTVSPost2010PropOp39
 70
     1
102
RTVSPost2010Prop40
 90
        0
102
RTVSPost2010PropOp40
 70
     1
102
RTVSPost2010Prop41ColorIndex
 90
       18
102
RTVSPost2010Prop41ColorRGB
 90
        0
102
RTVSPost2010PropOp41
 70
     1
102
RTVSPost2010Prop42
 90
       50
102
RTVSPost2010PropOp42
 70
     1
102
RTVSPost2010Prop43
 90
        3
102
RTVSPost2010PropOp43
 70
     1
102
RTVSPost2010Prop44ColorIndex
 90
        5
102
RTVSPost2010Prop44ColorRGB
 90
      255
102
RTVSPost2010PropOp44
 70
     1
102
RTVSPost2010Prop45
280
     0
102
RTVSPost2010PropOp45
 70
     1
102
RTVSPost2010Prop46
 90
       50
102
RTVSPost2010PropOp46
 70
     1
102
RTVSPost2010Prop47
 90
       50
102
RTVSPost2010PropOp47
 70
     1
102
RTVSPost2010Prop48
 90
       50
102
RTVSPost2010PropOp48
 70
     1
102
RTVSPost2010Prop49
280
     0
102
RTVSPost2010PropOp49
 70
     1
102
RTVSPost2010Prop50
 90
       50
102
RTVSPost2010PropOp50
 70
     1
102
RTVSPost2010Prop51ColorIndex
 90
      256
102
RTVSPost2010Prop51ColorRGB
 90
-16777216
102
RTVSPost2010PropOp51
 70
     0
102
RTVSPost2010Prop52
140
1.0
102
RTVSPost2010PropOp52
 70
     0
102
RTVSPost2010Prop53
 90
        2
102
RTVSPost2010PropOp53
 70
     1
102
RTVSPost2010Prop54
  1
strokes_ogs.tif
102
RTVSPost2010PropOp54
 70
     1
102
RTVSPost2010Prop55
280
     0
102
RTVSPost2010PropOp55
 70
     1
102
RTVSPost2010Prop56
140
1.0
102
RTVSPost2010PropOp56
 70
     1
102
RTVSPost2010Prop57
140
1.0
102
RTVSPost2010PropOp57
 70
     1
  0
XRECORD
  5
4B0
102
{ACAD_REACTORS
330
4AF
102
}
330
4AF
100
AcDbXrecord
280
     1
102
RTVSPropertyOp0
 70
     1
102
RTVSPropertyOp1
 70
     1
102
RTVSPropertyOp2
 70
     1
102
RTVSPropertyOp3
 70
     1
102
RTVSPropertyOp4
 70
     1
102
RTVSPropertyOp5
 70
     1
102
RTVSPropertyOp6
 70
     1
102
RTVSPropertyOp7
 70
     1
102
RTVSPropertyOp8
 70
     1
102
RTVSPropertyOp9
 70
     1
102
RTVSPropertyOp10
 70
     1
102
RTVSPropertyOp11
 70
     1
102
RTVSPropertyOp12
 70
     1
102
RTVSPropertyOp13
 70
     1
102
RTVSPropertyOp14
 70
     1
102
RTVSPropertyOp15
 70
     1
102
RTVSPropertyOp16
 70
     1
102
RTVSPropertyOp17
 70
     1
102
RTVSPropertyOp18
 70
     1
102
RTVSPropertyOp19
 70
     1
102
RTVSPropertyOp20
 70
     1
102
RTVSPropertyOp21
 70
     1
102
RTVSPropertyOp22
 70
     1
102
RTVSPropertyOp23
 70
     1
102
RTVSPropertyOp24
 70
     1
102
RTVSPropertyOp25
 70
     1
102
RTVSPropertyOp26
 70
     1
102
RTVSPropertyOp27
 70
     1
102
RTVSPropertyOp28
 70
     1
102
RTVSPropertyOp29
 70
     1
102
RTVSPropertyOp30
 70
     1
102
RTVSPropertyOp31
 70
     1
102
RTVSPropertyOp32
 70
     1
102
RTVSPropertyOp33
 70
     1
102
RTVSPropertyOp34
 70
     1
102
RTVSPropertyOp35
 70
     1
102
RTVSPropertyOp36
 70
     1
102
RTVSPropertyOp37
 70
     1
102
RTVSPropertyOp38
 70
     1
102
RTVSPropertyOp39
 70
     1
102
RTVSPropertyOp40
 70
     1
102
RTVSPropertyOp41
 70
     1
102
RTVSPropertyOp42
 70
     1
102
RTVSPropertyOp43
 70
     1
102
RTVSPropertyOp44
 70
     1
102
RTVSPropertyOp45
 70
     1
102
RTVSPropertyOp46
 70
     1
102
RTVSPropertyOp47
 70
     1
102
RTVSPropertyOp48
 70
     1
102
RTVSPropertyOp49
 70
     1
102
RTVSPropertyOp50
 70
     1
102
RTVSPropertyOp51
 70
     0
102
RTVSPropertyOp52
 70
     0
102
RTVSPropertyOp53
 70
     1
102
RTVSPropertyOp54
 70
     1
102
RTVSPropertyOp55
 70
     1
102
RTVSPropertyOp56
 70
     1
102
RTVSPropertyOp57
 70
     1
102
RTVSPost2010Prop28
280
     0
102
RTVSPost2010PropOp28
 70
     1
102
RTVSPost2010Prop29
280
     1
102
RTVSPost2010PropOp29
 70
     1
102
RTVSPost2010Prop30
280
     1
102
RTVSPost2010PropOp30
 70
     1
102
RTVSPost2010Prop31
280
     0
102
RTVSPost2010PropOp31
 70
     1
102
RTVSPost2010Prop32
280
     0
102
RTVSPost2010PropOp32
 70
     1
102
RTVSPost2010Prop33
280
     0
102
RTVSPost2010PropOp33
 70
     1
102
RTVSPost2010Prop34
280
     0
102
RTVSPost2010PropOp34
 70
     1
102
RTVSPost2010Prop35
280
     0
102
RTVSPost2010PropOp35
 70
     1
102
RTVSPost2010Prop36
280
     0
102
RTVSPost2010PropOp36
 70
     1
102
RTVSPost2010Prop37
 90
       50
102
RTVSPost2010PropOp37
 70
     1
102
RTVSPost2010Prop38
140
0.0
102
RTVSPost2010PropOp38
 70
     1
102
RTVSPost2010Prop39
140
1.0
102
RTVSPost2010PropOp39
 70
     1
102
RTVSPost2010Prop40
 90
        0
102
RTVSPost2010PropOp40
 70
     1
102
RTVSPost2010Prop41ColorIndex
 90
       18
102
RTVSPost2010Prop41ColorRGB
 90
        0
102
RTVSPost2010PropOp41
 70
     1
102
RTVSPost2010Prop42
 90
       50
102
RTVSPost2010PropOp42
 70
     1
102
RTVSPost2010Prop43
 90
        3
102
RTVSPost2010PropOp43
 70
     1
102
RTVSPost2010Prop44ColorIndex
 90
        5
102
RTVSPost2010Prop44ColorRGB
 90
      255
102
RTVSPost2010PropOp44
 70
     1
102
RTVSPost2010Prop45
280
     0
102
RTVSPost2010PropOp45
 70
     1
102
RTVSPost2010Prop46
 90
       50
102
RTVSPost2010PropOp46
 70
     1
102
RTVSPost2010Prop47
 90
       50
102
RTVSPost2010PropOp47
 70
     1
102
RTVSPost2010Prop48
 90
       50
102
RTVSPost2010PropOp48
 70
     1
102
RTVSPost2010Prop49
280
     0
102
RTVSPost2010PropOp49
 70
     1
102
RTVSPost2010Prop50
 90
       50
102
RTVSPost2010PropOp50
 70
     1
102
RTVSPost2010Prop51ColorIndex
 90
      256
102
RTVSPost2010Prop51ColorRGB
 90
-16777216
102
RTVSPost2010PropOp51
 70
     0
102
RTVSPost2010Prop52
140
1.0
102
RTVSPost2010PropOp52
 70
     0
102
RTVSPost2010Prop53
 90
        2
102
RTVSPost2010PropOp53
 70
     1
102
RTVSPost2010Prop54
  1
strokes_ogs.tif
102
RTVSPost2010PropOp54
 70
     1
102
RTVSPost2010Prop55
280
     0
102
RTVSPost2010PropOp55
 70
     1
102
RTVSPost2010Prop56
140
1.0
102
RTVSPost2010PropOp56
 70
     1
102
RTVSPost2010Prop57
140
1.0
102
RTVSPost2010PropOp57
 70
     1
  0
XRECORD
  5
4A0
102
{ACAD_REACTORS
330
49F
102
}
330
49F
100
AcDbXrecord
280
     1
102
RTVSPropertyOp0
 70
     1
102
RTVSPropertyOp1
 70
     1
102
RTVSPropertyOp2
 70
     1
102
RTVSPropertyOp3
 70
     1
102
RTVSPropertyOp4
 70
     1
102
RTVSPropertyOp5
 70
     1
102
RTVSPropertyOp6
 70
     1
102
RTVSPropertyOp7
 70
     1
102
RTVSPropertyOp8
 70
     1
102
RTVSPropertyOp9
 70
     1
102
RTVSPropertyOp10
 70
     1
102
RTVSPropertyOp11
 70
     1
102
RTVSPropertyOp12
 70
     1
102
RTVSPropertyOp13
 70
     1
102
RTVSPropertyOp14
 70
     1
102
RTVSPropertyOp15
 70
     1
102
RTVSPropertyOp16
 70
     1
102
RTVSPropertyOp17
 70
     1
102
RTVSPropertyOp18
 70
     1
102
RTVSPropertyOp19
 70
     1
102
RTVSPropertyOp20
 70
     1
102
RTVSPropertyOp21
 70
     1
102
RTVSPropertyOp22
 70
     1
102
RTVSPropertyOp23
 70
     1
102
RTVSPropertyOp24
 70
     1
102
RTVSPropertyOp25
 70
     1
102
RTVSPropertyOp26
 70
     1
102
RTVSPropertyOp27
 70
     1
102
RTVSPropertyOp28
 70
     1
102
RTVSPropertyOp29
 70
     1
102
RTVSPropertyOp30
 70
     1
102
RTVSPropertyOp31
 70
     1
102
RTVSPropertyOp32
 70
     1
102
RTVSPropertyOp33
 70
     1
102
RTVSPropertyOp34
 70
     1
102
RTVSPropertyOp35
 70
     1
102
RTVSPropertyOp36
 70
     1
102
RTVSPropertyOp37
 70
     1
102
RTVSPropertyOp38
 70
     1
102
RTVSPropertyOp39
 70
     1
102
RTVSPropertyOp40
 70
     1
102
RTVSPropertyOp41
 70
     1
102
RTVSPropertyOp42
 70
     1
102
RTVSPropertyOp43
 70
     1
102
RTVSPropertyOp44
 70
     1
102
RTVSPropertyOp45
 70
     1
102
RTVSPropertyOp46
 70
     1
102
RTVSPropertyOp47
 70
     1
102
RTVSPropertyOp48
 70
     1
102
RTVSPropertyOp49
 70
     1
102
RTVSPropertyOp50
 70
     1
102
RTVSPropertyOp51
 70
     0
102
RTVSPropertyOp52
 70
     0
102
RTVSPropertyOp53
 70
     1
102
RTVSPropertyOp54
 70
     1
102
RTVSPropertyOp55
 70
     1
102
RTVSPropertyOp56
 70
     1
102
RTVSPropertyOp57
 70
     1
102
RTVSPost2010Prop28
280
     0
102
RTVSPost2010PropOp28
 70
     1
102
RTVSPost2010Prop29
280
     1
102
RTVSPost2010PropOp29
 70
     1
102
RTVSPost2010Prop30
280
     1
102
RTVSPost2010PropOp30
 70
     1
102
RTVSPost2010Prop31
280
     0
102
RTVSPost2010PropOp31
 70
     1
102
RTVSPost2010Prop32
280
     0
102
RTVSPost2010PropOp32
 70
     1
102
RTVSPost2010Prop33
280
     0
102
RTVSPost2010PropOp33
 70
     1
102
RTVSPost2010Prop34
280
     0
102
RTVSPost2010PropOp34
 70
     1
102
RTVSPost2010Prop35
280
     0
102
RTVSPost2010PropOp35
 70
     1
102
RTVSPost2010Prop36
280
     0
102
RTVSPost2010PropOp36
 70
     1
102
RTVSPost2010Prop37
 90
       50
102
RTVSPost2010PropOp37
 70
     1
102
RTVSPost2010Prop38
140
0.0
102
RTVSPost2010PropOp38
 70
     1
102
RTVSPost2010Prop39
140
1.0
102
RTVSPost2010PropOp39
 70
     1
102
RTVSPost2010Prop40
 90
        0
102
RTVSPost2010PropOp40
 70
     1
102
RTVSPost2010Prop41ColorIndex
 90
       18
102
RTVSPost2010Prop41ColorRGB
 90
        0
102
RTVSPost2010PropOp41
 70
     1
102
RTVSPost2010Prop42
 90
       50
102
RTVSPost2010PropOp42
 70
     1
102
RTVSPost2010Prop43
 90
        3
102
RTVSPost2010PropOp43
 70
     1
102
RTVSPost2010Prop44ColorIndex
 90
        5
102
RTVSPost2010Prop44ColorRGB
 90
      255
102
RTVSPost2010PropOp44
 70
     1
102
RTVSPost2010Prop45
280
     0
102
RTVSPost2010PropOp45
 70
     1
102
RTVSPost2010Prop46
 90
       50
102
RTVSPost2010PropOp46
 70
     1
102
RTVSPost2010Prop47
 90
       50
102
RTVSPost2010PropOp47
 70
     1
102
RTVSPost2010Prop48
 90
       50
102
RTVSPost2010PropOp48
 70
     1
102
RTVSPost2010Prop49
280
     0
102
RTVSPost2010PropOp49
 70
     1
102
RTVSPost2010Prop50
 90
       50
102
RTVSPost2010PropOp50
 70
     1
102
RTVSPost2010Prop51ColorIndex
 90
      256
102
RTVSPost2010Prop51ColorRGB
 90
-16777216
102
RTVSPost2010PropOp51
 70
     0
102
RTVSPost2010Prop52
140
1.0
102
RTVSPost2010PropOp52
 70
     0
102
RTVSPost2010Prop53
 90
        2
102
RTVSPost2010PropOp53
 70
     1
102
RTVSPost2010Prop54
  1
strokes_ogs.tif
102
RTVSPost2010PropOp54
 70
     1
102
RTVSPost2010Prop55
280
     0
102
RTVSPost2010PropOp55
 70
     1
102
RTVSPost2010Prop56
140
1.0
102
RTVSPost2010PropOp56
 70
     1
102
RTVSPost2010Prop57
140
1.0
102
RTVSPost2010PropOp57
 70
     1
  0
XRECORD
  5
492
102
{ACAD_REACTORS
330
491
102
}
330
491
100
AcDbXrecord
280
     1
102
RTVSPropertyOp0
 70
     1
102
RTVSPropertyOp1
 70
     1
102
RTVSPropertyOp2
 70
     1
102
RTVSPropertyOp3
 70
     1
102
RTVSPropertyOp4
 70
     1
102
RTVSPropertyOp5
 70
     1
102
RTVSPropertyOp6
 70
     1
102
RTVSPropertyOp7
 70
     1
102
RTVSPropertyOp8
 70
     1
102
RTVSPropertyOp9
 70
     1
102
RTVSPropertyOp10
 70
     1
102
RTVSPropertyOp11
 70
     1
102
RTVSPropertyOp12
 70
     1
102
RTVSPropertyOp13
 70
     1
102
RTVSPropertyOp14
 70
     1
102
RTVSPropertyOp15
 70
     1
102
RTVSPropertyOp16
 70
     1
102
RTVSPropertyOp17
 70
     1
102
RTVSPropertyOp18
 70
     1
102
RTVSPropertyOp19
 70
     1
102
RTVSPropertyOp20
 70
     1
102
RTVSPropertyOp21
 70
     1
102
RTVSPropertyOp22
 70
     1
102
RTVSPropertyOp23
 70
     1
102
RTVSPropertyOp24
 70
     1
102
RTVSPropertyOp25
 70
     1
102
RTVSPropertyOp26
 70
     1
102
RTVSPropertyOp27
 70
     1
102
RTVSPropertyOp28
 70
     1
102
RTVSPropertyOp29
 70
     1
102
RTVSPropertyOp30
 70
     1
102
RTVSPropertyOp31
 70
     1
102
RTVSPropertyOp32
 70
     1
102
RTVSPropertyOp33
 70
     1
102
RTVSPropertyOp34
 70
     1
102
RTVSPropertyOp35
 70
     1
102
RTVSPropertyOp36
 70
     1
102
RTVSPropertyOp37
 70
     1
102
RTVSPropertyOp38
 70
     1
102
RTVSPropertyOp39
 70
     1
102
RTVSPropertyOp40
 70
     1
102
RTVSPropertyOp41
 70
     1
102
RTVSPropertyOp42
 70
     1
102
RTVSPropertyOp43
 70
     1
102
RTVSPropertyOp44
 70
     1
102
RTVSPropertyOp45
 70
     1
102
RTVSPropertyOp46
 70
     1
102
RTVSPropertyOp47
 70
     1
102
RTVSPropertyOp48
 70
     1
102
RTVSPropertyOp49
 70
     1
102
RTVSPropertyOp50
 70
     1
102
RTVSPropertyOp51
 70
     0
102
RTVSPropertyOp52
 70
     0
102
RTVSPropertyOp53
 70
     1
102
RTVSPropertyOp54
 70
     1
102
RTVSPropertyOp55
 70
     1
102
RTVSPropertyOp56
 70
     1
102
RTVSPropertyOp57
 70
     1
102
RTVSPost2010Prop28
280
     0
102
RTVSPost2010PropOp28
 70
     1
102
RTVSPost2010Prop29
280
     1
102
RTVSPost2010PropOp29
 70
     1
102
RTVSPost2010Prop30
280
     1
102
RTVSPost2010PropOp30
 70
     1
102
RTVSPost2010Prop31
280
     0
102
RTVSPost2010PropOp31
 70
     1
102
RTVSPost2010Prop32
280
     0
102
RTVSPost2010PropOp32
 70
     1
102
RTVSPost2010Prop33
280
     0
102
RTVSPost2010PropOp33
 70
     1
102
RTVSPost2010Prop34
280
     0
102
RTVSPost2010PropOp34
 70
     1
102
RTVSPost2010Prop35
280
     0
102
RTVSPost2010PropOp35
 70
     1
102
RTVSPost2010Prop36
280
     0
102
RTVSPost2010PropOp36
 70
     1
102
RTVSPost2010Prop37
 90
       50
102
RTVSPost2010PropOp37
 70
     1
102
RTVSPost2010Prop38
140
0.0
102
RTVSPost2010PropOp38
 70
     1
102
RTVSPost2010Prop39
140
1.0
102
RTVSPost2010PropOp39
 70
     1
102
RTVSPost2010Prop40
 90
        0
102
RTVSPost2010PropOp40
 70
     1
102
RTVSPost2010Prop41ColorIndex
 90
       18
102
RTVSPost2010Prop41ColorRGB
 90
        0
102
RTVSPost2010PropOp41
 70
     1
102
RTVSPost2010Prop42
 90
       50
102
RTVSPost2010PropOp42
 70
     1
102
RTVSPost2010Prop43
 90
        3
102
RTVSPost2010PropOp43
 70
     1
102
RTVSPost2010Prop44ColorIndex
 90
        5
102
RTVSPost2010Prop44ColorRGB
 90
      255
102
RTVSPost2010PropOp44
 70
     1
102
RTVSPost2010Prop45
280
     0
102
RTVSPost2010PropOp45
 70
     1
102
RTVSPost2010Prop46
 90
       50
102
RTVSPost2010PropOp46
 70
     1
102
RTVSPost2010Prop47
 90
       50
102
RTVSPost2010PropOp47
 70
     1
102
RTVSPost2010Prop48
 90
       50
102
RTVSPost2010PropOp48
 70
     1
102
RTVSPost2010Prop49
280
     0
102
RTVSPost2010PropOp49
 70
     1
102
RTVSPost2010Prop50
 90
       50
102
RTVSPost2010PropOp50
 70
     1
102
RTVSPost2010Prop51ColorIndex
 90
      256
102
RTVSPost2010Prop51ColorRGB
 90
-16777216
102
RTVSPost2010PropOp51
 70
     0
102
RTVSPost2010Prop52
140
1.0
102
RTVSPost2010PropOp52
 70
     0
102
RTVSPost2010Prop53
 90
        2
102
RTVSPost2010PropOp53
 70
     1
102
RTVSPost2010Prop54
  1
strokes_ogs.tif
102
RTVSPost2010PropOp54
 70
     1
102
RTVSPost2010Prop55
280
     0
102
RTVSPost2010PropOp55
 70
     1
102
RTVSPost2010Prop56
140
1.0
102
RTVSPost2010PropOp56
 70
     1
102
RTVSPost2010Prop57
140
1.0
102
RTVSPost2010PropOp57
 70
     1
  0
XRECORD
  5
4B2
102
{ACAD_REACTORS
330
4B1
102
}
330
4B1
100
AcDbXrecord
280
     1
102
RTVSPropertyOp0
 70
     1
102
RTVSPropertyOp1
 70
     1
102
RTVSPropertyOp2
 70
     1
102
RTVSPropertyOp3
 70
     1
102
RTVSPropertyOp4
 70
     1
102
RTVSPropertyOp5
 70
     1
102
RTVSPropertyOp6
 70
     1
102
RTVSPropertyOp7
 70
     1
102
RTVSPropertyOp8
 70
     1
102
RTVSPropertyOp9
 70
     1
102
RTVSPropertyOp10
 70
     1
102
RTVSPropertyOp11
 70
     1
102
RTVSPropertyOp12
 70
     1
102
RTVSPropertyOp13
 70
     1
102
RTVSPropertyOp14
 70
     1
102
RTVSPropertyOp15
 70
     1
102
RTVSPropertyOp16
 70
     1
102
RTVSPropertyOp17
 70
     1
102
RTVSPropertyOp18
 70
     1
102
RTVSPropertyOp19
 70
     1
102
RTVSPropertyOp20
 70
     1
102
RTVSPropertyOp21
 70
     1
102
RTVSPropertyOp22
 70
     1
102
RTVSPropertyOp23
 70
     1
102
RTVSPropertyOp24
 70
     1
102
RTVSPropertyOp25
 70
     1
102
RTVSPropertyOp26
 70
     1
102
RTVSPropertyOp27
 70
     1
102
RTVSPropertyOp28
 70
     1
102
RTVSPropertyOp29
 70
     1
102
RTVSPropertyOp30
 70
     1
102
RTVSPropertyOp31
 70
     1
102
RTVSPropertyOp32
 70
     1
102
RTVSPropertyOp33
 70
     1
102
RTVSPropertyOp34
 70
     1
102
RTVSPropertyOp35
 70
     1
102
RTVSPropertyOp36
 70
     1
102
RTVSPropertyOp37
 70
     1
102
RTVSPropertyOp38
 70
     1
102
RTVSPropertyOp39
 70
     1
102
RTVSPropertyOp40
 70
     1
102
RTVSPropertyOp41
 70
     1
102
RTVSPropertyOp42
 70
     1
102
RTVSPropertyOp43
 70
     1
102
RTVSPropertyOp44
 70
     1
102
RTVSPropertyOp45
 70
     1
102
RTVSPropertyOp46
 70
     1
102
RTVSPropertyOp47
 70
     1
102
RTVSPropertyOp48
 70
     1
102
RTVSPropertyOp49
 70
     1
102
RTVSPropertyOp50
 70
     1
102
RTVSPropertyOp51
 70
     0
102
RTVSPropertyOp52
 70
     0
102
RTVSPropertyOp53
 70
     1
102
RTVSPropertyOp54
 70
     1
102
RTVSPropertyOp55
 70
     1
102
RTVSPropertyOp56
 70
     1
102
RTVSPropertyOp57
 70
     1
102
RTVSPost2010Prop28
280
     0
102
RTVSPost2010PropOp28
 70
     1
102
RTVSPost2010Prop29
280
     1
102
RTVSPost2010PropOp29
 70
     1
102
RTVSPost2010Prop30
280
     1
102
RTVSPost2010PropOp30
 70
     1
102
RTVSPost2010Prop31
280
     0
102
RTVSPost2010PropOp31
 70
     1
102
RTVSPost2010Prop32
280
     0
102
RTVSPost2010PropOp32
 70
     1
102
RTVSPost2010Prop33
280
     0
102
RTVSPost2010PropOp33
 70
     1
102
RTVSPost2010Prop34
280
     0
102
RTVSPost2010PropOp34
 70
     1
102
RTVSPost2010Prop35
280
     0
102
RTVSPost2010PropOp35
 70
     1
102
RTVSPost2010Prop36
280
     0
102
RTVSPost2010PropOp36
 70
     1
102
RTVSPost2010Prop37
 90
       50
102
RTVSPost2010PropOp37
 70
     1
102
RTVSPost2010Prop38
140
0.0
102
RTVSPost2010PropOp38
 70
     1
102
RTVSPost2010Prop39
140
1.0
102
RTVSPost2010PropOp39
 70
     1
102
RTVSPost2010Prop40
 90
        0
102
RTVSPost2010PropOp40
 70
     1
102
RTVSPost2010Prop41ColorIndex
 90
       18
102
RTVSPost2010Prop41ColorRGB
 90
        0
102
RTVSPost2010PropOp41
 70
     1
102
RTVSPost2010Prop42
 90
       50
102
RTVSPost2010PropOp42
 70
     1
102
RTVSPost2010Prop43
 90
        3
102
RTVSPost2010PropOp43
 70
     1
102
RTVSPost2010Prop44ColorIndex
 90
        5
102
RTVSPost2010Prop44ColorRGB
 90
      255
102
RTVSPost2010PropOp44
 70
     1
102
RTVSPost2010Prop45
280
     0
102
RTVSPost2010PropOp45
 70
     1
102
RTVSPost2010Prop46
 90
       50
102
RTVSPost2010PropOp46
 70
     1
102
RTVSPost2010Prop47
 90
       50
102
RTVSPost2010PropOp47
 70
     1
102
RTVSPost2010Prop48
 90
       50
102
RTVSPost2010PropOp48
 70
     1
102
RTVSPost2010Prop49
280
     0
102
RTVSPost2010PropOp49
 70
     1
102
RTVSPost2010Prop50
 90
       50
102
RTVSPost2010PropOp50
 70
     1
102
RTVSPost2010Prop51ColorIndex
 90
      256
102
RTVSPost2010Prop51ColorRGB
 90
-16777216
102
RTVSPost2010PropOp51
 70
     0
102
RTVSPost2010Prop52
140
1.0
102
RTVSPost2010PropOp52
 70
     0
102
RTVSPost2010Prop53
 90
        2
102
RTVSPost2010PropOp53
 70
     1
102
RTVSPost2010Prop54
  1
strokes_ogs.tif
102
RTVSPost2010PropOp54
 70
     1
102
RTVSPost2010Prop55
280
     0
102
RTVSPost2010PropOp55
 70
     1
102
RTVSPost2010Prop56
140
1.0
102
RTVSPost2010PropOp56
 70
     1
102
RTVSPost2010Prop57
140
1.0
102
RTVSPost2010PropOp57
 70
     1
  0
ENDSEC
  0
EOF
