  0
SECTION
  2
HEADER
  9
$ACADVER
  1
AC1015
  9
$ACADMAINTVER
 70
     6
  9
$DWGCODEPAGE
  3
ANSI_932
  9
$INSBASE
 10
692.6011598604582
 20
460.3903811256897
 30
0.0
  9
$EXTMIN
 10
83.14592233373861
 20
16.2863494660628
 30
0.0
  9
$EXTMAX
 10
588.7755571128039
 20
506.0585532683423
 30
0.0
  9
$LIMMIN
 10
0.0
 20
0.0
  9
$LIMMAX
 10
816.5000000000001
 20
565.0
  9
$ORTHOMODE
 70
     1
  9
$REGENMODE
 70
     1
  9
$FILLMODE
 70
     1
  9
$QTEXTMODE
 70
     0
  9
$MIRRTEXT
 70
     1
  9
$LTSCALE
 40
5.0
  9
$ATTMODE
 70
     1
  9
$TEXTSIZE
 40
4.5
  9
$TRACEWID
 40
0.05
  9
$TEXTSTYLE
  7
KANJI
  9
$CLAYER
  8
2
  9
$CELTYPE
  6
BYLAYER
  9
$CECOLOR
 62
   256
  9
$CELTSCALE
 40
1.0
  9
$DISPSILH
 70
     0
  9
$DIMSCALE
 40
1.5
  9
$DIMASZ
 40
2.0
  9
$DIMEXO
 40
0.5
  9
$DIMDLI
 40
0.0
  9
$DIMRND
 40
0.0
  9
$DIMDLE
 40
0.0
  9
$DIMEXE
 40
1.0
  9
$DIMTP
 40
0.0
  9
$DIMTM
 40
0.0
  9
$DIMTXT
 40
3.0
  9
$DIMCEN
 40
0.09
  9
$DIMTSZ
 40
0.0
  9
$DIMTOL
 70
     0
  9
$DIMLIM
 70
     0
  9
$DIMTIH
 70
     0
  9
$DIMTOH
 70
     0
  9
$DIMSE1
 70
     0
  9
$DIMSE2
 70
     0
  9
$DIMTAD
 70
     0
  9
$DIMZIN
 70
     8
  9
$DIMBLK
  1

  9
$DIMASO
 70
     0
  9
$DIMSHO
 70
     0
  9
$DIMPOST
  1

  9
$DIMAPOST
  1

  9
$DIMALT
 70
     0
  9
$DIMALTD
 70
     2
  9
$DIMALTF
 40
25.4
  9
$DIMLFAC
 40
1.0
  9
$DIMTOFL
 70
     1
  9
$DIMTVP
 40
1.0
  9
$DIMTIX
 70
     1
  9
$DIMSOXD
 70
     1
  9
$DIMSAH
 70
     0
  9
$DIMBLK1
  1

  9
$DIMBLK2
  1

  9
$DIMSTYLE
  2
STANDARD
  9
$DIMCLRD
 70
   256
  9
$DIMCLRE
 70
   256
  9
$DIMCLRT
 70
   256
  9
$DIMTFAC
 40
1.0
  9
$DIMGAP
 40
0.09
  9
$DIMJUST
 70
     0
  9
$DIMSD1
 70
     0
  9
$DIMSD2
 70
     0
  9
$DIMTOLJ
 70
     1
  9
$DIMTZIN
 70
     0
  9
$DIMALTZ
 70
     0
  9
$DIMALTTZ
 70
     0
  9
$DIMUPT
 70
     0
  9
$DIMDEC
 70
     1
  9
$DIMTDEC
 70
     4
  9
$DIMALTU
 70
     2
  9
$DIMALTTD
 70
     2
  9
$DIMTXSTY
  7
STANDARD
  9
$DIMAUNIT
 70
     0
  9
$DIMADEC
 70
     0
  9
$DIMALTRND
 40
0.0
  9
$DIMAZIN
 70
     0
  9
$DIMDSEP
 70
    46
  9
$DIMATFIT
 70
     3
  9
$DIMFRAC
 70
     0
  9
$DIMLDRBLK
  1

  9
$DIMLUNIT
 70
     2
  9
$DIMLWD
 70
    -2
  9
$DIMLWE
 70
    -2
  9
$DIMTMOVE
 70
     0
  9
$LUNITS
 70
     2
  9
$LUPREC
 70
     3
  9
$SKETCHINC
 40
0.1
  9
$FILLETRAD
 40
1.0
  9
$AUNITS
 70
     0
  9
$AUPREC
 70
     3
  9
$MENU
  1
C:\R13\WIN\SUPPORT\ACADFULL
  9
$ELEVATION
 40
0.0
  9
$PELEVATION
 40
0.0
  9
$THICKNESS
 40
0.0
  9
$LIMCHECK
 70
     0
  9
$CHAMFERA
 40
0.0
  9
$CHAMFERB
 40
0.0
  9
$CHAMFERC
 40
0.0
  9
$CHAMFERD
 40
0.0
  9
$SKPOLY
 70
     0
  9
$TDCREATE
 40
2449813.131805555
  9
$TDUCREATE
 40
2449812.756805555
  9
$TDUPDATE
 40
2457870.622439039
  9
$TDUUPDATE
 40
2457870.247439039
  9
$TDINDWG
 40
1.3251973148
  9
$TDUSRTIMER
 40
1.3251969213
  9
$USRTIMER
 70
     1
  9
$ANGBASE
 50
0.0
  9
$ANGDIR
 70
     0
  9
$PDMODE
 70
     0
  9
$PDSIZE
 40
0.0
  9
$PLINEWID
 40
0.0
  9
$SPLFRAME
 70
     0
  9
$SPLINETYPE
 70
     6
  9
$SPLINESEGS
 70
     8
  9
$HANDSEED
  5
53D
  9
$SURFTAB1
 70
     6
  9
$SURFTAB2
 70
     6
  9
$SURFTYPE
 70
     6
  9
$SURFU
 70
     6
  9
$SURFV
 70
     6
  9
$UCSBASE
  2

  9
$UCSNAME
  2

  9
$UCSORG
 10
0.0
 20
0.0
 30
0.0
  9
$UCSXDIR
 10
1.0
 20
0.0
 30
0.0
  9
$UCSYDIR
 10
0.0
 20
1.0
 30
0.0
  9
$UCSORTHOREF
  2

  9
$UCSORTHOVIEW
 70
     0
  9
$UCSORGTOP
 10
0.0
 20
0.0
 30
0.0
  9
$UCSORGBOTTOM
 10
0.0
 20
0.0
 30
0.0
  9
$UCSORGLEFT
 10
0.0
 20
0.0
 30
0.0
  9
$UCSORGRIGHT
 10
0.0
 20
0.0
 30
0.0
  9
$UCSORGFRONT
 10
0.0
 20
0.0
 30
0.0
  9
$UCSORGBACK
 10
0.0
 20
0.0
 30
0.0
  9
$PUCSBASE
  2

  9
$PUCSNAME
  2

  9
$PUCSORG
 10
0.0
 20
0.0
 30
0.0
  9
$PUCSXDIR
 10
1.0
 20
0.0
 30
0.0
  9
$PUCSYDIR
 10
0.0
 20
1.0
 30
0.0
  9
$PUCSORTHOREF
  2

  9
$PUCSORTHOVIEW
 70
     0
  9
$PUCSORGTOP
 10
0.0
 20
0.0
 30
0.0
  9
$PUCSORGBOTTOM
 10
0.0
 20
0.0
 30
0.0
  9
$PUCSORGLEFT
 10
0.0
 20
0.0
 30
0.0
  9
$PUCSORGRIGHT
 10
0.0
 20
0.0
 30
0.0
  9
$PUCSORGFRONT
 10
0.0
 20
0.0
 30
0.0
  9
$PUCSORGBACK
 10
0.0
 20
0.0
 30
0.0
  9
$USERI1
 70
     0
  9
$USERI2
 70
     0
  9
$USERI3
 70
     0
  9
$USERI4
 70
     0
  9
$USERI5
 70
     0
  9
$USERR1
 40
0.0
  9
$USERR2
 40
0.0
  9
$USERR3
 40
0.0
  9
$USERR4
 40
2448925.372986111
  9
$USERR5
 40
0.04166667
  9
$WORLDVIEW
 70
     1
  9
$SHADEDGE
 70
     3
  9
$SHADEDIF
 70
    70
  9
$TILEMODE
 70
     1
  9
$MAXACTVP
 70
    16
  9
$PINSBASE
 10
0.0
 20
0.0
 30
0.0
  9
$PLIMCHECK
 70
     0
  9
$PEXTMIN
 10
1.000000000000000E+20
 20
1.000000000000000E+20
 30
1.000000000000000E+20
  9
$PEXTMAX
 10
-1.000000000000000E+20
 20
-1.000000000000000E+20
 30
-1.000000000000000E+20
  9
$PLIMMIN
 10
0.0
 20
0.0
  9
$PLIMMAX
 10
12.0
 20
9.0
  9
$UNITMODE
 70
     0
  9
$VISRETAIN
 70
     0
  9
$PLINEGEN
 70
     0
  9
$PSLTSCALE
 70
     0
  9
$TREEDEPTH
 70
  3020
  9
$CMLSTYLE
  2
STANDARD
  9
$CMLJUST
 70
     0
  9
$CMLSCALE
 40
1.0
  9
$PROXYGRAPHICS
 70
     1
  9
$MEASUREMENT
 70
     0
  9
$CELWEIGHT
370
    -1
  9
$ENDCAPS
280
     0
  9
$JOINSTYLE
280
     0
  9
$LWDISPLAY
290
     0
  9
$INSUNITS
 70
     0
  9
$HYPERLINKBASE
  1

  9
$STYLESHEET
  1
monochrome.ctb
  9
$XEDIT
290
     1
  9
$CEPSNTYPE
380
     0
  9
$PSTYLEMODE
290
     1
  9
$FINGERPRINTGUID
  2
{B89A7537-14BE-40F1-AD2F-A71A7A412336}
  9
$VERSIONGUID
  2
{B1A70B16-DBE1-44B6-9A65-2B286648DF4E}
  9
$EXTNAMES
290
     1
  9
$PSVPSCALE
 40
0.0
  9
$OLESTARTUP
290
     0
  0
ENDSEC
  0
SECTION
  2
CLASSES
  0
CLASS
  1
ACDBDICTIONARYWDFLT
  2
AcDbDictionaryWithDefault
  3
ObjectDBX Classes
 90
        0
280
     0
281
     0
  0
CLASS
  1
MATERIAL
  2
AcDbMaterial
  3
ObjectDBX Classes
 90
     1153
280
     0
281
     0
  0
CLASS
  1
SORTENTSTABLE
  2
AcDbSortentsTable
  3
ObjectDBX Classes
 90
        0
280
     0
281
     0
  0
CLASS
  1
SCALE
  2
AcDbScale
  3
ObjectDBX Classes
 90
     1153
280
     0
281
     0
  0
CLASS
  1
DICTIONARYVAR
  2
AcDbDictionaryVar
  3
ObjectDBX Classes
 90
        0
280
     0
281
     0
  0
CLASS
  1
VISUALSTYLE
  2
AcDbVisualStyle
  3
ObjectDBX Classes
 90
     4095
280
     0
281
     0
  0
CLASS
  1
MLEADERSTYLE
  2
AcDbMLeaderStyle
  3
ACDB_MLEADERSTYLE_CLASS
 90
     4095
280
     0
281
     0
  0
CLASS
  1
TABLESTYLE
  2
AcDbTableStyle
  3
ObjectDBX Classes
 90
     4095
280
     0
281
     0
  0
CLASS
  1
ACDBPLACEHOLDER
  2
AcDbPlaceHolder
  3
ObjectDBX Classes
 90
        0
280
     0
281
     0
  0
CLASS
  1
LAYOUT
  2
AcDbLayout
  3
ObjectDBX Classes
 90
        0
280
     0
281
     0
  0
ENDSEC
  0
SECTION
  2
TABLES
  0
TABLE
  2
VPORT
  5
25
102
{ACAD_XDICTIONARY
360
502
102
}
330
0
100
AcDbSymbolTable
 70
     2
  0
VPORT
  5
2B
330
25
100
AcDbSymbolTableRecord
100
AcDbViewportTableRecord
  2
*ACTIVE
 70
     0
 10
0.0
 20
0.0
 11
1.0
 21
1.0
 12
723.5029278449249
 22
275.3033764514325
 13
0.0
 23
0.0
 14
1.0
 24
1.0
 15
50.0
 25
50.0
 16
0.0
 26
0.0
 36
1.0
 17
0.0
 27
0.0
 37
0.0
 40
728.5608818497606
 41
2.171641791044776
 42
50.0
 43
0.0
 44
0.0
 50
0.0
 51
0.0
 71
     0
 72
  5000
 73
     1
 74
     0
 75
     0
 76
     0
 77
     0
 78
     0
281
     0
 65
     1
110
0.0
120
0.0
130
0.0
111
1.0
121
0.0
131
0.0
112
0.0
122
1.0
132
0.0
 79
     0
146
0.0
  0
ENDTAB
  0
TABLE
  2
LTYPE
  5
9
330
0
100
AcDbSymbolTable
 70
     2
  0
LTYPE
  5
A
330
9
100
AcDbSymbolTableRecord
100
AcDbLinetypeTableRecord
  2
BYBLOCK
 70
     0
  3

 72
    65
 73
     0
 40
0.0
  0
LTYPE
  5
B
330
9
100
AcDbSymbolTableRecord
100
AcDbLinetypeTableRecord
  2
BYLAYER
 70
     0
  3

 72
    65
 73
     0
 40
0.0
  0
LTYPE
  5
8
330
9
100
AcDbSymbolTableRecord
100
AcDbLinetypeTableRecord
  2
CONTINUOUS
 70
     0
  3
Solid line
 72
    65
 73
     0
 40
0.0
  0
LTYPE
  5
73
330
9
100
AcDbSymbolTableRecord
100
AcDbLinetypeTableRecord
  2
CENTER
 70
     0
  3
____ _ ____ _ ____ _ ____ _ ____ _ ____ _ ____
 72
    65
 73
     4
 40
2.0
 49
1.25
 74
     0
 49
-0.25
 74
     0
 49
0.25
 74
     0
 49
-0.25
 74
     0
  0
ENDTAB
  0
TABLE
  2
LAYER
  5
2
330
0
100
AcDbSymbolTable
 70
     8
  0
LAYER
  5
19
330
2
100
AcDbSymbolTableRecord
100
AcDbLayerTableRecord
  2
0
 70
     0
 62
     7
  6
CONTINUOUS
370
    -3
390
3
  0
LAYER
  5
318
330
2
100
AcDbSymbolTableRecord
100
AcDbLayerTableRecord
  2
1
 70
     0
 62
     9
  6
CONTINUOUS
370
    -3
390
3
  0
LAYER
  5
1
330
2
100
AcDbSymbolTableRecord
100
AcDbLayerTableRecord
  2
2
 70
     0
 62
     4
  6
CONTINUOUS
370
    -3
390
3
  0
LAYER
  5
75
330
2
100
AcDbSymbolTableRecord
100
AcDbLayerTableRecord
  2
4
 70
     0
 62
     3
  6
CONTINUOUS
370
    -3
390
3
  0
LAYER
  5
72
330
2
100
AcDbSymbolTableRecord
100
AcDbLayerTableRecord
  2
L-CENTER
 70
     0
 62
     1
  6
CENTER
370
    -3
390
3
  0
LAYER
  5
C8
330
2
100
AcDbSymbolTableRecord
100
AcDbLayerTableRecord
  2
3
 70
     0
 62
     2
  6
CONTINUOUS
370
    -3
390
3
  0
LAYER
  5
312
330
2
100
AcDbSymbolTableRecord
100
AcDbLayerTableRecord
  2
5
 70
     0
 62
     6
  6
CONTINUOUS
370
    -3
390
3
  0
LAYER
  5
489
330
2
100
AcDbSymbolTableRecord
100
AcDbLayerTableRecord
  2
Defpoints
 70
     0
 62
     7
  6
CONTINUOUS
290
     0
370
    -3
390
3
  0
ENDTAB
  0
TABLE
  2
STYLE
  5
D
330
0
100
AcDbSymbolTable
 70
     2
  0
STYLE
  5
11
330
D
100
AcDbSymbolTableRecord
100
AcDbTextStyleTableRecord
  2
STANDARD
 70
     0
 40
0.0
 41
1.0
 50
0.0
 71
     0
 42
2.7
  3
TXT
  4

  0
STYLE
  5
C
330
D
100
AcDbSymbolTableRecord
100
AcDbTextStyleTableRecord
  2
KANJI
 70
     0
 40
0.0
 41
1.0
 50
0.0
 71
     0
 42
4.5
  3
TXT
  4
BIGFONT
  0
ENDTAB
  0
TABLE
  2
VIEW
  5
23
330
0
100
AcDbSymbolTable
 70
     0
  0
ENDTAB
  0
TABLE
  2
UCS
  5
24
330
0
100
AcDbSymbolTable
 70
     0
  0
ENDTAB
  0
TABLE
  2
APPID
  5
1E
330
0
100
AcDbSymbolTable
 70
     4
  0
APPID
  5
2A
330
1E
100
AcDbSymbolTableRecord
100
AcDbRegAppTableRecord
  2
ACAD
 70
     0
  0
APPID
  5
1D
330
1E
100
AcDbSymbolTableRecord
100
AcDbRegAppTableRecord
  2
ACAD_PSEXT
 70
     0
  0
APPID
  5
466
330
1E
100
AcDbSymbolTableRecord
100
AcDbRegAppTableRecord
  2
ACAD_MLEADERVER
 70
     0
  0
ENDTAB
  0
TABLE
  2
DIMSTYLE
  5
10
330
0
100
AcDbSymbolTable
 70
     1
100
AcDbDimStyleTable
  0
DIMSTYLE
105
F
330
10
100
AcDbSymbolTableRecord
100
AcDbDimStyleTableRecord
  2
STANDARD
 70
     0
178
     0
340
11
  0
ENDTAB
  0
TABLE
  2
BLOCK_RECORD
  5
14
330
0
100
AcDbSymbolTable
 70
     0
  0
BLOCK_RECORD
  5
15
102
{ACAD_XDICTIONARY
360
16
102
}
330
14
100
AcDbSymbolTableRecord
100
AcDbBlockTableRecord
  2
*MODEL_SPACE
340
1B
  0
BLOCK_RECORD
  5
1F
330
14
100
AcDbSymbolTableRecord
100
AcDbBlockTableRecord
  2
*PAPER_SPACE
340
22
  0
ENDTAB
  0
ENDSEC
  0
SECTION
  2
BLOCKS
  0
BLOCK
  5
18
330
15
100
AcDbEntity
  8
0
100
AcDbBlockBegin
  2
*MODEL_SPACE
 70
     0
 10
0.0
 20
0.0
 30
0.0
  3
*MODEL_SPACE
  1

  0
ENDBLK
  5
1A
330
15
100
AcDbEntity
  8
0
100
AcDbBlockEnd
  0
BLOCK
  5
20
330
1F
100
AcDbEntity
 67
     1
  8
0
100
AcDbBlockBegin
  2
*PAPER_SPACE
 70
     0
 10
0.0
 20
0.0
 30
0.0
  3
*PAPER_SPACE
  1

  0
ENDBLK
  5
21
330
1F
100
AcDbEntity
 67
     1
  8
0
100
AcDbBlockEnd
  0
ENDSEC
  0
SECTION
  2
ENTITIES
  0
LINE
  5
71
330
15
100
AcDbEntity
  8
L-CENTER
 48
1.5
100
AcDbLine
 10
588.4281451128038
 20
123.6646534660627
 30
0.0
 11
409.3654865024253
 21
123.6646534660627
 31
0.0
  0
LINE
  5
74
330
15
100
AcDbEntity
  8
4
100
AcDbLine
 10
571.9110556128037
 20
158.1646534660627
 30
0.0
 11
441.911055112804
 21
158.1646534660627
 31
0.0
  0
LINE
  5
78
330
15
100
AcDbEntity
  8
4
100
AcDbLine
 10
484.9110556128039
 20
75.6646534660627
 30
0.0
 11
528.911055112804
 21
75.6646534660627
 31
0.0
  0
LINE
  5
79
330
15
100
AcDbEntity
  8
4
100
AcDbLine
 10
481.9110556128039
 20
70.66465396606276
 30
0.0
 11
531.911055112804
 21
70.66465396606276
 31
0.0
  0
ARC
  5
7A
330
15
100
AcDbEntity
  8
4
100
AcDbCircle
 10
489.864888112804
 20
73.16465296606265
 30
0.0
 40
1.0000005
100
AcDbArc
 50
270.0
 51
30.00000000000779
  0
LINE
  5
7B
330
15
100
AcDbEntity
  8
4
100
AcDbLine
 10
479.9112991128038
 20
179.0645314660628
 30
0.0
 11
533.9110546128038
 21
179.0645314660628
 31
0.0
  0
LINE
  5
7C
330
15
100
AcDbEntity
  8
4
100
AcDbLine
 10
530.411055112804
 20
180.0645319660627
 30
0.0
 11
483.4110556128039
 21
180.0645319660627
 31
0.0
  0
LINE
  5
7D
330
15
100
AcDbEntity
  8
4
100
AcDbLine
 10
568.9110556128037
 20
172.0644334660627
 30
0.0
 11
444.911299612804
 21
172.0644334660627
 31
0.0
  0
LINE
  5
7E
330
15
100
AcDbEntity
  8
4
100
AcDbLine
 10
569.9110546128038
 20
163.1646529660626
 30
0.0
 11
443.9110546128038
 21
163.1646529660626
 31
0.0
  0
LINE
  5
7F
330
15
100
AcDbEntity
  8
4
100
AcDbLine
 10
498.4110541128038
 20
173.1645319660627
 30
0.0
 11
477.911299612804
 21
173.1645319660627
 31
0.0
  0
LINE
  5
84
330
15
100
AcDbEntity
  8
4
100
AcDbLine
 10
255.5426271784314
 20
188.6645314660627
 30
0.0
 11
255.5426271784314
 21
180.0645319660627
 31
0.0
  0
LINE
  5
85
330
15
100
AcDbEntity
  8
4
100
AcDbLine
 10
230.5426281784313
 20
188.6645314660627
 30
0.0
 11
230.5426281784313
 21
180.0645319660627
 31
0.0
  0
LINE
  5
87
330
15
100
AcDbEntity
  8
L-CENTER
 48
1.5
100
AcDbLine
 10
243.0426276784314
 20
231.0429574660628
 30
0.0
 11
243.0426276784312
 21
16.28634946606263
 31
0.0
  0
LINE
  5
8A
330
15
100
AcDbEntity
  8
4
100
AcDbLine
 10
305.0426271784314
 20
172.0644334660627
 30
0.0
 11
181.0427811784313
 21
172.0644334660627
 31
0.0
  0
LINE
  5
8B
330
15
100
AcDbEntity
  8
4
100
AcDbLine
 10
180.0427806784313
 20
163.1646529660626
 30
0.0
 11
306.0426276784314
 21
163.1646529660626
 31
0.0
  0
LINE
  5
8C
330
15
100
AcDbEntity
  8
4
100
AcDbLine
 10
308.0426271784314
 20
158.1646534660627
 30
0.0
 11
178.0427811784313
 21
158.1646534660627
 31
0.0
  0
LINE
  5
8D
330
15
100
AcDbEntity
  8
4
100
AcDbLine
 10
307.0426266784314
 20
157.1646529660626
 30
0.0
 11
179.0427801784314
 21
157.1646529660626
 31
0.0
  0
LINE
  5
8E
330
15
100
AcDbEntity
  8
4
100
AcDbLine
 10
216.0427806784313
 20
179.0645314660628
 30
0.0
 11
270.0426276784314
 21
179.0645314660628
 31
0.0
  0
LINE
  5
8F
330
15
100
AcDbEntity
  8
4
100
AcDbLine
 10
266.5426281784313
 20
180.0645319660627
 30
0.0
 11
219.5426271784314
 21
180.0645319660627
 31
0.0
  0
LINE
  5
90
330
15
100
AcDbEntity
  8
4
100
AcDbLine
 10
219.2926276784311
 20
173.1645319660626
 30
0.0
 11
266.7926276784314
 21
173.1645319660628
 31
0.0
  0
LINE
  5
93
330
15
100
AcDbEntity
  8
L-CENTER
 48
1.5
100
AcDbLine
 10
313.8549389366787
 20
123.6646534660627
 30
0.0
 11
125.5750348223933
 21
123.6646534660627
 31
0.0
  0
LINE
  5
94
330
15
100
AcDbEntity
  8
4
100
AcDbLine
 10
307.0426266784314
 20
90.16465396606276
 30
0.0
 11
179.0427801784314
 21
90.16465396606276
 31
0.0
  0
LINE
  5
95
330
15
100
AcDbEntity
  8
4
100
AcDbLine
 10
267.3440556784313
 20
70.66465396606276
 30
0.0
 11
218.7411981784313
 21
70.66465396606276
 31
0.0
  0
LINE
  5
96
330
15
100
AcDbEntity
  8
4
100
AcDbLine
 10
277.5426276784314
 20
75.6646534660627
 30
0.0
 11
208.5427806784313
 21
75.6646534660627
 31
0.0
  0
ARC
  5
97
330
15
100
AcDbEntity
  8
4
100
AcDbCircle
 10
202.5427806784313
 20
73.66465396606276
 30
0.0
 40
3.0
100
AcDbArc
 50
0.0
 51
90.0
  0
ARC
  5
98
330
15
100
AcDbEntity
  8
4
100
AcDbCircle
 10
175.0427811784313
 20
80.66465296606265
 30
0.0
 40
4.0000005
100
AcDbArc
 50
270.0004299999993
 51
0.0
  0
ARC
  5
99
330
15
100
AcDbEntity
  8
4
100
AcDbCircle
 10
152.5427811784313
 20
74.66465296606265
 30
0.0
 40
1.9999995
100
AcDbArc
 50
90.0
 51
180.000458000027
  0
LINE
  5
9A
330
15
100
AcDbEntity
  8
L-CENTER
 48
1.5
100
AcDbLine
 10
163.0427811784313
 20
54.6646534660627
 30
0.0
 11
163.0427811784313
 21
82.66465396606276
 31
0.0
  0
LINE
  5
9B
330
15
100
AcDbEntity
  8
4
100
AcDbLine
 10
205.5427806784313
 20
60.6646534660627
 30
0.0
 11
150.5427801784314
 21
60.6646534660627
 31
0.0
  0
LINE
  5
9C
330
15
100
AcDbEntity
  8
4
100
AcDbLine
 10
202.5427806784313
 20
76.66465396606276
 30
0.0
 11
152.5427811784313
 21
76.66465396606276
 31
0.0
  0
LINE
  5
A1
330
15
100
AcDbEntity
  8
4
100
AcDbLine
 10
150.5427801784314
 20
60.6646534660627
 30
0.0
 11
150.5427801784314
 21
74.66465296606265
 31
0.0
  0
LINE
  5
A2
330
15
100
AcDbEntity
  8
4
100
AcDbLine
 10
205.5426276784314
 20
72.16465396606276
 30
0.0
 11
220.0765986784313
 21
72.16465396606276
 31
0.0
  0
LINE
  5
A3
330
15
100
AcDbEntity
  8
4
100
AcDbLine
 10
205.5427806784313
 20
73.66465396606276
 30
0.0
 11
205.5427806784313
 21
60.6646534660627
 31
0.0
  0
ARC
  5
A4
330
15
100
AcDbEntity
  8
4
100
AcDbCircle
 10
208.5427806784313
 20
72.6646534660627
 30
0.0
 40
3.0
100
AcDbArc
 50
90.0
 51
180.0003060001453
  0
LINE
  5
A5
330
15
100
AcDbEntity
  8
4
100
AcDbLine
 10
221.0366601784314
 20
73.4444434660627
 30
0.0
 11
220.3896276784313
 21
75.6646534660627
 31
0.0
  0
ARC
  5
A6
330
15
100
AcDbEntity
  8
4
100
AcDbCircle
 10
220.0765986784313
 20
73.16465296606265
 30
0.0
 40
1.0000005
100
AcDbArc
 50
270.0
 51
16.24763200000012
  0
ARC
  5
A7
330
15
100
AcDbEntity
  8
4
100
AcDbCircle
 10
218.7411981784313
 20
73.66465396606276
 30
0.0
 40
3.0
100
AcDbArc
 50
209.9999999999988
 51
270.0
  0
LINE
  5
A8
330
15
100
AcDbEntity
  8
4
100
AcDbLine
 10
174.0427806784313
 20
147.1646539660628
 30
0.0
 11
174.0427806784313
 21
100.1646529660626
 31
0.0
  0
LINE
  5
A9
330
15
100
AcDbEntity
  8
4
100
AcDbLine
 10
179.0427801784314
 20
80.66465296606265
 30
0.0
 11
179.0427801784314
 21
157.1646529660626
 31
0.0
  0
LINE
  5
AA
330
15
100
AcDbEntity
  8
4
100
AcDbLine
 10
175.0427811784313
 20
156.1646539660628
 30
0.0
 11
175.0427811784313
 21
91.16465296606265
 31
0.0
  0
ARC
  5
AB
330
15
100
AcDbEntity
  8
4
100
AcDbCircle
 10
177.0427806784313
 20
89.1646534660627
 30
0.0
 40
1.9999995
100
AcDbArc
 50
0.0
 51
90.0
  0
LINE
  5
AC
330
15
100
AcDbEntity
  8
4
100
AcDbLine
 10
175.0427811784313
 20
91.16465296606265
 30
0.0
 11
177.0427806784313
 21
91.16465296606265
 31
0.0
  0
LINE
  5
AD
330
15
100
AcDbEntity
  8
4
100
AcDbLine
 10
175.0427811784313
 20
100.1646529660626
 30
0.0
 11
174.0427806784313
 21
100.1646529660626
 31
0.0
  0
LINE
  5
AE
330
15
100
AcDbEntity
  8
4
100
AcDbLine
 10
290.0426271784313
 20
177.1645309660626
 30
0.0
 11
275.2926276784315
 21
177.1645309660626
 31
0.0
  0
LINE
  5
AF
330
15
100
AcDbEntity
  8
4
100
AcDbLine
 10
275.2926276784314
 20
173.1645319660627
 30
0.0
 11
290.5426281784313
 21
173.1645319660627
 31
0.0
  0
LINE
  5
B0
330
15
100
AcDbEntity
  8
4
100
AcDbLine
 10
175.0427811784313
 20
147.1646539660628
 30
0.0
 11
174.0427806784313
 21
147.1646539660628
 31
0.0
  0
ARC
  5
B1
330
15
100
AcDbEntity
  8
4
100
AcDbCircle
 10
181.0427811784313
 20
171.0644329660627
 30
0.0
 40
1.0000005
100
AcDbArc
 50
90.0
 51
180.0
  0
LINE
  5
B2
330
15
100
AcDbEntity
  8
4
100
AcDbLine
 10
180.0427806784313
 20
171.0644329660627
 30
0.0
 11
180.0427806784313
 21
158.1646534660627
 31
0.0
  0
LINE
  5
B3
330
15
100
AcDbEntity
  8
4
100
AcDbLine
 10
178.0427811784313
 20
158.1646534660627
 30
0.0
 11
178.0427811784313
 21
156.1646539660628
 31
0.0
  0
LINE
  5
B4
330
15
100
AcDbEntity
  8
4
100
AcDbLine
 10
175.0427811784313
 20
156.1646539660628
 30
0.0
 11
178.0428801784313
 21
156.1646539660628
 31
0.0
  0
ARC
  5
B5
330
15
100
AcDbEntity
  8
4
100
AcDbCircle
 10
178.0428801784313
 20
157.1645539660627
 30
0.0
 40
0.9999
100
AcDbArc
 50
270.0
 51
0.0
  0
LINE
  5
B6
330
15
100
AcDbEntity
  8
L-CENTER
 48
1.5
100
AcDbLine
 10
187.0426276784312
 20
179.9577051186861
 30
0.0
 11
187.0426276784312
 21
156.5972037569828
 31
0.0
  0
LINE
  5
B7
330
15
100
AcDbEntity
  8
4
100
AcDbLine
 10
290.0426271784313
 20
177.1645309660626
 30
0.0
 11
290.0426271784313
 21
173.1645319660627
 31
0.0
  0
LINE
  5
B8
330
15
100
AcDbEntity
  8
4
100
AcDbLine
 10
290.5426281784313
 20
173.1645319660627
 30
0.0
 11
290.5426281784313
 21
172.0644334660627
 31
0.0
  0
LINE
  5
B9
330
15
100
AcDbEntity
  8
4
100
AcDbLine
 10
281.4426366784312
 20
177.1645309660626
 30
0.0
 11
281.4426366784312
 21
178.0646779660628
 31
0.0
  0
LINE
  5
BA
330
15
100
AcDbEntity
  8
4
100
AcDbLine
 10
282.6426171784312
 20
177.1645309660626
 30
0.0
 11
282.6426171784312
 21
178.0646779660628
 31
0.0
  0
ARC
  5
BB
330
15
100
AcDbEntity
  8
4
100
AcDbCircle
 10
282.0426276784312
 20
178.0646779660628
 30
0.0
 40
0.6000059999999999
100
AcDbArc
 50
0.0
 51
180.0
  0
LINE
  5
BC
330
15
100
AcDbEntity
  8
L-CENTER
 48
1.5
100
AcDbLine
 10
282.0426276784312
 20
168.5962324660627
 30
0.0
 11
282.0426276784312
 21
179.7041794660627
 31
0.0
  0
LINE
  5
BD
330
15
100
AcDbEntity
  8
L-CENTER
 48
1.5
100
AcDbLine
 10
215.0426276784311
 20
179.9577051186861
 30
0.0
 11
215.0426276784311
 21
156.5972037569828
 31
0.0
  0
LINE
  5
BE
330
15
100
AcDbEntity
  8
4
100
AcDbLine
 10
216.0426276784314
 20
179.0645314660628
 30
0.0
 11
215.8092615193311
 21
178.3644334660627
 31
0.0
  0
LINE
  5
BF
330
15
100
AcDbEntity
  8
4
100
AcDbLine
 10
219.5426271784314
 20
180.0645319660627
 30
0.0
 11
219.5426271784314
 21
179.0645314660628
 31
0.0
  0
TEXT
  5
C7
330
15
100
AcDbEntity
  8
3
100
AcDbText
 10
341.0094655262609
 20
36.82199296338871
 30
0.0
 40
4.5
  1
LC1.5-07
  7
KANJI
 72
     1
 11
355.6344655262609
 21
36.82199296338871
 31
0.0
100
AcDbText
  0
ARC
  5
CA
330
15
100
AcDbEntity
  8
4
100
AcDbCircle
 10
333.5425356784314
 20
74.66465296606265
 30
0.0
 40
1.9999995
100
AcDbArc
 50
0.0
 51
90.0
  0
LINE
  5
CB
330
15
100
AcDbEntity
  8
L-CENTER
 48
1.5
100
AcDbLine
 10
323.0426271784314
 20
54.6646534660627
 30
0.0
 11
323.0426271784314
 21
82.66465396606276
 31
0.0
  0
ARC
  5
CC
330
15
100
AcDbEntity
  8
4
100
AcDbCircle
 10
311.0426271784314
 20
80.66465296606265
 30
0.0
 40
4.0000005
100
AcDbArc
 50
180.0002289992177
 51
270.000658999999
  0
ARC
  5
CD
330
15
100
AcDbEntity
  8
4
100
AcDbCircle
 10
283.5426276784314
 20
73.66465396606276
 30
0.0
 40
3.0
100
AcDbArc
 50
90.0
 51
180.0003060001453
  0
LINE
  5
CE
330
15
100
AcDbEntity
  8
4
100
AcDbLine
 10
283.5426276784314
 20
76.66465396606276
 30
0.0
 11
333.5425356784314
 21
76.66465396606276
 31
0.0
  0
LINE
  5
CF
330
15
100
AcDbEntity
  8
4
100
AcDbLine
 10
280.5426276784314
 20
60.6646534660627
 30
0.0
 11
335.5425366784312
 21
60.6646534660627
 31
0.0
  0
LINE
  5
D2
330
15
100
AcDbEntity
  8
4
100
AcDbLine
 10
280.5426276784314
 20
72.16465396606276
 30
0.0
 11
266.0086566784313
 21
72.16465396606276
 31
0.0
  0
ARC
  5
D3
330
15
100
AcDbEntity
  8
4
100
AcDbCircle
 10
267.3440556784313
 20
73.66465396606276
 30
0.0
 40
3.0
100
AcDbArc
 50
270.0
 51
329.0362430000002
  0
LINE
  5
D4
330
15
100
AcDbEntity
  8
4
100
AcDbLine
 10
265.0485951784314
 20
73.4444434660627
 30
0.0
 11
265.6956276784314
 21
75.6646534660627
 31
0.0
  0
ARC
  5
D5
330
15
100
AcDbEntity
  8
4
100
AcDbCircle
 10
266.0086566784313
 20
73.16465296606265
 30
0.0
 40
1.0000005
100
AcDbArc
 50
163.7523679999999
 51
270.0
  0
LINE
  5
D6
330
15
100
AcDbEntity
  8
4
100
AcDbLine
 10
280.5426276784314
 20
73.66465396606276
 30
0.0
 11
280.5426276784314
 21
60.6646534660627
 31
0.0
  0
ARC
  5
D7
330
15
100
AcDbEntity
  8
4
100
AcDbCircle
 10
277.5426276784314
 20
72.6646534660627
 30
0.0
 40
3.0
100
AcDbArc
 50
0.0
 51
90.0
  0
ARC
  5
DE
330
15
100
AcDbEntity
  8
4
100
AcDbCircle
 10
310.5231276784314
 20
65.30578096606274
 30
0.0
 40
2.029101
100
AcDbArc
 50
119.9087440000012
 51
225.2543949999989
  0
ARC
  5
DF
330
15
100
AcDbEntity
  8
4
100
AcDbCircle
 10
310.5231276784314
 20
65.30578096606274
 30
0.0
 40
2.029101
100
AcDbArc
 50
119.9087440000012
 51
225.2543949999989
  0
ARC
  5
E0
330
15
100
AcDbEntity
  8
4
100
AcDbCircle
 10
307.6662996784313
 20
62.42351896606266
 30
0.0
 40
2.0290875
100
AcDbArc
 50
299.908944
 51
45.25409699999926
  0
ARC
  5
E1
330
15
100
AcDbEntity
  8
4
100
AcDbCircle
 10
307.6662996784313
 20
62.42351896606266
 30
0.0
 40
2.0290875
100
AcDbArc
 50
299.908944
 51
45.25409699999926
  0
LINE
  5
E2
330
15
100
AcDbEntity
  8
4
100
AcDbLine
 10
317.5426266784314
 20
76.66465396606276
 30
0.0
 11
317.5426266784314
 21
60.6646534660627
 31
0.0
  0
ARC
  5
E3
330
15
100
AcDbEntity
  8
4
100
AcDbCircle
 10
309.3330021784312
 20
75.22352146606272
 30
0.0
 40
2.0290875
100
AcDbArc
 50
299.908944
 51
45.25409699999926
  0
ARC
  5
E4
330
15
100
AcDbEntity
  8
4
100
AcDbCircle
 10
309.3330021784312
 20
75.22352146606272
 30
0.0
 40
2.0290875
100
AcDbArc
 50
299.908944
 51
45.25409699999926
  0
ARC
  5
E5
330
15
100
AcDbEntity
  8
4
100
AcDbCircle
 10
308.4996591784313
 20
68.82351196606265
 30
0.0
 40
2.0290875
100
AcDbArc
 50
299.908944
 51
45.25411699999857
  0
ARC
  5
E6
330
15
100
AcDbEntity
  8
4
100
AcDbCircle
 10
308.4996591784313
 20
68.82351196606265
 30
0.0
 40
2.0290875
100
AcDbArc
 50
299.908944
 51
45.25411699999857
  0
ARC
  5
E7
330
15
100
AcDbEntity
  8
4
100
AcDbCircle
 10
311.3564706784314
 20
71.70579046606264
 30
0.0
 40
2.0290995
100
AcDbArc
 50
119.9087190000006
 51
225.2543749999988
  0
ARC
  5
E8
330
15
100
AcDbEntity
  8
4
100
AcDbCircle
 10
311.3564706784314
 20
71.70579046606264
 30
0.0
 40
2.0290995
100
AcDbArc
 50
119.9087190000006
 51
225.2543749999988
  0
LINE
  5
E9
330
15
100
AcDbEntity
  8
4
100
AcDbLine
 10
328.5425361784313
 20
76.66465396606276
 30
0.0
 11
328.5425361784313
 21
60.6646534660627
 31
0.0
  0
LINE
  5
EA
330
15
100
AcDbEntity
  8
4
100
AcDbLine
 10
335.5425366784312
 20
60.6646534660627
 30
0.0
 11
335.5425366784312
 21
74.66465296606265
 31
0.0
  0
LINE
  5
EC
330
15
100
AcDbEntity
  8
4
100
AcDbLine
 10
210.7926276784312
 20
172.7474419319368
 30
0.0
 11
203.7921261784313
 21
172.0644334660627
 31
0.0
  0
LINE
  5
ED
330
15
100
AcDbEntity
  8
4
100
AcDbLine
 10
266.5426281784313
 20
179.0645314660628
 30
0.0
 11
266.5426281784313
 21
180.0645319660627
 31
0.0
  0
LINE
  5
EE
330
15
100
AcDbEntity
  8
4
100
AcDbLine
 10
270.0426276784314
 20
179.0645314660628
 30
0.0
 11
270.2759938375315
 21
178.3644334660627
 31
0.0
  0
LINE
  5
F0
330
15
100
AcDbEntity
  8
4
100
AcDbLine
 10
312.0426276784314
 20
147.1646539660628
 30
0.0
 11
312.0426276784314
 21
100.1646529660626
 31
0.0
  0
LINE
  5
F1
330
15
100
AcDbEntity
  8
4
100
AcDbLine
 10
307.0426266784314
 20
80.66465296606265
 30
0.0
 11
307.0426266784314
 21
157.1646529660626
 31
0.0
  0
LINE
  5
F2
330
15
100
AcDbEntity
  8
4
100
AcDbLine
 10
311.0426271784314
 20
156.1646539660628
 30
0.0
 11
311.0426271784314
 21
91.16465296606265
 31
0.0
  0
ARC
  5
F3
330
15
100
AcDbEntity
  8
4
100
AcDbCircle
 10
309.0426276784314
 20
89.1646534660627
 30
0.0
 40
1.9999995
100
AcDbArc
 50
90.0
 51
180.0
  0
LINE
  5
F4
330
15
100
AcDbEntity
  8
4
100
AcDbLine
 10
309.0426276784314
 20
91.16465296606265
 30
0.0
 11
311.0426271784314
 21
91.16465296606265
 31
0.0
  0
LINE
  5
F5
330
15
100
AcDbEntity
  8
4
100
AcDbLine
 10
311.0426271784314
 20
100.1646529660626
 30
0.0
 11
312.0426276784314
 21
100.1646529660626
 31
0.0
  0
LINE
  5
FA
330
15
100
AcDbEntity
  8
4
100
AcDbLine
 10
311.0426271784314
 20
147.1646539660628
 30
0.0
 11
312.0426276784314
 21
147.1646539660628
 31
0.0
  0
LINE
  5
FB
330
15
100
AcDbEntity
  8
4
100
AcDbLine
 10
308.0425266784314
 20
156.1646539660628
 30
0.0
 11
311.0426271784314
 21
156.1646539660628
 31
0.0
  0
LINE
  5
FC
330
15
100
AcDbEntity
  8
4
100
AcDbLine
 10
306.0426276784314
 20
171.0644329660627
 30
0.0
 11
306.0426276784314
 21
158.1646534660627
 31
0.0
  0
LINE
  5
FD
330
15
100
AcDbEntity
  8
4
100
AcDbLine
 10
308.0426271784314
 20
158.1646534660627
 30
0.0
 11
308.0426271784314
 21
156.1646539660628
 31
0.0
  0
ARC
  5
FE
330
15
100
AcDbEntity
  8
4
100
AcDbCircle
 10
308.0425266784314
 20
157.1645539660627
 30
0.0
 40
0.9999
100
AcDbArc
 50
180.0
 51
270.0
  0
ARC
  5
FF
330
15
100
AcDbEntity
  8
4
100
AcDbCircle
 10
305.0426271784314
 20
171.0644329660627
 30
0.0
 40
1.0000005
100
AcDbArc
 50
0.0
 51
90.0
  0
ARC
  5
102
330
15
100
AcDbEntity
  8
4
100
AcDbCircle
 10
478.9110556128039
 20
73.66465396606276
 30
0.0
 40
3.0
100
AcDbArc
 50
0.0
 51
90.0
  0
ARC
  5
103
330
15
100
AcDbEntity
  8
4
100
AcDbCircle
 10
473.9110546128038
 20
73.66465396606276
 30
0.0
 40
3.0
100
AcDbArc
 50
0.0
 51
90.0
  0
LINE
  5
104
330
15
100
AcDbEntity
  8
L-CENTER
 48
1.5
100
AcDbLine
 10
461.9110546128038
 20
82.66465396606276
 30
0.0
 11
461.9110546128038
 21
54.6646534660627
 31
0.0
  0
ARC
  5
105
330
15
100
AcDbEntity
  8
4
100
AcDbCircle
 10
449.9110546128038
 20
73.66465396606276
 30
0.0
 40
3.0
100
AcDbArc
 50
90.0
 51
180.0003060001453
  0
LINE
  5
106
330
15
100
AcDbEntity
  8
4
100
AcDbLine
 10
446.9110546128038
 20
85.21367746606273
 30
0.0
 11
446.9110546128038
 21
60.6646534660627
 31
0.0
  0
LINE
  5
10C
330
15
100
AcDbEntity
  8
4
100
AcDbLine
 10
446.9110546128038
 20
60.6646534660627
 30
0.0
 11
481.9110556128039
 21
60.6646534660627
 31
0.0
  0
LINE
  5
10D
330
15
100
AcDbEntity
  8
4
100
AcDbLine
 10
478.9110556128039
 20
76.66465396606276
 30
0.0
 11
449.9110546128038
 21
76.66465396606276
 31
0.0
  0
LINE
  5
110
330
15
100
AcDbEntity
  8
4
100
AcDbLine
 10
476.9110546128038
 20
73.66465396606276
 30
0.0
 11
476.9110546128038
 21
60.6646534660627
 31
0.0
  0
LINE
  5
111
330
15
100
AcDbEntity
  8
4
100
AcDbLine
 10
481.9110556128039
 20
73.66465396606276
 30
0.0
 11
481.9110556128039
 21
60.6646534660627
 31
0.0
  0
ARC
  5
112
330
15
100
AcDbEntity
  8
4
100
AcDbCircle
 10
484.9110556128039
 20
72.6646534660627
 30
0.0
 40
3.0
100
AcDbArc
 50
90.0
 51
180.0003060001453
  0
LINE
  5
113
330
15
100
AcDbEntity
  8
4
100
AcDbLine
 10
481.9110556128039
 20
72.16465396606276
 30
0.0
 11
489.864888112804
 21
72.16465396606276
 31
0.0
  0
LINE
  5
114
330
15
100
AcDbEntity
  8
4
100
AcDbLine
 10
489.5762131128038
 20
75.6646534660627
 30
0.0
 11
490.7309131128038
 21
73.66465396606276
 31
0.0
  0
ARC
  5
115
330
15
100
AcDbEntity
  8
4
100
AcDbCircle
 10
446.9110546128038
 20
-92.83534003393729
 30
0.0
 40
249.999993
100
AcDbArc
 50
90.0
 51
96.88129
  0
CIRCLE
  5
116
330
15
100
AcDbEntity
  8
4
100
AcDbCircle
 10
446.9110546128038
 20
123.6646534660627
 30
0.0
 40
23.5000005
  0
ARC
  5
117
330
15
100
AcDbEntity
  8
4
100
AcDbCircle
 10
446.9110546128038
 20
340.1646469660628
 30
0.0
 40
249.999993
100
AcDbArc
 50
263.11871
 51
268.876481
  0
CIRCLE
  5
118
330
15
100
AcDbEntity
  8
4
100
AcDbCircle
 10
446.9110546128038
 20
123.6646534660627
 30
0.0
 40
32.5000005
  0
ARC
  5
11C
330
15
100
AcDbEntity
  8
4
100
AcDbCircle
 10
663.4110481128039
 20
123.6646534660627
 30
0.0
 40
249.999993
100
AcDbArc
 50
173.11871
 51
186.8812900000001
  0
ARC
  5
120
330
15
100
AcDbEntity
  8
4
100
AcDbCircle
 10
417.1975186128038
 20
93.95111596606267
 30
0.0
 40
1.9999995
100
AcDbArc
 50
186.8812900000001
 51
263.118710000004
  0
ARC
  5
123
330
15
100
AcDbEntity
  8
4
100
AcDbCircle
 10
417.1975186128038
 20
153.3781909660627
 30
0.0
 40
1.9999995
100
AcDbArc
 50
96.88128999999601
 51
173.1187100000008
  0
LINE
  5
127
330
15
100
AcDbEntity
  8
L-CENTER
 48
1.5
100
AcDbLine
 10
446.9110546128038
 20
161.2102215764411
 30
0.0
 11
446.9110546128038
 21
86.11908535568426
 31
0.0
  0
ARC
  5
128
330
15
100
AcDbEntity
  8
4
100
AcDbCircle
 10
441.911055112804
 20
85.21367746606273
 30
0.0
 40
4.9999995
100
AcDbArc
 50
0.0
 51
88.87648100000071
  0
LINE
  5
12A
330
15
100
AcDbEntity
  8
4
100
AcDbLine
 10
481.9110556128039
 20
157.1646529660626
 30
0.0
 11
446.9110546128038
 21
157.1646529660626
 31
0.0
  0
LINE
  5
12C
330
15
100
AcDbEntity
  8
4
100
AcDbLine
 10
441.911055112804
 20
158.1646534660627
 30
0.0
 11
441.911055112804
 21
157.1646529660626
 31
0.0
  0
LINE
  5
12D
330
15
100
AcDbEntity
  8
L-CENTER
 48
1.5
100
AcDbLine
 10
458.4136320008749
 20
179.9137311512185
 30
0.0
 11
458.4136320008761
 21
156.5972037569843
 31
0.0
  0
LINE
  5
12E
330
15
100
AcDbEntity
  8
4
100
AcDbLine
 10
443.9112991128038
 20
171.0644329660627
 30
0.0
 11
443.9112991128038
 21
163.1646529660626
 31
0.0
  0
LINE
  5
12F
330
15
100
AcDbEntity
  8
4
100
AcDbLine
 10
443.9110546128038
 20
158.1646534660627
 30
0.0
 11
443.9110546128038
 21
159.1646539660628
 31
0.0
  0
LINE
  5
130
330
15
100
AcDbEntity
  8
4
100
AcDbLine
 10
443.9110546128038
 20
159.1646539660628
 30
0.0
 11
443.9110546128038
 21
163.1646529660626
 31
0.0
  0
ARC
  5
131
330
15
100
AcDbEntity
  8
4
100
AcDbCircle
 10
444.911299612804
 20
171.0644329660627
 30
0.0
 40
1.0000005
100
AcDbArc
 50
90.0
 51
180.0
  0
LINE
  5
132
330
15
100
AcDbEntity
  8
4
100
AcDbLine
 10
477.911055112804
 20
173.1645319660627
 30
0.0
 11
467.1725041128038
 21
172.0644334660627
 31
0.0
  0
LINE
  5
133
330
15
100
AcDbEntity
  8
4
100
AcDbLine
 10
479.9112991128038
 20
179.0645314660628
 30
0.0
 11
477.911299612804
 21
173.1645319660627
 31
0.0
  0
LINE
  5
134
330
15
100
AcDbEntity
  8
4
100
AcDbLine
 10
483.4110556128039
 20
180.0645319660627
 30
0.0
 11
483.4110556128039
 21
179.0645314660628
 31
0.0
  0
ARC
  5
135
330
15
100
AcDbEntity
  8
4
100
AcDbCircle
 10
243.0426276784311
 20
353.0585532683424
 30
0.0
 40
100.0
100
AcDbArc
 50
77.1510080358288
 51
102.8489919641712
  0
ARC
  5
136
330
15
100
AcDbEntity
  8
4
100
AcDbCircle
 10
243.0426276784312
 20
355.0585532683424
 30
0.0
 40
100.0
100
AcDbArc
 50
76.16959380972779
 51
103.8304061902722
  0
ARC
  5
137
330
15
100
AcDbEntity
  8
4
100
AcDbCircle
 10
243.0426276784312
 20
499.0585532683423
 30
0.0
 40
100.0
100
AcDbArc
 50
257.1510080358287
 51
282.8489919641713
  0
ARC
  5
138
330
15
100
AcDbEntity
  8
4
100
AcDbCircle
 10
243.0426276784312
 20
497.0585532683423
 30
0.0
 40
100.0
100
AcDbArc
 50
256.1695938097276
 51
283.8304061902722
  0
CIRCLE
  5
139
330
15
100
AcDbEntity
  8
4
100
AcDbCircle
 10
243.0426276784312
 20
426.0585532683423
 30
0.0
 40
23.5
  0
CIRCLE
  5
13A
330
15
100
AcDbEntity
  8
4
100
AcDbCircle
 10
243.0426276784312
 20
426.0585532683423
 30
0.0
 40
48.0
  0
CIRCLE
  5
13B
330
15
100
AcDbEntity
  8
L-CENTER
 48
1.5
100
AcDbCircle
 10
243.0426276784312
 20
426.0585532683423
 30
0.0
 40
56.0
  0
CIRCLE
  5
13C
330
15
100
AcDbEntity
  8
4
100
AcDbCircle
 10
243.0426276784312
 20
426.0585532683423
 30
0.0
 40
63.0
  0
ARC
  5
13D
330
15
100
AcDbEntity
  8
4
100
AcDbCircle
 10
243.0426276784312
 20
291.0585532683423
 30
0.0
 40
200.0
100
AcDbArc
 50
74.30938079836311
 51
105.689946
  0
LINE
  5
13E
330
15
100
AcDbEntity
  8
4
100
AcDbLine
 10
228.0426276784312
 20
494.0585532683423
 30
0.0
 11
258.0426276784312
 21
494.0585532683423
 31
0.0
  0
ARC
  5
13F
330
15
100
AcDbEntity
  8
4
100
AcDbCircle
 10
243.0426276784312
 20
561.0585532683423
 30
0.0
 40
200.0
100
AcDbArc
 50
254.310054
 51
285.6906192016369
  0
LINE
  5
140
330
15
100
AcDbEntity
  8
L-CENTER
 48
1.5
100
AcDbLine
 10
125.5750348223933
 20
366.0585532683423
 30
0.0
 11
313.8549389366787
 21
366.0585532683423
 31
0.0
  0
LINE
  5
141
330
15
100
AcDbEntity
  8
L-CENTER
 48
1.5
100
AcDbLine
 10
173.4600016784314
 20
426.0585532683423
 30
0.0
 11
312.7961226784312
 21
426.0585532683423
 31
0.0
  0
LINE
  5
142
330
15
100
AcDbEntity
  8
4
100
AcDbLine
 10
180.0426276784312
 20
332.5585532683423
 30
0.0
 11
306.0426276784312
 21
332.5585532683423
 31
0.0
  0
LINE
  5
145
330
15
100
AcDbEntity
  8
4
100
AcDbLine
 10
174.0427806784313
 20
389.5585537683424
 30
0.0
 11
174.0427806784313
 21
342.5585527683423
 31
0.0
  0
LINE
  5
146
330
15
100
AcDbEntity
  8
L-CENTER
 48
1.5
100
AcDbLine
 10
219.2668711020391
 20
384.8777348896414
 30
0.0
 11
210.8183842548233
 21
370.2445264231864
 31
0.0
  0
LINE
  5
148
330
15
100
AcDbEntity
  8
4
100
AcDbLine
 10
179.0426276784312
 20
406.0835692683423
 30
0.0
 11
179.0426276784312
 21
333.5585532683423
 31
0.0
  0
ARC
  5
149
330
15
100
AcDbEntity
  8
4
100
AcDbCircle
 10
378.0426276784314
 20
426.0585532683423
 30
0.0
 40
200.0
100
AcDbArc
 50
164.310054
 51
195.689946
  0
LINE
  5
14A
330
15
100
AcDbEntity
  8
4
100
AcDbLine
 10
175.0426276784312
 20
398.5585532683423
 30
0.0
 11
175.0426276784312
 21
333.5585532683423
 31
0.0
  0
LINE
  5
14C
330
15
100
AcDbEntity
  8
L-CENTER
 48
1.5
100
AcDbLine
 10
163.0426276784312
 20
371.0837612683423
 30
0.0
 11
163.0426276784312
 21
391.0333452683423
 31
0.0
  0
ARC
  5
153
330
15
100
AcDbEntity
  8
4
100
AcDbCircle
 10
180.0426276784312
 20
333.5585532683423
 30
0.0
 40
1.0
100
AcDbArc
 50
180.0
 51
270.0
  0
LINE
  5
154
330
15
100
AcDbEntity
  8
4
100
AcDbLine
 10
175.0426276784312
 20
333.5585532683423
 30
0.0
 11
179.0426276784312
 21
333.5585532683423
 31
0.0
  0
LINE
  5
155
330
15
100
AcDbEntity
  8
4
100
AcDbLine
 10
175.0427811784313
 20
342.5585527683423
 30
0.0
 11
174.0427806784313
 21
342.5585527683423
 31
0.0
  0
ARC
  5
156
330
15
100
AcDbEntity
  8
4
100
AcDbCircle
 10
190.3084806784311
 20
373.3244062683424
 30
0.0
 40
5.0
100
AcDbArc
 50
195.6899459999994
 51
254.3100539999992
  0
LINE
  5
157
330
15
100
AcDbEntity
  8
4
100
AcDbLine
 10
220.5428826784312
 20
342.0581432683423
 30
0.0
 11
228.0428826784312
 21
342.0581442683423
 31
0.0
  0
LINE
  5
158
330
15
100
AcDbEntity
  8
4
100
AcDbLine
 10
220.5429056784312
 20
354.0581442683423
 30
0.0
 11
222.5429066784311
 21
354.0581452683423
 31
0.0
  0
LINE
  5
159
330
15
100
AcDbEntity
  8
4
100
AcDbLine
 10
220.0428836784311
 20
342.5581452683423
 30
0.0
 11
220.0429066784311
 21
353.5581442683423
 31
0.0
  0
ARC
  5
15A
330
15
100
AcDbEntity
  8
4
100
AcDbCircle
 10
220.5428836784311
 20
342.5581442683423
 30
0.0
 40
0.5
100
AcDbArc
 50
179.9998790048809
 51
269.999879000006
  0
ARC
  5
15B
330
15
100
AcDbEntity
  8
4
100
AcDbCircle
 10
220.5429056784312
 20
353.5581442683423
 30
0.0
 40
0.5
100
AcDbArc
 50
90.0
 51
180.0
  0
LINE
  5
15C
330
15
100
AcDbEntity
  8
4
100
AcDbLine
 10
223.0428826784312
 20
345.5581442683423
 30
0.0
 11
223.0429056784312
 21
353.5581432683423
 31
0.0
  0
LINE
  5
15D
330
15
100
AcDbEntity
  8
4
100
AcDbLine
 10
223.5428836784311
 20
345.0581442683423
 30
0.0
 11
228.0428826784312
 21
345.0581442683423
 31
0.0
  0
ARC
  5
15E
330
15
100
AcDbEntity
  8
4
100
AcDbCircle
 10
223.5428836784311
 20
345.5581442683423
 30
0.0
 40
0.5
100
AcDbArc
 50
180.0
 51
270.0
  0
LINE
  5
15F
330
15
100
AcDbEntity
  8
4
100
AcDbLine
 10
228.5428826784312
 20
342.5581442683423
 30
0.0
 11
228.5428826784312
 21
344.5581442683423
 31
0.0
  0
ARC
  5
160
330
15
100
AcDbEntity
  8
4
100
AcDbCircle
 10
228.0428826784312
 20
344.5581442683423
 30
0.0
 40
0.5
100
AcDbArc
 50
0.0
 51
90.0
  0
ARC
  5
161
330
15
100
AcDbEntity
  8
4
100
AcDbCircle
 10
228.0428826784312
 20
342.5581442683423
 30
0.0
 40
0.5
100
AcDbArc
 50
270.0
 51
0.0
  0
ARC
  5
162
330
15
100
AcDbEntity
  8
4
100
AcDbCircle
 10
222.5429056784312
 20
353.5581442683423
 30
0.0
 40
0.5
100
AcDbArc
 50
359.9998460009114
 51
89.99984599999232
  0
ARC
  5
163
330
15
100
AcDbEntity
  8
4
100
AcDbCircle
 10
155.5426276784312
 20
481.0585532683423
 30
0.0
 40
5.0
100
AcDbArc
 50
90.0
 51
180.0
  0
LINE
  5
164
330
15
100
AcDbEntity
  8
4
100
AcDbLine
 10
154.6950416784314
 20
396.7727962683424
 30
0.0
 11
179.6112796784312
 21
401.0585532683423
 31
0.0
  0
LINE
  5
165
330
15
100
AcDbEntity
  8
L-CENTER
 48
1.5
100
AcDbLine
 10
153.0678356784313
 20
471.0585532683423
 30
0.0
 11
173.0174196784312
 21
471.0585532683423
 31
0.0
  0
LINE
  5
166
330
15
100
AcDbEntity
  8
4
100
AcDbLine
 10
154.6950416784314
 20
455.3443102683424
 30
0.0
 11
179.6112796784312
 21
451.0585532683423
 31
0.0
  0
CIRCLE
  5
167
330
15
100
AcDbEntity
  8
4
100
AcDbCircle
 10
163.0426276784312
 20
471.0585532683423
 30
0.0
 40
5.5
  0
LINE
  5
168
330
15
100
AcDbEntity
  8
L-CENTER
 48
1.5
100
AcDbLine
 10
153.0678356784313
 20
381.0585532683423
 30
0.0
 11
173.0174196784312
 21
381.0585532683423
 31
0.0
  0
ARC
  5
169
330
15
100
AcDbEntity
  8
4
100
AcDbCircle
 10
155.5426276784312
 20
391.8451592683424
 30
0.0
 40
5.0
100
AcDbArc
 50
99.75974899999954
 51
180.0
  0
ARC
  5
16A
330
15
100
AcDbEntity
  8
4
100
AcDbCircle
 10
155.5426276784312
 20
460.2719472683424
 30
0.0
 40
5.0
100
AcDbArc
 50
180.0
 51
260.2402510000007
  0
LINE
  5
16B
330
15
100
AcDbEntity
  8
4
100
AcDbLine
 10
150.5426276784312
 20
460.2719472683424
 30
0.0
 11
150.5426276784312
 21
481.0585532683423
 31
0.0
  0
LINE
  5
16C
330
15
100
AcDbEntity
  8
L-CENTER
 48
1.5
100
AcDbLine
 10
163.0426276784312
 20
461.0837612683423
 30
0.0
 11
163.0426276784312
 21
481.0333452683423
 31
0.0
  0
CIRCLE
  5
16D
330
15
100
AcDbEntity
  8
4
100
AcDbCircle
 10
282.0426276784312
 20
426.0585532683423
 30
0.0
 40
8.0
  0
LINE
  5
16E
330
15
100
AcDbEntity
  8
L-CENTER
 48
1.5
100
AcDbLine
 10
282.0426276784312
 20
414.1585532683424
 30
0.0
 11
282.0426276784312
 21
437.1906145244269
 31
0.0
  0
CIRCLE
  5
16F
330
15
100
AcDbEntity
  8
4
100
AcDbCircle
 10
282.0426276784312
 20
426.0585532683423
 30
0.0
 40
8.5
  0
ARC
  5
170
330
15
100
AcDbEntity
  8
4
100
AcDbCircle
 10
314.0426276784312
 20
426.0585532683423
 30
0.0
 40
100.0
100
AcDbArc
 50
166.1695938097277
 51
193.8304061902721
  0
ARC
  5
171
330
15
100
AcDbEntity
  8
4
100
AcDbCircle
 10
316.0426276784312
 20
426.0585532683423
 30
0.0
 40
100.0
100
AcDbArc
 50
167.1510080358287
 51
192.8489919641713
  0
ARC
  5
172
330
15
100
AcDbEntity
  8
4
100
AcDbCircle
 10
289.7060892168928
 20
431.67294168103
 30
0.0
 40
1.0
100
AcDbArc
 50
216.2271691035779
 51
6.860654325383527
  0
ARC
  5
173
330
15
100
AcDbEntity
  8
4
100
AcDbCircle
 10
289.7060892168928
 20
420.4441648556548
 30
0.0
 40
1.0
100
AcDbArc
 50
353.1393456746032
 51
143.7728308964383
  0
LINE
  5
174
330
15
100
AcDbEntity
  8
4
100
AcDbLine
 10
175.0427811784313
 20
389.5585537683424
 30
0.0
 11
174.0427806784313
 21
389.5585537683424
 31
0.0
  0
ARC
  5
175
330
15
100
AcDbEntity
  8
4
100
AcDbCircle
 10
176.0426276784312
 20
401.5585532683423
 30
0.0
 40
3.0
100
AcDbArc
 50
270.0
 51
0.0
  0
LINE
  5
176
330
15
100
AcDbEntity
  8
4
100
AcDbLine
 10
175.0426276784312
 20
398.5585532683423
 30
0.0
 11
176.0426276784312
 21
398.5585532683423
 31
0.0
  0
ARC
  5
177
330
15
100
AcDbEntity
  8
4
100
AcDbCircle
 10
219.8548947182971
 20
402.8708203082082
 30
0.0
 40
3.0
100
AcDbArc
 50
193.8304061902726
 51
256.1695938097272
  0
ARC
  5
178
330
15
100
AcDbEntity
  8
4
100
AcDbCircle
 10
221.4715505401518
 20
404.4874761300629
 30
0.0
 40
3.0
100
AcDbArc
 50
192.8489919641696
 51
257.1510080358277
  0
CIRCLE
  5
179
330
15
100
AcDbEntity
  8
4
100
AcDbCircle
 10
282.0426276784312
 20
426.0585532683423
 30
0.0
 40
0.8
  0
ARC
  5
17A
330
15
100
AcDbEntity
  8
4
100
AcDbCircle
 10
190.3084806784311
 20
478.7927002683424
 30
0.0
 40
5.0
100
AcDbArc
 50
105.6899460000012
 51
164.3100540000006
  0
ARC
  5
17B
330
15
100
AcDbEntity
  8
4
100
AcDbCircle
 10
219.8548947182971
 20
449.2462862284762
 30
0.0
 40
3.0
100
AcDbArc
 50
103.8304061902727
 51
166.1695938097274
  0
ARC
  5
17C
330
15
100
AcDbEntity
  8
4
100
AcDbCircle
 10
221.4715505401518
 20
447.6296304066217
 30
0.0
 40
3.0
100
AcDbArc
 50
102.8489919641713
 51
167.151008035826
  0
LINE
  5
17D
330
15
100
AcDbEntity
  8
4
100
AcDbLine
 10
155.5426276784312
 20
486.0585532683423
 30
0.0
 11
198.6016556784314
 21
486.0585532683423
 31
0.0
  0
LINE
  5
17E
330
15
100
AcDbEntity
  8
4
100
AcDbLine
 10
228.0426276784312
 20
494.0585532683423
 30
0.0
 11
228.0426276784312
 21
492.3419352683424
 31
0.0
  0
ARC
  5
17F
330
15
100
AcDbEntity
  8
4
100
AcDbCircle
 10
226.0426276784312
 20
492.3419352683424
 30
0.0
 40
2.0
100
AcDbArc
 50
274.8276319999997
 51
0.0
  0
LINE
  5
180
330
15
100
AcDbEntity
  8
4
100
AcDbLine
 10
312.0426276784312
 20
389.5585537683424
 30
0.0
 11
312.0426276784312
 21
342.5585527683423
 31
0.0
  0
LINE
  5
181
330
15
100
AcDbEntity
  8
4
100
AcDbLine
 10
307.0426276784312
 20
406.0835692683423
 30
0.0
 11
307.0426276784312
 21
333.5585532683423
 31
0.0
  0
ARC
  5
182
330
15
100
AcDbEntity
  8
4
100
AcDbCircle
 10
108.0426276784312
 20
426.0585532683423
 30
0.0
 40
200.0
100
AcDbArc
 50
344.3100540000001
 51
15.68994599999996
  0
LINE
  5
184
330
15
100
AcDbEntity
  8
4
100
AcDbLine
 10
311.0426276784312
 20
398.5585532683423
 30
0.0
 11
311.0426276784312
 21
333.5585532683423
 31
0.0
  0
LINE
  5
185
330
15
100
AcDbEntity
  8
L-CENTER
 48
1.5
100
AcDbLine
 10
323.0426276784312
 20
371.0837612683423
 30
0.0
 11
323.0426276784312
 21
390.9066982683422
 31
0.0
  0
LINE
  5
187
330
15
100
AcDbEntity
  8
L-CENTER
 48
1.5
100
AcDbLine
 10
243.0426276784312
 20
506.0585532683423
 30
0.0
 11
243.0426276784312
 21
327.8958982683424
 31
0.0
  0
LINE
  5
193
330
15
100
AcDbEntity
  8
4
100
AcDbLine
 10
231.0426276784314
 20
188.6645314660627
 30
0.0
 11
231.0426276784314
 21
227.6645314660627
 31
0.0
  0
LINE
  5
194
330
15
100
AcDbEntity
  8
4
100
AcDbLine
 10
255.0426276784314
 20
188.6645314660627
 30
0.0
 11
255.0426276784314
 21
227.6645314660627
 31
0.0
  0
LINE
  5
195
330
15
100
AcDbEntity
  8
4
100
AcDbLine
 10
239.5426281784313
 20
195.1645309660626
 30
0.0
 11
239.5426281784313
 21
228.6645319660627
 31
0.0
  0
LINE
  5
196
330
15
100
AcDbEntity
  8
4
100
AcDbLine
 10
246.5426271784314
 20
195.1645309660626
 30
0.0
 11
246.5426271784314
 21
228.6645319660627
 31
0.0
  0
ARC
  5
197
330
15
100
AcDbEntity
  8
4
100
AcDbCircle
 10
243.0426276784314
 20
195.1645309660626
 30
0.0
 40
3.4999995
100
AcDbArc
 50
180.0
 51
0.0
  0
LINE
  5
198
330
15
100
AcDbEntity
  8
4
100
AcDbLine
 10
255.5426271784314
 20
188.6645314660627
 30
0.0
 11
230.5426281784313
 21
188.6645314660627
 31
0.0
  0
LINE
  5
199
330
15
100
AcDbEntity
  8
4
100
AcDbLine
 10
254.0426271784314
 20
228.6645319660627
 30
0.0
 11
232.0426281784313
 21
228.6645319660627
 31
0.0
  0
LINE
  5
19A
330
15
100
AcDbEntity
  8
4
100
AcDbLine
 10
239.5426281784313
 20
227.6645314660627
 30
0.0
 11
231.0426276784314
 21
227.6645314660627
 31
0.0
  0
LINE
  5
19B
330
15
100
AcDbEntity
  8
4
100
AcDbLine
 10
231.0426276784314
 20
227.6645314660627
 30
0.0
 11
232.0426281784313
 21
228.6645319660627
 31
0.0
  0
LINE
  5
19C
330
15
100
AcDbEntity
  8
4
100
AcDbLine
 10
246.5426271784314
 20
227.6645314660627
 30
0.0
 11
255.0426276784314
 21
227.6645314660627
 31
0.0
  0
LINE
  5
19D
330
15
100
AcDbEntity
  8
4
100
AcDbLine
 10
254.0426271784314
 20
228.6645319660627
 30
0.0
 11
255.0426276784314
 21
227.6645314660627
 31
0.0
  0
LINE
  5
1A3
330
15
100
AcDbEntity
  8
4
100
AcDbLine
 10
257.042892678431
 20
342.0581382683424
 30
0.0
 11
263.042892678431
 21
342.0581382683424
 31
0.0
  0
LINE
  5
1A4
330
15
100
AcDbEntity
  8
4
100
AcDbLine
 10
257.042892678431
 20
354.0581382683424
 30
0.0
 11
265.042892678431
 21
354.0581382683424
 31
0.0
  0
ARC
  5
1A5
330
15
100
AcDbEntity
  8
4
100
AcDbCircle
 10
236.0427686784312
 20
350.0581442683423
 30
0.0
 40
4.0
100
AcDbArc
 50
19.47122099999986
 51
90.0
  0
ARC
  5
1A6
330
15
100
AcDbEntity
  8
4
100
AcDbCircle
 10
235.0428856784313
 20
350.0581442683423
 30
0.0
 40
4.0
100
AcDbArc
 50
90.0
 51
180.0
  0
LINE
  5
1A7
330
15
100
AcDbEntity
  8
4
100
AcDbLine
 10
245.042892678431
 20
349.5581442683424
 30
0.0
 11
243.042892678431
 21
349.5581442683424
 31
0.0
  0
LINE
  5
1A8
330
15
100
AcDbEntity
  8
4
100
AcDbLine
 10
245.042892678431
 20
346.5581442683424
 30
0.0
 11
243.042892678431
 21
346.5581442683424
 31
0.0
  0
ARC
  5
1A9
330
15
100
AcDbEntity
  8
4
100
AcDbCircle
 10
235.0428856784313
 20
346.0581442683423
 30
0.0
 40
4.0
100
AcDbArc
 50
180.0
 51
270.0
  0
ARC
  5
1AA
330
15
100
AcDbEntity
  8
4
100
AcDbCircle
 10
238.5428856784313
 20
348.0581442683423
 30
0.0
 40
2.0
100
AcDbArc
 50
90.0
 51
270.0
  0
ARC
  5
1AB
330
15
100
AcDbEntity
  8
4
100
AcDbCircle
 10
236.042887678431
 20
346.0581442683423
 30
0.0
 40
4.0
100
AcDbArc
 50
270.0
 51
340.5287790000001
  0
LINE
  5
1AC
330
15
100
AcDbEntity
  8
4
100
AcDbLine
 10
235.0428856784313
 20
342.0581442683423
 30
0.0
 11
236.042887678431
 21
342.0581442683423
 31
0.0
  0
LINE
  5
1AD
330
15
100
AcDbEntity
  8
4
100
AcDbLine
 10
235.0428856784313
 20
354.0581442683423
 30
0.0
 11
236.0427686784312
 21
354.0581442683423
 31
0.0
  0
LINE
  5
1AE
330
15
100
AcDbEntity
  8
4
100
AcDbLine
 10
231.0428856784313
 20
346.0581442683423
 30
0.0
 11
231.0428856784313
 21
350.0581442683423
 31
0.0
  0
ARC
  5
1AF
330
15
100
AcDbEntity
  8
4
100
AcDbCircle
 10
243.042892678431
 20
349.0581442683424
 30
0.0
 40
0.5
100
AcDbArc
 50
90.0
 51
180.0
  0
ARC
  5
1B0
330
15
100
AcDbEntity
  8
4
100
AcDbCircle
 10
243.042892678431
 20
347.0581442683424
 30
0.0
 40
0.5
100
AcDbArc
 50
180.0
 51
270.0
  0
LINE
  5
1B1
330
15
100
AcDbEntity
  8
4
100
AcDbLine
 10
242.542892678431
 20
347.0581442683424
 30
0.0
 11
242.542892678431
 21
349.0581442683424
 31
0.0
  0
LINE
  5
1B2
330
15
100
AcDbEntity
  8
4
100
AcDbLine
 10
238.5428856784313
 20
346.0581442683423
 30
0.0
 11
238.8713146784314
 21
346.0581442683423
 31
0.0
  0
ARC
  5
1B3
330
15
100
AcDbEntity
  8
4
100
AcDbCircle
 10
238.8713146784314
 20
345.0581442683423
 30
0.0
 40
1.0
100
AcDbArc
 50
340.5287789999982
 51
90.0
  0
LINE
  5
1B4
330
15
100
AcDbEntity
  8
4
100
AcDbLine
 10
238.5428856784313
 20
350.0581442683423
 30
0.0
 11
238.8711956784311
 21
350.0581442683423
 31
0.0
  0
ARC
  5
1B5
330
15
100
AcDbEntity
  8
4
100
AcDbCircle
 10
238.8711956784311
 20
351.0581442683423
 30
0.0
 40
1.0
100
AcDbArc
 50
270.0
 51
19.47122100000178
  0
ARC
  5
1B6
330
15
100
AcDbEntity
  8
4
100
AcDbCircle
 10
253.042892678431
 20
343.5581422683424
 30
0.0
 40
0.5
100
AcDbArc
 50
90.0
 51
180.0
  0
ARC
  5
1B7
330
15
100
AcDbEntity
  8
4
100
AcDbCircle
 10
253.042892678431
 20
342.5581422683424
 30
0.0
 40
0.5
100
AcDbArc
 50
180.0
 51
270.0
  0
LINE
  5
1B8
330
15
100
AcDbEntity
  8
4
100
AcDbLine
 10
247.542892678431
 20
353.5581382683424
 30
0.0
 11
247.542892678431
 21
342.5581422683424
 31
0.0
  0
LINE
  5
1B9
330
15
100
AcDbEntity
  8
4
100
AcDbLine
 10
250.542892678431
 20
353.5581382683424
 30
0.0
 11
250.542892678431
 21
342.5581422683424
 31
0.0
  0
ARC
  5
1BA
330
15
100
AcDbEntity
  8
4
100
AcDbCircle
 10
250.042892678431
 20
342.5581422683424
 30
0.0
 40
0.5
100
AcDbArc
 50
270.0
 51
0.0
  0
ARC
  5
1BB
330
15
100
AcDbEntity
  8
4
100
AcDbCircle
 10
245.042892678431
 20
349.0581442683424
 30
0.0
 40
0.5
100
AcDbArc
 50
0.0
 51
90.0
  0
ARC
  5
1BC
330
15
100
AcDbEntity
  8
4
100
AcDbCircle
 10
245.042892678431
 20
347.0581442683424
 30
0.0
 40
0.5
100
AcDbArc
 50
270.0
 51
0.0
  0
ARC
  5
1BD
330
15
100
AcDbEntity
  8
4
100
AcDbCircle
 10
248.042892678431
 20
342.5581422683424
 30
0.0
 40
0.5
100
AcDbArc
 50
180.0
 51
270.0
  0
LINE
  5
1BE
330
15
100
AcDbEntity
  8
4
100
AcDbLine
 10
250.042892678431
 20
342.0581422683424
 30
0.0
 11
248.042892678431
 21
342.0581422683424
 31
0.0
  0
LINE
  5
1BF
330
15
100
AcDbEntity
  8
4
100
AcDbLine
 10
245.542892678431
 20
347.0581442683424
 30
0.0
 11
245.542892678431
 21
349.0581442683424
 31
0.0
  0
LINE
  5
1C0
330
15
100
AcDbEntity
  8
4
100
AcDbLine
 10
252.542892678431
 20
343.5581422683424
 30
0.0
 11
252.542892678431
 21
342.5581422683424
 31
0.0
  0
ARC
  5
1C1
330
15
100
AcDbEntity
  8
4
100
AcDbCircle
 10
250.042892678431
 20
353.5581382683424
 30
0.0
 40
0.5
100
AcDbArc
 50
0.0
 51
90.0
  0
ARC
  5
1C2
330
15
100
AcDbEntity
  8
4
100
AcDbCircle
 10
248.042892678431
 20
353.5581382683424
 30
0.0
 40
0.5
100
AcDbArc
 50
90.0
 51
180.0
  0
LINE
  5
1C3
330
15
100
AcDbEntity
  8
4
100
AcDbLine
 10
250.042892678431
 20
354.0581382683424
 30
0.0
 11
248.042892678431
 21
354.0581382683424
 31
0.0
  0
LINE
  5
1C4
330
15
100
AcDbEntity
  8
4
100
AcDbLine
 10
256.542892678431
 20
342.5581382683424
 30
0.0
 11
256.542892678431
 21
344.6086492683424
 31
0.0
  0
ARC
  5
1C5
330
15
100
AcDbEntity
  8
4
100
AcDbCircle
 10
257.042892678431
 20
344.6086492683424
 30
0.0
 40
0.5
100
AcDbArc
 50
101.5369590000026
 51
180.0
  0
ARC
  5
1C6
330
15
100
AcDbEntity
  8
4
100
AcDbCircle
 10
257.042892678431
 20
342.5581382683424
 30
0.0
 40
0.5
100
AcDbArc
 50
180.0
 51
270.0
  0
LINE
  5
1C7
330
15
100
AcDbEntity
  8
4
100
AcDbLine
 10
256.542892678431
 20
349.5076282683424
 30
0.0
 11
256.542892678431
 21
353.5581382683424
 31
0.0
  0
ARC
  5
1C8
330
15
100
AcDbEntity
  8
4
100
AcDbCircle
 10
256.542892678431
 20
347.0581382683424
 30
0.0
 40
2.0
100
AcDbArc
 50
281.5369589999997
 51
78.4630410000003
  0
ARC
  5
1C9
330
15
100
AcDbEntity
  8
4
100
AcDbCircle
 10
257.042892678431
 20
349.5076282683424
 30
0.0
 40
0.5
100
AcDbArc
 50
180.0
 51
258.4630409999974
  0
ARC
  5
1CA
330
15
100
AcDbEntity
  8
4
100
AcDbCircle
 10
257.042892678431
 20
353.5581382683424
 30
0.0
 40
0.5
100
AcDbArc
 50
90.0
 51
180.0
  0
LINE
  5
1CB
330
15
100
AcDbEntity
  8
4
100
AcDbLine
 10
254.542892678431
 20
343.5581422683424
 30
0.0
 11
254.542892678431
 21
342.5581422683424
 31
0.0
  0
ARC
  5
1CC
330
15
100
AcDbEntity
  8
4
100
AcDbCircle
 10
254.042892678431
 20
343.5581422683424
 30
0.0
 40
0.5
100
AcDbArc
 50
0.0
 51
90.0
  0
ARC
  5
1CD
330
15
100
AcDbEntity
  8
4
100
AcDbCircle
 10
254.042892678431
 20
342.5581422683424
 30
0.0
 40
0.5
100
AcDbArc
 50
270.0
 51
0.0
  0
LINE
  5
1CE
330
15
100
AcDbEntity
  8
4
100
AcDbLine
 10
253.042892678431
 20
342.0581422683424
 30
0.0
 11
254.042892678431
 21
342.0581422683424
 31
0.0
  0
LINE
  5
1CF
330
15
100
AcDbEntity
  8
4
100
AcDbLine
 10
253.042892678431
 20
344.0581422683424
 30
0.0
 11
254.042892678431
 21
344.0581422683424
 31
0.0
  0
ARC
  5
1D0
330
15
100
AcDbEntity
  8
4
100
AcDbCircle
 10
263.042892678431
 20
344.5581382683424
 30
0.0
 40
2.5
100
AcDbArc
 50
270.0
 51
0.0
  0
LINE
  5
1D1
330
15
100
AcDbEntity
  8
4
100
AcDbLine
 10
265.542892678431
 20
344.5581382683424
 30
0.0
 11
265.542892678431
 21
346.0940372683424
 31
0.0
  0
ARC
  5
1D2
330
15
100
AcDbEntity
  8
4
100
AcDbCircle
 10
263.042892678431
 20
346.0940372683424
 30
0.0
 40
2.5
100
AcDbArc
 50
0.0
 51
60.00000000000011
  0
LINE
  5
1D3
330
15
100
AcDbEntity
  8
4
100
AcDbLine
 10
265.542892678431
 20
351.5581382683424
 30
0.0
 11
265.542892678431
 21
353.5581382683424
 31
0.0
  0
ARC
  5
1D4
330
15
100
AcDbEntity
  8
4
100
AcDbCircle
 10
265.042892678431
 20
353.5581382683424
 30
0.0
 40
0.5
100
AcDbArc
 50
0.0
 51
90.0
  0
ARC
  5
1D5
330
15
100
AcDbEntity
  8
4
100
AcDbCircle
 10
265.042892678431
 20
351.5581382683424
 30
0.0
 40
0.5
100
AcDbArc
 50
270.0
 51
0.0
  0
ARC
  5
1D6
330
15
100
AcDbEntity
  8
4
100
AcDbCircle
 10
265.042892678431
 20
349.5581382683424
 30
0.0
 40
1.5
100
AcDbArc
 50
90.0
 51
239.9999999999994
  0
LINE
  5
1D7
330
15
100
AcDbEntity
  8
4
100
AcDbLine
 10
307.0426276784312
 20
333.5585532683423
 30
0.0
 11
311.0426276784312
 21
333.5585532683423
 31
0.0
  0
ARC
  5
1D8
330
15
100
AcDbEntity
  8
4
100
AcDbCircle
 10
306.0426276784312
 20
333.5585532683423
 30
0.0
 40
1.0
100
AcDbArc
 50
270.0
 51
0.0
  0
LINE
  5
1D9
330
15
100
AcDbEntity
  8
4
100
AcDbLine
 10
311.0426276784312
 20
335.5585532683423
 30
0.0
 11
311.0426276784312
 21
335.5585532683423
 31
0.0
  0
LINE
  5
1DA
330
15
100
AcDbEntity
  8
4
100
AcDbLine
 10
311.0426271784313
 20
342.5585527683423
 30
0.0
 11
312.0426276784312
 21
342.5585527683423
 31
0.0
  0
ARC
  5
1DB
330
15
100
AcDbEntity
  8
4
100
AcDbCircle
 10
295.7767746784314
 20
373.3244062683424
 30
0.0
 40
5.0
100
AcDbArc
 50
285.6899460000008
 51
344.3100540000007
  0
ARC
  5
1F0
330
15
100
AcDbEntity
  8
4
100
AcDbCircle
 10
330.5426276784312
 20
481.0585532683423
 30
0.0
 40
5.0
100
AcDbArc
 50
0.0
 51
90.0
  0
ARC
  5
1F1
330
15
100
AcDbEntity
  8
4
100
AcDbCircle
 10
243.0426276784312
 20
426.0585532683423
 30
0.0
 40
11.999997
100
AcDbArc
 50
286.9577726594194
 51
253.0420779999997
  0
ARC
  5
1F2
330
15
100
AcDbEntity
  8
4
100
AcDbCircle
 10
170.0426276784312
 20
426.0585532683423
 30
0.0
 40
100.0
100
AcDbArc
 50
347.1510080358287
 51
12.84899196417129
  0
ARC
  5
1F3
330
15
100
AcDbEntity
  8
4
100
AcDbCircle
 10
172.0426276784312
 20
426.0585532683423
 30
0.0
 40
100.0
100
AcDbArc
 50
346.1695938097278
 51
13.83040619027227
  0
LINE
  5
1F4
330
15
100
AcDbEntity
  8
4
100
AcDbLine
 10
239.5426281784312
 20
418.0585537683422
 30
0.0
 11
246.5426286784312
 21
418.0585537683422
 31
0.0
  0
LINE
  5
1F5
330
15
100
AcDbEntity
  8
4
100
AcDbLine
 10
246.5426286784312
 20
411.0585532683423
 30
0.0
 11
239.5426281784312
 21
411.0585532683423
 31
0.0
  0
LINE
  5
1F6
330
15
100
AcDbEntity
  8
4
100
AcDbLine
 10
239.5426281784312
 20
418.0585537683422
 30
0.0
 11
239.5426281784312
 21
411.0585532683423
 31
0.0
  0
LINE
  5
1F7
330
15
100
AcDbEntity
  8
4
100
AcDbLine
 10
246.5426286784312
 20
418.0585537683422
 30
0.0
 11
246.5426286784312
 21
411.0585532683423
 31
0.0
  0
ARC
  5
1F8
330
15
100
AcDbEntity
  8
4
100
AcDbCircle
 10
266.2303606385653
 20
402.8708203082082
 30
0.0
 40
3.0
100
AcDbArc
 50
283.8304061902728
 51
346.1695938097272
  0
ARC
  5
1F9
330
15
100
AcDbEntity
  8
4
100
AcDbCircle
 10
264.6137048167107
 20
404.4874761300629
 30
0.0
 40
3.0
100
AcDbArc
 50
282.8489919641718
 51
347.1510080358303
  0
ARC
  5
1FA
330
15
100
AcDbEntity
  8
4
100
AcDbCircle
 10
266.2303606385653
 20
449.2462862284762
 30
0.0
 40
3.0
100
AcDbArc
 50
13.83040619027272
 51
76.16959380972727
  0
ARC
  5
1FB
330
15
100
AcDbEntity
  8
4
100
AcDbCircle
 10
264.6137048167107
 20
447.6296304066217
 30
0.0
 40
3.0
100
AcDbArc
 50
12.84899196417415
 51
77.15100803582821
  0
LINE
  5
1FC
330
15
100
AcDbEntity
  8
4
100
AcDbLine
 10
331.3902136784311
 20
396.7727962683424
 30
0.0
 11
306.4739756784313
 21
401.0585532683423
 31
0.0
  0
LINE
  5
1FD
330
15
100
AcDbEntity
  8
L-CENTER
 48
1.5
100
AcDbLine
 10
313.0678356784313
 20
381.0585532683423
 30
0.0
 11
333.0174196784312
 21
381.0585532683423
 31
0.0
  0
LINE
  5
1FE
330
15
100
AcDbEntity
  8
4
100
AcDbLine
 10
308.426633678431
 20
398.5585532683423
 30
0.0
 11
311.0426276784312
 21
398.5585532683423
 31
0.0
  0
ARC
  5
1FF
330
15
100
AcDbEntity
  8
4
100
AcDbCircle
 10
308.426633678431
 20
400.5585532683423
 30
0.0
 40
2.0
100
AcDbArc
 50
172.7477669999987
 51
270.0
  0
LINE
  5
200
330
15
100
AcDbEntity
  8
4
100
AcDbLine
 10
311.0426271784313
 20
389.5585537683424
 30
0.0
 11
312.0426276784312
 21
389.5585537683424
 31
0.0
  0
ARC
  5
201
330
15
100
AcDbEntity
  8
4
100
AcDbCircle
 10
330.5426276784312
 20
391.8451592683424
 30
0.0
 40
5.0
100
AcDbArc
 50
0.0
 51
80.24025100000046
  0
LINE
  5
202
330
15
100
AcDbEntity
  8
L-CENTER
 48
1.5
100
AcDbLine
 10
333.0174196784312
 20
471.0585532683423
 30
0.0
 11
313.0678356784313
 21
471.0585532683423
 31
0.0
  0
CIRCLE
  5
203
330
15
100
AcDbEntity
  8
4
100
AcDbCircle
 10
323.0426276784312
 20
471.0585532683423
 30
0.0
 40
5.5
  0
LINE
  5
204
330
15
100
AcDbEntity
  8
4
100
AcDbLine
 10
331.3902136784311
 20
455.3443102683424
 30
0.0
 11
306.4739756784313
 21
451.0585532683423
 31
0.0
  0
ARC
  5
205
330
15
100
AcDbEntity
  8
4
100
AcDbCircle
 10
295.7767746784314
 20
478.7927002683424
 30
0.0
 40
5.0
100
AcDbArc
 50
15.68994599999927
 51
74.3100539999991
  0
LINE
  5
206
330
15
100
AcDbEntity
  8
L-CENTER
 48
1.5
100
AcDbLine
 10
323.0426276784312
 20
461.0837612683423
 30
0.0
 11
323.0426276784312
 21
481.0333452683423
 31
0.0
  0
ARC
  5
207
330
15
100
AcDbEntity
  8
4
100
AcDbCircle
 10
330.5426276784312
 20
460.2719472683424
 30
0.0
 40
5.0
100
AcDbArc
 50
279.7597489999989
 51
0.0
  0
LINE
  5
208
330
15
100
AcDbEntity
  8
4
100
AcDbLine
 10
335.5426276784312
 20
460.2719472683424
 30
0.0
 11
335.5426276784312
 21
481.0585532683423
 31
0.0
  0
LINE
  5
209
330
15
100
AcDbEntity
  8
4
100
AcDbLine
 10
287.4835996784311
 20
486.0585532683423
 30
0.0
 11
330.5426276784312
 21
486.0585532683423
 31
0.0
  0
LINE
  5
20A
330
15
100
AcDbEntity
  8
4
100
AcDbLine
 10
230.5426276784314
 20
495.5585532683423
 30
0.0
 11
255.5426276784314
 21
495.5585532683423
 31
0.0
  0
LINE
  5
20B
330
15
100
AcDbEntity
  8
4
100
AcDbLine
 10
230.5426276784314
 20
497.5585532683423
 30
0.0
 11
255.5426276784314
 21
497.5585532683423
 31
0.0
  0
LINE
  5
20C
330
15
100
AcDbEntity
  8
4
100
AcDbLine
 10
231.5426276784314
 20
494.0585532683423
 30
0.0
 11
254.5426276784314
 21
494.0585532683423
 31
0.0
  0
LINE
  5
20D
330
15
100
AcDbEntity
  8
4
100
AcDbLine
 10
232.2173101311258
 20
502.5585532683423
 30
0.0
 11
253.8679452257369
 21
502.5585532683423
 31
0.0
  0
LWPOLYLINE
  5
20E
330
15
100
AcDbEntity
  8
4
100
AcDbPolyline
 90
        2
 70
     0
 43
0.0
 10
232.2173101311258
 20
502.5585532683423
 10
232.2173101311258
 20
497.5585532683423
  0
LINE
  5
20F
330
15
100
AcDbEntity
  8
4
100
AcDbLine
 10
230.5426276784314
 20
497.5585532683423
 30
0.0
 11
230.5426276784314
 21
495.5585532683423
 31
0.0
  0
LINE
  5
210
330
15
100
AcDbEntity
  8
4
100
AcDbLine
 10
231.5426276784314
 20
495.5585532683423
 30
0.0
 11
231.5426276784314
 21
494.0585532683423
 31
0.0
  0
LWPOLYLINE
  5
211
330
15
100
AcDbEntity
  8
4
100
AcDbPolyline
 90
        2
 70
     0
 43
0.0
 10
253.8679452257369
 20
497.5585532683423
 10
253.8679452257369
 20
502.5585532683423
  0
LINE
  5
212
330
15
100
AcDbEntity
  8
4
100
AcDbLine
 10
255.5426276784314
 20
497.5585532683423
 30
0.0
 11
255.5426276784314
 21
495.5585532683423
 31
0.0
  0
LINE
  5
213
330
15
100
AcDbEntity
  8
4
100
AcDbLine
 10
254.5426276784314
 20
495.5585532683423
 30
0.0
 11
254.5426276784314
 21
494.0585532683423
 31
0.0
  0
LINE
  5
214
330
15
100
AcDbEntity
  8
4
100
AcDbLine
 10
258.0426276784312
 20
494.0585532683423
 30
0.0
 11
258.0426276784312
 21
492.3419352683424
 31
0.0
  0
ARC
  5
215
330
15
100
AcDbEntity
  8
4
100
AcDbCircle
 10
260.0426276784312
 20
492.3419352683424
 30
0.0
 40
2.0
100
AcDbArc
 50
180.0
 51
265.1723680000003
  0
LINE
  5
216
330
15
100
AcDbEntity
  8
4
100
AcDbLine
 10
519.4110556128039
 20
188.6645314660627
 30
0.0
 11
519.4110556128039
 21
180.0645319660627
 31
0.0
  0
LINE
  5
217
330
15
100
AcDbEntity
  8
4
100
AcDbLine
 10
494.411055112804
 20
188.6645314660627
 30
0.0
 11
494.411055112804
 21
180.0645319660627
 31
0.0
  0
LINE
  5
218
330
15
100
AcDbEntity
  8
L-CENTER
 48
1.5
100
AcDbLine
 10
506.9110546128038
 20
231.0429574660628
 30
0.0
 11
506.9110546128038
 21
16.28634946606263
 31
0.0
  0
ARC
  5
21D
330
15
100
AcDbEntity
  8
4
100
AcDbCircle
 10
563.9110546128038
 20
73.66465396606276
 30
0.0
 40
3.0
100
AcDbArc
 50
0.0
 51
90.0
  0
ARC
  5
21E
330
15
100
AcDbEntity
  8
4
100
AcDbCircle
 10
569.9110546128038
 20
77.66465296606265
 30
0.0
 40
1.9999995
100
AcDbArc
 50
270.0
 51
0.0
  0
ARC
  5
220
330
15
100
AcDbEntity
  8
4
100
AcDbCircle
 10
534.911055112804
 20
73.66465396606276
 30
0.0
 40
3.0
100
AcDbArc
 50
90.0
 51
180.0003060001453
  0
ARC
  5
221
330
15
100
AcDbEntity
  8
4
100
AcDbCircle
 10
539.9110546128038
 20
73.66465396606276
 30
0.0
 40
3.0
100
AcDbArc
 50
90.0
 51
180.0003060001453
  0
LINE
  5
222
330
15
100
AcDbEntity
  8
L-CENTER
 48
1.5
100
AcDbLine
 10
551.9110546128038
 20
82.66465396606276
 30
0.0
 11
551.9110546128038
 21
54.6646534660627
 31
0.0
  0
LINE
  5
223
330
15
100
AcDbEntity
  8
4
100
AcDbLine
 10
531.911055112804
 20
60.6646534660627
 30
0.0
 11
566.9110546128038
 21
60.6646534660627
 31
0.0
  0
LINE
  5
224
330
15
100
AcDbEntity
  8
4
100
AcDbLine
 10
534.911055112804
 20
76.66465396606276
 30
0.0
 11
563.9110546128038
 21
76.66465396606276
 31
0.0
  0
ARC
  5
226
330
15
100
AcDbEntity
  8
4
100
AcDbCircle
 10
523.9572226128039
 20
73.16465296606265
 30
0.0
 40
1.0000005
100
AcDbArc
 50
149.9999999999892
 51
270.0
  0
LINE
  5
22A
330
15
100
AcDbEntity
  8
4
100
AcDbLine
 10
536.9110546128038
 20
73.66465396606276
 30
0.0
 11
536.9110546128038
 21
60.6646534660627
 31
0.0
  0
LINE
  5
22B
330
15
100
AcDbEntity
  8
4
100
AcDbLine
 10
531.911055112804
 20
73.66465396606276
 30
0.0
 11
531.911055112804
 21
60.6646534660627
 31
0.0
  0
ARC
  5
22C
330
15
100
AcDbEntity
  8
4
100
AcDbCircle
 10
528.911055112804
 20
72.6646534660627
 30
0.0
 40
3.0
100
AcDbArc
 50
0.0
 51
90.0
  0
LINE
  5
22D
330
15
100
AcDbEntity
  8
4
100
AcDbLine
 10
531.911055112804
 20
72.16465396606276
 30
0.0
 11
523.9572226128039
 21
72.16465396606276
 31
0.0
  0
LINE
  5
22E
330
15
100
AcDbEntity
  8
4
100
AcDbLine
 10
524.2458976128039
 20
75.6646534660627
 30
0.0
 11
523.0911961128038
 21
73.66465396606276
 31
0.0
  0
LINE
  5
232
330
15
100
AcDbEntity
  8
4
100
AcDbLine
 10
566.9110546128038
 20
60.6646534660627
 30
0.0
 11
566.9110546128038
 21
73.66465396606276
 31
0.0
  0
LINE
  5
233
330
15
100
AcDbEntity
  8
4
100
AcDbLine
 10
569.9110546128038
 20
75.6646534660627
 30
0.0
 11
566.1471391128039
 21
75.6646534660627
 31
0.0
  0
LINE
  5
235
330
15
100
AcDbEntity
  8
4
100
AcDbLine
 10
515.4110551128039
 20
173.1645319660627
 30
0.0
 11
535.9110556128037
 21
173.1645319660627
 31
0.0
  0
LINE
  5
236
330
15
100
AcDbEntity
  8
4
100
AcDbLine
 10
535.9110556128037
 20
173.1645319660627
 30
0.0
 11
546.6496066128038
 21
172.0644334660627
 31
0.0
  0
LINE
  5
237
330
15
100
AcDbEntity
  8
4
100
AcDbLine
 10
530.411055112804
 20
179.0645314660628
 30
0.0
 11
530.411055112804
 21
180.0645319660627
 31
0.0
  0
LINE
  5
238
330
15
100
AcDbEntity
  8
4
100
AcDbLine
 10
533.9110546128038
 20
179.0645314660628
 30
0.0
 11
535.9110556128037
 21
173.1645319660627
 31
0.0
  0
LINE
  5
239
330
15
100
AcDbEntity
  8
4
100
AcDbLine
 10
583.4110546128038
 20
130.1645314660627
 30
0.0
 11
583.4110546128038
 21
105.1645309660627
 31
0.0
  0
LINE
  5
23A
330
15
100
AcDbEntity
  8
4
100
AcDbLine
 10
578.411055112804
 20
130.1645314660627
 30
0.0
 11
578.411055112804
 21
105.1645309660627
 31
0.0
  0
LINE
  5
23B
330
15
100
AcDbEntity
  8
4
100
AcDbLine
 10
576.4110556128037
 20
130.1645314660627
 30
0.0
 11
576.4110556128037
 21
105.1645309660627
 31
0.0
  0
LINE
  5
23C
330
15
100
AcDbEntity
  8
4
100
AcDbLine
 10
574.9110556128037
 20
102.6646534660627
 30
0.0
 11
574.9110556128037
 21
132.6646534660627
 31
0.0
  0
LINE
  5
23D
330
15
100
AcDbEntity
  8
4
100
AcDbLine
 10
571.9110556128037
 20
77.66465296606265
 30
0.0
 11
571.9110556128037
 21
158.1646534660627
 31
0.0
  0
LINE
  5
23E
330
15
100
AcDbEntity
  8
L-CENTER
 48
1.5
100
AcDbLine
 10
588.7755571128039
 20
117.6646534660627
 30
0.0
 11
565.9977256128038
 21
117.6646534660627
 31
0.0
  0
LINE
  5
23F
330
15
100
AcDbEntity
  8
4
100
AcDbLine
 10
573.911055112804
 20
77.66465296606265
 30
0.0
 11
573.911055112804
 21
105.6646534660627
 31
0.0
  0
LINE
  5
240
330
15
100
AcDbEntity
  8
L-CENTER
 48
1.5
100
AcDbLine
 10
576.6613741128037
 20
87.6646534660627
 30
0.0
 11
568.9811536128038
 21
87.6646534660627
 31
0.0
  0
LINE
  5
241
330
15
100
AcDbEntity
  8
4
100
AcDbLine
 10
574.9110841128038
 20
92.55564496606274
 30
0.0
 11
574.9110841128038
 21
82.77341746606265
 31
0.0
  0
LINE
  5
242
330
15
100
AcDbEntity
  8
4
100
AcDbLine
 10
574.9110841128038
 20
82.77341746606265
 30
0.0
 11
573.911055112804
 21
82.91404246606265
 31
0.0
  0
LINE
  5
243
330
15
100
AcDbEntity
  8
4
100
AcDbLine
 10
571.9110556128037
 20
77.66465296606265
 30
0.0
 11
573.911055112804
 21
77.66465296606265
 31
0.0
  0
LINE
  5
244
330
15
100
AcDbEntity
  8
4
100
AcDbLine
 10
573.911055112804
 20
102.6646534660627
 30
0.0
 11
574.9110556128037
 21
102.6646534660627
 31
0.0
  0
LINE
  5
245
330
15
100
AcDbEntity
  8
4
100
AcDbLine
 10
574.9110841128038
 20
92.55564496606274
 30
0.0
 11
573.911055112804
 21
92.41477546606268
 31
0.0
  0
LINE
  5
246
330
15
100
AcDbEntity
  8
4
100
AcDbLine
 10
576.4110556128037
 20
105.1645309660627
 30
0.0
 11
583.4110546128038
 21
105.1645309660627
 31
0.0
  0
LINE
  5
247
330
15
100
AcDbEntity
  8
4
100
AcDbLine
 10
578.411055112804
 20
111.4145314660627
 30
0.0
 11
583.4110546128038
 21
111.4145314660627
 31
0.0
  0
LINE
  5
248
330
15
100
AcDbEntity
  8
4
100
AcDbLine
 10
574.9110556128037
 20
106.1645314660627
 30
0.0
 11
576.4110556128037
 21
106.1645314660627
 31
0.0
  0
LINE
  5
249
330
15
100
AcDbEntity
  8
4
100
AcDbLine
 10
578.411055112804
 20
123.9145309660627
 30
0.0
 11
583.4110546128038
 21
123.9145309660627
 31
0.0
  0
LINE
  5
24F
330
15
100
AcDbEntity
  8
4
100
AcDbLine
 10
583.4110546128038
 20
130.1645314660627
 30
0.0
 11
576.4110556128037
 21
130.1645314660627
 31
0.0
  0
LINE
  5
250
330
15
100
AcDbEntity
  8
4
100
AcDbLine
 10
571.9110556128037
 20
132.6646534660627
 30
0.0
 11
574.9110556128037
 21
132.6646534660627
 31
0.0
  0
LINE
  5
251
330
15
100
AcDbEntity
  8
4
100
AcDbLine
 10
574.9110556128037
 20
129.1645309660627
 30
0.0
 11
576.4110556128037
 21
129.1645309660627
 31
0.0
  0
LINE
  5
252
330
15
100
AcDbEntity
  8
L-CENTER
 48
1.5
100
AcDbLine
 10
555.4084772247327
 20
179.9137311512134
 30
0.0
 11
555.4084772247315
 21
156.5972037569843
 31
0.0
  0
LINE
  5
253
330
15
100
AcDbEntity
  8
4
100
AcDbLine
 10
569.9110546128038
 20
171.0644329660627
 30
0.0
 11
569.9110546128038
 21
163.1646529660626
 31
0.0
  0
LINE
  5
254
330
15
100
AcDbEntity
  8
4
100
AcDbLine
 10
569.9110546128038
 20
158.1646534660627
 30
0.0
 11
569.9110546128038
 21
163.1646529660626
 31
0.0
  0
ARC
  5
255
330
15
100
AcDbEntity
  8
4
100
AcDbCircle
 10
568.9110556128037
 20
171.0644329660627
 30
0.0
 40
1.0000005
100
AcDbArc
 50
0.0
 51
90.0
  0
LINE
  5
260
330
15
100
AcDbEntity
  8
4
100
AcDbLine
 10
491.9110546128038
 20
228.6645319660627
 30
0.0
 11
491.9110546128038
 21
191.6645314660627
 31
0.0
  0
LINE
  5
261
330
15
100
AcDbEntity
  8
4
100
AcDbLine
 10
494.9110546128038
 20
188.6645314660627
 30
0.0
 11
494.9110546128038
 21
227.6645314660627
 31
0.0
  0
LINE
  5
262
330
15
100
AcDbEntity
  8
4
100
AcDbLine
 10
518.9110546128038
 20
188.6645314660627
 30
0.0
 11
518.9110546128038
 21
227.6645314660627
 31
0.0
  0
LINE
  5
263
330
15
100
AcDbEntity
  8
4
100
AcDbLine
 10
519.4110556128039
 20
188.6645314660627
 30
0.0
 11
494.411055112804
 21
188.6645314660627
 31
0.0
  0
LINE
  5
264
330
15
100
AcDbEntity
  8
4
100
AcDbLine
 10
494.9110546128038
 20
191.6645314660627
 30
0.0
 11
491.9110546128038
 21
191.6645314660627
 31
0.0
  0
LINE
  5
265
330
15
100
AcDbEntity
  8
4
100
AcDbLine
 10
517.9110556128039
 20
228.6645319660627
 30
0.0
 11
491.9110546128038
 21
228.6645319660627
 31
0.0
  0
LINE
  5
266
330
15
100
AcDbEntity
  8
4
100
AcDbLine
 10
494.9110546128038
 20
227.6645314660627
 30
0.0
 11
518.9110546128038
 21
227.6645314660627
 31
0.0
  0
LINE
  5
267
330
15
100
AcDbEntity
  8
4
100
AcDbLine
 10
494.9110546128038
 20
227.6645314660627
 30
0.0
 11
495.911055112804
 21
228.6645319660627
 31
0.0
  0
LINE
  5
268
330
15
100
AcDbEntity
  8
4
100
AcDbLine
 10
517.9110556128039
 20
228.6645319660627
 30
0.0
 11
518.9110546128038
 21
227.6645314660627
 31
0.0
  0
LINE
  5
276
330
15
100
AcDbEntity
  8
4
100
AcDbLine
 10
191.2926276784312
 20
173.3644334660627
 30
0.0
 11
182.7926276784312
 21
173.3644334660627
 31
0.0
  0
LINE
  5
277
330
15
100
AcDbEntity
  8
4
100
AcDbLine
 10
191.2926276784312
 20
178.3644334660627
 30
0.0
 11
182.7926276784312
 21
178.3644334660627
 31
0.0
  0
LINE
  5
278
330
15
100
AcDbEntity
  8
4
100
AcDbLine
 10
191.2926276784312
 20
178.3644334660627
 30
0.0
 11
191.2926276784312
 21
172.0644334660628
 31
0.0
  0
LINE
  5
279
330
15
100
AcDbEntity
  8
4
100
AcDbLine
 10
182.7926276784312
 20
178.3644334660627
 30
0.0
 11
182.7926276784312
 21
172.0644334660628
 31
0.0
  0
LINE
  5
27A
330
15
100
AcDbEntity
  8
2
100
AcDbLine
 10
188.3426276784313
 20
173.3644334660627
 30
0.0
 11
187.0426276784312
 21
172.0644334660627
 31
0.0
  0
LINE
  5
27B
330
15
100
AcDbEntity
  8
2
100
AcDbLine
 10
186.5041500473462
 20
173.3644334660627
 30
0.0
 11
185.2041500473463
 21
172.0644334660627
 31
0.0
  0
LINE
  5
27C
330
15
100
AcDbEntity
  8
4
100
AcDbLine
 10
219.2926276784311
 20
178.3644334660627
 30
0.0
 11
219.2926276784311
 21
172.0644334660628
 31
0.0
  0
LINE
  5
27D
330
15
100
AcDbEntity
  8
4
100
AcDbLine
 10
210.7926276784311
 20
178.3644334660627
 30
0.0
 11
210.7926276784311
 21
172.0644334660628
 31
0.0
  0
LINE
  5
27E
330
15
100
AcDbEntity
  8
4
100
AcDbLine
 10
219.2926276784311
 20
173.3644334660627
 30
0.0
 11
210.7926276784311
 21
173.3644334660627
 31
0.0
  0
LINE
  5
27F
330
15
100
AcDbEntity
  8
2
100
AcDbLine
 10
214.5041500473462
 20
173.3644334660627
 30
0.0
 11
213.2041500473462
 21
172.0644334660627
 31
0.0
  0
LINE
  5
280
330
15
100
AcDbEntity
  8
2
100
AcDbLine
 10
216.3426276784312
 20
173.3644334660627
 30
0.0
 11
215.0426276784311
 21
172.0644334660627
 31
0.0
  0
LINE
  5
281
330
15
100
AcDbEntity
  8
4
100
AcDbLine
 10
219.2926276784311
 20
178.3644334660627
 30
0.0
 11
210.7926276784311
 21
178.3644334660627
 31
0.0
  0
LINE
  5
282
330
15
100
AcDbEntity
  8
4
100
AcDbLine
 10
294.7926276784314
 20
178.3644334660627
 30
0.0
 11
294.7926276784314
 21
172.0644334660628
 31
0.0
  0
LINE
  5
283
330
15
100
AcDbEntity
  8
4
100
AcDbLine
 10
303.2926276784314
 20
178.3644334660627
 30
0.0
 11
303.2926276784314
 21
172.0644334660628
 31
0.0
  0
LINE
  5
284
330
15
100
AcDbEntity
  8
4
100
AcDbLine
 10
294.7926276784314
 20
173.3644334660627
 30
0.0
 11
303.2926276784314
 21
173.3644334660627
 31
0.0
  0
LINE
  5
285
330
15
100
AcDbEntity
  8
2
100
AcDbLine
 10
299.5811053095163
 20
173.3644334660627
 30
0.0
 11
300.8811053095163
 21
172.0644334660627
 31
0.0
  0
LINE
  5
286
330
15
100
AcDbEntity
  8
2
100
AcDbLine
 10
297.7426276784313
 20
173.3644334660627
 30
0.0
 11
299.0426276784314
 21
172.0644334660627
 31
0.0
  0
LINE
  5
287
330
15
100
AcDbEntity
  8
4
100
AcDbLine
 10
294.7926276784314
 20
178.3644334660627
 30
0.0
 11
303.2926276784314
 21
178.3644334660627
 31
0.0
  0
LINE
  5
288
330
15
100
AcDbEntity
  8
L-CENTER
 48
1.5
100
AcDbLine
 10
299.0426276784314
 20
179.9577051186861
 30
0.0
 11
299.0426276784314
 21
156.5972037569828
 31
0.0
  0
LINE
  5
289
330
15
100
AcDbEntity
  8
4
100
AcDbLine
 10
275.2926276784314
 20
178.3644334660627
 30
0.0
 11
275.2926276784314
 21
172.0644334660628
 31
0.0
  0
LINE
  5
28A
330
15
100
AcDbEntity
  8
4
100
AcDbLine
 10
266.7926276784314
 20
178.3644334660627
 30
0.0
 11
266.7926276784314
 21
172.0644334660628
 31
0.0
  0
LINE
  5
28B
330
15
100
AcDbEntity
  8
2
100
AcDbLine
 10
271.5811053095164
 20
173.3644334660627
 30
0.0
 11
272.8811053095163
 21
172.0644334660627
 31
0.0
  0
LINE
  5
28C
330
15
100
AcDbEntity
  8
4
100
AcDbLine
 10
266.7926276784314
 20
173.3644334660627
 30
0.0
 11
275.2926276784314
 21
173.3644334660627
 31
0.0
  0
LINE
  5
28D
330
15
100
AcDbEntity
  8
2
100
AcDbLine
 10
269.7426276784314
 20
173.3644334660627
 30
0.0
 11
271.0426276784314
 21
172.0644334660627
 31
0.0
  0
LINE
  5
28E
330
15
100
AcDbEntity
  8
4
100
AcDbLine
 10
266.7926276784314
 20
178.3644334660627
 30
0.0
 11
275.2926276784314
 21
178.3644334660627
 31
0.0
  0
LINE
  5
28F
330
15
100
AcDbEntity
  8
L-CENTER
 48
1.5
100
AcDbLine
 10
271.0426276784314
 20
179.9577051186861
 30
0.0
 11
271.0426276784314
 21
156.5972037569828
 31
0.0
  0
LINE
  5
290
330
15
100
AcDbEntity
  8
4
100
AcDbLine
 10
454.1636320008754
 20
178.3644334660627
 30
0.0
 11
454.1636320008754
 21
172.0644334660628
 31
0.0
  0
LINE
  5
291
330
15
100
AcDbEntity
  8
4
100
AcDbLine
 10
454.1636320008754
 20
178.3644334660627
 30
0.0
 11
462.6636320008754
 21
178.3644334660627
 31
0.0
  0
LINE
  5
292
330
15
100
AcDbEntity
  8
4
100
AcDbLine
 10
454.1636320008754
 20
173.3644334660627
 30
0.0
 11
462.6636320008754
 21
173.3644334660627
 31
0.0
  0
LINE
  5
293
330
15
100
AcDbEntity
  8
4
100
AcDbLine
 10
462.6636320008754
 20
178.3644334660627
 30
0.0
 11
462.6636320008754
 21
172.0644334660628
 31
0.0
  0
LINE
  5
294
330
15
100
AcDbEntity
  8
4
100
AcDbLine
 10
511.1610546128038
 20
178.3644334660627
 30
0.0
 11
511.1610546128038
 21
172.0644334660628
 31
0.0
  0
LINE
  5
295
330
15
100
AcDbEntity
  8
4
100
AcDbLine
 10
502.6610546128038
 20
178.3644334660627
 30
0.0
 11
502.6610546128038
 21
172.0644334660628
 31
0.0
  0
LINE
  5
296
330
15
100
AcDbEntity
  8
4
100
AcDbLine
 10
502.6610546128038
 20
173.3644334660627
 30
0.0
 11
511.1610546128038
 21
173.3644334660627
 31
0.0
  0
LINE
  5
297
330
15
100
AcDbEntity
  8
4
100
AcDbLine
 10
502.6610546128038
 20
178.3644334660627
 30
0.0
 11
511.1610546128038
 21
178.3644334660627
 31
0.0
  0
LINE
  5
298
330
15
100
AcDbEntity
  8
4
100
AcDbLine
 10
559.6584772247325
 20
178.3644334660627
 30
0.0
 11
559.6584772247325
 21
172.0644334660628
 31
0.0
  0
LINE
  5
299
330
15
100
AcDbEntity
  8
4
100
AcDbLine
 10
551.1584772247325
 20
178.3644334660627
 30
0.0
 11
551.1584772247325
 21
172.0644334660628
 31
0.0
  0
LINE
  5
29A
330
15
100
AcDbEntity
  8
4
100
AcDbLine
 10
551.1584772247325
 20
173.3644334660627
 30
0.0
 11
559.6584772247325
 21
173.3644334660627
 31
0.0
  0
LINE
  5
29B
330
15
100
AcDbEntity
  8
4
100
AcDbLine
 10
551.1584772247325
 20
178.3644334660627
 30
0.0
 11
559.6584772247325
 21
178.3644334660627
 31
0.0
  0
CIRCLE
  5
29C
330
15
100
AcDbEntity
  8
4
100
AcDbCircle
 10
215.0426276784311
 20
377.5611306564139
 30
0.0
 40
4.25
  0
LINE
  5
29D
330
15
100
AcDbEntity
  8
2
100
AcDbLine
 10
212.7332266016728
 20
377.5611306564139
 30
0.0
 11
213.8879271400521
 21
375.5611306564136
 31
0.0
  0
LINE
  5
29E
330
15
100
AcDbEntity
  8
2
100
AcDbLine
 10
216.1973282168104
 20
379.5611306564139
 30
0.0
 11
217.3520287551896
 21
377.5611306564139
 31
0.0
  0
LINE
  5
29F
330
15
100
AcDbEntity
  8
2
100
AcDbLine
 10
217.3520287551896
 20
377.5611306564139
 30
0.0
 11
216.1973282168104
 21
375.5611306564136
 31
0.0
  0
LINE
  5
2A0
330
15
100
AcDbEntity
  8
2
100
AcDbLine
 10
213.8879271400518
 20
379.5611306564139
 30
0.0
 11
212.7332266016728
 21
377.5611306564139
 31
0.0
  0
LINE
  5
2A1
330
15
100
AcDbEntity
  8
2
100
AcDbLine
 10
216.1973282168104
 20
379.5611306564139
 30
0.0
 11
213.8879271400518
 21
379.5611306564139
 31
0.0
  0
LINE
  5
2A2
330
15
100
AcDbEntity
  8
2
100
AcDbLine
 10
216.1973282168104
 20
375.5611306564136
 30
0.0
 11
213.8879271400521
 21
375.5611306564136
 31
0.0
  0
LINE
  5
2A3
330
15
100
AcDbEntity
  8
L-CENTER
 48
1.5
100
AcDbLine
 10
266.8183842548234
 20
384.8777348896414
 30
0.0
 11
275.2668711020392
 21
370.2445264231864
 31
0.0
  0
LINE
  5
2A4
330
15
100
AcDbEntity
  8
2
100
AcDbLine
 10
272.1973282168107
 20
379.5611306564139
 30
0.0
 11
273.3520287551897
 21
377.5611306564139
 31
0.0
  0
LINE
  5
2A5
330
15
100
AcDbEntity
  8
2
100
AcDbLine
 10
273.3520287551897
 20
377.5611306564139
 30
0.0
 11
272.1973282168104
 21
375.5611306564136
 31
0.0
  0
CIRCLE
  5
2A6
330
15
100
AcDbEntity
  8
4
100
AcDbCircle
 10
271.0426276784314
 20
377.5611306564139
 30
0.0
 40
4.25
  0
LINE
  5
2A7
330
15
100
AcDbEntity
  8
2
100
AcDbLine
 10
269.8879271400521
 20
379.5611306564139
 30
0.0
 11
272.1973282168107
 21
379.5611306564139
 31
0.0
  0
LINE
  5
2A8
330
15
100
AcDbEntity
  8
2
100
AcDbLine
 10
269.8879271400521
 20
375.5611306564136
 30
0.0
 11
272.1973282168104
 21
375.5611306564136
 31
0.0
  0
LINE
  5
2A9
330
15
100
AcDbEntity
  8
2
100
AcDbLine
 10
268.7332266016729
 20
377.5611306564139
 30
0.0
 11
269.8879271400521
 21
375.5611306564136
 31
0.0
  0
LINE
  5
2AA
330
15
100
AcDbEntity
  8
2
100
AcDbLine
 10
269.8879271400521
 20
379.5611306564139
 30
0.0
 11
268.7332266016729
 21
377.5611306564139
 31
0.0
  0
LINE
  5
2AB
330
15
100
AcDbEntity
  8
L-CENTER
 48
1.5
100
AcDbLine
 10
219.2668711020391
 20
467.2393716470434
 30
0.0
 11
210.8183842548233
 21
481.8725801134984
 31
0.0
  0
LINE
  5
2AC
330
15
100
AcDbEntity
  8
2
100
AcDbLine
 10
213.8879271400518
 20
472.5559758802709
 30
0.0
 11
212.7332266016728
 21
474.5559758802707
 31
0.0
  0
LINE
  5
2AD
330
15
100
AcDbEntity
  8
2
100
AcDbLine
 10
212.7332266016728
 20
474.5559758802707
 30
0.0
 11
213.8879271400521
 21
476.5559758802709
 31
0.0
  0
CIRCLE
  5
2AE
330
15
100
AcDbEntity
  8
4
100
AcDbCircle
 10
215.0426276784311
 20
474.5559758802709
 30
0.0
 40
4.25
  0
LINE
  5
2AF
330
15
100
AcDbEntity
  8
2
100
AcDbLine
 10
216.1973282168104
 20
472.5559758802709
 30
0.0
 11
213.8879271400518
 21
472.5559758802709
 31
0.0
  0
LINE
  5
2B0
330
15
100
AcDbEntity
  8
2
100
AcDbLine
 10
216.1973282168104
 20
476.5559758802709
 30
0.0
 11
213.8879271400521
 21
476.5559758802709
 31
0.0
  0
LINE
  5
2B1
330
15
100
AcDbEntity
  8
2
100
AcDbLine
 10
217.3520287551896
 20
474.5559758802709
 30
0.0
 11
216.1973282168104
 21
476.5559758802709
 31
0.0
  0
LINE
  5
2B2
330
15
100
AcDbEntity
  8
2
100
AcDbLine
 10
216.1973282168104
 20
472.5559758802709
 30
0.0
 11
217.3520287551896
 21
474.5559758802709
 31
0.0
  0
LINE
  5
2B3
330
15
100
AcDbEntity
  8
L-CENTER
 48
1.5
100
AcDbLine
 10
266.8183842548234
 20
467.2393716470434
 30
0.0
 11
275.2668711020392
 21
481.8725801134984
 31
0.0
  0
LINE
  5
2B4
330
15
100
AcDbEntity
  8
2
100
AcDbLine
 10
269.8879271400521
 20
472.5559758802709
 30
0.0
 11
268.7332266016729
 21
474.5559758802709
 31
0.0
  0
LINE
  5
2B5
330
15
100
AcDbEntity
  8
2
100
AcDbLine
 10
268.7332266016729
 20
474.5559758802709
 30
0.0
 11
269.8879271400521
 21
476.5559758802709
 31
0.0
  0
CIRCLE
  5
2B6
330
15
100
AcDbEntity
  8
4
100
AcDbCircle
 10
271.0426276784314
 20
474.5559758802709
 30
0.0
 40
4.25
  0
LINE
  5
2B7
330
15
100
AcDbEntity
  8
2
100
AcDbLine
 10
269.8879271400521
 20
476.5559758802709
 30
0.0
 11
272.1973282168104
 21
476.5559758802709
 31
0.0
  0
LINE
  5
2B8
330
15
100
AcDbEntity
  8
2
100
AcDbLine
 10
269.8879271400521
 20
472.5559758802709
 30
0.0
 11
272.1973282168107
 21
472.5559758802709
 31
0.0
  0
LINE
  5
2B9
330
15
100
AcDbEntity
  8
2
100
AcDbLine
 10
273.3520287551897
 20
474.5559758802707
 30
0.0
 11
272.1973282168104
 21
476.5559758802709
 31
0.0
  0
LINE
  5
2BA
330
15
100
AcDbEntity
  8
2
100
AcDbLine
 10
272.1973282168107
 20
472.5559758802709
 30
0.0
 11
273.3520287551897
 21
474.5559758802707
 31
0.0
  0
CIRCLE
  5
2BB
330
15
100
AcDbEntity
  8
4
100
AcDbCircle
 10
187.0426276784314
 20
426.0585532683423
 30
0.0
 40
4.25
  0
LINE
  5
2BC
330
15
100
AcDbEntity
  8
2
100
AcDbLine
 10
184.7332266016728
 20
426.0585532683423
 30
0.0
 11
185.8879271400522
 21
428.0585532683425
 31
0.0
  0
LINE
  5
2BD
330
15
100
AcDbEntity
  8
2
100
AcDbLine
 10
185.8879271400521
 20
424.0585532683425
 30
0.0
 11
184.7332266016728
 21
426.0585532683423
 31
0.0
  0
LINE
  5
2BE
330
15
100
AcDbEntity
  8
2
100
AcDbLine
 10
188.1973282168104
 20
424.0585532683425
 30
0.0
 11
189.3520287551897
 21
426.0585532683423
 31
0.0
  0
LINE
  5
2BF
330
15
100
AcDbEntity
  8
2
100
AcDbLine
 10
188.1973282168104
 20
424.0585532683425
 30
0.0
 11
185.8879271400521
 21
424.0585532683425
 31
0.0
  0
LINE
  5
2C0
330
15
100
AcDbEntity
  8
2
100
AcDbLine
 10
189.3520287551897
 20
426.0585532683423
 30
0.0
 11
188.1973282168104
 21
428.0585532683425
 31
0.0
  0
LINE
  5
2C1
330
15
100
AcDbEntity
  8
2
100
AcDbLine
 10
188.1973282168104
 20
428.0585532683425
 30
0.0
 11
185.8879271400522
 21
428.0585532683425
 31
0.0
  0
LINE
  5
2C2
330
15
100
AcDbEntity
  8
2
100
AcDbLine
 10
296.7332266016728
 20
426.0585532683423
 30
0.0
 11
297.8879271400521
 21
428.0585532683425
 31
0.0
  0
LINE
  5
2C3
330
15
100
AcDbEntity
  8
2
100
AcDbLine
 10
297.8879271400521
 20
424.0585532683425
 30
0.0
 11
296.7332266016728
 21
426.0585532683423
 31
0.0
  0
CIRCLE
  5
2C4
330
15
100
AcDbEntity
  8
4
100
AcDbCircle
 10
299.0426276784311
 20
426.0585532683423
 30
0.0
 40
4.25
  0
LINE
  5
2C5
330
15
100
AcDbEntity
  8
2
100
AcDbLine
 10
297.8879271400521
 20
428.0585532683425
 30
0.0
 11
300.1973282168103
 21
428.0585532683425
 31
0.0
  0
LINE
  5
2C6
330
15
100
AcDbEntity
  8
2
100
AcDbLine
 10
297.8879271400521
 20
424.0585532683425
 30
0.0
 11
300.1973282168104
 21
424.0585532683425
 31
0.0
  0
LINE
  5
2C7
330
15
100
AcDbEntity
  8
2
100
AcDbLine
 10
300.1973282168104
 20
424.0585532683425
 30
0.0
 11
301.3520287551897
 21
426.0585532683423
 31
0.0
  0
LINE
  5
2C8
330
15
100
AcDbEntity
  8
2
100
AcDbLine
 10
301.3520287551897
 20
426.0585532683423
 30
0.0
 11
300.1973282168103
 21
428.0585532683425
 31
0.0
  0
LINE
  5
2F1
330
15
100
AcDbEntity
  8
4
100
AcDbLine
 10
97.51722359626268
 20
133.6646524660627
 30
0.0
 11
97.51722359626268
 21
128.6646529660628
 31
0.0
  0
LINE
  5
2F7
330
15
100
AcDbEntity
  8
4
100
AcDbLine
 10
92.51722409626262
 20
133.6646524660627
 30
0.0
 11
92.51722409626262
 21
128.6646529660628
 31
0.0
  0
LINE
  5
2FF
330
15
100
AcDbEntity
  8
L-CENTER
 48
1.5
100
AcDbLine
 10
106.8885238587868
 20
123.6646534660627
 30
0.0
 11
83.14592233373861
 21
123.6646534660627
 31
0.0
  0
LINE
  5
300
330
15
100
AcDbEntity
  8
4
100
AcDbLine
 10
97.51722359626268
 20
128.6646529660628
 30
0.0
 11
92.51722409626262
 21
128.6646529660628
 31
0.0
  0
LINE
  5
301
330
15
100
AcDbEntity
  8
4
100
AcDbLine
 10
97.51722359626268
 20
133.6646524660627
 30
0.0
 11
92.51722409626262
 21
133.6646524660627
 31
0.0
  0
LINE
  5
306
330
15
100
AcDbEntity
  8
L-CENTER
 48
1.5
100
AcDbLine
 10
95.01722309626274
 20
111.7933527035387
 30
0.0
 11
95.01722309626274
 21
135.5359542285867
 31
0.0
  0
ARC
  5
307
330
15
100
AcDbEntity
  8
4
100
AcDbCircle
 10
95.01722309626274
 20
123.6646534660627
 30
0.0
 40
7.999996499999999
100
AcDbArc
 50
108.2099575711191
 51
71.7900270000005
  0
LINE
  5
46A
330
15
100
AcDbEntity
  8
4
100
AcDbLine
 10
128.0427186784313
 20
133.6646539660628
 30
0.0
 11
160.0427196784312
 21
133.6646539660628
 31
0.0
  0
LINE
  5
46B
330
15
100
AcDbEntity
  8
4
100
AcDbLine
 10
129.0427191784312
 20
115.6646539660628
 30
0.0
 11
163.0426281784311
 21
115.6646539660628
 31
0.0
  0
LINE
  5
46C
330
15
100
AcDbEntity
  8
4
100
AcDbLine
 10
129.0427191784312
 20
131.6646529660626
 30
0.0
 11
163.0426281784311
 21
131.6646529660626
 31
0.0
  0
LINE
  5
46D
330
15
100
AcDbEntity
  8
4
100
AcDbLine
 10
163.0426281784311
 20
115.1646529660626
 30
0.0
 11
163.0426281784311
 21
132.1646539660628
 31
0.0
  0
LINE
  5
46E
330
15
100
AcDbEntity
  8
4
100
AcDbLine
 10
163.0426281784311
 20
115.1646529660626
 30
0.0
 11
174.0426276784312
 21
115.1646529660626
 31
0.0
  0
LINE
  5
46F
330
15
100
AcDbEntity
  8
4
100
AcDbLine
 10
163.0426281784311
 20
132.1646539660628
 30
0.0
 11
174.0426276784312
 21
132.1646539660628
 31
0.0
  0
LINE
  5
470
330
15
100
AcDbEntity
  8
4
100
AcDbLine
 10
160.0427196784312
 20
131.6646529660626
 30
0.0
 11
160.0427196784312
 21
133.6646539660628
 31
0.0
  0
LINE
  5
471
330
15
100
AcDbEntity
  8
4
100
AcDbLine
 10
129.0427191784312
 20
115.6646539660628
 30
0.0
 11
129.0427191784312
 21
131.6646529660626
 31
0.0
  0
LINE
  5
472
330
15
100
AcDbEntity
  8
4
100
AcDbLine
 10
128.0427186784313
 20
116.6646529660626
 30
0.0
 11
128.0427186784313
 21
133.6646539660628
 31
0.0
  0
LINE
  5
473
330
15
100
AcDbEntity
  8
4
100
AcDbLine
 10
129.0427191784312
 20
115.6646539660628
 30
0.0
 11
128.0427186784313
 21
116.6646529660626
 31
0.0
  0
LINE
  5
474
330
15
100
AcDbEntity
  8
4
100
AcDbLine
 10
128.0427186784313
 20
130.6646539660628
 30
0.0
 11
129.0427191784312
 21
131.6646529660626
 31
0.0
  0
ARC
  5
478
330
15
100
AcDbEntity
  8
4
100
AcDbCircle
 10
163.0426276784312
 20
381.0585532683423
 30
0.0
 40
5.5
100
AcDbArc
 50
294.6199773286597
 51
270.0
  0
LINE
  5
479
330
15
100
AcDbEntity
  8
4
100
AcDbLine
 10
150.5426276784312
 20
374.0585532683423
 30
0.0
 11
150.5426276784312
 21
391.8451592683424
 31
0.0
  0
LINE
  5
47A
330
15
100
AcDbEntity
  8
4
100
AcDbLine
 10
129.0426276784312
 20
358.0585532683423
 30
0.0
 11
162.5426276784312
 21
358.0585532683423
 31
0.0
  0
LINE
  5
47B
330
15
100
AcDbEntity
  8
4
100
AcDbLine
 10
129.0426276784312
 20
374.0585532683423
 30
0.0
 11
162.5426276784312
 21
374.0585532683423
 31
0.0
  0
LINE
  5
47C
330
15
100
AcDbEntity
  8
4
100
AcDbLine
 10
128.0426276784312
 20
363.5585532683423
 30
0.0
 11
157.5426276784312
 21
363.5585532683423
 31
0.0
  0
LINE
  5
47D
330
15
100
AcDbEntity
  8
4
100
AcDbLine
 10
128.0426276784312
 20
368.5585532683423
 30
0.0
 11
157.5426276784312
 21
368.5585532683423
 31
0.0
  0
LINE
  5
47E
330
15
100
AcDbEntity
  8
4
100
AcDbLine
 10
163.0426276784312
 20
376.0585532683423
 30
0.0
 11
163.0426276784312
 21
356.5585532683423
 31
0.0
  0
LINE
  5
47F
330
15
100
AcDbEntity
  8
4
100
AcDbLine
 10
163.0426276784312
 20
356.5585532683423
 30
0.0
 11
174.0426276784311
 21
356.5585532683423
 31
0.0
  0
ARC
  5
480
330
15
100
AcDbEntity
  8
4
100
AcDbCircle
 10
162.5426276784312
 20
357.5585532683423
 30
0.0
 40
0.5
100
AcDbArc
 50
0.0
 51
90.0
  0
LINE
  5
481
330
15
100
AcDbEntity
  8
4
100
AcDbLine
 10
163.0426276784312
 20
376.0585532683423
 30
0.0
 11
174.0426276784311
 21
376.0585532683425
 31
0.0
  0
ARC
  5
482
330
15
100
AcDbEntity
  8
4
100
AcDbCircle
 10
162.5426276784312
 20
374.5585532683423
 30
0.0
 40
0.5
100
AcDbArc
 50
270.0
 51
0.0
  0
ARC
  5
483
330
15
100
AcDbEntity
  8
4
100
AcDbCircle
 10
157.5426276784312
 20
366.0585532683423
 30
0.0
 40
2.5
100
AcDbArc
 50
270.0
 51
90.0
  0
LINE
  5
484
330
15
100
AcDbEntity
  8
4
100
AcDbLine
 10
128.0426276784312
 20
359.0585532683423
 30
0.0
 11
128.0426276784312
 21
373.0585532683423
 31
0.0
  0
LINE
  5
485
330
15
100
AcDbEntity
  8
4
100
AcDbLine
 10
129.0426276784312
 20
358.0585532683423
 30
0.0
 11
128.0426276784312
 21
359.0585532683423
 31
0.0
  0
LINE
  5
486
330
15
100
AcDbEntity
  8
4
100
AcDbLine
 10
129.0426276784312
 20
358.0585532683423
 30
0.0
 11
129.0426276784312
 21
363.5585532683423
 31
0.0
  0
LINE
  5
487
330
15
100
AcDbEntity
  8
4
100
AcDbLine
 10
129.0426276784312
 20
368.5585532683423
 30
0.0
 11
129.0426276784312
 21
374.0585532683423
 31
0.0
  0
LINE
  5
488
330
15
100
AcDbEntity
  8
4
100
AcDbLine
 10
129.0426276784312
 20
374.0585532683423
 30
0.0
 11
128.0426276784312
 21
373.0585532683423
 31
0.0
  0
LINE
  5
4A2
330
15
100
AcDbEntity
  8
4
100
AcDbLine
 10
530.411055112804
 20
69.66465346606282
 30
0.0
 11
483.4110556128039
 21
69.66465346606282
 31
0.0
  0
LINE
  5
4A3
330
15
100
AcDbEntity
  8
4
100
AcDbLine
 10
255.5426271784314
 20
58.66477546606268
 30
0.0
 11
255.5426271784314
 21
69.66465346606282
 31
0.0
  0
LINE
  5
4A4
330
15
100
AcDbEntity
  8
4
100
AcDbLine
 10
230.5426281784313
 20
58.66477546606268
 30
0.0
 11
230.5426281784313
 21
69.66465346606282
 31
0.0
  0
LINE
  5
4A5
330
15
100
AcDbEntity
  8
4
100
AcDbLine
 10
266.5426281784313
 20
69.66465346606282
 30
0.0
 11
219.5426271784314
 21
69.66465346606282
 31
0.0
  0
LINE
  5
4A6
330
15
100
AcDbEntity
  8
4
100
AcDbLine
 10
219.5426271784314
 20
69.66465346606282
 30
0.0
 11
219.5426271784314
 21
70.66465396606276
 31
0.0
  0
LINE
  5
4A7
330
15
100
AcDbEntity
  8
4
100
AcDbLine
 10
266.5426281784313
 20
70.66465396606276
 30
0.0
 11
266.5426281784313
 21
69.66465346606282
 31
0.0
  0
LINE
  5
4A8
330
15
100
AcDbEntity
  8
4
100
AcDbLine
 10
483.4110556128039
 20
69.66465346606282
 30
0.0
 11
483.4110556128039
 21
70.66465396606276
 31
0.0
  0
LINE
  5
4A9
330
15
100
AcDbEntity
  8
4
100
AcDbLine
 10
231.0426276784314
 20
58.66477546606268
 30
0.0
 11
231.0426276784314
 21
19.66477546606268
 31
0.0
  0
LINE
  5
4AA
330
15
100
AcDbEntity
  8
4
100
AcDbLine
 10
255.0426276784314
 20
58.66477546606268
 30
0.0
 11
255.0426276784314
 21
19.66477546606268
 31
0.0
  0
LINE
  5
4AB
330
15
100
AcDbEntity
  8
4
100
AcDbLine
 10
239.5426281784313
 20
52.16477596606279
 30
0.0
 11
239.5426281784313
 21
18.66477496606274
 31
0.0
  0
LINE
  5
4AC
330
15
100
AcDbEntity
  8
4
100
AcDbLine
 10
246.5426271784314
 20
52.16477596606279
 30
0.0
 11
246.5426271784314
 21
18.66477496606274
 31
0.0
  0
ARC
  5
4AD
330
15
100
AcDbEntity
  8
4
100
AcDbCircle
 10
243.0426276784314
 20
52.16477596606279
 30
0.0
 40
3.4999995
100
AcDbArc
 50
0.0
 51
180.0
  0
LINE
  5
4AE
330
15
100
AcDbEntity
  8
4
100
AcDbLine
 10
255.5426271784314
 20
58.66477546606268
 30
0.0
 11
230.5426281784313
 21
58.66477546606268
 31
0.0
  0
LINE
  5
4AF
330
15
100
AcDbEntity
  8
4
100
AcDbLine
 10
254.0426271784314
 20
18.66477496606274
 30
0.0
 11
232.0426281784313
 21
18.66477496606274
 31
0.0
  0
LINE
  5
4B0
330
15
100
AcDbEntity
  8
4
100
AcDbLine
 10
239.5426281784313
 20
19.66477546606268
 30
0.0
 11
231.0426276784314
 21
19.66477546606268
 31
0.0
  0
LINE
  5
4B1
330
15
100
AcDbEntity
  8
4
100
AcDbLine
 10
231.0426276784314
 20
19.66477546606268
 30
0.0
 11
232.0426281784313
 21
18.66477496606274
 31
0.0
  0
LINE
  5
4B2
330
15
100
AcDbEntity
  8
4
100
AcDbLine
 10
246.5426271784314
 20
19.66477546606268
 30
0.0
 11
255.0426276784314
 21
19.66477546606268
 31
0.0
  0
LINE
  5
4B3
330
15
100
AcDbEntity
  8
4
100
AcDbLine
 10
254.0426271784314
 20
18.66477496606274
 30
0.0
 11
255.0426276784314
 21
19.66477546606268
 31
0.0
  0
LINE
  5
4B4
330
15
100
AcDbEntity
  8
4
100
AcDbLine
 10
519.4110556128039
 20
58.66477546606268
 30
0.0
 11
519.4110556128039
 21
69.66465346606282
 31
0.0
  0
LINE
  5
4B5
330
15
100
AcDbEntity
  8
4
100
AcDbLine
 10
494.411055112804
 20
58.66477546606268
 30
0.0
 11
494.411055112804
 21
69.66465346606282
 31
0.0
  0
LINE
  5
4B6
330
15
100
AcDbEntity
  8
4
100
AcDbLine
 10
530.411055112804
 20
70.66465396606276
 30
0.0
 11
530.411055112804
 21
69.66465346606282
 31
0.0
  0
LINE
  5
4B7
330
15
100
AcDbEntity
  8
4
100
AcDbLine
 10
491.9110546128038
 20
18.66477496606274
 30
0.0
 11
491.9110546128038
 21
55.66477546606268
 31
0.0
  0
LINE
  5
4B8
330
15
100
AcDbEntity
  8
4
100
AcDbLine
 10
494.9110546128038
 20
58.66477546606268
 30
0.0
 11
494.9110546128038
 21
19.66477546606268
 31
0.0
  0
LINE
  5
4B9
330
15
100
AcDbEntity
  8
4
100
AcDbLine
 10
518.9110546128038
 20
58.66477546606268
 30
0.0
 11
518.9110546128038
 21
19.66477546606268
 31
0.0
  0
LINE
  5
4BA
330
15
100
AcDbEntity
  8
4
100
AcDbLine
 10
519.4110556128039
 20
58.66477546606268
 30
0.0
 11
494.411055112804
 21
58.66477546606268
 31
0.0
  0
LINE
  5
4BB
330
15
100
AcDbEntity
  8
4
100
AcDbLine
 10
494.9110546128038
 20
55.66477546606268
 30
0.0
 11
491.9110546128038
 21
55.66477546606268
 31
0.0
  0
LINE
  5
4BC
330
15
100
AcDbEntity
  8
4
100
AcDbLine
 10
517.9110556128039
 20
18.66477496606274
 30
0.0
 11
491.9110546128038
 21
18.66477496606274
 31
0.0
  0
LINE
  5
4BD
330
15
100
AcDbEntity
  8
4
100
AcDbLine
 10
494.9110546128038
 20
19.66477546606268
 30
0.0
 11
518.9110546128038
 21
19.66477546606268
 31
0.0
  0
LINE
  5
4BE
330
15
100
AcDbEntity
  8
4
100
AcDbLine
 10
494.9110546128038
 20
19.66477546606268
 30
0.0
 11
495.911055112804
 21
18.66477496606274
 31
0.0
  0
LINE
  5
4BF
330
15
100
AcDbEntity
  8
4
100
AcDbLine
 10
517.9110556128039
 20
18.66477496606274
 30
0.0
 11
518.9110546128038
 21
19.66477546606268
 31
0.0
  0
ARC
  5
4D9
330
15
100
AcDbEntity
  8
4
100
AcDbCircle
 10
330.5426276784312
 20
371.0585532683423
 30
0.0
 40
5.0
100
AcDbArc
 50
270.0
 51
0.0
  0
CIRCLE
  5
4DA
330
15
100
AcDbEntity
  8
4
100
AcDbCircle
 10
323.0426276784312
 20
381.0585532683423
 30
0.0
 40
5.5
  0
LINE
  5
4DB
330
15
100
AcDbEntity
  8
4
100
AcDbLine
 10
312.0426276784312
 20
366.0585532683423
 30
0.0
 11
330.5426276784312
 21
366.0585532683423
 31
0.0
  0
LINE
  5
4DC
330
15
100
AcDbEntity
  8
4
100
AcDbLine
 10
335.5426276784312
 20
391.8451592683422
 30
0.0
 11
335.5426276784312
 21
371.0585532683423
 31
0.0
  0
LINE
  5
4ED
330
15
100
AcDbEntity
  8
4
100
AcDbLine
 10
514.9110541128039
 20
177.1645309660626
 30
0.0
 11
511.1610546128038
 21
177.1645309660626
 31
0.0
  0
LINE
  5
4EE
330
15
100
AcDbEntity
  8
4
100
AcDbLine
 10
498.4110541128038
 20
173.1645319660627
 30
0.0
 11
502.6610546128038
 21
173.1645319660627
 31
0.0
  0
LINE
  5
4EF
330
15
100
AcDbEntity
  8
4
100
AcDbLine
 10
514.9110541128039
 20
177.1645309660626
 30
0.0
 11
514.9110541128039
 21
173.1645319660627
 31
0.0
  0
LINE
  5
4F0
330
15
100
AcDbEntity
  8
4
100
AcDbLine
 10
515.4110551128039
 20
173.1645319660627
 30
0.0
 11
515.4110551128039
 21
172.0644334660627
 31
0.0
  0
ARC
  5
4F3
330
15
100
AcDbEntity
  8
4
100
AcDbCircle
 10
506.9110546128038
 20
178.0646779660628
 30
0.0
 40
0.6000059999999999
100
AcDbArc
 50
29.97271324291382
 51
150.0272867570815
  0
LINE
  5
4F4
330
15
100
AcDbEntity
  8
4
100
AcDbLine
 10
498.9110551128038
 20
177.1645309660626
 30
0.0
 11
498.9110551128038
 21
173.1645319660627
 31
0.0
  0
LINE
  5
4F5
330
15
100
AcDbEntity
  8
4
100
AcDbLine
 10
498.4110541128038
 20
173.1645319660627
 30
0.0
 11
498.4110541128038
 21
172.0644334660627
 31
0.0
  0
LINE
  5
4F6
330
15
100
AcDbEntity
  8
4
100
AcDbLine
 10
502.6610546128038
 20
177.1645309660626
 30
0.0
 11
498.9110551128038
 21
177.1645309660626
 31
0.0
  0
LINE
  5
4F7
330
15
100
AcDbEntity
  8
4
100
AcDbLine
 10
511.1610546128038
 20
173.1645319660627
 30
0.0
 11
515.4110551128039
 21
173.1645319660627
 31
0.0
  0
ENDSEC
  0
SECTION
  2
OBJECTS
  0
DICTIONARY
  5
5
330
0
100
AcDbDictionary
281
     1
  3
ACAD_COLOR
350
28
  3
ACAD_GROUP
350
26
  3
ACAD_LAYOUT
350
1C
  3
ACAD_MATERIAL
350
7
  3
ACAD_MLEADERSTYLE
350
44A
  3
ACAD_MLINESTYLE
350
13
  3
ACAD_PLOTSETTINGS
350
27
  3
ACAD_PLOTSTYLENAME
350
4
  3
ACAD_SCALELIST
350
2D
  3
ACAD_TABLESTYLE
350
449
  3
ACAD_VISUALSTYLE
350
29
  3
ACDBHEADERROUNDTRIPXREC
350
4FE
  3
AcDbVariableDictionary
350
447
  3
DWGPROPS
350
501
  0
DICTIONARY
  5
502
330
25
100
AcDbDictionary
280
     1
281
     1
  3
ACAD_XREC_ROUNDTRIP
360
503
  0
DICTIONARY
  5
16
330
15
100
AcDbDictionary
280
     1
281
     1
  3
ACAD_SORTENTS
360
17
  0
DICTIONARY
  5
28
102
{ACAD_REACTORS
330
5
102
}
330
5
100
AcDbDictionary
281
     1
  0
DICTIONARY
  5
26
102
{ACAD_REACTORS
330
5
102
}
330
5
100
AcDbDictionary
281
     1
  0
DICTIONARY
  5
1C
102
{ACAD_REACTORS
330
5
102
}
330
5
100
AcDbDictionary
281
     1
  3
Model
350
1B
  3
ﾚｲｱｳﾄ1
350
22
  0
DICTIONARY
  5
7
102
{ACAD_REACTORS
330
5
102
}
330
5
100
AcDbDictionary
281
     1
  3
ByBlock
350
70
  3
ByLayer
350
E
  3
Global
350
6
  0
DICTIONARY
  5
44A
102
{ACAD_REACTORS
330
5
102
}
330
5
100
AcDbDictionary
281
     1
  3
Standard
350
465
  0
DICTIONARY
  5
13
102
{ACAD_REACTORS
330
5
102
}
330
5
100
AcDbDictionary
281
     1
  3
STANDARD
350
12
  0
DICTIONARY
  5
27
102
{ACAD_REACTORS
330
5
102
}
330
5
100
AcDbDictionary
281
     1
  0
ACDBDICTIONARYWDFLT
  5
4
102
{ACAD_REACTORS
330
5
102
}
330
5
100
AcDbDictionary
281
     1
  3
Normal
350
3
100
AcDbDictionaryWithDefault
340
3
  0
DICTIONARY
  5
2D
102
{ACAD_REACTORS
330
5
102
}
330
5
100
AcDbDictionary
281
     1
  3
*A1
350
4F
  3
*A10
350
58
  3
*A11
350
59
  3
*A12
350
5A
  3
*A13
350
5B
  3
*A14
350
5C
  3
*A15
350
5D
  3
*A16
350
5E
  3
*A17
350
5F
  3
*A18
350
60
  3
*A19
350
61
  3
*A2
350
50
  3
*A20
350
62
  3
*A21
350
63
  3
*A22
350
64
  3
*A23
350
65
  3
*A24
350
66
  3
*A25
350
67
  3
*A26
350
68
  3
*A27
350
69
  3
*A28
350
6A
  3
*A29
350
6B
  3
*A3
350
51
  3
*A30
350
6C
  3
*A31
350
6D
  3
*A32
350
6E
  3
*A33
350
6F
  3
*A4
350
52
  3
*A5
350
53
  3
*A6
350
54
  3
*A7
350
55
  3
*A8
350
56
  3
*A9
350
57
  0
DICTIONARY
  5
449
102
{ACAD_REACTORS
330
5
102
}
330
5
100
AcDbDictionary
281
     1
  3
Standard
350
4FA
  0
DICTIONARY
  5
29
102
{ACAD_REACTORS
330
5
102
}
330
5
100
AcDbDictionary
281
     1
  3
2dWireframe
350
451
  3
Basic
350
454
  3
Brighten
350
458
  3
ColorChange
350
45C
  3
Conceptual
350
456
  3
Dim
350
457
  3
EdgeColorOff
350
45F
  3
Facepattern
350
45B
  3
Flat
350
44D
  3
FlatWithEdges
350
44E
  3
Gouraud
350
44F
  3
GouraudWithEdges
350
450
  3
Hidden
350
453
  3
JitterOff
350
45D
  3
Linepattern
350
45A
  3
OverhangOff
350
45E
  3
Realistic
350
455
  3
Shaded
350
464
  3
Shaded with edges
350
463
  3
Shades of Gray
350
460
  3
Sketchy
350
461
  3
Thicken
350
459
  3
Wireframe
350
452
  3
X-Ray
350
462
  0
DICTIONARY
  5
4FE
102
{ACAD_REACTORS
330
5
102
}
330
5
100
AcDbDictionary
281
     1
  3
COLORDICT
350
4FF
  3
MATERIALDICT
350
500
  0
DICTIONARY
  5
447
102
{ACAD_REACTORS
330
5
102
}
330
5
100
AcDbDictionary
281
     1
  3
CANNOSCALE
350
448
  3
CMLEADERSTYLE
350
467
  3
CTABLESTYLE
350
4FB
  3
DIMASSOC
350
4FC
  3
HIDETEXT
350
4FD
  3
MSLTSCALE
350
504
  0
XRECORD
  5
501
102
{ACAD_REACTORS
330
5
102
}
330
5
100
AcDbXrecord
280
     1
  1
DWGPROPS COOKIE
  2

  3

  4

  6

  7

  8
sg-d04
  9

300
=
301
=
302
=
303
=
304
=
305
=
306
=
307
=
308
=
309
=
 40
0.0
 41
2449812.756805555
 42
2457870.247439039
  1

 90
        0
  0
XRECORD
  5
503
102
{ACAD_REACTORS
330
502
102
}
330
502
100
AcDbXrecord
280
     1
102
VTR_0.000_0.000_1.000_1.000_VISUALSTYLE
340
451
102
VTR_0.000_0.000_1.000_1.000_GRIDDISPLAY
 70
     3
102
VTR_0.000_0.000_1.000_1.000_GRIDMAJOR
 70
     5
102
VTR_0.000_0.000_1.000_1.000_DEFAULTLIGHTING
280
     1
102
VTR_0.000_0.000_1.000_1.000_DEFAULTLIGHTINGTYPE
 70
     1
102
VTR_0.000_0.000_1.000_1.000_BRIGHTNESS
141
0.0
102
VTR_0.000_0.000_1.000_1.000_CONTRAST
142
0.0
  0
SORTENTSTABLE
  5
17
102
{ACAD_REACTORS
330
16
102
}
330
16
100
AcDbSortentsTable
330
15
331
0
  5
C1
331
94
  5
95
331
95
  5
96
331
96
  5
97
331
97
  5
98
331
98
  5
99
331
99
  5
9A
331
9A
  5
9B
331
9B
  5
9C
331
9C
  5
9D
331
A1
  5
A2
331
A2
  5
A3
331
A3
  5
A4
331
A4
  5
A5
331
A5
  5
A6
331
A6
  5
A7
331
A7
  5
A8
331
A8
  5
A9
331
A9
  5
AA
331
AA
  5
AB
331
AB
  5
AC
331
AC
  5
AD
331
AD
  5
AE
331
AE
  5
AF
331
AF
  5
B0
331
B0
  5
B1
331
B1
  5
B2
331
B2
  5
B3
331
B3
  5
B4
331
B4
  5
B5
331
B5
  5
B6
331
B6
  5
B7
331
B7
  5
B8
331
B8
  5
B9
331
B9
  5
BA
331
BA
  5
BB
331
BB
  5
BC
331
BC
  5
BD
331
BD
  5
BE
331
BE
  5
BF
331
BF
  5
C0
331
C7
  5
C9
331
CA
  5
CB
331
CB
  5
CC
331
CC
  5
CD
331
CD
  5
CE
331
CE
  5
CF
331
CF
  5
D0
331
D2
  5
D3
331
D3
  5
D4
331
D4
  5
D5
331
D5
  5
D6
331
D6
  5
D7
331
D7
  5
D9
331
DE
  5
DF
331
DF
  5
E0
331
E0
  5
E1
331
E1
  5
E2
331
E2
  5
E3
331
E3
  5
E4
331
E4
  5
E5
331
E5
  5
E6
331
E6
  5
E7
331
E7
  5
E8
331
E8
  5
E9
331
E9
  5
EA
331
EA
  5
EB
331
EC
  5
ED
331
ED
  5
EE
331
EE
  5
EF
331
F0
  5
F1
331
F1
  5
F2
331
F2
  5
F3
331
F3
  5
F4
331
F4
  5
F5
331
F5
  5
F6
331
FA
  5
FB
331
FB
  5
FC
331
FC
  5
FD
331
FD
  5
FE
331
FE
  5
FF
331
FF
  5
100
331
102
  5
103
331
103
  5
104
331
104
  5
105
331
105
  5
106
331
106
  5
107
331
10C
  5
10D
331
10D
  5
10E
331
110
  5
111
331
111
  5
112
331
112
  5
113
331
113
  5
114
331
114
  5
115
331
115
  5
116
331
116
  5
117
331
117
  5
118
331
118
  5
119
331
11C
  5
11D
331
120
  5
121
331
123
  5
124
331
127
  5
128
331
128
  5
129
331
12A
  5
12B
331
12C
  5
12D
331
12D
  5
12E
331
12E
  5
12F
331
12F
  5
130
331
130
  5
131
331
131
  5
132
331
132
  5
133
331
133
  5
134
331
134
  5
135
331
135
  5
136
331
136
  5
137
331
137
  5
138
331
138
  5
139
331
139
  5
13A
331
13A
  5
13B
331
13B
  5
13C
331
13C
  5
13D
331
13D
  5
13E
331
13E
  5
13F
331
13F
  5
140
331
140
  5
141
331
141
  5
142
331
142
  5
145
331
145
  5
146
331
146
  5
148
331
148
  5
149
331
149
  5
14A
331
14A
  5
14C
331
14C
  5
153
331
153
  5
154
331
154
  5
155
331
155
  5
156
331
156
  5
157
331
157
  5
158
331
158
  5
159
331
159
  5
15A
331
15A
  5
15B
331
15B
  5
15C
331
15C
  5
15D
331
15D
  5
15E
331
15E
  5
15F
331
15F
  5
160
331
160
  5
161
331
161
  5
162
331
162
  5
163
331
163
  5
164
331
164
  5
165
331
165
  5
166
331
166
  5
167
331
167
  5
168
331
168
  5
169
331
169
  5
16A
331
16A
  5
16B
331
16B
  5
16C
331
16C
  5
16D
331
16D
  5
16E
331
16E
  5
16F
331
16F
  5
170
331
170
  5
171
331
171
  5
172
331
172
  5
173
331
173
  5
174
331
174
  5
175
331
175
  5
176
331
176
  5
177
331
177
  5
178
331
178
  5
179
331
179
  5
17A
331
17A
  5
17B
331
17B
  5
17C
331
17C
  5
17D
331
17D
  5
17E
331
17E
  5
17F
331
17F
  5
180
331
180
  5
181
331
181
  5
182
331
182
  5
183
331
184
  5
185
331
185
  5
186
331
187
  5
188
331
193
  5
194
331
194
  5
195
331
195
  5
196
331
196
  5
197
331
197
  5
198
331
198
  5
199
331
199
  5
19A
331
19A
  5
19B
331
19B
  5
19C
331
19C
  5
19D
331
19D
  5
19E
331
1A3
  5
1A4
331
1A4
  5
1A5
331
1A5
  5
1A6
331
1A6
  5
1A7
331
1A7
  5
1A8
331
1A8
  5
1A9
331
1A9
  5
1AA
331
1AA
  5
1AB
331
1AB
  5
1AC
331
1AC
  5
1AD
331
1AD
  5
1AE
331
1AE
  5
1AF
331
1AF
  5
1B0
331
1B0
  5
1B1
331
1B1
  5
1B2
331
1B2
  5
1B3
331
1B3
  5
1B4
331
1B4
  5
1B5
331
1B5
  5
1B6
331
1B6
  5
1B7
331
1B7
  5
1B8
331
1B8
  5
1B9
331
1B9
  5
1BA
331
1BA
  5
1BB
331
1BB
  5
1BC
331
1BC
  5
1BD
331
1BD
  5
1BE
331
1BE
  5
1BF
331
1BF
  5
1C0
331
1C0
  5
1C1
331
1C1
  5
1C2
331
1C2
  5
1C3
331
1C3
  5
1C4
331
1C4
  5
1C5
331
1C5
  5
1C6
331
1C6
  5
1C7
331
1C7
  5
1C8
331
1C8
  5
1C9
331
1C9
  5
1CA
331
1CA
  5
1CB
331
1CB
  5
1CC
331
1CC
  5
1CD
331
1CD
  5
1CE
331
1CE
  5
1CF
331
1CF
  5
1D0
331
1D0
  5
1D1
331
1D1
  5
1D2
331
1D2
  5
1D3
331
1D3
  5
1D4
331
1D4
  5
1D5
331
1D5
  5
1D6
331
1D6
  5
1D7
331
1D7
  5
1D8
331
1D8
  5
1D9
331
1D9
  5
1DA
331
1DA
  5
1DB
331
1DB
  5
1DC
331
1F0
  5
1F1
331
1F1
  5
1F2
331
1F2
  5
1F3
331
1F3
  5
1F4
331
1F4
  5
1F5
331
1F5
  5
1F6
331
1F6
  5
1F7
331
1F7
  5
1F8
331
1F8
  5
1F9
331
1F9
  5
1FA
331
1FA
  5
1FB
331
1FB
  5
1FC
331
1FC
  5
1FD
331
1FD
  5
1FE
331
1FE
  5
1FF
331
1FF
  5
200
331
200
  5
201
331
201
  5
202
331
202
  5
203
331
203
  5
204
331
204
  5
205
331
205
  5
206
331
206
  5
207
331
207
  5
208
331
208
  5
209
331
209
  5
20A
331
20A
  5
20B
331
20B
  5
20C
331
20C
  5
20D
331
20D
  5
20E
331
20E
  5
20F
331
20F
  5
210
331
210
  5
211
331
211
  5
212
331
212
  5
213
331
213
  5
214
331
214
  5
215
331
215
  5
216
331
216
  5
217
331
217
  5
218
331
218
  5
219
331
21D
  5
21E
331
21E
  5
21F
331
220
  5
221
331
221
  5
222
331
222
  5
223
331
223
  5
224
331
224
  5
225
331
226
  5
227
331
22A
  5
22B
331
22B
  5
22C
331
22C
  5
22D
331
22D
  5
22E
331
22E
  5
230
331
232
  5
233
331
233
  5
234
331
235
  5
236
331
236
  5
237
331
237
  5
238
331
238
  5
239
331
239
  5
23A
331
23A
  5
23B
331
23B
  5
23C
331
23C
  5
23D
331
23D
  5
23E
331
23E
  5
23F
331
23F
  5
240
331
240
  5
241
331
241
  5
242
331
242
  5
243
331
243
  5
244
331
244
  5
245
331
245
  5
246
331
246
  5
247
331
247
  5
248
331
248
  5
249
331
249
  5
24A
331
24F
  5
250
331
250
  5
251
331
251
  5
252
331
252
  5
253
331
253
  5
254
331
254
  5
255
331
255
  5
256
331
260
  5
261
331
261
  5
262
331
262
  5
263
331
263
  5
264
331
264
  5
265
331
265
  5
266
331
266
  5
267
331
267
  5
268
331
268
  5
269
331
276
  5
277
331
277
  5
278
331
278
  5
279
331
279
  5
27A
331
27A
  5
27B
331
27B
  5
27C
331
27C
  5
27D
331
27D
  5
27E
331
27E
  5
27F
331
27F
  5
280
331
280
  5
281
331
281
  5
282
331
282
  5
283
331
283
  5
284
331
284
  5
285
331
285
  5
286
331
286
  5
287
331
287
  5
288
331
288
  5
289
331
289
  5
28A
331
28A
  5
28B
331
28B
  5
28C
331
28C
  5
28D
331
28D
  5
28E
331
28E
  5
28F
331
28F
  5
290
331
290
  5
291
331
291
  5
292
331
292
  5
293
331
293
  5
294
331
294
  5
295
331
295
  5
296
331
296
  5
297
331
297
  5
298
331
298
  5
299
331
299
  5
29A
331
29A
  5
29B
331
29B
  5
29C
331
29C
  5
29D
331
29D
  5
29E
331
29E
  5
29F
331
29F
  5
2A0
331
2A0
  5
2A1
331
2A1
  5
2A2
331
2A2
  5
2A3
331
2A3
  5
2A4
331
2A4
  5
2A5
331
2A5
  5
2A6
331
2A6
  5
2A7
331
2A7
  5
2A8
331
2A8
  5
2A9
331
2A9
  5
2AA
331
2AA
  5
2AB
331
2AB
  5
2AC
331
2AC
  5
2AD
331
2AD
  5
2AE
331
2AE
  5
2AF
331
2AF
  5
2B0
331
2B0
  5
2B1
331
2B1
  5
2B2
331
2B2
  5
2B3
331
2B3
  5
2B4
331
2B4
  5
2B5
331
2B5
  5
2B6
331
2B6
  5
2B7
331
2B7
  5
2B8
331
2B8
  5
2B9
331
2B9
  5
2BA
331
2BA
  5
2BB
331
2BB
  5
2BC
331
2BC
  5
2BD
331
2BD
  5
2BE
331
2BE
  5
2BF
331
2BF
  5
2C0
331
2C0
  5
2C1
331
2C1
  5
2C2
331
2C2
  5
2C3
331
2C3
  5
2C4
331
2C4
  5
2C5
331
2C5
  5
2C6
331
2C6
  5
2C7
331
2C7
  5
2C8
331
2C8
  5
2C9
331
2F1
  5
2F2
331
2F7
  5
2F8
331
2FF
  5
300
331
300
  5
301
331
301
  5
302
331
306
  5
307
331
307
  5
308
331
46A
  5
46B
331
46B
  5
46C
331
46C
  5
46D
331
46D
  5
46E
331
46E
  5
471
331
46F
  5
472
331
470
  5
473
331
471
  5
474
331
472
  5
478
331
473
  5
479
331
474
  5
47A
331
478
  5
47B
331
479
  5
47C
331
47A
  5
47D
331
47B
  5
47E
331
47C
  5
47F
331
47D
  5
480
331
47E
  5
481
331
47F
  5
482
331
480
  5
483
331
481
  5
484
331
482
  5
485
331
483
  5
486
331
484
  5
487
331
485
  5
488
331
486
  5
48A
331
487
  5
48B
331
488
  5
48C
331
4A2
  5
4A5
331
4A3
  5
4A6
331
4A4
  5
4A7
331
4A5
  5
4A8
331
4A6
  5
4A9
331
4A7
  5
4AA
331
4A8
  5
4AB
331
4A9
  5
4AC
331
4AA
  5
4AD
331
4AB
  5
4AE
331
4AC
  5
4AF
331
4AD
  5
4B0
331
4AE
  5
4B1
331
4AF
  5
4B2
331
4B0
  5
4B3
331
4B1
  5
4B4
331
4B2
  5
4B5
331
4B3
  5
4B6
331
4B4
  5
4B7
331
4B5
  5
4B8
331
4B6
  5
4B9
331
4B7
  5
4BA
331
4B8
  5
4BB
331
4B9
  5
4BC
331
4BA
  5
4BD
331
4BB
  5
4BE
331
4BC
  5
4BF
331
4BD
  5
4C0
331
4BE
  5
4C1
331
4BF
  5
4C2
331
4D9
  5
4DC
331
4DA
  5
4DD
331
4DB
  5
4DE
331
4DC
  5
4DF
331
4EE
  5
4EF
331
4EF
  5
4F1
331
4F0
  5
4F2
331
4F3
  5
4F5
331
4F4
  5
4F6
331
4F5
  5
4F7
331
4F6
  5
4EE
331
4F7
  5
4F0
  0
LAYOUT
  5
1B
102
{ACAD_REACTORS
330
1C
102
}
330
1C
100
AcDbPlotSettings
  1

  2
Bullzip PDF Printer.pc3
  4
A3
  6

 40
0.2
 41
0.0
 42
0.0
 43
0.0
 44
420.2
 45
297.1
 46
25.0
 47
12.0
 48
44.99999992999994
 49
10.0
140
617.9999986175001
141
418.74999904625
142
1.0
143
1.5
 70
 11936
 72
     1
 73
     0
 74
     4
  7
monochrome.ctb
 75
     0
147
0.666666666666667
148
-44.99999992999994
149
-10.0
100
AcDbLayout
  1
Model
 70
     0
 71
     0
 10
0.0
 20
0.0
 11
12.0
 21
9.0
 12
0.0
 22
0.0
 32
0.0
 14
83.14592233373861
 24
16.2863494660628
 34
0.0
 15
588.7755571128039
 25
506.0585532683423
 35
0.0
146
0.0
 13
0.0
 23
0.0
 33
0.0
 16
1.0
 26
0.0
 36
0.0
 17
0.0
 27
1.0
 37
0.0
 76
     0
330
15
331
2B
1001
ACAD_PSEXT
1000
Bullzip PDF Printer.pc3
1000
Bullzip PDF Printer
1000
BULLZIP
1000
Bullzip PDF Printer 10.1.0.1871
1070
     0
  0
LAYOUT
  5
22
102
{ACAD_REACTORS
330
1C
102
}
330
1C
100
AcDbPlotSettings
  1

  2
C:\Program Files\ACAD LT 2000\plotters\Draftpro-DXL (7575A).pc3
  4

  6

 40
0.0
 41
0.0
 42
0.0
 43
0.0
 44
0.0
 45
0.0
 46
0.0
 47
0.0
 48
0.0
 49
0.0
140
0.0
141
0.0
142
1.0
143
1.0
 70
   688
 72
     0
 73
     0
 74
     5
  7
monochrome.ctb
 75
    16
147
1.0
148
0.0
149
0.0
100
AcDbLayout
  1
ﾚｲｱｳﾄ1
 70
     0
 71
     1
 10
0.0
 20
0.0
 11
12.0
 21
9.0
 12
0.0
 22
0.0
 32
0.0
 14
1.000000000000000E+20
 24
1.000000000000000E+20
 34
1.000000000000000E+20
 15
-1.000000000000000E+20
 25
-1.000000000000000E+20
 35
-1.000000000000000E+20
146
0.0
 13
0.0
 23
0.0
 33
0.0
 16
1.0
 26
0.0
 36
0.0
 17
0.0
 27
1.0
 37
0.0
 76
     0
330
1F
  0
MATERIAL
  5
70
102
{ACAD_REACTORS
330
7
102
}
102
{ACAD_XDICTIONARY
360
509
102
}
330
7
100
AcDbMaterial
  1
ByBlock
  0
MATERIAL
  5
E
102
{ACAD_REACTORS
330
7
102
}
102
{ACAD_XDICTIONARY
360
505
102
}
330
7
100
AcDbMaterial
  1
ByLayer
  0
MATERIAL
  5
6
102
{ACAD_REACTORS
330
7
102
}
102
{ACAD_XDICTIONARY
360
507
102
}
330
7
100
AcDbMaterial
  1
Global
  0
MLEADERSTYLE
  5
465
102
{ACAD_REACTORS
330
44A
102
}
102
{ACAD_XDICTIONARY
360
53B
102
}
330
44A
100
AcDbMLeaderStyle
170
     2
171
     1
172
     0
 90
        2
 40
0.0
 41
0.0
173
     1
 91
-1056964608
340
B
 92
       -2
290
     1
 42
0.09
291
     1
 43
0.36
  3
Standard
341
0
 44
0.18
300

342
C
174
     1
178
     6
175
     1
176
     0
 93
-1056964608
 45
0.18
292
     0
297
     0
 46
0.18
343
0
 94
-1056964608
 47
1.0
 49
1.0
140
1.0
293
     1
141
0.0
294
     1
177
     0
142
1.0
295
     0
296
     0
143
0.125
1001
ACAD_MLEADERVER
1070
     2
  0
MLINESTYLE
  5
12
102
{ACAD_REACTORS
330
13
102
}
330
13
100
AcDbMlineStyle
  2
STANDARD
 70
     0
  3

 62
     0
 51
90.0
 52
90.0
 71
     2
 49
0.5
 62
   256
  6
BYLAYER
 49
-0.5
 62
   256
  6
BYLAYER
  0
ACDBPLACEHOLDER
  5
3
102
{ACAD_REACTORS
330
4
102
}
330
4
  0
SCALE
  5
4F
102
{ACAD_REACTORS
330
2D
102
}
330
2D
100
AcDbScale
 70
     0
300
1:1
140
1.0
141
1.0
290
     1
  0
SCALE
  5
58
102
{ACAD_REACTORS
330
2D
102
}
330
2D
100
AcDbScale
 70
     0
300
1:40
140
1.0
141
40.0
290
     0
  0
SCALE
  5
59
102
{ACAD_REACTORS
330
2D
102
}
330
2D
100
AcDbScale
 70
     0
300
1:50
140
1.0
141
50.0
290
     0
  0
SCALE
  5
5A
102
{ACAD_REACTORS
330
2D
102
}
330
2D
100
AcDbScale
 70
     0
300
1:100
140
1.0
141
100.0
290
     0
  0
SCALE
  5
5B
102
{ACAD_REACTORS
330
2D
102
}
330
2D
100
AcDbScale
 70
     0
300
2:1
140
2.0
141
1.0
290
     0
  0
SCALE
  5
5C
102
{ACAD_REACTORS
330
2D
102
}
330
2D
100
AcDbScale
 70
     0
300
4:1
140
4.0
141
1.0
290
     0
  0
SCALE
  5
5D
102
{ACAD_REACTORS
330
2D
102
}
330
2D
100
AcDbScale
 70
     0
300
8:1
140
8.0
141
1.0
290
     0
  0
SCALE
  5
5E
102
{ACAD_REACTORS
330
2D
102
}
330
2D
100
AcDbScale
 70
     0
300
10:1
140
10.0
141
1.0
290
     0
  0
SCALE
  5
5F
102
{ACAD_REACTORS
330
2D
102
}
330
2D
100
AcDbScale
 70
     0
300
100:1
140
100.0
141
1.0
290
     0
  0
SCALE
  5
60
102
{ACAD_REACTORS
330
2D
102
}
330
2D
100
AcDbScale
 70
     0
300
1/128" = 1'-0"
140
0.0078125
141
12.0
290
     0
  0
SCALE
  5
61
102
{ACAD_REACTORS
330
2D
102
}
330
2D
100
AcDbScale
 70
     0
300
1/64" = 1'-0"
140
0.015625
141
12.0
290
     0
  0
SCALE
  5
50
102
{ACAD_REACTORS
330
2D
102
}
330
2D
100
AcDbScale
 70
     0
300
1:2
140
1.0
141
2.0
290
     0
  0
SCALE
  5
62
102
{ACAD_REACTORS
330
2D
102
}
330
2D
100
AcDbScale
 70
     0
300
1/32" = 1'-0"
140
0.03125
141
12.0
290
     0
  0
SCALE
  5
63
102
{ACAD_REACTORS
330
2D
102
}
330
2D
100
AcDbScale
 70
     0
300
1/16" = 1'-0"
140
0.0625
141
12.0
290
     0
  0
SCALE
  5
64
102
{ACAD_REACTORS
330
2D
102
}
330
2D
100
AcDbScale
 70
     0
300
3/32" = 1'-0"
140
0.09375
141
12.0
290
     0
  0
SCALE
  5
65
102
{ACAD_REACTORS
330
2D
102
}
330
2D
100
AcDbScale
 70
     0
300
1/8" = 1'-0"
140
0.125
141
12.0
290
     0
  0
SCALE
  5
66
102
{ACAD_REACTORS
330
2D
102
}
330
2D
100
AcDbScale
 70
     0
300
3/16" = 1'-0"
140
0.1875
141
12.0
290
     0
  0
SCALE
  5
67
102
{ACAD_REACTORS
330
2D
102
}
330
2D
100
AcDbScale
 70
     0
300
1/4" = 1'-0"
140
0.25
141
12.0
290
     0
  0
SCALE
  5
68
102
{ACAD_REACTORS
330
2D
102
}
330
2D
100
AcDbScale
 70
     0
300
3/8" = 1'-0"
140
0.375
141
12.0
290
     0
  0
SCALE
  5
69
102
{ACAD_REACTORS
330
2D
102
}
330
2D
100
AcDbScale
 70
     0
300
1/2" = 1'-0"
140
0.5
141
12.0
290
     0
  0
SCALE
  5
6A
102
{ACAD_REACTORS
330
2D
102
}
330
2D
100
AcDbScale
 70
     0
300
3/4" = 1'-0"
140
0.75
141
12.0
290
     0
  0
SCALE
  5
6B
102
{ACAD_REACTORS
330
2D
102
}
330
2D
100
AcDbScale
 70
     0
300
1" = 1'-0"
140
1.0
141
12.0
290
     0
  0
SCALE
  5
51
102
{ACAD_REACTORS
330
2D
102
}
330
2D
100
AcDbScale
 70
     0
300
1:4
140
1.0
141
4.0
290
     0
  0
SCALE
  5
6C
102
{ACAD_REACTORS
330
2D
102
}
330
2D
100
AcDbScale
 70
     0
300
1-1/2" = 1'-0"
140
1.5
141
12.0
290
     0
  0
SCALE
  5
6D
102
{ACAD_REACTORS
330
2D
102
}
330
2D
100
AcDbScale
 70
     0
300
3" = 1'-0"
140
3.0
141
12.0
290
     0
  0
SCALE
  5
6E
102
{ACAD_REACTORS
330
2D
102
}
330
2D
100
AcDbScale
 70
     0
300
6" = 1'-0"
140
6.0
141
12.0
290
     0
  0
SCALE
  5
6F
102
{ACAD_REACTORS
330
2D
102
}
330
2D
100
AcDbScale
 70
     0
300
1'-0" = 1'-0"
140
12.0
141
12.0
290
     0
  0
SCALE
  5
52
102
{ACAD_REACTORS
330
2D
102
}
330
2D
100
AcDbScale
 70
     0
300
1:5
140
1.0
141
5.0
290
     0
  0
SCALE
  5
53
102
{ACAD_REACTORS
330
2D
102
}
330
2D
100
AcDbScale
 70
     0
300
1:8
140
1.0
141
8.0
290
     0
  0
SCALE
  5
54
102
{ACAD_REACTORS
330
2D
102
}
330
2D
100
AcDbScale
 70
     0
300
1:10
140
1.0
141
10.0
290
     0
  0
SCALE
  5
55
102
{ACAD_REACTORS
330
2D
102
}
330
2D
100
AcDbScale
 70
     0
300
1:16
140
1.0
141
16.0
290
     0
  0
SCALE
  5
56
102
{ACAD_REACTORS
330
2D
102
}
330
2D
100
AcDbScale
 70
     0
300
1:20
140
1.0
141
20.0
290
     0
  0
SCALE
  5
57
102
{ACAD_REACTORS
330
2D
102
}
330
2D
100
AcDbScale
 70
     0
300
1:30
140
1.0
141
30.0
290
     0
  0
TABLESTYLE
  5
4FA
102
{ACAD_REACTORS
330
449
102
}
330
449
100
AcDbTableStyle
  3
Standard
 70
     0
 71
     0
 40
0.06
 41
0.06
280
     0
281
     0
  7
STANDARD
140
0.18
170
     2
 62
     0
 63
   257
283
     0
274
    -2
284
     1
 64
     0
275
    -2
285
     1
 65
     0
276
    -2
286
     1
 66
     0
277
    -2
287
     1
 67
     0
278
    -2
288
     1
 68
     0
279
    -2
289
     1
 69
     0
  7
STANDARD
140
0.25
170
     5
 62
     0
 63
   257
283
     0
274
    -2
284
     1
 64
     0
275
    -2
285
     1
 65
     0
276
    -2
286
     1
 66
     0
277
    -2
287
     1
 67
     0
278
    -2
288
     1
 68
     0
279
    -2
289
     1
 69
     0
  7
STANDARD
140
0.18
170
     5
 62
     0
 63
   257
283
     0
274
    -2
284
     1
 64
     0
275
    -2
285
     1
 65
     0
276
    -2
286
     1
 66
     0
277
    -2
287
     1
 67
     0
278
    -2
288
     1
 68
     0
279
    -2
289
     1
 69
     0
  0
VISUALSTYLE
  5
451
102
{ACAD_REACTORS
330
29
102
}
102
{ACAD_XDICTIONARY
360
513
102
}
330
29
100
AcDbVisualStyle
  2
2dWireframe
 70
     4
 71
     0
 72
     2
 73
     0
 90
        0
 40
0.6
 41
30.0
 62
     5
 63
     7
 74
     1
 91
        4
 64
     7
 65
   257
 75
     1
175
     1
 42
1.0
 92
        0
 66
   257
 43
1.0
 76
     1
 77
     6
 78
     2
 67
     7
 79
     5
170
     0
171
     0
290
     0
174
     0
 93
        1
 44
0.0
173
     0
291
     0
 45
0.0
1001
ACAD
1000
AcDbSavedByObjectVersion
1070
     0
  0
VISUALSTYLE
  5
454
102
{ACAD_REACTORS
330
29
102
}
102
{ACAD_XDICTIONARY
360
519
102
}
330
29
100
AcDbVisualStyle
  2
Basic
 70
     7
 71
     1
 72
     0
 73
     1
 90
        0
 40
0.6
 41
30.0
 62
     5
 63
     7
 74
     0
 91
        4
 64
     7
 65
   257
 75
     1
175
     1
 42
1.0
 92
        8
 66
     7
 43
1.0
 76
     1
 77
     6
 78
     2
 67
     7
 79
     5
170
     0
171
     0
290
     0
174
     0
 93
        1
 44
0.0
173
     0
291
     1
 45
0.0
1001
ACAD
1000
AcDbSavedByObjectVersion
1070
     0
  0
VISUALSTYLE
  5
458
102
{ACAD_REACTORS
330
29
102
}
102
{ACAD_XDICTIONARY
360
521
102
}
330
29
100
AcDbVisualStyle
  2
Brighten
 70
    12
 71
     2
 72
     2
 73
     0
 90
        0
 40
0.6
 41
30.0
 62
     5
 63
     7
 74
     1
 91
        4
 64
     7
 65
   257
 75
     1
175
     1
 42
1.0
 92
        8
 66
     7
 43
1.0
 76
     1
 77
     6
 78
     2
 67
     7
 79
     5
170
     0
171
     0
290
     0
174
     0
 93
        1
 44
50.0
173
     0
291
     1
 45
0.0
1001
ACAD
1000
AcDbSavedByObjectVersion
1070
     0
  0
VISUALSTYLE
  5
45C
102
{ACAD_REACTORS
330
29
102
}
102
{ACAD_XDICTIONARY
360
529
102
}
330
29
100
AcDbVisualStyle
  2
ColorChange
 70
    16
 71
     2
 72
     2
 73
     3
 90
        0
 40
0.6
 41
30.0
 62
     5
 63
     8
 74
     1
 91
        4
 64
     7
 65
   257
 75
     1
175
     1
 42
1.0
 92
        8
 66
     8
 43
1.0
 76
     1
 77
     6
 78
     2
 67
     7
 79
     5
170
     0
171
     0
290
     0
174
     0
 93
        1
 44
0.0
173
     0
291
     1
 45
0.0
1001
ACAD
1000
AcDbSavedByObjectVersion
1070
     0
  0
VISUALSTYLE
  5
456
102
{ACAD_REACTORS
330
29
102
}
102
{ACAD_XDICTIONARY
360
51D
102
}
330
29
100
AcDbVisualStyle
  2
Conceptual
 70
     9
 71
     3
 72
     2
 73
     0
 90
        0
 40
0.6
 41
30.0
 62
     5
 63
     7
 74
     2
 91
        2
 64
     7
 65
   257
 75
     1
175
     1
 42
40.0
 92
        8
 66
     7
 43
1.0
 76
     1
 77
     6
 78
     2
 67
     7
 79
     3
170
     0
171
     0
290
     0
174
     0
 93
        1
 44
0.0
173
     0
291
     0
 45
0.0
1001
ACAD
1000
AcDbSavedByObjectVersion
1070
     0
  0
VISUALSTYLE
  5
457
102
{ACAD_REACTORS
330
29
102
}
102
{ACAD_XDICTIONARY
360
51F
102
}
330
29
100
AcDbVisualStyle
  2
Dim
 70
    11
 71
     2
 72
     2
 73
     0
 90
        0
 40
0.6
 41
30.0
 62
     5
 63
     7
 74
     1
 91
        4
 64
     7
 65
   257
 75
     1
175
     1
 42
1.0
 92
        8
 66
     7
 43
1.0
 76
     1
 77
     6
 78
     2
 67
     7
 79
     5
170
     0
171
     0
290
     0
174
     0
 93
        1
 44
-50.0
173
     0
291
     1
 45
0.0
1001
ACAD
1000
AcDbSavedByObjectVersion
1070
     0
  0
VISUALSTYLE
  5
45F
102
{ACAD_REACTORS
330
29
102
}
102
{ACAD_XDICTIONARY
360
52F
102
}
330
29
100
AcDbVisualStyle
  2
EdgeColorOff
 70
    22
 71
     2
 72
     2
 73
     0
 90
        0
 40
0.6
 41
30.0
 62
     5
 63
     7
 74
     1
 91
        4
 64
     7
 65
   257
 75
     1
175
     1
 42
1.0
 92
        8
 66
     7
 43
1.0
 76
     1
 77
     6
 78
     2
 67
     7
 79
     5
170
     0
171
     0
290
     0
174
     0
 93
        1
 44
0.0
173
     0
291
     1
 45
0.0
1001
ACAD
1000
AcDbSavedByObjectVersion
1070
     0
  0
VISUALSTYLE
  5
45B
102
{ACAD_REACTORS
330
29
102
}
102
{ACAD_XDICTIONARY
360
527
102
}
330
29
100
AcDbVisualStyle
  2
Facepattern
 70
    15
 71
     2
 72
     2
 73
     0
 90
        0
 40
0.6
 41
30.0
 62
     5
 63
     7
 74
     1
 91
        4
 64
     7
 65
   257
 75
     1
175
     1
 42
1.0
 92
        8
 66
     7
 43
1.0
 76
     1
 77
     6
 78
     2
 67
     7
 79
     5
170
     0
171
     0
290
     0
174
     0
 93
        1
 44
0.0
173
     0
291
     1
 45
0.0
1001
ACAD
1000
AcDbSavedByObjectVersion
1070
     0
  0
VISUALSTYLE
  5
44D
102
{ACAD_REACTORS
330
29
102
}
102
{ACAD_XDICTIONARY
360
50B
102
}
330
29
100
AcDbVisualStyle
  2
Flat
 70
     0
 71
     2
 72
     1
 73
     1
 90
        2
 40
0.6
 41
30.0
 62
     5
 63
     7
 74
     0
 91
        4
 64
     7
 65
   257
 75
     1
175
     1
 42
1.0
 92
        8
 66
     7
 43
1.0
 76
     1
 77
     6
 78
     2
 67
     7
 79
     5
170
     0
171
     0
290
     0
174
     0
 93
       13
 44
0.0
173
     0
291
     1
 45
0.0
1001
ACAD
1000
AcDbSavedByObjectVersion
1070
     0
  0
VISUALSTYLE
  5
44E
102
{ACAD_REACTORS
330
29
102
}
102
{ACAD_XDICTIONARY
360
50D
102
}
330
29
100
AcDbVisualStyle
  2
FlatWithEdges
 70
     1
 71
     2
 72
     1
 73
     1
 90
        2
 40
0.6
 41
30.0
 62
     5
 63
     7
 74
     1
 91
        4
 64
     7
 65
   257
 75
     1
175
     1
 42
1.0
 92
        0
 66
   257
 43
1.0
 76
     1
 77
     6
 78
     2
 67
     7
 79
     5
170
     0
171
     0
290
     0
174
     0
 93
       13
 44
0.0
173
     0
291
     1
 45
0.0
1001
ACAD
1000
AcDbSavedByObjectVersion
1070
     0
  0
VISUALSTYLE
  5
44F
102
{ACAD_REACTORS
330
29
102
}
102
{ACAD_XDICTIONARY
360
50F
102
}
330
29
100
AcDbVisualStyle
  2
Gouraud
 70
     2
 71
     2
 72
     2
 73
     1
 90
        2
 40
0.6
 41
30.0
 62
     5
 63
     7
 74
     0
 91
        4
 64
     7
 65
   257
 75
     1
175
     1
 42
1.0
 92
        0
 66
     7
 43
1.0
 76
     1
 77
     6
 78
     2
 67
     7
 79
     5
170
     0
171
     0
290
     0
174
     0
 93
       13
 44
0.0
173
     0
291
     1
 45
0.0
1001
ACAD
1000
AcDbSavedByObjectVersion
1070
     0
  0
VISUALSTYLE
  5
450
102
{ACAD_REACTORS
330
29
102
}
102
{ACAD_XDICTIONARY
360
511
102
}
330
29
100
AcDbVisualStyle
  2
GouraudWithEdges
 70
     3
 71
     2
 72
     2
 73
     1
 90
        2
 40
0.6
 41
30.0
 62
     5
 63
     7
 74
     1
 91
        4
 64
     7
 65
   257
 75
     1
175
     1
 42
1.0
 92
        0
 66
   257
 43
1.0
 76
     1
 77
     6
 78
     2
 67
     7
 79
     5
170
     0
171
     0
290
     0
174
     0
 93
       13
 44
0.0
173
     0
291
     1
 45
0.0
1001
ACAD
1000
AcDbSavedByObjectVersion
1070
     0
  0
VISUALSTYLE
  5
453
102
{ACAD_REACTORS
330
29
102
}
102
{ACAD_XDICTIONARY
360
517
102
}
330
29
100
AcDbVisualStyle
  2
Hidden
 70
     6
 71
     1
 72
     2
 73
     2
 90
        0
 40
0.6
 41
30.0
 62
     5
 63
     7
 74
     2
 91
        2
 64
     7
 65
   257
 75
     2
175
     1
 42
40.0
 92
        0
 66
   257
 43
1.0
 76
     1
 77
     6
 78
     2
 67
     7
 79
     3
170
     0
171
     0
290
     0
174
     0
 93
        1
 44
0.0
173
     0
291
     0
 45
0.0
1001
ACAD
1000
AcDbSavedByObjectVersion
1070
     0
  0
VISUALSTYLE
  5
45D
102
{ACAD_REACTORS
330
29
102
}
102
{ACAD_XDICTIONARY
360
52B
102
}
330
29
100
AcDbVisualStyle
  2
JitterOff
 70
    20
 71
     2
 72
     2
 73
     0
 90
        0
 40
0.6
 41
30.0
 62
     5
 63
     7
 74
     1
 91
        4
 64
     7
 65
   257
 75
     1
175
     1
 42
1.0
 92
       10
 66
     7
 43
1.0
 76
     1
 77
     6
 78
     2
 67
     7
 79
     5
170
     0
171
     0
290
     0
174
     0
 93
        1
 44
0.0
173
     0
291
     1
 45
0.0
1001
ACAD
1000
AcDbSavedByObjectVersion
1070
     0
  0
VISUALSTYLE
  5
45A
102
{ACAD_REACTORS
330
29
102
}
102
{ACAD_XDICTIONARY
360
525
102
}
330
29
100
AcDbVisualStyle
  2
Linepattern
 70
    14
 71
     2
 72
     2
 73
     0
 90
        0
 40
0.6
 41
30.0
 62
     5
 63
     7
 74
     1
 91
        4
 64
     7
 65
   257
 75
     7
175
     7
 42
1.0
 92
        8
 66
     7
 43
1.0
 76
     1
 77
     6
 78
     2
 67
     7
 79
     5
170
     0
171
     0
290
     0
174
     0
 93
        1
 44
0.0
173
     0
291
     1
 45
0.0
1001
ACAD
1000
AcDbSavedByObjectVersion
1070
     0
  0
VISUALSTYLE
  5
45E
102
{ACAD_REACTORS
330
29
102
}
102
{ACAD_XDICTIONARY
360
52D
102
}
330
29
100
AcDbVisualStyle
  2
OverhangOff
 70
    21
 71
     2
 72
     2
 73
     0
 90
        0
 40
0.6
 41
30.0
 62
     5
 63
     7
 74
     1
 91
        4
 64
     7
 65
   257
 75
     1
175
     1
 42
1.0
 92
        9
 66
     7
 43
1.0
 76
     1
 77
     6
 78
     2
 67
     7
 79
     5
170
     0
171
     0
290
     0
174
     0
 93
        1
 44
0.0
173
     0
291
     1
 45
0.0
1001
ACAD
1000
AcDbSavedByObjectVersion
1070
     0
  0
VISUALSTYLE
  5
455
102
{ACAD_REACTORS
330
29
102
}
102
{ACAD_XDICTIONARY
360
51B
102
}
330
29
100
AcDbVisualStyle
  2
Realistic
 70
     8
 71
     2
 72
     3
 73
     0
 90
        2
 40
0.6
 41
30.0
 62
     5
 63
     7
 74
     0
 91
        0
 64
     7
 65
   257
 75
     1
175
     1
 42
1.0
 92
        8
 66
   257
 43
1.0
 76
     1
 77
     6
 78
     2
 67
     7
 79
     3
170
     0
171
     0
290
     0
174
     0
 93
       13
 44
0.0
173
     0
291
     0
 45
0.0
1001
ACAD
1000
AcDbSavedByObjectVersion
1070
     0
  0
VISUALSTYLE
  5
464
102
{ACAD_REACTORS
330
29
102
}
102
{ACAD_XDICTIONARY
360
539
102
}
330
29
100
AcDbVisualStyle
  2
Shaded
 70
    27
 71
     2
 72
     2
 73
     1
 90
        2
 40
0.6
 41
30.0
 62
     5
 63
     7
 74
     0
 91
        4
 64
     7
 65
   257
 75
     1
175
     1
 42
1.0
 92
        8
 66
   257
 43
1.0
 76
     1
 77
     6
 78
     2
 67
   251
 79
     3
170
     0
171
     0
290
     0
174
     0
 93
        5
 44
0.0
173
     0
291
     0
 45
0.0
1001
ACAD
1000
AcDbSavedByObjectVersion
1070
     0
  0
VISUALSTYLE
  5
463
102
{ACAD_REACTORS
330
29
102
}
102
{ACAD_XDICTIONARY
360
537
102
}
330
29
100
AcDbVisualStyle
  2
Shaded with edges
 70
    26
 71
     2
 72
     2
 73
     1
 90
        2
 40
0.6
 41
30.0
 62
     5
 63
     7
 74
     1
 91
       10
 64
     7
 65
   257
 75
     2
175
     1
 42
1.0
 92
        8
 66
   257
 43
1.0
 76
     1
 77
     6
 78
     2
 67
     7
 79
     3
170
     0
171
     0
290
     0
174
     0
 93
        5
 44
0.0
173
     0
291
     0
 45
0.0
1001
ACAD
1000
AcDbSavedByObjectVersion
1070
     0
  0
VISUALSTYLE
  5
460
102
{ACAD_REACTORS
330
29
102
}
102
{ACAD_XDICTIONARY
360
531
102
}
330
29
100
AcDbVisualStyle
  2
Shades of Gray
 70
    23
 71
     2
 72
     2
 73
     3
 90
        0
 40
0.6
 41
30.0
 62
     5
 63
     7
 74
     2
 91
        2
 64
     7
 65
     7
 75
     1
175
     1
 42
40.0
 92
        8
 66
     7
 43
1.0
 76
     1
 77
     6
 78
     2
 67
     7
 79
     3
170
     0
171
     0
290
     0
174
     0
 93
        1
 44
0.0
173
     0
291
     0
 45
0.0
1001
ACAD
1000
AcDbSavedByObjectVersion
1070
     0
  0
VISUALSTYLE
  5
461
102
{ACAD_REACTORS
330
29
102
}
102
{ACAD_XDICTIONARY
360
533
102
}
330
29
100
AcDbVisualStyle
  2
Sketchy
 70
    24
 71
     1
 72
     2
 73
     2
 90
        0
 40
0.6
 41
30.0
 62
     5
 63
     7
 74
     2
 91
        2
 64
     7
 65
     7
 75
     1
175
     1
 42
40.0
 92
       11
 66
     7
 43
1.0
 76
     1
 77
     6
 78
     2
 67
     7
 79
     6
170
     0
171
     0
290
     0
174
     0
 93
        1
 44
0.0
173
     0
291
     0
 45
0.0
1001
ACAD
1000
AcDbSavedByObjectVersion
1070
     0
  0
VISUALSTYLE
  5
459
102
{ACAD_REACTORS
330
29
102
}
102
{ACAD_XDICTIONARY
360
523
102
}
330
29
100
AcDbVisualStyle
  2
Thicken
 70
    13
 71
     2
 72
     2
 73
     0
 90
        0
 40
0.6
 41
30.0
 62
     5
 63
     7
 74
     1
 91
        4
 64
     7
 65
   257
 75
     1
175
     1
 42
1.0
 92
       12
 66
     7
 43
1.0
 76
     1
 77
     6
 78
     2
 67
     7
 79
     5
170
     0
171
     0
290
     0
174
     0
 93
        1
 44
0.0
173
     0
291
     1
 45
0.0
1001
ACAD
1000
AcDbSavedByObjectVersion
1070
     0
  0
VISUALSTYLE
  5
452
102
{ACAD_REACTORS
330
29
102
}
102
{ACAD_XDICTIONARY
360
515
102
}
330
29
100
AcDbVisualStyle
  2
Wireframe
 70
     5
 71
     0
 72
     2
 73
     0
 90
        0
 40
0.6
 41
30.0
 62
     5
 63
     7
 74
     1
 91
        4
 64
     7
 65
   257
 75
     1
175
     1
 42
1.0
 92
        0
 66
   257
 43
1.0
 76
     1
 77
     6
 78
     2
 67
     7
 79
     5
170
     0
171
     0
290
     0
174
     0
 93
        1
 44
0.0
173
     0
291
     0
 45
0.0
1001
ACAD
1000
AcDbSavedByObjectVersion
1070
     0
  0
VISUALSTYLE
  5
462
102
{ACAD_REACTORS
330
29
102
}
102
{ACAD_XDICTIONARY
360
535
102
}
330
29
100
AcDbVisualStyle
  2
X-Ray
 70
    25
 71
     2
 72
     2
 73
     1
 90
        1
 40
0.5
 41
30.0
 62
     5
 63
     7
 74
     1
 91
        0
 64
     7
 65
   257
 75
     1
175
     1
 42
1.0
 92
        8
 66
     7
 43
1.0
 76
     1
 77
     6
 78
     2
 67
     7
 79
     3
170
     0
171
     0
290
     0
174
     0
 93
       13
 44
0.0
173
     0
291
     0
 45
0.0
1001
ACAD
1000
AcDbSavedByObjectVersion
1070
     0
  0
XRECORD
  5
4FF
102
{ACAD_REACTORS
330
4FE
102
}
330
4FE
100
AcDbXrecord
280
     1
340
28
  0
XRECORD
  5
500
102
{ACAD_REACTORS
330
4FE
102
}
330
4FE
100
AcDbXrecord
280
     1
340
7
  0
DICTIONARYVAR
  5
448
102
{ACAD_REACTORS
330
447
102
}
330
447
100
DictionaryVariables
280
     0
  1
1:1
  0
DICTIONARYVAR
  5
467
102
{ACAD_REACTORS
330
447
102
}
330
447
100
DictionaryVariables
280
     0
  1
Standard
  0
DICTIONARYVAR
  5
4FB
102
{ACAD_REACTORS
330
447
102
}
330
447
100
DictionaryVariables
280
     0
  1
Standard
  0
DICTIONARYVAR
  5
4FC
102
{ACAD_REACTORS
330
447
102
}
330
447
100
DictionaryVariables
280
     0
  1
0
  0
DICTIONARYVAR
  5
4FD
102
{ACAD_REACTORS
330
447
102
}
330
447
100
DictionaryVariables
280
     0
  1
1
  0
DICTIONARYVAR
  5
504
102
{ACAD_REACTORS
330
447
102
}
330
447
100
DictionaryVariables
280
     0
  1
1
  0
DICTIONARY
  5
509
330
70
100
AcDbDictionary
280
     1
281
     1
  3
ACAD_XREC_ROUNDTRIP
360
50A
  0
DICTIONARY
  5
505
330
E
100
AcDbDictionary
280
     1
281
     1
  3
ACAD_XREC_ROUNDTRIP
360
506
  0
DICTIONARY
  5
507
330
6
100
AcDbDictionary
280
     1
281
     1
  3
ACAD_XREC_ROUNDTRIP
360
508
  0
DICTIONARY
  5
53B
330
465
100
AcDbDictionary
280
     1
281
     1
  3
ACAD_XREC_ROUNDTRIP
360
53C
  0
DICTIONARY
  5
513
330
451
100
AcDbDictionary
280
     1
281
     1
  3
ACAD_XREC_ROUNDTRIP
360
514
  0
DICTIONARY
  5
519
330
454
100
AcDbDictionary
280
     1
281
     1
  3
ACAD_XREC_ROUNDTRIP
360
51A
  0
DICTIONARY
  5
521
330
458
100
AcDbDictionary
280
     1
281
     1
  3
ACAD_XREC_ROUNDTRIP
360
522
  0
DICTIONARY
  5
529
330
45C
100
AcDbDictionary
280
     1
281
     1
  3
ACAD_XREC_ROUNDTRIP
360
52A
  0
DICTIONARY
  5
51D
330
456
100
AcDbDictionary
280
     1
281
     1
  3
ACAD_XREC_ROUNDTRIP
360
51E
  0
DICTIONARY
  5
51F
330
457
100
AcDbDictionary
280
     1
281
     1
  3
ACAD_XREC_ROUNDTRIP
360
520
  0
DICTIONARY
  5
52F
330
45F
100
AcDbDictionary
280
     1
281
     1
  3
ACAD_XREC_ROUNDTRIP
360
530
  0
DICTIONARY
  5
527
330
45B
100
AcDbDictionary
280
     1
281
     1
  3
ACAD_XREC_ROUNDTRIP
360
528
  0
DICTIONARY
  5
50B
330
44D
100
AcDbDictionary
280
     1
281
     1
  3
ACAD_XREC_ROUNDTRIP
360
50C
  0
DICTIONARY
  5
50D
330
44E
100
AcDbDictionary
280
     1
281
     1
  3
ACAD_XREC_ROUNDTRIP
360
50E
  0
DICTIONARY
  5
50F
330
44F
100
AcDbDictionary
280
     1
281
     1
  3
ACAD_XREC_ROUNDTRIP
360
510
  0
DICTIONARY
  5
511
330
450
100
AcDbDictionary
280
     1
281
     1
  3
ACAD_XREC_ROUNDTRIP
360
512
  0
DICTIONARY
  5
517
330
453
100
AcDbDictionary
280
     1
281
     1
  3
ACAD_XREC_ROUNDTRIP
360
518
  0
DICTIONARY
  5
52B
330
45D
100
AcDbDictionary
280
     1
281
     1
  3
ACAD_XREC_ROUNDTRIP
360
52C
  0
DICTIONARY
  5
525
330
45A
100
AcDbDictionary
280
     1
281
     1
  3
ACAD_XREC_ROUNDTRIP
360
526
  0
DICTIONARY
  5
52D
330
45E
100
AcDbDictionary
280
     1
281
     1
  3
ACAD_XREC_ROUNDTRIP
360
52E
  0
DICTIONARY
  5
51B
330
455
100
AcDbDictionary
280
     1
281
     1
  3
ACAD_XREC_ROUNDTRIP
360
51C
  0
DICTIONARY
  5
539
330
464
100
AcDbDictionary
280
     1
281
     1
  3
ACAD_XREC_ROUNDTRIP
360
53A
  0
DICTIONARY
  5
537
330
463
100
AcDbDictionary
280
     1
281
     1
  3
ACAD_XREC_ROUNDTRIP
360
538
  0
DICTIONARY
  5
531
330
460
100
AcDbDictionary
280
     1
281
     1
  3
ACAD_XREC_ROUNDTRIP
360
532
  0
DICTIONARY
  5
533
330
461
100
AcDbDictionary
280
     1
281
     1
  3
ACAD_XREC_ROUNDTRIP
360
534
  0
DICTIONARY
  5
523
330
459
100
AcDbDictionary
280
     1
281
     1
  3
ACAD_XREC_ROUNDTRIP
360
524
  0
DICTIONARY
  5
515
330
452
100
AcDbDictionary
280
     1
281
     1
  3
ACAD_XREC_ROUNDTRIP
360
516
  0
DICTIONARY
  5
535
330
462
100
AcDbDictionary
280
     1
281
     1
  3
ACAD_XREC_ROUNDTRIP
360
536
  0
XRECORD
  5
50A
102
{ACAD_REACTORS
330
509
102
}
330
509
100
AcDbXrecord
280
     1
102
MATERIAL
148
0.0
149
0.0
149
0.0
 93
        0
 94
      127
282
     0
 72
     1
 77
     1
171
     1
175
     1
179
     1
273
     0
  0
XRECORD
  5
506
102
{ACAD_REACTORS
330
505
102
}
330
505
100
AcDbXrecord
280
     1
102
MATERIAL
148
0.0
149
0.0
149
0.0
 93
        0
 94
      127
282
     0
 72
     1
 77
     1
171
     1
175
     1
179
     1
273
     0
  0
XRECORD
  5
508
102
{ACAD_REACTORS
330
507
102
}
330
507
100
AcDbXrecord
280
     1
102
MATERIAL
148
0.0
149
0.0
149
0.0
 93
        0
 94
      127
282
     0
 72
     1
 77
     1
171
     1
175
     1
179
     1
273
     0
  0
XRECORD
  5
53C
102
{ACAD_REACTORS
330
53B
102
}
330
53B
100
AcDbXrecord
280
     1
102
ACAD_ROUNDTRIP_2010_MLEADER_STYLE
  0
XRECORD
  5
514
102
{ACAD_REACTORS
330
513
102
}
330
513
100
AcDbXrecord
280
     1
102
RTVSPropertyOp0
 70
     1
102
RTVSPropertyOp1
 70
     1
102
RTVSPropertyOp2
 70
     1
102
RTVSPropertyOp3
 70
     1
102
RTVSPropertyOp4
 70
     1
102
RTVSPropertyOp5
 70
     1
102
RTVSPropertyOp6
 70
     1
102
RTVSPropertyOp7
 70
     1
102
RTVSPropertyOp8
 70
     1
102
RTVSPropertyOp9
 70
     1
102
RTVSPropertyOp10
 70
     1
102
RTVSPropertyOp11
 70
     1
102
RTVSPropertyOp12
 70
     1
102
RTVSPropertyOp13
 70
     1
102
RTVSPropertyOp14
 70
     1
102
RTVSPropertyOp15
 70
     1
102
RTVSPropertyOp16
 70
     1
102
RTVSPropertyOp17
 70
     1
102
RTVSPropertyOp18
 70
     1
102
RTVSPropertyOp19
 70
     1
102
RTVSPropertyOp20
 70
     1
102
RTVSPropertyOp21
 70
     1
102
RTVSPropertyOp22
 70
     1
102
RTVSPropertyOp23
 70
     1
102
RTVSPropertyOp24
 70
     1
102
RTVSPropertyOp25
 70
     1
102
RTVSPropertyOp26
 70
     1
102
RTVSPropertyOp27
 70
     1
102
RTVSPropertyOp28
 70
     1
102
RTVSPropertyOp29
 70
     1
102
RTVSPropertyOp30
 70
     1
102
RTVSPropertyOp31
 70
     1
102
RTVSPropertyOp32
 70
     1
102
RTVSPropertyOp33
 70
     1
102
RTVSPropertyOp34
 70
     1
102
RTVSPropertyOp35
 70
     1
102
RTVSPropertyOp36
 70
     1
102
RTVSPropertyOp37
 70
     1
102
RTVSPropertyOp38
 70
     1
102
RTVSPropertyOp39
 70
     1
102
RTVSPropertyOp40
 70
     1
102
RTVSPropertyOp41
 70
     1
102
RTVSPropertyOp42
 70
     1
102
RTVSPropertyOp43
 70
     1
102
RTVSPropertyOp44
 70
     1
102
RTVSPropertyOp45
 70
     1
102
RTVSPropertyOp46
 70
     1
102
RTVSPropertyOp47
 70
     1
102
RTVSPropertyOp48
 70
     1
102
RTVSPropertyOp49
 70
     1
102
RTVSPropertyOp50
 70
     1
102
RTVSPropertyOp51
 70
     0
102
RTVSPropertyOp52
 70
     0
102
RTVSPropertyOp53
 70
     1
102
RTVSPropertyOp54
 70
     1
102
RTVSPropertyOp55
 70
     1
102
RTVSPropertyOp56
 70
     1
102
RTVSPropertyOp57
 70
     1
102
RTVSPost2010Prop28
280
     1
102
RTVSPost2010PropOp28
 70
     1
102
RTVSPost2010Prop29
280
     1
102
RTVSPost2010PropOp29
 70
     1
102
RTVSPost2010Prop30
280
     0
102
RTVSPost2010PropOp30
 70
     1
102
RTVSPost2010Prop31
280
     0
102
RTVSPost2010PropOp31
 70
     1
102
RTVSPost2010Prop32
280
     0
102
RTVSPost2010PropOp32
 70
     1
102
RTVSPost2010Prop33
280
     0
102
RTVSPost2010PropOp33
 70
     1
102
RTVSPost2010Prop34
280
     0
102
RTVSPost2010PropOp34
 70
     1
102
RTVSPost2010Prop35
280
     0
102
RTVSPost2010PropOp35
 70
     1
102
RTVSPost2010Prop36
280
     0
102
RTVSPost2010PropOp36
 70
     1
102
RTVSPost2010Prop37
 90
       50
102
RTVSPost2010PropOp37
 70
     1
102
RTVSPost2010Prop38
140
0.0
102
RTVSPost2010PropOp38
 70
     1
102
RTVSPost2010Prop39
140
1.0
102
RTVSPost2010PropOp39
 70
     1
102
RTVSPost2010Prop40
 90
        0
102
RTVSPost2010PropOp40
 70
     1
102
RTVSPost2010Prop41ColorIndex
 90
       18
102
RTVSPost2010Prop41ColorRGB
 90
        0
102
RTVSPost2010PropOp41
 70
     1
102
RTVSPost2010Prop42
 90
       50
102
RTVSPost2010PropOp42
 70
     1
102
RTVSPost2010Prop43
 90
        3
102
RTVSPost2010PropOp43
 70
     1
102
RTVSPost2010Prop44ColorIndex
 90
        5
102
RTVSPost2010Prop44ColorRGB
 90
      255
102
RTVSPost2010PropOp44
 70
     1
102
RTVSPost2010Prop45
280
     0
102
RTVSPost2010PropOp45
 70
     1
102
RTVSPost2010Prop46
 90
       50
102
RTVSPost2010PropOp46
 70
     1
102
RTVSPost2010Prop47
 90
       50
102
RTVSPost2010PropOp47
 70
     1
102
RTVSPost2010Prop48
 90
       50
102
RTVSPost2010PropOp48
 70
     1
102
RTVSPost2010Prop49
280
     0
102
RTVSPost2010PropOp49
 70
     1
102
RTVSPost2010Prop50
 90
       50
102
RTVSPost2010PropOp50
 70
     1
102
RTVSPost2010Prop51ColorIndex
 90
      256
102
RTVSPost2010Prop51ColorRGB
 90
-16777216
102
RTVSPost2010PropOp51
 70
     0
102
RTVSPost2010Prop52
140
1.0
102
RTVSPost2010PropOp52
 70
     0
102
RTVSPost2010Prop53
 90
        2
102
RTVSPost2010PropOp53
 70
     1
102
RTVSPost2010Prop54
  1
strokes_ogs.tif
102
RTVSPost2010PropOp54
 70
     1
102
RTVSPost2010Prop55
280
     0
102
RTVSPost2010PropOp55
 70
     1
102
RTVSPost2010Prop56
140
1.0
102
RTVSPost2010PropOp56
 70
     1
102
RTVSPost2010Prop57
140
1.0
102
RTVSPost2010PropOp57
 70
     1
  0
XRECORD
  5
51A
102
{ACAD_REACTORS
330
519
102
}
330
519
100
AcDbXrecord
280
     1
102
RTVSPropertyOp0
 70
     1
102
RTVSPropertyOp1
 70
     1
102
RTVSPropertyOp2
 70
     1
102
RTVSPropertyOp3
 70
     1
102
RTVSPropertyOp4
 70
     1
102
RTVSPropertyOp5
 70
     1
102
RTVSPropertyOp6
 70
     1
102
RTVSPropertyOp7
 70
     1
102
RTVSPropertyOp8
 70
     1
102
RTVSPropertyOp9
 70
     1
102
RTVSPropertyOp10
 70
     1
102
RTVSPropertyOp11
 70
     1
102
RTVSPropertyOp12
 70
     1
102
RTVSPropertyOp13
 70
     1
102
RTVSPropertyOp14
 70
     1
102
RTVSPropertyOp15
 70
     1
102
RTVSPropertyOp16
 70
     1
102
RTVSPropertyOp17
 70
     1
102
RTVSPropertyOp18
 70
     1
102
RTVSPropertyOp19
 70
     1
102
RTVSPropertyOp20
 70
     1
102
RTVSPropertyOp21
 70
     1
102
RTVSPropertyOp22
 70
     1
102
RTVSPropertyOp23
 70
     1
102
RTVSPropertyOp24
 70
     1
102
RTVSPropertyOp25
 70
     1
102
RTVSPropertyOp26
 70
     1
102
RTVSPropertyOp27
 70
     1
102
RTVSPropertyOp28
 70
     1
102
RTVSPropertyOp29
 70
     1
102
RTVSPropertyOp30
 70
     1
102
RTVSPropertyOp31
 70
     1
102
RTVSPropertyOp32
 70
     1
102
RTVSPropertyOp33
 70
     1
102
RTVSPropertyOp34
 70
     1
102
RTVSPropertyOp35
 70
     1
102
RTVSPropertyOp36
 70
     1
102
RTVSPropertyOp37
 70
     1
102
RTVSPropertyOp38
 70
     1
102
RTVSPropertyOp39
 70
     1
102
RTVSPropertyOp40
 70
     1
102
RTVSPropertyOp41
 70
     1
102
RTVSPropertyOp42
 70
     1
102
RTVSPropertyOp43
 70
     1
102
RTVSPropertyOp44
 70
     1
102
RTVSPropertyOp45
 70
     1
102
RTVSPropertyOp46
 70
     1
102
RTVSPropertyOp47
 70
     1
102
RTVSPropertyOp48
 70
     1
102
RTVSPropertyOp49
 70
     1
102
RTVSPropertyOp50
 70
     1
102
RTVSPropertyOp51
 70
     0
102
RTVSPropertyOp52
 70
     0
102
RTVSPropertyOp53
 70
     1
102
RTVSPropertyOp54
 70
     1
102
RTVSPropertyOp55
 70
     1
102
RTVSPropertyOp56
 70
     1
102
RTVSPropertyOp57
 70
     1
102
RTVSPost2010Prop28
280
     0
102
RTVSPost2010PropOp28
 70
     1
102
RTVSPost2010Prop29
280
     1
102
RTVSPost2010PropOp29
 70
     1
102
RTVSPost2010Prop30
280
     1
102
RTVSPost2010PropOp30
 70
     1
102
RTVSPost2010Prop31
280
     0
102
RTVSPost2010PropOp31
 70
     1
102
RTVSPost2010Prop32
280
     0
102
RTVSPost2010PropOp32
 70
     1
102
RTVSPost2010Prop33
280
     0
102
RTVSPost2010PropOp33
 70
     1
102
RTVSPost2010Prop34
280
     0
102
RTVSPost2010PropOp34
 70
     1
102
RTVSPost2010Prop35
280
     0
102
RTVSPost2010PropOp35
 70
     1
102
RTVSPost2010Prop36
280
     0
102
RTVSPost2010PropOp36
 70
     1
102
RTVSPost2010Prop37
 90
       50
102
RTVSPost2010PropOp37
 70
     1
102
RTVSPost2010Prop38
140
0.0
102
RTVSPost2010PropOp38
 70
     1
102
RTVSPost2010Prop39
140
1.0
102
RTVSPost2010PropOp39
 70
     1
102
RTVSPost2010Prop40
 90
        0
102
RTVSPost2010PropOp40
 70
     1
102
RTVSPost2010Prop41ColorIndex
 90
       18
102
RTVSPost2010Prop41ColorRGB
 90
        0
102
RTVSPost2010PropOp41
 70
     1
102
RTVSPost2010Prop42
 90
       50
102
RTVSPost2010PropOp42
 70
     1
102
RTVSPost2010Prop43
 90
        3
102
RTVSPost2010PropOp43
 70
     1
102
RTVSPost2010Prop44ColorIndex
 90
        5
102
RTVSPost2010Prop44ColorRGB
 90
      255
102
RTVSPost2010PropOp44
 70
     1
102
RTVSPost2010Prop45
280
     0
102
RTVSPost2010PropOp45
 70
     1
102
RTVSPost2010Prop46
 90
       50
102
RTVSPost2010PropOp46
 70
     1
102
RTVSPost2010Prop47
 90
       50
102
RTVSPost2010PropOp47
 70
     1
102
RTVSPost2010Prop48
 90
       50
102
RTVSPost2010PropOp48
 70
     1
102
RTVSPost2010Prop49
280
     0
102
RTVSPost2010PropOp49
 70
     1
102
RTVSPost2010Prop50
 90
       50
102
RTVSPost2010PropOp50
 70
     1
102
RTVSPost2010Prop51ColorIndex
 90
      256
102
RTVSPost2010Prop51ColorRGB
 90
-16777216
102
RTVSPost2010PropOp51
 70
     0
102
RTVSPost2010Prop52
140
1.0
102
RTVSPost2010PropOp52
 70
     0
102
RTVSPost2010Prop53
 90
        2
102
RTVSPost2010PropOp53
 70
     1
102
RTVSPost2010Prop54
  1
strokes_ogs.tif
102
RTVSPost2010PropOp54
 70
     1
102
RTVSPost2010Prop55
280
     0
102
RTVSPost2010PropOp55
 70
     1
102
RTVSPost2010Prop56
140
1.0
102
RTVSPost2010PropOp56
 70
     1
102
RTVSPost2010Prop57
140
1.0
102
RTVSPost2010PropOp57
 70
     1
  0
XRECORD
  5
522
102
{ACAD_REACTORS
330
521
102
}
330
521
100
AcDbXrecord
280
     1
102
RTVSPropertyOp0
 70
     1
102
RTVSPropertyOp1
 70
     1
102
RTVSPropertyOp2
 70
     1
102
RTVSPropertyOp3
 70
     1
102
RTVSPropertyOp4
 70
     1
102
RTVSPropertyOp5
 70
     1
102
RTVSPropertyOp6
 70
     1
102
RTVSPropertyOp7
 70
     1
102
RTVSPropertyOp8
 70
     1
102
RTVSPropertyOp9
 70
     1
102
RTVSPropertyOp10
 70
     1
102
RTVSPropertyOp11
 70
     1
102
RTVSPropertyOp12
 70
     1
102
RTVSPropertyOp13
 70
     1
102
RTVSPropertyOp14
 70
     1
102
RTVSPropertyOp15
 70
     1
102
RTVSPropertyOp16
 70
     1
102
RTVSPropertyOp17
 70
     1
102
RTVSPropertyOp18
 70
     1
102
RTVSPropertyOp19
 70
     1
102
RTVSPropertyOp20
 70
     1
102
RTVSPropertyOp21
 70
     1
102
RTVSPropertyOp22
 70
     1
102
RTVSPropertyOp23
 70
     1
102
RTVSPropertyOp24
 70
     1
102
RTVSPropertyOp25
 70
     1
102
RTVSPropertyOp26
 70
     1
102
RTVSPropertyOp27
 70
     1
102
RTVSPropertyOp28
 70
     1
102
RTVSPropertyOp29
 70
     1
102
RTVSPropertyOp30
 70
     1
102
RTVSPropertyOp31
 70
     1
102
RTVSPropertyOp32
 70
     1
102
RTVSPropertyOp33
 70
     1
102
RTVSPropertyOp34
 70
     1
102
RTVSPropertyOp35
 70
     1
102
RTVSPropertyOp36
 70
     1
102
RTVSPropertyOp37
 70
     1
102
RTVSPropertyOp38
 70
     1
102
RTVSPropertyOp39
 70
     1
102
RTVSPropertyOp40
 70
     1
102
RTVSPropertyOp41
 70
     1
102
RTVSPropertyOp42
 70
     1
102
RTVSPropertyOp43
 70
     1
102
RTVSPropertyOp44
 70
     1
102
RTVSPropertyOp45
 70
     1
102
RTVSPropertyOp46
 70
     1
102
RTVSPropertyOp47
 70
     1
102
RTVSPropertyOp48
 70
     1
102
RTVSPropertyOp49
 70
     1
102
RTVSPropertyOp50
 70
     1
102
RTVSPropertyOp51
 70
     0
102
RTVSPropertyOp52
 70
     0
102
RTVSPropertyOp53
 70
     1
102
RTVSPropertyOp54
 70
     1
102
RTVSPropertyOp55
 70
     1
102
RTVSPropertyOp56
 70
     1
102
RTVSPropertyOp57
 70
     1
102
RTVSPost2010Prop28
280
     0
102
RTVSPost2010PropOp28
 70
     1
102
RTVSPost2010Prop29
280
     1
102
RTVSPost2010PropOp29
 70
     1
102
RTVSPost2010Prop30
280
     1
102
RTVSPost2010PropOp30
 70
     1
102
RTVSPost2010Prop31
280
     0
102
RTVSPost2010PropOp31
 70
     1
102
RTVSPost2010Prop32
280
     0
102
RTVSPost2010PropOp32
 70
     1
102
RTVSPost2010Prop33
280
     0
102
RTVSPost2010PropOp33
 70
     1
102
RTVSPost2010Prop34
280
     0
102
RTVSPost2010PropOp34
 70
     1
102
RTVSPost2010Prop35
280
     0
102
RTVSPost2010PropOp35
 70
     1
102
RTVSPost2010Prop36
280
     0
102
RTVSPost2010PropOp36
 70
     1
102
RTVSPost2010Prop37
 90
       50
102
RTVSPost2010PropOp37
 70
     1
102
RTVSPost2010Prop38
140
0.0
102
RTVSPost2010PropOp38
 70
     1
102
RTVSPost2010Prop39
140
1.0
102
RTVSPost2010PropOp39
 70
     1
102
RTVSPost2010Prop40
 90
        0
102
RTVSPost2010PropOp40
 70
     1
102
RTVSPost2010Prop41ColorIndex
 90
       18
102
RTVSPost2010Prop41ColorRGB
 90
        0
102
RTVSPost2010PropOp41
 70
     1
102
RTVSPost2010Prop42
 90
       50
102
RTVSPost2010PropOp42
 70
     1
102
RTVSPost2010Prop43
 90
        3
102
RTVSPost2010PropOp43
 70
     1
102
RTVSPost2010Prop44ColorIndex
 90
        5
102
RTVSPost2010Prop44ColorRGB
 90
      255
102
RTVSPost2010PropOp44
 70
     1
102
RTVSPost2010Prop45
280
     0
102
RTVSPost2010PropOp45
 70
     1
102
RTVSPost2010Prop46
 90
       50
102
RTVSPost2010PropOp46
 70
     1
102
RTVSPost2010Prop47
 90
       50
102
RTVSPost2010PropOp47
 70
     1
102
RTVSPost2010Prop48
 90
       50
102
RTVSPost2010PropOp48
 70
     1
102
RTVSPost2010Prop49
280
     0
102
RTVSPost2010PropOp49
 70
     1
102
RTVSPost2010Prop50
 90
       50
102
RTVSPost2010PropOp50
 70
     1
102
RTVSPost2010Prop51ColorIndex
 90
      256
102
RTVSPost2010Prop51ColorRGB
 90
-16777216
102
RTVSPost2010PropOp51
 70
     0
102
RTVSPost2010Prop52
140
1.0
102
RTVSPost2010PropOp52
 70
     0
102
RTVSPost2010Prop53
 90
        2
102
RTVSPost2010PropOp53
 70
     1
102
RTVSPost2010Prop54
  1
strokes_ogs.tif
102
RTVSPost2010PropOp54
 70
     1
102
RTVSPost2010Prop55
280
     0
102
RTVSPost2010PropOp55
 70
     1
102
RTVSPost2010Prop56
140
1.0
102
RTVSPost2010PropOp56
 70
     1
102
RTVSPost2010Prop57
140
1.0
102
RTVSPost2010PropOp57
 70
     1
  0
XRECORD
  5
52A
102
{ACAD_REACTORS
330
529
102
}
330
529
100
AcDbXrecord
280
     1
102
RTVSPropertyOp0
 70
     1
102
RTVSPropertyOp1
 70
     1
102
RTVSPropertyOp2
 70
     1
102
RTVSPropertyOp3
 70
     1
102
RTVSPropertyOp4
 70
     1
102
RTVSPropertyOp5
 70
     1
102
RTVSPropertyOp6
 70
     1
102
RTVSPropertyOp7
 70
     1
102
RTVSPropertyOp8
 70
     1
102
RTVSPropertyOp9
 70
     1
102
RTVSPropertyOp10
 70
     1
102
RTVSPropertyOp11
 70
     1
102
RTVSPropertyOp12
 70
     1
102
RTVSPropertyOp13
 70
     1
102
RTVSPropertyOp14
 70
     1
102
RTVSPropertyOp15
 70
     1
102
RTVSPropertyOp16
 70
     1
102
RTVSPropertyOp17
 70
     1
102
RTVSPropertyOp18
 70
     1
102
RTVSPropertyOp19
 70
     1
102
RTVSPropertyOp20
 70
     1
102
RTVSPropertyOp21
 70
     1
102
RTVSPropertyOp22
 70
     1
102
RTVSPropertyOp23
 70
     1
102
RTVSPropertyOp24
 70
     1
102
RTVSPropertyOp25
 70
     1
102
RTVSPropertyOp26
 70
     1
102
RTVSPropertyOp27
 70
     1
102
RTVSPropertyOp28
 70
     1
102
RTVSPropertyOp29
 70
     1
102
RTVSPropertyOp30
 70
     1
102
RTVSPropertyOp31
 70
     1
102
RTVSPropertyOp32
 70
     1
102
RTVSPropertyOp33
 70
     1
102
RTVSPropertyOp34
 70
     1
102
RTVSPropertyOp35
 70
     1
102
RTVSPropertyOp36
 70
     1
102
RTVSPropertyOp37
 70
     1
102
RTVSPropertyOp38
 70
     1
102
RTVSPropertyOp39
 70
     1
102
RTVSPropertyOp40
 70
     1
102
RTVSPropertyOp41
 70
     1
102
RTVSPropertyOp42
 70
     1
102
RTVSPropertyOp43
 70
     1
102
RTVSPropertyOp44
 70
     1
102
RTVSPropertyOp45
 70
     1
102
RTVSPropertyOp46
 70
     1
102
RTVSPropertyOp47
 70
     1
102
RTVSPropertyOp48
 70
     1
102
RTVSPropertyOp49
 70
     1
102
RTVSPropertyOp50
 70
     1
102
RTVSPropertyOp51
 70
     0
102
RTVSPropertyOp52
 70
     0
102
RTVSPropertyOp53
 70
     1
102
RTVSPropertyOp54
 70
     1
102
RTVSPropertyOp55
 70
     1
102
RTVSPropertyOp56
 70
     1
102
RTVSPropertyOp57
 70
     1
102
RTVSPost2010Prop28
280
     0
102
RTVSPost2010PropOp28
 70
     1
102
RTVSPost2010Prop29
280
     1
102
RTVSPost2010PropOp29
 70
     1
102
RTVSPost2010Prop30
280
     1
102
RTVSPost2010PropOp30
 70
     1
102
RTVSPost2010Prop31
280
     0
102
RTVSPost2010PropOp31
 70
     1
102
RTVSPost2010Prop32
280
     0
102
RTVSPost2010PropOp32
 70
     1
102
RTVSPost2010Prop33
280
     0
102
RTVSPost2010PropOp33
 70
     1
102
RTVSPost2010Prop34
280
     0
102
RTVSPost2010PropOp34
 70
     1
102
RTVSPost2010Prop35
280
     0
102
RTVSPost2010PropOp35
 70
     1
102
RTVSPost2010Prop36
280
     0
102
RTVSPost2010PropOp36
 70
     1
102
RTVSPost2010Prop37
 90
       50
102
RTVSPost2010PropOp37
 70
     1
102
RTVSPost2010Prop38
140
0.0
102
RTVSPost2010PropOp38
 70
     1
102
RTVSPost2010Prop39
140
1.0
102
RTVSPost2010PropOp39
 70
     1
102
RTVSPost2010Prop40
 90
        0
102
RTVSPost2010PropOp40
 70
     1
102
RTVSPost2010Prop41ColorIndex
 90
       18
102
RTVSPost2010Prop41ColorRGB
 90
        0
102
RTVSPost2010PropOp41
 70
     1
102
RTVSPost2010Prop42
 90
       50
102
RTVSPost2010PropOp42
 70
     1
102
RTVSPost2010Prop43
 90
        3
102
RTVSPost2010PropOp43
 70
     1
102
RTVSPost2010Prop44ColorIndex
 90
        5
102
RTVSPost2010Prop44ColorRGB
 90
      255
102
RTVSPost2010PropOp44
 70
     1
102
RTVSPost2010Prop45
280
     0
102
RTVSPost2010PropOp45
 70
     1
102
RTVSPost2010Prop46
 90
       50
102
RTVSPost2010PropOp46
 70
     1
102
RTVSPost2010Prop47
 90
       50
102
RTVSPost2010PropOp47
 70
     1
102
RTVSPost2010Prop48
 90
       50
102
RTVSPost2010PropOp48
 70
     1
102
RTVSPost2010Prop49
280
     0
102
RTVSPost2010PropOp49
 70
     1
102
RTVSPost2010Prop50
 90
       50
102
RTVSPost2010PropOp50
 70
     1
102
RTVSPost2010Prop51ColorIndex
 90
      256
102
RTVSPost2010Prop51ColorRGB
 90
-16777216
102
RTVSPost2010PropOp51
 70
     0
102
RTVSPost2010Prop52
140
1.0
102
RTVSPost2010PropOp52
 70
     0
102
RTVSPost2010Prop53
 90
        2
102
RTVSPost2010PropOp53
 70
     1
102
RTVSPost2010Prop54
  1
strokes_ogs.tif
102
RTVSPost2010PropOp54
 70
     1
102
RTVSPost2010Prop55
280
     0
102
RTVSPost2010PropOp55
 70
     1
102
RTVSPost2010Prop56
140
1.0
102
RTVSPost2010PropOp56
 70
     1
102
RTVSPost2010Prop57
140
1.0
102
RTVSPost2010PropOp57
 70
     1
  0
XRECORD
  5
51E
102
{ACAD_REACTORS
330
51D
102
}
330
51D
100
AcDbXrecord
280
     1
102
RTVSPropertyOp0
 70
     1
102
RTVSPropertyOp1
 70
     1
102
RTVSPropertyOp2
 70
     1
102
RTVSPropertyOp3
 70
     1
102
RTVSPropertyOp4
 70
     1
102
RTVSPropertyOp5
 70
     1
102
RTVSPropertyOp6
 70
     1
102
RTVSPropertyOp7
 70
     1
102
RTVSPropertyOp8
 70
     1
102
RTVSPropertyOp9
 70
     1
102
RTVSPropertyOp10
 70
     1
102
RTVSPropertyOp11
 70
     1
102
RTVSPropertyOp12
 70
     1
102
RTVSPropertyOp13
 70
     1
102
RTVSPropertyOp14
 70
     1
102
RTVSPropertyOp15
 70
     1
102
RTVSPropertyOp16
 70
     1
102
RTVSPropertyOp17
 70
     1
102
RTVSPropertyOp18
 70
     1
102
RTVSPropertyOp19
 70
     1
102
RTVSPropertyOp20
 70
     1
102
RTVSPropertyOp21
 70
     1
102
RTVSPropertyOp22
 70
     1
102
RTVSPropertyOp23
 70
     1
102
RTVSPropertyOp24
 70
     1
102
RTVSPropertyOp25
 70
     1
102
RTVSPropertyOp26
 70
     1
102
RTVSPropertyOp27
 70
     1
102
RTVSPropertyOp28
 70
     1
102
RTVSPropertyOp29
 70
     1
102
RTVSPropertyOp30
 70
     1
102
RTVSPropertyOp31
 70
     1
102
RTVSPropertyOp32
 70
     1
102
RTVSPropertyOp33
 70
     1
102
RTVSPropertyOp34
 70
     1
102
RTVSPropertyOp35
 70
     1
102
RTVSPropertyOp36
 70
     1
102
RTVSPropertyOp37
 70
     1
102
RTVSPropertyOp38
 70
     1
102
RTVSPropertyOp39
 70
     1
102
RTVSPropertyOp40
 70
     1
102
RTVSPropertyOp41
 70
     1
102
RTVSPropertyOp42
 70
     1
102
RTVSPropertyOp43
 70
     1
102
RTVSPropertyOp44
 70
     1
102
RTVSPropertyOp45
 70
     1
102
RTVSPropertyOp46
 70
     1
102
RTVSPropertyOp47
 70
     1
102
RTVSPropertyOp48
 70
     1
102
RTVSPropertyOp49
 70
     1
102
RTVSPropertyOp50
 70
     1
102
RTVSPropertyOp51
 70
     0
102
RTVSPropertyOp52
 70
     0
102
RTVSPropertyOp53
 70
     1
102
RTVSPropertyOp54
 70
     1
102
RTVSPropertyOp55
 70
     1
102
RTVSPropertyOp56
 70
     1
102
RTVSPropertyOp57
 70
     1
102
RTVSPost2010Prop28
280
     0
102
RTVSPost2010PropOp28
 70
     1
102
RTVSPost2010Prop29
280
     1
102
RTVSPost2010PropOp29
 70
     1
102
RTVSPost2010Prop30
280
     1
102
RTVSPost2010PropOp30
 70
     1
102
RTVSPost2010Prop31
280
     0
102
RTVSPost2010PropOp31
 70
     1
102
RTVSPost2010Prop32
280
     0
102
RTVSPost2010PropOp32
 70
     1
102
RTVSPost2010Prop33
280
     0
102
RTVSPost2010PropOp33
 70
     1
102
RTVSPost2010Prop34
280
     0
102
RTVSPost2010PropOp34
 70
     1
102
RTVSPost2010Prop35
280
     0
102
RTVSPost2010PropOp35
 70
     1
102
RTVSPost2010Prop36
280
     0
102
RTVSPost2010PropOp36
 70
     1
102
RTVSPost2010Prop37
 90
       50
102
RTVSPost2010PropOp37
 70
     1
102
RTVSPost2010Prop38
140
0.0
102
RTVSPost2010PropOp38
 70
     1
102
RTVSPost2010Prop39
140
1.0
102
RTVSPost2010PropOp39
 70
     1
102
RTVSPost2010Prop40
 90
        0
102
RTVSPost2010PropOp40
 70
     1
102
RTVSPost2010Prop41ColorIndex
 90
       18
102
RTVSPost2010Prop41ColorRGB
 90
        0
102
RTVSPost2010PropOp41
 70
     1
102
RTVSPost2010Prop42
 90
       50
102
RTVSPost2010PropOp42
 70
     1
102
RTVSPost2010Prop43
 90
        3
102
RTVSPost2010PropOp43
 70
     1
102
RTVSPost2010Prop44ColorIndex
 90
        5
102
RTVSPost2010Prop44ColorRGB
 90
      255
102
RTVSPost2010PropOp44
 70
     1
102
RTVSPost2010Prop45
280
     0
102
RTVSPost2010PropOp45
 70
     1
102
RTVSPost2010Prop46
 90
       50
102
RTVSPost2010PropOp46
 70
     1
102
RTVSPost2010Prop47
 90
       50
102
RTVSPost2010PropOp47
 70
     1
102
RTVSPost2010Prop48
 90
       50
102
RTVSPost2010PropOp48
 70
     1
102
RTVSPost2010Prop49
280
     0
102
RTVSPost2010PropOp49
 70
     1
102
RTVSPost2010Prop50
 90
       50
102
RTVSPost2010PropOp50
 70
     1
102
RTVSPost2010Prop51ColorIndex
 90
      256
102
RTVSPost2010Prop51ColorRGB
 90
-16777216
102
RTVSPost2010PropOp51
 70
     0
102
RTVSPost2010Prop52
140
1.0
102
RTVSPost2010PropOp52
 70
     0
102
RTVSPost2010Prop53
 90
        2
102
RTVSPost2010PropOp53
 70
     1
102
RTVSPost2010Prop54
  1
strokes_ogs.tif
102
RTVSPost2010PropOp54
 70
     1
102
RTVSPost2010Prop55
280
     0
102
RTVSPost2010PropOp55
 70
     1
102
RTVSPost2010Prop56
140
1.0
102
RTVSPost2010PropOp56
 70
     1
102
RTVSPost2010Prop57
140
1.0
102
RTVSPost2010PropOp57
 70
     1
  0
XRECORD
  5
520
102
{ACAD_REACTORS
330
51F
102
}
330
51F
100
AcDbXrecord
280
     1
102
RTVSPropertyOp0
 70
     1
102
RTVSPropertyOp1
 70
     1
102
RTVSPropertyOp2
 70
     1
102
RTVSPropertyOp3
 70
     1
102
RTVSPropertyOp4
 70
     1
102
RTVSPropertyOp5
 70
     1
102
RTVSPropertyOp6
 70
     1
102
RTVSPropertyOp7
 70
     1
102
RTVSPropertyOp8
 70
     1
102
RTVSPropertyOp9
 70
     1
102
RTVSPropertyOp10
 70
     1
102
RTVSPropertyOp11
 70
     1
102
RTVSPropertyOp12
 70
     1
102
RTVSPropertyOp13
 70
     1
102
RTVSPropertyOp14
 70
     1
102
RTVSPropertyOp15
 70
     1
102
RTVSPropertyOp16
 70
     1
102
RTVSPropertyOp17
 70
     1
102
RTVSPropertyOp18
 70
     1
102
RTVSPropertyOp19
 70
     1
102
RTVSPropertyOp20
 70
     1
102
RTVSPropertyOp21
 70
     1
102
RTVSPropertyOp22
 70
     1
102
RTVSPropertyOp23
 70
     1
102
RTVSPropertyOp24
 70
     1
102
RTVSPropertyOp25
 70
     1
102
RTVSPropertyOp26
 70
     1
102
RTVSPropertyOp27
 70
     1
102
RTVSPropertyOp28
 70
     1
102
RTVSPropertyOp29
 70
     1
102
RTVSPropertyOp30
 70
     1
102
RTVSPropertyOp31
 70
     1
102
RTVSPropertyOp32
 70
     1
102
RTVSPropertyOp33
 70
     1
102
RTVSPropertyOp34
 70
     1
102
RTVSPropertyOp35
 70
     1
102
RTVSPropertyOp36
 70
     1
102
RTVSPropertyOp37
 70
     1
102
RTVSPropertyOp38
 70
     1
102
RTVSPropertyOp39
 70
     1
102
RTVSPropertyOp40
 70
     1
102
RTVSPropertyOp41
 70
     1
102
RTVSPropertyOp42
 70
     1
102
RTVSPropertyOp43
 70
     1
102
RTVSPropertyOp44
 70
     1
102
RTVSPropertyOp45
 70
     1
102
RTVSPropertyOp46
 70
     1
102
RTVSPropertyOp47
 70
     1
102
RTVSPropertyOp48
 70
     1
102
RTVSPropertyOp49
 70
     1
102
RTVSPropertyOp50
 70
     1
102
RTVSPropertyOp51
 70
     0
102
RTVSPropertyOp52
 70
     0
102
RTVSPropertyOp53
 70
     1
102
RTVSPropertyOp54
 70
     1
102
RTVSPropertyOp55
 70
     1
102
RTVSPropertyOp56
 70
     1
102
RTVSPropertyOp57
 70
     1
102
RTVSPost2010Prop28
280
     0
102
RTVSPost2010PropOp28
 70
     1
102
RTVSPost2010Prop29
280
     1
102
RTVSPost2010PropOp29
 70
     1
102
RTVSPost2010Prop30
280
     1
102
RTVSPost2010PropOp30
 70
     1
102
RTVSPost2010Prop31
280
     0
102
RTVSPost2010PropOp31
 70
     1
102
RTVSPost2010Prop32
280
     0
102
RTVSPost2010PropOp32
 70
     1
102
RTVSPost2010Prop33
280
     0
102
RTVSPost2010PropOp33
 70
     1
102
RTVSPost2010Prop34
280
     0
102
RTVSPost2010PropOp34
 70
     1
102
RTVSPost2010Prop35
280
     0
102
RTVSPost2010PropOp35
 70
     1
102
RTVSPost2010Prop36
280
     0
102
RTVSPost2010PropOp36
 70
     1
102
RTVSPost2010Prop37
 90
       50
102
RTVSPost2010PropOp37
 70
     1
102
RTVSPost2010Prop38
140
0.0
102
RTVSPost2010PropOp38
 70
     1
102
RTVSPost2010Prop39
140
1.0
102
RTVSPost2010PropOp39
 70
     1
102
RTVSPost2010Prop40
 90
        0
102
RTVSPost2010PropOp40
 70
     1
102
RTVSPost2010Prop41ColorIndex
 90
       18
102
RTVSPost2010Prop41ColorRGB
 90
        0
102
RTVSPost2010PropOp41
 70
     1
102
RTVSPost2010Prop42
 90
       50
102
RTVSPost2010PropOp42
 70
     1
102
RTVSPost2010Prop43
 90
        3
102
RTVSPost2010PropOp43
 70
     1
102
RTVSPost2010Prop44ColorIndex
 90
        5
102
RTVSPost2010Prop44ColorRGB
 90
      255
102
RTVSPost2010PropOp44
 70
     1
102
RTVSPost2010Prop45
280
     0
102
RTVSPost2010PropOp45
 70
     1
102
RTVSPost2010Prop46
 90
       50
102
RTVSPost2010PropOp46
 70
     1
102
RTVSPost2010Prop47
 90
       50
102
RTVSPost2010PropOp47
 70
     1
102
RTVSPost2010Prop48
 90
       50
102
RTVSPost2010PropOp48
 70
     1
102
RTVSPost2010Prop49
280
     0
102
RTVSPost2010PropOp49
 70
     1
102
RTVSPost2010Prop50
 90
       50
102
RTVSPost2010PropOp50
 70
     1
102
RTVSPost2010Prop51ColorIndex
 90
      256
102
RTVSPost2010Prop51ColorRGB
 90
-16777216
102
RTVSPost2010PropOp51
 70
     0
102
RTVSPost2010Prop52
140
1.0
102
RTVSPost2010PropOp52
 70
     0
102
RTVSPost2010Prop53
 90
        2
102
RTVSPost2010PropOp53
 70
     1
102
RTVSPost2010Prop54
  1
strokes_ogs.tif
102
RTVSPost2010PropOp54
 70
     1
102
RTVSPost2010Prop55
280
     0
102
RTVSPost2010PropOp55
 70
     1
102
RTVSPost2010Prop56
140
1.0
102
RTVSPost2010PropOp56
 70
     1
102
RTVSPost2010Prop57
140
1.0
102
RTVSPost2010PropOp57
 70
     1
  0
XRECORD
  5
530
102
{ACAD_REACTORS
330
52F
102
}
330
52F
100
AcDbXrecord
280
     1
102
RTVSPropertyOp0
 70
     0
102
RTVSPropertyOp1
 70
     0
102
RTVSPropertyOp2
 70
     0
102
RTVSPropertyOp3
 70
     0
102
RTVSPropertyOp4
 70
     0
102
RTVSPropertyOp5
 70
     0
102
RTVSPropertyOp6
 70
     0
102
RTVSPropertyOp7
 70
     0
102
RTVSPropertyOp8
 70
     0
102
RTVSPropertyOp9
 70
     0
102
RTVSPropertyOp10
 70
     0
102
RTVSPropertyOp11
 70
     0
102
RTVSPropertyOp12
 70
     0
102
RTVSPropertyOp13
 70
     0
102
RTVSPropertyOp14
 70
     0
102
RTVSPropertyOp15
 70
     0
102
RTVSPropertyOp16
 70
     0
102
RTVSPropertyOp17
 70
     0
102
RTVSPropertyOp18
 70
     0
102
RTVSPropertyOp19
 70
     0
102
RTVSPropertyOp20
 70
     0
102
RTVSPropertyOp21
 70
     0
102
RTVSPropertyOp22
 70
     0
102
RTVSPropertyOp23
 70
     0
102
RTVSPropertyOp24
 70
     0
102
RTVSPropertyOp25
 70
     0
102
RTVSPropertyOp26
 70
     0
102
RTVSPropertyOp27
 70
     0
102
RTVSPropertyOp28
 70
     1
102
RTVSPropertyOp29
 70
     1
102
RTVSPropertyOp30
 70
     1
102
RTVSPropertyOp31
 70
     1
102
RTVSPropertyOp32
 70
     1
102
RTVSPropertyOp33
 70
     1
102
RTVSPropertyOp34
 70
     1
102
RTVSPropertyOp35
 70
     1
102
RTVSPropertyOp36
 70
     1
102
RTVSPropertyOp37
 70
     1
102
RTVSPropertyOp38
 70
     1
102
RTVSPropertyOp39
 70
     1
102
RTVSPropertyOp40
 70
     1
102
RTVSPropertyOp41
 70
     1
102
RTVSPropertyOp42
 70
     1
102
RTVSPropertyOp43
 70
     1
102
RTVSPropertyOp44
 70
     1
102
RTVSPropertyOp45
 70
     1
102
RTVSPropertyOp46
 70
     1
102
RTVSPropertyOp47
 70
     1
102
RTVSPropertyOp48
 70
     1
102
RTVSPropertyOp49
 70
     1
102
RTVSPropertyOp50
 70
     1
102
RTVSPropertyOp51
 70
     0
102
RTVSPropertyOp52
 70
     0
102
RTVSPropertyOp53
 70
     1
102
RTVSPropertyOp54
 70
     1
102
RTVSPropertyOp55
 70
     1
102
RTVSPropertyOp56
 70
     1
102
RTVSPropertyOp57
 70
     1
102
RTVSPost2010Prop28
280
     0
102
RTVSPost2010PropOp28
 70
     1
102
RTVSPost2010Prop29
280
     1
102
RTVSPost2010PropOp29
 70
     1
102
RTVSPost2010Prop30
280
     1
102
RTVSPost2010PropOp30
 70
     1
102
RTVSPost2010Prop31
280
     0
102
RTVSPost2010PropOp31
 70
     1
102
RTVSPost2010Prop32
280
     0
102
RTVSPost2010PropOp32
 70
     1
102
RTVSPost2010Prop33
280
     0
102
RTVSPost2010PropOp33
 70
     1
102
RTVSPost2010Prop34
280
     0
102
RTVSPost2010PropOp34
 70
     1
102
RTVSPost2010Prop35
280
     0
102
RTVSPost2010PropOp35
 70
     1
102
RTVSPost2010Prop36
280
     0
102
RTVSPost2010PropOp36
 70
     1
102
RTVSPost2010Prop37
 90
       50
102
RTVSPost2010PropOp37
 70
     1
102
RTVSPost2010Prop38
140
0.0
102
RTVSPost2010PropOp38
 70
     1
102
RTVSPost2010Prop39
140
1.0
102
RTVSPost2010PropOp39
 70
     1
102
RTVSPost2010Prop40
 90
        0
102
RTVSPost2010PropOp40
 70
     1
102
RTVSPost2010Prop41ColorIndex
 90
       18
102
RTVSPost2010Prop41ColorRGB
 90
        0
102
RTVSPost2010PropOp41
 70
     1
102
RTVSPost2010Prop42
 90
       50
102
RTVSPost2010PropOp42
 70
     1
102
RTVSPost2010Prop43
 90
        3
102
RTVSPost2010PropOp43
 70
     1
102
RTVSPost2010Prop44ColorIndex
 90
        5
102
RTVSPost2010Prop44ColorRGB
 90
      255
102
RTVSPost2010PropOp44
 70
     1
102
RTVSPost2010Prop45
280
     0
102
RTVSPost2010PropOp45
 70
     1
102
RTVSPost2010Prop46
 90
       50
102
RTVSPost2010PropOp46
 70
     1
102
RTVSPost2010Prop47
 90
       50
102
RTVSPost2010PropOp47
 70
     1
102
RTVSPost2010Prop48
 90
       50
102
RTVSPost2010PropOp48
 70
     1
102
RTVSPost2010Prop49
280
     0
102
RTVSPost2010PropOp49
 70
     1
102
RTVSPost2010Prop50
 90
       50
102
RTVSPost2010PropOp50
 70
     1
102
RTVSPost2010Prop51ColorIndex
 90
      256
102
RTVSPost2010Prop51ColorRGB
 90
-16777216
102
RTVSPost2010PropOp51
 70
     0
102
RTVSPost2010Prop52
140
1.0
102
RTVSPost2010PropOp52
 70
     0
102
RTVSPost2010Prop53
 90
        2
102
RTVSPost2010PropOp53
 70
     1
102
RTVSPost2010Prop54
  1
strokes_ogs.tif
102
RTVSPost2010PropOp54
 70
     1
102
RTVSPost2010Prop55
280
     0
102
RTVSPost2010PropOp55
 70
     1
102
RTVSPost2010Prop56
140
1.0
102
RTVSPost2010PropOp56
 70
     1
102
RTVSPost2010Prop57
140
1.0
102
RTVSPost2010PropOp57
 70
     1
  0
XRECORD
  5
528
102
{ACAD_REACTORS
330
527
102
}
330
527
100
AcDbXrecord
280
     1
102
RTVSPropertyOp0
 70
     1
102
RTVSPropertyOp1
 70
     1
102
RTVSPropertyOp2
 70
     1
102
RTVSPropertyOp3
 70
     1
102
RTVSPropertyOp4
 70
     1
102
RTVSPropertyOp5
 70
     1
102
RTVSPropertyOp6
 70
     1
102
RTVSPropertyOp7
 70
     1
102
RTVSPropertyOp8
 70
     1
102
RTVSPropertyOp9
 70
     1
102
RTVSPropertyOp10
 70
     1
102
RTVSPropertyOp11
 70
     1
102
RTVSPropertyOp12
 70
     1
102
RTVSPropertyOp13
 70
     1
102
RTVSPropertyOp14
 70
     1
102
RTVSPropertyOp15
 70
     1
102
RTVSPropertyOp16
 70
     1
102
RTVSPropertyOp17
 70
     1
102
RTVSPropertyOp18
 70
     1
102
RTVSPropertyOp19
 70
     1
102
RTVSPropertyOp20
 70
     1
102
RTVSPropertyOp21
 70
     1
102
RTVSPropertyOp22
 70
     1
102
RTVSPropertyOp23
 70
     1
102
RTVSPropertyOp24
 70
     1
102
RTVSPropertyOp25
 70
     1
102
RTVSPropertyOp26
 70
     1
102
RTVSPropertyOp27
 70
     1
102
RTVSPropertyOp28
 70
     1
102
RTVSPropertyOp29
 70
     1
102
RTVSPropertyOp30
 70
     1
102
RTVSPropertyOp31
 70
     1
102
RTVSPropertyOp32
 70
     1
102
RTVSPropertyOp33
 70
     1
102
RTVSPropertyOp34
 70
     1
102
RTVSPropertyOp35
 70
     1
102
RTVSPropertyOp36
 70
     1
102
RTVSPropertyOp37
 70
     1
102
RTVSPropertyOp38
 70
     1
102
RTVSPropertyOp39
 70
     1
102
RTVSPropertyOp40
 70
     1
102
RTVSPropertyOp41
 70
     1
102
RTVSPropertyOp42
 70
     1
102
RTVSPropertyOp43
 70
     1
102
RTVSPropertyOp44
 70
     1
102
RTVSPropertyOp45
 70
     1
102
RTVSPropertyOp46
 70
     1
102
RTVSPropertyOp47
 70
     1
102
RTVSPropertyOp48
 70
     1
102
RTVSPropertyOp49
 70
     1
102
RTVSPropertyOp50
 70
     1
102
RTVSPropertyOp51
 70
     0
102
RTVSPropertyOp52
 70
     0
102
RTVSPropertyOp53
 70
     1
102
RTVSPropertyOp54
 70
     1
102
RTVSPropertyOp55
 70
     1
102
RTVSPropertyOp56
 70
     1
102
RTVSPropertyOp57
 70
     1
102
RTVSPost2010Prop28
280
     0
102
RTVSPost2010PropOp28
 70
     1
102
RTVSPost2010Prop29
280
     1
102
RTVSPost2010PropOp29
 70
     1
102
RTVSPost2010Prop30
280
     1
102
RTVSPost2010PropOp30
 70
     1
102
RTVSPost2010Prop31
280
     0
102
RTVSPost2010PropOp31
 70
     1
102
RTVSPost2010Prop32
280
     0
102
RTVSPost2010PropOp32
 70
     1
102
RTVSPost2010Prop33
280
     0
102
RTVSPost2010PropOp33
 70
     1
102
RTVSPost2010Prop34
280
     0
102
RTVSPost2010PropOp34
 70
     1
102
RTVSPost2010Prop35
280
     0
102
RTVSPost2010PropOp35
 70
     1
102
RTVSPost2010Prop36
280
     0
102
RTVSPost2010PropOp36
 70
     1
102
RTVSPost2010Prop37
 90
       50
102
RTVSPost2010PropOp37
 70
     1
102
RTVSPost2010Prop38
140
0.0
102
RTVSPost2010PropOp38
 70
     1
102
RTVSPost2010Prop39
140
1.0
102
RTVSPost2010PropOp39
 70
     1
102
RTVSPost2010Prop40
 90
        0
102
RTVSPost2010PropOp40
 70
     1
102
RTVSPost2010Prop41ColorIndex
 90
       18
102
RTVSPost2010Prop41ColorRGB
 90
        0
102
RTVSPost2010PropOp41
 70
     1
102
RTVSPost2010Prop42
 90
       50
102
RTVSPost2010PropOp42
 70
     1
102
RTVSPost2010Prop43
 90
        3
102
RTVSPost2010PropOp43
 70
     1
102
RTVSPost2010Prop44ColorIndex
 90
        5
102
RTVSPost2010Prop44ColorRGB
 90
      255
102
RTVSPost2010PropOp44
 70
     1
102
RTVSPost2010Prop45
280
     0
102
RTVSPost2010PropOp45
 70
     1
102
RTVSPost2010Prop46
 90
       50
102
RTVSPost2010PropOp46
 70
     1
102
RTVSPost2010Prop47
 90
       50
102
RTVSPost2010PropOp47
 70
     1
102
RTVSPost2010Prop48
 90
       50
102
RTVSPost2010PropOp48
 70
     1
102
RTVSPost2010Prop49
280
     0
102
RTVSPost2010PropOp49
 70
     1
102
RTVSPost2010Prop50
 90
       50
102
RTVSPost2010PropOp50
 70
     1
102
RTVSPost2010Prop51ColorIndex
 90
      256
102
RTVSPost2010Prop51ColorRGB
 90
-16777216
102
RTVSPost2010PropOp51
 70
     0
102
RTVSPost2010Prop52
140
1.0
102
RTVSPost2010PropOp52
 70
     0
102
RTVSPost2010Prop53
 90
        2
102
RTVSPost2010PropOp53
 70
     1
102
RTVSPost2010Prop54
  1
strokes_ogs.tif
102
RTVSPost2010PropOp54
 70
     1
102
RTVSPost2010Prop55
280
     0
102
RTVSPost2010PropOp55
 70
     1
102
RTVSPost2010Prop56
140
1.0
102
RTVSPost2010PropOp56
 70
     1
102
RTVSPost2010Prop57
140
1.0
102
RTVSPost2010PropOp57
 70
     1
  0
XRECORD
  5
50C
102
{ACAD_REACTORS
330
50B
102
}
330
50B
100
AcDbXrecord
280
     1
102
RTVSPropertyOp0
 70
     1
102
RTVSPropertyOp1
 70
     1
102
RTVSPropertyOp2
 70
     1
102
RTVSPropertyOp3
 70
     1
102
RTVSPropertyOp4
 70
     1
102
RTVSPropertyOp5
 70
     1
102
RTVSPropertyOp6
 70
     1
102
RTVSPropertyOp7
 70
     1
102
RTVSPropertyOp8
 70
     1
102
RTVSPropertyOp9
 70
     1
102
RTVSPropertyOp10
 70
     1
102
RTVSPropertyOp11
 70
     1
102
RTVSPropertyOp12
 70
     1
102
RTVSPropertyOp13
 70
     1
102
RTVSPropertyOp14
 70
     1
102
RTVSPropertyOp15
 70
     1
102
RTVSPropertyOp16
 70
     1
102
RTVSPropertyOp17
 70
     1
102
RTVSPropertyOp18
 70
     1
102
RTVSPropertyOp19
 70
     1
102
RTVSPropertyOp20
 70
     1
102
RTVSPropertyOp21
 70
     1
102
RTVSPropertyOp22
 70
     1
102
RTVSPropertyOp23
 70
     1
102
RTVSPropertyOp24
 70
     1
102
RTVSPropertyOp25
 70
     1
102
RTVSPropertyOp26
 70
     1
102
RTVSPropertyOp27
 70
     1
102
RTVSPropertyOp28
 70
     1
102
RTVSPropertyOp29
 70
     1
102
RTVSPropertyOp30
 70
     1
102
RTVSPropertyOp31
 70
     1
102
RTVSPropertyOp32
 70
     1
102
RTVSPropertyOp33
 70
     1
102
RTVSPropertyOp34
 70
     1
102
RTVSPropertyOp35
 70
     1
102
RTVSPropertyOp36
 70
     1
102
RTVSPropertyOp37
 70
     1
102
RTVSPropertyOp38
 70
     1
102
RTVSPropertyOp39
 70
     1
102
RTVSPropertyOp40
 70
     1
102
RTVSPropertyOp41
 70
     1
102
RTVSPropertyOp42
 70
     1
102
RTVSPropertyOp43
 70
     1
102
RTVSPropertyOp44
 70
     1
102
RTVSPropertyOp45
 70
     1
102
RTVSPropertyOp46
 70
     1
102
RTVSPropertyOp47
 70
     1
102
RTVSPropertyOp48
 70
     1
102
RTVSPropertyOp49
 70
     1
102
RTVSPropertyOp50
 70
     1
102
RTVSPropertyOp51
 70
     0
102
RTVSPropertyOp52
 70
     0
102
RTVSPropertyOp53
 70
     1
102
RTVSPropertyOp54
 70
     1
102
RTVSPropertyOp55
 70
     1
102
RTVSPropertyOp56
 70
     1
102
RTVSPropertyOp57
 70
     1
102
RTVSPost2010Prop28
280
     0
102
RTVSPost2010PropOp28
 70
     1
102
RTVSPost2010Prop29
280
     1
102
RTVSPost2010PropOp29
 70
     1
102
RTVSPost2010Prop30
280
     1
102
RTVSPost2010PropOp30
 70
     1
102
RTVSPost2010Prop31
280
     0
102
RTVSPost2010PropOp31
 70
     1
102
RTVSPost2010Prop32
280
     0
102
RTVSPost2010PropOp32
 70
     1
102
RTVSPost2010Prop33
280
     0
102
RTVSPost2010PropOp33
 70
     1
102
RTVSPost2010Prop34
280
     0
102
RTVSPost2010PropOp34
 70
     1
102
RTVSPost2010Prop35
280
     0
102
RTVSPost2010PropOp35
 70
     1
102
RTVSPost2010Prop36
280
     0
102
RTVSPost2010PropOp36
 70
     1
102
RTVSPost2010Prop37
 90
       50
102
RTVSPost2010PropOp37
 70
     1
102
RTVSPost2010Prop38
140
0.0
102
RTVSPost2010PropOp38
 70
     1
102
RTVSPost2010Prop39
140
1.0
102
RTVSPost2010PropOp39
 70
     1
102
RTVSPost2010Prop40
 90
        0
102
RTVSPost2010PropOp40
 70
     1
102
RTVSPost2010Prop41ColorIndex
 90
       18
102
RTVSPost2010Prop41ColorRGB
 90
        0
102
RTVSPost2010PropOp41
 70
     1
102
RTVSPost2010Prop42
 90
       50
102
RTVSPost2010PropOp42
 70
     1
102
RTVSPost2010Prop43
 90
        3
102
RTVSPost2010PropOp43
 70
     1
102
RTVSPost2010Prop44ColorIndex
 90
        5
102
RTVSPost2010Prop44ColorRGB
 90
      255
102
RTVSPost2010PropOp44
 70
     1
102
RTVSPost2010Prop45
280
     0
102
RTVSPost2010PropOp45
 70
     1
102
RTVSPost2010Prop46
 90
       50
102
RTVSPost2010PropOp46
 70
     1
102
RTVSPost2010Prop47
 90
       50
102
RTVSPost2010PropOp47
 70
     1
102
RTVSPost2010Prop48
 90
       50
102
RTVSPost2010PropOp48
 70
     1
102
RTVSPost2010Prop49
280
     0
102
RTVSPost2010PropOp49
 70
     1
102
RTVSPost2010Prop50
 90
       50
102
RTVSPost2010PropOp50
 70
     1
102
RTVSPost2010Prop51ColorIndex
 90
      256
102
RTVSPost2010Prop51ColorRGB
 90
-16777216
102
RTVSPost2010PropOp51
 70
     0
102
RTVSPost2010Prop52
140
1.0
102
RTVSPost2010PropOp52
 70
     0
102
RTVSPost2010Prop53
 90
        2
102
RTVSPost2010PropOp53
 70
     1
102
RTVSPost2010Prop54
  1
strokes_ogs.tif
102
RTVSPost2010PropOp54
 70
     1
102
RTVSPost2010Prop55
280
     0
102
RTVSPost2010PropOp55
 70
     1
102
RTVSPost2010Prop56
140
1.0
102
RTVSPost2010PropOp56
 70
     1
102
RTVSPost2010Prop57
140
1.0
102
RTVSPost2010PropOp57
 70
     1
  0
XRECORD
  5
50E
102
{ACAD_REACTORS
330
50D
102
}
330
50D
100
AcDbXrecord
280
     1
102
RTVSPropertyOp0
 70
     1
102
RTVSPropertyOp1
 70
     1
102
RTVSPropertyOp2
 70
     1
102
RTVSPropertyOp3
 70
     1
102
RTVSPropertyOp4
 70
     1
102
RTVSPropertyOp5
 70
     1
102
RTVSPropertyOp6
 70
     1
102
RTVSPropertyOp7
 70
     1
102
RTVSPropertyOp8
 70
     1
102
RTVSPropertyOp9
 70
     1
102
RTVSPropertyOp10
 70
     1
102
RTVSPropertyOp11
 70
     1
102
RTVSPropertyOp12
 70
     1
102
RTVSPropertyOp13
 70
     1
102
RTVSPropertyOp14
 70
     1
102
RTVSPropertyOp15
 70
     1
102
RTVSPropertyOp16
 70
     1
102
RTVSPropertyOp17
 70
     1
102
RTVSPropertyOp18
 70
     1
102
RTVSPropertyOp19
 70
     1
102
RTVSPropertyOp20
 70
     1
102
RTVSPropertyOp21
 70
     1
102
RTVSPropertyOp22
 70
     1
102
RTVSPropertyOp23
 70
     1
102
RTVSPropertyOp24
 70
     1
102
RTVSPropertyOp25
 70
     1
102
RTVSPropertyOp26
 70
     1
102
RTVSPropertyOp27
 70
     1
102
RTVSPropertyOp28
 70
     1
102
RTVSPropertyOp29
 70
     1
102
RTVSPropertyOp30
 70
     1
102
RTVSPropertyOp31
 70
     1
102
RTVSPropertyOp32
 70
     1
102
RTVSPropertyOp33
 70
     1
102
RTVSPropertyOp34
 70
     1
102
RTVSPropertyOp35
 70
     1
102
RTVSPropertyOp36
 70
     1
102
RTVSPropertyOp37
 70
     1
102
RTVSPropertyOp38
 70
     1
102
RTVSPropertyOp39
 70
     1
102
RTVSPropertyOp40
 70
     1
102
RTVSPropertyOp41
 70
     1
102
RTVSPropertyOp42
 70
     1
102
RTVSPropertyOp43
 70
     1
102
RTVSPropertyOp44
 70
     1
102
RTVSPropertyOp45
 70
     1
102
RTVSPropertyOp46
 70
     1
102
RTVSPropertyOp47
 70
     1
102
RTVSPropertyOp48
 70
     1
102
RTVSPropertyOp49
 70
     1
102
RTVSPropertyOp50
 70
     1
102
RTVSPropertyOp51
 70
     0
102
RTVSPropertyOp52
 70
     0
102
RTVSPropertyOp53
 70
     1
102
RTVSPropertyOp54
 70
     1
102
RTVSPropertyOp55
 70
     1
102
RTVSPropertyOp56
 70
     1
102
RTVSPropertyOp57
 70
     1
102
RTVSPost2010Prop28
280
     0
102
RTVSPost2010PropOp28
 70
     1
102
RTVSPost2010Prop29
280
     1
102
RTVSPost2010PropOp29
 70
     1
102
RTVSPost2010Prop30
280
     1
102
RTVSPost2010PropOp30
 70
     1
102
RTVSPost2010Prop31
280
     0
102
RTVSPost2010PropOp31
 70
     1
102
RTVSPost2010Prop32
280
     0
102
RTVSPost2010PropOp32
 70
     1
102
RTVSPost2010Prop33
280
     0
102
RTVSPost2010PropOp33
 70
     1
102
RTVSPost2010Prop34
280
     0
102
RTVSPost2010PropOp34
 70
     1
102
RTVSPost2010Prop35
280
     0
102
RTVSPost2010PropOp35
 70
     1
102
RTVSPost2010Prop36
280
     0
102
RTVSPost2010PropOp36
 70
     1
102
RTVSPost2010Prop37
 90
       50
102
RTVSPost2010PropOp37
 70
     1
102
RTVSPost2010Prop38
140
0.0
102
RTVSPost2010PropOp38
 70
     1
102
RTVSPost2010Prop39
140
1.0
102
RTVSPost2010PropOp39
 70
     1
102
RTVSPost2010Prop40
 90
        0
102
RTVSPost2010PropOp40
 70
     1
102
RTVSPost2010Prop41ColorIndex
 90
       18
102
RTVSPost2010Prop41ColorRGB
 90
        0
102
RTVSPost2010PropOp41
 70
     1
102
RTVSPost2010Prop42
 90
       50
102
RTVSPost2010PropOp42
 70
     1
102
RTVSPost2010Prop43
 90
        3
102
RTVSPost2010PropOp43
 70
     1
102
RTVSPost2010Prop44ColorIndex
 90
        5
102
RTVSPost2010Prop44ColorRGB
 90
      255
102
RTVSPost2010PropOp44
 70
     1
102
RTVSPost2010Prop45
280
     0
102
RTVSPost2010PropOp45
 70
     1
102
RTVSPost2010Prop46
 90
       50
102
RTVSPost2010PropOp46
 70
     1
102
RTVSPost2010Prop47
 90
       50
102
RTVSPost2010PropOp47
 70
     1
102
RTVSPost2010Prop48
 90
       50
102
RTVSPost2010PropOp48
 70
     1
102
RTVSPost2010Prop49
280
     0
102
RTVSPost2010PropOp49
 70
     1
102
RTVSPost2010Prop50
 90
       50
102
RTVSPost2010PropOp50
 70
     1
102
RTVSPost2010Prop51ColorIndex
 90
      256
102
RTVSPost2010Prop51ColorRGB
 90
-16777216
102
RTVSPost2010PropOp51
 70
     0
102
RTVSPost2010Prop52
140
1.0
102
RTVSPost2010PropOp52
 70
     0
102
RTVSPost2010Prop53
 90
        2
102
RTVSPost2010PropOp53
 70
     1
102
RTVSPost2010Prop54
  1
strokes_ogs.tif
102
RTVSPost2010PropOp54
 70
     1
102
RTVSPost2010Prop55
280
     0
102
RTVSPost2010PropOp55
 70
     1
102
RTVSPost2010Prop56
140
1.0
102
RTVSPost2010PropOp56
 70
     1
102
RTVSPost2010Prop57
140
1.0
102
RTVSPost2010PropOp57
 70
     1
  0
XRECORD
  5
510
102
{ACAD_REACTORS
330
50F
102
}
330
50F
100
AcDbXrecord
280
     1
102
RTVSPropertyOp0
 70
     1
102
RTVSPropertyOp1
 70
     1
102
RTVSPropertyOp2
 70
     1
102
RTVSPropertyOp3
 70
     1
102
RTVSPropertyOp4
 70
     1
102
RTVSPropertyOp5
 70
     1
102
RTVSPropertyOp6
 70
     1
102
RTVSPropertyOp7
 70
     1
102
RTVSPropertyOp8
 70
     1
102
RTVSPropertyOp9
 70
     1
102
RTVSPropertyOp10
 70
     1
102
RTVSPropertyOp11
 70
     1
102
RTVSPropertyOp12
 70
     1
102
RTVSPropertyOp13
 70
     1
102
RTVSPropertyOp14
 70
     1
102
RTVSPropertyOp15
 70
     1
102
RTVSPropertyOp16
 70
     1
102
RTVSPropertyOp17
 70
     1
102
RTVSPropertyOp18
 70
     1
102
RTVSPropertyOp19
 70
     1
102
RTVSPropertyOp20
 70
     1
102
RTVSPropertyOp21
 70
     1
102
RTVSPropertyOp22
 70
     1
102
RTVSPropertyOp23
 70
     1
102
RTVSPropertyOp24
 70
     1
102
RTVSPropertyOp25
 70
     1
102
RTVSPropertyOp26
 70
     1
102
RTVSPropertyOp27
 70
     1
102
RTVSPropertyOp28
 70
     1
102
RTVSPropertyOp29
 70
     1
102
RTVSPropertyOp30
 70
     1
102
RTVSPropertyOp31
 70
     1
102
RTVSPropertyOp32
 70
     1
102
RTVSPropertyOp33
 70
     1
102
RTVSPropertyOp34
 70
     1
102
RTVSPropertyOp35
 70
     1
102
RTVSPropertyOp36
 70
     1
102
RTVSPropertyOp37
 70
     1
102
RTVSPropertyOp38
 70
     1
102
RTVSPropertyOp39
 70
     1
102
RTVSPropertyOp40
 70
     1
102
RTVSPropertyOp41
 70
     1
102
RTVSPropertyOp42
 70
     1
102
RTVSPropertyOp43
 70
     1
102
RTVSPropertyOp44
 70
     1
102
RTVSPropertyOp45
 70
     1
102
RTVSPropertyOp46
 70
     1
102
RTVSPropertyOp47
 70
     1
102
RTVSPropertyOp48
 70
     1
102
RTVSPropertyOp49
 70
     1
102
RTVSPropertyOp50
 70
     1
102
RTVSPropertyOp51
 70
     0
102
RTVSPropertyOp52
 70
     0
102
RTVSPropertyOp53
 70
     1
102
RTVSPropertyOp54
 70
     1
102
RTVSPropertyOp55
 70
     1
102
RTVSPropertyOp56
 70
     1
102
RTVSPropertyOp57
 70
     1
102
RTVSPost2010Prop28
280
     0
102
RTVSPost2010PropOp28
 70
     1
102
RTVSPost2010Prop29
280
     1
102
RTVSPost2010PropOp29
 70
     1
102
RTVSPost2010Prop30
280
     1
102
RTVSPost2010PropOp30
 70
     1
102
RTVSPost2010Prop31
280
     0
102
RTVSPost2010PropOp31
 70
     1
102
RTVSPost2010Prop32
280
     0
102
RTVSPost2010PropOp32
 70
     1
102
RTVSPost2010Prop33
280
     0
102
RTVSPost2010PropOp33
 70
     1
102
RTVSPost2010Prop34
280
     0
102
RTVSPost2010PropOp34
 70
     1
102
RTVSPost2010Prop35
280
     0
102
RTVSPost2010PropOp35
 70
     1
102
RTVSPost2010Prop36
280
     0
102
RTVSPost2010PropOp36
 70
     1
102
RTVSPost2010Prop37
 90
       50
102
RTVSPost2010PropOp37
 70
     1
102
RTVSPost2010Prop38
140
0.0
102
RTVSPost2010PropOp38
 70
     1
102
RTVSPost2010Prop39
140
1.0
102
RTVSPost2010PropOp39
 70
     1
102
RTVSPost2010Prop40
 90
        0
102
RTVSPost2010PropOp40
 70
     1
102
RTVSPost2010Prop41ColorIndex
 90
       18
102
RTVSPost2010Prop41ColorRGB
 90
        0
102
RTVSPost2010PropOp41
 70
     1
102
RTVSPost2010Prop42
 90
       50
102
RTVSPost2010PropOp42
 70
     1
102
RTVSPost2010Prop43
 90
        3
102
RTVSPost2010PropOp43
 70
     1
102
RTVSPost2010Prop44ColorIndex
 90
        5
102
RTVSPost2010Prop44ColorRGB
 90
      255
102
RTVSPost2010PropOp44
 70
     1
102
RTVSPost2010Prop45
280
     0
102
RTVSPost2010PropOp45
 70
     1
102
RTVSPost2010Prop46
 90
       50
102
RTVSPost2010PropOp46
 70
     1
102
RTVSPost2010Prop47
 90
       50
102
RTVSPost2010PropOp47
 70
     1
102
RTVSPost2010Prop48
 90
       50
102
RTVSPost2010PropOp48
 70
     1
102
RTVSPost2010Prop49
280
     0
102
RTVSPost2010PropOp49
 70
     1
102
RTVSPost2010Prop50
 90
       50
102
RTVSPost2010PropOp50
 70
     1
102
RTVSPost2010Prop51ColorIndex
 90
      256
102
RTVSPost2010Prop51ColorRGB
 90
-16777216
102
RTVSPost2010PropOp51
 70
     0
102
RTVSPost2010Prop52
140
1.0
102
RTVSPost2010PropOp52
 70
     0
102
RTVSPost2010Prop53
 90
        2
102
RTVSPost2010PropOp53
 70
     1
102
RTVSPost2010Prop54
  1
strokes_ogs.tif
102
RTVSPost2010PropOp54
 70
     1
102
RTVSPost2010Prop55
280
     0
102
RTVSPost2010PropOp55
 70
     1
102
RTVSPost2010Prop56
140
1.0
102
RTVSPost2010PropOp56
 70
     1
102
RTVSPost2010Prop57
140
1.0
102
RTVSPost2010PropOp57
 70
     1
  0
XRECORD
  5
512
102
{ACAD_REACTORS
330
511
102
}
330
511
100
AcDbXrecord
280
     1
102
RTVSPropertyOp0
 70
     1
102
RTVSPropertyOp1
 70
     1
102
RTVSPropertyOp2
 70
     1
102
RTVSPropertyOp3
 70
     1
102
RTVSPropertyOp4
 70
     1
102
RTVSPropertyOp5
 70
     1
102
RTVSPropertyOp6
 70
     1
102
RTVSPropertyOp7
 70
     1
102
RTVSPropertyOp8
 70
     1
102
RTVSPropertyOp9
 70
     1
102
RTVSPropertyOp10
 70
     1
102
RTVSPropertyOp11
 70
     1
102
RTVSPropertyOp12
 70
     1
102
RTVSPropertyOp13
 70
     1
102
RTVSPropertyOp14
 70
     1
102
RTVSPropertyOp15
 70
     1
102
RTVSPropertyOp16
 70
     1
102
RTVSPropertyOp17
 70
     1
102
RTVSPropertyOp18
 70
     1
102
RTVSPropertyOp19
 70
     1
102
RTVSPropertyOp20
 70
     1
102
RTVSPropertyOp21
 70
     1
102
RTVSPropertyOp22
 70
     1
102
RTVSPropertyOp23
 70
     1
102
RTVSPropertyOp24
 70
     1
102
RTVSPropertyOp25
 70
     1
102
RTVSPropertyOp26
 70
     1
102
RTVSPropertyOp27
 70
     1
102
RTVSPropertyOp28
 70
     1
102
RTVSPropertyOp29
 70
     1
102
RTVSPropertyOp30
 70
     1
102
RTVSPropertyOp31
 70
     1
102
RTVSPropertyOp32
 70
     1
102
RTVSPropertyOp33
 70
     1
102
RTVSPropertyOp34
 70
     1
102
RTVSPropertyOp35
 70
     1
102
RTVSPropertyOp36
 70
     1
102
RTVSPropertyOp37
 70
     1
102
RTVSPropertyOp38
 70
     1
102
RTVSPropertyOp39
 70
     1
102
RTVSPropertyOp40
 70
     1
102
RTVSPropertyOp41
 70
     1
102
RTVSPropertyOp42
 70
     1
102
RTVSPropertyOp43
 70
     1
102
RTVSPropertyOp44
 70
     1
102
RTVSPropertyOp45
 70
     1
102
RTVSPropertyOp46
 70
     1
102
RTVSPropertyOp47
 70
     1
102
RTVSPropertyOp48
 70
     1
102
RTVSPropertyOp49
 70
     1
102
RTVSPropertyOp50
 70
     1
102
RTVSPropertyOp51
 70
     0
102
RTVSPropertyOp52
 70
     0
102
RTVSPropertyOp53
 70
     1
102
RTVSPropertyOp54
 70
     1
102
RTVSPropertyOp55
 70
     1
102
RTVSPropertyOp56
 70
     1
102
RTVSPropertyOp57
 70
     1
102
RTVSPost2010Prop28
280
     0
102
RTVSPost2010PropOp28
 70
     1
102
RTVSPost2010Prop29
280
     1
102
RTVSPost2010PropOp29
 70
     1
102
RTVSPost2010Prop30
280
     1
102
RTVSPost2010PropOp30
 70
     1
102
RTVSPost2010Prop31
280
     0
102
RTVSPost2010PropOp31
 70
     1
102
RTVSPost2010Prop32
280
     0
102
RTVSPost2010PropOp32
 70
     1
102
RTVSPost2010Prop33
280
     0
102
RTVSPost2010PropOp33
 70
     1
102
RTVSPost2010Prop34
280
     0
102
RTVSPost2010PropOp34
 70
     1
102
RTVSPost2010Prop35
280
     0
102
RTVSPost2010PropOp35
 70
     1
102
RTVSPost2010Prop36
280
     0
102
RTVSPost2010PropOp36
 70
     1
102
RTVSPost2010Prop37
 90
       50
102
RTVSPost2010PropOp37
 70
     1
102
RTVSPost2010Prop38
140
0.0
102
RTVSPost2010PropOp38
 70
     1
102
RTVSPost2010Prop39
140
1.0
102
RTVSPost2010PropOp39
 70
     1
102
RTVSPost2010Prop40
 90
        0
102
RTVSPost2010PropOp40
 70
     1
102
RTVSPost2010Prop41ColorIndex
 90
       18
102
RTVSPost2010Prop41ColorRGB
 90
        0
102
RTVSPost2010PropOp41
 70
     1
102
RTVSPost2010Prop42
 90
       50
102
RTVSPost2010PropOp42
 70
     1
102
RTVSPost2010Prop43
 90
        3
102
RTVSPost2010PropOp43
 70
     1
102
RTVSPost2010Prop44ColorIndex
 90
        5
102
RTVSPost2010Prop44ColorRGB
 90
      255
102
RTVSPost2010PropOp44
 70
     1
102
RTVSPost2010Prop45
280
     0
102
RTVSPost2010PropOp45
 70
     1
102
RTVSPost2010Prop46
 90
       50
102
RTVSPost2010PropOp46
 70
     1
102
RTVSPost2010Prop47
 90
       50
102
RTVSPost2010PropOp47
 70
     1
102
RTVSPost2010Prop48
 90
       50
102
RTVSPost2010PropOp48
 70
     1
102
RTVSPost2010Prop49
280
     0
102
RTVSPost2010PropOp49
 70
     1
102
RTVSPost2010Prop50
 90
       50
102
RTVSPost2010PropOp50
 70
     1
102
RTVSPost2010Prop51ColorIndex
 90
      256
102
RTVSPost2010Prop51ColorRGB
 90
-16777216
102
RTVSPost2010PropOp51
 70
     0
102
RTVSPost2010Prop52
140
1.0
102
RTVSPost2010PropOp52
 70
     0
102
RTVSPost2010Prop53
 90
        2
102
RTVSPost2010PropOp53
 70
     1
102
RTVSPost2010Prop54
  1
strokes_ogs.tif
102
RTVSPost2010PropOp54
 70
     1
102
RTVSPost2010Prop55
280
     0
102
RTVSPost2010PropOp55
 70
     1
102
RTVSPost2010Prop56
140
1.0
102
RTVSPost2010PropOp56
 70
     1
102
RTVSPost2010Prop57
140
1.0
102
RTVSPost2010PropOp57
 70
     1
  0
XRECORD
  5
518
102
{ACAD_REACTORS
330
517
102
}
330
517
100
AcDbXrecord
280
     1
102
RTVSPropertyOp0
 70
     1
102
RTVSPropertyOp1
 70
     1
102
RTVSPropertyOp2
 70
     1
102
RTVSPropertyOp3
 70
     1
102
RTVSPropertyOp4
 70
     1
102
RTVSPropertyOp5
 70
     1
102
RTVSPropertyOp6
 70
     1
102
RTVSPropertyOp7
 70
     1
102
RTVSPropertyOp8
 70
     1
102
RTVSPropertyOp9
 70
     1
102
RTVSPropertyOp10
 70
     1
102
RTVSPropertyOp11
 70
     1
102
RTVSPropertyOp12
 70
     1
102
RTVSPropertyOp13
 70
     1
102
RTVSPropertyOp14
 70
     1
102
RTVSPropertyOp15
 70
     1
102
RTVSPropertyOp16
 70
     1
102
RTVSPropertyOp17
 70
     1
102
RTVSPropertyOp18
 70
     1
102
RTVSPropertyOp19
 70
     1
102
RTVSPropertyOp20
 70
     1
102
RTVSPropertyOp21
 70
     1
102
RTVSPropertyOp22
 70
     1
102
RTVSPropertyOp23
 70
     1
102
RTVSPropertyOp24
 70
     1
102
RTVSPropertyOp25
 70
     1
102
RTVSPropertyOp26
 70
     1
102
RTVSPropertyOp27
 70
     1
102
RTVSPropertyOp28
 70
     1
102
RTVSPropertyOp29
 70
     1
102
RTVSPropertyOp30
 70
     1
102
RTVSPropertyOp31
 70
     1
102
RTVSPropertyOp32
 70
     1
102
RTVSPropertyOp33
 70
     1
102
RTVSPropertyOp34
 70
     1
102
RTVSPropertyOp35
 70
     1
102
RTVSPropertyOp36
 70
     1
102
RTVSPropertyOp37
 70
     1
102
RTVSPropertyOp38
 70
     1
102
RTVSPropertyOp39
 70
     1
102
RTVSPropertyOp40
 70
     1
102
RTVSPropertyOp41
 70
     1
102
RTVSPropertyOp42
 70
     1
102
RTVSPropertyOp43
 70
     1
102
RTVSPropertyOp44
 70
     1
102
RTVSPropertyOp45
 70
     1
102
RTVSPropertyOp46
 70
     1
102
RTVSPropertyOp47
 70
     1
102
RTVSPropertyOp48
 70
     1
102
RTVSPropertyOp49
 70
     1
102
RTVSPropertyOp50
 70
     1
102
RTVSPropertyOp51
 70
     0
102
RTVSPropertyOp52
 70
     0
102
RTVSPropertyOp53
 70
     1
102
RTVSPropertyOp54
 70
     1
102
RTVSPropertyOp55
 70
     1
102
RTVSPropertyOp56
 70
     1
102
RTVSPropertyOp57
 70
     1
102
RTVSPost2010Prop28
280
     0
102
RTVSPost2010PropOp28
 70
     1
102
RTVSPost2010Prop29
280
     1
102
RTVSPost2010PropOp29
 70
     1
102
RTVSPost2010Prop30
280
     1
102
RTVSPost2010PropOp30
 70
     1
102
RTVSPost2010Prop31
280
     0
102
RTVSPost2010PropOp31
 70
     1
102
RTVSPost2010Prop32
280
     0
102
RTVSPost2010PropOp32
 70
     1
102
RTVSPost2010Prop33
280
     0
102
RTVSPost2010PropOp33
 70
     1
102
RTVSPost2010Prop34
280
     0
102
RTVSPost2010PropOp34
 70
     1
102
RTVSPost2010Prop35
280
     0
102
RTVSPost2010PropOp35
 70
     1
102
RTVSPost2010Prop36
280
     0
102
RTVSPost2010PropOp36
 70
     1
102
RTVSPost2010Prop37
 90
       50
102
RTVSPost2010PropOp37
 70
     1
102
RTVSPost2010Prop38
140
0.0
102
RTVSPost2010PropOp38
 70
     1
102
RTVSPost2010Prop39
140
1.0
102
RTVSPost2010PropOp39
 70
     1
102
RTVSPost2010Prop40
 90
        0
102
RTVSPost2010PropOp40
 70
     1
102
RTVSPost2010Prop41ColorIndex
 90
       18
102
RTVSPost2010Prop41ColorRGB
 90
        0
102
RTVSPost2010PropOp41
 70
     1
102
RTVSPost2010Prop42
 90
       50
102
RTVSPost2010PropOp42
 70
     1
102
RTVSPost2010Prop43
 90
        3
102
RTVSPost2010PropOp43
 70
     1
102
RTVSPost2010Prop44ColorIndex
 90
        5
102
RTVSPost2010Prop44ColorRGB
 90
      255
102
RTVSPost2010PropOp44
 70
     1
102
RTVSPost2010Prop45
280
     0
102
RTVSPost2010PropOp45
 70
     1
102
RTVSPost2010Prop46
 90
       50
102
RTVSPost2010PropOp46
 70
     1
102
RTVSPost2010Prop47
 90
       50
102
RTVSPost2010PropOp47
 70
     1
102
RTVSPost2010Prop48
 90
       50
102
RTVSPost2010PropOp48
 70
     1
102
RTVSPost2010Prop49
280
     0
102
RTVSPost2010PropOp49
 70
     1
102
RTVSPost2010Prop50
 90
       50
102
RTVSPost2010PropOp50
 70
     1
102
RTVSPost2010Prop51ColorIndex
 90
      256
102
RTVSPost2010Prop51ColorRGB
 90
-16777216
102
RTVSPost2010PropOp51
 70
     0
102
RTVSPost2010Prop52
140
1.0
102
RTVSPost2010PropOp52
 70
     0
102
RTVSPost2010Prop53
 90
        2
102
RTVSPost2010PropOp53
 70
     1
102
RTVSPost2010Prop54
  1
strokes_ogs.tif
102
RTVSPost2010PropOp54
 70
     1
102
RTVSPost2010Prop55
280
     0
102
RTVSPost2010PropOp55
 70
     1
102
RTVSPost2010Prop56
140
1.0
102
RTVSPost2010PropOp56
 70
     1
102
RTVSPost2010Prop57
140
1.0
102
RTVSPost2010PropOp57
 70
     1
  0
XRECORD
  5
52C
102
{ACAD_REACTORS
330
52B
102
}
330
52B
100
AcDbXrecord
280
     1
102
RTVSPropertyOp0
 70
     0
102
RTVSPropertyOp1
 70
     0
102
RTVSPropertyOp2
 70
     0
102
RTVSPropertyOp3
 70
     0
102
RTVSPropertyOp4
 70
     0
102
RTVSPropertyOp5
 70
     0
102
RTVSPropertyOp6
 70
     0
102
RTVSPropertyOp7
 70
     0
102
RTVSPropertyOp8
 70
     0
102
RTVSPropertyOp9
 70
     0
102
RTVSPropertyOp10
 70
     0
102
RTVSPropertyOp11
 70
     0
102
RTVSPropertyOp12
 70
     0
102
RTVSPropertyOp13
 70
     0
102
RTVSPropertyOp14
 70
     0
102
RTVSPropertyOp15
 70
     0
102
RTVSPropertyOp16
 70
     0
102
RTVSPropertyOp17
 70
     0
102
RTVSPropertyOp18
 70
     0
102
RTVSPropertyOp19
 70
     0
102
RTVSPropertyOp20
 70
     0
102
RTVSPropertyOp21
 70
     0
102
RTVSPropertyOp22
 70
     0
102
RTVSPropertyOp23
 70
     0
102
RTVSPropertyOp24
 70
     0
102
RTVSPropertyOp25
 70
     0
102
RTVSPropertyOp26
 70
     0
102
RTVSPropertyOp27
 70
     0
102
RTVSPropertyOp28
 70
     1
102
RTVSPropertyOp29
 70
     1
102
RTVSPropertyOp30
 70
     1
102
RTVSPropertyOp31
 70
     1
102
RTVSPropertyOp32
 70
     1
102
RTVSPropertyOp33
 70
     1
102
RTVSPropertyOp34
 70
     1
102
RTVSPropertyOp35
 70
     1
102
RTVSPropertyOp36
 70
     1
102
RTVSPropertyOp37
 70
     1
102
RTVSPropertyOp38
 70
     1
102
RTVSPropertyOp39
 70
     1
102
RTVSPropertyOp40
 70
     1
102
RTVSPropertyOp41
 70
     1
102
RTVSPropertyOp42
 70
     1
102
RTVSPropertyOp43
 70
     1
102
RTVSPropertyOp44
 70
     1
102
RTVSPropertyOp45
 70
     1
102
RTVSPropertyOp46
 70
     1
102
RTVSPropertyOp47
 70
     1
102
RTVSPropertyOp48
 70
     1
102
RTVSPropertyOp49
 70
     1
102
RTVSPropertyOp50
 70
     1
102
RTVSPropertyOp51
 70
     0
102
RTVSPropertyOp52
 70
     0
102
RTVSPropertyOp53
 70
     1
102
RTVSPropertyOp54
 70
     1
102
RTVSPropertyOp55
 70
     1
102
RTVSPropertyOp56
 70
     1
102
RTVSPropertyOp57
 70
     1
102
RTVSPost2010Prop28
280
     0
102
RTVSPost2010PropOp28
 70
     1
102
RTVSPost2010Prop29
280
     1
102
RTVSPost2010PropOp29
 70
     1
102
RTVSPost2010Prop30
280
     1
102
RTVSPost2010PropOp30
 70
     1
102
RTVSPost2010Prop31
280
     0
102
RTVSPost2010PropOp31
 70
     1
102
RTVSPost2010Prop32
280
     0
102
RTVSPost2010PropOp32
 70
     1
102
RTVSPost2010Prop33
280
     0
102
RTVSPost2010PropOp33
 70
     1
102
RTVSPost2010Prop34
280
     0
102
RTVSPost2010PropOp34
 70
     1
102
RTVSPost2010Prop35
280
     0
102
RTVSPost2010PropOp35
 70
     1
102
RTVSPost2010Prop36
280
     0
102
RTVSPost2010PropOp36
 70
     1
102
RTVSPost2010Prop37
 90
       50
102
RTVSPost2010PropOp37
 70
     1
102
RTVSPost2010Prop38
140
0.0
102
RTVSPost2010PropOp38
 70
     1
102
RTVSPost2010Prop39
140
1.0
102
RTVSPost2010PropOp39
 70
     1
102
RTVSPost2010Prop40
 90
        0
102
RTVSPost2010PropOp40
 70
     1
102
RTVSPost2010Prop41ColorIndex
 90
       18
102
RTVSPost2010Prop41ColorRGB
 90
        0
102
RTVSPost2010PropOp41
 70
     1
102
RTVSPost2010Prop42
 90
       50
102
RTVSPost2010PropOp42
 70
     1
102
RTVSPost2010Prop43
 90
        3
102
RTVSPost2010PropOp43
 70
     1
102
RTVSPost2010Prop44ColorIndex
 90
        5
102
RTVSPost2010Prop44ColorRGB
 90
      255
102
RTVSPost2010PropOp44
 70
     1
102
RTVSPost2010Prop45
280
     0
102
RTVSPost2010PropOp45
 70
     1
102
RTVSPost2010Prop46
 90
       50
102
RTVSPost2010PropOp46
 70
     1
102
RTVSPost2010Prop47
 90
       50
102
RTVSPost2010PropOp47
 70
     1
102
RTVSPost2010Prop48
 90
       50
102
RTVSPost2010PropOp48
 70
     1
102
RTVSPost2010Prop49
280
     0
102
RTVSPost2010PropOp49
 70
     1
102
RTVSPost2010Prop50
 90
       50
102
RTVSPost2010PropOp50
 70
     1
102
RTVSPost2010Prop51ColorIndex
 90
      256
102
RTVSPost2010Prop51ColorRGB
 90
-16777216
102
RTVSPost2010PropOp51
 70
     0
102
RTVSPost2010Prop52
140
1.0
102
RTVSPost2010PropOp52
 70
     0
102
RTVSPost2010Prop53
 90
        2
102
RTVSPost2010PropOp53
 70
     1
102
RTVSPost2010Prop54
  1
strokes_ogs.tif
102
RTVSPost2010PropOp54
 70
     1
102
RTVSPost2010Prop55
280
     0
102
RTVSPost2010PropOp55
 70
     1
102
RTVSPost2010Prop56
140
1.0
102
RTVSPost2010PropOp56
 70
     1
102
RTVSPost2010Prop57
140
1.0
102
RTVSPost2010PropOp57
 70
     1
  0
XRECORD
  5
526
102
{ACAD_REACTORS
330
525
102
}
330
525
100
AcDbXrecord
280
     1
102
RTVSPropertyOp0
 70
     1
102
RTVSPropertyOp1
 70
     1
102
RTVSPropertyOp2
 70
     1
102
RTVSPropertyOp3
 70
     1
102
RTVSPropertyOp4
 70
     1
102
RTVSPropertyOp5
 70
     1
102
RTVSPropertyOp6
 70
     1
102
RTVSPropertyOp7
 70
     1
102
RTVSPropertyOp8
 70
     1
102
RTVSPropertyOp9
 70
     1
102
RTVSPropertyOp10
 70
     1
102
RTVSPropertyOp11
 70
     1
102
RTVSPropertyOp12
 70
     1
102
RTVSPropertyOp13
 70
     1
102
RTVSPropertyOp14
 70
     1
102
RTVSPropertyOp15
 70
     1
102
RTVSPropertyOp16
 70
     1
102
RTVSPropertyOp17
 70
     1
102
RTVSPropertyOp18
 70
     1
102
RTVSPropertyOp19
 70
     1
102
RTVSPropertyOp20
 70
     1
102
RTVSPropertyOp21
 70
     1
102
RTVSPropertyOp22
 70
     1
102
RTVSPropertyOp23
 70
     1
102
RTVSPropertyOp24
 70
     1
102
RTVSPropertyOp25
 70
     1
102
RTVSPropertyOp26
 70
     1
102
RTVSPropertyOp27
 70
     1
102
RTVSPropertyOp28
 70
     1
102
RTVSPropertyOp29
 70
     1
102
RTVSPropertyOp30
 70
     1
102
RTVSPropertyOp31
 70
     1
102
RTVSPropertyOp32
 70
     1
102
RTVSPropertyOp33
 70
     1
102
RTVSPropertyOp34
 70
     1
102
RTVSPropertyOp35
 70
     1
102
RTVSPropertyOp36
 70
     1
102
RTVSPropertyOp37
 70
     1
102
RTVSPropertyOp38
 70
     1
102
RTVSPropertyOp39
 70
     1
102
RTVSPropertyOp40
 70
     1
102
RTVSPropertyOp41
 70
     1
102
RTVSPropertyOp42
 70
     1
102
RTVSPropertyOp43
 70
     1
102
RTVSPropertyOp44
 70
     1
102
RTVSPropertyOp45
 70
     1
102
RTVSPropertyOp46
 70
     1
102
RTVSPropertyOp47
 70
     1
102
RTVSPropertyOp48
 70
     1
102
RTVSPropertyOp49
 70
     1
102
RTVSPropertyOp50
 70
     1
102
RTVSPropertyOp51
 70
     0
102
RTVSPropertyOp52
 70
     0
102
RTVSPropertyOp53
 70
     1
102
RTVSPropertyOp54
 70
     1
102
RTVSPropertyOp55
 70
     1
102
RTVSPropertyOp56
 70
     1
102
RTVSPropertyOp57
 70
     1
102
RTVSPost2010Prop28
280
     0
102
RTVSPost2010PropOp28
 70
     1
102
RTVSPost2010Prop29
280
     1
102
RTVSPost2010PropOp29
 70
     1
102
RTVSPost2010Prop30
280
     1
102
RTVSPost2010PropOp30
 70
     1
102
RTVSPost2010Prop31
280
     0
102
RTVSPost2010PropOp31
 70
     1
102
RTVSPost2010Prop32
280
     0
102
RTVSPost2010PropOp32
 70
     1
102
RTVSPost2010Prop33
280
     0
102
RTVSPost2010PropOp33
 70
     1
102
RTVSPost2010Prop34
280
     0
102
RTVSPost2010PropOp34
 70
     1
102
RTVSPost2010Prop35
280
     0
102
RTVSPost2010PropOp35
 70
     1
102
RTVSPost2010Prop36
280
     0
102
RTVSPost2010PropOp36
 70
     1
102
RTVSPost2010Prop37
 90
       50
102
RTVSPost2010PropOp37
 70
     1
102
RTVSPost2010Prop38
140
0.0
102
RTVSPost2010PropOp38
 70
     1
102
RTVSPost2010Prop39
140
1.0
102
RTVSPost2010PropOp39
 70
     1
102
RTVSPost2010Prop40
 90
        0
102
RTVSPost2010PropOp40
 70
     1
102
RTVSPost2010Prop41ColorIndex
 90
       18
102
RTVSPost2010Prop41ColorRGB
 90
        0
102
RTVSPost2010PropOp41
 70
     1
102
RTVSPost2010Prop42
 90
       50
102
RTVSPost2010PropOp42
 70
     1
102
RTVSPost2010Prop43
 90
        3
102
RTVSPost2010PropOp43
 70
     1
102
RTVSPost2010Prop44ColorIndex
 90
        5
102
RTVSPost2010Prop44ColorRGB
 90
      255
102
RTVSPost2010PropOp44
 70
     1
102
RTVSPost2010Prop45
280
     0
102
RTVSPost2010PropOp45
 70
     1
102
RTVSPost2010Prop46
 90
       50
102
RTVSPost2010PropOp46
 70
     1
102
RTVSPost2010Prop47
 90
       50
102
RTVSPost2010PropOp47
 70
     1
102
RTVSPost2010Prop48
 90
       50
102
RTVSPost2010PropOp48
 70
     1
102
RTVSPost2010Prop49
280
     0
102
RTVSPost2010PropOp49
 70
     1
102
RTVSPost2010Prop50
 90
       50
102
RTVSPost2010PropOp50
 70
     1
102
RTVSPost2010Prop51ColorIndex
 90
      256
102
RTVSPost2010Prop51ColorRGB
 90
-16777216
102
RTVSPost2010PropOp51
 70
     0
102
RTVSPost2010Prop52
140
1.0
102
RTVSPost2010PropOp52
 70
     0
102
RTVSPost2010Prop53
 90
        2
102
RTVSPost2010PropOp53
 70
     1
102
RTVSPost2010Prop54
  1
strokes_ogs.tif
102
RTVSPost2010PropOp54
 70
     1
102
RTVSPost2010Prop55
280
     0
102
RTVSPost2010PropOp55
 70
     1
102
RTVSPost2010Prop56
140
1.0
102
RTVSPost2010PropOp56
 70
     1
102
RTVSPost2010Prop57
140
1.0
102
RTVSPost2010PropOp57
 70
     1
  0
XRECORD
  5
52E
102
{ACAD_REACTORS
330
52D
102
}
330
52D
100
AcDbXrecord
280
     1
102
RTVSPropertyOp0
 70
     0
102
RTVSPropertyOp1
 70
     0
102
RTVSPropertyOp2
 70
     0
102
RTVSPropertyOp3
 70
     0
102
RTVSPropertyOp4
 70
     0
102
RTVSPropertyOp5
 70
     0
102
RTVSPropertyOp6
 70
     0
102
RTVSPropertyOp7
 70
     0
102
RTVSPropertyOp8
 70
     0
102
RTVSPropertyOp9
 70
     0
102
RTVSPropertyOp10
 70
     0
102
RTVSPropertyOp11
 70
     0
102
RTVSPropertyOp12
 70
     0
102
RTVSPropertyOp13
 70
     0
102
RTVSPropertyOp14
 70
     0
102
RTVSPropertyOp15
 70
     0
102
RTVSPropertyOp16
 70
     0
102
RTVSPropertyOp17
 70
     0
102
RTVSPropertyOp18
 70
     0
102
RTVSPropertyOp19
 70
     0
102
RTVSPropertyOp20
 70
     0
102
RTVSPropertyOp21
 70
     0
102
RTVSPropertyOp22
 70
     0
102
RTVSPropertyOp23
 70
     0
102
RTVSPropertyOp24
 70
     0
102
RTVSPropertyOp25
 70
     0
102
RTVSPropertyOp26
 70
     0
102
RTVSPropertyOp27
 70
     0
102
RTVSPropertyOp28
 70
     1
102
RTVSPropertyOp29
 70
     1
102
RTVSPropertyOp30
 70
     1
102
RTVSPropertyOp31
 70
     1
102
RTVSPropertyOp32
 70
     1
102
RTVSPropertyOp33
 70
     1
102
RTVSPropertyOp34
 70
     1
102
RTVSPropertyOp35
 70
     1
102
RTVSPropertyOp36
 70
     1
102
RTVSPropertyOp37
 70
     1
102
RTVSPropertyOp38
 70
     1
102
RTVSPropertyOp39
 70
     1
102
RTVSPropertyOp40
 70
     1
102
RTVSPropertyOp41
 70
     1
102
RTVSPropertyOp42
 70
     1
102
RTVSPropertyOp43
 70
     1
102
RTVSPropertyOp44
 70
     1
102
RTVSPropertyOp45
 70
     1
102
RTVSPropertyOp46
 70
     1
102
RTVSPropertyOp47
 70
     1
102
RTVSPropertyOp48
 70
     1
102
RTVSPropertyOp49
 70
     1
102
RTVSPropertyOp50
 70
     1
102
RTVSPropertyOp51
 70
     0
102
RTVSPropertyOp52
 70
     0
102
RTVSPropertyOp53
 70
     1
102
RTVSPropertyOp54
 70
     1
102
RTVSPropertyOp55
 70
     1
102
RTVSPropertyOp56
 70
     1
102
RTVSPropertyOp57
 70
     1
102
RTVSPost2010Prop28
280
     0
102
RTVSPost2010PropOp28
 70
     1
102
RTVSPost2010Prop29
280
     1
102
RTVSPost2010PropOp29
 70
     1
102
RTVSPost2010Prop30
280
     1
102
RTVSPost2010PropOp30
 70
     1
102
RTVSPost2010Prop31
280
     0
102
RTVSPost2010PropOp31
 70
     1
102
RTVSPost2010Prop32
280
     0
102
RTVSPost2010PropOp32
 70
     1
102
RTVSPost2010Prop33
280
     0
102
RTVSPost2010PropOp33
 70
     1
102
RTVSPost2010Prop34
280
     0
102
RTVSPost2010PropOp34
 70
     1
102
RTVSPost2010Prop35
280
     0
102
RTVSPost2010PropOp35
 70
     1
102
RTVSPost2010Prop36
280
     0
102
RTVSPost2010PropOp36
 70
     1
102
RTVSPost2010Prop37
 90
       50
102
RTVSPost2010PropOp37
 70
     1
102
RTVSPost2010Prop38
140
0.0
102
RTVSPost2010PropOp38
 70
     1
102
RTVSPost2010Prop39
140
1.0
102
RTVSPost2010PropOp39
 70
     1
102
RTVSPost2010Prop40
 90
        0
102
RTVSPost2010PropOp40
 70
     1
102
RTVSPost2010Prop41ColorIndex
 90
       18
102
RTVSPost2010Prop41ColorRGB
 90
        0
102
RTVSPost2010PropOp41
 70
     1
102
RTVSPost2010Prop42
 90
       50
102
RTVSPost2010PropOp42
 70
     1
102
RTVSPost2010Prop43
 90
        3
102
RTVSPost2010PropOp43
 70
     1
102
RTVSPost2010Prop44ColorIndex
 90
        5
102
RTVSPost2010Prop44ColorRGB
 90
      255
102
RTVSPost2010PropOp44
 70
     1
102
RTVSPost2010Prop45
280
     0
102
RTVSPost2010PropOp45
 70
     1
102
RTVSPost2010Prop46
 90
       50
102
RTVSPost2010PropOp46
 70
     1
102
RTVSPost2010Prop47
 90
       50
102
RTVSPost2010PropOp47
 70
     1
102
RTVSPost2010Prop48
 90
       50
102
RTVSPost2010PropOp48
 70
     1
102
RTVSPost2010Prop49
280
     0
102
RTVSPost2010PropOp49
 70
     1
102
RTVSPost2010Prop50
 90
       50
102
RTVSPost2010PropOp50
 70
     1
102
RTVSPost2010Prop51ColorIndex
 90
      256
102
RTVSPost2010Prop51ColorRGB
 90
-16777216
102
RTVSPost2010PropOp51
 70
     0
102
RTVSPost2010Prop52
140
1.0
102
RTVSPost2010PropOp52
 70
     0
102
RTVSPost2010Prop53
 90
        2
102
RTVSPost2010PropOp53
 70
     1
102
RTVSPost2010Prop54
  1
strokes_ogs.tif
102
RTVSPost2010PropOp54
 70
     1
102
RTVSPost2010Prop55
280
     0
102
RTVSPost2010PropOp55
 70
     1
102
RTVSPost2010Prop56
140
1.0
102
RTVSPost2010PropOp56
 70
     1
102
RTVSPost2010Prop57
140
1.0
102
RTVSPost2010PropOp57
 70
     1
  0
XRECORD
  5
51C
102
{ACAD_REACTORS
330
51B
102
}
330
51B
100
AcDbXrecord
280
     1
102
RTVSPropertyOp0
 70
     1
102
RTVSPropertyOp1
 70
     1
102
RTVSPropertyOp2
 70
     1
102
RTVSPropertyOp3
 70
     1
102
RTVSPropertyOp4
 70
     1
102
RTVSPropertyOp5
 70
     1
102
RTVSPropertyOp6
 70
     1
102
RTVSPropertyOp7
 70
     1
102
RTVSPropertyOp8
 70
     1
102
RTVSPropertyOp9
 70
     1
102
RTVSPropertyOp10
 70
     1
102
RTVSPropertyOp11
 70
     1
102
RTVSPropertyOp12
 70
     1
102
RTVSPropertyOp13
 70
     1
102
RTVSPropertyOp14
 70
     1
102
RTVSPropertyOp15
 70
     1
102
RTVSPropertyOp16
 70
     1
102
RTVSPropertyOp17
 70
     1
102
RTVSPropertyOp18
 70
     1
102
RTVSPropertyOp19
 70
     1
102
RTVSPropertyOp20
 70
     1
102
RTVSPropertyOp21
 70
     1
102
RTVSPropertyOp22
 70
     1
102
RTVSPropertyOp23
 70
     1
102
RTVSPropertyOp24
 70
     1
102
RTVSPropertyOp25
 70
     1
102
RTVSPropertyOp26
 70
     1
102
RTVSPropertyOp27
 70
     1
102
RTVSPropertyOp28
 70
     1
102
RTVSPropertyOp29
 70
     1
102
RTVSPropertyOp30
 70
     1
102
RTVSPropertyOp31
 70
     1
102
RTVSPropertyOp32
 70
     1
102
RTVSPropertyOp33
 70
     1
102
RTVSPropertyOp34
 70
     1
102
RTVSPropertyOp35
 70
     1
102
RTVSPropertyOp36
 70
     1
102
RTVSPropertyOp37
 70
     1
102
RTVSPropertyOp38
 70
     1
102
RTVSPropertyOp39
 70
     1
102
RTVSPropertyOp40
 70
     1
102
RTVSPropertyOp41
 70
     1
102
RTVSPropertyOp42
 70
     1
102
RTVSPropertyOp43
 70
     1
102
RTVSPropertyOp44
 70
     1
102
RTVSPropertyOp45
 70
     1
102
RTVSPropertyOp46
 70
     1
102
RTVSPropertyOp47
 70
     1
102
RTVSPropertyOp48
 70
     1
102
RTVSPropertyOp49
 70
     1
102
RTVSPropertyOp50
 70
     1
102
RTVSPropertyOp51
 70
     0
102
RTVSPropertyOp52
 70
     0
102
RTVSPropertyOp53
 70
     1
102
RTVSPropertyOp54
 70
     1
102
RTVSPropertyOp55
 70
     1
102
RTVSPropertyOp56
 70
     1
102
RTVSPropertyOp57
 70
     1
102
RTVSPost2010Prop28
280
     0
102
RTVSPost2010PropOp28
 70
     1
102
RTVSPost2010Prop29
280
     1
102
RTVSPost2010PropOp29
 70
     1
102
RTVSPost2010Prop30
280
     1
102
RTVSPost2010PropOp30
 70
     1
102
RTVSPost2010Prop31
280
     0
102
RTVSPost2010PropOp31
 70
     1
102
RTVSPost2010Prop32
280
     0
102
RTVSPost2010PropOp32
 70
     1
102
RTVSPost2010Prop33
280
     0
102
RTVSPost2010PropOp33
 70
     1
102
RTVSPost2010Prop34
280
     0
102
RTVSPost2010PropOp34
 70
     1
102
RTVSPost2010Prop35
280
     0
102
RTVSPost2010PropOp35
 70
     1
102
RTVSPost2010Prop36
280
     0
102
RTVSPost2010PropOp36
 70
     1
102
RTVSPost2010Prop37
 90
       50
102
RTVSPost2010PropOp37
 70
     1
102
RTVSPost2010Prop38
140
0.0
102
RTVSPost2010PropOp38
 70
     1
102
RTVSPost2010Prop39
140
1.0
102
RTVSPost2010PropOp39
 70
     1
102
RTVSPost2010Prop40
 90
        0
102
RTVSPost2010PropOp40
 70
     1
102
RTVSPost2010Prop41ColorIndex
 90
       18
102
RTVSPost2010Prop41ColorRGB
 90
        0
102
RTVSPost2010PropOp41
 70
     1
102
RTVSPost2010Prop42
 90
       50
102
RTVSPost2010PropOp42
 70
     1
102
RTVSPost2010Prop43
 90
        3
102
RTVSPost2010PropOp43
 70
     1
102
RTVSPost2010Prop44ColorIndex
 90
        5
102
RTVSPost2010Prop44ColorRGB
 90
      255
102
RTVSPost2010PropOp44
 70
     1
102
RTVSPost2010Prop45
280
     0
102
RTVSPost2010PropOp45
 70
     1
102
RTVSPost2010Prop46
 90
       50
102
RTVSPost2010PropOp46
 70
     1
102
RTVSPost2010Prop47
 90
       50
102
RTVSPost2010PropOp47
 70
     1
102
RTVSPost2010Prop48
 90
       50
102
RTVSPost2010PropOp48
 70
     1
102
RTVSPost2010Prop49
280
     0
102
RTVSPost2010PropOp49
 70
     1
102
RTVSPost2010Prop50
 90
       50
102
RTVSPost2010PropOp50
 70
     1
102
RTVSPost2010Prop51ColorIndex
 90
      256
102
RTVSPost2010Prop51ColorRGB
 90
-16777216
102
RTVSPost2010PropOp51
 70
     0
102
RTVSPost2010Prop52
140
1.0
102
RTVSPost2010PropOp52
 70
     0
102
RTVSPost2010Prop53
 90
        2
102
RTVSPost2010PropOp53
 70
     1
102
RTVSPost2010Prop54
  1
strokes_ogs.tif
102
RTVSPost2010PropOp54
 70
     1
102
RTVSPost2010Prop55
280
     0
102
RTVSPost2010PropOp55
 70
     1
102
RTVSPost2010Prop56
140
1.0
102
RTVSPost2010PropOp56
 70
     1
102
RTVSPost2010Prop57
140
1.0
102
RTVSPost2010PropOp57
 70
     1
  0
XRECORD
  5
53A
102
{ACAD_REACTORS
330
539
102
}
330
539
100
AcDbXrecord
280
     1
102
RTVSPropertyOp0
 70
     1
102
RTVSPropertyOp1
 70
     1
102
RTVSPropertyOp2
 70
     1
102
RTVSPropertyOp3
 70
     1
102
RTVSPropertyOp4
 70
     1
102
RTVSPropertyOp5
 70
     1
102
RTVSPropertyOp6
 70
     1
102
RTVSPropertyOp7
 70
     1
102
RTVSPropertyOp8
 70
     1
102
RTVSPropertyOp9
 70
     1
102
RTVSPropertyOp10
 70
     1
102
RTVSPropertyOp11
 70
     1
102
RTVSPropertyOp12
 70
     1
102
RTVSPropertyOp13
 70
     1
102
RTVSPropertyOp14
 70
     1
102
RTVSPropertyOp15
 70
     1
102
RTVSPropertyOp16
 70
     1
102
RTVSPropertyOp17
 70
     1
102
RTVSPropertyOp18
 70
     1
102
RTVSPropertyOp19
 70
     1
102
RTVSPropertyOp20
 70
     1
102
RTVSPropertyOp21
 70
     1
102
RTVSPropertyOp22
 70
     1
102
RTVSPropertyOp23
 70
     1
102
RTVSPropertyOp24
 70
     1
102
RTVSPropertyOp25
 70
     1
102
RTVSPropertyOp26
 70
     1
102
RTVSPropertyOp27
 70
     1
102
RTVSPropertyOp28
 70
     1
102
RTVSPropertyOp29
 70
     1
102
RTVSPropertyOp30
 70
     1
102
RTVSPropertyOp31
 70
     1
102
RTVSPropertyOp32
 70
     1
102
RTVSPropertyOp33
 70
     1
102
RTVSPropertyOp34
 70
     1
102
RTVSPropertyOp35
 70
     1
102
RTVSPropertyOp36
 70
     1
102
RTVSPropertyOp37
 70
     1
102
RTVSPropertyOp38
 70
     1
102
RTVSPropertyOp39
 70
     1
102
RTVSPropertyOp40
 70
     1
102
RTVSPropertyOp41
 70
     1
102
RTVSPropertyOp42
 70
     1
102
RTVSPropertyOp43
 70
     1
102
RTVSPropertyOp44
 70
     1
102
RTVSPropertyOp45
 70
     1
102
RTVSPropertyOp46
 70
     1
102
RTVSPropertyOp47
 70
     1
102
RTVSPropertyOp48
 70
     1
102
RTVSPropertyOp49
 70
     1
102
RTVSPropertyOp50
 70
     1
102
RTVSPropertyOp51
 70
     0
102
RTVSPropertyOp52
 70
     0
102
RTVSPropertyOp53
 70
     1
102
RTVSPropertyOp54
 70
     1
102
RTVSPropertyOp55
 70
     1
102
RTVSPropertyOp56
 70
     1
102
RTVSPropertyOp57
 70
     1
102
RTVSPost2010Prop28
280
     0
102
RTVSPost2010PropOp28
 70
     1
102
RTVSPost2010Prop29
280
     1
102
RTVSPost2010PropOp29
 70
     1
102
RTVSPost2010Prop30
280
     1
102
RTVSPost2010PropOp30
 70
     1
102
RTVSPost2010Prop31
280
     0
102
RTVSPost2010PropOp31
 70
     1
102
RTVSPost2010Prop32
280
     0
102
RTVSPost2010PropOp32
 70
     1
102
RTVSPost2010Prop33
280
     0
102
RTVSPost2010PropOp33
 70
     1
102
RTVSPost2010Prop34
280
     0
102
RTVSPost2010PropOp34
 70
     1
102
RTVSPost2010Prop35
280
     0
102
RTVSPost2010PropOp35
 70
     1
102
RTVSPost2010Prop36
280
     0
102
RTVSPost2010PropOp36
 70
     1
102
RTVSPost2010Prop37
 90
       50
102
RTVSPost2010PropOp37
 70
     1
102
RTVSPost2010Prop38
140
0.0
102
RTVSPost2010PropOp38
 70
     1
102
RTVSPost2010Prop39
140
1.0
102
RTVSPost2010PropOp39
 70
     1
102
RTVSPost2010Prop40
 90
        0
102
RTVSPost2010PropOp40
 70
     1
102
RTVSPost2010Prop41ColorIndex
 90
       18
102
RTVSPost2010Prop41ColorRGB
 90
        0
102
RTVSPost2010PropOp41
 70
     1
102
RTVSPost2010Prop42
 90
       50
102
RTVSPost2010PropOp42
 70
     1
102
RTVSPost2010Prop43
 90
        3
102
RTVSPost2010PropOp43
 70
     1
102
RTVSPost2010Prop44ColorIndex
 90
        5
102
RTVSPost2010Prop44ColorRGB
 90
      255
102
RTVSPost2010PropOp44
 70
     1
102
RTVSPost2010Prop45
280
     0
102
RTVSPost2010PropOp45
 70
     1
102
RTVSPost2010Prop46
 90
       50
102
RTVSPost2010PropOp46
 70
     1
102
RTVSPost2010Prop47
 90
       50
102
RTVSPost2010PropOp47
 70
     1
102
RTVSPost2010Prop48
 90
       50
102
RTVSPost2010PropOp48
 70
     1
102
RTVSPost2010Prop49
280
     0
102
RTVSPost2010PropOp49
 70
     1
102
RTVSPost2010Prop50
 90
       50
102
RTVSPost2010PropOp50
 70
     1
102
RTVSPost2010Prop51ColorIndex
 90
      256
102
RTVSPost2010Prop51ColorRGB
 90
-16777216
102
RTVSPost2010PropOp51
 70
     0
102
RTVSPost2010Prop52
140
1.0
102
RTVSPost2010PropOp52
 70
     0
102
RTVSPost2010Prop53
 90
        2
102
RTVSPost2010PropOp53
 70
     1
102
RTVSPost2010Prop54
  1
strokes_ogs.tif
102
RTVSPost2010PropOp54
 70
     1
102
RTVSPost2010Prop55
280
     0
102
RTVSPost2010PropOp55
 70
     1
102
RTVSPost2010Prop56
140
1.0
102
RTVSPost2010PropOp56
 70
     1
102
RTVSPost2010Prop57
140
1.0
102
RTVSPost2010PropOp57
 70
     1
  0
XRECORD
  5
538
102
{ACAD_REACTORS
330
537
102
}
330
537
100
AcDbXrecord
280
     1
102
RTVSPropertyOp0
 70
     1
102
RTVSPropertyOp1
 70
     1
102
RTVSPropertyOp2
 70
     1
102
RTVSPropertyOp3
 70
     1
102
RTVSPropertyOp4
 70
     1
102
RTVSPropertyOp5
 70
     1
102
RTVSPropertyOp6
 70
     1
102
RTVSPropertyOp7
 70
     1
102
RTVSPropertyOp8
 70
     1
102
RTVSPropertyOp9
 70
     1
102
RTVSPropertyOp10
 70
     1
102
RTVSPropertyOp11
 70
     1
102
RTVSPropertyOp12
 70
     1
102
RTVSPropertyOp13
 70
     1
102
RTVSPropertyOp14
 70
     1
102
RTVSPropertyOp15
 70
     1
102
RTVSPropertyOp16
 70
     1
102
RTVSPropertyOp17
 70
     1
102
RTVSPropertyOp18
 70
     1
102
RTVSPropertyOp19
 70
     1
102
RTVSPropertyOp20
 70
     1
102
RTVSPropertyOp21
 70
     1
102
RTVSPropertyOp22
 70
     1
102
RTVSPropertyOp23
 70
     1
102
RTVSPropertyOp24
 70
     1
102
RTVSPropertyOp25
 70
     1
102
RTVSPropertyOp26
 70
     1
102
RTVSPropertyOp27
 70
     1
102
RTVSPropertyOp28
 70
     1
102
RTVSPropertyOp29
 70
     1
102
RTVSPropertyOp30
 70
     1
102
RTVSPropertyOp31
 70
     1
102
RTVSPropertyOp32
 70
     1
102
RTVSPropertyOp33
 70
     1
102
RTVSPropertyOp34
 70
     1
102
RTVSPropertyOp35
 70
     1
102
RTVSPropertyOp36
 70
     1
102
RTVSPropertyOp37
 70
     1
102
RTVSPropertyOp38
 70
     1
102
RTVSPropertyOp39
 70
     1
102
RTVSPropertyOp40
 70
     1
102
RTVSPropertyOp41
 70
     1
102
RTVSPropertyOp42
 70
     1
102
RTVSPropertyOp43
 70
     1
102
RTVSPropertyOp44
 70
     1
102
RTVSPropertyOp45
 70
     1
102
RTVSPropertyOp46
 70
     1
102
RTVSPropertyOp47
 70
     1
102
RTVSPropertyOp48
 70
     1
102
RTVSPropertyOp49
 70
     1
102
RTVSPropertyOp50
 70
     1
102
RTVSPropertyOp51
 70
     0
102
RTVSPropertyOp52
 70
     0
102
RTVSPropertyOp53
 70
     1
102
RTVSPropertyOp54
 70
     1
102
RTVSPropertyOp55
 70
     1
102
RTVSPropertyOp56
 70
     1
102
RTVSPropertyOp57
 70
     1
102
RTVSPost2010Prop28
280
     0
102
RTVSPost2010PropOp28
 70
     1
102
RTVSPost2010Prop29
280
     1
102
RTVSPost2010PropOp29
 70
     1
102
RTVSPost2010Prop30
280
     1
102
RTVSPost2010PropOp30
 70
     1
102
RTVSPost2010Prop31
280
     0
102
RTVSPost2010PropOp31
 70
     1
102
RTVSPost2010Prop32
280
     0
102
RTVSPost2010PropOp32
 70
     1
102
RTVSPost2010Prop33
280
     0
102
RTVSPost2010PropOp33
 70
     1
102
RTVSPost2010Prop34
280
     0
102
RTVSPost2010PropOp34
 70
     1
102
RTVSPost2010Prop35
280
     0
102
RTVSPost2010PropOp35
 70
     1
102
RTVSPost2010Prop36
280
     0
102
RTVSPost2010PropOp36
 70
     1
102
RTVSPost2010Prop37
 90
       50
102
RTVSPost2010PropOp37
 70
     1
102
RTVSPost2010Prop38
140
0.0
102
RTVSPost2010PropOp38
 70
     1
102
RTVSPost2010Prop39
140
1.0
102
RTVSPost2010PropOp39
 70
     1
102
RTVSPost2010Prop40
 90
        0
102
RTVSPost2010PropOp40
 70
     1
102
RTVSPost2010Prop41ColorIndex
 90
       18
102
RTVSPost2010Prop41ColorRGB
 90
        0
102
RTVSPost2010PropOp41
 70
     1
102
RTVSPost2010Prop42
 90
       50
102
RTVSPost2010PropOp42
 70
     1
102
RTVSPost2010Prop43
 90
        3
102
RTVSPost2010PropOp43
 70
     1
102
RTVSPost2010Prop44ColorIndex
 90
        5
102
RTVSPost2010Prop44ColorRGB
 90
      255
102
RTVSPost2010PropOp44
 70
     1
102
RTVSPost2010Prop45
280
     0
102
RTVSPost2010PropOp45
 70
     1
102
RTVSPost2010Prop46
 90
       50
102
RTVSPost2010PropOp46
 70
     1
102
RTVSPost2010Prop47
 90
       50
102
RTVSPost2010PropOp47
 70
     1
102
RTVSPost2010Prop48
 90
       50
102
RTVSPost2010PropOp48
 70
     1
102
RTVSPost2010Prop49
280
     0
102
RTVSPost2010PropOp49
 70
     1
102
RTVSPost2010Prop50
 90
       50
102
RTVSPost2010PropOp50
 70
     1
102
RTVSPost2010Prop51ColorIndex
 90
      256
102
RTVSPost2010Prop51ColorRGB
 90
-16777216
102
RTVSPost2010PropOp51
 70
     0
102
RTVSPost2010Prop52
140
1.0
102
RTVSPost2010PropOp52
 70
     0
102
RTVSPost2010Prop53
 90
        2
102
RTVSPost2010PropOp53
 70
     1
102
RTVSPost2010Prop54
  1
strokes_ogs.tif
102
RTVSPost2010PropOp54
 70
     1
102
RTVSPost2010Prop55
280
     0
102
RTVSPost2010PropOp55
 70
     1
102
RTVSPost2010Prop56
140
1.0
102
RTVSPost2010PropOp56
 70
     1
102
RTVSPost2010Prop57
140
1.0
102
RTVSPost2010PropOp57
 70
     1
  0
XRECORD
  5
532
102
{ACAD_REACTORS
330
531
102
}
330
531
100
AcDbXrecord
280
     1
102
RTVSPropertyOp0
 70
     1
102
RTVSPropertyOp1
 70
     1
102
RTVSPropertyOp2
 70
     1
102
RTVSPropertyOp3
 70
     1
102
RTVSPropertyOp4
 70
     1
102
RTVSPropertyOp5
 70
     1
102
RTVSPropertyOp6
 70
     1
102
RTVSPropertyOp7
 70
     1
102
RTVSPropertyOp8
 70
     1
102
RTVSPropertyOp9
 70
     1
102
RTVSPropertyOp10
 70
     1
102
RTVSPropertyOp11
 70
     1
102
RTVSPropertyOp12
 70
     1
102
RTVSPropertyOp13
 70
     1
102
RTVSPropertyOp14
 70
     1
102
RTVSPropertyOp15
 70
     1
102
RTVSPropertyOp16
 70
     1
102
RTVSPropertyOp17
 70
     1
102
RTVSPropertyOp18
 70
     1
102
RTVSPropertyOp19
 70
     1
102
RTVSPropertyOp20
 70
     1
102
RTVSPropertyOp21
 70
     1
102
RTVSPropertyOp22
 70
     1
102
RTVSPropertyOp23
 70
     1
102
RTVSPropertyOp24
 70
     1
102
RTVSPropertyOp25
 70
     1
102
RTVSPropertyOp26
 70
     1
102
RTVSPropertyOp27
 70
     1
102
RTVSPropertyOp28
 70
     1
102
RTVSPropertyOp29
 70
     1
102
RTVSPropertyOp30
 70
     1
102
RTVSPropertyOp31
 70
     1
102
RTVSPropertyOp32
 70
     1
102
RTVSPropertyOp33
 70
     1
102
RTVSPropertyOp34
 70
     1
102
RTVSPropertyOp35
 70
     1
102
RTVSPropertyOp36
 70
     1
102
RTVSPropertyOp37
 70
     1
102
RTVSPropertyOp38
 70
     1
102
RTVSPropertyOp39
 70
     1
102
RTVSPropertyOp40
 70
     1
102
RTVSPropertyOp41
 70
     1
102
RTVSPropertyOp42
 70
     1
102
RTVSPropertyOp43
 70
     1
102
RTVSPropertyOp44
 70
     1
102
RTVSPropertyOp45
 70
     1
102
RTVSPropertyOp46
 70
     1
102
RTVSPropertyOp47
 70
     1
102
RTVSPropertyOp48
 70
     1
102
RTVSPropertyOp49
 70
     1
102
RTVSPropertyOp50
 70
     1
102
RTVSPropertyOp51
 70
     0
102
RTVSPropertyOp52
 70
     0
102
RTVSPropertyOp53
 70
     1
102
RTVSPropertyOp54
 70
     1
102
RTVSPropertyOp55
 70
     1
102
RTVSPropertyOp56
 70
     1
102
RTVSPropertyOp57
 70
     1
102
RTVSPost2010Prop28
280
     0
102
RTVSPost2010PropOp28
 70
     1
102
RTVSPost2010Prop29
280
     1
102
RTVSPost2010PropOp29
 70
     1
102
RTVSPost2010Prop30
280
     1
102
RTVSPost2010PropOp30
 70
     1
102
RTVSPost2010Prop31
280
     0
102
RTVSPost2010PropOp31
 70
     1
102
RTVSPost2010Prop32
280
     0
102
RTVSPost2010PropOp32
 70
     1
102
RTVSPost2010Prop33
280
     0
102
RTVSPost2010PropOp33
 70
     1
102
RTVSPost2010Prop34
280
     0
102
RTVSPost2010PropOp34
 70
     1
102
RTVSPost2010Prop35
280
     0
102
RTVSPost2010PropOp35
 70
     1
102
RTVSPost2010Prop36
280
     0
102
RTVSPost2010PropOp36
 70
     1
102
RTVSPost2010Prop37
 90
       50
102
RTVSPost2010PropOp37
 70
     1
102
RTVSPost2010Prop38
140
0.0
102
RTVSPost2010PropOp38
 70
     1
102
RTVSPost2010Prop39
140
1.0
102
RTVSPost2010PropOp39
 70
     1
102
RTVSPost2010Prop40
 90
        0
102
RTVSPost2010PropOp40
 70
     1
102
RTVSPost2010Prop41ColorIndex
 90
       18
102
RTVSPost2010Prop41ColorRGB
 90
        0
102
RTVSPost2010PropOp41
 70
     1
102
RTVSPost2010Prop42
 90
       50
102
RTVSPost2010PropOp42
 70
     1
102
RTVSPost2010Prop43
 90
        3
102
RTVSPost2010PropOp43
 70
     1
102
RTVSPost2010Prop44ColorIndex
 90
        5
102
RTVSPost2010Prop44ColorRGB
 90
      255
102
RTVSPost2010PropOp44
 70
     1
102
RTVSPost2010Prop45
280
     0
102
RTVSPost2010PropOp45
 70
     1
102
RTVSPost2010Prop46
 90
       50
102
RTVSPost2010PropOp46
 70
     1
102
RTVSPost2010Prop47
 90
       50
102
RTVSPost2010PropOp47
 70
     1
102
RTVSPost2010Prop48
 90
       50
102
RTVSPost2010PropOp48
 70
     1
102
RTVSPost2010Prop49
280
     0
102
RTVSPost2010PropOp49
 70
     1
102
RTVSPost2010Prop50
 90
       50
102
RTVSPost2010PropOp50
 70
     1
102
RTVSPost2010Prop51ColorIndex
 90
      256
102
RTVSPost2010Prop51ColorRGB
 90
-16777216
102
RTVSPost2010PropOp51
 70
     0
102
RTVSPost2010Prop52
140
1.0
102
RTVSPost2010PropOp52
 70
     0
102
RTVSPost2010Prop53
 90
        2
102
RTVSPost2010PropOp53
 70
     1
102
RTVSPost2010Prop54
  1
strokes_ogs.tif
102
RTVSPost2010PropOp54
 70
     1
102
RTVSPost2010Prop55
280
     0
102
RTVSPost2010PropOp55
 70
     1
102
RTVSPost2010Prop56
140
1.0
102
RTVSPost2010PropOp56
 70
     1
102
RTVSPost2010Prop57
140
1.0
102
RTVSPost2010PropOp57
 70
     1
  0
XRECORD
  5
534
102
{ACAD_REACTORS
330
533
102
}
330
533
100
AcDbXrecord
280
     1
102
RTVSPropertyOp0
 70
     1
102
RTVSPropertyOp1
 70
     1
102
RTVSPropertyOp2
 70
     1
102
RTVSPropertyOp3
 70
     1
102
RTVSPropertyOp4
 70
     1
102
RTVSPropertyOp5
 70
     1
102
RTVSPropertyOp6
 70
     1
102
RTVSPropertyOp7
 70
     1
102
RTVSPropertyOp8
 70
     1
102
RTVSPropertyOp9
 70
     1
102
RTVSPropertyOp10
 70
     1
102
RTVSPropertyOp11
 70
     1
102
RTVSPropertyOp12
 70
     1
102
RTVSPropertyOp13
 70
     1
102
RTVSPropertyOp14
 70
     1
102
RTVSPropertyOp15
 70
     1
102
RTVSPropertyOp16
 70
     1
102
RTVSPropertyOp17
 70
     1
102
RTVSPropertyOp18
 70
     1
102
RTVSPropertyOp19
 70
     1
102
RTVSPropertyOp20
 70
     1
102
RTVSPropertyOp21
 70
     1
102
RTVSPropertyOp22
 70
     1
102
RTVSPropertyOp23
 70
     1
102
RTVSPropertyOp24
 70
     1
102
RTVSPropertyOp25
 70
     1
102
RTVSPropertyOp26
 70
     1
102
RTVSPropertyOp27
 70
     1
102
RTVSPropertyOp28
 70
     1
102
RTVSPropertyOp29
 70
     1
102
RTVSPropertyOp30
 70
     1
102
RTVSPropertyOp31
 70
     1
102
RTVSPropertyOp32
 70
     1
102
RTVSPropertyOp33
 70
     1
102
RTVSPropertyOp34
 70
     1
102
RTVSPropertyOp35
 70
     1
102
RTVSPropertyOp36
 70
     1
102
RTVSPropertyOp37
 70
     1
102
RTVSPropertyOp38
 70
     1
102
RTVSPropertyOp39
 70
     1
102
RTVSPropertyOp40
 70
     1
102
RTVSPropertyOp41
 70
     1
102
RTVSPropertyOp42
 70
     1
102
RTVSPropertyOp43
 70
     1
102
RTVSPropertyOp44
 70
     1
102
RTVSPropertyOp45
 70
     1
102
RTVSPropertyOp46
 70
     1
102
RTVSPropertyOp47
 70
     1
102
RTVSPropertyOp48
 70
     1
102
RTVSPropertyOp49
 70
     1
102
RTVSPropertyOp50
 70
     1
102
RTVSPropertyOp51
 70
     0
102
RTVSPropertyOp52
 70
     0
102
RTVSPropertyOp53
 70
     1
102
RTVSPropertyOp54
 70
     1
102
RTVSPropertyOp55
 70
     1
102
RTVSPropertyOp56
 70
     1
102
RTVSPropertyOp57
 70
     1
102
RTVSPost2010Prop28
280
     0
102
RTVSPost2010PropOp28
 70
     1
102
RTVSPost2010Prop29
280
     1
102
RTVSPost2010PropOp29
 70
     1
102
RTVSPost2010Prop30
280
     1
102
RTVSPost2010PropOp30
 70
     1
102
RTVSPost2010Prop31
280
     0
102
RTVSPost2010PropOp31
 70
     1
102
RTVSPost2010Prop32
280
     0
102
RTVSPost2010PropOp32
 70
     1
102
RTVSPost2010Prop33
280
     0
102
RTVSPost2010PropOp33
 70
     1
102
RTVSPost2010Prop34
280
     0
102
RTVSPost2010PropOp34
 70
     1
102
RTVSPost2010Prop35
280
     0
102
RTVSPost2010PropOp35
 70
     1
102
RTVSPost2010Prop36
280
     0
102
RTVSPost2010PropOp36
 70
     1
102
RTVSPost2010Prop37
 90
       50
102
RTVSPost2010PropOp37
 70
     1
102
RTVSPost2010Prop38
140
0.0
102
RTVSPost2010PropOp38
 70
     1
102
RTVSPost2010Prop39
140
1.0
102
RTVSPost2010PropOp39
 70
     1
102
RTVSPost2010Prop40
 90
        0
102
RTVSPost2010PropOp40
 70
     1
102
RTVSPost2010Prop41ColorIndex
 90
       18
102
RTVSPost2010Prop41ColorRGB
 90
        0
102
RTVSPost2010PropOp41
 70
     1
102
RTVSPost2010Prop42
 90
       50
102
RTVSPost2010PropOp42
 70
     1
102
RTVSPost2010Prop43
 90
        3
102
RTVSPost2010PropOp43
 70
     1
102
RTVSPost2010Prop44ColorIndex
 90
        5
102
RTVSPost2010Prop44ColorRGB
 90
      255
102
RTVSPost2010PropOp44
 70
     1
102
RTVSPost2010Prop45
280
     0
102
RTVSPost2010PropOp45
 70
     1
102
RTVSPost2010Prop46
 90
       50
102
RTVSPost2010PropOp46
 70
     1
102
RTVSPost2010Prop47
 90
       50
102
RTVSPost2010PropOp47
 70
     1
102
RTVSPost2010Prop48
 90
       50
102
RTVSPost2010PropOp48
 70
     1
102
RTVSPost2010Prop49
280
     0
102
RTVSPost2010PropOp49
 70
     1
102
RTVSPost2010Prop50
 90
       50
102
RTVSPost2010PropOp50
 70
     1
102
RTVSPost2010Prop51ColorIndex
 90
      256
102
RTVSPost2010Prop51ColorRGB
 90
-16777216
102
RTVSPost2010PropOp51
 70
     0
102
RTVSPost2010Prop52
140
1.0
102
RTVSPost2010PropOp52
 70
     0
102
RTVSPost2010Prop53
 90
        2
102
RTVSPost2010PropOp53
 70
     1
102
RTVSPost2010Prop54
  1
strokes_ogs.tif
102
RTVSPost2010PropOp54
 70
     1
102
RTVSPost2010Prop55
280
     0
102
RTVSPost2010PropOp55
 70
     1
102
RTVSPost2010Prop56
140
1.0
102
RTVSPost2010PropOp56
 70
     1
102
RTVSPost2010Prop57
140
1.0
102
RTVSPost2010PropOp57
 70
     1
  0
XRECORD
  5
524
102
{ACAD_REACTORS
330
523
102
}
330
523
100
AcDbXrecord
280
     1
102
RTVSPropertyOp0
 70
     1
102
RTVSPropertyOp1
 70
     1
102
RTVSPropertyOp2
 70
     1
102
RTVSPropertyOp3
 70
     1
102
RTVSPropertyOp4
 70
     1
102
RTVSPropertyOp5
 70
     1
102
RTVSPropertyOp6
 70
     1
102
RTVSPropertyOp7
 70
     1
102
RTVSPropertyOp8
 70
     1
102
RTVSPropertyOp9
 70
     1
102
RTVSPropertyOp10
 70
     1
102
RTVSPropertyOp11
 70
     1
102
RTVSPropertyOp12
 70
     1
102
RTVSPropertyOp13
 70
     1
102
RTVSPropertyOp14
 70
     1
102
RTVSPropertyOp15
 70
     1
102
RTVSPropertyOp16
 70
     1
102
RTVSPropertyOp17
 70
     1
102
RTVSPropertyOp18
 70
     1
102
RTVSPropertyOp19
 70
     1
102
RTVSPropertyOp20
 70
     1
102
RTVSPropertyOp21
 70
     1
102
RTVSPropertyOp22
 70
     1
102
RTVSPropertyOp23
 70
     1
102
RTVSPropertyOp24
 70
     1
102
RTVSPropertyOp25
 70
     1
102
RTVSPropertyOp26
 70
     1
102
RTVSPropertyOp27
 70
     1
102
RTVSPropertyOp28
 70
     1
102
RTVSPropertyOp29
 70
     1
102
RTVSPropertyOp30
 70
     1
102
RTVSPropertyOp31
 70
     1
102
RTVSPropertyOp32
 70
     1
102
RTVSPropertyOp33
 70
     1
102
RTVSPropertyOp34
 70
     1
102
RTVSPropertyOp35
 70
     1
102
RTVSPropertyOp36
 70
     1
102
RTVSPropertyOp37
 70
     1
102
RTVSPropertyOp38
 70
     1
102
RTVSPropertyOp39
 70
     1
102
RTVSPropertyOp40
 70
     1
102
RTVSPropertyOp41
 70
     1
102
RTVSPropertyOp42
 70
     1
102
RTVSPropertyOp43
 70
     1
102
RTVSPropertyOp44
 70
     1
102
RTVSPropertyOp45
 70
     1
102
RTVSPropertyOp46
 70
     1
102
RTVSPropertyOp47
 70
     1
102
RTVSPropertyOp48
 70
     1
102
RTVSPropertyOp49
 70
     1
102
RTVSPropertyOp50
 70
     1
102
RTVSPropertyOp51
 70
     0
102
RTVSPropertyOp52
 70
     0
102
RTVSPropertyOp53
 70
     1
102
RTVSPropertyOp54
 70
     1
102
RTVSPropertyOp55
 70
     1
102
RTVSPropertyOp56
 70
     1
102
RTVSPropertyOp57
 70
     1
102
RTVSPost2010Prop28
280
     0
102
RTVSPost2010PropOp28
 70
     1
102
RTVSPost2010Prop29
280
     1
102
RTVSPost2010PropOp29
 70
     1
102
RTVSPost2010Prop30
280
     1
102
RTVSPost2010PropOp30
 70
     1
102
RTVSPost2010Prop31
280
     0
102
RTVSPost2010PropOp31
 70
     1
102
RTVSPost2010Prop32
280
     0
102
RTVSPost2010PropOp32
 70
     1
102
RTVSPost2010Prop33
280
     0
102
RTVSPost2010PropOp33
 70
     1
102
RTVSPost2010Prop34
280
     0
102
RTVSPost2010PropOp34
 70
     1
102
RTVSPost2010Prop35
280
     0
102
RTVSPost2010PropOp35
 70
     1
102
RTVSPost2010Prop36
280
     0
102
RTVSPost2010PropOp36
 70
     1
102
RTVSPost2010Prop37
 90
       50
102
RTVSPost2010PropOp37
 70
     1
102
RTVSPost2010Prop38
140
0.0
102
RTVSPost2010PropOp38
 70
     1
102
RTVSPost2010Prop39
140
1.0
102
RTVSPost2010PropOp39
 70
     1
102
RTVSPost2010Prop40
 90
        0
102
RTVSPost2010PropOp40
 70
     1
102
RTVSPost2010Prop41ColorIndex
 90
       18
102
RTVSPost2010Prop41ColorRGB
 90
        0
102
RTVSPost2010PropOp41
 70
     1
102
RTVSPost2010Prop42
 90
       50
102
RTVSPost2010PropOp42
 70
     1
102
RTVSPost2010Prop43
 90
        3
102
RTVSPost2010PropOp43
 70
     1
102
RTVSPost2010Prop44ColorIndex
 90
        5
102
RTVSPost2010Prop44ColorRGB
 90
      255
102
RTVSPost2010PropOp44
 70
     1
102
RTVSPost2010Prop45
280
     0
102
RTVSPost2010PropOp45
 70
     1
102
RTVSPost2010Prop46
 90
       50
102
RTVSPost2010PropOp46
 70
     1
102
RTVSPost2010Prop47
 90
       50
102
RTVSPost2010PropOp47
 70
     1
102
RTVSPost2010Prop48
 90
       50
102
RTVSPost2010PropOp48
 70
     1
102
RTVSPost2010Prop49
280
     0
102
RTVSPost2010PropOp49
 70
     1
102
RTVSPost2010Prop50
 90
       50
102
RTVSPost2010PropOp50
 70
     1
102
RTVSPost2010Prop51ColorIndex
 90
      256
102
RTVSPost2010Prop51ColorRGB
 90
-16777216
102
RTVSPost2010PropOp51
 70
     0
102
RTVSPost2010Prop52
140
1.0
102
RTVSPost2010PropOp52
 70
     0
102
RTVSPost2010Prop53
 90
        2
102
RTVSPost2010PropOp53
 70
     1
102
RTVSPost2010Prop54
  1
strokes_ogs.tif
102
RTVSPost2010PropOp54
 70
     1
102
RTVSPost2010Prop55
280
     0
102
RTVSPost2010PropOp55
 70
     1
102
RTVSPost2010Prop56
140
1.0
102
RTVSPost2010PropOp56
 70
     1
102
RTVSPost2010Prop57
140
1.0
102
RTVSPost2010PropOp57
 70
     1
  0
XRECORD
  5
516
102
{ACAD_REACTORS
330
515
102
}
330
515
100
AcDbXrecord
280
     1
102
RTVSPropertyOp0
 70
     1
102
RTVSPropertyOp1
 70
     1
102
RTVSPropertyOp2
 70
     1
102
RTVSPropertyOp3
 70
     1
102
RTVSPropertyOp4
 70
     1
102
RTVSPropertyOp5
 70
     1
102
RTVSPropertyOp6
 70
     1
102
RTVSPropertyOp7
 70
     1
102
RTVSPropertyOp8
 70
     1
102
RTVSPropertyOp9
 70
     1
102
RTVSPropertyOp10
 70
     1
102
RTVSPropertyOp11
 70
     1
102
RTVSPropertyOp12
 70
     1
102
RTVSPropertyOp13
 70
     1
102
RTVSPropertyOp14
 70
     1
102
RTVSPropertyOp15
 70
     1
102
RTVSPropertyOp16
 70
     1
102
RTVSPropertyOp17
 70
     1
102
RTVSPropertyOp18
 70
     1
102
RTVSPropertyOp19
 70
     1
102
RTVSPropertyOp20
 70
     1
102
RTVSPropertyOp21
 70
     1
102
RTVSPropertyOp22
 70
     1
102
RTVSPropertyOp23
 70
     1
102
RTVSPropertyOp24
 70
     1
102
RTVSPropertyOp25
 70
     1
102
RTVSPropertyOp26
 70
     1
102
RTVSPropertyOp27
 70
     1
102
RTVSPropertyOp28
 70
     1
102
RTVSPropertyOp29
 70
     1
102
RTVSPropertyOp30
 70
     1
102
RTVSPropertyOp31
 70
     1
102
RTVSPropertyOp32
 70
     1
102
RTVSPropertyOp33
 70
     1
102
RTVSPropertyOp34
 70
     1
102
RTVSPropertyOp35
 70
     1
102
RTVSPropertyOp36
 70
     1
102
RTVSPropertyOp37
 70
     1
102
RTVSPropertyOp38
 70
     1
102
RTVSPropertyOp39
 70
     1
102
RTVSPropertyOp40
 70
     1
102
RTVSPropertyOp41
 70
     1
102
RTVSPropertyOp42
 70
     1
102
RTVSPropertyOp43
 70
     1
102
RTVSPropertyOp44
 70
     1
102
RTVSPropertyOp45
 70
     1
102
RTVSPropertyOp46
 70
     1
102
RTVSPropertyOp47
 70
     1
102
RTVSPropertyOp48
 70
     1
102
RTVSPropertyOp49
 70
     1
102
RTVSPropertyOp50
 70
     1
102
RTVSPropertyOp51
 70
     0
102
RTVSPropertyOp52
 70
     0
102
RTVSPropertyOp53
 70
     1
102
RTVSPropertyOp54
 70
     1
102
RTVSPropertyOp55
 70
     1
102
RTVSPropertyOp56
 70
     1
102
RTVSPropertyOp57
 70
     1
102
RTVSPost2010Prop28
280
     0
102
RTVSPost2010PropOp28
 70
     1
102
RTVSPost2010Prop29
280
     1
102
RTVSPost2010PropOp29
 70
     1
102
RTVSPost2010Prop30
280
     1
102
RTVSPost2010PropOp30
 70
     1
102
RTVSPost2010Prop31
280
     0
102
RTVSPost2010PropOp31
 70
     1
102
RTVSPost2010Prop32
280
     0
102
RTVSPost2010PropOp32
 70
     1
102
RTVSPost2010Prop33
280
     0
102
RTVSPost2010PropOp33
 70
     1
102
RTVSPost2010Prop34
280
     0
102
RTVSPost2010PropOp34
 70
     1
102
RTVSPost2010Prop35
280
     0
102
RTVSPost2010PropOp35
 70
     1
102
RTVSPost2010Prop36
280
     0
102
RTVSPost2010PropOp36
 70
     1
102
RTVSPost2010Prop37
 90
       50
102
RTVSPost2010PropOp37
 70
     1
102
RTVSPost2010Prop38
140
0.0
102
RTVSPost2010PropOp38
 70
     1
102
RTVSPost2010Prop39
140
1.0
102
RTVSPost2010PropOp39
 70
     1
102
RTVSPost2010Prop40
 90
        0
102
RTVSPost2010PropOp40
 70
     1
102
RTVSPost2010Prop41ColorIndex
 90
       18
102
RTVSPost2010Prop41ColorRGB
 90
        0
102
RTVSPost2010PropOp41
 70
     1
102
RTVSPost2010Prop42
 90
       50
102
RTVSPost2010PropOp42
 70
     1
102
RTVSPost2010Prop43
 90
        3
102
RTVSPost2010PropOp43
 70
     1
102
RTVSPost2010Prop44ColorIndex
 90
        5
102
RTVSPost2010Prop44ColorRGB
 90
      255
102
RTVSPost2010PropOp44
 70
     1
102
RTVSPost2010Prop45
280
     0
102
RTVSPost2010PropOp45
 70
     1
102
RTVSPost2010Prop46
 90
       50
102
RTVSPost2010PropOp46
 70
     1
102
RTVSPost2010Prop47
 90
       50
102
RTVSPost2010PropOp47
 70
     1
102
RTVSPost2010Prop48
 90
       50
102
RTVSPost2010PropOp48
 70
     1
102
RTVSPost2010Prop49
280
     0
102
RTVSPost2010PropOp49
 70
     1
102
RTVSPost2010Prop50
 90
       50
102
RTVSPost2010PropOp50
 70
     1
102
RTVSPost2010Prop51ColorIndex
 90
      256
102
RTVSPost2010Prop51ColorRGB
 90
-16777216
102
RTVSPost2010PropOp51
 70
     0
102
RTVSPost2010Prop52
140
1.0
102
RTVSPost2010PropOp52
 70
     0
102
RTVSPost2010Prop53
 90
        2
102
RTVSPost2010PropOp53
 70
     1
102
RTVSPost2010Prop54
  1
strokes_ogs.tif
102
RTVSPost2010PropOp54
 70
     1
102
RTVSPost2010Prop55
280
     0
102
RTVSPost2010PropOp55
 70
     1
102
RTVSPost2010Prop56
140
1.0
102
RTVSPost2010PropOp56
 70
     1
102
RTVSPost2010Prop57
140
1.0
102
RTVSPost2010PropOp57
 70
     1
  0
XRECORD
  5
536
102
{ACAD_REACTORS
330
535
102
}
330
535
100
AcDbXrecord
280
     1
102
RTVSPropertyOp0
 70
     1
102
RTVSPropertyOp1
 70
     1
102
RTVSPropertyOp2
 70
     1
102
RTVSPropertyOp3
 70
     1
102
RTVSPropertyOp4
 70
     1
102
RTVSPropertyOp5
 70
     1
102
RTVSPropertyOp6
 70
     1
102
RTVSPropertyOp7
 70
     1
102
RTVSPropertyOp8
 70
     1
102
RTVSPropertyOp9
 70
     1
102
RTVSPropertyOp10
 70
     1
102
RTVSPropertyOp11
 70
     1
102
RTVSPropertyOp12
 70
     1
102
RTVSPropertyOp13
 70
     1
102
RTVSPropertyOp14
 70
     1
102
RTVSPropertyOp15
 70
     1
102
RTVSPropertyOp16
 70
     1
102
RTVSPropertyOp17
 70
     1
102
RTVSPropertyOp18
 70
     1
102
RTVSPropertyOp19
 70
     1
102
RTVSPropertyOp20
 70
     1
102
RTVSPropertyOp21
 70
     1
102
RTVSPropertyOp22
 70
     1
102
RTVSPropertyOp23
 70
     1
102
RTVSPropertyOp24
 70
     1
102
RTVSPropertyOp25
 70
     1
102
RTVSPropertyOp26
 70
     1
102
RTVSPropertyOp27
 70
     1
102
RTVSPropertyOp28
 70
     1
102
RTVSPropertyOp29
 70
     1
102
RTVSPropertyOp30
 70
     1
102
RTVSPropertyOp31
 70
     1
102
RTVSPropertyOp32
 70
     1
102
RTVSPropertyOp33
 70
     1
102
RTVSPropertyOp34
 70
     1
102
RTVSPropertyOp35
 70
     1
102
RTVSPropertyOp36
 70
     1
102
RTVSPropertyOp37
 70
     1
102
RTVSPropertyOp38
 70
     1
102
RTVSPropertyOp39
 70
     1
102
RTVSPropertyOp40
 70
     1
102
RTVSPropertyOp41
 70
     1
102
RTVSPropertyOp42
 70
     1
102
RTVSPropertyOp43
 70
     1
102
RTVSPropertyOp44
 70
     1
102
RTVSPropertyOp45
 70
     1
102
RTVSPropertyOp46
 70
     1
102
RTVSPropertyOp47
 70
     1
102
RTVSPropertyOp48
 70
     1
102
RTVSPropertyOp49
 70
     1
102
RTVSPropertyOp50
 70
     1
102
RTVSPropertyOp51
 70
     0
102
RTVSPropertyOp52
 70
     0
102
RTVSPropertyOp53
 70
     1
102
RTVSPropertyOp54
 70
     1
102
RTVSPropertyOp55
 70
     1
102
RTVSPropertyOp56
 70
     1
102
RTVSPropertyOp57
 70
     1
102
RTVSPost2010Prop28
280
     0
102
RTVSPost2010PropOp28
 70
     1
102
RTVSPost2010Prop29
280
     1
102
RTVSPost2010PropOp29
 70
     1
102
RTVSPost2010Prop30
280
     1
102
RTVSPost2010PropOp30
 70
     1
102
RTVSPost2010Prop31
280
     0
102
RTVSPost2010PropOp31
 70
     1
102
RTVSPost2010Prop32
280
     0
102
RTVSPost2010PropOp32
 70
     1
102
RTVSPost2010Prop33
280
     0
102
RTVSPost2010PropOp33
 70
     1
102
RTVSPost2010Prop34
280
     0
102
RTVSPost2010PropOp34
 70
     1
102
RTVSPost2010Prop35
280
     0
102
RTVSPost2010PropOp35
 70
     1
102
RTVSPost2010Prop36
280
     0
102
RTVSPost2010PropOp36
 70
     1
102
RTVSPost2010Prop37
 90
       50
102
RTVSPost2010PropOp37
 70
     1
102
RTVSPost2010Prop38
140
0.0
102
RTVSPost2010PropOp38
 70
     1
102
RTVSPost2010Prop39
140
1.0
102
RTVSPost2010PropOp39
 70
     1
102
RTVSPost2010Prop40
 90
        0
102
RTVSPost2010PropOp40
 70
     1
102
RTVSPost2010Prop41ColorIndex
 90
       18
102
RTVSPost2010Prop41ColorRGB
 90
        0
102
RTVSPost2010PropOp41
 70
     1
102
RTVSPost2010Prop42
 90
       50
102
RTVSPost2010PropOp42
 70
     1
102
RTVSPost2010Prop43
 90
        3
102
RTVSPost2010PropOp43
 70
     1
102
RTVSPost2010Prop44ColorIndex
 90
        5
102
RTVSPost2010Prop44ColorRGB
 90
      255
102
RTVSPost2010PropOp44
 70
     1
102
RTVSPost2010Prop45
280
     0
102
RTVSPost2010PropOp45
 70
     1
102
RTVSPost2010Prop46
 90
       50
102
RTVSPost2010PropOp46
 70
     1
102
RTVSPost2010Prop47
 90
       50
102
RTVSPost2010PropOp47
 70
     1
102
RTVSPost2010Prop48
 90
       50
102
RTVSPost2010PropOp48
 70
     1
102
RTVSPost2010Prop49
280
     0
102
RTVSPost2010PropOp49
 70
     1
102
RTVSPost2010Prop50
 90
       50
102
RTVSPost2010PropOp50
 70
     1
102
RTVSPost2010Prop51ColorIndex
 90
      256
102
RTVSPost2010Prop51ColorRGB
 90
-16777216
102
RTVSPost2010PropOp51
 70
     0
102
RTVSPost2010Prop52
140
1.0
102
RTVSPost2010PropOp52
 70
     0
102
RTVSPost2010Prop53
 90
        2
102
RTVSPost2010PropOp53
 70
     1
102
RTVSPost2010Prop54
  1
strokes_ogs.tif
102
RTVSPost2010PropOp54
 70
     1
102
RTVSPost2010Prop55
280
     0
102
RTVSPost2010PropOp55
 70
     1
102
RTVSPost2010Prop56
140
1.0
102
RTVSPost2010PropOp56
 70
     1
102
RTVSPost2010Prop57
140
1.0
102
RTVSPost2010PropOp57
 70
     1
  0
ENDSEC
  0
EOF
