  0
SECTION
  2
HEADER
  9
$ACADVER
  1
AC1015
  9
$ACADMAINTVER
 70
     6
  9
$DWGCODEPAGE
  3
ANSI_932
  9
$INSBASE
 10
692.6011598604582
 20
460.3903811256897
 30
0.0
  9
$EXTMIN
 10
80.33901588963204
 20
12.80665570200438
 30
0.0
  9
$EXTMAX
 10
543.5395381800427
 20
502.5788595042839
 30
0.0
  9
$LIMMIN
 10
0.0
 20
0.0
  9
$LIMMAX
 10
816.5000000000001
 20
565.0
  9
$ORTHOMODE
 70
     1
  9
$REGENMODE
 70
     1
  9
$FILLMODE
 70
     1
  9
$QTEXTMODE
 70
     0
  9
$MIRRTEXT
 70
     1
  9
$LTSCALE
 40
5.0
  9
$ATTMODE
 70
     1
  9
$TEXTSIZE
 40
4.5
  9
$TRACEWID
 40
0.05
  9
$TEXTSTYLE
  7
KANJI
  9
$CLAYER
  8
2
  9
$CELTYPE
  6
BYLAYER
  9
$CECOLOR
 62
   256
  9
$CELTSCALE
 40
1.0
  9
$DISPSILH
 70
     0
  9
$DIMSCALE
 40
1.5
  9
$DIMASZ
 40
2.0
  9
$DIMEXO
 40
0.5
  9
$DIMDLI
 40
0.0
  9
$DIMRND
 40
0.0
  9
$DIMDLE
 40
0.0
  9
$DIMEXE
 40
1.0
  9
$DIMTP
 40
0.0
  9
$DIMTM
 40
0.0
  9
$DIMTXT
 40
3.0
  9
$DIMCEN
 40
0.09
  9
$DIMTSZ
 40
0.0
  9
$DIMTOL
 70
     0
  9
$DIMLIM
 70
     0
  9
$DIMTIH
 70
     0
  9
$DIMTOH
 70
     0
  9
$DIMSE1
 70
     0
  9
$DIMSE2
 70
     0
  9
$DIMTAD
 70
     0
  9
$DIMZIN
 70
     8
  9
$DIMBLK
  1

  9
$DIMASO
 70
     0
  9
$DIMSHO
 70
     0
  9
$DIMPOST
  1

  9
$DIMAPOST
  1

  9
$DIMALT
 70
     0
  9
$DIMALTD
 70
     2
  9
$DIMALTF
 40
25.4
  9
$DIMLFAC
 40
1.0
  9
$DIMTOFL
 70
     1
  9
$DIMTVP
 40
1.0
  9
$DIMTIX
 70
     1
  9
$DIMSOXD
 70
     1
  9
$DIMSAH
 70
     0
  9
$DIMBLK1
  1

  9
$DIMBLK2
  1

  9
$DIMSTYLE
  2
STANDARD
  9
$DIMCLRD
 70
   256
  9
$DIMCLRE
 70
   256
  9
$DIMCLRT
 70
   256
  9
$DIMTFAC
 40
1.0
  9
$DIMGAP
 40
0.09
  9
$DIMJUST
 70
     0
  9
$DIMSD1
 70
     0
  9
$DIMSD2
 70
     0
  9
$DIMTOLJ
 70
     1
  9
$DIMTZIN
 70
     0
  9
$DIMALTZ
 70
     0
  9
$DIMALTTZ
 70
     0
  9
$DIMUPT
 70
     0
  9
$DIMDEC
 70
     1
  9
$DIMTDEC
 70
     4
  9
$DIMALTU
 70
     2
  9
$DIMALTTD
 70
     2
  9
$DIMTXSTY
  7
STANDARD
  9
$DIMAUNIT
 70
     0
  9
$DIMADEC
 70
     0
  9
$DIMALTRND
 40
0.0
  9
$DIMAZIN
 70
     0
  9
$DIMDSEP
 70
    46
  9
$DIMATFIT
 70
     3
  9
$DIMFRAC
 70
     0
  9
$DIMLDRBLK
  1

  9
$DIMLUNIT
 70
     2
  9
$DIMLWD
 70
    -2
  9
$DIMLWE
 70
    -2
  9
$DIMTMOVE
 70
     0
  9
$LUNITS
 70
     2
  9
$LUPREC
 70
     3
  9
$SKETCHINC
 40
0.1
  9
$FILLETRAD
 40
1.0
  9
$AUNITS
 70
     0
  9
$AUPREC
 70
     3
  9
$MENU
  1
C:\R13\WIN\SUPPORT\ACADFULL
  9
$ELEVATION
 40
0.0
  9
$PELEVATION
 40
0.0
  9
$THICKNESS
 40
0.0
  9
$LIMCHECK
 70
     0
  9
$CHAMFERA
 40
0.0
  9
$CHAMFERB
 40
0.0
  9
$CHAMFERC
 40
0.0
  9
$CHAMFERD
 40
0.0
  9
$SKPOLY
 70
     0
  9
$TDCREATE
 40
2449813.131805555
  9
$TDUCREATE
 40
2449812.756805555
  9
$TDUPDATE
 40
2457870.622854676
  9
$TDUUPDATE
 40
2457870.247854676
  9
$TDINDWG
 40
1.3113537847
  9
$TDUSRTIMER
 40
1.3113533912
  9
$USRTIMER
 70
     1
  9
$ANGBASE
 50
0.0
  9
$ANGDIR
 70
     0
  9
$PDMODE
 70
     0
  9
$PDSIZE
 40
0.0
  9
$PLINEWID
 40
0.0
  9
$SPLFRAME
 70
     0
  9
$SPLINETYPE
 70
     6
  9
$SPLINESEGS
 70
     8
  9
$HANDSEED
  5
51B
  9
$SURFTAB1
 70
     6
  9
$SURFTAB2
 70
     6
  9
$SURFTYPE
 70
     6
  9
$SURFU
 70
     6
  9
$SURFV
 70
     6
  9
$UCSBASE
  2

  9
$UCSNAME
  2

  9
$UCSORG
 10
0.0
 20
0.0
 30
0.0
  9
$UCSXDIR
 10
1.0
 20
0.0
 30
0.0
  9
$UCSYDIR
 10
0.0
 20
1.0
 30
0.0
  9
$UCSORTHOREF
  2

  9
$UCSORTHOVIEW
 70
     0
  9
$UCSORGTOP
 10
0.0
 20
0.0
 30
0.0
  9
$UCSORGBOTTOM
 10
0.0
 20
0.0
 30
0.0
  9
$UCSORGLEFT
 10
0.0
 20
0.0
 30
0.0
  9
$UCSORGRIGHT
 10
0.0
 20
0.0
 30
0.0
  9
$UCSORGFRONT
 10
0.0
 20
0.0
 30
0.0
  9
$UCSORGBACK
 10
0.0
 20
0.0
 30
0.0
  9
$PUCSBASE
  2

  9
$PUCSNAME
  2

  9
$PUCSORG
 10
0.0
 20
0.0
 30
0.0
  9
$PUCSXDIR
 10
1.0
 20
0.0
 30
0.0
  9
$PUCSYDIR
 10
0.0
 20
1.0
 30
0.0
  9
$PUCSORTHOREF
  2

  9
$PUCSORTHOVIEW
 70
     0
  9
$PUCSORGTOP
 10
0.0
 20
0.0
 30
0.0
  9
$PUCSORGBOTTOM
 10
0.0
 20
0.0
 30
0.0
  9
$PUCSORGLEFT
 10
0.0
 20
0.0
 30
0.0
  9
$PUCSORGRIGHT
 10
0.0
 20
0.0
 30
0.0
  9
$PUCSORGFRONT
 10
0.0
 20
0.0
 30
0.0
  9
$PUCSORGBACK
 10
0.0
 20
0.0
 30
0.0
  9
$USERI1
 70
     0
  9
$USERI2
 70
     0
  9
$USERI3
 70
     0
  9
$USERI4
 70
     0
  9
$USERI5
 70
     0
  9
$USERR1
 40
0.0
  9
$USERR2
 40
0.0
  9
$USERR3
 40
0.0
  9
$USERR4
 40
2448925.372986111
  9
$USERR5
 40
0.04166667
  9
$WORLDVIEW
 70
     1
  9
$SHADEDGE
 70
     3
  9
$SHADEDIF
 70
    70
  9
$TILEMODE
 70
     1
  9
$MAXACTVP
 70
    16
  9
$PINSBASE
 10
0.0
 20
0.0
 30
0.0
  9
$PLIMCHECK
 70
     0
  9
$PEXTMIN
 10
1.000000000000000E+20
 20
1.000000000000000E+20
 30
1.000000000000000E+20
  9
$PEXTMAX
 10
-1.000000000000000E+20
 20
-1.000000000000000E+20
 30
-1.000000000000000E+20
  9
$PLIMMIN
 10
0.0
 20
0.0
  9
$PLIMMAX
 10
12.0
 20
9.0
  9
$UNITMODE
 70
     0
  9
$VISRETAIN
 70
     0
  9
$PLINEGEN
 70
     0
  9
$PSLTSCALE
 70
     0
  9
$TREEDEPTH
 70
  3020
  9
$CMLSTYLE
  2
STANDARD
  9
$CMLJUST
 70
     0
  9
$CMLSCALE
 40
1.0
  9
$PROXYGRAPHICS
 70
     1
  9
$MEASUREMENT
 70
     0
  9
$CELWEIGHT
370
    -1
  9
$ENDCAPS
280
     0
  9
$JOINSTYLE
280
     0
  9
$LWDISPLAY
290
     0
  9
$INSUNITS
 70
     0
  9
$HYPERLINKBASE
  1

  9
$STYLESHEET
  1
monochrome.ctb
  9
$XEDIT
290
     1
  9
$CEPSNTYPE
380
     0
  9
$PSTYLEMODE
290
     1
  9
$FINGERPRINTGUID
  2
{B89A7537-14BE-40F1-AD2F-A71A7A412336}
  9
$VERSIONGUID
  2
{B1A70B16-DBE1-44B6-9A65-2B286648DF4E}
  9
$EXTNAMES
290
     1
  9
$PSVPSCALE
 40
0.0
  9
$OLESTARTUP
290
     0
  0
ENDSEC
  0
SECTION
  2
CLASSES
  0
CLASS
  1
ACDBDICTIONARYWDFLT
  2
AcDbDictionaryWithDefault
  3
ObjectDBX Classes
 90
        0
280
     0
281
     0
  0
CLASS
  1
MATERIAL
  2
AcDbMaterial
  3
ObjectDBX Classes
 90
     1153
280
     0
281
     0
  0
CLASS
  1
SORTENTSTABLE
  2
AcDbSortentsTable
  3
ObjectDBX Classes
 90
        0
280
     0
281
     0
  0
CLASS
  1
SCALE
  2
AcDbScale
  3
ObjectDBX Classes
 90
     1153
280
     0
281
     0
  0
CLASS
  1
DICTIONARYVAR
  2
AcDbDictionaryVar
  3
ObjectDBX Classes
 90
        0
280
     0
281
     0
  0
CLASS
  1
VISUALSTYLE
  2
AcDbVisualStyle
  3
ObjectDBX Classes
 90
     4095
280
     0
281
     0
  0
CLASS
  1
MLEADERSTYLE
  2
AcDbMLeaderStyle
  3
ACDB_MLEADERSTYLE_CLASS
 90
     4095
280
     0
281
     0
  0
CLASS
  1
TABLESTYLE
  2
AcDbTableStyle
  3
ObjectDBX Classes
 90
     4095
280
     0
281
     0
  0
CLASS
  1
ACDBPLACEHOLDER
  2
AcDbPlaceHolder
  3
ObjectDBX Classes
 90
        0
280
     0
281
     0
  0
CLASS
  1
LAYOUT
  2
AcDbLayout
  3
ObjectDBX Classes
 90
        0
280
     0
281
     0
  0
ENDSEC
  0
SECTION
  2
TABLES
  0
TABLE
  2
VPORT
  5
25
102
{ACAD_XDICTIONARY
360
4E0
102
}
330
0
100
AcDbSymbolTable
 70
     2
  0
VPORT
  5
2B
330
25
100
AcDbSymbolTableRecord
100
AcDbViewportTableRecord
  2
*ACTIVE
 70
     0
 10
0.0
 20
0.0
 11
1.0
 21
1.0
 12
697.2166397448129
 22
204.5778729813561
 13
0.0
 23
0.0
 14
1.0
 24
1.0
 15
50.0
 25
50.0
 16
0.0
 26
0.0
 36
1.0
 17
0.0
 27
0.0
 37
0.0
 40
728.56088184976
 41
2.171641791044776
 42
50.0
 43
0.0
 44
0.0
 50
0.0
 51
0.0
 71
     0
 72
  5000
 73
     1
 74
     0
 75
     0
 76
     0
 77
     0
 78
     0
281
     0
 65
     1
110
0.0
120
0.0
130
0.0
111
1.0
121
0.0
131
0.0
112
0.0
122
1.0
132
0.0
 79
     0
146
0.0
  0
ENDTAB
  0
TABLE
  2
LTYPE
  5
9
330
0
100
AcDbSymbolTable
 70
     2
  0
LTYPE
  5
A
330
9
100
AcDbSymbolTableRecord
100
AcDbLinetypeTableRecord
  2
BYBLOCK
 70
     0
  3

 72
    65
 73
     0
 40
0.0
  0
LTYPE
  5
B
330
9
100
AcDbSymbolTableRecord
100
AcDbLinetypeTableRecord
  2
BYLAYER
 70
     0
  3

 72
    65
 73
     0
 40
0.0
  0
LTYPE
  5
8
330
9
100
AcDbSymbolTableRecord
100
AcDbLinetypeTableRecord
  2
CONTINUOUS
 70
     0
  3
Solid line
 72
    65
 73
     0
 40
0.0
  0
LTYPE
  5
73
330
9
100
AcDbSymbolTableRecord
100
AcDbLinetypeTableRecord
  2
CENTER
 70
     0
  3
____ _ ____ _ ____ _ ____ _ ____ _ ____ _ ____
 72
    65
 73
     4
 40
2.0
 49
1.25
 74
     0
 49
-0.25
 74
     0
 49
0.25
 74
     0
 49
-0.25
 74
     0
  0
ENDTAB
  0
TABLE
  2
LAYER
  5
2
330
0
100
AcDbSymbolTable
 70
     8
  0
LAYER
  5
19
330
2
100
AcDbSymbolTableRecord
100
AcDbLayerTableRecord
  2
0
 70
     0
 62
     7
  6
CONTINUOUS
370
    -3
390
3
  0
LAYER
  5
318
330
2
100
AcDbSymbolTableRecord
100
AcDbLayerTableRecord
  2
1
 70
     0
 62
     9
  6
CONTINUOUS
370
    -3
390
3
  0
LAYER
  5
1
330
2
100
AcDbSymbolTableRecord
100
AcDbLayerTableRecord
  2
2
 70
     0
 62
     4
  6
CONTINUOUS
370
    -3
390
3
  0
LAYER
  5
75
330
2
100
AcDbSymbolTableRecord
100
AcDbLayerTableRecord
  2
4
 70
     0
 62
     3
  6
CONTINUOUS
370
    -3
390
3
  0
LAYER
  5
72
330
2
100
AcDbSymbolTableRecord
100
AcDbLayerTableRecord
  2
L-CENTER
 70
     0
 62
     1
  6
CENTER
370
    -3
390
3
  0
LAYER
  5
C8
330
2
100
AcDbSymbolTableRecord
100
AcDbLayerTableRecord
  2
3
 70
     0
 62
     2
  6
CONTINUOUS
370
    -3
390
3
  0
LAYER
  5
312
330
2
100
AcDbSymbolTableRecord
100
AcDbLayerTableRecord
  2
5
 70
     0
 62
     6
  6
CONTINUOUS
370
    -3
390
3
  0
LAYER
  5
489
330
2
100
AcDbSymbolTableRecord
100
AcDbLayerTableRecord
  2
Defpoints
 70
     0
 62
     7
  6
CONTINUOUS
290
     0
370
    -3
390
3
  0
ENDTAB
  0
TABLE
  2
STYLE
  5
D
330
0
100
AcDbSymbolTable
 70
     2
  0
STYLE
  5
11
330
D
100
AcDbSymbolTableRecord
100
AcDbTextStyleTableRecord
  2
STANDARD
 70
     0
 40
0.0
 41
1.0
 50
0.0
 71
     0
 42
2.7
  3
TXT
  4

  0
STYLE
  5
C
330
D
100
AcDbSymbolTableRecord
100
AcDbTextStyleTableRecord
  2
KANJI
 70
     0
 40
0.0
 41
1.0
 50
0.0
 71
     0
 42
4.5
  3
TXT
  4
BIGFONT
  0
ENDTAB
  0
TABLE
  2
VIEW
  5
23
330
0
100
AcDbSymbolTable
 70
     0
  0
ENDTAB
  0
TABLE
  2
UCS
  5
24
330
0
100
AcDbSymbolTable
 70
     0
  0
ENDTAB
  0
TABLE
  2
APPID
  5
1E
330
0
100
AcDbSymbolTable
 70
     4
  0
APPID
  5
2A
330
1E
100
AcDbSymbolTableRecord
100
AcDbRegAppTableRecord
  2
ACAD
 70
     0
  0
APPID
  5
1D
330
1E
100
AcDbSymbolTableRecord
100
AcDbRegAppTableRecord
  2
ACAD_PSEXT
 70
     0
  0
APPID
  5
466
330
1E
100
AcDbSymbolTableRecord
100
AcDbRegAppTableRecord
  2
ACAD_MLEADERVER
 70
     0
  0
ENDTAB
  0
TABLE
  2
DIMSTYLE
  5
10
330
0
100
AcDbSymbolTable
 70
     1
100
AcDbDimStyleTable
  0
DIMSTYLE
105
F
330
10
100
AcDbSymbolTableRecord
100
AcDbDimStyleTableRecord
  2
STANDARD
 70
     0
178
     0
340
11
  0
ENDTAB
  0
TABLE
  2
BLOCK_RECORD
  5
14
330
0
100
AcDbSymbolTable
 70
     0
  0
BLOCK_RECORD
  5
15
102
{ACAD_XDICTIONARY
360
16
102
}
330
14
100
AcDbSymbolTableRecord
100
AcDbBlockTableRecord
  2
*MODEL_SPACE
340
1B
  0
BLOCK_RECORD
  5
1F
330
14
100
AcDbSymbolTableRecord
100
AcDbBlockTableRecord
  2
*PAPER_SPACE
340
22
  0
ENDTAB
  0
ENDSEC
  0
SECTION
  2
BLOCKS
  0
BLOCK
  5
18
330
15
100
AcDbEntity
  8
0
100
AcDbBlockBegin
  2
*MODEL_SPACE
 70
     0
 10
0.0
 20
0.0
 30
0.0
  3
*MODEL_SPACE
  1

  0
ENDBLK
  5
1A
330
15
100
AcDbEntity
  8
0
100
AcDbBlockEnd
  0
BLOCK
  5
20
330
1F
100
AcDbEntity
 67
     1
  8
0
100
AcDbBlockBegin
  2
*PAPER_SPACE
 70
     0
 10
0.0
 20
0.0
 30
0.0
  3
*PAPER_SPACE
  1

  0
ENDBLK
  5
21
330
1F
100
AcDbEntity
 67
     1
  8
0
100
AcDbBlockEnd
  0
ENDSEC
  0
SECTION
  2
ENTITIES
  0
LINE
  5
71
330
15
100
AcDbEntity
  8
L-CENTER
 48
1.5
100
AcDbLine
 10
543.1921261800426
 20
120.1849597020043
 30
0.0
 11
364.129467569664
 21
120.1849597020043
 31
0.0
  0
LINE
  5
74
330
15
100
AcDbEntity
  8
4
100
AcDbLine
 10
526.6750366800425
 20
154.6849597020043
 30
0.0
 11
396.6750361800428
 21
154.6849597020043
 31
0.0
  0
LINE
  5
78
330
15
100
AcDbEntity
  8
4
100
AcDbLine
 10
439.6750366800427
 20
72.18495970200428
 30
0.0
 11
483.6750361800428
 21
72.18495970200428
 31
0.0
  0
LINE
  5
79
330
15
100
AcDbEntity
  8
4
100
AcDbLine
 10
436.6750366800427
 20
67.18496020200433
 30
0.0
 11
486.6750361800428
 21
67.18496020200433
 31
0.0
  0
ARC
  5
7A
330
15
100
AcDbEntity
  8
4
100
AcDbCircle
 10
444.6288691800428
 20
69.68495920200422
 30
0.0
 40
1.0000005
100
AcDbArc
 50
270.0
 51
30.00000000000779
  0
LINE
  5
7B
330
15
100
AcDbEntity
  8
4
100
AcDbLine
 10
434.6752801800426
 20
175.5848377020043
 30
0.0
 11
488.6750356800426
 21
175.5848377020043
 31
0.0
  0
LINE
  5
7C
330
15
100
AcDbEntity
  8
4
100
AcDbLine
 10
485.1750361800428
 20
176.5848382020043
 30
0.0
 11
438.1750366800427
 21
176.5848382020043
 31
0.0
  0
LINE
  5
7D
330
15
100
AcDbEntity
  8
4
100
AcDbLine
 10
523.6750366800425
 20
168.5847397020043
 30
0.0
 11
399.6752806800428
 21
168.5847397020043
 31
0.0
  0
LINE
  5
7E
330
15
100
AcDbEntity
  8
4
100
AcDbLine
 10
524.6750356800426
 20
159.6849592020042
 30
0.0
 11
398.6750356800426
 21
159.6849592020042
 31
0.0
  0
LINE
  5
7F
330
15
100
AcDbEntity
  8
4
100
AcDbLine
 10
457.4250356800428
 20
169.6848382020042
 30
0.0
 11
432.6752806800428
 21
169.6848382020042
 31
0.0
  0
LINE
  5
84
330
15
100
AcDbEntity
  8
4
100
AcDbLine
 10
210.3066082456702
 20
185.1848377020043
 30
0.0
 11
210.3066082456702
 21
176.5848382020043
 31
0.0
  0
LINE
  5
85
330
15
100
AcDbEntity
  8
4
100
AcDbLine
 10
185.3066092456701
 20
185.1848377020043
 30
0.0
 11
185.3066092456701
 21
176.5848382020043
 31
0.0
  0
LINE
  5
87
330
15
100
AcDbEntity
  8
L-CENTER
 48
1.5
100
AcDbLine
 10
197.8066087456701
 20
227.5632637020043
 30
0.0
 11
197.80660874567
 21
12.80665570200421
 31
0.0
  0
LINE
  5
8A
330
15
100
AcDbEntity
  8
4
100
AcDbLine
 10
259.8066082456702
 20
168.5847397020043
 30
0.0
 11
135.80676224567
 21
168.5847397020043
 31
0.0
  0
LINE
  5
8B
330
15
100
AcDbEntity
  8
4
100
AcDbLine
 10
134.8067617456701
 20
159.6849592020042
 30
0.0
 11
260.8066087456701
 21
159.6849592020042
 31
0.0
  0
LINE
  5
8C
330
15
100
AcDbEntity
  8
4
100
AcDbLine
 10
262.8066082456702
 20
154.6849597020043
 30
0.0
 11
132.80676224567
 21
154.6849597020043
 31
0.0
  0
LINE
  5
8D
330
15
100
AcDbEntity
  8
4
100
AcDbLine
 10
261.8066077456701
 20
153.6849592020042
 30
0.0
 11
133.8067612456701
 21
153.6849592020042
 31
0.0
  0
LINE
  5
8E
330
15
100
AcDbEntity
  8
4
100
AcDbLine
 10
170.8067617456701
 20
175.5848377020043
 30
0.0
 11
224.8066087456701
 21
175.5848377020043
 31
0.0
  0
LINE
  5
8F
330
15
100
AcDbEntity
  8
4
100
AcDbLine
 10
221.3066092456701
 20
176.5848382020043
 30
0.0
 11
174.3066082456702
 21
176.5848382020043
 31
0.0
  0
LINE
  5
90
330
15
100
AcDbEntity
  8
4
100
AcDbLine
 10
174.0566087456699
 20
169.6848382020042
 30
0.0
 11
221.5566087456701
 21
169.6848382020044
 31
0.0
  0
LINE
  5
93
330
15
100
AcDbEntity
  8
L-CENTER
 48
1.5
100
AcDbLine
 10
315.274201601708
 20
120.1849597020043
 30
0.0
 11
80.33901588963211
 21
120.1849597020043
 31
0.0
  0
LINE
  5
94
330
15
100
AcDbEntity
  8
4
100
AcDbLine
 10
261.8066077456701
 20
86.68496020200433
 30
0.0
 11
133.8067612456701
 21
86.68496020200433
 31
0.0
  0
LINE
  5
95
330
15
100
AcDbEntity
  8
4
100
AcDbLine
 10
222.1080367456701
 20
67.18496020200433
 30
0.0
 11
173.5051792456701
 21
67.18496020200433
 31
0.0
  0
LINE
  5
96
330
15
100
AcDbEntity
  8
4
100
AcDbLine
 10
232.3066087456701
 20
72.18495970200428
 30
0.0
 11
163.3067617456701
 21
72.18495970200428
 31
0.0
  0
ARC
  5
97
330
15
100
AcDbEntity
  8
4
100
AcDbCircle
 10
157.3067617456701
 20
70.18496020200433
 30
0.0
 40
3.0
100
AcDbArc
 50
0.0
 51
90.0
  0
ARC
  5
98
330
15
100
AcDbEntity
  8
4
100
AcDbCircle
 10
129.80676224567
 20
77.18495920200422
 30
0.0
 40
4.0000005
100
AcDbArc
 50
270.0004299999993
 51
0.0
  0
ARC
  5
99
330
15
100
AcDbEntity
  8
4
100
AcDbCircle
 10
107.30676224567
 20
71.18495920200422
 30
0.0
 40
1.9999995
100
AcDbArc
 50
90.0
 51
180.000458000027
  0
LINE
  5
9A
330
15
100
AcDbEntity
  8
L-CENTER
 48
1.5
100
AcDbLine
 10
117.80676224567
 20
51.18495970200428
 30
0.0
 11
117.80676224567
 21
79.18496020200433
 31
0.0
  0
LINE
  5
9B
330
15
100
AcDbEntity
  8
4
100
AcDbLine
 10
160.3067617456701
 20
57.18495970200428
 30
0.0
 11
105.3067612456701
 21
57.18495970200428
 31
0.0
  0
LINE
  5
9C
330
15
100
AcDbEntity
  8
4
100
AcDbLine
 10
157.3067617456701
 20
73.18496020200433
 30
0.0
 11
107.30676224567
 21
73.18496020200433
 31
0.0
  0
LINE
  5
A1
330
15
100
AcDbEntity
  8
4
100
AcDbLine
 10
105.3067612456701
 20
57.18495970200428
 30
0.0
 11
105.3067612456701
 21
71.18495920200422
 31
0.0
  0
LINE
  5
A2
330
15
100
AcDbEntity
  8
4
100
AcDbLine
 10
160.3066087456701
 20
68.68496020200433
 30
0.0
 11
174.8405797456701
 21
68.68496020200433
 31
0.0
  0
LINE
  5
A3
330
15
100
AcDbEntity
  8
4
100
AcDbLine
 10
160.3067617456701
 20
70.18496020200433
 30
0.0
 11
160.3067617456701
 21
57.18495970200428
 31
0.0
  0
ARC
  5
A4
330
15
100
AcDbEntity
  8
4
100
AcDbCircle
 10
163.3067617456701
 20
69.18495970200428
 30
0.0
 40
3.0
100
AcDbArc
 50
90.0
 51
180.0003060001453
  0
LINE
  5
A5
330
15
100
AcDbEntity
  8
4
100
AcDbLine
 10
175.8006412456701
 20
69.96474970200427
 30
0.0
 11
175.1536087456701
 21
72.18495970200428
 31
0.0
  0
ARC
  5
A6
330
15
100
AcDbEntity
  8
4
100
AcDbCircle
 10
174.8405797456701
 20
69.68495920200422
 30
0.0
 40
1.0000005
100
AcDbArc
 50
270.0
 51
16.24763200000012
  0
ARC
  5
A7
330
15
100
AcDbEntity
  8
4
100
AcDbCircle
 10
173.5051792456701
 20
70.18496020200433
 30
0.0
 40
3.0
100
AcDbArc
 50
209.9999999999988
 51
270.0
  0
LINE
  5
A8
330
15
100
AcDbEntity
  8
4
100
AcDbLine
 10
128.8067617456701
 20
143.6849602020043
 30
0.0
 11
128.8067617456701
 21
96.68495920200422
 31
0.0
  0
LINE
  5
A9
330
15
100
AcDbEntity
  8
4
100
AcDbLine
 10
133.8067612456701
 20
77.18495920200422
 30
0.0
 11
133.8067612456701
 21
153.6849592020042
 31
0.0
  0
LINE
  5
AA
330
15
100
AcDbEntity
  8
4
100
AcDbLine
 10
129.80676224567
 20
152.6849602020043
 30
0.0
 11
129.80676224567
 21
87.68495920200422
 31
0.0
  0
ARC
  5
AB
330
15
100
AcDbEntity
  8
4
100
AcDbCircle
 10
131.8067617456701
 20
85.68495970200428
 30
0.0
 40
1.9999995
100
AcDbArc
 50
0.0
 51
90.0
  0
LINE
  5
AC
330
15
100
AcDbEntity
  8
4
100
AcDbLine
 10
129.80676224567
 20
87.68495920200422
 30
0.0
 11
131.8067617456701
 21
87.68495920200422
 31
0.0
  0
LINE
  5
AD
330
15
100
AcDbEntity
  8
4
100
AcDbLine
 10
129.80676224567
 20
96.68495920200422
 30
0.0
 11
128.8067617456701
 21
96.68495920200422
 31
0.0
  0
LINE
  5
AE
330
15
100
AcDbEntity
  8
4
100
AcDbLine
 10
150.8066092456701
 20
173.6848372020042
 30
0.0
 11
165.5566087456699
 21
173.6848372020042
 31
0.0
  0
LINE
  5
AF
330
15
100
AcDbEntity
  8
4
100
AcDbLine
 10
165.55660874567
 20
169.6848382020043
 30
0.0
 11
150.3066082456701
 21
169.6848382020042
 31
0.0
  0
LINE
  5
B0
330
15
100
AcDbEntity
  8
4
100
AcDbLine
 10
129.80676224567
 20
143.6849602020043
 30
0.0
 11
128.8067617456701
 21
143.6849602020043
 31
0.0
  0
ARC
  5
B1
330
15
100
AcDbEntity
  8
4
100
AcDbCircle
 10
135.80676224567
 20
167.5847392020043
 30
0.0
 40
1.0000005
100
AcDbArc
 50
90.0
 51
180.0
  0
LINE
  5
B2
330
15
100
AcDbEntity
  8
4
100
AcDbLine
 10
134.8067617456701
 20
167.5847392020043
 30
0.0
 11
134.8067617456701
 21
154.6849597020043
 31
0.0
  0
LINE
  5
B3
330
15
100
AcDbEntity
  8
4
100
AcDbLine
 10
132.80676224567
 20
154.6849597020043
 30
0.0
 11
132.80676224567
 21
152.6849602020043
 31
0.0
  0
LINE
  5
B4
330
15
100
AcDbEntity
  8
4
100
AcDbLine
 10
129.80676224567
 20
152.6849602020043
 30
0.0
 11
132.8068612456701
 21
152.6849602020043
 31
0.0
  0
ARC
  5
B5
330
15
100
AcDbEntity
  8
4
100
AcDbCircle
 10
132.8068612456701
 20
153.6848602020042
 30
0.0
 40
0.9999
100
AcDbArc
 50
270.0
 51
0.0
  0
LINE
  5
B6
330
15
100
AcDbEntity
  8
L-CENTER
 48
1.5
100
AcDbLine
 10
141.80660874567
 20
176.4780113546277
 30
0.0
 11
141.80660874567
 21
153.1175099929243
 31
0.0
  0
LINE
  5
B7
330
15
100
AcDbEntity
  8
4
100
AcDbLine
 10
150.8066092456701
 20
173.6848372020042
 30
0.0
 11
150.8066092456701
 21
169.6848382020042
 31
0.0
  0
LINE
  5
B8
330
15
100
AcDbEntity
  8
4
100
AcDbLine
 10
150.3066082456701
 20
169.6848382020042
 30
0.0
 11
150.3066082456701
 21
168.5847397020043
 31
0.0
  0
LINE
  5
B9
330
15
100
AcDbEntity
  8
4
100
AcDbLine
 10
159.4065997456702
 20
173.6848372020042
 30
0.0
 11
159.4065997456702
 21
174.5849842020044
 31
0.0
  0
LINE
  5
BA
330
15
100
AcDbEntity
  8
4
100
AcDbLine
 10
158.2066192456701
 20
173.6848372020042
 30
0.0
 11
158.2066192456701
 21
174.5849842020044
 31
0.0
  0
ARC
  5
BB
330
15
100
AcDbEntity
  8
4
100
AcDbCircle
 10
158.8066087456701
 20
174.5849842020044
 30
0.0
 40
0.6000059999999999
100
AcDbArc
 50
0.0
 51
180.0
  0
LINE
  5
BC
330
15
100
AcDbEntity
  8
L-CENTER
 48
1.5
100
AcDbLine
 10
158.8066087456701
 20
165.1165387020043
 30
0.0
 11
158.8066087456701
 21
176.2244857020043
 31
0.0
  0
LINE
  5
BD
330
15
100
AcDbEntity
  8
L-CENTER
 48
1.5
100
AcDbLine
 10
169.8066087456699
 20
176.4780113546277
 30
0.0
 11
169.8066087456699
 21
153.1175099929244
 31
0.0
  0
LINE
  5
BE
330
15
100
AcDbEntity
  8
4
100
AcDbLine
 10
170.8066087456701
 20
175.5848377020043
 30
0.0
 11
170.5732425865699
 21
174.8847397020043
 31
0.0
  0
LINE
  5
BF
330
15
100
AcDbEntity
  8
4
100
AcDbLine
 10
174.3066082456702
 20
176.5848382020043
 30
0.0
 11
174.3066082456702
 21
175.5848377020043
 31
0.0
  0
LINE
  5
C2
330
15
100
AcDbEntity
  8
4
100
AcDbLine
 10
312.80651774567
 20
130.1849602020043
 30
0.0
 11
280.8065167456701
 21
130.1849602020043
 31
0.0
  0
LINE
  5
C3
330
15
100
AcDbEntity
  8
4
100
AcDbLine
 10
311.8065172456701
 20
112.1849602020043
 30
0.0
 11
277.8066082456702
 21
112.1849602020043
 31
0.0
  0
LINE
  5
C4
330
15
100
AcDbEntity
  8
4
100
AcDbLine
 10
311.8065172456701
 20
128.1849592020042
 30
0.0
 11
277.8066082456702
 21
128.1849592020042
 31
0.0
  0
TEXT
  5
C7
330
15
100
AcDbEntity
  8
3
100
AcDbText
 10
325.6770648783778
 20
33.34229919933028
 30
0.0
 40
4.5
  1
LC1.5-06
  7
KANJI
 72
     1
 11
340.3020648783778
 21
33.34229919933028
 31
0.0
100
AcDbText
  0
ARC
  5
CA
330
15
100
AcDbEntity
  8
4
100
AcDbCircle
 10
288.3065167456701
 20
71.18495920200422
 30
0.0
 40
1.9999995
100
AcDbArc
 50
0.0
 51
90.0
  0
LINE
  5
CB
330
15
100
AcDbEntity
  8
L-CENTER
 48
1.5
100
AcDbLine
 10
277.8066082456702
 20
51.18495970200428
 30
0.0
 11
277.8066082456702
 21
79.18496020200433
 31
0.0
  0
ARC
  5
CC
330
15
100
AcDbEntity
  8
4
100
AcDbCircle
 10
265.8066082456702
 20
77.18495920200422
 30
0.0
 40
4.0000005
100
AcDbArc
 50
180.0002289992177
 51
270.000658999999
  0
ARC
  5
CD
330
15
100
AcDbEntity
  8
4
100
AcDbCircle
 10
238.3066087456701
 20
70.18496020200433
 30
0.0
 40
3.0
100
AcDbArc
 50
90.0
 51
180.0003060001453
  0
LINE
  5
CE
330
15
100
AcDbEntity
  8
4
100
AcDbLine
 10
238.3066087456701
 20
73.18496020200433
 30
0.0
 11
288.3065167456701
 21
73.18496020200433
 31
0.0
  0
LINE
  5
CF
330
15
100
AcDbEntity
  8
4
100
AcDbLine
 10
235.3066087456701
 20
57.18495970200428
 30
0.0
 11
290.30651774567
 21
57.18495970200428
 31
0.0
  0
LINE
  5
D2
330
15
100
AcDbEntity
  8
4
100
AcDbLine
 10
235.3066087456701
 20
68.68496020200433
 30
0.0
 11
220.7726377456701
 21
68.68496020200433
 31
0.0
  0
ARC
  5
D3
330
15
100
AcDbEntity
  8
4
100
AcDbCircle
 10
222.1080367456701
 20
70.18496020200433
 30
0.0
 40
3.0
100
AcDbArc
 50
270.0
 51
329.0362430000002
  0
LINE
  5
D4
330
15
100
AcDbEntity
  8
4
100
AcDbLine
 10
219.8125762456701
 20
69.96474970200427
 30
0.0
 11
220.4596087456702
 21
72.18495970200428
 31
0.0
  0
ARC
  5
D5
330
15
100
AcDbEntity
  8
4
100
AcDbCircle
 10
220.7726377456701
 20
69.68495920200422
 30
0.0
 40
1.0000005
100
AcDbArc
 50
163.7523679999999
 51
270.0
  0
LINE
  5
D6
330
15
100
AcDbEntity
  8
4
100
AcDbLine
 10
235.3066087456701
 20
70.18496020200433
 30
0.0
 11
235.3066087456701
 21
57.18495970200428
 31
0.0
  0
ARC
  5
D7
330
15
100
AcDbEntity
  8
4
100
AcDbCircle
 10
232.3066087456701
 20
69.18495970200428
 30
0.0
 40
3.0
100
AcDbArc
 50
0.0
 51
90.0
  0
ARC
  5
DE
330
15
100
AcDbEntity
  8
4
100
AcDbCircle
 10
265.2871087456701
 20
61.82608720200432
 30
0.0
 40
2.029101
100
AcDbArc
 50
119.9087440000012
 51
225.2543949999989
  0
ARC
  5
DF
330
15
100
AcDbEntity
  8
4
100
AcDbCircle
 10
265.2871087456701
 20
61.82608720200432
 30
0.0
 40
2.029101
100
AcDbArc
 50
119.9087440000012
 51
225.2543949999989
  0
ARC
  5
E0
330
15
100
AcDbEntity
  8
4
100
AcDbCircle
 10
262.4302807456701
 20
58.94382520200423
 30
0.0
 40
2.0290875
100
AcDbArc
 50
299.908944
 51
45.25409699999926
  0
ARC
  5
E1
330
15
100
AcDbEntity
  8
4
100
AcDbCircle
 10
262.4302807456701
 20
58.94382520200423
 30
0.0
 40
2.0290875
100
AcDbArc
 50
299.908944
 51
45.25409699999926
  0
LINE
  5
E2
330
15
100
AcDbEntity
  8
4
100
AcDbLine
 10
272.3066077456701
 20
73.18496020200433
 30
0.0
 11
272.3066077456701
 21
57.18495970200428
 31
0.0
  0
ARC
  5
E3
330
15
100
AcDbEntity
  8
4
100
AcDbCircle
 10
264.09698324567
 20
71.7438277020043
 30
0.0
 40
2.0290875
100
AcDbArc
 50
299.908944
 51
45.25409699999926
  0
ARC
  5
E4
330
15
100
AcDbEntity
  8
4
100
AcDbCircle
 10
264.09698324567
 20
71.7438277020043
 30
0.0
 40
2.0290875
100
AcDbArc
 50
299.908944
 51
45.25409699999926
  0
ARC
  5
E5
330
15
100
AcDbEntity
  8
4
100
AcDbCircle
 10
263.2636402456701
 20
65.34381820200423
 30
0.0
 40
2.0290875
100
AcDbArc
 50
299.908944
 51
45.25411699999857
  0
ARC
  5
E6
330
15
100
AcDbEntity
  8
4
100
AcDbCircle
 10
263.2636402456701
 20
65.34381820200423
 30
0.0
 40
2.0290875
100
AcDbArc
 50
299.908944
 51
45.25411699999857
  0
ARC
  5
E7
330
15
100
AcDbEntity
  8
4
100
AcDbCircle
 10
266.1204517456702
 20
68.22609670200421
 30
0.0
 40
2.0290995
100
AcDbArc
 50
119.9087190000006
 51
225.2543749999988
  0
ARC
  5
E8
330
15
100
AcDbEntity
  8
4
100
AcDbCircle
 10
266.1204517456702
 20
68.22609670200421
 30
0.0
 40
2.0290995
100
AcDbArc
 50
119.9087190000006
 51
225.2543749999988
  0
LINE
  5
E9
330
15
100
AcDbEntity
  8
4
100
AcDbLine
 10
283.3065172456701
 20
73.18496020200433
 30
0.0
 11
283.3065172456701
 21
57.18495970200428
 31
0.0
  0
LINE
  5
EA
330
15
100
AcDbEntity
  8
4
100
AcDbLine
 10
290.30651774567
 20
57.18495970200428
 30
0.0
 11
290.30651774567
 21
71.18495920200422
 31
0.0
  0
LINE
  5
EC
330
15
100
AcDbEntity
  8
4
100
AcDbLine
 10
230.0566087456701
 20
169.2677481678784
 30
0.0
 11
237.0571102456701
 21
168.5847397020043
 31
0.0
  0
LINE
  5
ED
330
15
100
AcDbEntity
  8
4
100
AcDbLine
 10
221.3066092456701
 20
175.5848377020043
 30
0.0
 11
221.3066092456701
 21
176.5848382020043
 31
0.0
  0
LINE
  5
EE
330
15
100
AcDbEntity
  8
4
100
AcDbLine
 10
224.8066087456701
 20
175.5848377020043
 30
0.0
 11
225.0399749047702
 21
174.8847397020043
 31
0.0
  0
LINE
  5
EF
330
15
100
AcDbEntity
  8
4
100
AcDbLine
 10
277.8066082456702
 20
111.6849592020042
 30
0.0
 11
277.8066082456702
 21
128.6849602020043
 31
0.0
  0
LINE
  5
F0
330
15
100
AcDbEntity
  8
4
100
AcDbLine
 10
266.8066087456701
 20
143.6849602020043
 30
0.0
 11
266.8066087456701
 21
96.68495920200422
 31
0.0
  0
LINE
  5
F1
330
15
100
AcDbEntity
  8
4
100
AcDbLine
 10
261.8066077456701
 20
77.18495920200422
 30
0.0
 11
261.8066077456701
 21
153.6849592020042
 31
0.0
  0
LINE
  5
F2
330
15
100
AcDbEntity
  8
4
100
AcDbLine
 10
265.8066082456702
 20
152.6849602020043
 30
0.0
 11
265.8066082456702
 21
87.68495920200422
 31
0.0
  0
ARC
  5
F3
330
15
100
AcDbEntity
  8
4
100
AcDbCircle
 10
263.8066087456701
 20
85.68495970200428
 30
0.0
 40
1.9999995
100
AcDbArc
 50
90.0
 51
180.0
  0
LINE
  5
F4
330
15
100
AcDbEntity
  8
4
100
AcDbLine
 10
263.8066087456701
 20
87.68495920200422
 30
0.0
 11
265.8066082456702
 21
87.68495920200422
 31
0.0
  0
LINE
  5
F5
330
15
100
AcDbEntity
  8
4
100
AcDbLine
 10
265.8066082456702
 20
96.68495920200422
 30
0.0
 11
266.8066087456701
 21
96.68495920200422
 31
0.0
  0
LINE
  5
F6
330
15
100
AcDbEntity
  8
4
100
AcDbLine
 10
277.8066082456702
 20
111.6849592020042
 30
0.0
 11
266.8066087456701
 21
111.6849592020042
 31
0.0
  0
LINE
  5
F9
330
15
100
AcDbEntity
  8
4
100
AcDbLine
 10
277.8066082456702
 20
128.6849602020043
 30
0.0
 11
266.8066087456701
 21
128.6849602020043
 31
0.0
  0
LINE
  5
FA
330
15
100
AcDbEntity
  8
4
100
AcDbLine
 10
265.8066082456702
 20
143.6849602020043
 30
0.0
 11
266.8066087456701
 21
143.6849602020043
 31
0.0
  0
LINE
  5
FB
330
15
100
AcDbEntity
  8
4
100
AcDbLine
 10
262.8065077456702
 20
152.6849602020043
 30
0.0
 11
265.8066082456702
 21
152.6849602020043
 31
0.0
  0
LINE
  5
FC
330
15
100
AcDbEntity
  8
4
100
AcDbLine
 10
260.8066087456701
 20
167.5847392020043
 30
0.0
 11
260.8066087456701
 21
154.6849597020043
 31
0.0
  0
LINE
  5
FD
330
15
100
AcDbEntity
  8
4
100
AcDbLine
 10
262.8066082456702
 20
154.6849597020043
 30
0.0
 11
262.8066082456702
 21
152.6849602020043
 31
0.0
  0
ARC
  5
FE
330
15
100
AcDbEntity
  8
4
100
AcDbCircle
 10
262.8065077456702
 20
153.6848602020042
 30
0.0
 40
0.9999
100
AcDbArc
 50
180.0
 51
270.0
  0
ARC
  5
FF
330
15
100
AcDbEntity
  8
4
100
AcDbCircle
 10
259.8066082456702
 20
167.5847392020043
 30
0.0
 40
1.0000005
100
AcDbArc
 50
0.0
 51
90.0
  0
LINE
  5
100
330
15
100
AcDbEntity
  8
4
100
AcDbLine
 10
280.8065167456701
 20
128.1849592020042
 30
0.0
 11
280.8065167456701
 21
130.1849602020043
 31
0.0
  0
ARC
  5
102
330
15
100
AcDbEntity
  8
4
100
AcDbCircle
 10
433.6750366800427
 20
70.18496020200433
 30
0.0
 40
3.0
100
AcDbArc
 50
0.0
 51
90.0
  0
ARC
  5
103
330
15
100
AcDbEntity
  8
4
100
AcDbCircle
 10
428.6750356800426
 20
70.18496020200433
 30
0.0
 40
3.0
100
AcDbArc
 50
0.0
 51
90.0
  0
LINE
  5
104
330
15
100
AcDbEntity
  8
L-CENTER
 48
1.5
100
AcDbLine
 10
416.6750356800426
 20
79.18496020200433
 30
0.0
 11
416.6750356800426
 21
51.18495970200428
 31
0.0
  0
ARC
  5
105
330
15
100
AcDbEntity
  8
4
100
AcDbCircle
 10
404.6750356800426
 20
70.18496020200433
 30
0.0
 40
3.0
100
AcDbArc
 50
90.0
 51
180.0003060001453
  0
LINE
  5
106
330
15
100
AcDbEntity
  8
4
100
AcDbLine
 10
401.6750356800426
 20
81.73398370200431
 30
0.0
 11
401.6750356800426
 21
57.18495970200428
 31
0.0
  0
LINE
  5
10C
330
15
100
AcDbEntity
  8
4
100
AcDbLine
 10
401.6750356800426
 20
57.18495970200428
 30
0.0
 11
436.6750366800427
 21
57.18495970200428
 31
0.0
  0
LINE
  5
10D
330
15
100
AcDbEntity
  8
4
100
AcDbLine
 10
433.6750366800427
 20
73.18496020200433
 30
0.0
 11
404.6750356800426
 21
73.18496020200433
 31
0.0
  0
LINE
  5
110
330
15
100
AcDbEntity
  8
4
100
AcDbLine
 10
431.6750356800426
 20
70.18496020200433
 30
0.0
 11
431.6750356800426
 21
57.18495970200428
 31
0.0
  0
LINE
  5
111
330
15
100
AcDbEntity
  8
4
100
AcDbLine
 10
436.6750366800427
 20
70.18496020200433
 30
0.0
 11
436.6750366800427
 21
57.18495970200428
 31
0.0
  0
ARC
  5
112
330
15
100
AcDbEntity
  8
4
100
AcDbCircle
 10
439.6750366800427
 20
69.18495970200428
 30
0.0
 40
3.0
100
AcDbArc
 50
90.0
 51
180.0003060001453
  0
LINE
  5
113
330
15
100
AcDbEntity
  8
4
100
AcDbLine
 10
436.6750366800427
 20
68.68496020200433
 30
0.0
 11
444.6288691800428
 21
68.68496020200433
 31
0.0
  0
LINE
  5
114
330
15
100
AcDbEntity
  8
4
100
AcDbLine
 10
444.3401941800425
 20
72.18495970200428
 30
0.0
 11
445.4948941800426
 21
70.18496020200433
 31
0.0
  0
ARC
  5
115
330
15
100
AcDbEntity
  8
4
100
AcDbCircle
 10
401.6750356800426
 20
-96.31503379799571
 30
0.0
 40
249.999993
100
AcDbArc
 50
90.0
 51
96.88129
  0
CIRCLE
  5
116
330
15
100
AcDbEntity
  8
4
100
AcDbCircle
 10
401.6750356800426
 20
120.1849597020043
 30
0.0
 40
23.5000005
  0
ARC
  5
117
330
15
100
AcDbEntity
  8
4
100
AcDbCircle
 10
401.6750356800426
 20
336.6849532020044
 30
0.0
 40
249.999993
100
AcDbArc
 50
263.11871
 51
268.876481
  0
CIRCLE
  5
118
330
15
100
AcDbEntity
  8
4
100
AcDbCircle
 10
401.6750356800426
 20
120.1849597020043
 30
0.0
 40
32.5000005
  0
LINE
  5
11A
330
15
100
AcDbEntity
  8
4
100
AcDbLine
 10
311.8065172456701
 20
112.1849602020043
 30
0.0
 11
311.8065172456701
 21
128.1849592020042
 31
0.0
  0
LINE
  5
11B
330
15
100
AcDbEntity
  8
4
100
AcDbLine
 10
312.80651774567
 20
113.1849592020042
 30
0.0
 11
312.80651774567
 21
130.1849602020043
 31
0.0
  0
ARC
  5
11C
330
15
100
AcDbEntity
  8
4
100
AcDbCircle
 10
618.1750291800427
 20
120.1849597020043
 30
0.0
 40
249.999993
100
AcDbArc
 50
173.11871
 51
186.8812900000001
  0
LINE
  5
11E
330
15
100
AcDbEntity
  8
4
100
AcDbLine
 10
311.8065172456701
 20
112.1849602020043
 30
0.0
 11
312.80651774567
 21
113.1849592020042
 31
0.0
  0
ARC
  5
120
330
15
100
AcDbEntity
  8
4
100
AcDbCircle
 10
371.9614996800426
 20
90.47142220200425
 30
0.0
 40
1.9999995
100
AcDbArc
 50
186.8812900000001
 51
263.118710000004
  0
LINE
  5
122
330
15
100
AcDbEntity
  8
4
100
AcDbLine
 10
312.80651774567
 20
127.1849602020043
 30
0.0
 11
311.8065172456701
 21
128.1849592020042
 31
0.0
  0
ARC
  5
123
330
15
100
AcDbEntity
  8
4
100
AcDbCircle
 10
371.9614996800426
 20
149.8984972020043
 30
0.0
 40
1.9999995
100
AcDbArc
 50
96.88128999999601
 51
173.1187100000008
  0
LINE
  5
124
330
15
100
AcDbEntity
  8
4
100
AcDbLine
 10
404.1750361800428
 20
130.1849437020043
 30
0.0
 11
404.1750361800428
 21
125.1849442020043
 31
0.0
  0
LINE
  5
125
330
15
100
AcDbEntity
  8
4
100
AcDbLine
 10
399.1750366800425
 20
130.1849437020043
 30
0.0
 11
399.1750366800425
 21
125.1849442020043
 31
0.0
  0
ARC
  5
126
330
15
100
AcDbEntity
  8
4
100
AcDbCircle
 10
401.6750356800426
 20
120.1849432020043
 30
0.0
 40
7.9999935
100
AcDbArc
 50
108.2099729999997
 51
71.79002700000034
  0
LINE
  5
127
330
15
100
AcDbEntity
  8
L-CENTER
 48
1.5
100
AcDbLine
 10
401.6750356800426
 20
157.7305278123827
 30
0.0
 11
401.6750356800426
 21
82.63939159162584
 31
0.0
  0
ARC
  5
128
330
15
100
AcDbEntity
  8
4
100
AcDbCircle
 10
396.6750361800428
 20
81.73398370200431
 30
0.0
 40
4.9999995
100
AcDbArc
 50
0.0
 51
88.87648100000071
  0
LINE
  5
129
330
15
100
AcDbEntity
  8
4
100
AcDbLine
 10
404.1750361800428
 20
125.1849442020043
 30
0.0
 11
399.1750366800425
 21
125.1849442020043
 31
0.0
  0
LINE
  5
12A
330
15
100
AcDbEntity
  8
4
100
AcDbLine
 10
436.6750366800427
 20
153.6849592020042
 30
0.0
 11
401.6750356800426
 21
153.6849592020042
 31
0.0
  0
LINE
  5
12B
330
15
100
AcDbEntity
  8
4
100
AcDbLine
 10
404.1750361800428
 20
130.1849437020043
 30
0.0
 11
399.1750366800425
 21
130.1849437020043
 31
0.0
  0
LINE
  5
12C
330
15
100
AcDbEntity
  8
4
100
AcDbLine
 10
396.6750361800428
 20
154.6849597020043
 30
0.0
 11
396.6750361800428
 21
153.6849592020042
 31
0.0
  0
LINE
  5
12D
330
15
100
AcDbEntity
  8
L-CENTER
 48
1.5
100
AcDbLine
 10
413.1776130681137
 20
176.4340373871601
 30
0.0
 11
413.1776130681149
 21
153.1175099929259
 31
0.0
  0
LINE
  5
12E
330
15
100
AcDbEntity
  8
4
100
AcDbLine
 10
398.6752801800426
 20
167.5847392020043
 30
0.0
 11
398.6752801800426
 21
159.6849592020042
 31
0.0
  0
LINE
  5
12F
330
15
100
AcDbEntity
  8
4
100
AcDbLine
 10
398.6750356800426
 20
154.6849597020043
 30
0.0
 11
398.6750356800426
 21
155.6849602020043
 31
0.0
  0
LINE
  5
130
330
15
100
AcDbEntity
  8
4
100
AcDbLine
 10
398.6750356800426
 20
155.6849602020043
 30
0.0
 11
398.6750356800426
 21
159.6849592020042
 31
0.0
  0
ARC
  5
131
330
15
100
AcDbEntity
  8
4
100
AcDbCircle
 10
399.6752806800428
 20
167.5847392020043
 30
0.0
 40
1.0000005
100
AcDbArc
 50
90.0
 51
180.0
  0
LINE
  5
132
330
15
100
AcDbEntity
  8
4
100
AcDbLine
 10
432.6750361800428
 20
169.6848382020042
 30
0.0
 11
421.9364851800426
 21
168.5847397020043
 31
0.0
  0
LINE
  5
133
330
15
100
AcDbEntity
  8
4
100
AcDbLine
 10
434.6752801800426
 20
175.5848377020043
 30
0.0
 11
432.6752806800428
 21
169.6848382020042
 31
0.0
  0
LINE
  5
134
330
15
100
AcDbEntity
  8
4
100
AcDbLine
 10
438.1750366800427
 20
176.5848382020043
 30
0.0
 11
438.1750366800427
 21
175.5848377020043
 31
0.0
  0
ARC
  5
135
330
15
100
AcDbEntity
  8
4
100
AcDbCircle
 10
197.8066087456699
 20
349.578859504284
 30
0.0
 40
100.0
100
AcDbArc
 50
77.1510080358288
 51
102.8489919641712
  0
ARC
  5
136
330
15
100
AcDbEntity
  8
4
100
AcDbCircle
 10
197.80660874567
 20
351.578859504284
 30
0.0
 40
100.0
100
AcDbArc
 50
76.16959380972777
 51
103.8304061902722
  0
ARC
  5
137
330
15
100
AcDbEntity
  8
4
100
AcDbCircle
 10
197.80660874567
 20
495.5788595042839
 30
0.0
 40
100.0
100
AcDbArc
 50
257.1510080358287
 51
282.8489919641713
  0
ARC
  5
138
330
15
100
AcDbEntity
  8
4
100
AcDbCircle
 10
197.80660874567
 20
493.5788595042839
 30
0.0
 40
100.0
100
AcDbArc
 50
256.1695938097276
 51
283.8304061902722
  0
CIRCLE
  5
139
330
15
100
AcDbEntity
  8
4
100
AcDbCircle
 10
197.80660874567
 20
422.5788595042839
 30
0.0
 40
23.5
  0
CIRCLE
  5
13A
330
15
100
AcDbEntity
  8
4
100
AcDbCircle
 10
197.80660874567
 20
422.5788595042839
 30
0.0
 40
48.0
  0
CIRCLE
  5
13B
330
15
100
AcDbEntity
  8
L-CENTER
 48
1.5
100
AcDbCircle
 10
197.80660874567
 20
422.5788595042839
 30
0.0
 40
56.0
  0
CIRCLE
  5
13C
330
15
100
AcDbEntity
  8
4
100
AcDbCircle
 10
197.80660874567
 20
422.5788595042839
 30
0.0
 40
63.0
  0
ARC
  5
13D
330
15
100
AcDbEntity
  8
4
100
AcDbCircle
 10
197.80660874567
 20
287.5788595042839
 30
0.0
 40
200.0
100
AcDbArc
 50
74.30938079836311
 51
105.689946
  0
LINE
  5
13E
330
15
100
AcDbEntity
  8
4
100
AcDbLine
 10
182.80660874567
 20
490.5788595042839
 30
0.0
 11
212.80660874567
 21
490.5788595042839
 31
0.0
  0
ARC
  5
13F
330
15
100
AcDbEntity
  8
4
100
AcDbCircle
 10
197.80660874567
 20
557.5788595042839
 30
0.0
 40
200.0
100
AcDbArc
 50
254.310054
 51
285.6906192016369
  0
LINE
  5
140
330
15
100
AcDbEntity
  8
L-CENTER
 48
1.5
100
AcDbLine
 10
80.33901588963207
 20
362.5788595042839
 30
0.0
 11
315.274201601708
 21
362.5788595042839
 31
0.0
  0
LINE
  5
141
330
15
100
AcDbEntity
  8
L-CENTER
 48
1.5
100
AcDbLine
 10
128.2239827456701
 20
422.5788595042839
 30
0.0
 11
267.5601037456699
 21
422.5788595042839
 31
0.0
  0
LINE
  5
142
330
15
100
AcDbEntity
  8
4
100
AcDbLine
 10
134.80660874567
 20
329.0788595042839
 30
0.0
 11
260.80660874567
 21
329.0788595042839
 31
0.0
  0
LINE
  5
145
330
15
100
AcDbEntity
  8
4
100
AcDbLine
 10
128.8067617456701
 20
386.078860004284
 30
0.0
 11
128.8067617456701
 21
339.0788590042839
 31
0.0
  0
LINE
  5
146
330
15
100
AcDbEntity
  8
L-CENTER
 48
1.5
100
AcDbLine
 10
174.0308521692779
 20
381.3980411255829
 30
0.0
 11
165.5823653220621
 21
366.7648326591279
 31
0.0
  0
LINE
  5
148
330
15
100
AcDbEntity
  8
4
100
AcDbLine
 10
133.80660874567
 20
402.6038755042839
 30
0.0
 11
133.80660874567
 21
330.0788595042839
 31
0.0
  0
ARC
  5
149
330
15
100
AcDbEntity
  8
4
100
AcDbCircle
 10
332.8066087456701
 20
422.5788595042839
 30
0.0
 40
200.0
100
AcDbArc
 50
164.310054
 51
195.689946
  0
LINE
  5
14A
330
15
100
AcDbEntity
  8
4
100
AcDbLine
 10
129.80660874567
 20
395.0788595042839
 30
0.0
 11
129.80660874567
 21
330.0788595042839
 31
0.0
  0
LINE
  5
14C
330
15
100
AcDbEntity
  8
L-CENTER
 48
1.5
100
AcDbLine
 10
117.80660874567
 20
367.6040675042839
 30
0.0
 11
117.80660874567
 21
387.5536515042838
 31
0.0
  0
ARC
  5
153
330
15
100
AcDbEntity
  8
4
100
AcDbCircle
 10
134.80660874567
 20
330.0788595042839
 30
0.0
 40
1.0
100
AcDbArc
 50
180.0
 51
270.0
  0
LINE
  5
154
330
15
100
AcDbEntity
  8
4
100
AcDbLine
 10
129.80660874567
 20
330.0788595042839
 30
0.0
 11
133.80660874567
 21
330.0788595042839
 31
0.0
  0
LINE
  5
155
330
15
100
AcDbEntity
  8
4
100
AcDbLine
 10
129.80676224567
 20
339.0788590042839
 30
0.0
 11
128.8067617456701
 21
339.0788590042839
 31
0.0
  0
ARC
  5
156
330
15
100
AcDbEntity
  8
4
100
AcDbCircle
 10
145.0724617456699
 20
369.844712504284
 30
0.0
 40
5.0
100
AcDbArc
 50
195.6899459999994
 51
254.3100539999992
  0
LINE
  5
157
330
15
100
AcDbEntity
  8
4
100
AcDbLine
 10
175.3068637456699
 20
338.5784495042839
 30
0.0
 11
182.8068637456699
 21
338.5784505042839
 31
0.0
  0
LINE
  5
158
330
15
100
AcDbEntity
  8
4
100
AcDbLine
 10
175.30688674567
 20
350.5784505042839
 30
0.0
 11
177.3068877456699
 21
350.5784515042839
 31
0.0
  0
LINE
  5
159
330
15
100
AcDbEntity
  8
4
100
AcDbLine
 10
174.8068647456698
 20
339.0784515042839
 30
0.0
 11
174.8068877456699
 21
350.0784505042839
 31
0.0
  0
ARC
  5
15A
330
15
100
AcDbEntity
  8
4
100
AcDbCircle
 10
175.3068647456698
 20
339.0784505042839
 30
0.0
 40
0.5
100
AcDbArc
 50
179.9998790048809
 51
269.999879000006
  0
ARC
  5
15B
330
15
100
AcDbEntity
  8
4
100
AcDbCircle
 10
175.30688674567
 20
350.0784505042839
 30
0.0
 40
0.5
100
AcDbArc
 50
90.0
 51
180.0
  0
LINE
  5
15C
330
15
100
AcDbEntity
  8
4
100
AcDbLine
 10
177.8068637456699
 20
342.0784505042839
 30
0.0
 11
177.80688674567
 21
350.0784495042839
 31
0.0
  0
LINE
  5
15D
330
15
100
AcDbEntity
  8
4
100
AcDbLine
 10
178.3068647456698
 20
341.5784505042839
 30
0.0
 11
182.8068637456699
 21
341.5784505042839
 31
0.0
  0
ARC
  5
15E
330
15
100
AcDbEntity
  8
4
100
AcDbCircle
 10
178.3068647456698
 20
342.0784505042839
 30
0.0
 40
0.5
100
AcDbArc
 50
180.0
 51
270.0
  0
LINE
  5
15F
330
15
100
AcDbEntity
  8
4
100
AcDbLine
 10
183.3068637456699
 20
339.0784505042839
 30
0.0
 11
183.3068637456699
 21
341.0784505042839
 31
0.0
  0
ARC
  5
160
330
15
100
AcDbEntity
  8
4
100
AcDbCircle
 10
182.8068637456699
 20
341.0784505042839
 30
0.0
 40
0.5
100
AcDbArc
 50
0.0
 51
90.0
  0
ARC
  5
161
330
15
100
AcDbEntity
  8
4
100
AcDbCircle
 10
182.8068637456699
 20
339.0784505042839
 30
0.0
 40
0.5
100
AcDbArc
 50
270.0
 51
0.0
  0
ARC
  5
162
330
15
100
AcDbEntity
  8
4
100
AcDbCircle
 10
177.30688674567
 20
350.0784505042839
 30
0.0
 40
0.5
100
AcDbArc
 50
359.9998460009114
 51
89.99984599999232
  0
ARC
  5
163
330
15
100
AcDbEntity
  8
4
100
AcDbCircle
 10
110.30660874567
 20
477.5788595042839
 30
0.0
 40
5.0
100
AcDbArc
 50
90.0
 51
180.0
  0
LINE
  5
164
330
15
100
AcDbEntity
  8
4
100
AcDbLine
 10
109.4590227456702
 20
393.293102504284
 30
0.0
 11
134.3752607456699
 21
397.5788595042839
 31
0.0
  0
LINE
  5
165
330
15
100
AcDbEntity
  8
L-CENTER
 48
1.5
100
AcDbLine
 10
107.83181674567
 20
467.5788595042839
 30
0.0
 11
127.78140074567
 21
467.5788595042839
 31
0.0
  0
LINE
  5
166
330
15
100
AcDbEntity
  8
4
100
AcDbLine
 10
109.4590227456702
 20
451.864616504284
 30
0.0
 11
134.3752607456699
 21
447.5788595042839
 31
0.0
  0
CIRCLE
  5
167
330
15
100
AcDbEntity
  8
4
100
AcDbCircle
 10
117.80660874567
 20
467.5788595042839
 30
0.0
 40
5.5
  0
LINE
  5
168
330
15
100
AcDbEntity
  8
L-CENTER
 48
1.5
100
AcDbLine
 10
107.83181674567
 20
377.5788595042839
 30
0.0
 11
127.78140074567
 21
377.5788595042839
 31
0.0
  0
ARC
  5
169
330
15
100
AcDbEntity
  8
4
100
AcDbCircle
 10
110.30660874567
 20
388.365465504284
 30
0.0
 40
5.0
100
AcDbArc
 50
99.75974899999954
 51
180.0
  0
ARC
  5
16A
330
15
100
AcDbEntity
  8
4
100
AcDbCircle
 10
110.30660874567
 20
456.792253504284
 30
0.0
 40
5.0
100
AcDbArc
 50
180.0
 51
260.2402510000007
  0
LINE
  5
16B
330
15
100
AcDbEntity
  8
4
100
AcDbLine
 10
105.30660874567
 20
456.792253504284
 30
0.0
 11
105.30660874567
 21
477.5788595042839
 31
0.0
  0
LINE
  5
16C
330
15
100
AcDbEntity
  8
L-CENTER
 48
1.5
100
AcDbLine
 10
117.80660874567
 20
457.6040675042839
 30
0.0
 11
117.80660874567
 21
477.5536515042838
 31
0.0
  0
CIRCLE
  5
16D
330
15
100
AcDbEntity
  8
4
100
AcDbCircle
 10
158.80660874567
 20
422.5788595042839
 30
0.0
 40
8.0
  0
LINE
  5
16E
330
15
100
AcDbEntity
  8
L-CENTER
 48
1.5
100
AcDbLine
 10
158.80660874567
 20
434.4788595042837
 30
0.0
 11
158.80660874567
 21
411.4467982481992
 31
0.0
  0
CIRCLE
  5
16F
330
15
100
AcDbEntity
  8
4
100
AcDbCircle
 10
158.80660874567
 20
422.5788595042839
 30
0.0
 40
8.5
  0
ARC
  5
170
330
15
100
AcDbEntity
  8
4
100
AcDbCircle
 10
268.80660874567
 20
422.5788595042839
 30
0.0
 40
100.0
100
AcDbArc
 50
166.1695938097277
 51
193.8304061902721
  0
ARC
  5
171
330
15
100
AcDbEntity
  8
4
100
AcDbCircle
 10
270.80660874567
 20
422.5788595042839
 30
0.0
 40
100.0
100
AcDbArc
 50
167.1510080358287
 51
192.8489919641713
  0
ARC
  5
172
330
15
100
AcDbEntity
  8
4
100
AcDbCircle
 10
151.1431472072085
 20
416.9644710915961
 30
0.0
 40
1.0
100
AcDbArc
 50
36.22716910357793
 51
186.8606543253837
  0
ARC
  5
173
330
15
100
AcDbEntity
  8
4
100
AcDbCircle
 10
151.1431472072085
 20
428.1932479169714
 30
0.0
 40
1.0
100
AcDbArc
 50
173.1393456746032
 51
323.7728308964383
  0
LINE
  5
174
330
15
100
AcDbEntity
  8
4
100
AcDbLine
 10
129.80676224567
 20
386.078860004284
 30
0.0
 11
128.8067617456701
 21
386.078860004284
 31
0.0
  0
ARC
  5
175
330
15
100
AcDbEntity
  8
4
100
AcDbCircle
 10
130.80660874567
 20
398.0788595042839
 30
0.0
 40
3.0
100
AcDbArc
 50
270.0
 51
0.0
  0
LINE
  5
176
330
15
100
AcDbEntity
  8
4
100
AcDbLine
 10
129.80660874567
 20
395.0788595042839
 30
0.0
 11
130.80660874567
 21
395.0788595042839
 31
0.0
  0
ARC
  5
177
330
15
100
AcDbEntity
  8
4
100
AcDbCircle
 10
174.6188757855359
 20
399.3911265441498
 30
0.0
 40
3.0
100
AcDbArc
 50
193.8304061902726
 51
256.1695938097272
  0
ARC
  5
178
330
15
100
AcDbEntity
  8
4
100
AcDbCircle
 10
176.2355316073906
 20
401.0077823660044
 30
0.0
 40
3.0
100
AcDbArc
 50
192.8489919641696
 51
257.1510080358277
  0
CIRCLE
  5
179
330
15
100
AcDbEntity
  8
4
100
AcDbCircle
 10
158.80660874567
 20
422.5788595042839
 30
0.0
 40
0.8
  0
ARC
  5
17A
330
15
100
AcDbEntity
  8
4
100
AcDbCircle
 10
145.0724617456699
 20
475.313006504284
 30
0.0
 40
5.0
100
AcDbArc
 50
105.6899460000012
 51
164.3100540000006
  0
ARC
  5
17B
330
15
100
AcDbEntity
  8
4
100
AcDbCircle
 10
174.6188757855359
 20
445.7665924644177
 30
0.0
 40
3.0
100
AcDbArc
 50
103.8304061902727
 51
166.1695938097274
  0
ARC
  5
17C
330
15
100
AcDbEntity
  8
4
100
AcDbCircle
 10
176.2355316073906
 20
444.1499366425633
 30
0.0
 40
3.0
100
AcDbArc
 50
102.8489919641713
 51
167.151008035826
  0
LINE
  5
17D
330
15
100
AcDbEntity
  8
4
100
AcDbLine
 10
110.30660874567
 20
482.5788595042839
 30
0.0
 11
153.3656367456701
 21
482.5788595042839
 31
0.0
  0
LINE
  5
17E
330
15
100
AcDbEntity
  8
4
100
AcDbLine
 10
182.80660874567
 20
490.5788595042839
 30
0.0
 11
182.80660874567
 21
488.8622415042839
 31
0.0
  0
ARC
  5
17F
330
15
100
AcDbEntity
  8
4
100
AcDbCircle
 10
180.80660874567
 20
488.8622415042839
 30
0.0
 40
2.0
100
AcDbArc
 50
274.8276319999997
 51
0.0
  0
LINE
  5
180
330
15
100
AcDbEntity
  8
4
100
AcDbLine
 10
266.80660874567
 20
386.078860004284
 30
0.0
 11
266.80660874567
 21
339.0788590042839
 31
0.0
  0
LINE
  5
181
330
15
100
AcDbEntity
  8
4
100
AcDbLine
 10
261.80660874567
 20
402.6038755042839
 30
0.0
 11
261.80660874567
 21
330.0788595042839
 31
0.0
  0
ARC
  5
182
330
15
100
AcDbEntity
  8
4
100
AcDbCircle
 10
62.80660874567002
 20
422.5788595042839
 30
0.0
 40
200.0
100
AcDbArc
 50
344.3100540000001
 51
15.68994599999996
  0
ARC
  5
183
330
15
100
AcDbEntity
  8
4
100
AcDbCircle
 10
277.80660874567
 20
377.5788595042839
 30
0.0
 40
5.5
100
AcDbArc
 50
270.0
 51
245.3800226713403
  0
LINE
  5
184
330
15
100
AcDbEntity
  8
4
100
AcDbLine
 10
265.80660874567
 20
395.0788595042839
 30
0.0
 11
265.80660874567
 21
330.0788595042839
 31
0.0
  0
LINE
  5
185
330
15
100
AcDbEntity
  8
L-CENTER
 48
1.5
100
AcDbLine
 10
277.80660874567
 20
367.6040675042839
 30
0.0
 11
277.80660874567
 21
387.4270045042838
 31
0.0
  0
LINE
  5
186
330
15
100
AcDbEntity
  8
4
100
AcDbLine
 10
290.30660874567
 20
370.5788595042839
 30
0.0
 11
290.30660874567
 21
388.365465504284
 31
0.0
  0
LINE
  5
187
330
15
100
AcDbEntity
  8
L-CENTER
 48
1.5
100
AcDbLine
 10
197.80660874567
 20
502.5788595042839
 30
0.0
 11
197.80660874567
 21
324.4162045042839
 31
0.0
  0
LINE
  5
188
330
15
100
AcDbEntity
  8
4
100
AcDbLine
 10
311.80660874567
 20
354.5788595042839
 30
0.0
 11
278.30660874567
 21
354.5788595042839
 31
0.0
  0
LINE
  5
189
330
15
100
AcDbEntity
  8
4
100
AcDbLine
 10
311.80660874567
 20
370.5788595042839
 30
0.0
 11
278.30660874567
 21
370.5788595042839
 31
0.0
  0
LINE
  5
18A
330
15
100
AcDbEntity
  8
4
100
AcDbLine
 10
312.80660874567
 20
360.0788595042839
 30
0.0
 11
283.30660874567
 21
360.0788595042839
 31
0.0
  0
LINE
  5
18B
330
15
100
AcDbEntity
  8
4
100
AcDbLine
 10
312.80660874567
 20
365.0788595042839
 30
0.0
 11
283.30660874567
 21
365.0788595042839
 31
0.0
  0
LINE
  5
193
330
15
100
AcDbEntity
  8
4
100
AcDbLine
 10
185.8066087456701
 20
185.1848377020043
 30
0.0
 11
185.8066087456701
 21
224.1848377020043
 31
0.0
  0
LINE
  5
194
330
15
100
AcDbEntity
  8
4
100
AcDbLine
 10
209.8066087456701
 20
185.1848377020043
 30
0.0
 11
209.8066087456701
 21
224.1848377020043
 31
0.0
  0
LINE
  5
195
330
15
100
AcDbEntity
  8
4
100
AcDbLine
 10
194.3066092456701
 20
191.6848372020042
 30
0.0
 11
194.3066092456701
 21
225.1848382020042
 31
0.0
  0
LINE
  5
196
330
15
100
AcDbEntity
  8
4
100
AcDbLine
 10
201.3066082456702
 20
191.6848372020042
 30
0.0
 11
201.3066082456702
 21
225.1848382020042
 31
0.0
  0
ARC
  5
197
330
15
100
AcDbEntity
  8
4
100
AcDbCircle
 10
197.8066087456701
 20
191.6848372020042
 30
0.0
 40
3.4999995
100
AcDbArc
 50
180.0
 51
0.0
  0
LINE
  5
198
330
15
100
AcDbEntity
  8
4
100
AcDbLine
 10
210.3066082456702
 20
185.1848377020043
 30
0.0
 11
185.3066092456701
 21
185.1848377020043
 31
0.0
  0
LINE
  5
199
330
15
100
AcDbEntity
  8
4
100
AcDbLine
 10
208.8066082456702
 20
225.1848382020042
 30
0.0
 11
186.8066092456701
 21
225.1848382020042
 31
0.0
  0
LINE
  5
19A
330
15
100
AcDbEntity
  8
4
100
AcDbLine
 10
194.3066092456701
 20
224.1848377020043
 30
0.0
 11
185.8066087456701
 21
224.1848377020043
 31
0.0
  0
LINE
  5
19B
330
15
100
AcDbEntity
  8
4
100
AcDbLine
 10
185.8066087456701
 20
224.1848377020043
 30
0.0
 11
186.8066092456701
 21
225.1848382020042
 31
0.0
  0
LINE
  5
19C
330
15
100
AcDbEntity
  8
4
100
AcDbLine
 10
201.3066082456702
 20
224.1848377020043
 30
0.0
 11
209.8066087456701
 21
224.1848377020043
 31
0.0
  0
LINE
  5
19D
330
15
100
AcDbEntity
  8
4
100
AcDbLine
 10
208.8066082456702
 20
225.1848382020042
 30
0.0
 11
209.8066087456701
 21
224.1848377020043
 31
0.0
  0
LINE
  5
1A3
330
15
100
AcDbEntity
  8
4
100
AcDbLine
 10
211.8068737456698
 20
338.578444504284
 30
0.0
 11
217.8068737456698
 21
338.578444504284
 31
0.0
  0
LINE
  5
1A4
330
15
100
AcDbEntity
  8
4
100
AcDbLine
 10
211.8068737456698
 20
350.578444504284
 30
0.0
 11
219.8068737456698
 21
350.578444504284
 31
0.0
  0
ARC
  5
1A5
330
15
100
AcDbEntity
  8
4
100
AcDbCircle
 10
190.80674974567
 20
346.5784505042839
 30
0.0
 40
4.0
100
AcDbArc
 50
19.47122099999986
 51
90.0
  0
ARC
  5
1A6
330
15
100
AcDbEntity
  8
4
100
AcDbCircle
 10
189.80686674567
 20
346.5784505042839
 30
0.0
 40
4.0
100
AcDbArc
 50
90.0
 51
180.0
  0
LINE
  5
1A7
330
15
100
AcDbEntity
  8
4
100
AcDbLine
 10
199.8068737456698
 20
346.078450504284
 30
0.0
 11
197.8068737456698
 21
346.078450504284
 31
0.0
  0
LINE
  5
1A8
330
15
100
AcDbEntity
  8
4
100
AcDbLine
 10
199.8068737456698
 20
343.078450504284
 30
0.0
 11
197.8068737456698
 21
343.078450504284
 31
0.0
  0
ARC
  5
1A9
330
15
100
AcDbEntity
  8
4
100
AcDbCircle
 10
189.80686674567
 20
342.5784505042839
 30
0.0
 40
4.0
100
AcDbArc
 50
180.0
 51
270.0
  0
ARC
  5
1AA
330
15
100
AcDbEntity
  8
4
100
AcDbCircle
 10
193.30686674567
 20
344.5784505042839
 30
0.0
 40
2.0
100
AcDbArc
 50
90.0
 51
270.0
  0
ARC
  5
1AB
330
15
100
AcDbEntity
  8
4
100
AcDbCircle
 10
190.8068687456698
 20
342.5784505042839
 30
0.0
 40
4.0
100
AcDbArc
 50
270.0
 51
340.5287790000001
  0
LINE
  5
1AC
330
15
100
AcDbEntity
  8
4
100
AcDbLine
 10
189.80686674567
 20
338.5784505042839
 30
0.0
 11
190.8068687456698
 21
338.5784505042839
 31
0.0
  0
LINE
  5
1AD
330
15
100
AcDbEntity
  8
4
100
AcDbLine
 10
189.80686674567
 20
350.5784505042839
 30
0.0
 11
190.80674974567
 21
350.5784505042839
 31
0.0
  0
LINE
  5
1AE
330
15
100
AcDbEntity
  8
4
100
AcDbLine
 10
185.80686674567
 20
342.5784505042839
 30
0.0
 11
185.80686674567
 21
346.5784505042839
 31
0.0
  0
ARC
  5
1AF
330
15
100
AcDbEntity
  8
4
100
AcDbCircle
 10
197.8068737456698
 20
345.578450504284
 30
0.0
 40
0.5
100
AcDbArc
 50
90.0
 51
180.0
  0
ARC
  5
1B0
330
15
100
AcDbEntity
  8
4
100
AcDbCircle
 10
197.8068737456698
 20
343.578450504284
 30
0.0
 40
0.5
100
AcDbArc
 50
180.0
 51
270.0
  0
LINE
  5
1B1
330
15
100
AcDbEntity
  8
4
100
AcDbLine
 10
197.3068737456698
 20
343.578450504284
 30
0.0
 11
197.3068737456698
 21
345.578450504284
 31
0.0
  0
LINE
  5
1B2
330
15
100
AcDbEntity
  8
4
100
AcDbLine
 10
193.30686674567
 20
342.5784505042839
 30
0.0
 11
193.6352957456702
 21
342.5784505042839
 31
0.0
  0
ARC
  5
1B3
330
15
100
AcDbEntity
  8
4
100
AcDbCircle
 10
193.6352957456702
 20
341.5784505042839
 30
0.0
 40
1.0
100
AcDbArc
 50
340.5287789999982
 51
90.0
  0
LINE
  5
1B4
330
15
100
AcDbEntity
  8
4
100
AcDbLine
 10
193.30686674567
 20
346.5784505042839
 30
0.0
 11
193.6351767456699
 21
346.5784505042839
 31
0.0
  0
ARC
  5
1B5
330
15
100
AcDbEntity
  8
4
100
AcDbCircle
 10
193.6351767456699
 20
347.5784505042839
 30
0.0
 40
1.0
100
AcDbArc
 50
270.0
 51
19.47122100000178
  0
ARC
  5
1B6
330
15
100
AcDbEntity
  8
4
100
AcDbCircle
 10
207.8068737456698
 20
340.078448504284
 30
0.0
 40
0.5
100
AcDbArc
 50
90.0
 51
180.0
  0
ARC
  5
1B7
330
15
100
AcDbEntity
  8
4
100
AcDbCircle
 10
207.8068737456698
 20
339.078448504284
 30
0.0
 40
0.5
100
AcDbArc
 50
180.0
 51
270.0
  0
LINE
  5
1B8
330
15
100
AcDbEntity
  8
4
100
AcDbLine
 10
202.3068737456698
 20
350.078444504284
 30
0.0
 11
202.3068737456698
 21
339.078448504284
 31
0.0
  0
LINE
  5
1B9
330
15
100
AcDbEntity
  8
4
100
AcDbLine
 10
205.3068737456698
 20
350.078444504284
 30
0.0
 11
205.3068737456698
 21
339.078448504284
 31
0.0
  0
ARC
  5
1BA
330
15
100
AcDbEntity
  8
4
100
AcDbCircle
 10
204.8068737456698
 20
339.078448504284
 30
0.0
 40
0.5
100
AcDbArc
 50
270.0
 51
0.0
  0
ARC
  5
1BB
330
15
100
AcDbEntity
  8
4
100
AcDbCircle
 10
199.8068737456698
 20
345.578450504284
 30
0.0
 40
0.5
100
AcDbArc
 50
0.0
 51
90.0
  0
ARC
  5
1BC
330
15
100
AcDbEntity
  8
4
100
AcDbCircle
 10
199.8068737456698
 20
343.578450504284
 30
0.0
 40
0.5
100
AcDbArc
 50
270.0
 51
0.0
  0
ARC
  5
1BD
330
15
100
AcDbEntity
  8
4
100
AcDbCircle
 10
202.8068737456698
 20
339.078448504284
 30
0.0
 40
0.5
100
AcDbArc
 50
180.0
 51
270.0
  0
LINE
  5
1BE
330
15
100
AcDbEntity
  8
4
100
AcDbLine
 10
204.8068737456698
 20
338.578448504284
 30
0.0
 11
202.8068737456698
 21
338.578448504284
 31
0.0
  0
LINE
  5
1BF
330
15
100
AcDbEntity
  8
4
100
AcDbLine
 10
200.3068737456698
 20
343.578450504284
 30
0.0
 11
200.3068737456698
 21
345.578450504284
 31
0.0
  0
LINE
  5
1C0
330
15
100
AcDbEntity
  8
4
100
AcDbLine
 10
207.3068737456698
 20
340.078448504284
 30
0.0
 11
207.3068737456698
 21
339.078448504284
 31
0.0
  0
ARC
  5
1C1
330
15
100
AcDbEntity
  8
4
100
AcDbCircle
 10
204.8068737456698
 20
350.078444504284
 30
0.0
 40
0.5
100
AcDbArc
 50
0.0
 51
90.0
  0
ARC
  5
1C2
330
15
100
AcDbEntity
  8
4
100
AcDbCircle
 10
202.8068737456698
 20
350.078444504284
 30
0.0
 40
0.5
100
AcDbArc
 50
90.0
 51
180.0
  0
LINE
  5
1C3
330
15
100
AcDbEntity
  8
4
100
AcDbLine
 10
204.8068737456698
 20
350.578444504284
 30
0.0
 11
202.8068737456698
 21
350.578444504284
 31
0.0
  0
LINE
  5
1C4
330
15
100
AcDbEntity
  8
4
100
AcDbLine
 10
211.3068737456698
 20
339.078444504284
 30
0.0
 11
211.3068737456698
 21
341.128955504284
 31
0.0
  0
ARC
  5
1C5
330
15
100
AcDbEntity
  8
4
100
AcDbCircle
 10
211.8068737456698
 20
341.128955504284
 30
0.0
 40
0.5
100
AcDbArc
 50
101.5369590000026
 51
180.0
  0
ARC
  5
1C6
330
15
100
AcDbEntity
  8
4
100
AcDbCircle
 10
211.8068737456698
 20
339.078444504284
 30
0.0
 40
0.5
100
AcDbArc
 50
180.0
 51
270.0
  0
LINE
  5
1C7
330
15
100
AcDbEntity
  8
4
100
AcDbLine
 10
211.3068737456698
 20
346.027934504284
 30
0.0
 11
211.3068737456698
 21
350.078444504284
 31
0.0
  0
ARC
  5
1C8
330
15
100
AcDbEntity
  8
4
100
AcDbCircle
 10
211.3068737456698
 20
343.578444504284
 30
0.0
 40
2.0
100
AcDbArc
 50
281.5369589999997
 51
78.4630410000003
  0
ARC
  5
1C9
330
15
100
AcDbEntity
  8
4
100
AcDbCircle
 10
211.8068737456698
 20
346.027934504284
 30
0.0
 40
0.5
100
AcDbArc
 50
180.0
 51
258.4630409999974
  0
ARC
  5
1CA
330
15
100
AcDbEntity
  8
4
100
AcDbCircle
 10
211.8068737456698
 20
350.078444504284
 30
0.0
 40
0.5
100
AcDbArc
 50
90.0
 51
180.0
  0
LINE
  5
1CB
330
15
100
AcDbEntity
  8
4
100
AcDbLine
 10
209.3068737456698
 20
340.078448504284
 30
0.0
 11
209.3068737456698
 21
339.078448504284
 31
0.0
  0
ARC
  5
1CC
330
15
100
AcDbEntity
  8
4
100
AcDbCircle
 10
208.8068737456698
 20
340.078448504284
 30
0.0
 40
0.5
100
AcDbArc
 50
0.0
 51
90.0
  0
ARC
  5
1CD
330
15
100
AcDbEntity
  8
4
100
AcDbCircle
 10
208.8068737456698
 20
339.078448504284
 30
0.0
 40
0.5
100
AcDbArc
 50
270.0
 51
0.0
  0
LINE
  5
1CE
330
15
100
AcDbEntity
  8
4
100
AcDbLine
 10
207.8068737456698
 20
338.578448504284
 30
0.0
 11
208.8068737456698
 21
338.578448504284
 31
0.0
  0
LINE
  5
1CF
330
15
100
AcDbEntity
  8
4
100
AcDbLine
 10
207.8068737456698
 20
340.578448504284
 30
0.0
 11
208.8068737456698
 21
340.578448504284
 31
0.0
  0
ARC
  5
1D0
330
15
100
AcDbEntity
  8
4
100
AcDbCircle
 10
217.8068737456698
 20
341.078444504284
 30
0.0
 40
2.5
100
AcDbArc
 50
270.0
 51
0.0
  0
LINE
  5
1D1
330
15
100
AcDbEntity
  8
4
100
AcDbLine
 10
220.3068737456698
 20
341.078444504284
 30
0.0
 11
220.3068737456698
 21
342.614343504284
 31
0.0
  0
ARC
  5
1D2
330
15
100
AcDbEntity
  8
4
100
AcDbCircle
 10
217.8068737456698
 20
342.614343504284
 30
0.0
 40
2.5
100
AcDbArc
 50
0.0
 51
60.00000000000011
  0
LINE
  5
1D3
330
15
100
AcDbEntity
  8
4
100
AcDbLine
 10
220.3068737456698
 20
348.078444504284
 30
0.0
 11
220.3068737456698
 21
350.078444504284
 31
0.0
  0
ARC
  5
1D4
330
15
100
AcDbEntity
  8
4
100
AcDbCircle
 10
219.8068737456698
 20
350.078444504284
 30
0.0
 40
0.5
100
AcDbArc
 50
0.0
 51
90.0
  0
ARC
  5
1D5
330
15
100
AcDbEntity
  8
4
100
AcDbCircle
 10
219.8068737456698
 20
348.078444504284
 30
0.0
 40
0.5
100
AcDbArc
 50
270.0
 51
0.0
  0
ARC
  5
1D6
330
15
100
AcDbEntity
  8
4
100
AcDbCircle
 10
219.8068737456698
 20
346.078444504284
 30
0.0
 40
1.5
100
AcDbArc
 50
90.0
 51
239.9999999999994
  0
LINE
  5
1D7
330
15
100
AcDbEntity
  8
4
100
AcDbLine
 10
261.80660874567
 20
330.0788595042839
 30
0.0
 11
265.80660874567
 21
330.0788595042839
 31
0.0
  0
ARC
  5
1D8
330
15
100
AcDbEntity
  8
4
100
AcDbCircle
 10
260.80660874567
 20
330.0788595042839
 30
0.0
 40
1.0
100
AcDbArc
 50
270.0
 51
0.0
  0
LINE
  5
1D9
330
15
100
AcDbEntity
  8
4
100
AcDbLine
 10
265.80660874567
 20
332.0788595042839
 30
0.0
 11
265.80660874567
 21
332.0788595042839
 31
0.0
  0
LINE
  5
1DA
330
15
100
AcDbEntity
  8
4
100
AcDbLine
 10
265.8066082456701
 20
339.0788590042839
 30
0.0
 11
266.80660874567
 21
339.0788590042839
 31
0.0
  0
ARC
  5
1DB
330
15
100
AcDbEntity
  8
4
100
AcDbCircle
 10
250.5407557456701
 20
369.844712504284
 30
0.0
 40
5.0
100
AcDbArc
 50
285.6899460000008
 51
344.3100540000007
  0
LINE
  5
1DC
330
15
100
AcDbEntity
  8
4
100
AcDbLine
 10
277.80660874567
 20
372.5788595042839
 30
0.0
 11
277.80660874567
 21
353.0788595042839
 31
0.0
  0
LINE
  5
1DD
330
15
100
AcDbEntity
  8
4
100
AcDbLine
 10
277.80660874567
 20
353.0788595042839
 30
0.0
 11
266.8066087456701
 21
353.0788595042839
 31
0.0
  0
ARC
  5
1DE
330
15
100
AcDbEntity
  8
4
100
AcDbCircle
 10
278.30660874567
 20
354.0788595042839
 30
0.0
 40
0.5
100
AcDbArc
 50
90.0
 51
180.0
  0
LINE
  5
1DF
330
15
100
AcDbEntity
  8
4
100
AcDbLine
 10
277.80660874567
 20
372.5788595042839
 30
0.0
 11
266.8066087456701
 21
372.5788595042841
 31
0.0
  0
ARC
  5
1E0
330
15
100
AcDbEntity
  8
4
100
AcDbCircle
 10
278.30660874567
 20
371.0788595042839
 30
0.0
 40
0.5
100
AcDbArc
 50
180.0
 51
270.0
  0
ARC
  5
1E1
330
15
100
AcDbEntity
  8
4
100
AcDbCircle
 10
283.30660874567
 20
362.5788595042839
 30
0.0
 40
2.5
100
AcDbArc
 50
90.0
 51
270.0
  0
LINE
  5
1EB
330
15
100
AcDbEntity
  8
4
100
AcDbLine
 10
312.80660874567
 20
355.5788595042839
 30
0.0
 11
312.80660874567
 21
369.5788595042839
 31
0.0
  0
LINE
  5
1EC
330
15
100
AcDbEntity
  8
4
100
AcDbLine
 10
311.80660874567
 20
354.5788595042839
 30
0.0
 11
312.80660874567
 21
355.5788595042839
 31
0.0
  0
LINE
  5
1ED
330
15
100
AcDbEntity
  8
4
100
AcDbLine
 10
311.80660874567
 20
354.5788595042839
 30
0.0
 11
311.80660874567
 21
360.0788595042839
 31
0.0
  0
LINE
  5
1EE
330
15
100
AcDbEntity
  8
4
100
AcDbLine
 10
311.80660874567
 20
365.0788595042839
 30
0.0
 11
311.80660874567
 21
370.5788595042839
 31
0.0
  0
LINE
  5
1EF
330
15
100
AcDbEntity
  8
4
100
AcDbLine
 10
311.80660874567
 20
370.5788595042839
 30
0.0
 11
312.80660874567
 21
369.5788595042839
 31
0.0
  0
ARC
  5
1F0
330
15
100
AcDbEntity
  8
4
100
AcDbCircle
 10
285.30660874567
 20
477.5788595042839
 30
0.0
 40
5.0
100
AcDbArc
 50
0.0
 51
90.0
  0
ARC
  5
1F1
330
15
100
AcDbEntity
  8
4
100
AcDbCircle
 10
197.80660874567
 20
422.5788595042839
 30
0.0
 40
11.999997
100
AcDbArc
 50
286.9577726594194
 51
253.0420779999997
  0
ARC
  5
1F2
330
15
100
AcDbEntity
  8
4
100
AcDbCircle
 10
124.80660874567
 20
422.5788595042839
 30
0.0
 40
100.0
100
AcDbArc
 50
347.1510080358287
 51
12.84899196417129
  0
ARC
  5
1F3
330
15
100
AcDbEntity
  8
4
100
AcDbCircle
 10
126.80660874567
 20
422.5788595042839
 30
0.0
 40
100.0
100
AcDbArc
 50
346.1695938097278
 51
13.83040619027227
  0
LINE
  5
1F4
330
15
100
AcDbEntity
  8
4
100
AcDbLine
 10
194.30660924567
 20
414.5788600042838
 30
0.0
 11
201.30660974567
 21
414.5788600042838
 31
0.0
  0
LINE
  5
1F5
330
15
100
AcDbEntity
  8
4
100
AcDbLine
 10
201.30660974567
 20
407.5788595042839
 30
0.0
 11
194.30660924567
 21
407.5788595042839
 31
0.0
  0
LINE
  5
1F6
330
15
100
AcDbEntity
  8
4
100
AcDbLine
 10
194.30660924567
 20
414.5788600042838
 30
0.0
 11
194.30660924567
 21
407.5788595042839
 31
0.0
  0
LINE
  5
1F7
330
15
100
AcDbEntity
  8
4
100
AcDbLine
 10
201.30660974567
 20
414.5788600042838
 30
0.0
 11
201.30660974567
 21
407.5788595042839
 31
0.0
  0
ARC
  5
1F8
330
15
100
AcDbEntity
  8
4
100
AcDbCircle
 10
220.9943417058041
 20
399.3911265441498
 30
0.0
 40
3.0
100
AcDbArc
 50
283.8304061902728
 51
346.1695938097274
  0
ARC
  5
1F9
330
15
100
AcDbEntity
  8
4
100
AcDbCircle
 10
219.3776858839494
 20
401.0077823660044
 30
0.0
 40
3.0
100
AcDbArc
 50
282.8489919641723
 51
347.1510080358303
  0
ARC
  5
1FA
330
15
100
AcDbEntity
  8
4
100
AcDbCircle
 10
220.9943417058041
 20
445.7665924644177
 30
0.0
 40
3.0
100
AcDbArc
 50
13.83040619027259
 51
76.16959380972727
  0
ARC
  5
1FB
330
15
100
AcDbEntity
  8
4
100
AcDbCircle
 10
219.3776858839494
 20
444.1499366425633
 30
0.0
 40
3.0
100
AcDbArc
 50
12.84899196417401
 51
77.15100803582875
  0
LINE
  5
1FC
330
15
100
AcDbEntity
  8
4
100
AcDbLine
 10
286.1541947456699
 20
393.293102504284
 30
0.0
 11
261.2379567456701
 21
397.5788595042839
 31
0.0
  0
LINE
  5
1FD
330
15
100
AcDbEntity
  8
L-CENTER
 48
1.5
100
AcDbLine
 10
267.83181674567
 20
377.5788595042839
 30
0.0
 11
287.78140074567
 21
377.5788595042839
 31
0.0
  0
LINE
  5
1FE
330
15
100
AcDbEntity
  8
4
100
AcDbLine
 10
263.1906147456698
 20
395.0788595042839
 30
0.0
 11
265.80660874567
 21
395.0788595042839
 31
0.0
  0
ARC
  5
1FF
330
15
100
AcDbEntity
  8
4
100
AcDbCircle
 10
263.1906147456698
 20
397.0788595042839
 30
0.0
 40
2.0
100
AcDbArc
 50
172.7477669999987
 51
270.0
  0
LINE
  5
200
330
15
100
AcDbEntity
  8
4
100
AcDbLine
 10
265.8066082456701
 20
386.078860004284
 30
0.0
 11
266.80660874567
 21
386.078860004284
 31
0.0
  0
ARC
  5
201
330
15
100
AcDbEntity
  8
4
100
AcDbCircle
 10
285.30660874567
 20
388.365465504284
 30
0.0
 40
5.0
100
AcDbArc
 50
0.0
 51
80.24025100000046
  0
LINE
  5
202
330
15
100
AcDbEntity
  8
L-CENTER
 48
1.5
100
AcDbLine
 10
287.78140074567
 20
467.5788595042839
 30
0.0
 11
267.83181674567
 21
467.5788595042839
 31
0.0
  0
CIRCLE
  5
203
330
15
100
AcDbEntity
  8
4
100
AcDbCircle
 10
277.80660874567
 20
467.5788595042839
 30
0.0
 40
5.5
  0
LINE
  5
204
330
15
100
AcDbEntity
  8
4
100
AcDbLine
 10
286.1541947456699
 20
451.864616504284
 30
0.0
 11
261.2379567456701
 21
447.5788595042839
 31
0.0
  0
ARC
  5
205
330
15
100
AcDbEntity
  8
4
100
AcDbCircle
 10
250.5407557456701
 20
475.313006504284
 30
0.0
 40
5.0
100
AcDbArc
 50
15.68994599999937
 51
74.3100539999988
  0
LINE
  5
206
330
15
100
AcDbEntity
  8
L-CENTER
 48
1.5
100
AcDbLine
 10
277.80660874567
 20
457.6040675042839
 30
0.0
 11
277.80660874567
 21
477.5536515042838
 31
0.0
  0
ARC
  5
207
330
15
100
AcDbEntity
  8
4
100
AcDbCircle
 10
285.30660874567
 20
456.792253504284
 30
0.0
 40
5.0
100
AcDbArc
 50
279.7597489999989
 51
0.0
  0
LINE
  5
208
330
15
100
AcDbEntity
  8
4
100
AcDbLine
 10
290.30660874567
 20
456.792253504284
 30
0.0
 11
290.30660874567
 21
477.5788595042839
 31
0.0
  0
LINE
  5
209
330
15
100
AcDbEntity
  8
4
100
AcDbLine
 10
242.2475807456699
 20
482.5788595042839
 30
0.0
 11
285.30660874567
 21
482.5788595042839
 31
0.0
  0
LINE
  5
20A
330
15
100
AcDbEntity
  8
4
100
AcDbLine
 10
185.3066087456701
 20
492.0788595042839
 30
0.0
 11
210.3066087456701
 21
492.0788595042839
 31
0.0
  0
LINE
  5
20B
330
15
100
AcDbEntity
  8
4
100
AcDbLine
 10
185.3066087456701
 20
494.0788595042839
 30
0.0
 11
210.3066087456701
 21
494.0788595042839
 31
0.0
  0
LINE
  5
20C
330
15
100
AcDbEntity
  8
4
100
AcDbLine
 10
186.3066087456701
 20
490.5788595042839
 30
0.0
 11
209.3066087456701
 21
490.5788595042839
 31
0.0
  0
LINE
  5
20D
330
15
100
AcDbEntity
  8
4
100
AcDbLine
 10
186.9812911983646
 20
499.0788595042839
 30
0.0
 11
208.6319262929757
 21
499.0788595042839
 31
0.0
  0
LWPOLYLINE
  5
20E
330
15
100
AcDbEntity
  8
4
100
AcDbPolyline
 90
        2
 70
     0
 43
0.0
 10
186.9812911983646
 20
499.0788595042839
 10
186.9812911983646
 20
494.0788595042839
  0
LINE
  5
20F
330
15
100
AcDbEntity
  8
4
100
AcDbLine
 10
185.3066087456701
 20
494.0788595042839
 30
0.0
 11
185.3066087456701
 21
492.0788595042839
 31
0.0
  0
LINE
  5
210
330
15
100
AcDbEntity
  8
4
100
AcDbLine
 10
186.3066087456701
 20
492.0788595042839
 30
0.0
 11
186.3066087456701
 21
490.5788595042839
 31
0.0
  0
LWPOLYLINE
  5
211
330
15
100
AcDbEntity
  8
4
100
AcDbPolyline
 90
        2
 70
     0
 43
0.0
 10
208.6319262929757
 20
494.0788595042839
 10
208.6319262929757
 20
499.0788595042839
  0
LINE
  5
212
330
15
100
AcDbEntity
  8
4
100
AcDbLine
 10
210.3066087456701
 20
494.0788595042839
 30
0.0
 11
210.3066087456701
 21
492.0788595042839
 31
0.0
  0
LINE
  5
213
330
15
100
AcDbEntity
  8
4
100
AcDbLine
 10
209.3066087456701
 20
492.0788595042839
 30
0.0
 11
209.3066087456701
 21
490.5788595042839
 31
0.0
  0
LINE
  5
214
330
15
100
AcDbEntity
  8
4
100
AcDbLine
 10
212.80660874567
 20
490.5788595042839
 30
0.0
 11
212.80660874567
 21
488.8622415042839
 31
0.0
  0
ARC
  5
215
330
15
100
AcDbEntity
  8
4
100
AcDbCircle
 10
214.80660874567
 20
488.8622415042839
 30
0.0
 40
2.0
100
AcDbArc
 50
180.0
 51
265.1723680000003
  0
LINE
  5
216
330
15
100
AcDbEntity
  8
4
100
AcDbLine
 10
474.1750366800427
 20
185.1848377020043
 30
0.0
 11
474.1750366800427
 21
176.5848382020043
 31
0.0
  0
LINE
  5
217
330
15
100
AcDbEntity
  8
4
100
AcDbLine
 10
449.1750361800428
 20
185.1848377020043
 30
0.0
 11
449.1750361800428
 21
176.5848382020043
 31
0.0
  0
LINE
  5
218
330
15
100
AcDbEntity
  8
L-CENTER
 48
1.5
100
AcDbLine
 10
461.6750356800426
 20
227.5632637020043
 30
0.0
 11
461.6750356800426
 21
12.80665570200421
 31
0.0
  0
ARC
  5
21D
330
15
100
AcDbEntity
  8
4
100
AcDbCircle
 10
518.6750356800426
 20
70.18496020200433
 30
0.0
 40
3.0
100
AcDbArc
 50
0.0
 51
90.0
  0
ARC
  5
21E
330
15
100
AcDbEntity
  8
4
100
AcDbCircle
 10
524.6750356800426
 20
74.18495920200422
 30
0.0
 40
1.9999995
100
AcDbArc
 50
270.0
 51
0.0
  0
ARC
  5
220
330
15
100
AcDbEntity
  8
4
100
AcDbCircle
 10
489.6750361800428
 20
70.18496020200433
 30
0.0
 40
3.0
100
AcDbArc
 50
90.0
 51
180.0003060001453
  0
ARC
  5
221
330
15
100
AcDbEntity
  8
4
100
AcDbCircle
 10
494.6750356800426
 20
70.18496020200433
 30
0.0
 40
3.0
100
AcDbArc
 50
90.0
 51
180.0003060001453
  0
LINE
  5
222
330
15
100
AcDbEntity
  8
L-CENTER
 48
1.5
100
AcDbLine
 10
506.6750356800426
 20
79.18496020200433
 30
0.0
 11
506.6750356800426
 21
51.18495970200428
 31
0.0
  0
LINE
  5
223
330
15
100
AcDbEntity
  8
4
100
AcDbLine
 10
486.6750361800428
 20
57.18495970200428
 30
0.0
 11
521.6750356800426
 21
57.18495970200428
 31
0.0
  0
LINE
  5
224
330
15
100
AcDbEntity
  8
4
100
AcDbLine
 10
489.6750361800428
 20
73.18496020200433
 30
0.0
 11
518.6750356800426
 21
73.18496020200433
 31
0.0
  0
ARC
  5
226
330
15
100
AcDbEntity
  8
4
100
AcDbCircle
 10
478.7212036800427
 20
69.68495920200422
 30
0.0
 40
1.0000005
100
AcDbArc
 50
149.9999999999922
 51
270.0
  0
LINE
  5
22A
330
15
100
AcDbEntity
  8
4
100
AcDbLine
 10
491.6750356800426
 20
70.18496020200433
 30
0.0
 11
491.6750356800426
 21
57.18495970200428
 31
0.0
  0
LINE
  5
22B
330
15
100
AcDbEntity
  8
4
100
AcDbLine
 10
486.6750361800428
 20
70.18496020200433
 30
0.0
 11
486.6750361800428
 21
57.18495970200428
 31
0.0
  0
ARC
  5
22C
330
15
100
AcDbEntity
  8
4
100
AcDbCircle
 10
483.6750361800428
 20
69.18495970200428
 30
0.0
 40
3.0
100
AcDbArc
 50
0.0
 51
90.0
  0
LINE
  5
22D
330
15
100
AcDbEntity
  8
4
100
AcDbLine
 10
486.6750361800428
 20
68.68496020200433
 30
0.0
 11
478.7212036800427
 21
68.68496020200433
 31
0.0
  0
LINE
  5
22E
330
15
100
AcDbEntity
  8
4
100
AcDbLine
 10
479.0098786800427
 20
72.18495970200428
 30
0.0
 11
477.8551771800426
 21
70.18496020200433
 31
0.0
  0
LINE
  5
232
330
15
100
AcDbEntity
  8
4
100
AcDbLine
 10
521.6750356800426
 20
57.18495970200428
 30
0.0
 11
521.6750356800426
 21
70.18496020200433
 31
0.0
  0
LINE
  5
233
330
15
100
AcDbEntity
  8
4
100
AcDbLine
 10
524.6750356800426
 20
72.18495970200428
 30
0.0
 11
520.9111201800426
 21
72.18495970200428
 31
0.0
  0
LINE
  5
235
330
15
100
AcDbEntity
  8
4
100
AcDbLine
 10
465.9250356800426
 20
169.6848382020042
 30
0.0
 11
490.6750366800425
 21
169.6848382020042
 31
0.0
  0
LINE
  5
236
330
15
100
AcDbEntity
  8
4
100
AcDbLine
 10
490.6750366800425
 20
169.6848382020042
 30
0.0
 11
501.4135876800426
 21
168.5847397020043
 31
0.0
  0
LINE
  5
237
330
15
100
AcDbEntity
  8
4
100
AcDbLine
 10
485.1750361800428
 20
175.5848377020043
 30
0.0
 11
485.1750361800428
 21
176.5848382020043
 31
0.0
  0
LINE
  5
238
330
15
100
AcDbEntity
  8
4
100
AcDbLine
 10
488.6750356800426
 20
175.5848377020043
 30
0.0
 11
490.6750366800425
 21
169.6848382020042
 31
0.0
  0
LINE
  5
239
330
15
100
AcDbEntity
  8
4
100
AcDbLine
 10
538.1750356800426
 20
126.6848377020043
 30
0.0
 11
538.1750356800426
 21
101.6848372020043
 31
0.0
  0
LINE
  5
23A
330
15
100
AcDbEntity
  8
4
100
AcDbLine
 10
533.1750361800428
 20
126.6848377020043
 30
0.0
 11
533.1750361800428
 21
101.6848372020043
 31
0.0
  0
LINE
  5
23B
330
15
100
AcDbEntity
  8
4
100
AcDbLine
 10
531.1750366800425
 20
126.6848377020043
 30
0.0
 11
531.1750366800425
 21
101.6848372020043
 31
0.0
  0
LINE
  5
23C
330
15
100
AcDbEntity
  8
4
100
AcDbLine
 10
529.6750366800425
 20
99.18495970200428
 30
0.0
 11
529.6750366800425
 21
129.1849597020043
 31
0.0
  0
LINE
  5
23D
330
15
100
AcDbEntity
  8
4
100
AcDbLine
 10
526.6750366800425
 20
74.18495920200422
 30
0.0
 11
526.6750366800425
 21
154.6849597020043
 31
0.0
  0
LINE
  5
23E
330
15
100
AcDbEntity
  8
L-CENTER
 48
1.5
100
AcDbLine
 10
543.5395381800427
 20
114.1849597020043
 30
0.0
 11
520.7617066800426
 21
114.1849597020043
 31
0.0
  0
LINE
  5
23F
330
15
100
AcDbEntity
  8
4
100
AcDbLine
 10
528.6750361800428
 20
74.18495920200422
 30
0.0
 11
528.6750361800428
 21
102.1849597020043
 31
0.0
  0
LINE
  5
240
330
15
100
AcDbEntity
  8
L-CENTER
 48
1.5
100
AcDbLine
 10
531.4253551800425
 20
84.18495970200428
 30
0.0
 11
523.7451346800426
 21
84.18495970200428
 31
0.0
  0
LINE
  5
241
330
15
100
AcDbEntity
  8
4
100
AcDbLine
 10
529.6750651800426
 20
89.07595120200432
 30
0.0
 11
529.6750651800426
 21
79.29372370200423
 31
0.0
  0
LINE
  5
242
330
15
100
AcDbEntity
  8
4
100
AcDbLine
 10
529.6750651800426
 20
79.29372370200423
 30
0.0
 11
528.6750361800428
 21
79.43434870200423
 31
0.0
  0
LINE
  5
243
330
15
100
AcDbEntity
  8
4
100
AcDbLine
 10
526.6750366800425
 20
74.18495920200422
 30
0.0
 11
528.6750361800428
 21
74.18495920200422
 31
0.0
  0
LINE
  5
244
330
15
100
AcDbEntity
  8
4
100
AcDbLine
 10
528.6750361800428
 20
99.18495970200428
 30
0.0
 11
529.6750366800425
 21
99.18495970200428
 31
0.0
  0
LINE
  5
245
330
15
100
AcDbEntity
  8
4
100
AcDbLine
 10
529.6750651800426
 20
89.07595120200432
 30
0.0
 11
528.6750361800428
 21
88.93508170200425
 31
0.0
  0
LINE
  5
246
330
15
100
AcDbEntity
  8
4
100
AcDbLine
 10
531.1750366800425
 20
101.6848372020043
 30
0.0
 11
538.1750356800426
 21
101.6848372020043
 31
0.0
  0
LINE
  5
247
330
15
100
AcDbEntity
  8
4
100
AcDbLine
 10
533.1750361800428
 20
107.9348377020043
 30
0.0
 11
538.1750356800426
 21
107.9348377020043
 31
0.0
  0
LINE
  5
248
330
15
100
AcDbEntity
  8
4
100
AcDbLine
 10
529.6750366800425
 20
102.6848377020043
 30
0.0
 11
531.1750366800425
 21
102.6848377020043
 31
0.0
  0
LINE
  5
249
330
15
100
AcDbEntity
  8
4
100
AcDbLine
 10
533.1750361800428
 20
120.4348372020043
 30
0.0
 11
538.1750356800426
 21
120.4348372020043
 31
0.0
  0
LINE
  5
24F
330
15
100
AcDbEntity
  8
4
100
AcDbLine
 10
538.1750356800426
 20
126.6848377020043
 30
0.0
 11
531.1750366800425
 21
126.6848377020043
 31
0.0
  0
LINE
  5
250
330
15
100
AcDbEntity
  8
4
100
AcDbLine
 10
526.6750366800425
 20
129.1849597020043
 30
0.0
 11
529.6750366800425
 21
129.1849597020043
 31
0.0
  0
LINE
  5
251
330
15
100
AcDbEntity
  8
4
100
AcDbLine
 10
529.6750366800425
 20
125.6848372020043
 30
0.0
 11
531.1750366800425
 21
125.6848372020043
 31
0.0
  0
LINE
  5
252
330
15
100
AcDbEntity
  8
L-CENTER
 48
1.5
100
AcDbLine
 10
510.1724582919715
 20
176.4340373871549
 30
0.0
 11
510.1724582919703
 21
153.1175099929259
 31
0.0
  0
LINE
  5
253
330
15
100
AcDbEntity
  8
4
100
AcDbLine
 10
524.6750356800426
 20
167.5847392020043
 30
0.0
 11
524.6750356800426
 21
159.6849592020042
 31
0.0
  0
LINE
  5
254
330
15
100
AcDbEntity
  8
4
100
AcDbLine
 10
524.6750356800426
 20
154.6849597020043
 30
0.0
 11
524.6750356800426
 21
159.6849592020042
 31
0.0
  0
ARC
  5
255
330
15
100
AcDbEntity
  8
4
100
AcDbCircle
 10
523.6750366800425
 20
167.5847392020043
 30
0.0
 40
1.0000005
100
AcDbArc
 50
0.0
 51
90.0
  0
LINE
  5
260
330
15
100
AcDbEntity
  8
4
100
AcDbLine
 10
446.6750356800426
 20
225.1848382020042
 30
0.0
 11
446.6750356800426
 21
188.1848377020043
 31
0.0
  0
LINE
  5
261
330
15
100
AcDbEntity
  8
4
100
AcDbLine
 10
449.6750356800426
 20
185.1848377020043
 30
0.0
 11
449.6750356800426
 21
224.1848377020043
 31
0.0
  0
LINE
  5
262
330
15
100
AcDbEntity
  8
4
100
AcDbLine
 10
473.6750356800426
 20
185.1848377020043
 30
0.0
 11
473.6750356800426
 21
224.1848377020043
 31
0.0
  0
LINE
  5
263
330
15
100
AcDbEntity
  8
4
100
AcDbLine
 10
474.1750366800427
 20
185.1848377020043
 30
0.0
 11
449.1750361800428
 21
185.1848377020043
 31
0.0
  0
LINE
  5
264
330
15
100
AcDbEntity
  8
4
100
AcDbLine
 10
449.6750356800426
 20
188.1848377020043
 30
0.0
 11
446.6750356800426
 21
188.1848377020043
 31
0.0
  0
LINE
  5
265
330
15
100
AcDbEntity
  8
4
100
AcDbLine
 10
472.6750366800427
 20
225.1848382020042
 30
0.0
 11
446.6750356800426
 21
225.1848382020042
 31
0.0
  0
LINE
  5
266
330
15
100
AcDbEntity
  8
4
100
AcDbLine
 10
449.6750356800426
 20
224.1848377020043
 30
0.0
 11
473.6750356800426
 21
224.1848377020043
 31
0.0
  0
LINE
  5
267
330
15
100
AcDbEntity
  8
4
100
AcDbLine
 10
449.6750356800426
 20
224.1848377020043
 30
0.0
 11
450.6750361800428
 21
225.1848382020042
 31
0.0
  0
LINE
  5
268
330
15
100
AcDbEntity
  8
4
100
AcDbLine
 10
472.6750366800427
 20
225.1848382020042
 30
0.0
 11
473.6750356800426
 21
224.1848377020043
 31
0.0
  0
LINE
  5
276
330
15
100
AcDbEntity
  8
4
100
AcDbLine
 10
146.05660874567
 20
169.8847397020043
 30
0.0
 11
137.55660874567
 21
169.8847397020043
 31
0.0
  0
LINE
  5
277
330
15
100
AcDbEntity
  8
4
100
AcDbLine
 10
146.05660874567
 20
174.8847397020043
 30
0.0
 11
137.55660874567
 21
174.8847397020043
 31
0.0
  0
LINE
  5
278
330
15
100
AcDbEntity
  8
4
100
AcDbLine
 10
146.05660874567
 20
174.8847397020043
 30
0.0
 11
146.05660874567
 21
168.5847397020044
 31
0.0
  0
LINE
  5
279
330
15
100
AcDbEntity
  8
4
100
AcDbLine
 10
137.55660874567
 20
174.8847397020043
 30
0.0
 11
137.55660874567
 21
168.5847397020044
 31
0.0
  0
LINE
  5
27A
330
15
100
AcDbEntity
  8
2
100
AcDbLine
 10
143.1066087456701
 20
169.8847397020043
 30
0.0
 11
141.80660874567
 21
168.5847397020043
 31
0.0
  0
LINE
  5
27B
330
15
100
AcDbEntity
  8
2
100
AcDbLine
 10
141.268131114585
 20
169.8847397020043
 30
0.0
 11
139.968131114585
 21
168.5847397020043
 31
0.0
  0
LINE
  5
27C
330
15
100
AcDbEntity
  8
4
100
AcDbLine
 10
174.0566087456699
 20
174.8847397020043
 30
0.0
 11
174.0566087456699
 21
168.5847397020044
 31
0.0
  0
LINE
  5
27D
330
15
100
AcDbEntity
  8
4
100
AcDbLine
 10
165.5566087456699
 20
174.8847397020043
 30
0.0
 11
165.5566087456699
 21
168.5847397020044
 31
0.0
  0
LINE
  5
27E
330
15
100
AcDbEntity
  8
4
100
AcDbLine
 10
174.0566087456699
 20
169.8847397020043
 30
0.0
 11
165.5566087456699
 21
169.8847397020043
 31
0.0
  0
LINE
  5
27F
330
15
100
AcDbEntity
  8
2
100
AcDbLine
 10
169.268131114585
 20
169.8847397020043
 30
0.0
 11
167.9681311145849
 21
168.5847397020043
 31
0.0
  0
LINE
  5
280
330
15
100
AcDbEntity
  8
2
100
AcDbLine
 10
171.10660874567
 20
169.8847397020043
 30
0.0
 11
169.8066087456699
 21
168.5847397020043
 31
0.0
  0
LINE
  5
281
330
15
100
AcDbEntity
  8
4
100
AcDbLine
 10
174.0566087456699
 20
174.8847397020043
 30
0.0
 11
165.5566087456699
 21
174.8847397020043
 31
0.0
  0
LINE
  5
282
330
15
100
AcDbEntity
  8
4
100
AcDbLine
 10
249.5566087456701
 20
174.8847397020043
 30
0.0
 11
249.5566087456701
 21
168.5847397020044
 31
0.0
  0
LINE
  5
283
330
15
100
AcDbEntity
  8
4
100
AcDbLine
 10
258.0566087456701
 20
174.8847397020043
 30
0.0
 11
258.0566087456701
 21
168.5847397020044
 31
0.0
  0
LINE
  5
284
330
15
100
AcDbEntity
  8
4
100
AcDbLine
 10
249.5566087456701
 20
169.8847397020043
 30
0.0
 11
258.0566087456701
 21
169.8847397020043
 31
0.0
  0
LINE
  5
285
330
15
100
AcDbEntity
  8
2
100
AcDbLine
 10
254.345086376755
 20
169.8847397020043
 30
0.0
 11
255.6450863767551
 21
168.5847397020043
 31
0.0
  0
LINE
  5
286
330
15
100
AcDbEntity
  8
2
100
AcDbLine
 10
252.5066087456701
 20
169.8847397020043
 30
0.0
 11
253.8066087456701
 21
168.5847397020043
 31
0.0
  0
LINE
  5
287
330
15
100
AcDbEntity
  8
4
100
AcDbLine
 10
249.5566087456701
 20
174.8847397020043
 30
0.0
 11
258.0566087456701
 21
174.8847397020043
 31
0.0
  0
LINE
  5
288
330
15
100
AcDbEntity
  8
L-CENTER
 48
1.5
100
AcDbLine
 10
253.8066087456701
 20
176.4780113546277
 30
0.0
 11
253.8066087456701
 21
153.1175099929243
 31
0.0
  0
LINE
  5
289
330
15
100
AcDbEntity
  8
4
100
AcDbLine
 10
230.0566087456701
 20
174.8847397020043
 30
0.0
 11
230.0566087456701
 21
168.5847397020044
 31
0.0
  0
LINE
  5
28A
330
15
100
AcDbEntity
  8
4
100
AcDbLine
 10
221.5566087456701
 20
174.8847397020043
 30
0.0
 11
221.5566087456701
 21
168.5847397020044
 31
0.0
  0
LINE
  5
28B
330
15
100
AcDbEntity
  8
2
100
AcDbLine
 10
226.3450863767551
 20
169.8847397020043
 30
0.0
 11
227.6450863767551
 21
168.5847397020043
 31
0.0
  0
LINE
  5
28C
330
15
100
AcDbEntity
  8
4
100
AcDbLine
 10
221.5566087456701
 20
169.8847397020043
 30
0.0
 11
230.0566087456701
 21
169.8847397020043
 31
0.0
  0
LINE
  5
28D
330
15
100
AcDbEntity
  8
2
100
AcDbLine
 10
224.5066087456702
 20
169.8847397020043
 30
0.0
 11
225.8066087456701
 21
168.5847397020043
 31
0.0
  0
LINE
  5
28E
330
15
100
AcDbEntity
  8
4
100
AcDbLine
 10
221.5566087456701
 20
174.8847397020043
 30
0.0
 11
230.0566087456701
 21
174.8847397020043
 31
0.0
  0
LINE
  5
28F
330
15
100
AcDbEntity
  8
L-CENTER
 48
1.5
100
AcDbLine
 10
225.8066087456701
 20
176.4780113546277
 30
0.0
 11
225.8066087456701
 21
153.1175099929244
 31
0.0
  0
LINE
  5
290
330
15
100
AcDbEntity
  8
4
100
AcDbLine
 10
408.9276130681142
 20
174.8847397020043
 30
0.0
 11
408.9276130681142
 21
168.5847397020044
 31
0.0
  0
LINE
  5
291
330
15
100
AcDbEntity
  8
4
100
AcDbLine
 10
408.9276130681142
 20
174.8847397020043
 30
0.0
 11
417.4276130681142
 21
174.8847397020043
 31
0.0
  0
LINE
  5
292
330
15
100
AcDbEntity
  8
4
100
AcDbLine
 10
408.9276130681142
 20
169.8847397020043
 30
0.0
 11
417.4276130681142
 21
169.8847397020043
 31
0.0
  0
LINE
  5
293
330
15
100
AcDbEntity
  8
4
100
AcDbLine
 10
417.4276130681142
 20
174.8847397020043
 30
0.0
 11
417.4276130681142
 21
168.5847397020044
 31
0.0
  0
LINE
  5
294
330
15
100
AcDbEntity
  8
4
100
AcDbLine
 10
465.9250356800426
 20
174.8847397020043
 30
0.0
 11
465.9250356800426
 21
168.5847397020044
 31
0.0
  0
LINE
  5
295
330
15
100
AcDbEntity
  8
4
100
AcDbLine
 10
457.4250356800426
 20
174.8847397020043
 30
0.0
 11
457.4250356800426
 21
168.5847397020044
 31
0.0
  0
LINE
  5
296
330
15
100
AcDbEntity
  8
4
100
AcDbLine
 10
457.4250356800426
 20
169.8847397020043
 30
0.0
 11
465.9250356800426
 21
169.8847397020043
 31
0.0
  0
LINE
  5
297
330
15
100
AcDbEntity
  8
4
100
AcDbLine
 10
457.4250356800426
 20
174.8847397020043
 30
0.0
 11
465.9250356800426
 21
174.8847397020043
 31
0.0
  0
LINE
  5
298
330
15
100
AcDbEntity
  8
4
100
AcDbLine
 10
514.4224582919712
 20
174.8847397020043
 30
0.0
 11
514.4224582919712
 21
168.5847397020044
 31
0.0
  0
LINE
  5
299
330
15
100
AcDbEntity
  8
4
100
AcDbLine
 10
505.9224582919712
 20
174.8847397020043
 30
0.0
 11
505.9224582919712
 21
168.5847397020044
 31
0.0
  0
LINE
  5
29A
330
15
100
AcDbEntity
  8
4
100
AcDbLine
 10
505.9224582919712
 20
169.8847397020043
 30
0.0
 11
514.4224582919712
 21
169.8847397020043
 31
0.0
  0
LINE
  5
29B
330
15
100
AcDbEntity
  8
4
100
AcDbLine
 10
505.9224582919712
 20
174.8847397020043
 30
0.0
 11
514.4224582919712
 21
174.8847397020043
 31
0.0
  0
CIRCLE
  5
29C
330
15
100
AcDbEntity
  8
4
100
AcDbCircle
 10
169.8066087456699
 20
374.0814368923554
 30
0.0
 40
4.25
  0
LINE
  5
29D
330
15
100
AcDbEntity
  8
2
100
AcDbLine
 10
167.4972076689115
 20
374.0814368923554
 30
0.0
 11
168.6519082072908
 21
372.0814368923552
 31
0.0
  0
LINE
  5
29E
330
15
100
AcDbEntity
  8
2
100
AcDbLine
 10
170.9613092840492
 20
376.0814368923554
 30
0.0
 11
172.1160098224284
 21
374.0814368923554
 31
0.0
  0
LINE
  5
29F
330
15
100
AcDbEntity
  8
2
100
AcDbLine
 10
172.1160098224284
 20
374.0814368923554
 30
0.0
 11
170.9613092840492
 21
372.0814368923552
 31
0.0
  0
LINE
  5
2A0
330
15
100
AcDbEntity
  8
2
100
AcDbLine
 10
168.6519082072906
 20
376.0814368923554
 30
0.0
 11
167.4972076689115
 21
374.0814368923554
 31
0.0
  0
LINE
  5
2A1
330
15
100
AcDbEntity
  8
2
100
AcDbLine
 10
170.9613092840492
 20
376.0814368923554
 30
0.0
 11
168.6519082072906
 21
376.0814368923554
 31
0.0
  0
LINE
  5
2A2
330
15
100
AcDbEntity
  8
2
100
AcDbLine
 10
170.9613092840492
 20
372.0814368923552
 30
0.0
 11
168.6519082072908
 21
372.0814368923552
 31
0.0
  0
LINE
  5
2A3
330
15
100
AcDbEntity
  8
L-CENTER
 48
1.5
100
AcDbLine
 10
221.5823653220622
 20
381.3980411255829
 30
0.0
 11
230.030852169278
 21
366.7648326591279
 31
0.0
  0
LINE
  5
2A4
330
15
100
AcDbEntity
  8
2
100
AcDbLine
 10
226.9613092840494
 20
376.0814368923554
 30
0.0
 11
228.1160098224285
 21
374.0814368923554
 31
0.0
  0
LINE
  5
2A5
330
15
100
AcDbEntity
  8
2
100
AcDbLine
 10
228.1160098224285
 20
374.0814368923554
 30
0.0
 11
226.9613092840492
 21
372.0814368923552
 31
0.0
  0
CIRCLE
  5
2A6
330
15
100
AcDbEntity
  8
4
100
AcDbCircle
 10
225.8066087456701
 20
374.0814368923554
 30
0.0
 40
4.25
  0
LINE
  5
2A7
330
15
100
AcDbEntity
  8
2
100
AcDbLine
 10
224.6519082072908
 20
376.0814368923554
 30
0.0
 11
226.9613092840494
 21
376.0814368923554
 31
0.0
  0
LINE
  5
2A8
330
15
100
AcDbEntity
  8
2
100
AcDbLine
 10
224.6519082072908
 20
372.0814368923552
 30
0.0
 11
226.9613092840492
 21
372.0814368923552
 31
0.0
  0
LINE
  5
2A9
330
15
100
AcDbEntity
  8
2
100
AcDbLine
 10
223.4972076689116
 20
374.0814368923554
 30
0.0
 11
224.6519082072908
 21
372.0814368923552
 31
0.0
  0
LINE
  5
2AA
330
15
100
AcDbEntity
  8
2
100
AcDbLine
 10
224.6519082072908
 20
376.0814368923554
 30
0.0
 11
223.4972076689116
 21
374.0814368923554
 31
0.0
  0
LINE
  5
2AB
330
15
100
AcDbEntity
  8
L-CENTER
 48
1.5
100
AcDbLine
 10
174.0308521692779
 20
463.759677882985
 30
0.0
 11
165.5823653220621
 21
478.39288634944
 31
0.0
  0
LINE
  5
2AC
330
15
100
AcDbEntity
  8
2
100
AcDbLine
 10
168.6519082072906
 20
469.0762821162125
 30
0.0
 11
167.4972076689115
 21
471.0762821162123
 31
0.0
  0
LINE
  5
2AD
330
15
100
AcDbEntity
  8
2
100
AcDbLine
 10
167.4972076689115
 20
471.0762821162123
 30
0.0
 11
168.6519082072908
 21
473.0762821162125
 31
0.0
  0
CIRCLE
  5
2AE
330
15
100
AcDbEntity
  8
4
100
AcDbCircle
 10
169.8066087456699
 20
471.0762821162125
 30
0.0
 40
4.25
  0
LINE
  5
2AF
330
15
100
AcDbEntity
  8
2
100
AcDbLine
 10
170.9613092840492
 20
469.0762821162125
 30
0.0
 11
168.6519082072906
 21
469.0762821162125
 31
0.0
  0
LINE
  5
2B0
330
15
100
AcDbEntity
  8
2
100
AcDbLine
 10
170.9613092840492
 20
473.0762821162125
 30
0.0
 11
168.6519082072908
 21
473.0762821162125
 31
0.0
  0
LINE
  5
2B1
330
15
100
AcDbEntity
  8
2
100
AcDbLine
 10
172.1160098224284
 20
471.0762821162125
 30
0.0
 11
170.9613092840492
 21
473.0762821162125
 31
0.0
  0
LINE
  5
2B2
330
15
100
AcDbEntity
  8
2
100
AcDbLine
 10
170.9613092840492
 20
469.0762821162125
 30
0.0
 11
172.1160098224284
 21
471.0762821162125
 31
0.0
  0
LINE
  5
2B3
330
15
100
AcDbEntity
  8
L-CENTER
 48
1.5
100
AcDbLine
 10
221.5823653220622
 20
463.759677882985
 30
0.0
 11
230.030852169278
 21
478.39288634944
 31
0.0
  0
LINE
  5
2B4
330
15
100
AcDbEntity
  8
2
100
AcDbLine
 10
224.6519082072908
 20
469.0762821162125
 30
0.0
 11
223.4972076689116
 21
471.0762821162125
 31
0.0
  0
LINE
  5
2B5
330
15
100
AcDbEntity
  8
2
100
AcDbLine
 10
223.4972076689116
 20
471.0762821162125
 30
0.0
 11
224.6519082072908
 21
473.0762821162125
 31
0.0
  0
CIRCLE
  5
2B6
330
15
100
AcDbEntity
  8
4
100
AcDbCircle
 10
225.8066087456701
 20
471.0762821162125
 30
0.0
 40
4.25
  0
LINE
  5
2B7
330
15
100
AcDbEntity
  8
2
100
AcDbLine
 10
224.6519082072908
 20
473.0762821162125
 30
0.0
 11
226.9613092840492
 21
473.0762821162125
 31
0.0
  0
LINE
  5
2B8
330
15
100
AcDbEntity
  8
2
100
AcDbLine
 10
224.6519082072908
 20
469.0762821162125
 30
0.0
 11
226.9613092840494
 21
469.0762821162125
 31
0.0
  0
LINE
  5
2B9
330
15
100
AcDbEntity
  8
2
100
AcDbLine
 10
228.1160098224285
 20
471.0762821162123
 30
0.0
 11
226.9613092840492
 21
473.0762821162125
 31
0.0
  0
LINE
  5
2BA
330
15
100
AcDbEntity
  8
2
100
AcDbLine
 10
226.9613092840494
 20
469.0762821162125
 30
0.0
 11
228.1160098224285
 21
471.0762821162123
 31
0.0
  0
CIRCLE
  5
2BB
330
15
100
AcDbEntity
  8
4
100
AcDbCircle
 10
141.8066087456701
 20
422.5788595042839
 30
0.0
 40
4.25
  0
LINE
  5
2BC
330
15
100
AcDbEntity
  8
2
100
AcDbLine
 10
139.4972076689115
 20
422.5788595042839
 30
0.0
 11
140.6519082072909
 21
424.5788595042841
 31
0.0
  0
LINE
  5
2BD
330
15
100
AcDbEntity
  8
2
100
AcDbLine
 10
140.6519082072908
 20
420.5788595042841
 30
0.0
 11
139.4972076689115
 21
422.5788595042839
 31
0.0
  0
LINE
  5
2BE
330
15
100
AcDbEntity
  8
2
100
AcDbLine
 10
142.9613092840492
 20
420.5788595042841
 30
0.0
 11
144.1160098224285
 21
422.5788595042839
 31
0.0
  0
LINE
  5
2BF
330
15
100
AcDbEntity
  8
2
100
AcDbLine
 10
142.9613092840492
 20
420.5788595042841
 30
0.0
 11
140.6519082072908
 21
420.5788595042841
 31
0.0
  0
LINE
  5
2C0
330
15
100
AcDbEntity
  8
2
100
AcDbLine
 10
144.1160098224285
 20
422.5788595042839
 30
0.0
 11
142.9613092840492
 21
424.5788595042841
 31
0.0
  0
LINE
  5
2C1
330
15
100
AcDbEntity
  8
2
100
AcDbLine
 10
142.9613092840492
 20
424.5788595042841
 30
0.0
 11
140.6519082072909
 21
424.5788595042841
 31
0.0
  0
LINE
  5
2C2
330
15
100
AcDbEntity
  8
2
100
AcDbLine
 10
251.4972076689115
 20
422.5788595042839
 30
0.0
 11
252.6519082072908
 21
424.5788595042841
 31
0.0
  0
LINE
  5
2C3
330
15
100
AcDbEntity
  8
2
100
AcDbLine
 10
252.6519082072908
 20
420.5788595042841
 30
0.0
 11
251.4972076689115
 21
422.5788595042839
 31
0.0
  0
CIRCLE
  5
2C4
330
15
100
AcDbEntity
  8
4
100
AcDbCircle
 10
253.8066087456699
 20
422.5788595042839
 30
0.0
 40
4.25
  0
LINE
  5
2C5
330
15
100
AcDbEntity
  8
2
100
AcDbLine
 10
252.6519082072908
 20
424.5788595042841
 30
0.0
 11
254.9613092840491
 21
424.5788595042841
 31
0.0
  0
LINE
  5
2C6
330
15
100
AcDbEntity
  8
2
100
AcDbLine
 10
252.6519082072908
 20
420.5788595042841
 30
0.0
 11
254.9613092840492
 21
420.5788595042841
 31
0.0
  0
LINE
  5
2C7
330
15
100
AcDbEntity
  8
2
100
AcDbLine
 10
254.9613092840492
 20
420.5788595042841
 30
0.0
 11
256.1160098224285
 21
422.5788595042839
 31
0.0
  0
LINE
  5
2C8
330
15
100
AcDbEntity
  8
2
100
AcDbLine
 10
256.1160098224285
 20
422.5788595042839
 30
0.0
 11
254.9613092840491
 21
424.5788595042841
 31
0.0
  0
LINE
  5
46A
330
15
100
AcDbEntity
  8
4
100
AcDbLine
 10
82.80669974567007
 20
130.1849602020043
 30
0.0
 11
114.80670074567
 21
130.1849602020043
 31
0.0
  0
LINE
  5
46B
330
15
100
AcDbEntity
  8
4
100
AcDbLine
 10
83.80670024567002
 20
112.1849602020043
 30
0.0
 11
117.8066092456699
 21
112.1849602020043
 31
0.0
  0
LINE
  5
46C
330
15
100
AcDbEntity
  8
4
100
AcDbLine
 10
83.80670024567002
 20
128.1849592020042
 30
0.0
 11
117.8066092456699
 21
128.1849592020042
 31
0.0
  0
LINE
  5
46D
330
15
100
AcDbEntity
  8
4
100
AcDbLine
 10
117.8066092456699
 20
111.6849592020042
 30
0.0
 11
117.8066092456699
 21
128.6849602020043
 31
0.0
  0
LINE
  5
46E
330
15
100
AcDbEntity
  8
4
100
AcDbLine
 10
117.8066092456699
 20
111.6849592020042
 30
0.0
 11
128.80660874567
 21
111.6849592020042
 31
0.0
  0
LINE
  5
46F
330
15
100
AcDbEntity
  8
4
100
AcDbLine
 10
117.8066092456699
 20
128.6849602020043
 30
0.0
 11
128.80660874567
 21
128.6849602020043
 31
0.0
  0
LINE
  5
470
330
15
100
AcDbEntity
  8
4
100
AcDbLine
 10
114.80670074567
 20
128.1849592020042
 30
0.0
 11
114.80670074567
 21
130.1849602020043
 31
0.0
  0
LINE
  5
471
330
15
100
AcDbEntity
  8
4
100
AcDbLine
 10
83.80670024567002
 20
112.1849602020043
 30
0.0
 11
83.80670024567002
 21
128.1849592020042
 31
0.0
  0
LINE
  5
472
330
15
100
AcDbEntity
  8
4
100
AcDbLine
 10
82.80669974567007
 20
113.1849592020042
 30
0.0
 11
82.80669974567007
 21
130.1849602020043
 31
0.0
  0
LINE
  5
473
330
15
100
AcDbEntity
  8
4
100
AcDbLine
 10
83.80670024567002
 20
112.1849602020043
 30
0.0
 11
82.80669974567007
 21
113.1849592020042
 31
0.0
  0
LINE
  5
474
330
15
100
AcDbEntity
  8
4
100
AcDbLine
 10
82.80669974567007
 20
127.1849602020043
 30
0.0
 11
83.80670024567002
 21
128.1849592020042
 31
0.0
  0
ARC
  5
478
330
15
100
AcDbEntity
  8
4
100
AcDbCircle
 10
117.80660874567
 20
377.5788595042839
 30
0.0
 40
5.5
100
AcDbArc
 50
294.6199773286597
 51
270.0
  0
LINE
  5
479
330
15
100
AcDbEntity
  8
4
100
AcDbLine
 10
105.30660874567
 20
370.5788595042839
 30
0.0
 11
105.30660874567
 21
388.365465504284
 31
0.0
  0
LINE
  5
47A
330
15
100
AcDbEntity
  8
4
100
AcDbLine
 10
83.80660874567002
 20
354.5788595042839
 30
0.0
 11
117.30660874567
 21
354.5788595042839
 31
0.0
  0
LINE
  5
47B
330
15
100
AcDbEntity
  8
4
100
AcDbLine
 10
83.80660874567002
 20
370.5788595042839
 30
0.0
 11
117.30660874567
 21
370.5788595042839
 31
0.0
  0
LINE
  5
47C
330
15
100
AcDbEntity
  8
4
100
AcDbLine
 10
82.80660874567002
 20
360.0788595042839
 30
0.0
 11
112.30660874567
 21
360.0788595042839
 31
0.0
  0
LINE
  5
47D
330
15
100
AcDbEntity
  8
4
100
AcDbLine
 10
82.80660874567002
 20
365.0788595042839
 30
0.0
 11
112.30660874567
 21
365.0788595042839
 31
0.0
  0
LINE
  5
47E
330
15
100
AcDbEntity
  8
4
100
AcDbLine
 10
117.80660874567
 20
372.5788595042839
 30
0.0
 11
117.80660874567
 21
353.0788595042839
 31
0.0
  0
LINE
  5
47F
330
15
100
AcDbEntity
  8
4
100
AcDbLine
 10
117.80660874567
 20
353.0788595042839
 30
0.0
 11
128.8066087456699
 21
353.0788595042839
 31
0.0
  0
ARC
  5
480
330
15
100
AcDbEntity
  8
4
100
AcDbCircle
 10
117.30660874567
 20
354.0788595042839
 30
0.0
 40
0.5
100
AcDbArc
 50
0.0
 51
90.0
  0
LINE
  5
481
330
15
100
AcDbEntity
  8
4
100
AcDbLine
 10
117.80660874567
 20
372.5788595042839
 30
0.0
 11
128.8066087456699
 21
372.5788595042841
 31
0.0
  0
ARC
  5
482
330
15
100
AcDbEntity
  8
4
100
AcDbCircle
 10
117.30660874567
 20
371.0788595042839
 30
0.0
 40
0.5
100
AcDbArc
 50
270.0
 51
0.0
  0
ARC
  5
483
330
15
100
AcDbEntity
  8
4
100
AcDbCircle
 10
112.30660874567
 20
362.5788595042839
 30
0.0
 40
2.5
100
AcDbArc
 50
270.0
 51
90.0
  0
LINE
  5
484
330
15
100
AcDbEntity
  8
4
100
AcDbLine
 10
82.80660874567002
 20
355.5788595042839
 30
0.0
 11
82.80660874567002
 21
369.5788595042839
 31
0.0
  0
LINE
  5
485
330
15
100
AcDbEntity
  8
4
100
AcDbLine
 10
83.80660874567002
 20
354.5788595042839
 30
0.0
 11
82.80660874567002
 21
355.5788595042839
 31
0.0
  0
LINE
  5
486
330
15
100
AcDbEntity
  8
4
100
AcDbLine
 10
83.80660874567002
 20
354.5788595042839
 30
0.0
 11
83.80660874567002
 21
360.0788595042839
 31
0.0
  0
LINE
  5
487
330
15
100
AcDbEntity
  8
4
100
AcDbLine
 10
83.80660874567002
 20
365.0788595042839
 30
0.0
 11
83.80660874567002
 21
370.5788595042839
 31
0.0
  0
LINE
  5
488
330
15
100
AcDbEntity
  8
4
100
AcDbLine
 10
83.80660874567002
 20
370.5788595042839
 30
0.0
 11
82.80660874567002
 21
369.5788595042839
 31
0.0
  0
LINE
  5
4A2
330
15
100
AcDbEntity
  8
4
100
AcDbLine
 10
485.1750361800428
 20
66.18495970200439
 30
0.0
 11
438.1750366800427
 21
66.18495970200439
 31
0.0
  0
LINE
  5
4A3
330
15
100
AcDbEntity
  8
4
100
AcDbLine
 10
210.3066082456702
 20
55.18508170200425
 30
0.0
 11
210.3066082456702
 21
66.18495970200439
 31
0.0
  0
LINE
  5
4A4
330
15
100
AcDbEntity
  8
4
100
AcDbLine
 10
185.3066092456701
 20
55.18508170200425
 30
0.0
 11
185.3066092456701
 21
66.18495970200439
 31
0.0
  0
LINE
  5
4A5
330
15
100
AcDbEntity
  8
4
100
AcDbLine
 10
221.3066092456701
 20
66.18495970200439
 30
0.0
 11
174.3066082456702
 21
66.18495970200439
 31
0.0
  0
LINE
  5
4A6
330
15
100
AcDbEntity
  8
4
100
AcDbLine
 10
174.3066082456702
 20
66.18495970200439
 30
0.0
 11
174.3066082456702
 21
67.18496020200433
 31
0.0
  0
LINE
  5
4A7
330
15
100
AcDbEntity
  8
4
100
AcDbLine
 10
221.3066092456701
 20
67.18496020200433
 30
0.0
 11
221.3066092456701
 21
66.18495970200439
 31
0.0
  0
LINE
  5
4A8
330
15
100
AcDbEntity
  8
4
100
AcDbLine
 10
438.1750366800427
 20
66.18495970200439
 30
0.0
 11
438.1750366800427
 21
67.18496020200433
 31
0.0
  0
LINE
  5
4A9
330
15
100
AcDbEntity
  8
4
100
AcDbLine
 10
185.8066087456701
 20
55.18508170200425
 30
0.0
 11
185.8066087456701
 21
16.18508170200425
 31
0.0
  0
LINE
  5
4AA
330
15
100
AcDbEntity
  8
4
100
AcDbLine
 10
209.8066087456701
 20
55.18508170200425
 30
0.0
 11
209.8066087456701
 21
16.18508170200425
 31
0.0
  0
LINE
  5
4AB
330
15
100
AcDbEntity
  8
4
100
AcDbLine
 10
194.3066092456701
 20
48.68508220200437
 30
0.0
 11
194.3066092456701
 21
15.18508120200431
 31
0.0
  0
LINE
  5
4AC
330
15
100
AcDbEntity
  8
4
100
AcDbLine
 10
201.3066082456702
 20
48.68508220200437
 30
0.0
 11
201.3066082456702
 21
15.18508120200431
 31
0.0
  0
ARC
  5
4AD
330
15
100
AcDbEntity
  8
4
100
AcDbCircle
 10
197.8066087456701
 20
48.68508220200437
 30
0.0
 40
3.4999995
100
AcDbArc
 50
0.0
 51
180.0
  0
LINE
  5
4AE
330
15
100
AcDbEntity
  8
4
100
AcDbLine
 10
210.3066082456702
 20
55.18508170200425
 30
0.0
 11
185.3066092456701
 21
55.18508170200425
 31
0.0
  0
LINE
  5
4AF
330
15
100
AcDbEntity
  8
4
100
AcDbLine
 10
208.8066082456702
 20
15.18508120200431
 30
0.0
 11
186.8066092456701
 21
15.18508120200431
 31
0.0
  0
LINE
  5
4B0
330
15
100
AcDbEntity
  8
4
100
AcDbLine
 10
194.3066092456701
 20
16.18508170200425
 30
0.0
 11
185.8066087456701
 21
16.18508170200425
 31
0.0
  0
LINE
  5
4B1
330
15
100
AcDbEntity
  8
4
100
AcDbLine
 10
185.8066087456701
 20
16.18508170200425
 30
0.0
 11
186.8066092456701
 21
15.18508120200431
 31
0.0
  0
LINE
  5
4B2
330
15
100
AcDbEntity
  8
4
100
AcDbLine
 10
201.3066082456702
 20
16.18508170200425
 30
0.0
 11
209.8066087456701
 21
16.18508170200425
 31
0.0
  0
LINE
  5
4B3
330
15
100
AcDbEntity
  8
4
100
AcDbLine
 10
208.8066082456702
 20
15.18508120200431
 30
0.0
 11
209.8066087456701
 21
16.18508170200425
 31
0.0
  0
LINE
  5
4B4
330
15
100
AcDbEntity
  8
4
100
AcDbLine
 10
474.1750366800427
 20
55.18508170200425
 30
0.0
 11
474.1750366800427
 21
66.18495970200439
 31
0.0
  0
LINE
  5
4B5
330
15
100
AcDbEntity
  8
4
100
AcDbLine
 10
449.1750361800428
 20
55.18508170200425
 30
0.0
 11
449.1750361800428
 21
66.18495970200439
 31
0.0
  0
LINE
  5
4B6
330
15
100
AcDbEntity
  8
4
100
AcDbLine
 10
485.1750361800428
 20
67.18496020200433
 30
0.0
 11
485.1750361800428
 21
66.18495970200439
 31
0.0
  0
LINE
  5
4B7
330
15
100
AcDbEntity
  8
4
100
AcDbLine
 10
446.6750356800426
 20
15.18508120200431
 30
0.0
 11
446.6750356800426
 21
52.18508170200425
 31
0.0
  0
LINE
  5
4B8
330
15
100
AcDbEntity
  8
4
100
AcDbLine
 10
449.6750356800426
 20
55.18508170200425
 30
0.0
 11
449.6750356800426
 21
16.18508170200425
 31
0.0
  0
LINE
  5
4B9
330
15
100
AcDbEntity
  8
4
100
AcDbLine
 10
473.6750356800426
 20
55.18508170200425
 30
0.0
 11
473.6750356800426
 21
16.18508170200425
 31
0.0
  0
LINE
  5
4BA
330
15
100
AcDbEntity
  8
4
100
AcDbLine
 10
474.1750366800427
 20
55.18508170200425
 30
0.0
 11
449.1750361800428
 21
55.18508170200425
 31
0.0
  0
LINE
  5
4BB
330
15
100
AcDbEntity
  8
4
100
AcDbLine
 10
449.6750356800426
 20
52.18508170200425
 30
0.0
 11
446.6750356800426
 21
52.18508170200425
 31
0.0
  0
LINE
  5
4BC
330
15
100
AcDbEntity
  8
4
100
AcDbLine
 10
472.6750366800427
 20
15.18508120200431
 30
0.0
 11
446.6750356800426
 21
15.18508120200431
 31
0.0
  0
LINE
  5
4BD
330
15
100
AcDbEntity
  8
4
100
AcDbLine
 10
449.6750356800426
 20
16.18508170200425
 30
0.0
 11
473.6750356800426
 21
16.18508170200425
 31
0.0
  0
LINE
  5
4BE
330
15
100
AcDbEntity
  8
4
100
AcDbLine
 10
449.6750356800426
 20
16.18508170200425
 30
0.0
 11
450.6750361800428
 21
15.18508120200431
 31
0.0
  0
LINE
  5
4BF
330
15
100
AcDbEntity
  8
4
100
AcDbLine
 10
472.6750366800427
 20
15.18508120200431
 30
0.0
 11
473.6750356800426
 21
16.18508170200425
 31
0.0
  0
ENDSEC
  0
SECTION
  2
OBJECTS
  0
DICTIONARY
  5
5
330
0
100
AcDbDictionary
281
     1
  3
ACAD_COLOR
350
28
  3
ACAD_GROUP
350
26
  3
ACAD_LAYOUT
350
1C
  3
ACAD_MATERIAL
350
7
  3
ACAD_MLEADERSTYLE
350
44A
  3
ACAD_MLINESTYLE
350
13
  3
ACAD_PLOTSETTINGS
350
27
  3
ACAD_PLOTSTYLENAME
350
4
  3
ACAD_SCALELIST
350
2D
  3
ACAD_TABLESTYLE
350
449
  3
ACAD_VISUALSTYLE
350
29
  3
ACDBHEADERROUNDTRIPXREC
350
4DC
  3
AcDbVariableDictionary
350
447
  3
DWGPROPS
350
4DF
  0
DICTIONARY
  5
4E0
330
25
100
AcDbDictionary
280
     1
281
     1
  3
ACAD_XREC_ROUNDTRIP
360
4E1
  0
DICTIONARY
  5
16
330
15
100
AcDbDictionary
280
     1
281
     1
  3
ACAD_SORTENTS
360
17
  0
DICTIONARY
  5
28
102
{ACAD_REACTORS
330
5
102
}
330
5
100
AcDbDictionary
281
     1
  0
DICTIONARY
  5
26
102
{ACAD_REACTORS
330
5
102
}
330
5
100
AcDbDictionary
281
     1
  0
DICTIONARY
  5
1C
102
{ACAD_REACTORS
330
5
102
}
330
5
100
AcDbDictionary
281
     1
  3
Model
350
1B
  3
ﾚｲｱｳﾄ1
350
22
  0
DICTIONARY
  5
7
102
{ACAD_REACTORS
330
5
102
}
330
5
100
AcDbDictionary
281
     1
  3
ByBlock
350
70
  3
ByLayer
350
E
  3
Global
350
6
  0
DICTIONARY
  5
44A
102
{ACAD_REACTORS
330
5
102
}
330
5
100
AcDbDictionary
281
     1
  3
Standard
350
465
  0
DICTIONARY
  5
13
102
{ACAD_REACTORS
330
5
102
}
330
5
100
AcDbDictionary
281
     1
  3
STANDARD
350
12
  0
DICTIONARY
  5
27
102
{ACAD_REACTORS
330
5
102
}
330
5
100
AcDbDictionary
281
     1
  0
ACDBDICTIONARYWDFLT
  5
4
102
{ACAD_REACTORS
330
5
102
}
330
5
100
AcDbDictionary
281
     1
  3
Normal
350
3
100
AcDbDictionaryWithDefault
340
3
  0
DICTIONARY
  5
2D
102
{ACAD_REACTORS
330
5
102
}
330
5
100
AcDbDictionary
281
     1
  3
*A1
350
4F
  3
*A10
350
58
  3
*A11
350
59
  3
*A12
350
5A
  3
*A13
350
5B
  3
*A14
350
5C
  3
*A15
350
5D
  3
*A16
350
5E
  3
*A17
350
5F
  3
*A18
350
60
  3
*A19
350
61
  3
*A2
350
50
  3
*A20
350
62
  3
*A21
350
63
  3
*A22
350
64
  3
*A23
350
65
  3
*A24
350
66
  3
*A25
350
67
  3
*A26
350
68
  3
*A27
350
69
  3
*A28
350
6A
  3
*A29
350
6B
  3
*A3
350
51
  3
*A30
350
6C
  3
*A31
350
6D
  3
*A32
350
6E
  3
*A33
350
6F
  3
*A4
350
52
  3
*A5
350
53
  3
*A6
350
54
  3
*A7
350
55
  3
*A8
350
56
  3
*A9
350
57
  0
DICTIONARY
  5
449
102
{ACAD_REACTORS
330
5
102
}
330
5
100
AcDbDictionary
281
     1
  3
Standard
350
4D8
  0
DICTIONARY
  5
29
102
{ACAD_REACTORS
330
5
102
}
330
5
100
AcDbDictionary
281
     1
  3
2dWireframe
350
451
  3
Basic
350
454
  3
Brighten
350
458
  3
ColorChange
350
45C
  3
Conceptual
350
456
  3
Dim
350
457
  3
EdgeColorOff
350
45F
  3
Facepattern
350
45B
  3
Flat
350
44D
  3
FlatWithEdges
350
44E
  3
Gouraud
350
44F
  3
GouraudWithEdges
350
450
  3
Hidden
350
453
  3
JitterOff
350
45D
  3
Linepattern
350
45A
  3
OverhangOff
350
45E
  3
Realistic
350
455
  3
Shaded
350
464
  3
Shaded with edges
350
463
  3
Shades of Gray
350
460
  3
Sketchy
350
461
  3
Thicken
350
459
  3
Wireframe
350
452
  3
X-Ray
350
462
  0
DICTIONARY
  5
4DC
102
{ACAD_REACTORS
330
5
102
}
330
5
100
AcDbDictionary
281
     1
  3
COLORDICT
350
4DD
  3
MATERIALDICT
350
4DE
  0
DICTIONARY
  5
447
102
{ACAD_REACTORS
330
5
102
}
330
5
100
AcDbDictionary
281
     1
  3
CANNOSCALE
350
448
  3
CMLEADERSTYLE
350
467
  3
CTABLESTYLE
350
4D9
  3
DIMASSOC
350
4DA
  3
HIDETEXT
350
4DB
  3
MSLTSCALE
350
4E2
  0
XRECORD
  5
4DF
102
{ACAD_REACTORS
330
5
102
}
330
5
100
AcDbXrecord
280
     1
  1
DWGPROPS COOKIE
  2

  3

  4

  6

  7

  8
sg-d04
  9

300
=
301
=
302
=
303
=
304
=
305
=
306
=
307
=
308
=
309
=
 40
0.0
 41
2449812.756805555
 42
2457870.247854676
  1

 90
        0
  0
XRECORD
  5
4E1
102
{ACAD_REACTORS
330
4E0
102
}
330
4E0
100
AcDbXrecord
280
     1
102
VTR_0.000_0.000_1.000_1.000_VISUALSTYLE
340
451
102
VTR_0.000_0.000_1.000_1.000_GRIDDISPLAY
 70
     3
102
VTR_0.000_0.000_1.000_1.000_GRIDMAJOR
 70
     5
102
VTR_0.000_0.000_1.000_1.000_DEFAULTLIGHTING
280
     1
102
VTR_0.000_0.000_1.000_1.000_DEFAULTLIGHTINGTYPE
 70
     1
102
VTR_0.000_0.000_1.000_1.000_BRIGHTNESS
141
0.0
102
VTR_0.000_0.000_1.000_1.000_CONTRAST
142
0.0
  0
SORTENTSTABLE
  5
17
102
{ACAD_REACTORS
330
16
102
}
330
16
100
AcDbSortentsTable
330
15
  0
LAYOUT
  5
1B
102
{ACAD_REACTORS
330
1C
102
}
330
1C
100
AcDbPlotSettings
  1

  2
Bullzip PDF Printer.pc3
  4
A3
  6

 40
0.2
 41
0.0
 42
0.0
 43
0.0
 44
420.2
 45
297.1
 46
25.0
 47
12.0
 48
44.99999992999994
 49
10.0
140
617.9999986175001
141
418.74999904625
142
1.0
143
1.5
 70
 11936
 72
     1
 73
     0
 74
     4
  7
monochrome.ctb
 75
     0
147
0.666666666666667
148
-44.99999992999994
149
-10.0
100
AcDbLayout
  1
Model
 70
     0
 71
     0
 10
0.0
 20
0.0
 11
12.0
 21
9.0
 12
0.0
 22
0.0
 32
0.0
 14
80.33901588963204
 24
12.80665570200438
 34
0.0
 15
543.5395381800427
 25
502.5788595042839
 35
0.0
146
0.0
 13
0.0
 23
0.0
 33
0.0
 16
1.0
 26
0.0
 36
0.0
 17
0.0
 27
1.0
 37
0.0
 76
     0
330
15
331
2B
1001
ACAD_PSEXT
1000
Bullzip PDF Printer.pc3
1000
Bullzip PDF Printer
1000
BULLZIP
1000
Bullzip PDF Printer 10.1.0.1871
1070
     0
  0
LAYOUT
  5
22
102
{ACAD_REACTORS
330
1C
102
}
330
1C
100
AcDbPlotSettings
  1

  2
C:\Program Files\ACAD LT 2000\plotters\Draftpro-DXL (7575A).pc3
  4

  6

 40
0.0
 41
0.0
 42
0.0
 43
0.0
 44
0.0
 45
0.0
 46
0.0
 47
0.0
 48
0.0
 49
0.0
140
0.0
141
0.0
142
1.0
143
1.0
 70
   688
 72
     0
 73
     0
 74
     5
  7
monochrome.ctb
 75
    16
147
1.0
148
0.0
149
0.0
100
AcDbLayout
  1
ﾚｲｱｳﾄ1
 70
     0
 71
     1
 10
0.0
 20
0.0
 11
12.0
 21
9.0
 12
0.0
 22
0.0
 32
0.0
 14
1.000000000000000E+20
 24
1.000000000000000E+20
 34
1.000000000000000E+20
 15
-1.000000000000000E+20
 25
-1.000000000000000E+20
 35
-1.000000000000000E+20
146
0.0
 13
0.0
 23
0.0
 33
0.0
 16
1.0
 26
0.0
 36
0.0
 17
0.0
 27
1.0
 37
0.0
 76
     0
330
1F
  0
MATERIAL
  5
70
102
{ACAD_REACTORS
330
7
102
}
102
{ACAD_XDICTIONARY
360
4E7
102
}
330
7
100
AcDbMaterial
  1
ByBlock
  0
MATERIAL
  5
E
102
{ACAD_REACTORS
330
7
102
}
102
{ACAD_XDICTIONARY
360
4E3
102
}
330
7
100
AcDbMaterial
  1
ByLayer
  0
MATERIAL
  5
6
102
{ACAD_REACTORS
330
7
102
}
102
{ACAD_XDICTIONARY
360
4E5
102
}
330
7
100
AcDbMaterial
  1
Global
  0
MLEADERSTYLE
  5
465
102
{ACAD_REACTORS
330
44A
102
}
102
{ACAD_XDICTIONARY
360
519
102
}
330
44A
100
AcDbMLeaderStyle
170
     2
171
     1
172
     0
 90
        2
 40
0.0
 41
0.0
173
     1
 91
-1056964608
340
B
 92
       -2
290
     1
 42
0.09
291
     1
 43
0.36
  3
Standard
341
0
 44
0.18
300

342
C
174
     1
178
     6
175
     1
176
     0
 93
-1056964608
 45
0.18
292
     0
297
     0
 46
0.18
343
0
 94
-1056964608
 47
1.0
 49
1.0
140
1.0
293
     1
141
0.0
294
     1
177
     0
142
1.0
295
     0
296
     0
143
0.125
1001
ACAD_MLEADERVER
1070
     2
  0
MLINESTYLE
  5
12
102
{ACAD_REACTORS
330
13
102
}
330
13
100
AcDbMlineStyle
  2
STANDARD
 70
     0
  3

 62
     0
 51
90.0
 52
90.0
 71
     2
 49
0.5
 62
   256
  6
BYLAYER
 49
-0.5
 62
   256
  6
BYLAYER
  0
ACDBPLACEHOLDER
  5
3
102
{ACAD_REACTORS
330
4
102
}
330
4
  0
SCALE
  5
4F
102
{ACAD_REACTORS
330
2D
102
}
330
2D
100
AcDbScale
 70
     0
300
1:1
140
1.0
141
1.0
290
     1
  0
SCALE
  5
58
102
{ACAD_REACTORS
330
2D
102
}
330
2D
100
AcDbScale
 70
     0
300
1:40
140
1.0
141
40.0
290
     0
  0
SCALE
  5
59
102
{ACAD_REACTORS
330
2D
102
}
330
2D
100
AcDbScale
 70
     0
300
1:50
140
1.0
141
50.0
290
     0
  0
SCALE
  5
5A
102
{ACAD_REACTORS
330
2D
102
}
330
2D
100
AcDbScale
 70
     0
300
1:100
140
1.0
141
100.0
290
     0
  0
SCALE
  5
5B
102
{ACAD_REACTORS
330
2D
102
}
330
2D
100
AcDbScale
 70
     0
300
2:1
140
2.0
141
1.0
290
     0
  0
SCALE
  5
5C
102
{ACAD_REACTORS
330
2D
102
}
330
2D
100
AcDbScale
 70
     0
300
4:1
140
4.0
141
1.0
290
     0
  0
SCALE
  5
5D
102
{ACAD_REACTORS
330
2D
102
}
330
2D
100
AcDbScale
 70
     0
300
8:1
140
8.0
141
1.0
290
     0
  0
SCALE
  5
5E
102
{ACAD_REACTORS
330
2D
102
}
330
2D
100
AcDbScale
 70
     0
300
10:1
140
10.0
141
1.0
290
     0
  0
SCALE
  5
5F
102
{ACAD_REACTORS
330
2D
102
}
330
2D
100
AcDbScale
 70
     0
300
100:1
140
100.0
141
1.0
290
     0
  0
SCALE
  5
60
102
{ACAD_REACTORS
330
2D
102
}
330
2D
100
AcDbScale
 70
     0
300
1/128" = 1'-0"
140
0.0078125
141
12.0
290
     0
  0
SCALE
  5
61
102
{ACAD_REACTORS
330
2D
102
}
330
2D
100
AcDbScale
 70
     0
300
1/64" = 1'-0"
140
0.015625
141
12.0
290
     0
  0
SCALE
  5
50
102
{ACAD_REACTORS
330
2D
102
}
330
2D
100
AcDbScale
 70
     0
300
1:2
140
1.0
141
2.0
290
     0
  0
SCALE
  5
62
102
{ACAD_REACTORS
330
2D
102
}
330
2D
100
AcDbScale
 70
     0
300
1/32" = 1'-0"
140
0.03125
141
12.0
290
     0
  0
SCALE
  5
63
102
{ACAD_REACTORS
330
2D
102
}
330
2D
100
AcDbScale
 70
     0
300
1/16" = 1'-0"
140
0.0625
141
12.0
290
     0
  0
SCALE
  5
64
102
{ACAD_REACTORS
330
2D
102
}
330
2D
100
AcDbScale
 70
     0
300
3/32" = 1'-0"
140
0.09375
141
12.0
290
     0
  0
SCALE
  5
65
102
{ACAD_REACTORS
330
2D
102
}
330
2D
100
AcDbScale
 70
     0
300
1/8" = 1'-0"
140
0.125
141
12.0
290
     0
  0
SCALE
  5
66
102
{ACAD_REACTORS
330
2D
102
}
330
2D
100
AcDbScale
 70
     0
300
3/16" = 1'-0"
140
0.1875
141
12.0
290
     0
  0
SCALE
  5
67
102
{ACAD_REACTORS
330
2D
102
}
330
2D
100
AcDbScale
 70
     0
300
1/4" = 1'-0"
140
0.25
141
12.0
290
     0
  0
SCALE
  5
68
102
{ACAD_REACTORS
330
2D
102
}
330
2D
100
AcDbScale
 70
     0
300
3/8" = 1'-0"
140
0.375
141
12.0
290
     0
  0
SCALE
  5
69
102
{ACAD_REACTORS
330
2D
102
}
330
2D
100
AcDbScale
 70
     0
300
1/2" = 1'-0"
140
0.5
141
12.0
290
     0
  0
SCALE
  5
6A
102
{ACAD_REACTORS
330
2D
102
}
330
2D
100
AcDbScale
 70
     0
300
3/4" = 1'-0"
140
0.75
141
12.0
290
     0
  0
SCALE
  5
6B
102
{ACAD_REACTORS
330
2D
102
}
330
2D
100
AcDbScale
 70
     0
300
1" = 1'-0"
140
1.0
141
12.0
290
     0
  0
SCALE
  5
51
102
{ACAD_REACTORS
330
2D
102
}
330
2D
100
AcDbScale
 70
     0
300
1:4
140
1.0
141
4.0
290
     0
  0
SCALE
  5
6C
102
{ACAD_REACTORS
330
2D
102
}
330
2D
100
AcDbScale
 70
     0
300
1-1/2" = 1'-0"
140
1.5
141
12.0
290
     0
  0
SCALE
  5
6D
102
{ACAD_REACTORS
330
2D
102
}
330
2D
100
AcDbScale
 70
     0
300
3" = 1'-0"
140
3.0
141
12.0
290
     0
  0
SCALE
  5
6E
102
{ACAD_REACTORS
330
2D
102
}
330
2D
100
AcDbScale
 70
     0
300
6" = 1'-0"
140
6.0
141
12.0
290
     0
  0
SCALE
  5
6F
102
{ACAD_REACTORS
330
2D
102
}
330
2D
100
AcDbScale
 70
     0
300
1'-0" = 1'-0"
140
12.0
141
12.0
290
     0
  0
SCALE
  5
52
102
{ACAD_REACTORS
330
2D
102
}
330
2D
100
AcDbScale
 70
     0
300
1:5
140
1.0
141
5.0
290
     0
  0
SCALE
  5
53
102
{ACAD_REACTORS
330
2D
102
}
330
2D
100
AcDbScale
 70
     0
300
1:8
140
1.0
141
8.0
290
     0
  0
SCALE
  5
54
102
{ACAD_REACTORS
330
2D
102
}
330
2D
100
AcDbScale
 70
     0
300
1:10
140
1.0
141
10.0
290
     0
  0
SCALE
  5
55
102
{ACAD_REACTORS
330
2D
102
}
330
2D
100
AcDbScale
 70
     0
300
1:16
140
1.0
141
16.0
290
     0
  0
SCALE
  5
56
102
{ACAD_REACTORS
330
2D
102
}
330
2D
100
AcDbScale
 70
     0
300
1:20
140
1.0
141
20.0
290
     0
  0
SCALE
  5
57
102
{ACAD_REACTORS
330
2D
102
}
330
2D
100
AcDbScale
 70
     0
300
1:30
140
1.0
141
30.0
290
     0
  0
TABLESTYLE
  5
4D8
102
{ACAD_REACTORS
330
449
102
}
330
449
100
AcDbTableStyle
  3
Standard
 70
     0
 71
     0
 40
0.06
 41
0.06
280
     0
281
     0
  7
STANDARD
140
0.18
170
     2
 62
     0
 63
   257
283
     0
274
    -2
284
     1
 64
     0
275
    -2
285
     1
 65
     0
276
    -2
286
     1
 66
     0
277
    -2
287
     1
 67
     0
278
    -2
288
     1
 68
     0
279
    -2
289
     1
 69
     0
  7
STANDARD
140
0.25
170
     5
 62
     0
 63
   257
283
     0
274
    -2
284
     1
 64
     0
275
    -2
285
     1
 65
     0
276
    -2
286
     1
 66
     0
277
    -2
287
     1
 67
     0
278
    -2
288
     1
 68
     0
279
    -2
289
     1
 69
     0
  7
STANDARD
140
0.18
170
     5
 62
     0
 63
   257
283
     0
274
    -2
284
     1
 64
     0
275
    -2
285
     1
 65
     0
276
    -2
286
     1
 66
     0
277
    -2
287
     1
 67
     0
278
    -2
288
     1
 68
     0
279
    -2
289
     1
 69
     0
  0
VISUALSTYLE
  5
451
102
{ACAD_REACTORS
330
29
102
}
102
{ACAD_XDICTIONARY
360
4F1
102
}
330
29
100
AcDbVisualStyle
  2
2dWireframe
 70
     4
 71
     0
 72
     2
 73
     0
 90
        0
 40
0.6
 41
30.0
 62
     5
 63
     7
 74
     1
 91
        4
 64
     7
 65
   257
 75
     1
175
     1
 42
1.0
 92
        0
 66
   257
 43
1.0
 76
     1
 77
     6
 78
     2
 67
     7
 79
     5
170
     0
171
     0
290
     0
174
     0
 93
        1
 44
0.0
173
     0
291
     0
 45
0.0
1001
ACAD
1000
AcDbSavedByObjectVersion
1070
     0
  0
VISUALSTYLE
  5
454
102
{ACAD_REACTORS
330
29
102
}
102
{ACAD_XDICTIONARY
360
4F7
102
}
330
29
100
AcDbVisualStyle
  2
Basic
 70
     7
 71
     1
 72
     0
 73
     1
 90
        0
 40
0.6
 41
30.0
 62
     5
 63
     7
 74
     0
 91
        4
 64
     7
 65
   257
 75
     1
175
     1
 42
1.0
 92
        8
 66
     7
 43
1.0
 76
     1
 77
     6
 78
     2
 67
     7
 79
     5
170
     0
171
     0
290
     0
174
     0
 93
        1
 44
0.0
173
     0
291
     1
 45
0.0
1001
ACAD
1000
AcDbSavedByObjectVersion
1070
     0
  0
VISUALSTYLE
  5
458
102
{ACAD_REACTORS
330
29
102
}
102
{ACAD_XDICTIONARY
360
4FF
102
}
330
29
100
AcDbVisualStyle
  2
Brighten
 70
    12
 71
     2
 72
     2
 73
     0
 90
        0
 40
0.6
 41
30.0
 62
     5
 63
     7
 74
     1
 91
        4
 64
     7
 65
   257
 75
     1
175
     1
 42
1.0
 92
        8
 66
     7
 43
1.0
 76
     1
 77
     6
 78
     2
 67
     7
 79
     5
170
     0
171
     0
290
     0
174
     0
 93
        1
 44
50.0
173
     0
291
     1
 45
0.0
1001
ACAD
1000
AcDbSavedByObjectVersion
1070
     0
  0
VISUALSTYLE
  5
45C
102
{ACAD_REACTORS
330
29
102
}
102
{ACAD_XDICTIONARY
360
507
102
}
330
29
100
AcDbVisualStyle
  2
ColorChange
 70
    16
 71
     2
 72
     2
 73
     3
 90
        0
 40
0.6
 41
30.0
 62
     5
 63
     8
 74
     1
 91
        4
 64
     7
 65
   257
 75
     1
175
     1
 42
1.0
 92
        8
 66
     8
 43
1.0
 76
     1
 77
     6
 78
     2
 67
     7
 79
     5
170
     0
171
     0
290
     0
174
     0
 93
        1
 44
0.0
173
     0
291
     1
 45
0.0
1001
ACAD
1000
AcDbSavedByObjectVersion
1070
     0
  0
VISUALSTYLE
  5
456
102
{ACAD_REACTORS
330
29
102
}
102
{ACAD_XDICTIONARY
360
4FB
102
}
330
29
100
AcDbVisualStyle
  2
Conceptual
 70
     9
 71
     3
 72
     2
 73
     0
 90
        0
 40
0.6
 41
30.0
 62
     5
 63
     7
 74
     2
 91
        2
 64
     7
 65
   257
 75
     1
175
     1
 42
40.0
 92
        8
 66
     7
 43
1.0
 76
     1
 77
     6
 78
     2
 67
     7
 79
     3
170
     0
171
     0
290
     0
174
     0
 93
        1
 44
0.0
173
     0
291
     0
 45
0.0
1001
ACAD
1000
AcDbSavedByObjectVersion
1070
     0
  0
VISUALSTYLE
  5
457
102
{ACAD_REACTORS
330
29
102
}
102
{ACAD_XDICTIONARY
360
4FD
102
}
330
29
100
AcDbVisualStyle
  2
Dim
 70
    11
 71
     2
 72
     2
 73
     0
 90
        0
 40
0.6
 41
30.0
 62
     5
 63
     7
 74
     1
 91
        4
 64
     7
 65
   257
 75
     1
175
     1
 42
1.0
 92
        8
 66
     7
 43
1.0
 76
     1
 77
     6
 78
     2
 67
     7
 79
     5
170
     0
171
     0
290
     0
174
     0
 93
        1
 44
-50.0
173
     0
291
     1
 45
0.0
1001
ACAD
1000
AcDbSavedByObjectVersion
1070
     0
  0
VISUALSTYLE
  5
45F
102
{ACAD_REACTORS
330
29
102
}
102
{ACAD_XDICTIONARY
360
50D
102
}
330
29
100
AcDbVisualStyle
  2
EdgeColorOff
 70
    22
 71
     2
 72
     2
 73
     0
 90
        0
 40
0.6
 41
30.0
 62
     5
 63
     7
 74
     1
 91
        4
 64
     7
 65
   257
 75
     1
175
     1
 42
1.0
 92
        8
 66
     7
 43
1.0
 76
     1
 77
     6
 78
     2
 67
     7
 79
     5
170
     0
171
     0
290
     0
174
     0
 93
        1
 44
0.0
173
     0
291
     1
 45
0.0
1001
ACAD
1000
AcDbSavedByObjectVersion
1070
     0
  0
VISUALSTYLE
  5
45B
102
{ACAD_REACTORS
330
29
102
}
102
{ACAD_XDICTIONARY
360
505
102
}
330
29
100
AcDbVisualStyle
  2
Facepattern
 70
    15
 71
     2
 72
     2
 73
     0
 90
        0
 40
0.6
 41
30.0
 62
     5
 63
     7
 74
     1
 91
        4
 64
     7
 65
   257
 75
     1
175
     1
 42
1.0
 92
        8
 66
     7
 43
1.0
 76
     1
 77
     6
 78
     2
 67
     7
 79
     5
170
     0
171
     0
290
     0
174
     0
 93
        1
 44
0.0
173
     0
291
     1
 45
0.0
1001
ACAD
1000
AcDbSavedByObjectVersion
1070
     0
  0
VISUALSTYLE
  5
44D
102
{ACAD_REACTORS
330
29
102
}
102
{ACAD_XDICTIONARY
360
4E9
102
}
330
29
100
AcDbVisualStyle
  2
Flat
 70
     0
 71
     2
 72
     1
 73
     1
 90
        2
 40
0.6
 41
30.0
 62
     5
 63
     7
 74
     0
 91
        4
 64
     7
 65
   257
 75
     1
175
     1
 42
1.0
 92
        8
 66
     7
 43
1.0
 76
     1
 77
     6
 78
     2
 67
     7
 79
     5
170
     0
171
     0
290
     0
174
     0
 93
       13
 44
0.0
173
     0
291
     1
 45
0.0
1001
ACAD
1000
AcDbSavedByObjectVersion
1070
     0
  0
VISUALSTYLE
  5
44E
102
{ACAD_REACTORS
330
29
102
}
102
{ACAD_XDICTIONARY
360
4EB
102
}
330
29
100
AcDbVisualStyle
  2
FlatWithEdges
 70
     1
 71
     2
 72
     1
 73
     1
 90
        2
 40
0.6
 41
30.0
 62
     5
 63
     7
 74
     1
 91
        4
 64
     7
 65
   257
 75
     1
175
     1
 42
1.0
 92
        0
 66
   257
 43
1.0
 76
     1
 77
     6
 78
     2
 67
     7
 79
     5
170
     0
171
     0
290
     0
174
     0
 93
       13
 44
0.0
173
     0
291
     1
 45
0.0
1001
ACAD
1000
AcDbSavedByObjectVersion
1070
     0
  0
VISUALSTYLE
  5
44F
102
{ACAD_REACTORS
330
29
102
}
102
{ACAD_XDICTIONARY
360
4ED
102
}
330
29
100
AcDbVisualStyle
  2
Gouraud
 70
     2
 71
     2
 72
     2
 73
     1
 90
        2
 40
0.6
 41
30.0
 62
     5
 63
     7
 74
     0
 91
        4
 64
     7
 65
   257
 75
     1
175
     1
 42
1.0
 92
        0
 66
     7
 43
1.0
 76
     1
 77
     6
 78
     2
 67
     7
 79
     5
170
     0
171
     0
290
     0
174
     0
 93
       13
 44
0.0
173
     0
291
     1
 45
0.0
1001
ACAD
1000
AcDbSavedByObjectVersion
1070
     0
  0
VISUALSTYLE
  5
450
102
{ACAD_REACTORS
330
29
102
}
102
{ACAD_XDICTIONARY
360
4EF
102
}
330
29
100
AcDbVisualStyle
  2
GouraudWithEdges
 70
     3
 71
     2
 72
     2
 73
     1
 90
        2
 40
0.6
 41
30.0
 62
     5
 63
     7
 74
     1
 91
        4
 64
     7
 65
   257
 75
     1
175
     1
 42
1.0
 92
        0
 66
   257
 43
1.0
 76
     1
 77
     6
 78
     2
 67
     7
 79
     5
170
     0
171
     0
290
     0
174
     0
 93
       13
 44
0.0
173
     0
291
     1
 45
0.0
1001
ACAD
1000
AcDbSavedByObjectVersion
1070
     0
  0
VISUALSTYLE
  5
453
102
{ACAD_REACTORS
330
29
102
}
102
{ACAD_XDICTIONARY
360
4F5
102
}
330
29
100
AcDbVisualStyle
  2
Hidden
 70
     6
 71
     1
 72
     2
 73
     2
 90
        0
 40
0.6
 41
30.0
 62
     5
 63
     7
 74
     2
 91
        2
 64
     7
 65
   257
 75
     2
175
     1
 42
40.0
 92
        0
 66
   257
 43
1.0
 76
     1
 77
     6
 78
     2
 67
     7
 79
     3
170
     0
171
     0
290
     0
174
     0
 93
        1
 44
0.0
173
     0
291
     0
 45
0.0
1001
ACAD
1000
AcDbSavedByObjectVersion
1070
     0
  0
VISUALSTYLE
  5
45D
102
{ACAD_REACTORS
330
29
102
}
102
{ACAD_XDICTIONARY
360
509
102
}
330
29
100
AcDbVisualStyle
  2
JitterOff
 70
    20
 71
     2
 72
     2
 73
     0
 90
        0
 40
0.6
 41
30.0
 62
     5
 63
     7
 74
     1
 91
        4
 64
     7
 65
   257
 75
     1
175
     1
 42
1.0
 92
       10
 66
     7
 43
1.0
 76
     1
 77
     6
 78
     2
 67
     7
 79
     5
170
     0
171
     0
290
     0
174
     0
 93
        1
 44
0.0
173
     0
291
     1
 45
0.0
1001
ACAD
1000
AcDbSavedByObjectVersion
1070
     0
  0
VISUALSTYLE
  5
45A
102
{ACAD_REACTORS
330
29
102
}
102
{ACAD_XDICTIONARY
360
503
102
}
330
29
100
AcDbVisualStyle
  2
Linepattern
 70
    14
 71
     2
 72
     2
 73
     0
 90
        0
 40
0.6
 41
30.0
 62
     5
 63
     7
 74
     1
 91
        4
 64
     7
 65
   257
 75
     7
175
     7
 42
1.0
 92
        8
 66
     7
 43
1.0
 76
     1
 77
     6
 78
     2
 67
     7
 79
     5
170
     0
171
     0
290
     0
174
     0
 93
        1
 44
0.0
173
     0
291
     1
 45
0.0
1001
ACAD
1000
AcDbSavedByObjectVersion
1070
     0
  0
VISUALSTYLE
  5
45E
102
{ACAD_REACTORS
330
29
102
}
102
{ACAD_XDICTIONARY
360
50B
102
}
330
29
100
AcDbVisualStyle
  2
OverhangOff
 70
    21
 71
     2
 72
     2
 73
     0
 90
        0
 40
0.6
 41
30.0
 62
     5
 63
     7
 74
     1
 91
        4
 64
     7
 65
   257
 75
     1
175
     1
 42
1.0
 92
        9
 66
     7
 43
1.0
 76
     1
 77
     6
 78
     2
 67
     7
 79
     5
170
     0
171
     0
290
     0
174
     0
 93
        1
 44
0.0
173
     0
291
     1
 45
0.0
1001
ACAD
1000
AcDbSavedByObjectVersion
1070
     0
  0
VISUALSTYLE
  5
455
102
{ACAD_REACTORS
330
29
102
}
102
{ACAD_XDICTIONARY
360
4F9
102
}
330
29
100
AcDbVisualStyle
  2
Realistic
 70
     8
 71
     2
 72
     3
 73
     0
 90
        2
 40
0.6
 41
30.0
 62
     5
 63
     7
 74
     0
 91
        0
 64
     7
 65
   257
 75
     1
175
     1
 42
1.0
 92
        8
 66
   257
 43
1.0
 76
     1
 77
     6
 78
     2
 67
     7
 79
     3
170
     0
171
     0
290
     0
174
     0
 93
       13
 44
0.0
173
     0
291
     0
 45
0.0
1001
ACAD
1000
AcDbSavedByObjectVersion
1070
     0
  0
VISUALSTYLE
  5
464
102
{ACAD_REACTORS
330
29
102
}
102
{ACAD_XDICTIONARY
360
517
102
}
330
29
100
AcDbVisualStyle
  2
Shaded
 70
    27
 71
     2
 72
     2
 73
     1
 90
        2
 40
0.6
 41
30.0
 62
     5
 63
     7
 74
     0
 91
        4
 64
     7
 65
   257
 75
     1
175
     1
 42
1.0
 92
        8
 66
   257
 43
1.0
 76
     1
 77
     6
 78
     2
 67
   251
 79
     3
170
     0
171
     0
290
     0
174
     0
 93
        5
 44
0.0
173
     0
291
     0
 45
0.0
1001
ACAD
1000
AcDbSavedByObjectVersion
1070
     0
  0
VISUALSTYLE
  5
463
102
{ACAD_REACTORS
330
29
102
}
102
{ACAD_XDICTIONARY
360
515
102
}
330
29
100
AcDbVisualStyle
  2
Shaded with edges
 70
    26
 71
     2
 72
     2
 73
     1
 90
        2
 40
0.6
 41
30.0
 62
     5
 63
     7
 74
     1
 91
       10
 64
     7
 65
   257
 75
     2
175
     1
 42
1.0
 92
        8
 66
   257
 43
1.0
 76
     1
 77
     6
 78
     2
 67
     7
 79
     3
170
     0
171
     0
290
     0
174
     0
 93
        5
 44
0.0
173
     0
291
     0
 45
0.0
1001
ACAD
1000
AcDbSavedByObjectVersion
1070
     0
  0
VISUALSTYLE
  5
460
102
{ACAD_REACTORS
330
29
102
}
102
{ACAD_XDICTIONARY
360
50F
102
}
330
29
100
AcDbVisualStyle
  2
Shades of Gray
 70
    23
 71
     2
 72
     2
 73
     3
 90
        0
 40
0.6
 41
30.0
 62
     5
 63
     7
 74
     2
 91
        2
 64
     7
 65
     7
 75
     1
175
     1
 42
40.0
 92
        8
 66
     7
 43
1.0
 76
     1
 77
     6
 78
     2
 67
     7
 79
     3
170
     0
171
     0
290
     0
174
     0
 93
        1
 44
0.0
173
     0
291
     0
 45
0.0
1001
ACAD
1000
AcDbSavedByObjectVersion
1070
     0
  0
VISUALSTYLE
  5
461
102
{ACAD_REACTORS
330
29
102
}
102
{ACAD_XDICTIONARY
360
511
102
}
330
29
100
AcDbVisualStyle
  2
Sketchy
 70
    24
 71
     1
 72
     2
 73
     2
 90
        0
 40
0.6
 41
30.0
 62
     5
 63
     7
 74
     2
 91
        2
 64
     7
 65
     7
 75
     1
175
     1
 42
40.0
 92
       11
 66
     7
 43
1.0
 76
     1
 77
     6
 78
     2
 67
     7
 79
     6
170
     0
171
     0
290
     0
174
     0
 93
        1
 44
0.0
173
     0
291
     0
 45
0.0
1001
ACAD
1000
AcDbSavedByObjectVersion
1070
     0
  0
VISUALSTYLE
  5
459
102
{ACAD_REACTORS
330
29
102
}
102
{ACAD_XDICTIONARY
360
501
102
}
330
29
100
AcDbVisualStyle
  2
Thicken
 70
    13
 71
     2
 72
     2
 73
     0
 90
        0
 40
0.6
 41
30.0
 62
     5
 63
     7
 74
     1
 91
        4
 64
     7
 65
   257
 75
     1
175
     1
 42
1.0
 92
       12
 66
     7
 43
1.0
 76
     1
 77
     6
 78
     2
 67
     7
 79
     5
170
     0
171
     0
290
     0
174
     0
 93
        1
 44
0.0
173
     0
291
     1
 45
0.0
1001
ACAD
1000
AcDbSavedByObjectVersion
1070
     0
  0
VISUALSTYLE
  5
452
102
{ACAD_REACTORS
330
29
102
}
102
{ACAD_XDICTIONARY
360
4F3
102
}
330
29
100
AcDbVisualStyle
  2
Wireframe
 70
     5
 71
     0
 72
     2
 73
     0
 90
        0
 40
0.6
 41
30.0
 62
     5
 63
     7
 74
     1
 91
        4
 64
     7
 65
   257
 75
     1
175
     1
 42
1.0
 92
        0
 66
   257
 43
1.0
 76
     1
 77
     6
 78
     2
 67
     7
 79
     5
170
     0
171
     0
290
     0
174
     0
 93
        1
 44
0.0
173
     0
291
     0
 45
0.0
1001
ACAD
1000
AcDbSavedByObjectVersion
1070
     0
  0
VISUALSTYLE
  5
462
102
{ACAD_REACTORS
330
29
102
}
102
{ACAD_XDICTIONARY
360
513
102
}
330
29
100
AcDbVisualStyle
  2
X-Ray
 70
    25
 71
     2
 72
     2
 73
     1
 90
        1
 40
0.5
 41
30.0
 62
     5
 63
     7
 74
     1
 91
        0
 64
     7
 65
   257
 75
     1
175
     1
 42
1.0
 92
        8
 66
     7
 43
1.0
 76
     1
 77
     6
 78
     2
 67
     7
 79
     3
170
     0
171
     0
290
     0
174
     0
 93
       13
 44
0.0
173
     0
291
     0
 45
0.0
1001
ACAD
1000
AcDbSavedByObjectVersion
1070
     0
  0
XRECORD
  5
4DD
102
{ACAD_REACTORS
330
4DC
102
}
330
4DC
100
AcDbXrecord
280
     1
340
28
  0
XRECORD
  5
4DE
102
{ACAD_REACTORS
330
4DC
102
}
330
4DC
100
AcDbXrecord
280
     1
340
7
  0
DICTIONARYVAR
  5
448
102
{ACAD_REACTORS
330
447
102
}
330
447
100
DictionaryVariables
280
     0
  1
1:1
  0
DICTIONARYVAR
  5
467
102
{ACAD_REACTORS
330
447
102
}
330
447
100
DictionaryVariables
280
     0
  1
Standard
  0
DICTIONARYVAR
  5
4D9
102
{ACAD_REACTORS
330
447
102
}
330
447
100
DictionaryVariables
280
     0
  1
Standard
  0
DICTIONARYVAR
  5
4DA
102
{ACAD_REACTORS
330
447
102
}
330
447
100
DictionaryVariables
280
     0
  1
0
  0
DICTIONARYVAR
  5
4DB
102
{ACAD_REACTORS
330
447
102
}
330
447
100
DictionaryVariables
280
     0
  1
1
  0
DICTIONARYVAR
  5
4E2
102
{ACAD_REACTORS
330
447
102
}
330
447
100
DictionaryVariables
280
     0
  1
1
  0
DICTIONARY
  5
4E7
330
70
100
AcDbDictionary
280
     1
281
     1
  3
ACAD_XREC_ROUNDTRIP
360
4E8
  0
DICTIONARY
  5
4E3
330
E
100
AcDbDictionary
280
     1
281
     1
  3
ACAD_XREC_ROUNDTRIP
360
4E4
  0
DICTIONARY
  5
4E5
330
6
100
AcDbDictionary
280
     1
281
     1
  3
ACAD_XREC_ROUNDTRIP
360
4E6
  0
DICTIONARY
  5
519
330
465
100
AcDbDictionary
280
     1
281
     1
  3
ACAD_XREC_ROUNDTRIP
360
51A
  0
DICTIONARY
  5
4F1
330
451
100
AcDbDictionary
280
     1
281
     1
  3
ACAD_XREC_ROUNDTRIP
360
4F2
  0
DICTIONARY
  5
4F7
330
454
100
AcDbDictionary
280
     1
281
     1
  3
ACAD_XREC_ROUNDTRIP
360
4F8
  0
DICTIONARY
  5
4FF
330
458
100
AcDbDictionary
280
     1
281
     1
  3
ACAD_XREC_ROUNDTRIP
360
500
  0
DICTIONARY
  5
507
330
45C
100
AcDbDictionary
280
     1
281
     1
  3
ACAD_XREC_ROUNDTRIP
360
508
  0
DICTIONARY
  5
4FB
330
456
100
AcDbDictionary
280
     1
281
     1
  3
ACAD_XREC_ROUNDTRIP
360
4FC
  0
DICTIONARY
  5
4FD
330
457
100
AcDbDictionary
280
     1
281
     1
  3
ACAD_XREC_ROUNDTRIP
360
4FE
  0
DICTIONARY
  5
50D
330
45F
100
AcDbDictionary
280
     1
281
     1
  3
ACAD_XREC_ROUNDTRIP
360
50E
  0
DICTIONARY
  5
505
330
45B
100
AcDbDictionary
280
     1
281
     1
  3
ACAD_XREC_ROUNDTRIP
360
506
  0
DICTIONARY
  5
4E9
330
44D
100
AcDbDictionary
280
     1
281
     1
  3
ACAD_XREC_ROUNDTRIP
360
4EA
  0
DICTIONARY
  5
4EB
330
44E
100
AcDbDictionary
280
     1
281
     1
  3
ACAD_XREC_ROUNDTRIP
360
4EC
  0
DICTIONARY
  5
4ED
330
44F
100
AcDbDictionary
280
     1
281
     1
  3
ACAD_XREC_ROUNDTRIP
360
4EE
  0
DICTIONARY
  5
4EF
330
450
100
AcDbDictionary
280
     1
281
     1
  3
ACAD_XREC_ROUNDTRIP
360
4F0
  0
DICTIONARY
  5
4F5
330
453
100
AcDbDictionary
280
     1
281
     1
  3
ACAD_XREC_ROUNDTRIP
360
4F6
  0
DICTIONARY
  5
509
330
45D
100
AcDbDictionary
280
     1
281
     1
  3
ACAD_XREC_ROUNDTRIP
360
50A
  0
DICTIONARY
  5
503
330
45A
100
AcDbDictionary
280
     1
281
     1
  3
ACAD_XREC_ROUNDTRIP
360
504
  0
DICTIONARY
  5
50B
330
45E
100
AcDbDictionary
280
     1
281
     1
  3
ACAD_XREC_ROUNDTRIP
360
50C
  0
DICTIONARY
  5
4F9
330
455
100
AcDbDictionary
280
     1
281
     1
  3
ACAD_XREC_ROUNDTRIP
360
4FA
  0
DICTIONARY
  5
517
330
464
100
AcDbDictionary
280
     1
281
     1
  3
ACAD_XREC_ROUNDTRIP
360
518
  0
DICTIONARY
  5
515
330
463
100
AcDbDictionary
280
     1
281
     1
  3
ACAD_XREC_ROUNDTRIP
360
516
  0
DICTIONARY
  5
50F
330
460
100
AcDbDictionary
280
     1
281
     1
  3
ACAD_XREC_ROUNDTRIP
360
510
  0
DICTIONARY
  5
511
330
461
100
AcDbDictionary
280
     1
281
     1
  3
ACAD_XREC_ROUNDTRIP
360
512
  0
DICTIONARY
  5
501
330
459
100
AcDbDictionary
280
     1
281
     1
  3
ACAD_XREC_ROUNDTRIP
360
502
  0
DICTIONARY
  5
4F3
330
452
100
AcDbDictionary
280
     1
281
     1
  3
ACAD_XREC_ROUNDTRIP
360
4F4
  0
DICTIONARY
  5
513
330
462
100
AcDbDictionary
280
     1
281
     1
  3
ACAD_XREC_ROUNDTRIP
360
514
  0
XRECORD
  5
4E8
102
{ACAD_REACTORS
330
4E7
102
}
330
4E7
100
AcDbXrecord
280
     1
102
MATERIAL
148
0.0
149
0.0
149
0.0
 93
        0
 94
      127
282
     0
 72
     1
 77
     1
171
     1
175
     1
179
     1
273
     0
  0
XRECORD
  5
4E4
102
{ACAD_REACTORS
330
4E3
102
}
330
4E3
100
AcDbXrecord
280
     1
102
MATERIAL
148
0.0
149
0.0
149
0.0
 93
        0
 94
      127
282
     0
 72
     1
 77
     1
171
     1
175
     1
179
     1
273
     0
  0
XRECORD
  5
4E6
102
{ACAD_REACTORS
330
4E5
102
}
330
4E5
100
AcDbXrecord
280
     1
102
MATERIAL
148
0.0
149
0.0
149
0.0
 93
        0
 94
      127
282
     0
 72
     1
 77
     1
171
     1
175
     1
179
     1
273
     0
  0
XRECORD
  5
51A
102
{ACAD_REACTORS
330
519
102
}
330
519
100
AcDbXrecord
280
     1
102
ACAD_ROUNDTRIP_2010_MLEADER_STYLE
  0
XRECORD
  5
4F2
102
{ACAD_REACTORS
330
4F1
102
}
330
4F1
100
AcDbXrecord
280
     1
102
RTVSPropertyOp0
 70
     1
102
RTVSPropertyOp1
 70
     1
102
RTVSPropertyOp2
 70
     1
102
RTVSPropertyOp3
 70
     1
102
RTVSPropertyOp4
 70
     1
102
RTVSPropertyOp5
 70
     1
102
RTVSPropertyOp6
 70
     1
102
RTVSPropertyOp7
 70
     1
102
RTVSPropertyOp8
 70
     1
102
RTVSPropertyOp9
 70
     1
102
RTVSPropertyOp10
 70
     1
102
RTVSPropertyOp11
 70
     1
102
RTVSPropertyOp12
 70
     1
102
RTVSPropertyOp13
 70
     1
102
RTVSPropertyOp14
 70
     1
102
RTVSPropertyOp15
 70
     1
102
RTVSPropertyOp16
 70
     1
102
RTVSPropertyOp17
 70
     1
102
RTVSPropertyOp18
 70
     1
102
RTVSPropertyOp19
 70
     1
102
RTVSPropertyOp20
 70
     1
102
RTVSPropertyOp21
 70
     1
102
RTVSPropertyOp22
 70
     1
102
RTVSPropertyOp23
 70
     1
102
RTVSPropertyOp24
 70
     1
102
RTVSPropertyOp25
 70
     1
102
RTVSPropertyOp26
 70
     1
102
RTVSPropertyOp27
 70
     1
102
RTVSPropertyOp28
 70
     1
102
RTVSPropertyOp29
 70
     1
102
RTVSPropertyOp30
 70
     1
102
RTVSPropertyOp31
 70
     1
102
RTVSPropertyOp32
 70
     1
102
RTVSPropertyOp33
 70
     1
102
RTVSPropertyOp34
 70
     1
102
RTVSPropertyOp35
 70
     1
102
RTVSPropertyOp36
 70
     1
102
RTVSPropertyOp37
 70
     1
102
RTVSPropertyOp38
 70
     1
102
RTVSPropertyOp39
 70
     1
102
RTVSPropertyOp40
 70
     1
102
RTVSPropertyOp41
 70
     1
102
RTVSPropertyOp42
 70
     1
102
RTVSPropertyOp43
 70
     1
102
RTVSPropertyOp44
 70
     1
102
RTVSPropertyOp45
 70
     1
102
RTVSPropertyOp46
 70
     1
102
RTVSPropertyOp47
 70
     1
102
RTVSPropertyOp48
 70
     1
102
RTVSPropertyOp49
 70
     1
102
RTVSPropertyOp50
 70
     1
102
RTVSPropertyOp51
 70
     0
102
RTVSPropertyOp52
 70
     0
102
RTVSPropertyOp53
 70
     1
102
RTVSPropertyOp54
 70
     1
102
RTVSPropertyOp55
 70
     1
102
RTVSPropertyOp56
 70
     1
102
RTVSPropertyOp57
 70
     1
102
RTVSPost2010Prop28
280
     1
102
RTVSPost2010PropOp28
 70
     1
102
RTVSPost2010Prop29
280
     1
102
RTVSPost2010PropOp29
 70
     1
102
RTVSPost2010Prop30
280
     0
102
RTVSPost2010PropOp30
 70
     1
102
RTVSPost2010Prop31
280
     0
102
RTVSPost2010PropOp31
 70
     1
102
RTVSPost2010Prop32
280
     0
102
RTVSPost2010PropOp32
 70
     1
102
RTVSPost2010Prop33
280
     0
102
RTVSPost2010PropOp33
 70
     1
102
RTVSPost2010Prop34
280
     0
102
RTVSPost2010PropOp34
 70
     1
102
RTVSPost2010Prop35
280
     0
102
RTVSPost2010PropOp35
 70
     1
102
RTVSPost2010Prop36
280
     0
102
RTVSPost2010PropOp36
 70
     1
102
RTVSPost2010Prop37
 90
       50
102
RTVSPost2010PropOp37
 70
     1
102
RTVSPost2010Prop38
140
0.0
102
RTVSPost2010PropOp38
 70
     1
102
RTVSPost2010Prop39
140
1.0
102
RTVSPost2010PropOp39
 70
     1
102
RTVSPost2010Prop40
 90
        0
102
RTVSPost2010PropOp40
 70
     1
102
RTVSPost2010Prop41ColorIndex
 90
       18
102
RTVSPost2010Prop41ColorRGB
 90
        0
102
RTVSPost2010PropOp41
 70
     1
102
RTVSPost2010Prop42
 90
       50
102
RTVSPost2010PropOp42
 70
     1
102
RTVSPost2010Prop43
 90
        3
102
RTVSPost2010PropOp43
 70
     1
102
RTVSPost2010Prop44ColorIndex
 90
        5
102
RTVSPost2010Prop44ColorRGB
 90
      255
102
RTVSPost2010PropOp44
 70
     1
102
RTVSPost2010Prop45
280
     0
102
RTVSPost2010PropOp45
 70
     1
102
RTVSPost2010Prop46
 90
       50
102
RTVSPost2010PropOp46
 70
     1
102
RTVSPost2010Prop47
 90
       50
102
RTVSPost2010PropOp47
 70
     1
102
RTVSPost2010Prop48
 90
       50
102
RTVSPost2010PropOp48
 70
     1
102
RTVSPost2010Prop49
280
     0
102
RTVSPost2010PropOp49
 70
     1
102
RTVSPost2010Prop50
 90
       50
102
RTVSPost2010PropOp50
 70
     1
102
RTVSPost2010Prop51ColorIndex
 90
      256
102
RTVSPost2010Prop51ColorRGB
 90
-16777216
102
RTVSPost2010PropOp51
 70
     0
102
RTVSPost2010Prop52
140
1.0
102
RTVSPost2010PropOp52
 70
     0
102
RTVSPost2010Prop53
 90
        2
102
RTVSPost2010PropOp53
 70
     1
102
RTVSPost2010Prop54
  1
strokes_ogs.tif
102
RTVSPost2010PropOp54
 70
     1
102
RTVSPost2010Prop55
280
     0
102
RTVSPost2010PropOp55
 70
     1
102
RTVSPost2010Prop56
140
1.0
102
RTVSPost2010PropOp56
 70
     1
102
RTVSPost2010Prop57
140
1.0
102
RTVSPost2010PropOp57
 70
     1
  0
XRECORD
  5
4F8
102
{ACAD_REACTORS
330
4F7
102
}
330
4F7
100
AcDbXrecord
280
     1
102
RTVSPropertyOp0
 70
     1
102
RTVSPropertyOp1
 70
     1
102
RTVSPropertyOp2
 70
     1
102
RTVSPropertyOp3
 70
     1
102
RTVSPropertyOp4
 70
     1
102
RTVSPropertyOp5
 70
     1
102
RTVSPropertyOp6
 70
     1
102
RTVSPropertyOp7
 70
     1
102
RTVSPropertyOp8
 70
     1
102
RTVSPropertyOp9
 70
     1
102
RTVSPropertyOp10
 70
     1
102
RTVSPropertyOp11
 70
     1
102
RTVSPropertyOp12
 70
     1
102
RTVSPropertyOp13
 70
     1
102
RTVSPropertyOp14
 70
     1
102
RTVSPropertyOp15
 70
     1
102
RTVSPropertyOp16
 70
     1
102
RTVSPropertyOp17
 70
     1
102
RTVSPropertyOp18
 70
     1
102
RTVSPropertyOp19
 70
     1
102
RTVSPropertyOp20
 70
     1
102
RTVSPropertyOp21
 70
     1
102
RTVSPropertyOp22
 70
     1
102
RTVSPropertyOp23
 70
     1
102
RTVSPropertyOp24
 70
     1
102
RTVSPropertyOp25
 70
     1
102
RTVSPropertyOp26
 70
     1
102
RTVSPropertyOp27
 70
     1
102
RTVSPropertyOp28
 70
     1
102
RTVSPropertyOp29
 70
     1
102
RTVSPropertyOp30
 70
     1
102
RTVSPropertyOp31
 70
     1
102
RTVSPropertyOp32
 70
     1
102
RTVSPropertyOp33
 70
     1
102
RTVSPropertyOp34
 70
     1
102
RTVSPropertyOp35
 70
     1
102
RTVSPropertyOp36
 70
     1
102
RTVSPropertyOp37
 70
     1
102
RTVSPropertyOp38
 70
     1
102
RTVSPropertyOp39
 70
     1
102
RTVSPropertyOp40
 70
     1
102
RTVSPropertyOp41
 70
     1
102
RTVSPropertyOp42
 70
     1
102
RTVSPropertyOp43
 70
     1
102
RTVSPropertyOp44
 70
     1
102
RTVSPropertyOp45
 70
     1
102
RTVSPropertyOp46
 70
     1
102
RTVSPropertyOp47
 70
     1
102
RTVSPropertyOp48
 70
     1
102
RTVSPropertyOp49
 70
     1
102
RTVSPropertyOp50
 70
     1
102
RTVSPropertyOp51
 70
     0
102
RTVSPropertyOp52
 70
     0
102
RTVSPropertyOp53
 70
     1
102
RTVSPropertyOp54
 70
     1
102
RTVSPropertyOp55
 70
     1
102
RTVSPropertyOp56
 70
     1
102
RTVSPropertyOp57
 70
     1
102
RTVSPost2010Prop28
280
     0
102
RTVSPost2010PropOp28
 70
     1
102
RTVSPost2010Prop29
280
     1
102
RTVSPost2010PropOp29
 70
     1
102
RTVSPost2010Prop30
280
     1
102
RTVSPost2010PropOp30
 70
     1
102
RTVSPost2010Prop31
280
     0
102
RTVSPost2010PropOp31
 70
     1
102
RTVSPost2010Prop32
280
     0
102
RTVSPost2010PropOp32
 70
     1
102
RTVSPost2010Prop33
280
     0
102
RTVSPost2010PropOp33
 70
     1
102
RTVSPost2010Prop34
280
     0
102
RTVSPost2010PropOp34
 70
     1
102
RTVSPost2010Prop35
280
     0
102
RTVSPost2010PropOp35
 70
     1
102
RTVSPost2010Prop36
280
     0
102
RTVSPost2010PropOp36
 70
     1
102
RTVSPost2010Prop37
 90
       50
102
RTVSPost2010PropOp37
 70
     1
102
RTVSPost2010Prop38
140
0.0
102
RTVSPost2010PropOp38
 70
     1
102
RTVSPost2010Prop39
140
1.0
102
RTVSPost2010PropOp39
 70
     1
102
RTVSPost2010Prop40
 90
        0
102
RTVSPost2010PropOp40
 70
     1
102
RTVSPost2010Prop41ColorIndex
 90
       18
102
RTVSPost2010Prop41ColorRGB
 90
        0
102
RTVSPost2010PropOp41
 70
     1
102
RTVSPost2010Prop42
 90
       50
102
RTVSPost2010PropOp42
 70
     1
102
RTVSPost2010Prop43
 90
        3
102
RTVSPost2010PropOp43
 70
     1
102
RTVSPost2010Prop44ColorIndex
 90
        5
102
RTVSPost2010Prop44ColorRGB
 90
      255
102
RTVSPost2010PropOp44
 70
     1
102
RTVSPost2010Prop45
280
     0
102
RTVSPost2010PropOp45
 70
     1
102
RTVSPost2010Prop46
 90
       50
102
RTVSPost2010PropOp46
 70
     1
102
RTVSPost2010Prop47
 90
       50
102
RTVSPost2010PropOp47
 70
     1
102
RTVSPost2010Prop48
 90
       50
102
RTVSPost2010PropOp48
 70
     1
102
RTVSPost2010Prop49
280
     0
102
RTVSPost2010PropOp49
 70
     1
102
RTVSPost2010Prop50
 90
       50
102
RTVSPost2010PropOp50
 70
     1
102
RTVSPost2010Prop51ColorIndex
 90
      256
102
RTVSPost2010Prop51ColorRGB
 90
-16777216
102
RTVSPost2010PropOp51
 70
     0
102
RTVSPost2010Prop52
140
1.0
102
RTVSPost2010PropOp52
 70
     0
102
RTVSPost2010Prop53
 90
        2
102
RTVSPost2010PropOp53
 70
     1
102
RTVSPost2010Prop54
  1
strokes_ogs.tif
102
RTVSPost2010PropOp54
 70
     1
102
RTVSPost2010Prop55
280
     0
102
RTVSPost2010PropOp55
 70
     1
102
RTVSPost2010Prop56
140
1.0
102
RTVSPost2010PropOp56
 70
     1
102
RTVSPost2010Prop57
140
1.0
102
RTVSPost2010PropOp57
 70
     1
  0
XRECORD
  5
500
102
{ACAD_REACTORS
330
4FF
102
}
330
4FF
100
AcDbXrecord
280
     1
102
RTVSPropertyOp0
 70
     1
102
RTVSPropertyOp1
 70
     1
102
RTVSPropertyOp2
 70
     1
102
RTVSPropertyOp3
 70
     1
102
RTVSPropertyOp4
 70
     1
102
RTVSPropertyOp5
 70
     1
102
RTVSPropertyOp6
 70
     1
102
RTVSPropertyOp7
 70
     1
102
RTVSPropertyOp8
 70
     1
102
RTVSPropertyOp9
 70
     1
102
RTVSPropertyOp10
 70
     1
102
RTVSPropertyOp11
 70
     1
102
RTVSPropertyOp12
 70
     1
102
RTVSPropertyOp13
 70
     1
102
RTVSPropertyOp14
 70
     1
102
RTVSPropertyOp15
 70
     1
102
RTVSPropertyOp16
 70
     1
102
RTVSPropertyOp17
 70
     1
102
RTVSPropertyOp18
 70
     1
102
RTVSPropertyOp19
 70
     1
102
RTVSPropertyOp20
 70
     1
102
RTVSPropertyOp21
 70
     1
102
RTVSPropertyOp22
 70
     1
102
RTVSPropertyOp23
 70
     1
102
RTVSPropertyOp24
 70
     1
102
RTVSPropertyOp25
 70
     1
102
RTVSPropertyOp26
 70
     1
102
RTVSPropertyOp27
 70
     1
102
RTVSPropertyOp28
 70
     1
102
RTVSPropertyOp29
 70
     1
102
RTVSPropertyOp30
 70
     1
102
RTVSPropertyOp31
 70
     1
102
RTVSPropertyOp32
 70
     1
102
RTVSPropertyOp33
 70
     1
102
RTVSPropertyOp34
 70
     1
102
RTVSPropertyOp35
 70
     1
102
RTVSPropertyOp36
 70
     1
102
RTVSPropertyOp37
 70
     1
102
RTVSPropertyOp38
 70
     1
102
RTVSPropertyOp39
 70
     1
102
RTVSPropertyOp40
 70
     1
102
RTVSPropertyOp41
 70
     1
102
RTVSPropertyOp42
 70
     1
102
RTVSPropertyOp43
 70
     1
102
RTVSPropertyOp44
 70
     1
102
RTVSPropertyOp45
 70
     1
102
RTVSPropertyOp46
 70
     1
102
RTVSPropertyOp47
 70
     1
102
RTVSPropertyOp48
 70
     1
102
RTVSPropertyOp49
 70
     1
102
RTVSPropertyOp50
 70
     1
102
RTVSPropertyOp51
 70
     0
102
RTVSPropertyOp52
 70
     0
102
RTVSPropertyOp53
 70
     1
102
RTVSPropertyOp54
 70
     1
102
RTVSPropertyOp55
 70
     1
102
RTVSPropertyOp56
 70
     1
102
RTVSPropertyOp57
 70
     1
102
RTVSPost2010Prop28
280
     0
102
RTVSPost2010PropOp28
 70
     1
102
RTVSPost2010Prop29
280
     1
102
RTVSPost2010PropOp29
 70
     1
102
RTVSPost2010Prop30
280
     1
102
RTVSPost2010PropOp30
 70
     1
102
RTVSPost2010Prop31
280
     0
102
RTVSPost2010PropOp31
 70
     1
102
RTVSPost2010Prop32
280
     0
102
RTVSPost2010PropOp32
 70
     1
102
RTVSPost2010Prop33
280
     0
102
RTVSPost2010PropOp33
 70
     1
102
RTVSPost2010Prop34
280
     0
102
RTVSPost2010PropOp34
 70
     1
102
RTVSPost2010Prop35
280
     0
102
RTVSPost2010PropOp35
 70
     1
102
RTVSPost2010Prop36
280
     0
102
RTVSPost2010PropOp36
 70
     1
102
RTVSPost2010Prop37
 90
       50
102
RTVSPost2010PropOp37
 70
     1
102
RTVSPost2010Prop38
140
0.0
102
RTVSPost2010PropOp38
 70
     1
102
RTVSPost2010Prop39
140
1.0
102
RTVSPost2010PropOp39
 70
     1
102
RTVSPost2010Prop40
 90
        0
102
RTVSPost2010PropOp40
 70
     1
102
RTVSPost2010Prop41ColorIndex
 90
       18
102
RTVSPost2010Prop41ColorRGB
 90
        0
102
RTVSPost2010PropOp41
 70
     1
102
RTVSPost2010Prop42
 90
       50
102
RTVSPost2010PropOp42
 70
     1
102
RTVSPost2010Prop43
 90
        3
102
RTVSPost2010PropOp43
 70
     1
102
RTVSPost2010Prop44ColorIndex
 90
        5
102
RTVSPost2010Prop44ColorRGB
 90
      255
102
RTVSPost2010PropOp44
 70
     1
102
RTVSPost2010Prop45
280
     0
102
RTVSPost2010PropOp45
 70
     1
102
RTVSPost2010Prop46
 90
       50
102
RTVSPost2010PropOp46
 70
     1
102
RTVSPost2010Prop47
 90
       50
102
RTVSPost2010PropOp47
 70
     1
102
RTVSPost2010Prop48
 90
       50
102
RTVSPost2010PropOp48
 70
     1
102
RTVSPost2010Prop49
280
     0
102
RTVSPost2010PropOp49
 70
     1
102
RTVSPost2010Prop50
 90
       50
102
RTVSPost2010PropOp50
 70
     1
102
RTVSPost2010Prop51ColorIndex
 90
      256
102
RTVSPost2010Prop51ColorRGB
 90
-16777216
102
RTVSPost2010PropOp51
 70
     0
102
RTVSPost2010Prop52
140
1.0
102
RTVSPost2010PropOp52
 70
     0
102
RTVSPost2010Prop53
 90
        2
102
RTVSPost2010PropOp53
 70
     1
102
RTVSPost2010Prop54
  1
strokes_ogs.tif
102
RTVSPost2010PropOp54
 70
     1
102
RTVSPost2010Prop55
280
     0
102
RTVSPost2010PropOp55
 70
     1
102
RTVSPost2010Prop56
140
1.0
102
RTVSPost2010PropOp56
 70
     1
102
RTVSPost2010Prop57
140
1.0
102
RTVSPost2010PropOp57
 70
     1
  0
XRECORD
  5
508
102
{ACAD_REACTORS
330
507
102
}
330
507
100
AcDbXrecord
280
     1
102
RTVSPropertyOp0
 70
     1
102
RTVSPropertyOp1
 70
     1
102
RTVSPropertyOp2
 70
     1
102
RTVSPropertyOp3
 70
     1
102
RTVSPropertyOp4
 70
     1
102
RTVSPropertyOp5
 70
     1
102
RTVSPropertyOp6
 70
     1
102
RTVSPropertyOp7
 70
     1
102
RTVSPropertyOp8
 70
     1
102
RTVSPropertyOp9
 70
     1
102
RTVSPropertyOp10
 70
     1
102
RTVSPropertyOp11
 70
     1
102
RTVSPropertyOp12
 70
     1
102
RTVSPropertyOp13
 70
     1
102
RTVSPropertyOp14
 70
     1
102
RTVSPropertyOp15
 70
     1
102
RTVSPropertyOp16
 70
     1
102
RTVSPropertyOp17
 70
     1
102
RTVSPropertyOp18
 70
     1
102
RTVSPropertyOp19
 70
     1
102
RTVSPropertyOp20
 70
     1
102
RTVSPropertyOp21
 70
     1
102
RTVSPropertyOp22
 70
     1
102
RTVSPropertyOp23
 70
     1
102
RTVSPropertyOp24
 70
     1
102
RTVSPropertyOp25
 70
     1
102
RTVSPropertyOp26
 70
     1
102
RTVSPropertyOp27
 70
     1
102
RTVSPropertyOp28
 70
     1
102
RTVSPropertyOp29
 70
     1
102
RTVSPropertyOp30
 70
     1
102
RTVSPropertyOp31
 70
     1
102
RTVSPropertyOp32
 70
     1
102
RTVSPropertyOp33
 70
     1
102
RTVSPropertyOp34
 70
     1
102
RTVSPropertyOp35
 70
     1
102
RTVSPropertyOp36
 70
     1
102
RTVSPropertyOp37
 70
     1
102
RTVSPropertyOp38
 70
     1
102
RTVSPropertyOp39
 70
     1
102
RTVSPropertyOp40
 70
     1
102
RTVSPropertyOp41
 70
     1
102
RTVSPropertyOp42
 70
     1
102
RTVSPropertyOp43
 70
     1
102
RTVSPropertyOp44
 70
     1
102
RTVSPropertyOp45
 70
     1
102
RTVSPropertyOp46
 70
     1
102
RTVSPropertyOp47
 70
     1
102
RTVSPropertyOp48
 70
     1
102
RTVSPropertyOp49
 70
     1
102
RTVSPropertyOp50
 70
     1
102
RTVSPropertyOp51
 70
     0
102
RTVSPropertyOp52
 70
     0
102
RTVSPropertyOp53
 70
     1
102
RTVSPropertyOp54
 70
     1
102
RTVSPropertyOp55
 70
     1
102
RTVSPropertyOp56
 70
     1
102
RTVSPropertyOp57
 70
     1
102
RTVSPost2010Prop28
280
     0
102
RTVSPost2010PropOp28
 70
     1
102
RTVSPost2010Prop29
280
     1
102
RTVSPost2010PropOp29
 70
     1
102
RTVSPost2010Prop30
280
     1
102
RTVSPost2010PropOp30
 70
     1
102
RTVSPost2010Prop31
280
     0
102
RTVSPost2010PropOp31
 70
     1
102
RTVSPost2010Prop32
280
     0
102
RTVSPost2010PropOp32
 70
     1
102
RTVSPost2010Prop33
280
     0
102
RTVSPost2010PropOp33
 70
     1
102
RTVSPost2010Prop34
280
     0
102
RTVSPost2010PropOp34
 70
     1
102
RTVSPost2010Prop35
280
     0
102
RTVSPost2010PropOp35
 70
     1
102
RTVSPost2010Prop36
280
     0
102
RTVSPost2010PropOp36
 70
     1
102
RTVSPost2010Prop37
 90
       50
102
RTVSPost2010PropOp37
 70
     1
102
RTVSPost2010Prop38
140
0.0
102
RTVSPost2010PropOp38
 70
     1
102
RTVSPost2010Prop39
140
1.0
102
RTVSPost2010PropOp39
 70
     1
102
RTVSPost2010Prop40
 90
        0
102
RTVSPost2010PropOp40
 70
     1
102
RTVSPost2010Prop41ColorIndex
 90
       18
102
RTVSPost2010Prop41ColorRGB
 90
        0
102
RTVSPost2010PropOp41
 70
     1
102
RTVSPost2010Prop42
 90
       50
102
RTVSPost2010PropOp42
 70
     1
102
RTVSPost2010Prop43
 90
        3
102
RTVSPost2010PropOp43
 70
     1
102
RTVSPost2010Prop44ColorIndex
 90
        5
102
RTVSPost2010Prop44ColorRGB
 90
      255
102
RTVSPost2010PropOp44
 70
     1
102
RTVSPost2010Prop45
280
     0
102
RTVSPost2010PropOp45
 70
     1
102
RTVSPost2010Prop46
 90
       50
102
RTVSPost2010PropOp46
 70
     1
102
RTVSPost2010Prop47
 90
       50
102
RTVSPost2010PropOp47
 70
     1
102
RTVSPost2010Prop48
 90
       50
102
RTVSPost2010PropOp48
 70
     1
102
RTVSPost2010Prop49
280
     0
102
RTVSPost2010PropOp49
 70
     1
102
RTVSPost2010Prop50
 90
       50
102
RTVSPost2010PropOp50
 70
     1
102
RTVSPost2010Prop51ColorIndex
 90
      256
102
RTVSPost2010Prop51ColorRGB
 90
-16777216
102
RTVSPost2010PropOp51
 70
     0
102
RTVSPost2010Prop52
140
1.0
102
RTVSPost2010PropOp52
 70
     0
102
RTVSPost2010Prop53
 90
        2
102
RTVSPost2010PropOp53
 70
     1
102
RTVSPost2010Prop54
  1
strokes_ogs.tif
102
RTVSPost2010PropOp54
 70
     1
102
RTVSPost2010Prop55
280
     0
102
RTVSPost2010PropOp55
 70
     1
102
RTVSPost2010Prop56
140
1.0
102
RTVSPost2010PropOp56
 70
     1
102
RTVSPost2010Prop57
140
1.0
102
RTVSPost2010PropOp57
 70
     1
  0
XRECORD
  5
4FC
102
{ACAD_REACTORS
330
4FB
102
}
330
4FB
100
AcDbXrecord
280
     1
102
RTVSPropertyOp0
 70
     1
102
RTVSPropertyOp1
 70
     1
102
RTVSPropertyOp2
 70
     1
102
RTVSPropertyOp3
 70
     1
102
RTVSPropertyOp4
 70
     1
102
RTVSPropertyOp5
 70
     1
102
RTVSPropertyOp6
 70
     1
102
RTVSPropertyOp7
 70
     1
102
RTVSPropertyOp8
 70
     1
102
RTVSPropertyOp9
 70
     1
102
RTVSPropertyOp10
 70
     1
102
RTVSPropertyOp11
 70
     1
102
RTVSPropertyOp12
 70
     1
102
RTVSPropertyOp13
 70
     1
102
RTVSPropertyOp14
 70
     1
102
RTVSPropertyOp15
 70
     1
102
RTVSPropertyOp16
 70
     1
102
RTVSPropertyOp17
 70
     1
102
RTVSPropertyOp18
 70
     1
102
RTVSPropertyOp19
 70
     1
102
RTVSPropertyOp20
 70
     1
102
RTVSPropertyOp21
 70
     1
102
RTVSPropertyOp22
 70
     1
102
RTVSPropertyOp23
 70
     1
102
RTVSPropertyOp24
 70
     1
102
RTVSPropertyOp25
 70
     1
102
RTVSPropertyOp26
 70
     1
102
RTVSPropertyOp27
 70
     1
102
RTVSPropertyOp28
 70
     1
102
RTVSPropertyOp29
 70
     1
102
RTVSPropertyOp30
 70
     1
102
RTVSPropertyOp31
 70
     1
102
RTVSPropertyOp32
 70
     1
102
RTVSPropertyOp33
 70
     1
102
RTVSPropertyOp34
 70
     1
102
RTVSPropertyOp35
 70
     1
102
RTVSPropertyOp36
 70
     1
102
RTVSPropertyOp37
 70
     1
102
RTVSPropertyOp38
 70
     1
102
RTVSPropertyOp39
 70
     1
102
RTVSPropertyOp40
 70
     1
102
RTVSPropertyOp41
 70
     1
102
RTVSPropertyOp42
 70
     1
102
RTVSPropertyOp43
 70
     1
102
RTVSPropertyOp44
 70
     1
102
RTVSPropertyOp45
 70
     1
102
RTVSPropertyOp46
 70
     1
102
RTVSPropertyOp47
 70
     1
102
RTVSPropertyOp48
 70
     1
102
RTVSPropertyOp49
 70
     1
102
RTVSPropertyOp50
 70
     1
102
RTVSPropertyOp51
 70
     0
102
RTVSPropertyOp52
 70
     0
102
RTVSPropertyOp53
 70
     1
102
RTVSPropertyOp54
 70
     1
102
RTVSPropertyOp55
 70
     1
102
RTVSPropertyOp56
 70
     1
102
RTVSPropertyOp57
 70
     1
102
RTVSPost2010Prop28
280
     0
102
RTVSPost2010PropOp28
 70
     1
102
RTVSPost2010Prop29
280
     1
102
RTVSPost2010PropOp29
 70
     1
102
RTVSPost2010Prop30
280
     1
102
RTVSPost2010PropOp30
 70
     1
102
RTVSPost2010Prop31
280
     0
102
RTVSPost2010PropOp31
 70
     1
102
RTVSPost2010Prop32
280
     0
102
RTVSPost2010PropOp32
 70
     1
102
RTVSPost2010Prop33
280
     0
102
RTVSPost2010PropOp33
 70
     1
102
RTVSPost2010Prop34
280
     0
102
RTVSPost2010PropOp34
 70
     1
102
RTVSPost2010Prop35
280
     0
102
RTVSPost2010PropOp35
 70
     1
102
RTVSPost2010Prop36
280
     0
102
RTVSPost2010PropOp36
 70
     1
102
RTVSPost2010Prop37
 90
       50
102
RTVSPost2010PropOp37
 70
     1
102
RTVSPost2010Prop38
140
0.0
102
RTVSPost2010PropOp38
 70
     1
102
RTVSPost2010Prop39
140
1.0
102
RTVSPost2010PropOp39
 70
     1
102
RTVSPost2010Prop40
 90
        0
102
RTVSPost2010PropOp40
 70
     1
102
RTVSPost2010Prop41ColorIndex
 90
       18
102
RTVSPost2010Prop41ColorRGB
 90
        0
102
RTVSPost2010PropOp41
 70
     1
102
RTVSPost2010Prop42
 90
       50
102
RTVSPost2010PropOp42
 70
     1
102
RTVSPost2010Prop43
 90
        3
102
RTVSPost2010PropOp43
 70
     1
102
RTVSPost2010Prop44ColorIndex
 90
        5
102
RTVSPost2010Prop44ColorRGB
 90
      255
102
RTVSPost2010PropOp44
 70
     1
102
RTVSPost2010Prop45
280
     0
102
RTVSPost2010PropOp45
 70
     1
102
RTVSPost2010Prop46
 90
       50
102
RTVSPost2010PropOp46
 70
     1
102
RTVSPost2010Prop47
 90
       50
102
RTVSPost2010PropOp47
 70
     1
102
RTVSPost2010Prop48
 90
       50
102
RTVSPost2010PropOp48
 70
     1
102
RTVSPost2010Prop49
280
     0
102
RTVSPost2010PropOp49
 70
     1
102
RTVSPost2010Prop50
 90
       50
102
RTVSPost2010PropOp50
 70
     1
102
RTVSPost2010Prop51ColorIndex
 90
      256
102
RTVSPost2010Prop51ColorRGB
 90
-16777216
102
RTVSPost2010PropOp51
 70
     0
102
RTVSPost2010Prop52
140
1.0
102
RTVSPost2010PropOp52
 70
     0
102
RTVSPost2010Prop53
 90
        2
102
RTVSPost2010PropOp53
 70
     1
102
RTVSPost2010Prop54
  1
strokes_ogs.tif
102
RTVSPost2010PropOp54
 70
     1
102
RTVSPost2010Prop55
280
     0
102
RTVSPost2010PropOp55
 70
     1
102
RTVSPost2010Prop56
140
1.0
102
RTVSPost2010PropOp56
 70
     1
102
RTVSPost2010Prop57
140
1.0
102
RTVSPost2010PropOp57
 70
     1
  0
XRECORD
  5
4FE
102
{ACAD_REACTORS
330
4FD
102
}
330
4FD
100
AcDbXrecord
280
     1
102
RTVSPropertyOp0
 70
     1
102
RTVSPropertyOp1
 70
     1
102
RTVSPropertyOp2
 70
     1
102
RTVSPropertyOp3
 70
     1
102
RTVSPropertyOp4
 70
     1
102
RTVSPropertyOp5
 70
     1
102
RTVSPropertyOp6
 70
     1
102
RTVSPropertyOp7
 70
     1
102
RTVSPropertyOp8
 70
     1
102
RTVSPropertyOp9
 70
     1
102
RTVSPropertyOp10
 70
     1
102
RTVSPropertyOp11
 70
     1
102
RTVSPropertyOp12
 70
     1
102
RTVSPropertyOp13
 70
     1
102
RTVSPropertyOp14
 70
     1
102
RTVSPropertyOp15
 70
     1
102
RTVSPropertyOp16
 70
     1
102
RTVSPropertyOp17
 70
     1
102
RTVSPropertyOp18
 70
     1
102
RTVSPropertyOp19
 70
     1
102
RTVSPropertyOp20
 70
     1
102
RTVSPropertyOp21
 70
     1
102
RTVSPropertyOp22
 70
     1
102
RTVSPropertyOp23
 70
     1
102
RTVSPropertyOp24
 70
     1
102
RTVSPropertyOp25
 70
     1
102
RTVSPropertyOp26
 70
     1
102
RTVSPropertyOp27
 70
     1
102
RTVSPropertyOp28
 70
     1
102
RTVSPropertyOp29
 70
     1
102
RTVSPropertyOp30
 70
     1
102
RTVSPropertyOp31
 70
     1
102
RTVSPropertyOp32
 70
     1
102
RTVSPropertyOp33
 70
     1
102
RTVSPropertyOp34
 70
     1
102
RTVSPropertyOp35
 70
     1
102
RTVSPropertyOp36
 70
     1
102
RTVSPropertyOp37
 70
     1
102
RTVSPropertyOp38
 70
     1
102
RTVSPropertyOp39
 70
     1
102
RTVSPropertyOp40
 70
     1
102
RTVSPropertyOp41
 70
     1
102
RTVSPropertyOp42
 70
     1
102
RTVSPropertyOp43
 70
     1
102
RTVSPropertyOp44
 70
     1
102
RTVSPropertyOp45
 70
     1
102
RTVSPropertyOp46
 70
     1
102
RTVSPropertyOp47
 70
     1
102
RTVSPropertyOp48
 70
     1
102
RTVSPropertyOp49
 70
     1
102
RTVSPropertyOp50
 70
     1
102
RTVSPropertyOp51
 70
     0
102
RTVSPropertyOp52
 70
     0
102
RTVSPropertyOp53
 70
     1
102
RTVSPropertyOp54
 70
     1
102
RTVSPropertyOp55
 70
     1
102
RTVSPropertyOp56
 70
     1
102
RTVSPropertyOp57
 70
     1
102
RTVSPost2010Prop28
280
     0
102
RTVSPost2010PropOp28
 70
     1
102
RTVSPost2010Prop29
280
     1
102
RTVSPost2010PropOp29
 70
     1
102
RTVSPost2010Prop30
280
     1
102
RTVSPost2010PropOp30
 70
     1
102
RTVSPost2010Prop31
280
     0
102
RTVSPost2010PropOp31
 70
     1
102
RTVSPost2010Prop32
280
     0
102
RTVSPost2010PropOp32
 70
     1
102
RTVSPost2010Prop33
280
     0
102
RTVSPost2010PropOp33
 70
     1
102
RTVSPost2010Prop34
280
     0
102
RTVSPost2010PropOp34
 70
     1
102
RTVSPost2010Prop35
280
     0
102
RTVSPost2010PropOp35
 70
     1
102
RTVSPost2010Prop36
280
     0
102
RTVSPost2010PropOp36
 70
     1
102
RTVSPost2010Prop37
 90
       50
102
RTVSPost2010PropOp37
 70
     1
102
RTVSPost2010Prop38
140
0.0
102
RTVSPost2010PropOp38
 70
     1
102
RTVSPost2010Prop39
140
1.0
102
RTVSPost2010PropOp39
 70
     1
102
RTVSPost2010Prop40
 90
        0
102
RTVSPost2010PropOp40
 70
     1
102
RTVSPost2010Prop41ColorIndex
 90
       18
102
RTVSPost2010Prop41ColorRGB
 90
        0
102
RTVSPost2010PropOp41
 70
     1
102
RTVSPost2010Prop42
 90
       50
102
RTVSPost2010PropOp42
 70
     1
102
RTVSPost2010Prop43
 90
        3
102
RTVSPost2010PropOp43
 70
     1
102
RTVSPost2010Prop44ColorIndex
 90
        5
102
RTVSPost2010Prop44ColorRGB
 90
      255
102
RTVSPost2010PropOp44
 70
     1
102
RTVSPost2010Prop45
280
     0
102
RTVSPost2010PropOp45
 70
     1
102
RTVSPost2010Prop46
 90
       50
102
RTVSPost2010PropOp46
 70
     1
102
RTVSPost2010Prop47
 90
       50
102
RTVSPost2010PropOp47
 70
     1
102
RTVSPost2010Prop48
 90
       50
102
RTVSPost2010PropOp48
 70
     1
102
RTVSPost2010Prop49
280
     0
102
RTVSPost2010PropOp49
 70
     1
102
RTVSPost2010Prop50
 90
       50
102
RTVSPost2010PropOp50
 70
     1
102
RTVSPost2010Prop51ColorIndex
 90
      256
102
RTVSPost2010Prop51ColorRGB
 90
-16777216
102
RTVSPost2010PropOp51
 70
     0
102
RTVSPost2010Prop52
140
1.0
102
RTVSPost2010PropOp52
 70
     0
102
RTVSPost2010Prop53
 90
        2
102
RTVSPost2010PropOp53
 70
     1
102
RTVSPost2010Prop54
  1
strokes_ogs.tif
102
RTVSPost2010PropOp54
 70
     1
102
RTVSPost2010Prop55
280
     0
102
RTVSPost2010PropOp55
 70
     1
102
RTVSPost2010Prop56
140
1.0
102
RTVSPost2010PropOp56
 70
     1
102
RTVSPost2010Prop57
140
1.0
102
RTVSPost2010PropOp57
 70
     1
  0
XRECORD
  5
50E
102
{ACAD_REACTORS
330
50D
102
}
330
50D
100
AcDbXrecord
280
     1
102
RTVSPropertyOp0
 70
     0
102
RTVSPropertyOp1
 70
     0
102
RTVSPropertyOp2
 70
     0
102
RTVSPropertyOp3
 70
     0
102
RTVSPropertyOp4
 70
     0
102
RTVSPropertyOp5
 70
     0
102
RTVSPropertyOp6
 70
     0
102
RTVSPropertyOp7
 70
     0
102
RTVSPropertyOp8
 70
     0
102
RTVSPropertyOp9
 70
     0
102
RTVSPropertyOp10
 70
     0
102
RTVSPropertyOp11
 70
     0
102
RTVSPropertyOp12
 70
     0
102
RTVSPropertyOp13
 70
     0
102
RTVSPropertyOp14
 70
     0
102
RTVSPropertyOp15
 70
     0
102
RTVSPropertyOp16
 70
     0
102
RTVSPropertyOp17
 70
     0
102
RTVSPropertyOp18
 70
     0
102
RTVSPropertyOp19
 70
     0
102
RTVSPropertyOp20
 70
     0
102
RTVSPropertyOp21
 70
     0
102
RTVSPropertyOp22
 70
     0
102
RTVSPropertyOp23
 70
     0
102
RTVSPropertyOp24
 70
     0
102
RTVSPropertyOp25
 70
     0
102
RTVSPropertyOp26
 70
     0
102
RTVSPropertyOp27
 70
     0
102
RTVSPropertyOp28
 70
     1
102
RTVSPropertyOp29
 70
     1
102
RTVSPropertyOp30
 70
     1
102
RTVSPropertyOp31
 70
     1
102
RTVSPropertyOp32
 70
     1
102
RTVSPropertyOp33
 70
     1
102
RTVSPropertyOp34
 70
     1
102
RTVSPropertyOp35
 70
     1
102
RTVSPropertyOp36
 70
     1
102
RTVSPropertyOp37
 70
     1
102
RTVSPropertyOp38
 70
     1
102
RTVSPropertyOp39
 70
     1
102
RTVSPropertyOp40
 70
     1
102
RTVSPropertyOp41
 70
     1
102
RTVSPropertyOp42
 70
     1
102
RTVSPropertyOp43
 70
     1
102
RTVSPropertyOp44
 70
     1
102
RTVSPropertyOp45
 70
     1
102
RTVSPropertyOp46
 70
     1
102
RTVSPropertyOp47
 70
     1
102
RTVSPropertyOp48
 70
     1
102
RTVSPropertyOp49
 70
     1
102
RTVSPropertyOp50
 70
     1
102
RTVSPropertyOp51
 70
     0
102
RTVSPropertyOp52
 70
     0
102
RTVSPropertyOp53
 70
     1
102
RTVSPropertyOp54
 70
     1
102
RTVSPropertyOp55
 70
     1
102
RTVSPropertyOp56
 70
     1
102
RTVSPropertyOp57
 70
     1
102
RTVSPost2010Prop28
280
     0
102
RTVSPost2010PropOp28
 70
     1
102
RTVSPost2010Prop29
280
     1
102
RTVSPost2010PropOp29
 70
     1
102
RTVSPost2010Prop30
280
     1
102
RTVSPost2010PropOp30
 70
     1
102
RTVSPost2010Prop31
280
     0
102
RTVSPost2010PropOp31
 70
     1
102
RTVSPost2010Prop32
280
     0
102
RTVSPost2010PropOp32
 70
     1
102
RTVSPost2010Prop33
280
     0
102
RTVSPost2010PropOp33
 70
     1
102
RTVSPost2010Prop34
280
     0
102
RTVSPost2010PropOp34
 70
     1
102
RTVSPost2010Prop35
280
     0
102
RTVSPost2010PropOp35
 70
     1
102
RTVSPost2010Prop36
280
     0
102
RTVSPost2010PropOp36
 70
     1
102
RTVSPost2010Prop37
 90
       50
102
RTVSPost2010PropOp37
 70
     1
102
RTVSPost2010Prop38
140
0.0
102
RTVSPost2010PropOp38
 70
     1
102
RTVSPost2010Prop39
140
1.0
102
RTVSPost2010PropOp39
 70
     1
102
RTVSPost2010Prop40
 90
        0
102
RTVSPost2010PropOp40
 70
     1
102
RTVSPost2010Prop41ColorIndex
 90
       18
102
RTVSPost2010Prop41ColorRGB
 90
        0
102
RTVSPost2010PropOp41
 70
     1
102
RTVSPost2010Prop42
 90
       50
102
RTVSPost2010PropOp42
 70
     1
102
RTVSPost2010Prop43
 90
        3
102
RTVSPost2010PropOp43
 70
     1
102
RTVSPost2010Prop44ColorIndex
 90
        5
102
RTVSPost2010Prop44ColorRGB
 90
      255
102
RTVSPost2010PropOp44
 70
     1
102
RTVSPost2010Prop45
280
     0
102
RTVSPost2010PropOp45
 70
     1
102
RTVSPost2010Prop46
 90
       50
102
RTVSPost2010PropOp46
 70
     1
102
RTVSPost2010Prop47
 90
       50
102
RTVSPost2010PropOp47
 70
     1
102
RTVSPost2010Prop48
 90
       50
102
RTVSPost2010PropOp48
 70
     1
102
RTVSPost2010Prop49
280
     0
102
RTVSPost2010PropOp49
 70
     1
102
RTVSPost2010Prop50
 90
       50
102
RTVSPost2010PropOp50
 70
     1
102
RTVSPost2010Prop51ColorIndex
 90
      256
102
RTVSPost2010Prop51ColorRGB
 90
-16777216
102
RTVSPost2010PropOp51
 70
     0
102
RTVSPost2010Prop52
140
1.0
102
RTVSPost2010PropOp52
 70
     0
102
RTVSPost2010Prop53
 90
        2
102
RTVSPost2010PropOp53
 70
     1
102
RTVSPost2010Prop54
  1
strokes_ogs.tif
102
RTVSPost2010PropOp54
 70
     1
102
RTVSPost2010Prop55
280
     0
102
RTVSPost2010PropOp55
 70
     1
102
RTVSPost2010Prop56
140
1.0
102
RTVSPost2010PropOp56
 70
     1
102
RTVSPost2010Prop57
140
1.0
102
RTVSPost2010PropOp57
 70
     1
  0
XRECORD
  5
506
102
{ACAD_REACTORS
330
505
102
}
330
505
100
AcDbXrecord
280
     1
102
RTVSPropertyOp0
 70
     1
102
RTVSPropertyOp1
 70
     1
102
RTVSPropertyOp2
 70
     1
102
RTVSPropertyOp3
 70
     1
102
RTVSPropertyOp4
 70
     1
102
RTVSPropertyOp5
 70
     1
102
RTVSPropertyOp6
 70
     1
102
RTVSPropertyOp7
 70
     1
102
RTVSPropertyOp8
 70
     1
102
RTVSPropertyOp9
 70
     1
102
RTVSPropertyOp10
 70
     1
102
RTVSPropertyOp11
 70
     1
102
RTVSPropertyOp12
 70
     1
102
RTVSPropertyOp13
 70
     1
102
RTVSPropertyOp14
 70
     1
102
RTVSPropertyOp15
 70
     1
102
RTVSPropertyOp16
 70
     1
102
RTVSPropertyOp17
 70
     1
102
RTVSPropertyOp18
 70
     1
102
RTVSPropertyOp19
 70
     1
102
RTVSPropertyOp20
 70
     1
102
RTVSPropertyOp21
 70
     1
102
RTVSPropertyOp22
 70
     1
102
RTVSPropertyOp23
 70
     1
102
RTVSPropertyOp24
 70
     1
102
RTVSPropertyOp25
 70
     1
102
RTVSPropertyOp26
 70
     1
102
RTVSPropertyOp27
 70
     1
102
RTVSPropertyOp28
 70
     1
102
RTVSPropertyOp29
 70
     1
102
RTVSPropertyOp30
 70
     1
102
RTVSPropertyOp31
 70
     1
102
RTVSPropertyOp32
 70
     1
102
RTVSPropertyOp33
 70
     1
102
RTVSPropertyOp34
 70
     1
102
RTVSPropertyOp35
 70
     1
102
RTVSPropertyOp36
 70
     1
102
RTVSPropertyOp37
 70
     1
102
RTVSPropertyOp38
 70
     1
102
RTVSPropertyOp39
 70
     1
102
RTVSPropertyOp40
 70
     1
102
RTVSPropertyOp41
 70
     1
102
RTVSPropertyOp42
 70
     1
102
RTVSPropertyOp43
 70
     1
102
RTVSPropertyOp44
 70
     1
102
RTVSPropertyOp45
 70
     1
102
RTVSPropertyOp46
 70
     1
102
RTVSPropertyOp47
 70
     1
102
RTVSPropertyOp48
 70
     1
102
RTVSPropertyOp49
 70
     1
102
RTVSPropertyOp50
 70
     1
102
RTVSPropertyOp51
 70
     0
102
RTVSPropertyOp52
 70
     0
102
RTVSPropertyOp53
 70
     1
102
RTVSPropertyOp54
 70
     1
102
RTVSPropertyOp55
 70
     1
102
RTVSPropertyOp56
 70
     1
102
RTVSPropertyOp57
 70
     1
102
RTVSPost2010Prop28
280
     0
102
RTVSPost2010PropOp28
 70
     1
102
RTVSPost2010Prop29
280
     1
102
RTVSPost2010PropOp29
 70
     1
102
RTVSPost2010Prop30
280
     1
102
RTVSPost2010PropOp30
 70
     1
102
RTVSPost2010Prop31
280
     0
102
RTVSPost2010PropOp31
 70
     1
102
RTVSPost2010Prop32
280
     0
102
RTVSPost2010PropOp32
 70
     1
102
RTVSPost2010Prop33
280
     0
102
RTVSPost2010PropOp33
 70
     1
102
RTVSPost2010Prop34
280
     0
102
RTVSPost2010PropOp34
 70
     1
102
RTVSPost2010Prop35
280
     0
102
RTVSPost2010PropOp35
 70
     1
102
RTVSPost2010Prop36
280
     0
102
RTVSPost2010PropOp36
 70
     1
102
RTVSPost2010Prop37
 90
       50
102
RTVSPost2010PropOp37
 70
     1
102
RTVSPost2010Prop38
140
0.0
102
RTVSPost2010PropOp38
 70
     1
102
RTVSPost2010Prop39
140
1.0
102
RTVSPost2010PropOp39
 70
     1
102
RTVSPost2010Prop40
 90
        0
102
RTVSPost2010PropOp40
 70
     1
102
RTVSPost2010Prop41ColorIndex
 90
       18
102
RTVSPost2010Prop41ColorRGB
 90
        0
102
RTVSPost2010PropOp41
 70
     1
102
RTVSPost2010Prop42
 90
       50
102
RTVSPost2010PropOp42
 70
     1
102
RTVSPost2010Prop43
 90
        3
102
RTVSPost2010PropOp43
 70
     1
102
RTVSPost2010Prop44ColorIndex
 90
        5
102
RTVSPost2010Prop44ColorRGB
 90
      255
102
RTVSPost2010PropOp44
 70
     1
102
RTVSPost2010Prop45
280
     0
102
RTVSPost2010PropOp45
 70
     1
102
RTVSPost2010Prop46
 90
       50
102
RTVSPost2010PropOp46
 70
     1
102
RTVSPost2010Prop47
 90
       50
102
RTVSPost2010PropOp47
 70
     1
102
RTVSPost2010Prop48
 90
       50
102
RTVSPost2010PropOp48
 70
     1
102
RTVSPost2010Prop49
280
     0
102
RTVSPost2010PropOp49
 70
     1
102
RTVSPost2010Prop50
 90
       50
102
RTVSPost2010PropOp50
 70
     1
102
RTVSPost2010Prop51ColorIndex
 90
      256
102
RTVSPost2010Prop51ColorRGB
 90
-16777216
102
RTVSPost2010PropOp51
 70
     0
102
RTVSPost2010Prop52
140
1.0
102
RTVSPost2010PropOp52
 70
     0
102
RTVSPost2010Prop53
 90
        2
102
RTVSPost2010PropOp53
 70
     1
102
RTVSPost2010Prop54
  1
strokes_ogs.tif
102
RTVSPost2010PropOp54
 70
     1
102
RTVSPost2010Prop55
280
     0
102
RTVSPost2010PropOp55
 70
     1
102
RTVSPost2010Prop56
140
1.0
102
RTVSPost2010PropOp56
 70
     1
102
RTVSPost2010Prop57
140
1.0
102
RTVSPost2010PropOp57
 70
     1
  0
XRECORD
  5
4EA
102
{ACAD_REACTORS
330
4E9
102
}
330
4E9
100
AcDbXrecord
280
     1
102
RTVSPropertyOp0
 70
     1
102
RTVSPropertyOp1
 70
     1
102
RTVSPropertyOp2
 70
     1
102
RTVSPropertyOp3
 70
     1
102
RTVSPropertyOp4
 70
     1
102
RTVSPropertyOp5
 70
     1
102
RTVSPropertyOp6
 70
     1
102
RTVSPropertyOp7
 70
     1
102
RTVSPropertyOp8
 70
     1
102
RTVSPropertyOp9
 70
     1
102
RTVSPropertyOp10
 70
     1
102
RTVSPropertyOp11
 70
     1
102
RTVSPropertyOp12
 70
     1
102
RTVSPropertyOp13
 70
     1
102
RTVSPropertyOp14
 70
     1
102
RTVSPropertyOp15
 70
     1
102
RTVSPropertyOp16
 70
     1
102
RTVSPropertyOp17
 70
     1
102
RTVSPropertyOp18
 70
     1
102
RTVSPropertyOp19
 70
     1
102
RTVSPropertyOp20
 70
     1
102
RTVSPropertyOp21
 70
     1
102
RTVSPropertyOp22
 70
     1
102
RTVSPropertyOp23
 70
     1
102
RTVSPropertyOp24
 70
     1
102
RTVSPropertyOp25
 70
     1
102
RTVSPropertyOp26
 70
     1
102
RTVSPropertyOp27
 70
     1
102
RTVSPropertyOp28
 70
     1
102
RTVSPropertyOp29
 70
     1
102
RTVSPropertyOp30
 70
     1
102
RTVSPropertyOp31
 70
     1
102
RTVSPropertyOp32
 70
     1
102
RTVSPropertyOp33
 70
     1
102
RTVSPropertyOp34
 70
     1
102
RTVSPropertyOp35
 70
     1
102
RTVSPropertyOp36
 70
     1
102
RTVSPropertyOp37
 70
     1
102
RTVSPropertyOp38
 70
     1
102
RTVSPropertyOp39
 70
     1
102
RTVSPropertyOp40
 70
     1
102
RTVSPropertyOp41
 70
     1
102
RTVSPropertyOp42
 70
     1
102
RTVSPropertyOp43
 70
     1
102
RTVSPropertyOp44
 70
     1
102
RTVSPropertyOp45
 70
     1
102
RTVSPropertyOp46
 70
     1
102
RTVSPropertyOp47
 70
     1
102
RTVSPropertyOp48
 70
     1
102
RTVSPropertyOp49
 70
     1
102
RTVSPropertyOp50
 70
     1
102
RTVSPropertyOp51
 70
     0
102
RTVSPropertyOp52
 70
     0
102
RTVSPropertyOp53
 70
     1
102
RTVSPropertyOp54
 70
     1
102
RTVSPropertyOp55
 70
     1
102
RTVSPropertyOp56
 70
     1
102
RTVSPropertyOp57
 70
     1
102
RTVSPost2010Prop28
280
     0
102
RTVSPost2010PropOp28
 70
     1
102
RTVSPost2010Prop29
280
     1
102
RTVSPost2010PropOp29
 70
     1
102
RTVSPost2010Prop30
280
     1
102
RTVSPost2010PropOp30
 70
     1
102
RTVSPost2010Prop31
280
     0
102
RTVSPost2010PropOp31
 70
     1
102
RTVSPost2010Prop32
280
     0
102
RTVSPost2010PropOp32
 70
     1
102
RTVSPost2010Prop33
280
     0
102
RTVSPost2010PropOp33
 70
     1
102
RTVSPost2010Prop34
280
     0
102
RTVSPost2010PropOp34
 70
     1
102
RTVSPost2010Prop35
280
     0
102
RTVSPost2010PropOp35
 70
     1
102
RTVSPost2010Prop36
280
     0
102
RTVSPost2010PropOp36
 70
     1
102
RTVSPost2010Prop37
 90
       50
102
RTVSPost2010PropOp37
 70
     1
102
RTVSPost2010Prop38
140
0.0
102
RTVSPost2010PropOp38
 70
     1
102
RTVSPost2010Prop39
140
1.0
102
RTVSPost2010PropOp39
 70
     1
102
RTVSPost2010Prop40
 90
        0
102
RTVSPost2010PropOp40
 70
     1
102
RTVSPost2010Prop41ColorIndex
 90
       18
102
RTVSPost2010Prop41ColorRGB
 90
        0
102
RTVSPost2010PropOp41
 70
     1
102
RTVSPost2010Prop42
 90
       50
102
RTVSPost2010PropOp42
 70
     1
102
RTVSPost2010Prop43
 90
        3
102
RTVSPost2010PropOp43
 70
     1
102
RTVSPost2010Prop44ColorIndex
 90
        5
102
RTVSPost2010Prop44ColorRGB
 90
      255
102
RTVSPost2010PropOp44
 70
     1
102
RTVSPost2010Prop45
280
     0
102
RTVSPost2010PropOp45
 70
     1
102
RTVSPost2010Prop46
 90
       50
102
RTVSPost2010PropOp46
 70
     1
102
RTVSPost2010Prop47
 90
       50
102
RTVSPost2010PropOp47
 70
     1
102
RTVSPost2010Prop48
 90
       50
102
RTVSPost2010PropOp48
 70
     1
102
RTVSPost2010Prop49
280
     0
102
RTVSPost2010PropOp49
 70
     1
102
RTVSPost2010Prop50
 90
       50
102
RTVSPost2010PropOp50
 70
     1
102
RTVSPost2010Prop51ColorIndex
 90
      256
102
RTVSPost2010Prop51ColorRGB
 90
-16777216
102
RTVSPost2010PropOp51
 70
     0
102
RTVSPost2010Prop52
140
1.0
102
RTVSPost2010PropOp52
 70
     0
102
RTVSPost2010Prop53
 90
        2
102
RTVSPost2010PropOp53
 70
     1
102
RTVSPost2010Prop54
  1
strokes_ogs.tif
102
RTVSPost2010PropOp54
 70
     1
102
RTVSPost2010Prop55
280
     0
102
RTVSPost2010PropOp55
 70
     1
102
RTVSPost2010Prop56
140
1.0
102
RTVSPost2010PropOp56
 70
     1
102
RTVSPost2010Prop57
140
1.0
102
RTVSPost2010PropOp57
 70
     1
  0
XRECORD
  5
4EC
102
{ACAD_REACTORS
330
4EB
102
}
330
4EB
100
AcDbXrecord
280
     1
102
RTVSPropertyOp0
 70
     1
102
RTVSPropertyOp1
 70
     1
102
RTVSPropertyOp2
 70
     1
102
RTVSPropertyOp3
 70
     1
102
RTVSPropertyOp4
 70
     1
102
RTVSPropertyOp5
 70
     1
102
RTVSPropertyOp6
 70
     1
102
RTVSPropertyOp7
 70
     1
102
RTVSPropertyOp8
 70
     1
102
RTVSPropertyOp9
 70
     1
102
RTVSPropertyOp10
 70
     1
102
RTVSPropertyOp11
 70
     1
102
RTVSPropertyOp12
 70
     1
102
RTVSPropertyOp13
 70
     1
102
RTVSPropertyOp14
 70
     1
102
RTVSPropertyOp15
 70
     1
102
RTVSPropertyOp16
 70
     1
102
RTVSPropertyOp17
 70
     1
102
RTVSPropertyOp18
 70
     1
102
RTVSPropertyOp19
 70
     1
102
RTVSPropertyOp20
 70
     1
102
RTVSPropertyOp21
 70
     1
102
RTVSPropertyOp22
 70
     1
102
RTVSPropertyOp23
 70
     1
102
RTVSPropertyOp24
 70
     1
102
RTVSPropertyOp25
 70
     1
102
RTVSPropertyOp26
 70
     1
102
RTVSPropertyOp27
 70
     1
102
RTVSPropertyOp28
 70
     1
102
RTVSPropertyOp29
 70
     1
102
RTVSPropertyOp30
 70
     1
102
RTVSPropertyOp31
 70
     1
102
RTVSPropertyOp32
 70
     1
102
RTVSPropertyOp33
 70
     1
102
RTVSPropertyOp34
 70
     1
102
RTVSPropertyOp35
 70
     1
102
RTVSPropertyOp36
 70
     1
102
RTVSPropertyOp37
 70
     1
102
RTVSPropertyOp38
 70
     1
102
RTVSPropertyOp39
 70
     1
102
RTVSPropertyOp40
 70
     1
102
RTVSPropertyOp41
 70
     1
102
RTVSPropertyOp42
 70
     1
102
RTVSPropertyOp43
 70
     1
102
RTVSPropertyOp44
 70
     1
102
RTVSPropertyOp45
 70
     1
102
RTVSPropertyOp46
 70
     1
102
RTVSPropertyOp47
 70
     1
102
RTVSPropertyOp48
 70
     1
102
RTVSPropertyOp49
 70
     1
102
RTVSPropertyOp50
 70
     1
102
RTVSPropertyOp51
 70
     0
102
RTVSPropertyOp52
 70
     0
102
RTVSPropertyOp53
 70
     1
102
RTVSPropertyOp54
 70
     1
102
RTVSPropertyOp55
 70
     1
102
RTVSPropertyOp56
 70
     1
102
RTVSPropertyOp57
 70
     1
102
RTVSPost2010Prop28
280
     0
102
RTVSPost2010PropOp28
 70
     1
102
RTVSPost2010Prop29
280
     1
102
RTVSPost2010PropOp29
 70
     1
102
RTVSPost2010Prop30
280
     1
102
RTVSPost2010PropOp30
 70
     1
102
RTVSPost2010Prop31
280
     0
102
RTVSPost2010PropOp31
 70
     1
102
RTVSPost2010Prop32
280
     0
102
RTVSPost2010PropOp32
 70
     1
102
RTVSPost2010Prop33
280
     0
102
RTVSPost2010PropOp33
 70
     1
102
RTVSPost2010Prop34
280
     0
102
RTVSPost2010PropOp34
 70
     1
102
RTVSPost2010Prop35
280
     0
102
RTVSPost2010PropOp35
 70
     1
102
RTVSPost2010Prop36
280
     0
102
RTVSPost2010PropOp36
 70
     1
102
RTVSPost2010Prop37
 90
       50
102
RTVSPost2010PropOp37
 70
     1
102
RTVSPost2010Prop38
140
0.0
102
RTVSPost2010PropOp38
 70
     1
102
RTVSPost2010Prop39
140
1.0
102
RTVSPost2010PropOp39
 70
     1
102
RTVSPost2010Prop40
 90
        0
102
RTVSPost2010PropOp40
 70
     1
102
RTVSPost2010Prop41ColorIndex
 90
       18
102
RTVSPost2010Prop41ColorRGB
 90
        0
102
RTVSPost2010PropOp41
 70
     1
102
RTVSPost2010Prop42
 90
       50
102
RTVSPost2010PropOp42
 70
     1
102
RTVSPost2010Prop43
 90
        3
102
RTVSPost2010PropOp43
 70
     1
102
RTVSPost2010Prop44ColorIndex
 90
        5
102
RTVSPost2010Prop44ColorRGB
 90
      255
102
RTVSPost2010PropOp44
 70
     1
102
RTVSPost2010Prop45
280
     0
102
RTVSPost2010PropOp45
 70
     1
102
RTVSPost2010Prop46
 90
       50
102
RTVSPost2010PropOp46
 70
     1
102
RTVSPost2010Prop47
 90
       50
102
RTVSPost2010PropOp47
 70
     1
102
RTVSPost2010Prop48
 90
       50
102
RTVSPost2010PropOp48
 70
     1
102
RTVSPost2010Prop49
280
     0
102
RTVSPost2010PropOp49
 70
     1
102
RTVSPost2010Prop50
 90
       50
102
RTVSPost2010PropOp50
 70
     1
102
RTVSPost2010Prop51ColorIndex
 90
      256
102
RTVSPost2010Prop51ColorRGB
 90
-16777216
102
RTVSPost2010PropOp51
 70
     0
102
RTVSPost2010Prop52
140
1.0
102
RTVSPost2010PropOp52
 70
     0
102
RTVSPost2010Prop53
 90
        2
102
RTVSPost2010PropOp53
 70
     1
102
RTVSPost2010Prop54
  1
strokes_ogs.tif
102
RTVSPost2010PropOp54
 70
     1
102
RTVSPost2010Prop55
280
     0
102
RTVSPost2010PropOp55
 70
     1
102
RTVSPost2010Prop56
140
1.0
102
RTVSPost2010PropOp56
 70
     1
102
RTVSPost2010Prop57
140
1.0
102
RTVSPost2010PropOp57
 70
     1
  0
XRECORD
  5
4EE
102
{ACAD_REACTORS
330
4ED
102
}
330
4ED
100
AcDbXrecord
280
     1
102
RTVSPropertyOp0
 70
     1
102
RTVSPropertyOp1
 70
     1
102
RTVSPropertyOp2
 70
     1
102
RTVSPropertyOp3
 70
     1
102
RTVSPropertyOp4
 70
     1
102
RTVSPropertyOp5
 70
     1
102
RTVSPropertyOp6
 70
     1
102
RTVSPropertyOp7
 70
     1
102
RTVSPropertyOp8
 70
     1
102
RTVSPropertyOp9
 70
     1
102
RTVSPropertyOp10
 70
     1
102
RTVSPropertyOp11
 70
     1
102
RTVSPropertyOp12
 70
     1
102
RTVSPropertyOp13
 70
     1
102
RTVSPropertyOp14
 70
     1
102
RTVSPropertyOp15
 70
     1
102
RTVSPropertyOp16
 70
     1
102
RTVSPropertyOp17
 70
     1
102
RTVSPropertyOp18
 70
     1
102
RTVSPropertyOp19
 70
     1
102
RTVSPropertyOp20
 70
     1
102
RTVSPropertyOp21
 70
     1
102
RTVSPropertyOp22
 70
     1
102
RTVSPropertyOp23
 70
     1
102
RTVSPropertyOp24
 70
     1
102
RTVSPropertyOp25
 70
     1
102
RTVSPropertyOp26
 70
     1
102
RTVSPropertyOp27
 70
     1
102
RTVSPropertyOp28
 70
     1
102
RTVSPropertyOp29
 70
     1
102
RTVSPropertyOp30
 70
     1
102
RTVSPropertyOp31
 70
     1
102
RTVSPropertyOp32
 70
     1
102
RTVSPropertyOp33
 70
     1
102
RTVSPropertyOp34
 70
     1
102
RTVSPropertyOp35
 70
     1
102
RTVSPropertyOp36
 70
     1
102
RTVSPropertyOp37
 70
     1
102
RTVSPropertyOp38
 70
     1
102
RTVSPropertyOp39
 70
     1
102
RTVSPropertyOp40
 70
     1
102
RTVSPropertyOp41
 70
     1
102
RTVSPropertyOp42
 70
     1
102
RTVSPropertyOp43
 70
     1
102
RTVSPropertyOp44
 70
     1
102
RTVSPropertyOp45
 70
     1
102
RTVSPropertyOp46
 70
     1
102
RTVSPropertyOp47
 70
     1
102
RTVSPropertyOp48
 70
     1
102
RTVSPropertyOp49
 70
     1
102
RTVSPropertyOp50
 70
     1
102
RTVSPropertyOp51
 70
     0
102
RTVSPropertyOp52
 70
     0
102
RTVSPropertyOp53
 70
     1
102
RTVSPropertyOp54
 70
     1
102
RTVSPropertyOp55
 70
     1
102
RTVSPropertyOp56
 70
     1
102
RTVSPropertyOp57
 70
     1
102
RTVSPost2010Prop28
280
     0
102
RTVSPost2010PropOp28
 70
     1
102
RTVSPost2010Prop29
280
     1
102
RTVSPost2010PropOp29
 70
     1
102
RTVSPost2010Prop30
280
     1
102
RTVSPost2010PropOp30
 70
     1
102
RTVSPost2010Prop31
280
     0
102
RTVSPost2010PropOp31
 70
     1
102
RTVSPost2010Prop32
280
     0
102
RTVSPost2010PropOp32
 70
     1
102
RTVSPost2010Prop33
280
     0
102
RTVSPost2010PropOp33
 70
     1
102
RTVSPost2010Prop34
280
     0
102
RTVSPost2010PropOp34
 70
     1
102
RTVSPost2010Prop35
280
     0
102
RTVSPost2010PropOp35
 70
     1
102
RTVSPost2010Prop36
280
     0
102
RTVSPost2010PropOp36
 70
     1
102
RTVSPost2010Prop37
 90
       50
102
RTVSPost2010PropOp37
 70
     1
102
RTVSPost2010Prop38
140
0.0
102
RTVSPost2010PropOp38
 70
     1
102
RTVSPost2010Prop39
140
1.0
102
RTVSPost2010PropOp39
 70
     1
102
RTVSPost2010Prop40
 90
        0
102
RTVSPost2010PropOp40
 70
     1
102
RTVSPost2010Prop41ColorIndex
 90
       18
102
RTVSPost2010Prop41ColorRGB
 90
        0
102
RTVSPost2010PropOp41
 70
     1
102
RTVSPost2010Prop42
 90
       50
102
RTVSPost2010PropOp42
 70
     1
102
RTVSPost2010Prop43
 90
        3
102
RTVSPost2010PropOp43
 70
     1
102
RTVSPost2010Prop44ColorIndex
 90
        5
102
RTVSPost2010Prop44ColorRGB
 90
      255
102
RTVSPost2010PropOp44
 70
     1
102
RTVSPost2010Prop45
280
     0
102
RTVSPost2010PropOp45
 70
     1
102
RTVSPost2010Prop46
 90
       50
102
RTVSPost2010PropOp46
 70
     1
102
RTVSPost2010Prop47
 90
       50
102
RTVSPost2010PropOp47
 70
     1
102
RTVSPost2010Prop48
 90
       50
102
RTVSPost2010PropOp48
 70
     1
102
RTVSPost2010Prop49
280
     0
102
RTVSPost2010PropOp49
 70
     1
102
RTVSPost2010Prop50
 90
       50
102
RTVSPost2010PropOp50
 70
     1
102
RTVSPost2010Prop51ColorIndex
 90
      256
102
RTVSPost2010Prop51ColorRGB
 90
-16777216
102
RTVSPost2010PropOp51
 70
     0
102
RTVSPost2010Prop52
140
1.0
102
RTVSPost2010PropOp52
 70
     0
102
RTVSPost2010Prop53
 90
        2
102
RTVSPost2010PropOp53
 70
     1
102
RTVSPost2010Prop54
  1
strokes_ogs.tif
102
RTVSPost2010PropOp54
 70
     1
102
RTVSPost2010Prop55
280
     0
102
RTVSPost2010PropOp55
 70
     1
102
RTVSPost2010Prop56
140
1.0
102
RTVSPost2010PropOp56
 70
     1
102
RTVSPost2010Prop57
140
1.0
102
RTVSPost2010PropOp57
 70
     1
  0
XRECORD
  5
4F0
102
{ACAD_REACTORS
330
4EF
102
}
330
4EF
100
AcDbXrecord
280
     1
102
RTVSPropertyOp0
 70
     1
102
RTVSPropertyOp1
 70
     1
102
RTVSPropertyOp2
 70
     1
102
RTVSPropertyOp3
 70
     1
102
RTVSPropertyOp4
 70
     1
102
RTVSPropertyOp5
 70
     1
102
RTVSPropertyOp6
 70
     1
102
RTVSPropertyOp7
 70
     1
102
RTVSPropertyOp8
 70
     1
102
RTVSPropertyOp9
 70
     1
102
RTVSPropertyOp10
 70
     1
102
RTVSPropertyOp11
 70
     1
102
RTVSPropertyOp12
 70
     1
102
RTVSPropertyOp13
 70
     1
102
RTVSPropertyOp14
 70
     1
102
RTVSPropertyOp15
 70
     1
102
RTVSPropertyOp16
 70
     1
102
RTVSPropertyOp17
 70
     1
102
RTVSPropertyOp18
 70
     1
102
RTVSPropertyOp19
 70
     1
102
RTVSPropertyOp20
 70
     1
102
RTVSPropertyOp21
 70
     1
102
RTVSPropertyOp22
 70
     1
102
RTVSPropertyOp23
 70
     1
102
RTVSPropertyOp24
 70
     1
102
RTVSPropertyOp25
 70
     1
102
RTVSPropertyOp26
 70
     1
102
RTVSPropertyOp27
 70
     1
102
RTVSPropertyOp28
 70
     1
102
RTVSPropertyOp29
 70
     1
102
RTVSPropertyOp30
 70
     1
102
RTVSPropertyOp31
 70
     1
102
RTVSPropertyOp32
 70
     1
102
RTVSPropertyOp33
 70
     1
102
RTVSPropertyOp34
 70
     1
102
RTVSPropertyOp35
 70
     1
102
RTVSPropertyOp36
 70
     1
102
RTVSPropertyOp37
 70
     1
102
RTVSPropertyOp38
 70
     1
102
RTVSPropertyOp39
 70
     1
102
RTVSPropertyOp40
 70
     1
102
RTVSPropertyOp41
 70
     1
102
RTVSPropertyOp42
 70
     1
102
RTVSPropertyOp43
 70
     1
102
RTVSPropertyOp44
 70
     1
102
RTVSPropertyOp45
 70
     1
102
RTVSPropertyOp46
 70
     1
102
RTVSPropertyOp47
 70
     1
102
RTVSPropertyOp48
 70
     1
102
RTVSPropertyOp49
 70
     1
102
RTVSPropertyOp50
 70
     1
102
RTVSPropertyOp51
 70
     0
102
RTVSPropertyOp52
 70
     0
102
RTVSPropertyOp53
 70
     1
102
RTVSPropertyOp54
 70
     1
102
RTVSPropertyOp55
 70
     1
102
RTVSPropertyOp56
 70
     1
102
RTVSPropertyOp57
 70
     1
102
RTVSPost2010Prop28
280
     0
102
RTVSPost2010PropOp28
 70
     1
102
RTVSPost2010Prop29
280
     1
102
RTVSPost2010PropOp29
 70
     1
102
RTVSPost2010Prop30
280
     1
102
RTVSPost2010PropOp30
 70
     1
102
RTVSPost2010Prop31
280
     0
102
RTVSPost2010PropOp31
 70
     1
102
RTVSPost2010Prop32
280
     0
102
RTVSPost2010PropOp32
 70
     1
102
RTVSPost2010Prop33
280
     0
102
RTVSPost2010PropOp33
 70
     1
102
RTVSPost2010Prop34
280
     0
102
RTVSPost2010PropOp34
 70
     1
102
RTVSPost2010Prop35
280
     0
102
RTVSPost2010PropOp35
 70
     1
102
RTVSPost2010Prop36
280
     0
102
RTVSPost2010PropOp36
 70
     1
102
RTVSPost2010Prop37
 90
       50
102
RTVSPost2010PropOp37
 70
     1
102
RTVSPost2010Prop38
140
0.0
102
RTVSPost2010PropOp38
 70
     1
102
RTVSPost2010Prop39
140
1.0
102
RTVSPost2010PropOp39
 70
     1
102
RTVSPost2010Prop40
 90
        0
102
RTVSPost2010PropOp40
 70
     1
102
RTVSPost2010Prop41ColorIndex
 90
       18
102
RTVSPost2010Prop41ColorRGB
 90
        0
102
RTVSPost2010PropOp41
 70
     1
102
RTVSPost2010Prop42
 90
       50
102
RTVSPost2010PropOp42
 70
     1
102
RTVSPost2010Prop43
 90
        3
102
RTVSPost2010PropOp43
 70
     1
102
RTVSPost2010Prop44ColorIndex
 90
        5
102
RTVSPost2010Prop44ColorRGB
 90
      255
102
RTVSPost2010PropOp44
 70
     1
102
RTVSPost2010Prop45
280
     0
102
RTVSPost2010PropOp45
 70
     1
102
RTVSPost2010Prop46
 90
       50
102
RTVSPost2010PropOp46
 70
     1
102
RTVSPost2010Prop47
 90
       50
102
RTVSPost2010PropOp47
 70
     1
102
RTVSPost2010Prop48
 90
       50
102
RTVSPost2010PropOp48
 70
     1
102
RTVSPost2010Prop49
280
     0
102
RTVSPost2010PropOp49
 70
     1
102
RTVSPost2010Prop50
 90
       50
102
RTVSPost2010PropOp50
 70
     1
102
RTVSPost2010Prop51ColorIndex
 90
      256
102
RTVSPost2010Prop51ColorRGB
 90
-16777216
102
RTVSPost2010PropOp51
 70
     0
102
RTVSPost2010Prop52
140
1.0
102
RTVSPost2010PropOp52
 70
     0
102
RTVSPost2010Prop53
 90
        2
102
RTVSPost2010PropOp53
 70
     1
102
RTVSPost2010Prop54
  1
strokes_ogs.tif
102
RTVSPost2010PropOp54
 70
     1
102
RTVSPost2010Prop55
280
     0
102
RTVSPost2010PropOp55
 70
     1
102
RTVSPost2010Prop56
140
1.0
102
RTVSPost2010PropOp56
 70
     1
102
RTVSPost2010Prop57
140
1.0
102
RTVSPost2010PropOp57
 70
     1
  0
XRECORD
  5
4F6
102
{ACAD_REACTORS
330
4F5
102
}
330
4F5
100
AcDbXrecord
280
     1
102
RTVSPropertyOp0
 70
     1
102
RTVSPropertyOp1
 70
     1
102
RTVSPropertyOp2
 70
     1
102
RTVSPropertyOp3
 70
     1
102
RTVSPropertyOp4
 70
     1
102
RTVSPropertyOp5
 70
     1
102
RTVSPropertyOp6
 70
     1
102
RTVSPropertyOp7
 70
     1
102
RTVSPropertyOp8
 70
     1
102
RTVSPropertyOp9
 70
     1
102
RTVSPropertyOp10
 70
     1
102
RTVSPropertyOp11
 70
     1
102
RTVSPropertyOp12
 70
     1
102
RTVSPropertyOp13
 70
     1
102
RTVSPropertyOp14
 70
     1
102
RTVSPropertyOp15
 70
     1
102
RTVSPropertyOp16
 70
     1
102
RTVSPropertyOp17
 70
     1
102
RTVSPropertyOp18
 70
     1
102
RTVSPropertyOp19
 70
     1
102
RTVSPropertyOp20
 70
     1
102
RTVSPropertyOp21
 70
     1
102
RTVSPropertyOp22
 70
     1
102
RTVSPropertyOp23
 70
     1
102
RTVSPropertyOp24
 70
     1
102
RTVSPropertyOp25
 70
     1
102
RTVSPropertyOp26
 70
     1
102
RTVSPropertyOp27
 70
     1
102
RTVSPropertyOp28
 70
     1
102
RTVSPropertyOp29
 70
     1
102
RTVSPropertyOp30
 70
     1
102
RTVSPropertyOp31
 70
     1
102
RTVSPropertyOp32
 70
     1
102
RTVSPropertyOp33
 70
     1
102
RTVSPropertyOp34
 70
     1
102
RTVSPropertyOp35
 70
     1
102
RTVSPropertyOp36
 70
     1
102
RTVSPropertyOp37
 70
     1
102
RTVSPropertyOp38
 70
     1
102
RTVSPropertyOp39
 70
     1
102
RTVSPropertyOp40
 70
     1
102
RTVSPropertyOp41
 70
     1
102
RTVSPropertyOp42
 70
     1
102
RTVSPropertyOp43
 70
     1
102
RTVSPropertyOp44
 70
     1
102
RTVSPropertyOp45
 70
     1
102
RTVSPropertyOp46
 70
     1
102
RTVSPropertyOp47
 70
     1
102
RTVSPropertyOp48
 70
     1
102
RTVSPropertyOp49
 70
     1
102
RTVSPropertyOp50
 70
     1
102
RTVSPropertyOp51
 70
     0
102
RTVSPropertyOp52
 70
     0
102
RTVSPropertyOp53
 70
     1
102
RTVSPropertyOp54
 70
     1
102
RTVSPropertyOp55
 70
     1
102
RTVSPropertyOp56
 70
     1
102
RTVSPropertyOp57
 70
     1
102
RTVSPost2010Prop28
280
     0
102
RTVSPost2010PropOp28
 70
     1
102
RTVSPost2010Prop29
280
     1
102
RTVSPost2010PropOp29
 70
     1
102
RTVSPost2010Prop30
280
     1
102
RTVSPost2010PropOp30
 70
     1
102
RTVSPost2010Prop31
280
     0
102
RTVSPost2010PropOp31
 70
     1
102
RTVSPost2010Prop32
280
     0
102
RTVSPost2010PropOp32
 70
     1
102
RTVSPost2010Prop33
280
     0
102
RTVSPost2010PropOp33
 70
     1
102
RTVSPost2010Prop34
280
     0
102
RTVSPost2010PropOp34
 70
     1
102
RTVSPost2010Prop35
280
     0
102
RTVSPost2010PropOp35
 70
     1
102
RTVSPost2010Prop36
280
     0
102
RTVSPost2010PropOp36
 70
     1
102
RTVSPost2010Prop37
 90
       50
102
RTVSPost2010PropOp37
 70
     1
102
RTVSPost2010Prop38
140
0.0
102
RTVSPost2010PropOp38
 70
     1
102
RTVSPost2010Prop39
140
1.0
102
RTVSPost2010PropOp39
 70
     1
102
RTVSPost2010Prop40
 90
        0
102
RTVSPost2010PropOp40
 70
     1
102
RTVSPost2010Prop41ColorIndex
 90
       18
102
RTVSPost2010Prop41ColorRGB
 90
        0
102
RTVSPost2010PropOp41
 70
     1
102
RTVSPost2010Prop42
 90
       50
102
RTVSPost2010PropOp42
 70
     1
102
RTVSPost2010Prop43
 90
        3
102
RTVSPost2010PropOp43
 70
     1
102
RTVSPost2010Prop44ColorIndex
 90
        5
102
RTVSPost2010Prop44ColorRGB
 90
      255
102
RTVSPost2010PropOp44
 70
     1
102
RTVSPost2010Prop45
280
     0
102
RTVSPost2010PropOp45
 70
     1
102
RTVSPost2010Prop46
 90
       50
102
RTVSPost2010PropOp46
 70
     1
102
RTVSPost2010Prop47
 90
       50
102
RTVSPost2010PropOp47
 70
     1
102
RTVSPost2010Prop48
 90
       50
102
RTVSPost2010PropOp48
 70
     1
102
RTVSPost2010Prop49
280
     0
102
RTVSPost2010PropOp49
 70
     1
102
RTVSPost2010Prop50
 90
       50
102
RTVSPost2010PropOp50
 70
     1
102
RTVSPost2010Prop51ColorIndex
 90
      256
102
RTVSPost2010Prop51ColorRGB
 90
-16777216
102
RTVSPost2010PropOp51
 70
     0
102
RTVSPost2010Prop52
140
1.0
102
RTVSPost2010PropOp52
 70
     0
102
RTVSPost2010Prop53
 90
        2
102
RTVSPost2010PropOp53
 70
     1
102
RTVSPost2010Prop54
  1
strokes_ogs.tif
102
RTVSPost2010PropOp54
 70
     1
102
RTVSPost2010Prop55
280
     0
102
RTVSPost2010PropOp55
 70
     1
102
RTVSPost2010Prop56
140
1.0
102
RTVSPost2010PropOp56
 70
     1
102
RTVSPost2010Prop57
140
1.0
102
RTVSPost2010PropOp57
 70
     1
  0
XRECORD
  5
50A
102
{ACAD_REACTORS
330
509
102
}
330
509
100
AcDbXrecord
280
     1
102
RTVSPropertyOp0
 70
     0
102
RTVSPropertyOp1
 70
     0
102
RTVSPropertyOp2
 70
     0
102
RTVSPropertyOp3
 70
     0
102
RTVSPropertyOp4
 70
     0
102
RTVSPropertyOp5
 70
     0
102
RTVSPropertyOp6
 70
     0
102
RTVSPropertyOp7
 70
     0
102
RTVSPropertyOp8
 70
     0
102
RTVSPropertyOp9
 70
     0
102
RTVSPropertyOp10
 70
     0
102
RTVSPropertyOp11
 70
     0
102
RTVSPropertyOp12
 70
     0
102
RTVSPropertyOp13
 70
     0
102
RTVSPropertyOp14
 70
     0
102
RTVSPropertyOp15
 70
     0
102
RTVSPropertyOp16
 70
     0
102
RTVSPropertyOp17
 70
     0
102
RTVSPropertyOp18
 70
     0
102
RTVSPropertyOp19
 70
     0
102
RTVSPropertyOp20
 70
     0
102
RTVSPropertyOp21
 70
     0
102
RTVSPropertyOp22
 70
     0
102
RTVSPropertyOp23
 70
     0
102
RTVSPropertyOp24
 70
     0
102
RTVSPropertyOp25
 70
     0
102
RTVSPropertyOp26
 70
     0
102
RTVSPropertyOp27
 70
     0
102
RTVSPropertyOp28
 70
     1
102
RTVSPropertyOp29
 70
     1
102
RTVSPropertyOp30
 70
     1
102
RTVSPropertyOp31
 70
     1
102
RTVSPropertyOp32
 70
     1
102
RTVSPropertyOp33
 70
     1
102
RTVSPropertyOp34
 70
     1
102
RTVSPropertyOp35
 70
     1
102
RTVSPropertyOp36
 70
     1
102
RTVSPropertyOp37
 70
     1
102
RTVSPropertyOp38
 70
     1
102
RTVSPropertyOp39
 70
     1
102
RTVSPropertyOp40
 70
     1
102
RTVSPropertyOp41
 70
     1
102
RTVSPropertyOp42
 70
     1
102
RTVSPropertyOp43
 70
     1
102
RTVSPropertyOp44
 70
     1
102
RTVSPropertyOp45
 70
     1
102
RTVSPropertyOp46
 70
     1
102
RTVSPropertyOp47
 70
     1
102
RTVSPropertyOp48
 70
     1
102
RTVSPropertyOp49
 70
     1
102
RTVSPropertyOp50
 70
     1
102
RTVSPropertyOp51
 70
     0
102
RTVSPropertyOp52
 70
     0
102
RTVSPropertyOp53
 70
     1
102
RTVSPropertyOp54
 70
     1
102
RTVSPropertyOp55
 70
     1
102
RTVSPropertyOp56
 70
     1
102
RTVSPropertyOp57
 70
     1
102
RTVSPost2010Prop28
280
     0
102
RTVSPost2010PropOp28
 70
     1
102
RTVSPost2010Prop29
280
     1
102
RTVSPost2010PropOp29
 70
     1
102
RTVSPost2010Prop30
280
     1
102
RTVSPost2010PropOp30
 70
     1
102
RTVSPost2010Prop31
280
     0
102
RTVSPost2010PropOp31
 70
     1
102
RTVSPost2010Prop32
280
     0
102
RTVSPost2010PropOp32
 70
     1
102
RTVSPost2010Prop33
280
     0
102
RTVSPost2010PropOp33
 70
     1
102
RTVSPost2010Prop34
280
     0
102
RTVSPost2010PropOp34
 70
     1
102
RTVSPost2010Prop35
280
     0
102
RTVSPost2010PropOp35
 70
     1
102
RTVSPost2010Prop36
280
     0
102
RTVSPost2010PropOp36
 70
     1
102
RTVSPost2010Prop37
 90
       50
102
RTVSPost2010PropOp37
 70
     1
102
RTVSPost2010Prop38
140
0.0
102
RTVSPost2010PropOp38
 70
     1
102
RTVSPost2010Prop39
140
1.0
102
RTVSPost2010PropOp39
 70
     1
102
RTVSPost2010Prop40
 90
        0
102
RTVSPost2010PropOp40
 70
     1
102
RTVSPost2010Prop41ColorIndex
 90
       18
102
RTVSPost2010Prop41ColorRGB
 90
        0
102
RTVSPost2010PropOp41
 70
     1
102
RTVSPost2010Prop42
 90
       50
102
RTVSPost2010PropOp42
 70
     1
102
RTVSPost2010Prop43
 90
        3
102
RTVSPost2010PropOp43
 70
     1
102
RTVSPost2010Prop44ColorIndex
 90
        5
102
RTVSPost2010Prop44ColorRGB
 90
      255
102
RTVSPost2010PropOp44
 70
     1
102
RTVSPost2010Prop45
280
     0
102
RTVSPost2010PropOp45
 70
     1
102
RTVSPost2010Prop46
 90
       50
102
RTVSPost2010PropOp46
 70
     1
102
RTVSPost2010Prop47
 90
       50
102
RTVSPost2010PropOp47
 70
     1
102
RTVSPost2010Prop48
 90
       50
102
RTVSPost2010PropOp48
 70
     1
102
RTVSPost2010Prop49
280
     0
102
RTVSPost2010PropOp49
 70
     1
102
RTVSPost2010Prop50
 90
       50
102
RTVSPost2010PropOp50
 70
     1
102
RTVSPost2010Prop51ColorIndex
 90
      256
102
RTVSPost2010Prop51ColorRGB
 90
-16777216
102
RTVSPost2010PropOp51
 70
     0
102
RTVSPost2010Prop52
140
1.0
102
RTVSPost2010PropOp52
 70
     0
102
RTVSPost2010Prop53
 90
        2
102
RTVSPost2010PropOp53
 70
     1
102
RTVSPost2010Prop54
  1
strokes_ogs.tif
102
RTVSPost2010PropOp54
 70
     1
102
RTVSPost2010Prop55
280
     0
102
RTVSPost2010PropOp55
 70
     1
102
RTVSPost2010Prop56
140
1.0
102
RTVSPost2010PropOp56
 70
     1
102
RTVSPost2010Prop57
140
1.0
102
RTVSPost2010PropOp57
 70
     1
  0
XRECORD
  5
504
102
{ACAD_REACTORS
330
503
102
}
330
503
100
AcDbXrecord
280
     1
102
RTVSPropertyOp0
 70
     1
102
RTVSPropertyOp1
 70
     1
102
RTVSPropertyOp2
 70
     1
102
RTVSPropertyOp3
 70
     1
102
RTVSPropertyOp4
 70
     1
102
RTVSPropertyOp5
 70
     1
102
RTVSPropertyOp6
 70
     1
102
RTVSPropertyOp7
 70
     1
102
RTVSPropertyOp8
 70
     1
102
RTVSPropertyOp9
 70
     1
102
RTVSPropertyOp10
 70
     1
102
RTVSPropertyOp11
 70
     1
102
RTVSPropertyOp12
 70
     1
102
RTVSPropertyOp13
 70
     1
102
RTVSPropertyOp14
 70
     1
102
RTVSPropertyOp15
 70
     1
102
RTVSPropertyOp16
 70
     1
102
RTVSPropertyOp17
 70
     1
102
RTVSPropertyOp18
 70
     1
102
RTVSPropertyOp19
 70
     1
102
RTVSPropertyOp20
 70
     1
102
RTVSPropertyOp21
 70
     1
102
RTVSPropertyOp22
 70
     1
102
RTVSPropertyOp23
 70
     1
102
RTVSPropertyOp24
 70
     1
102
RTVSPropertyOp25
 70
     1
102
RTVSPropertyOp26
 70
     1
102
RTVSPropertyOp27
 70
     1
102
RTVSPropertyOp28
 70
     1
102
RTVSPropertyOp29
 70
     1
102
RTVSPropertyOp30
 70
     1
102
RTVSPropertyOp31
 70
     1
102
RTVSPropertyOp32
 70
     1
102
RTVSPropertyOp33
 70
     1
102
RTVSPropertyOp34
 70
     1
102
RTVSPropertyOp35
 70
     1
102
RTVSPropertyOp36
 70
     1
102
RTVSPropertyOp37
 70
     1
102
RTVSPropertyOp38
 70
     1
102
RTVSPropertyOp39
 70
     1
102
RTVSPropertyOp40
 70
     1
102
RTVSPropertyOp41
 70
     1
102
RTVSPropertyOp42
 70
     1
102
RTVSPropertyOp43
 70
     1
102
RTVSPropertyOp44
 70
     1
102
RTVSPropertyOp45
 70
     1
102
RTVSPropertyOp46
 70
     1
102
RTVSPropertyOp47
 70
     1
102
RTVSPropertyOp48
 70
     1
102
RTVSPropertyOp49
 70
     1
102
RTVSPropertyOp50
 70
     1
102
RTVSPropertyOp51
 70
     0
102
RTVSPropertyOp52
 70
     0
102
RTVSPropertyOp53
 70
     1
102
RTVSPropertyOp54
 70
     1
102
RTVSPropertyOp55
 70
     1
102
RTVSPropertyOp56
 70
     1
102
RTVSPropertyOp57
 70
     1
102
RTVSPost2010Prop28
280
     0
102
RTVSPost2010PropOp28
 70
     1
102
RTVSPost2010Prop29
280
     1
102
RTVSPost2010PropOp29
 70
     1
102
RTVSPost2010Prop30
280
     1
102
RTVSPost2010PropOp30
 70
     1
102
RTVSPost2010Prop31
280
     0
102
RTVSPost2010PropOp31
 70
     1
102
RTVSPost2010Prop32
280
     0
102
RTVSPost2010PropOp32
 70
     1
102
RTVSPost2010Prop33
280
     0
102
RTVSPost2010PropOp33
 70
     1
102
RTVSPost2010Prop34
280
     0
102
RTVSPost2010PropOp34
 70
     1
102
RTVSPost2010Prop35
280
     0
102
RTVSPost2010PropOp35
 70
     1
102
RTVSPost2010Prop36
280
     0
102
RTVSPost2010PropOp36
 70
     1
102
RTVSPost2010Prop37
 90
       50
102
RTVSPost2010PropOp37
 70
     1
102
RTVSPost2010Prop38
140
0.0
102
RTVSPost2010PropOp38
 70
     1
102
RTVSPost2010Prop39
140
1.0
102
RTVSPost2010PropOp39
 70
     1
102
RTVSPost2010Prop40
 90
        0
102
RTVSPost2010PropOp40
 70
     1
102
RTVSPost2010Prop41ColorIndex
 90
       18
102
RTVSPost2010Prop41ColorRGB
 90
        0
102
RTVSPost2010PropOp41
 70
     1
102
RTVSPost2010Prop42
 90
       50
102
RTVSPost2010PropOp42
 70
     1
102
RTVSPost2010Prop43
 90
        3
102
RTVSPost2010PropOp43
 70
     1
102
RTVSPost2010Prop44ColorIndex
 90
        5
102
RTVSPost2010Prop44ColorRGB
 90
      255
102
RTVSPost2010PropOp44
 70
     1
102
RTVSPost2010Prop45
280
     0
102
RTVSPost2010PropOp45
 70
     1
102
RTVSPost2010Prop46
 90
       50
102
RTVSPost2010PropOp46
 70
     1
102
RTVSPost2010Prop47
 90
       50
102
RTVSPost2010PropOp47
 70
     1
102
RTVSPost2010Prop48
 90
       50
102
RTVSPost2010PropOp48
 70
     1
102
RTVSPost2010Prop49
280
     0
102
RTVSPost2010PropOp49
 70
     1
102
RTVSPost2010Prop50
 90
       50
102
RTVSPost2010PropOp50
 70
     1
102
RTVSPost2010Prop51ColorIndex
 90
      256
102
RTVSPost2010Prop51ColorRGB
 90
-16777216
102
RTVSPost2010PropOp51
 70
     0
102
RTVSPost2010Prop52
140
1.0
102
RTVSPost2010PropOp52
 70
     0
102
RTVSPost2010Prop53
 90
        2
102
RTVSPost2010PropOp53
 70
     1
102
RTVSPost2010Prop54
  1
strokes_ogs.tif
102
RTVSPost2010PropOp54
 70
     1
102
RTVSPost2010Prop55
280
     0
102
RTVSPost2010PropOp55
 70
     1
102
RTVSPost2010Prop56
140
1.0
102
RTVSPost2010PropOp56
 70
     1
102
RTVSPost2010Prop57
140
1.0
102
RTVSPost2010PropOp57
 70
     1
  0
XRECORD
  5
50C
102
{ACAD_REACTORS
330
50B
102
}
330
50B
100
AcDbXrecord
280
     1
102
RTVSPropertyOp0
 70
     0
102
RTVSPropertyOp1
 70
     0
102
RTVSPropertyOp2
 70
     0
102
RTVSPropertyOp3
 70
     0
102
RTVSPropertyOp4
 70
     0
102
RTVSPropertyOp5
 70
     0
102
RTVSPropertyOp6
 70
     0
102
RTVSPropertyOp7
 70
     0
102
RTVSPropertyOp8
 70
     0
102
RTVSPropertyOp9
 70
     0
102
RTVSPropertyOp10
 70
     0
102
RTVSPropertyOp11
 70
     0
102
RTVSPropertyOp12
 70
     0
102
RTVSPropertyOp13
 70
     0
102
RTVSPropertyOp14
 70
     0
102
RTVSPropertyOp15
 70
     0
102
RTVSPropertyOp16
 70
     0
102
RTVSPropertyOp17
 70
     0
102
RTVSPropertyOp18
 70
     0
102
RTVSPropertyOp19
 70
     0
102
RTVSPropertyOp20
 70
     0
102
RTVSPropertyOp21
 70
     0
102
RTVSPropertyOp22
 70
     0
102
RTVSPropertyOp23
 70
     0
102
RTVSPropertyOp24
 70
     0
102
RTVSPropertyOp25
 70
     0
102
RTVSPropertyOp26
 70
     0
102
RTVSPropertyOp27
 70
     0
102
RTVSPropertyOp28
 70
     1
102
RTVSPropertyOp29
 70
     1
102
RTVSPropertyOp30
 70
     1
102
RTVSPropertyOp31
 70
     1
102
RTVSPropertyOp32
 70
     1
102
RTVSPropertyOp33
 70
     1
102
RTVSPropertyOp34
 70
     1
102
RTVSPropertyOp35
 70
     1
102
RTVSPropertyOp36
 70
     1
102
RTVSPropertyOp37
 70
     1
102
RTVSPropertyOp38
 70
     1
102
RTVSPropertyOp39
 70
     1
102
RTVSPropertyOp40
 70
     1
102
RTVSPropertyOp41
 70
     1
102
RTVSPropertyOp42
 70
     1
102
RTVSPropertyOp43
 70
     1
102
RTVSPropertyOp44
 70
     1
102
RTVSPropertyOp45
 70
     1
102
RTVSPropertyOp46
 70
     1
102
RTVSPropertyOp47
 70
     1
102
RTVSPropertyOp48
 70
     1
102
RTVSPropertyOp49
 70
     1
102
RTVSPropertyOp50
 70
     1
102
RTVSPropertyOp51
 70
     0
102
RTVSPropertyOp52
 70
     0
102
RTVSPropertyOp53
 70
     1
102
RTVSPropertyOp54
 70
     1
102
RTVSPropertyOp55
 70
     1
102
RTVSPropertyOp56
 70
     1
102
RTVSPropertyOp57
 70
     1
102
RTVSPost2010Prop28
280
     0
102
RTVSPost2010PropOp28
 70
     1
102
RTVSPost2010Prop29
280
     1
102
RTVSPost2010PropOp29
 70
     1
102
RTVSPost2010Prop30
280
     1
102
RTVSPost2010PropOp30
 70
     1
102
RTVSPost2010Prop31
280
     0
102
RTVSPost2010PropOp31
 70
     1
102
RTVSPost2010Prop32
280
     0
102
RTVSPost2010PropOp32
 70
     1
102
RTVSPost2010Prop33
280
     0
102
RTVSPost2010PropOp33
 70
     1
102
RTVSPost2010Prop34
280
     0
102
RTVSPost2010PropOp34
 70
     1
102
RTVSPost2010Prop35
280
     0
102
RTVSPost2010PropOp35
 70
     1
102
RTVSPost2010Prop36
280
     0
102
RTVSPost2010PropOp36
 70
     1
102
RTVSPost2010Prop37
 90
       50
102
RTVSPost2010PropOp37
 70
     1
102
RTVSPost2010Prop38
140
0.0
102
RTVSPost2010PropOp38
 70
     1
102
RTVSPost2010Prop39
140
1.0
102
RTVSPost2010PropOp39
 70
     1
102
RTVSPost2010Prop40
 90
        0
102
RTVSPost2010PropOp40
 70
     1
102
RTVSPost2010Prop41ColorIndex
 90
       18
102
RTVSPost2010Prop41ColorRGB
 90
        0
102
RTVSPost2010PropOp41
 70
     1
102
RTVSPost2010Prop42
 90
       50
102
RTVSPost2010PropOp42
 70
     1
102
RTVSPost2010Prop43
 90
        3
102
RTVSPost2010PropOp43
 70
     1
102
RTVSPost2010Prop44ColorIndex
 90
        5
102
RTVSPost2010Prop44ColorRGB
 90
      255
102
RTVSPost2010PropOp44
 70
     1
102
RTVSPost2010Prop45
280
     0
102
RTVSPost2010PropOp45
 70
     1
102
RTVSPost2010Prop46
 90
       50
102
RTVSPost2010PropOp46
 70
     1
102
RTVSPost2010Prop47
 90
       50
102
RTVSPost2010PropOp47
 70
     1
102
RTVSPost2010Prop48
 90
       50
102
RTVSPost2010PropOp48
 70
     1
102
RTVSPost2010Prop49
280
     0
102
RTVSPost2010PropOp49
 70
     1
102
RTVSPost2010Prop50
 90
       50
102
RTVSPost2010PropOp50
 70
     1
102
RTVSPost2010Prop51ColorIndex
 90
      256
102
RTVSPost2010Prop51ColorRGB
 90
-16777216
102
RTVSPost2010PropOp51
 70
     0
102
RTVSPost2010Prop52
140
1.0
102
RTVSPost2010PropOp52
 70
     0
102
RTVSPost2010Prop53
 90
        2
102
RTVSPost2010PropOp53
 70
     1
102
RTVSPost2010Prop54
  1
strokes_ogs.tif
102
RTVSPost2010PropOp54
 70
     1
102
RTVSPost2010Prop55
280
     0
102
RTVSPost2010PropOp55
 70
     1
102
RTVSPost2010Prop56
140
1.0
102
RTVSPost2010PropOp56
 70
     1
102
RTVSPost2010Prop57
140
1.0
102
RTVSPost2010PropOp57
 70
     1
  0
XRECORD
  5
4FA
102
{ACAD_REACTORS
330
4F9
102
}
330
4F9
100
AcDbXrecord
280
     1
102
RTVSPropertyOp0
 70
     1
102
RTVSPropertyOp1
 70
     1
102
RTVSPropertyOp2
 70
     1
102
RTVSPropertyOp3
 70
     1
102
RTVSPropertyOp4
 70
     1
102
RTVSPropertyOp5
 70
     1
102
RTVSPropertyOp6
 70
     1
102
RTVSPropertyOp7
 70
     1
102
RTVSPropertyOp8
 70
     1
102
RTVSPropertyOp9
 70
     1
102
RTVSPropertyOp10
 70
     1
102
RTVSPropertyOp11
 70
     1
102
RTVSPropertyOp12
 70
     1
102
RTVSPropertyOp13
 70
     1
102
RTVSPropertyOp14
 70
     1
102
RTVSPropertyOp15
 70
     1
102
RTVSPropertyOp16
 70
     1
102
RTVSPropertyOp17
 70
     1
102
RTVSPropertyOp18
 70
     1
102
RTVSPropertyOp19
 70
     1
102
RTVSPropertyOp20
 70
     1
102
RTVSPropertyOp21
 70
     1
102
RTVSPropertyOp22
 70
     1
102
RTVSPropertyOp23
 70
     1
102
RTVSPropertyOp24
 70
     1
102
RTVSPropertyOp25
 70
     1
102
RTVSPropertyOp26
 70
     1
102
RTVSPropertyOp27
 70
     1
102
RTVSPropertyOp28
 70
     1
102
RTVSPropertyOp29
 70
     1
102
RTVSPropertyOp30
 70
     1
102
RTVSPropertyOp31
 70
     1
102
RTVSPropertyOp32
 70
     1
102
RTVSPropertyOp33
 70
     1
102
RTVSPropertyOp34
 70
     1
102
RTVSPropertyOp35
 70
     1
102
RTVSPropertyOp36
 70
     1
102
RTVSPropertyOp37
 70
     1
102
RTVSPropertyOp38
 70
     1
102
RTVSPropertyOp39
 70
     1
102
RTVSPropertyOp40
 70
     1
102
RTVSPropertyOp41
 70
     1
102
RTVSPropertyOp42
 70
     1
102
RTVSPropertyOp43
 70
     1
102
RTVSPropertyOp44
 70
     1
102
RTVSPropertyOp45
 70
     1
102
RTVSPropertyOp46
 70
     1
102
RTVSPropertyOp47
 70
     1
102
RTVSPropertyOp48
 70
     1
102
RTVSPropertyOp49
 70
     1
102
RTVSPropertyOp50
 70
     1
102
RTVSPropertyOp51
 70
     0
102
RTVSPropertyOp52
 70
     0
102
RTVSPropertyOp53
 70
     1
102
RTVSPropertyOp54
 70
     1
102
RTVSPropertyOp55
 70
     1
102
RTVSPropertyOp56
 70
     1
102
RTVSPropertyOp57
 70
     1
102
RTVSPost2010Prop28
280
     0
102
RTVSPost2010PropOp28
 70
     1
102
RTVSPost2010Prop29
280
     1
102
RTVSPost2010PropOp29
 70
     1
102
RTVSPost2010Prop30
280
     1
102
RTVSPost2010PropOp30
 70
     1
102
RTVSPost2010Prop31
280
     0
102
RTVSPost2010PropOp31
 70
     1
102
RTVSPost2010Prop32
280
     0
102
RTVSPost2010PropOp32
 70
     1
102
RTVSPost2010Prop33
280
     0
102
RTVSPost2010PropOp33
 70
     1
102
RTVSPost2010Prop34
280
     0
102
RTVSPost2010PropOp34
 70
     1
102
RTVSPost2010Prop35
280
     0
102
RTVSPost2010PropOp35
 70
     1
102
RTVSPost2010Prop36
280
     0
102
RTVSPost2010PropOp36
 70
     1
102
RTVSPost2010Prop37
 90
       50
102
RTVSPost2010PropOp37
 70
     1
102
RTVSPost2010Prop38
140
0.0
102
RTVSPost2010PropOp38
 70
     1
102
RTVSPost2010Prop39
140
1.0
102
RTVSPost2010PropOp39
 70
     1
102
RTVSPost2010Prop40
 90
        0
102
RTVSPost2010PropOp40
 70
     1
102
RTVSPost2010Prop41ColorIndex
 90
       18
102
RTVSPost2010Prop41ColorRGB
 90
        0
102
RTVSPost2010PropOp41
 70
     1
102
RTVSPost2010Prop42
 90
       50
102
RTVSPost2010PropOp42
 70
     1
102
RTVSPost2010Prop43
 90
        3
102
RTVSPost2010PropOp43
 70
     1
102
RTVSPost2010Prop44ColorIndex
 90
        5
102
RTVSPost2010Prop44ColorRGB
 90
      255
102
RTVSPost2010PropOp44
 70
     1
102
RTVSPost2010Prop45
280
     0
102
RTVSPost2010PropOp45
 70
     1
102
RTVSPost2010Prop46
 90
       50
102
RTVSPost2010PropOp46
 70
     1
102
RTVSPost2010Prop47
 90
       50
102
RTVSPost2010PropOp47
 70
     1
102
RTVSPost2010Prop48
 90
       50
102
RTVSPost2010PropOp48
 70
     1
102
RTVSPost2010Prop49
280
     0
102
RTVSPost2010PropOp49
 70
     1
102
RTVSPost2010Prop50
 90
       50
102
RTVSPost2010PropOp50
 70
     1
102
RTVSPost2010Prop51ColorIndex
 90
      256
102
RTVSPost2010Prop51ColorRGB
 90
-16777216
102
RTVSPost2010PropOp51
 70
     0
102
RTVSPost2010Prop52
140
1.0
102
RTVSPost2010PropOp52
 70
     0
102
RTVSPost2010Prop53
 90
        2
102
RTVSPost2010PropOp53
 70
     1
102
RTVSPost2010Prop54
  1
strokes_ogs.tif
102
RTVSPost2010PropOp54
 70
     1
102
RTVSPost2010Prop55
280
     0
102
RTVSPost2010PropOp55
 70
     1
102
RTVSPost2010Prop56
140
1.0
102
RTVSPost2010PropOp56
 70
     1
102
RTVSPost2010Prop57
140
1.0
102
RTVSPost2010PropOp57
 70
     1
  0
XRECORD
  5
518
102
{ACAD_REACTORS
330
517
102
}
330
517
100
AcDbXrecord
280
     1
102
RTVSPropertyOp0
 70
     1
102
RTVSPropertyOp1
 70
     1
102
RTVSPropertyOp2
 70
     1
102
RTVSPropertyOp3
 70
     1
102
RTVSPropertyOp4
 70
     1
102
RTVSPropertyOp5
 70
     1
102
RTVSPropertyOp6
 70
     1
102
RTVSPropertyOp7
 70
     1
102
RTVSPropertyOp8
 70
     1
102
RTVSPropertyOp9
 70
     1
102
RTVSPropertyOp10
 70
     1
102
RTVSPropertyOp11
 70
     1
102
RTVSPropertyOp12
 70
     1
102
RTVSPropertyOp13
 70
     1
102
RTVSPropertyOp14
 70
     1
102
RTVSPropertyOp15
 70
     1
102
RTVSPropertyOp16
 70
     1
102
RTVSPropertyOp17
 70
     1
102
RTVSPropertyOp18
 70
     1
102
RTVSPropertyOp19
 70
     1
102
RTVSPropertyOp20
 70
     1
102
RTVSPropertyOp21
 70
     1
102
RTVSPropertyOp22
 70
     1
102
RTVSPropertyOp23
 70
     1
102
RTVSPropertyOp24
 70
     1
102
RTVSPropertyOp25
 70
     1
102
RTVSPropertyOp26
 70
     1
102
RTVSPropertyOp27
 70
     1
102
RTVSPropertyOp28
 70
     1
102
RTVSPropertyOp29
 70
     1
102
RTVSPropertyOp30
 70
     1
102
RTVSPropertyOp31
 70
     1
102
RTVSPropertyOp32
 70
     1
102
RTVSPropertyOp33
 70
     1
102
RTVSPropertyOp34
 70
     1
102
RTVSPropertyOp35
 70
     1
102
RTVSPropertyOp36
 70
     1
102
RTVSPropertyOp37
 70
     1
102
RTVSPropertyOp38
 70
     1
102
RTVSPropertyOp39
 70
     1
102
RTVSPropertyOp40
 70
     1
102
RTVSPropertyOp41
 70
     1
102
RTVSPropertyOp42
 70
     1
102
RTVSPropertyOp43
 70
     1
102
RTVSPropertyOp44
 70
     1
102
RTVSPropertyOp45
 70
     1
102
RTVSPropertyOp46
 70
     1
102
RTVSPropertyOp47
 70
     1
102
RTVSPropertyOp48
 70
     1
102
RTVSPropertyOp49
 70
     1
102
RTVSPropertyOp50
 70
     1
102
RTVSPropertyOp51
 70
     0
102
RTVSPropertyOp52
 70
     0
102
RTVSPropertyOp53
 70
     1
102
RTVSPropertyOp54
 70
     1
102
RTVSPropertyOp55
 70
     1
102
RTVSPropertyOp56
 70
     1
102
RTVSPropertyOp57
 70
     1
102
RTVSPost2010Prop28
280
     0
102
RTVSPost2010PropOp28
 70
     1
102
RTVSPost2010Prop29
280
     1
102
RTVSPost2010PropOp29
 70
     1
102
RTVSPost2010Prop30
280
     1
102
RTVSPost2010PropOp30
 70
     1
102
RTVSPost2010Prop31
280
     0
102
RTVSPost2010PropOp31
 70
     1
102
RTVSPost2010Prop32
280
     0
102
RTVSPost2010PropOp32
 70
     1
102
RTVSPost2010Prop33
280
     0
102
RTVSPost2010PropOp33
 70
     1
102
RTVSPost2010Prop34
280
     0
102
RTVSPost2010PropOp34
 70
     1
102
RTVSPost2010Prop35
280
     0
102
RTVSPost2010PropOp35
 70
     1
102
RTVSPost2010Prop36
280
     0
102
RTVSPost2010PropOp36
 70
     1
102
RTVSPost2010Prop37
 90
       50
102
RTVSPost2010PropOp37
 70
     1
102
RTVSPost2010Prop38
140
0.0
102
RTVSPost2010PropOp38
 70
     1
102
RTVSPost2010Prop39
140
1.0
102
RTVSPost2010PropOp39
 70
     1
102
RTVSPost2010Prop40
 90
        0
102
RTVSPost2010PropOp40
 70
     1
102
RTVSPost2010Prop41ColorIndex
 90
       18
102
RTVSPost2010Prop41ColorRGB
 90
        0
102
RTVSPost2010PropOp41
 70
     1
102
RTVSPost2010Prop42
 90
       50
102
RTVSPost2010PropOp42
 70
     1
102
RTVSPost2010Prop43
 90
        3
102
RTVSPost2010PropOp43
 70
     1
102
RTVSPost2010Prop44ColorIndex
 90
        5
102
RTVSPost2010Prop44ColorRGB
 90
      255
102
RTVSPost2010PropOp44
 70
     1
102
RTVSPost2010Prop45
280
     0
102
RTVSPost2010PropOp45
 70
     1
102
RTVSPost2010Prop46
 90
       50
102
RTVSPost2010PropOp46
 70
     1
102
RTVSPost2010Prop47
 90
       50
102
RTVSPost2010PropOp47
 70
     1
102
RTVSPost2010Prop48
 90
       50
102
RTVSPost2010PropOp48
 70
     1
102
RTVSPost2010Prop49
280
     0
102
RTVSPost2010PropOp49
 70
     1
102
RTVSPost2010Prop50
 90
       50
102
RTVSPost2010PropOp50
 70
     1
102
RTVSPost2010Prop51ColorIndex
 90
      256
102
RTVSPost2010Prop51ColorRGB
 90
-16777216
102
RTVSPost2010PropOp51
 70
     0
102
RTVSPost2010Prop52
140
1.0
102
RTVSPost2010PropOp52
 70
     0
102
RTVSPost2010Prop53
 90
        2
102
RTVSPost2010PropOp53
 70
     1
102
RTVSPost2010Prop54
  1
strokes_ogs.tif
102
RTVSPost2010PropOp54
 70
     1
102
RTVSPost2010Prop55
280
     0
102
RTVSPost2010PropOp55
 70
     1
102
RTVSPost2010Prop56
140
1.0
102
RTVSPost2010PropOp56
 70
     1
102
RTVSPost2010Prop57
140
1.0
102
RTVSPost2010PropOp57
 70
     1
  0
XRECORD
  5
516
102
{ACAD_REACTORS
330
515
102
}
330
515
100
AcDbXrecord
280
     1
102
RTVSPropertyOp0
 70
     1
102
RTVSPropertyOp1
 70
     1
102
RTVSPropertyOp2
 70
     1
102
RTVSPropertyOp3
 70
     1
102
RTVSPropertyOp4
 70
     1
102
RTVSPropertyOp5
 70
     1
102
RTVSPropertyOp6
 70
     1
102
RTVSPropertyOp7
 70
     1
102
RTVSPropertyOp8
 70
     1
102
RTVSPropertyOp9
 70
     1
102
RTVSPropertyOp10
 70
     1
102
RTVSPropertyOp11
 70
     1
102
RTVSPropertyOp12
 70
     1
102
RTVSPropertyOp13
 70
     1
102
RTVSPropertyOp14
 70
     1
102
RTVSPropertyOp15
 70
     1
102
RTVSPropertyOp16
 70
     1
102
RTVSPropertyOp17
 70
     1
102
RTVSPropertyOp18
 70
     1
102
RTVSPropertyOp19
 70
     1
102
RTVSPropertyOp20
 70
     1
102
RTVSPropertyOp21
 70
     1
102
RTVSPropertyOp22
 70
     1
102
RTVSPropertyOp23
 70
     1
102
RTVSPropertyOp24
 70
     1
102
RTVSPropertyOp25
 70
     1
102
RTVSPropertyOp26
 70
     1
102
RTVSPropertyOp27
 70
     1
102
RTVSPropertyOp28
 70
     1
102
RTVSPropertyOp29
 70
     1
102
RTVSPropertyOp30
 70
     1
102
RTVSPropertyOp31
 70
     1
102
RTVSPropertyOp32
 70
     1
102
RTVSPropertyOp33
 70
     1
102
RTVSPropertyOp34
 70
     1
102
RTVSPropertyOp35
 70
     1
102
RTVSPropertyOp36
 70
     1
102
RTVSPropertyOp37
 70
     1
102
RTVSPropertyOp38
 70
     1
102
RTVSPropertyOp39
 70
     1
102
RTVSPropertyOp40
 70
     1
102
RTVSPropertyOp41
 70
     1
102
RTVSPropertyOp42
 70
     1
102
RTVSPropertyOp43
 70
     1
102
RTVSPropertyOp44
 70
     1
102
RTVSPropertyOp45
 70
     1
102
RTVSPropertyOp46
 70
     1
102
RTVSPropertyOp47
 70
     1
102
RTVSPropertyOp48
 70
     1
102
RTVSPropertyOp49
 70
     1
102
RTVSPropertyOp50
 70
     1
102
RTVSPropertyOp51
 70
     0
102
RTVSPropertyOp52
 70
     0
102
RTVSPropertyOp53
 70
     1
102
RTVSPropertyOp54
 70
     1
102
RTVSPropertyOp55
 70
     1
102
RTVSPropertyOp56
 70
     1
102
RTVSPropertyOp57
 70
     1
102
RTVSPost2010Prop28
280
     0
102
RTVSPost2010PropOp28
 70
     1
102
RTVSPost2010Prop29
280
     1
102
RTVSPost2010PropOp29
 70
     1
102
RTVSPost2010Prop30
280
     1
102
RTVSPost2010PropOp30
 70
     1
102
RTVSPost2010Prop31
280
     0
102
RTVSPost2010PropOp31
 70
     1
102
RTVSPost2010Prop32
280
     0
102
RTVSPost2010PropOp32
 70
     1
102
RTVSPost2010Prop33
280
     0
102
RTVSPost2010PropOp33
 70
     1
102
RTVSPost2010Prop34
280
     0
102
RTVSPost2010PropOp34
 70
     1
102
RTVSPost2010Prop35
280
     0
102
RTVSPost2010PropOp35
 70
     1
102
RTVSPost2010Prop36
280
     0
102
RTVSPost2010PropOp36
 70
     1
102
RTVSPost2010Prop37
 90
       50
102
RTVSPost2010PropOp37
 70
     1
102
RTVSPost2010Prop38
140
0.0
102
RTVSPost2010PropOp38
 70
     1
102
RTVSPost2010Prop39
140
1.0
102
RTVSPost2010PropOp39
 70
     1
102
RTVSPost2010Prop40
 90
        0
102
RTVSPost2010PropOp40
 70
     1
102
RTVSPost2010Prop41ColorIndex
 90
       18
102
RTVSPost2010Prop41ColorRGB
 90
        0
102
RTVSPost2010PropOp41
 70
     1
102
RTVSPost2010Prop42
 90
       50
102
RTVSPost2010PropOp42
 70
     1
102
RTVSPost2010Prop43
 90
        3
102
RTVSPost2010PropOp43
 70
     1
102
RTVSPost2010Prop44ColorIndex
 90
        5
102
RTVSPost2010Prop44ColorRGB
 90
      255
102
RTVSPost2010PropOp44
 70
     1
102
RTVSPost2010Prop45
280
     0
102
RTVSPost2010PropOp45
 70
     1
102
RTVSPost2010Prop46
 90
       50
102
RTVSPost2010PropOp46
 70
     1
102
RTVSPost2010Prop47
 90
       50
102
RTVSPost2010PropOp47
 70
     1
102
RTVSPost2010Prop48
 90
       50
102
RTVSPost2010PropOp48
 70
     1
102
RTVSPost2010Prop49
280
     0
102
RTVSPost2010PropOp49
 70
     1
102
RTVSPost2010Prop50
 90
       50
102
RTVSPost2010PropOp50
 70
     1
102
RTVSPost2010Prop51ColorIndex
 90
      256
102
RTVSPost2010Prop51ColorRGB
 90
-16777216
102
RTVSPost2010PropOp51
 70
     0
102
RTVSPost2010Prop52
140
1.0
102
RTVSPost2010PropOp52
 70
     0
102
RTVSPost2010Prop53
 90
        2
102
RTVSPost2010PropOp53
 70
     1
102
RTVSPost2010Prop54
  1
strokes_ogs.tif
102
RTVSPost2010PropOp54
 70
     1
102
RTVSPost2010Prop55
280
     0
102
RTVSPost2010PropOp55
 70
     1
102
RTVSPost2010Prop56
140
1.0
102
RTVSPost2010PropOp56
 70
     1
102
RTVSPost2010Prop57
140
1.0
102
RTVSPost2010PropOp57
 70
     1
  0
XRECORD
  5
510
102
{ACAD_REACTORS
330
50F
102
}
330
50F
100
AcDbXrecord
280
     1
102
RTVSPropertyOp0
 70
     1
102
RTVSPropertyOp1
 70
     1
102
RTVSPropertyOp2
 70
     1
102
RTVSPropertyOp3
 70
     1
102
RTVSPropertyOp4
 70
     1
102
RTVSPropertyOp5
 70
     1
102
RTVSPropertyOp6
 70
     1
102
RTVSPropertyOp7
 70
     1
102
RTVSPropertyOp8
 70
     1
102
RTVSPropertyOp9
 70
     1
102
RTVSPropertyOp10
 70
     1
102
RTVSPropertyOp11
 70
     1
102
RTVSPropertyOp12
 70
     1
102
RTVSPropertyOp13
 70
     1
102
RTVSPropertyOp14
 70
     1
102
RTVSPropertyOp15
 70
     1
102
RTVSPropertyOp16
 70
     1
102
RTVSPropertyOp17
 70
     1
102
RTVSPropertyOp18
 70
     1
102
RTVSPropertyOp19
 70
     1
102
RTVSPropertyOp20
 70
     1
102
RTVSPropertyOp21
 70
     1
102
RTVSPropertyOp22
 70
     1
102
RTVSPropertyOp23
 70
     1
102
RTVSPropertyOp24
 70
     1
102
RTVSPropertyOp25
 70
     1
102
RTVSPropertyOp26
 70
     1
102
RTVSPropertyOp27
 70
     1
102
RTVSPropertyOp28
 70
     1
102
RTVSPropertyOp29
 70
     1
102
RTVSPropertyOp30
 70
     1
102
RTVSPropertyOp31
 70
     1
102
RTVSPropertyOp32
 70
     1
102
RTVSPropertyOp33
 70
     1
102
RTVSPropertyOp34
 70
     1
102
RTVSPropertyOp35
 70
     1
102
RTVSPropertyOp36
 70
     1
102
RTVSPropertyOp37
 70
     1
102
RTVSPropertyOp38
 70
     1
102
RTVSPropertyOp39
 70
     1
102
RTVSPropertyOp40
 70
     1
102
RTVSPropertyOp41
 70
     1
102
RTVSPropertyOp42
 70
     1
102
RTVSPropertyOp43
 70
     1
102
RTVSPropertyOp44
 70
     1
102
RTVSPropertyOp45
 70
     1
102
RTVSPropertyOp46
 70
     1
102
RTVSPropertyOp47
 70
     1
102
RTVSPropertyOp48
 70
     1
102
RTVSPropertyOp49
 70
     1
102
RTVSPropertyOp50
 70
     1
102
RTVSPropertyOp51
 70
     0
102
RTVSPropertyOp52
 70
     0
102
RTVSPropertyOp53
 70
     1
102
RTVSPropertyOp54
 70
     1
102
RTVSPropertyOp55
 70
     1
102
RTVSPropertyOp56
 70
     1
102
RTVSPropertyOp57
 70
     1
102
RTVSPost2010Prop28
280
     0
102
RTVSPost2010PropOp28
 70
     1
102
RTVSPost2010Prop29
280
     1
102
RTVSPost2010PropOp29
 70
     1
102
RTVSPost2010Prop30
280
     1
102
RTVSPost2010PropOp30
 70
     1
102
RTVSPost2010Prop31
280
     0
102
RTVSPost2010PropOp31
 70
     1
102
RTVSPost2010Prop32
280
     0
102
RTVSPost2010PropOp32
 70
     1
102
RTVSPost2010Prop33
280
     0
102
RTVSPost2010PropOp33
 70
     1
102
RTVSPost2010Prop34
280
     0
102
RTVSPost2010PropOp34
 70
     1
102
RTVSPost2010Prop35
280
     0
102
RTVSPost2010PropOp35
 70
     1
102
RTVSPost2010Prop36
280
     0
102
RTVSPost2010PropOp36
 70
     1
102
RTVSPost2010Prop37
 90
       50
102
RTVSPost2010PropOp37
 70
     1
102
RTVSPost2010Prop38
140
0.0
102
RTVSPost2010PropOp38
 70
     1
102
RTVSPost2010Prop39
140
1.0
102
RTVSPost2010PropOp39
 70
     1
102
RTVSPost2010Prop40
 90
        0
102
RTVSPost2010PropOp40
 70
     1
102
RTVSPost2010Prop41ColorIndex
 90
       18
102
RTVSPost2010Prop41ColorRGB
 90
        0
102
RTVSPost2010PropOp41
 70
     1
102
RTVSPost2010Prop42
 90
       50
102
RTVSPost2010PropOp42
 70
     1
102
RTVSPost2010Prop43
 90
        3
102
RTVSPost2010PropOp43
 70
     1
102
RTVSPost2010Prop44ColorIndex
 90
        5
102
RTVSPost2010Prop44ColorRGB
 90
      255
102
RTVSPost2010PropOp44
 70
     1
102
RTVSPost2010Prop45
280
     0
102
RTVSPost2010PropOp45
 70
     1
102
RTVSPost2010Prop46
 90
       50
102
RTVSPost2010PropOp46
 70
     1
102
RTVSPost2010Prop47
 90
       50
102
RTVSPost2010PropOp47
 70
     1
102
RTVSPost2010Prop48
 90
       50
102
RTVSPost2010PropOp48
 70
     1
102
RTVSPost2010Prop49
280
     0
102
RTVSPost2010PropOp49
 70
     1
102
RTVSPost2010Prop50
 90
       50
102
RTVSPost2010PropOp50
 70
     1
102
RTVSPost2010Prop51ColorIndex
 90
      256
102
RTVSPost2010Prop51ColorRGB
 90
-16777216
102
RTVSPost2010PropOp51
 70
     0
102
RTVSPost2010Prop52
140
1.0
102
RTVSPost2010PropOp52
 70
     0
102
RTVSPost2010Prop53
 90
        2
102
RTVSPost2010PropOp53
 70
     1
102
RTVSPost2010Prop54
  1
strokes_ogs.tif
102
RTVSPost2010PropOp54
 70
     1
102
RTVSPost2010Prop55
280
     0
102
RTVSPost2010PropOp55
 70
     1
102
RTVSPost2010Prop56
140
1.0
102
RTVSPost2010PropOp56
 70
     1
102
RTVSPost2010Prop57
140
1.0
102
RTVSPost2010PropOp57
 70
     1
  0
XRECORD
  5
512
102
{ACAD_REACTORS
330
511
102
}
330
511
100
AcDbXrecord
280
     1
102
RTVSPropertyOp0
 70
     1
102
RTVSPropertyOp1
 70
     1
102
RTVSPropertyOp2
 70
     1
102
RTVSPropertyOp3
 70
     1
102
RTVSPropertyOp4
 70
     1
102
RTVSPropertyOp5
 70
     1
102
RTVSPropertyOp6
 70
     1
102
RTVSPropertyOp7
 70
     1
102
RTVSPropertyOp8
 70
     1
102
RTVSPropertyOp9
 70
     1
102
RTVSPropertyOp10
 70
     1
102
RTVSPropertyOp11
 70
     1
102
RTVSPropertyOp12
 70
     1
102
RTVSPropertyOp13
 70
     1
102
RTVSPropertyOp14
 70
     1
102
RTVSPropertyOp15
 70
     1
102
RTVSPropertyOp16
 70
     1
102
RTVSPropertyOp17
 70
     1
102
RTVSPropertyOp18
 70
     1
102
RTVSPropertyOp19
 70
     1
102
RTVSPropertyOp20
 70
     1
102
RTVSPropertyOp21
 70
     1
102
RTVSPropertyOp22
 70
     1
102
RTVSPropertyOp23
 70
     1
102
RTVSPropertyOp24
 70
     1
102
RTVSPropertyOp25
 70
     1
102
RTVSPropertyOp26
 70
     1
102
RTVSPropertyOp27
 70
     1
102
RTVSPropertyOp28
 70
     1
102
RTVSPropertyOp29
 70
     1
102
RTVSPropertyOp30
 70
     1
102
RTVSPropertyOp31
 70
     1
102
RTVSPropertyOp32
 70
     1
102
RTVSPropertyOp33
 70
     1
102
RTVSPropertyOp34
 70
     1
102
RTVSPropertyOp35
 70
     1
102
RTVSPropertyOp36
 70
     1
102
RTVSPropertyOp37
 70
     1
102
RTVSPropertyOp38
 70
     1
102
RTVSPropertyOp39
 70
     1
102
RTVSPropertyOp40
 70
     1
102
RTVSPropertyOp41
 70
     1
102
RTVSPropertyOp42
 70
     1
102
RTVSPropertyOp43
 70
     1
102
RTVSPropertyOp44
 70
     1
102
RTVSPropertyOp45
 70
     1
102
RTVSPropertyOp46
 70
     1
102
RTVSPropertyOp47
 70
     1
102
RTVSPropertyOp48
 70
     1
102
RTVSPropertyOp49
 70
     1
102
RTVSPropertyOp50
 70
     1
102
RTVSPropertyOp51
 70
     0
102
RTVSPropertyOp52
 70
     0
102
RTVSPropertyOp53
 70
     1
102
RTVSPropertyOp54
 70
     1
102
RTVSPropertyOp55
 70
     1
102
RTVSPropertyOp56
 70
     1
102
RTVSPropertyOp57
 70
     1
102
RTVSPost2010Prop28
280
     0
102
RTVSPost2010PropOp28
 70
     1
102
RTVSPost2010Prop29
280
     1
102
RTVSPost2010PropOp29
 70
     1
102
RTVSPost2010Prop30
280
     1
102
RTVSPost2010PropOp30
 70
     1
102
RTVSPost2010Prop31
280
     0
102
RTVSPost2010PropOp31
 70
     1
102
RTVSPost2010Prop32
280
     0
102
RTVSPost2010PropOp32
 70
     1
102
RTVSPost2010Prop33
280
     0
102
RTVSPost2010PropOp33
 70
     1
102
RTVSPost2010Prop34
280
     0
102
RTVSPost2010PropOp34
 70
     1
102
RTVSPost2010Prop35
280
     0
102
RTVSPost2010PropOp35
 70
     1
102
RTVSPost2010Prop36
280
     0
102
RTVSPost2010PropOp36
 70
     1
102
RTVSPost2010Prop37
 90
       50
102
RTVSPost2010PropOp37
 70
     1
102
RTVSPost2010Prop38
140
0.0
102
RTVSPost2010PropOp38
 70
     1
102
RTVSPost2010Prop39
140
1.0
102
RTVSPost2010PropOp39
 70
     1
102
RTVSPost2010Prop40
 90
        0
102
RTVSPost2010PropOp40
 70
     1
102
RTVSPost2010Prop41ColorIndex
 90
       18
102
RTVSPost2010Prop41ColorRGB
 90
        0
102
RTVSPost2010PropOp41
 70
     1
102
RTVSPost2010Prop42
 90
       50
102
RTVSPost2010PropOp42
 70
     1
102
RTVSPost2010Prop43
 90
        3
102
RTVSPost2010PropOp43
 70
     1
102
RTVSPost2010Prop44ColorIndex
 90
        5
102
RTVSPost2010Prop44ColorRGB
 90
      255
102
RTVSPost2010PropOp44
 70
     1
102
RTVSPost2010Prop45
280
     0
102
RTVSPost2010PropOp45
 70
     1
102
RTVSPost2010Prop46
 90
       50
102
RTVSPost2010PropOp46
 70
     1
102
RTVSPost2010Prop47
 90
       50
102
RTVSPost2010PropOp47
 70
     1
102
RTVSPost2010Prop48
 90
       50
102
RTVSPost2010PropOp48
 70
     1
102
RTVSPost2010Prop49
280
     0
102
RTVSPost2010PropOp49
 70
     1
102
RTVSPost2010Prop50
 90
       50
102
RTVSPost2010PropOp50
 70
     1
102
RTVSPost2010Prop51ColorIndex
 90
      256
102
RTVSPost2010Prop51ColorRGB
 90
-16777216
102
RTVSPost2010PropOp51
 70
     0
102
RTVSPost2010Prop52
140
1.0
102
RTVSPost2010PropOp52
 70
     0
102
RTVSPost2010Prop53
 90
        2
102
RTVSPost2010PropOp53
 70
     1
102
RTVSPost2010Prop54
  1
strokes_ogs.tif
102
RTVSPost2010PropOp54
 70
     1
102
RTVSPost2010Prop55
280
     0
102
RTVSPost2010PropOp55
 70
     1
102
RTVSPost2010Prop56
140
1.0
102
RTVSPost2010PropOp56
 70
     1
102
RTVSPost2010Prop57
140
1.0
102
RTVSPost2010PropOp57
 70
     1
  0
XRECORD
  5
502
102
{ACAD_REACTORS
330
501
102
}
330
501
100
AcDbXrecord
280
     1
102
RTVSPropertyOp0
 70
     1
102
RTVSPropertyOp1
 70
     1
102
RTVSPropertyOp2
 70
     1
102
RTVSPropertyOp3
 70
     1
102
RTVSPropertyOp4
 70
     1
102
RTVSPropertyOp5
 70
     1
102
RTVSPropertyOp6
 70
     1
102
RTVSPropertyOp7
 70
     1
102
RTVSPropertyOp8
 70
     1
102
RTVSPropertyOp9
 70
     1
102
RTVSPropertyOp10
 70
     1
102
RTVSPropertyOp11
 70
     1
102
RTVSPropertyOp12
 70
     1
102
RTVSPropertyOp13
 70
     1
102
RTVSPropertyOp14
 70
     1
102
RTVSPropertyOp15
 70
     1
102
RTVSPropertyOp16
 70
     1
102
RTVSPropertyOp17
 70
     1
102
RTVSPropertyOp18
 70
     1
102
RTVSPropertyOp19
 70
     1
102
RTVSPropertyOp20
 70
     1
102
RTVSPropertyOp21
 70
     1
102
RTVSPropertyOp22
 70
     1
102
RTVSPropertyOp23
 70
     1
102
RTVSPropertyOp24
 70
     1
102
RTVSPropertyOp25
 70
     1
102
RTVSPropertyOp26
 70
     1
102
RTVSPropertyOp27
 70
     1
102
RTVSPropertyOp28
 70
     1
102
RTVSPropertyOp29
 70
     1
102
RTVSPropertyOp30
 70
     1
102
RTVSPropertyOp31
 70
     1
102
RTVSPropertyOp32
 70
     1
102
RTVSPropertyOp33
 70
     1
102
RTVSPropertyOp34
 70
     1
102
RTVSPropertyOp35
 70
     1
102
RTVSPropertyOp36
 70
     1
102
RTVSPropertyOp37
 70
     1
102
RTVSPropertyOp38
 70
     1
102
RTVSPropertyOp39
 70
     1
102
RTVSPropertyOp40
 70
     1
102
RTVSPropertyOp41
 70
     1
102
RTVSPropertyOp42
 70
     1
102
RTVSPropertyOp43
 70
     1
102
RTVSPropertyOp44
 70
     1
102
RTVSPropertyOp45
 70
     1
102
RTVSPropertyOp46
 70
     1
102
RTVSPropertyOp47
 70
     1
102
RTVSPropertyOp48
 70
     1
102
RTVSPropertyOp49
 70
     1
102
RTVSPropertyOp50
 70
     1
102
RTVSPropertyOp51
 70
     0
102
RTVSPropertyOp52
 70
     0
102
RTVSPropertyOp53
 70
     1
102
RTVSPropertyOp54
 70
     1
102
RTVSPropertyOp55
 70
     1
102
RTVSPropertyOp56
 70
     1
102
RTVSPropertyOp57
 70
     1
102
RTVSPost2010Prop28
280
     0
102
RTVSPost2010PropOp28
 70
     1
102
RTVSPost2010Prop29
280
     1
102
RTVSPost2010PropOp29
 70
     1
102
RTVSPost2010Prop30
280
     1
102
RTVSPost2010PropOp30
 70
     1
102
RTVSPost2010Prop31
280
     0
102
RTVSPost2010PropOp31
 70
     1
102
RTVSPost2010Prop32
280
     0
102
RTVSPost2010PropOp32
 70
     1
102
RTVSPost2010Prop33
280
     0
102
RTVSPost2010PropOp33
 70
     1
102
RTVSPost2010Prop34
280
     0
102
RTVSPost2010PropOp34
 70
     1
102
RTVSPost2010Prop35
280
     0
102
RTVSPost2010PropOp35
 70
     1
102
RTVSPost2010Prop36
280
     0
102
RTVSPost2010PropOp36
 70
     1
102
RTVSPost2010Prop37
 90
       50
102
RTVSPost2010PropOp37
 70
     1
102
RTVSPost2010Prop38
140
0.0
102
RTVSPost2010PropOp38
 70
     1
102
RTVSPost2010Prop39
140
1.0
102
RTVSPost2010PropOp39
 70
     1
102
RTVSPost2010Prop40
 90
        0
102
RTVSPost2010PropOp40
 70
     1
102
RTVSPost2010Prop41ColorIndex
 90
       18
102
RTVSPost2010Prop41ColorRGB
 90
        0
102
RTVSPost2010PropOp41
 70
     1
102
RTVSPost2010Prop42
 90
       50
102
RTVSPost2010PropOp42
 70
     1
102
RTVSPost2010Prop43
 90
        3
102
RTVSPost2010PropOp43
 70
     1
102
RTVSPost2010Prop44ColorIndex
 90
        5
102
RTVSPost2010Prop44ColorRGB
 90
      255
102
RTVSPost2010PropOp44
 70
     1
102
RTVSPost2010Prop45
280
     0
102
RTVSPost2010PropOp45
 70
     1
102
RTVSPost2010Prop46
 90
       50
102
RTVSPost2010PropOp46
 70
     1
102
RTVSPost2010Prop47
 90
       50
102
RTVSPost2010PropOp47
 70
     1
102
RTVSPost2010Prop48
 90
       50
102
RTVSPost2010PropOp48
 70
     1
102
RTVSPost2010Prop49
280
     0
102
RTVSPost2010PropOp49
 70
     1
102
RTVSPost2010Prop50
 90
       50
102
RTVSPost2010PropOp50
 70
     1
102
RTVSPost2010Prop51ColorIndex
 90
      256
102
RTVSPost2010Prop51ColorRGB
 90
-16777216
102
RTVSPost2010PropOp51
 70
     0
102
RTVSPost2010Prop52
140
1.0
102
RTVSPost2010PropOp52
 70
     0
102
RTVSPost2010Prop53
 90
        2
102
RTVSPost2010PropOp53
 70
     1
102
RTVSPost2010Prop54
  1
strokes_ogs.tif
102
RTVSPost2010PropOp54
 70
     1
102
RTVSPost2010Prop55
280
     0
102
RTVSPost2010PropOp55
 70
     1
102
RTVSPost2010Prop56
140
1.0
102
RTVSPost2010PropOp56
 70
     1
102
RTVSPost2010Prop57
140
1.0
102
RTVSPost2010PropOp57
 70
     1
  0
XRECORD
  5
4F4
102
{ACAD_REACTORS
330
4F3
102
}
330
4F3
100
AcDbXrecord
280
     1
102
RTVSPropertyOp0
 70
     1
102
RTVSPropertyOp1
 70
     1
102
RTVSPropertyOp2
 70
     1
102
RTVSPropertyOp3
 70
     1
102
RTVSPropertyOp4
 70
     1
102
RTVSPropertyOp5
 70
     1
102
RTVSPropertyOp6
 70
     1
102
RTVSPropertyOp7
 70
     1
102
RTVSPropertyOp8
 70
     1
102
RTVSPropertyOp9
 70
     1
102
RTVSPropertyOp10
 70
     1
102
RTVSPropertyOp11
 70
     1
102
RTVSPropertyOp12
 70
     1
102
RTVSPropertyOp13
 70
     1
102
RTVSPropertyOp14
 70
     1
102
RTVSPropertyOp15
 70
     1
102
RTVSPropertyOp16
 70
     1
102
RTVSPropertyOp17
 70
     1
102
RTVSPropertyOp18
 70
     1
102
RTVSPropertyOp19
 70
     1
102
RTVSPropertyOp20
 70
     1
102
RTVSPropertyOp21
 70
     1
102
RTVSPropertyOp22
 70
     1
102
RTVSPropertyOp23
 70
     1
102
RTVSPropertyOp24
 70
     1
102
RTVSPropertyOp25
 70
     1
102
RTVSPropertyOp26
 70
     1
102
RTVSPropertyOp27
 70
     1
102
RTVSPropertyOp28
 70
     1
102
RTVSPropertyOp29
 70
     1
102
RTVSPropertyOp30
 70
     1
102
RTVSPropertyOp31
 70
     1
102
RTVSPropertyOp32
 70
     1
102
RTVSPropertyOp33
 70
     1
102
RTVSPropertyOp34
 70
     1
102
RTVSPropertyOp35
 70
     1
102
RTVSPropertyOp36
 70
     1
102
RTVSPropertyOp37
 70
     1
102
RTVSPropertyOp38
 70
     1
102
RTVSPropertyOp39
 70
     1
102
RTVSPropertyOp40
 70
     1
102
RTVSPropertyOp41
 70
     1
102
RTVSPropertyOp42
 70
     1
102
RTVSPropertyOp43
 70
     1
102
RTVSPropertyOp44
 70
     1
102
RTVSPropertyOp45
 70
     1
102
RTVSPropertyOp46
 70
     1
102
RTVSPropertyOp47
 70
     1
102
RTVSPropertyOp48
 70
     1
102
RTVSPropertyOp49
 70
     1
102
RTVSPropertyOp50
 70
     1
102
RTVSPropertyOp51
 70
     0
102
RTVSPropertyOp52
 70
     0
102
RTVSPropertyOp53
 70
     1
102
RTVSPropertyOp54
 70
     1
102
RTVSPropertyOp55
 70
     1
102
RTVSPropertyOp56
 70
     1
102
RTVSPropertyOp57
 70
     1
102
RTVSPost2010Prop28
280
     0
102
RTVSPost2010PropOp28
 70
     1
102
RTVSPost2010Prop29
280
     1
102
RTVSPost2010PropOp29
 70
     1
102
RTVSPost2010Prop30
280
     1
102
RTVSPost2010PropOp30
 70
     1
102
RTVSPost2010Prop31
280
     0
102
RTVSPost2010PropOp31
 70
     1
102
RTVSPost2010Prop32
280
     0
102
RTVSPost2010PropOp32
 70
     1
102
RTVSPost2010Prop33
280
     0
102
RTVSPost2010PropOp33
 70
     1
102
RTVSPost2010Prop34
280
     0
102
RTVSPost2010PropOp34
 70
     1
102
RTVSPost2010Prop35
280
     0
102
RTVSPost2010PropOp35
 70
     1
102
RTVSPost2010Prop36
280
     0
102
RTVSPost2010PropOp36
 70
     1
102
RTVSPost2010Prop37
 90
       50
102
RTVSPost2010PropOp37
 70
     1
102
RTVSPost2010Prop38
140
0.0
102
RTVSPost2010PropOp38
 70
     1
102
RTVSPost2010Prop39
140
1.0
102
RTVSPost2010PropOp39
 70
     1
102
RTVSPost2010Prop40
 90
        0
102
RTVSPost2010PropOp40
 70
     1
102
RTVSPost2010Prop41ColorIndex
 90
       18
102
RTVSPost2010Prop41ColorRGB
 90
        0
102
RTVSPost2010PropOp41
 70
     1
102
RTVSPost2010Prop42
 90
       50
102
RTVSPost2010PropOp42
 70
     1
102
RTVSPost2010Prop43
 90
        3
102
RTVSPost2010PropOp43
 70
     1
102
RTVSPost2010Prop44ColorIndex
 90
        5
102
RTVSPost2010Prop44ColorRGB
 90
      255
102
RTVSPost2010PropOp44
 70
     1
102
RTVSPost2010Prop45
280
     0
102
RTVSPost2010PropOp45
 70
     1
102
RTVSPost2010Prop46
 90
       50
102
RTVSPost2010PropOp46
 70
     1
102
RTVSPost2010Prop47
 90
       50
102
RTVSPost2010PropOp47
 70
     1
102
RTVSPost2010Prop48
 90
       50
102
RTVSPost2010PropOp48
 70
     1
102
RTVSPost2010Prop49
280
     0
102
RTVSPost2010PropOp49
 70
     1
102
RTVSPost2010Prop50
 90
       50
102
RTVSPost2010PropOp50
 70
     1
102
RTVSPost2010Prop51ColorIndex
 90
      256
102
RTVSPost2010Prop51ColorRGB
 90
-16777216
102
RTVSPost2010PropOp51
 70
     0
102
RTVSPost2010Prop52
140
1.0
102
RTVSPost2010PropOp52
 70
     0
102
RTVSPost2010Prop53
 90
        2
102
RTVSPost2010PropOp53
 70
     1
102
RTVSPost2010Prop54
  1
strokes_ogs.tif
102
RTVSPost2010PropOp54
 70
     1
102
RTVSPost2010Prop55
280
     0
102
RTVSPost2010PropOp55
 70
     1
102
RTVSPost2010Prop56
140
1.0
102
RTVSPost2010PropOp56
 70
     1
102
RTVSPost2010Prop57
140
1.0
102
RTVSPost2010PropOp57
 70
     1
  0
XRECORD
  5
514
102
{ACAD_REACTORS
330
513
102
}
330
513
100
AcDbXrecord
280
     1
102
RTVSPropertyOp0
 70
     1
102
RTVSPropertyOp1
 70
     1
102
RTVSPropertyOp2
 70
     1
102
RTVSPropertyOp3
 70
     1
102
RTVSPropertyOp4
 70
     1
102
RTVSPropertyOp5
 70
     1
102
RTVSPropertyOp6
 70
     1
102
RTVSPropertyOp7
 70
     1
102
RTVSPropertyOp8
 70
     1
102
RTVSPropertyOp9
 70
     1
102
RTVSPropertyOp10
 70
     1
102
RTVSPropertyOp11
 70
     1
102
RTVSPropertyOp12
 70
     1
102
RTVSPropertyOp13
 70
     1
102
RTVSPropertyOp14
 70
     1
102
RTVSPropertyOp15
 70
     1
102
RTVSPropertyOp16
 70
     1
102
RTVSPropertyOp17
 70
     1
102
RTVSPropertyOp18
 70
     1
102
RTVSPropertyOp19
 70
     1
102
RTVSPropertyOp20
 70
     1
102
RTVSPropertyOp21
 70
     1
102
RTVSPropertyOp22
 70
     1
102
RTVSPropertyOp23
 70
     1
102
RTVSPropertyOp24
 70
     1
102
RTVSPropertyOp25
 70
     1
102
RTVSPropertyOp26
 70
     1
102
RTVSPropertyOp27
 70
     1
102
RTVSPropertyOp28
 70
     1
102
RTVSPropertyOp29
 70
     1
102
RTVSPropertyOp30
 70
     1
102
RTVSPropertyOp31
 70
     1
102
RTVSPropertyOp32
 70
     1
102
RTVSPropertyOp33
 70
     1
102
RTVSPropertyOp34
 70
     1
102
RTVSPropertyOp35
 70
     1
102
RTVSPropertyOp36
 70
     1
102
RTVSPropertyOp37
 70
     1
102
RTVSPropertyOp38
 70
     1
102
RTVSPropertyOp39
 70
     1
102
RTVSPropertyOp40
 70
     1
102
RTVSPropertyOp41
 70
     1
102
RTVSPropertyOp42
 70
     1
102
RTVSPropertyOp43
 70
     1
102
RTVSPropertyOp44
 70
     1
102
RTVSPropertyOp45
 70
     1
102
RTVSPropertyOp46
 70
     1
102
RTVSPropertyOp47
 70
     1
102
RTVSPropertyOp48
 70
     1
102
RTVSPropertyOp49
 70
     1
102
RTVSPropertyOp50
 70
     1
102
RTVSPropertyOp51
 70
     0
102
RTVSPropertyOp52
 70
     0
102
RTVSPropertyOp53
 70
     1
102
RTVSPropertyOp54
 70
     1
102
RTVSPropertyOp55
 70
     1
102
RTVSPropertyOp56
 70
     1
102
RTVSPropertyOp57
 70
     1
102
RTVSPost2010Prop28
280
     0
102
RTVSPost2010PropOp28
 70
     1
102
RTVSPost2010Prop29
280
     1
102
RTVSPost2010PropOp29
 70
     1
102
RTVSPost2010Prop30
280
     1
102
RTVSPost2010PropOp30
 70
     1
102
RTVSPost2010Prop31
280
     0
102
RTVSPost2010PropOp31
 70
     1
102
RTVSPost2010Prop32
280
     0
102
RTVSPost2010PropOp32
 70
     1
102
RTVSPost2010Prop33
280
     0
102
RTVSPost2010PropOp33
 70
     1
102
RTVSPost2010Prop34
280
     0
102
RTVSPost2010PropOp34
 70
     1
102
RTVSPost2010Prop35
280
     0
102
RTVSPost2010PropOp35
 70
     1
102
RTVSPost2010Prop36
280
     0
102
RTVSPost2010PropOp36
 70
     1
102
RTVSPost2010Prop37
 90
       50
102
RTVSPost2010PropOp37
 70
     1
102
RTVSPost2010Prop38
140
0.0
102
RTVSPost2010PropOp38
 70
     1
102
RTVSPost2010Prop39
140
1.0
102
RTVSPost2010PropOp39
 70
     1
102
RTVSPost2010Prop40
 90
        0
102
RTVSPost2010PropOp40
 70
     1
102
RTVSPost2010Prop41ColorIndex
 90
       18
102
RTVSPost2010Prop41ColorRGB
 90
        0
102
RTVSPost2010PropOp41
 70
     1
102
RTVSPost2010Prop42
 90
       50
102
RTVSPost2010PropOp42
 70
     1
102
RTVSPost2010Prop43
 90
        3
102
RTVSPost2010PropOp43
 70
     1
102
RTVSPost2010Prop44ColorIndex
 90
        5
102
RTVSPost2010Prop44ColorRGB
 90
      255
102
RTVSPost2010PropOp44
 70
     1
102
RTVSPost2010Prop45
280
     0
102
RTVSPost2010PropOp45
 70
     1
102
RTVSPost2010Prop46
 90
       50
102
RTVSPost2010PropOp46
 70
     1
102
RTVSPost2010Prop47
 90
       50
102
RTVSPost2010PropOp47
 70
     1
102
RTVSPost2010Prop48
 90
       50
102
RTVSPost2010PropOp48
 70
     1
102
RTVSPost2010Prop49
280
     0
102
RTVSPost2010PropOp49
 70
     1
102
RTVSPost2010Prop50
 90
       50
102
RTVSPost2010PropOp50
 70
     1
102
RTVSPost2010Prop51ColorIndex
 90
      256
102
RTVSPost2010Prop51ColorRGB
 90
-16777216
102
RTVSPost2010PropOp51
 70
     0
102
RTVSPost2010Prop52
140
1.0
102
RTVSPost2010PropOp52
 70
     0
102
RTVSPost2010Prop53
 90
        2
102
RTVSPost2010PropOp53
 70
     1
102
RTVSPost2010Prop54
  1
strokes_ogs.tif
102
RTVSPost2010PropOp54
 70
     1
102
RTVSPost2010Prop55
280
     0
102
RTVSPost2010PropOp55
 70
     1
102
RTVSPost2010Prop56
140
1.0
102
RTVSPost2010PropOp56
 70
     1
102
RTVSPost2010Prop57
140
1.0
102
RTVSPost2010PropOp57
 70
     1
  0
ENDSEC
  0
EOF
