  0
SECTION
  2
HEADER
  9
$ACADVER
  1
AC1015
  9
$ACADMAINTVER
 70
     6
  9
$DWGCODEPAGE
  3
ANSI_932
  9
$INSBASE
 10
2925.44401025168
 20
774.5461826135838
 30
0.0
  9
$EXTMIN
 10
224.9986081498259
 20
70.53149130824158
 30
0.0
  9
$EXTMAX
 10
2180.042735990135
 20
1813.924789604789
 30
0.0
  9
$LIMMIN
 10
0.0
 20
0.0
  9
$LIMMAX
 10
816.5000000000001
 20
565.0
  9
$ORTHOMODE
 70
     0
  9
$REGENMODE
 70
     1
  9
$FILLMODE
 70
     1
  9
$QTEXTMODE
 70
     0
  9
$MIRRTEXT
 70
     1
  9
$LTSCALE
 40
20.0
  9
$ATTMODE
 70
     1
  9
$TEXTSIZE
 40
21.0
  9
$TRACEWID
 40
0.05
  9
$TEXTSTYLE
  7
KANJI
  9
$CLAYER
  8
2
  9
$CELTYPE
  6
BYLAYER
  9
$CECOLOR
 62
   256
  9
$CELTSCALE
 40
1.0
  9
$DISPSILH
 70
     0
  9
$DIMSCALE
 40
7.0
  9
$DIMASZ
 40
2.0
  9
$DIMEXO
 40
0.5
  9
$DIMDLI
 40
0.0
  9
$DIMRND
 40
0.0
  9
$DIMDLE
 40
0.0
  9
$DIMEXE
 40
1.0
  9
$DIMTP
 40
0.0
  9
$DIMTM
 40
0.0
  9
$DIMTXT
 40
3.0
  9
$DIMCEN
 40
0.09
  9
$DIMTSZ
 40
0.0
  9
$DIMTOL
 70
     0
  9
$DIMLIM
 70
     0
  9
$DIMTIH
 70
     0
  9
$DIMTOH
 70
     0
  9
$DIMSE1
 70
     0
  9
$DIMSE2
 70
     0
  9
$DIMTAD
 70
     0
  9
$DIMZIN
 70
     8
  9
$DIMBLK
  1

  9
$DIMASO
 70
     0
  9
$DIMSHO
 70
     0
  9
$DIMPOST
  1

  9
$DIMAPOST
  1

  9
$DIMALT
 70
     0
  9
$DIMALTD
 70
     2
  9
$DIMALTF
 40
25.4
  9
$DIMLFAC
 40
1.0
  9
$DIMTOFL
 70
     1
  9
$DIMTVP
 40
1.0
  9
$DIMTIX
 70
     1
  9
$DIMSOXD
 70
     1
  9
$DIMSAH
 70
     0
  9
$DIMBLK1
  1

  9
$DIMBLK2
  1

  9
$DIMSTYLE
  2
STANDARD
  9
$DIMCLRD
 70
   256
  9
$DIMCLRE
 70
   256
  9
$DIMCLRT
 70
   256
  9
$DIMTFAC
 40
1.0
  9
$DIMGAP
 40
0.09
  9
$DIMJUST
 70
     0
  9
$DIMSD1
 70
     0
  9
$DIMSD2
 70
     0
  9
$DIMTOLJ
 70
     1
  9
$DIMTZIN
 70
     0
  9
$DIMALTZ
 70
     0
  9
$DIMALTTZ
 70
     0
  9
$DIMUPT
 70
     0
  9
$DIMDEC
 70
     1
  9
$DIMTDEC
 70
     4
  9
$DIMALTU
 70
     2
  9
$DIMALTTD
 70
     2
  9
$DIMTXSTY
  7
STANDARD
  9
$DIMAUNIT
 70
     0
  9
$DIMADEC
 70
     0
  9
$DIMALTRND
 40
0.0
  9
$DIMAZIN
 70
     0
  9
$DIMDSEP
 70
    46
  9
$DIMATFIT
 70
     3
  9
$DIMFRAC
 70
     0
  9
$DIMLDRBLK
  1

  9
$DIMLUNIT
 70
     2
  9
$DIMLWD
 70
    -2
  9
$DIMLWE
 70
    -2
  9
$DIMTMOVE
 70
     0
  9
$LUNITS
 70
     2
  9
$LUPREC
 70
     3
  9
$SKETCHINC
 40
0.1
  9
$FILLETRAD
 40
1.0
  9
$AUNITS
 70
     0
  9
$AUPREC
 70
     3
  9
$MENU
  1
C:\R13\WIN\SUPPORT\ACADFULL
  9
$ELEVATION
 40
0.0
  9
$PELEVATION
 40
0.0
  9
$THICKNESS
 40
0.0
  9
$LIMCHECK
 70
     0
  9
$CHAMFERA
 40
0.0
  9
$CHAMFERB
 40
0.0
  9
$CHAMFERC
 40
0.0
  9
$CHAMFERD
 40
0.0
  9
$SKPOLY
 70
     0
  9
$TDCREATE
 40
2457431.842175023
  9
$TDUCREATE
 40
2457431.467175023
  9
$TDUPDATE
 40
2457871.843983206
  9
$TDUUPDATE
 40
2457871.468983206
  9
$TDINDWG
 40
0.026301875
  9
$TDUSRTIMER
 40
0.0263013079
  9
$USRTIMER
 70
     1
  9
$ANGBASE
 50
0.0
  9
$ANGDIR
 70
     0
  9
$PDMODE
 70
     0
  9
$PDSIZE
 40
0.0
  9
$PLINEWID
 40
0.0
  9
$SPLFRAME
 70
     0
  9
$SPLINETYPE
 70
     6
  9
$SPLINESEGS
 70
     8
  9
$HANDSEED
  5
627
  9
$SURFTAB1
 70
     6
  9
$SURFTAB2
 70
     6
  9
$SURFTYPE
 70
     6
  9
$SURFU
 70
     6
  9
$SURFV
 70
     6
  9
$UCSBASE
  2

  9
$UCSNAME
  2

  9
$UCSORG
 10
0.0
 20
0.0
 30
0.0
  9
$UCSXDIR
 10
1.0
 20
0.0
 30
0.0
  9
$UCSYDIR
 10
0.0
 20
1.0
 30
0.0
  9
$UCSORTHOREF
  2

  9
$UCSORTHOVIEW
 70
     0
  9
$UCSORGTOP
 10
0.0
 20
0.0
 30
0.0
  9
$UCSORGBOTTOM
 10
0.0
 20
0.0
 30
0.0
  9
$UCSORGLEFT
 10
0.0
 20
0.0
 30
0.0
  9
$UCSORGRIGHT
 10
0.0
 20
0.0
 30
0.0
  9
$UCSORGFRONT
 10
0.0
 20
0.0
 30
0.0
  9
$UCSORGBACK
 10
0.0
 20
0.0
 30
0.0
  9
$PUCSBASE
  2

  9
$PUCSNAME
  2

  9
$PUCSORG
 10
0.0
 20
0.0
 30
0.0
  9
$PUCSXDIR
 10
1.0
 20
0.0
 30
0.0
  9
$PUCSYDIR
 10
0.0
 20
1.0
 30
0.0
  9
$PUCSORTHOREF
  2

  9
$PUCSORTHOVIEW
 70
     0
  9
$PUCSORGTOP
 10
0.0
 20
0.0
 30
0.0
  9
$PUCSORGBOTTOM
 10
0.0
 20
0.0
 30
0.0
  9
$PUCSORGLEFT
 10
0.0
 20
0.0
 30
0.0
  9
$PUCSORGRIGHT
 10
0.0
 20
0.0
 30
0.0
  9
$PUCSORGFRONT
 10
0.0
 20
0.0
 30
0.0
  9
$PUCSORGBACK
 10
0.0
 20
0.0
 30
0.0
  9
$USERI1
 70
     0
  9
$USERI2
 70
     0
  9
$USERI3
 70
     0
  9
$USERI4
 70
     0
  9
$USERI5
 70
     0
  9
$USERR1
 40
0.0
  9
$USERR2
 40
0.0
  9
$USERR3
 40
0.0
  9
$USERR4
 40
2448925.372986111
  9
$USERR5
 40
0.04166667
  9
$WORLDVIEW
 70
     1
  9
$SHADEDGE
 70
     3
  9
$SHADEDIF
 70
    70
  9
$TILEMODE
 70
     1
  9
$MAXACTVP
 70
    16
  9
$PINSBASE
 10
0.0
 20
0.0
 30
0.0
  9
$PLIMCHECK
 70
     0
  9
$PEXTMIN
 10
1.000000000000000E+20
 20
1.000000000000000E+20
 30
1.000000000000000E+20
  9
$PEXTMAX
 10
-1.000000000000000E+20
 20
-1.000000000000000E+20
 30
-1.000000000000000E+20
  9
$PLIMMIN
 10
0.0
 20
0.0
  9
$PLIMMAX
 10
12.0
 20
9.0
  9
$UNITMODE
 70
     0
  9
$VISRETAIN
 70
     0
  9
$PLINEGEN
 70
     0
  9
$PSLTSCALE
 70
     0
  9
$TREEDEPTH
 70
  3020
  9
$CMLSTYLE
  2
STANDARD
  9
$CMLJUST
 70
     0
  9
$CMLSCALE
 40
1.0
  9
$PROXYGRAPHICS
 70
     1
  9
$MEASUREMENT
 70
     0
  9
$CELWEIGHT
370
    -1
  9
$ENDCAPS
280
     0
  9
$JOINSTYLE
280
     0
  9
$LWDISPLAY
290
     0
  9
$INSUNITS
 70
     0
  9
$HYPERLINKBASE
  1

  9
$STYLESHEET
  1

  9
$XEDIT
290
     1
  9
$CEPSNTYPE
380
     0
  9
$PSTYLEMODE
290
     1
  9
$FINGERPRINTGUID
  2
{176DD0A4-1973-4263-9A71-0B74F89336CA}
  9
$VERSIONGUID
  2
{08DD4DBB-34D9-4A5D-AB8F-A097F5F9DDB8}
  9
$EXTNAMES
290
     1
  9
$PSVPSCALE
 40
0.0
  9
$OLESTARTUP
290
     0
  0
ENDSEC
  0
SECTION
  2
CLASSES
  0
CLASS
  1
ACDBDICTIONARYWDFLT
  2
AcDbDictionaryWithDefault
  3
ObjectDBX Classes
 90
        0
280
     0
281
     0
  0
CLASS
  1
MATERIAL
  2
AcDbMaterial
  3
ObjectDBX Classes
 90
     1153
280
     0
281
     0
  0
CLASS
  1
SORTENTSTABLE
  2
AcDbSortentsTable
  3
ObjectDBX Classes
 90
        0
280
     0
281
     0
  0
CLASS
  1
SCALE
  2
AcDbScale
  3
ObjectDBX Classes
 90
     1153
280
     0
281
     0
  0
CLASS
  1
DICTIONARYVAR
  2
AcDbDictionaryVar
  3
ObjectDBX Classes
 90
        0
280
     0
281
     0
  0
CLASS
  1
VISUALSTYLE
  2
AcDbVisualStyle
  3
ObjectDBX Classes
 90
     4095
280
     0
281
     0
  0
CLASS
  1
MLEADERSTYLE
  2
AcDbMLeaderStyle
  3
ACDB_MLEADERSTYLE_CLASS
 90
     4095
280
     0
281
     0
  0
CLASS
  1
TABLESTYLE
  2
AcDbTableStyle
  3
ObjectDBX Classes
 90
     4095
280
     0
281
     0
  0
CLASS
  1
ACDBPLACEHOLDER
  2
AcDbPlaceHolder
  3
ObjectDBX Classes
 90
        0
280
     0
281
     0
  0
CLASS
  1
LAYOUT
  2
AcDbLayout
  3
ObjectDBX Classes
 90
        0
280
     0
281
     0
  0
ENDSEC
  0
SECTION
  2
TABLES
  0
TABLE
  2
VPORT
  5
26
102
{ACAD_XDICTIONARY
360
5EC
102
}
330
0
100
AcDbSymbolTable
 70
     2
  0
VPORT
  5
2B
330
26
100
AcDbSymbolTableRecord
100
AcDbViewportTableRecord
  2
*ACTIVE
 70
     0
 10
0.0
 20
0.0
 11
1.0
 21
1.0
 12
1926.948768518578
 22
683.6666466625272
 13
0.0
 23
0.0
 14
1.0
 24
1.0
 15
50.0
 25
50.0
 16
0.0
 26
0.0
 36
1.0
 17
0.0
 27
0.0
 37
0.0
 40
2558.800454361008
 41
2.174107142857143
 42
50.0
 43
0.0
 44
0.0
 50
0.0
 51
0.0
 71
     0
 72
  5000
 73
     1
 74
     0
 75
     0
 76
     0
 77
     0
 78
     1
281
     0
 65
     1
110
0.0
120
0.0
130
0.0
111
1.0
121
0.0
131
0.0
112
0.0
122
1.0
132
0.0
 79
     0
146
0.0
  0
ENDTAB
  0
TABLE
  2
LTYPE
  5
B
330
0
100
AcDbSymbolTable
 70
     2
  0
LTYPE
  5
C
330
B
100
AcDbSymbolTableRecord
100
AcDbLinetypeTableRecord
  2
BYBLOCK
 70
     0
  3

 72
    65
 73
     0
 40
0.0
  0
LTYPE
  5
D
330
B
100
AcDbSymbolTableRecord
100
AcDbLinetypeTableRecord
  2
BYLAYER
 70
     0
  3

 72
    65
 73
     0
 40
0.0
  0
LTYPE
  5
A
330
B
100
AcDbSymbolTableRecord
100
AcDbLinetypeTableRecord
  2
CONTINUOUS
 70
     0
  3
Solid line
 72
    65
 73
     0
 40
0.0
  0
LTYPE
  5
78
330
B
100
AcDbSymbolTableRecord
100
AcDbLinetypeTableRecord
  2
CENTER
 70
     0
  3
____ _ ____ _ ____ _ ____ _ ____ _ ____ _ ____
 72
    65
 73
     4
 40
2.0
 49
1.25
 74
     0
 49
-0.25
 74
     0
 49
0.25
 74
     0
 49
-0.25
 74
     0
  0
ENDTAB
  0
TABLE
  2
LAYER
  5
2
330
0
100
AcDbSymbolTable
 70
     9
  0
LAYER
  5
1B
330
2
100
AcDbSymbolTableRecord
100
AcDbLayerTableRecord
  2
0
 70
     0
 62
     7
  6
CONTINUOUS
370
    -3
390
3
  0
LAYER
  5
46F
330
2
100
AcDbSymbolTableRecord
100
AcDbLayerTableRecord
  2
1
 70
     0
 62
     9
  6
CONTINUOUS
370
    -3
390
3
  0
LAYER
  5
1
330
2
100
AcDbSymbolTableRecord
100
AcDbLayerTableRecord
  2
2
 70
     0
 62
     4
  6
CONTINUOUS
370
    -3
390
3
  0
LAYER
  5
7F
330
2
100
AcDbSymbolTableRecord
100
AcDbLayerTableRecord
  2
4
 70
     0
 62
     3
  6
CONTINUOUS
370
    -3
390
3
  0
LAYER
  5
77
330
2
100
AcDbSymbolTableRecord
100
AcDbLayerTableRecord
  2
L-CENTER
 70
     0
 62
     1
  6
CENTER
370
    -3
390
3
  0
LAYER
  5
72
330
2
100
AcDbSymbolTableRecord
100
AcDbLayerTableRecord
  2
3
 70
     0
 62
     2
  6
CONTINUOUS
370
    -3
390
3
  0
LAYER
  5
468
330
2
100
AcDbSymbolTableRecord
100
AcDbLayerTableRecord
  2
5
 70
     0
 62
     6
  6
CONTINUOUS
370
    -3
390
3
  0
LAYER
  5
5D1
330
2
100
AcDbSymbolTableRecord
100
AcDbLayerTableRecord
  2
Defpoints
 70
     0
 62
     7
  6
CONTINUOUS
290
     0
370
    -3
390
3
  0
ENDTAB
  0
TABLE
  2
STYLE
  5
F
330
0
100
AcDbSymbolTable
 70
     2
  0
STYLE
  5
13
330
F
100
AcDbSymbolTableRecord
100
AcDbTextStyleTableRecord
  2
STANDARD
 70
     0
 40
0.0
 41
1.0
 50
0.0
 71
     0
 42
12.6
  3
TXT
  4

  0
STYLE
  5
E
330
F
100
AcDbSymbolTableRecord
100
AcDbTextStyleTableRecord
  2
KANJI
 70
     0
 40
0.0
 41
1.0
 50
0.0
 71
     0
 42
21.0
  3
TXT
  4
BIGFONT
  0
ENDTAB
  0
TABLE
  2
VIEW
  5
24
330
0
100
AcDbSymbolTable
 70
     0
  0
ENDTAB
  0
TABLE
  2
UCS
  5
25
330
0
100
AcDbSymbolTable
 70
     0
  0
ENDTAB
  0
TABLE
  2
APPID
  5
9
330
0
100
AcDbSymbolTable
 70
     5
  0
APPID
  5
8
330
9
100
AcDbSymbolTableRecord
100
AcDbRegAppTableRecord
  2
ACAD
 70
     0
  0
APPID
  5
1F
330
9
100
AcDbSymbolTableRecord
100
AcDbRegAppTableRecord
  2
ACAD_PSEXT
 70
     0
  0
APPID
  5
5AA
330
9
100
AcDbSymbolTableRecord
100
AcDbRegAppTableRecord
  2
ACAD_MLEADERVER
 70
     0
  0
ENDTAB
  0
TABLE
  2
DIMSTYLE
  5
12
330
0
100
AcDbSymbolTable
 70
     1
100
AcDbDimStyleTable
  0
DIMSTYLE
105
11
330
12
100
AcDbSymbolTableRecord
100
AcDbDimStyleTableRecord
  2
STANDARD
 70
     0
178
     0
340
13
  0
ENDTAB
  0
TABLE
  2
BLOCK_RECORD
  5
16
330
0
100
AcDbSymbolTable
 70
     0
  0
BLOCK_RECORD
  5
17
102
{ACAD_XDICTIONARY
360
18
102
}
330
16
100
AcDbSymbolTableRecord
100
AcDbBlockTableRecord
  2
*MODEL_SPACE
340
1D
  0
BLOCK_RECORD
  5
20
330
16
100
AcDbSymbolTableRecord
100
AcDbBlockTableRecord
  2
*PAPER_SPACE
340
23
  0
ENDTAB
  0
ENDSEC
  0
SECTION
  2
BLOCKS
  0
BLOCK
  5
1A
330
17
100
AcDbEntity
  8
0
100
AcDbBlockBegin
  2
*MODEL_SPACE
 70
     0
 10
0.0
 20
0.0
 30
0.0
  3
*MODEL_SPACE
  1

  0
ENDBLK
  5
1C
330
17
100
AcDbEntity
  8
0
100
AcDbBlockEnd
  0
BLOCK
  5
21
330
20
100
AcDbEntity
 67
     1
  8
0
100
AcDbBlockBegin
  2
*PAPER_SPACE
 70
     0
 10
0.0
 20
0.0
 30
0.0
  3
*PAPER_SPACE
  1

  0
ENDBLK
  5
22
330
20
100
AcDbEntity
 67
     1
  8
0
100
AcDbBlockEnd
  0
ENDSEC
  0
SECTION
  2
ENTITIES
  0
TEXT
  5
71
330
17
100
AcDbEntity
  8
3
100
AcDbText
 10
1211.153424318944
 20
72.76163324511333
 30
0.0
 40
19.67512676884769
  1
LC10-04
  7
KANJI
100
AcDbText
  0
CIRCLE
  5
76
330
17
100
AcDbEntity
  8
L-CENTER
 48
2.0
100
AcDbCircle
 10
1571.340198907279
 20
320.5314912387817
 30
0.0
 40
97.5
  0
LINE
  5
79
330
17
100
AcDbEntity
  8
L-CENTER
 48
2.0
100
AcDbLine
 10
1469.275539471887
 20
261.6047495006035
 30
0.0
 11
1504.529663277176
 21
281.9586509696931
 31
0.0
  0
LINE
  5
7A
330
17
100
AcDbEntity
  8
L-CENTER
 48
2.0
100
AcDbLine
 10
1504.529892907278
 20
359.1047292387825
 30
0.0
 11
1469.275799668705
 21
379.4586836510857
 31
0.0
  0
LINE
  5
7B
330
17
100
AcDbEntity
  8
L-CENTER
 48
2.0
100
AcDbLine
 10
1638.150779356058
 20
281.9587285983907
 30
0.0
 11
1673.40488931514
 21
261.6048031468938
 31
0.0
  0
LINE
  5
7C
330
17
100
AcDbEntity
  8
L-CENTER
 48
2.0
100
AcDbLine
 10
1673.404587354394
 20
379.4587023420593
 30
0.0
 11
1638.150460215019
 21
359.1048066477977
 31
0.0
  0
LINE
  5
7D
330
17
100
AcDbEntity
  8
L-CENTER
 48
2.0
100
AcDbLine
 10
1866.340198818188
 20
689.4262263020414
 30
0.0
 11
1866.340198818188
 21
119.5872227314451
 31
0.0
  0
ARC
  5
7E
330
17
100
AcDbEntity
  8
4
100
AcDbCircle
 10
1866.340198818188
 20
542.5314911505975
 30
0.0
 40
11.999999996376
100
AcDbArc
 50
180.0
 51
0.0
  0
LINE
  5
80
330
17
100
AcDbEntity
  8
4
100
AcDbLine
 10
1854.340198821812
 20
680.5314910989555
 30
0.0
 11
1854.340198821812
 21
542.5314911505975
 31
0.0
  0
LINE
  5
81
330
17
100
AcDbEntity
  8
4
100
AcDbLine
 10
1878.340198814565
 20
542.5314911505975
 30
0.0
 11
1878.340198814565
 21
680.5314910989555
 31
0.0
  0
LINE
  5
82
330
17
100
AcDbEntity
  8
4
100
AcDbLine
 10
641.5015376015062
 20
511.8314911810996
 30
0.0
 11
641.5015376015062
 21
520.5314911602613
 31
0.0
  0
LINE
  5
83
330
17
100
AcDbEntity
  8
4
100
AcDbLine
 10
736.5015375728162
 20
511.8314911810996
 30
0.0
 11
736.5015375728162
 21
520.5314911602613
 31
0.0
  0
LINE
  5
84
330
17
100
AcDbEntity
  8
4
100
AcDbLine
 10
736.5015375728162
 20
520.5314911602613
 30
0.0
 11
697.0015375871608
 21
520.5314911602616
 31
0.0
  0
LINE
  5
85
330
17
100
AcDbEntity
  8
4
100
AcDbLine
 10
1821.340198831325
 20
680.531491098955
 30
0.0
 11
1819.840198831778
 21
679.0314910994089
 31
0.0
  0
LINE
  5
86
330
17
100
AcDbEntity
  8
4
100
AcDbLine
 10
1819.840198831778
 20
679.0314910994089
 30
0.0
 11
1819.840198831778
 21
520.5314911602613
 31
0.0
  0
LINE
  5
87
330
17
100
AcDbEntity
  8
4
100
AcDbLine
 10
1911.340198805051
 20
680.531491098955
 30
0.0
 11
1912.840198804598
 21
679.0314910994089
 31
0.0
  0
LINE
  5
88
330
17
100
AcDbEntity
  8
4
100
AcDbLine
 10
1911.340198805051
 20
680.531491098955
 30
0.0
 11
1821.340198831325
 21
680.531491098955
 31
0.0
  0
LINE
  5
89
330
17
100
AcDbEntity
  8
4
100
AcDbLine
 10
1912.840198804598
 20
679.0314910994089
 30
0.0
 11
1912.840198804598
 21
520.5314911602613
 31
0.0
  0
LINE
  5
8A
330
17
100
AcDbEntity
  8
4
100
AcDbLine
 10
1912.840198804598
 20
679.0314910994089
 30
0.0
 11
1878.340198814565
 21
679.0314910994084
 31
0.0
  0
LINE
  5
8B
330
17
100
AcDbEntity
  8
4
100
AcDbLine
 10
1913.840198803844
 20
520.5314911602613
 30
0.0
 11
1818.840198832533
 21
520.5314911602613
 31
0.0
  0
LINE
  5
8C
330
17
100
AcDbEntity
  8
4
100
AcDbLine
 10
1913.840198803844
 20
511.8314911810996
 30
0.0
 11
1913.840198803844
 21
520.5314911602613
 31
0.0
  0
LINE
  5
8D
330
17
100
AcDbEntity
  8
4
100
AcDbLine
 10
1818.840198832533
 20
511.8314911810996
 30
0.0
 11
1818.840198832533
 21
520.5314911602613
 31
0.0
  0
LINE
  5
8E
330
17
100
AcDbEntity
  8
L-CENTER
 48
2.0
100
AcDbLine
 10
224.9986081498259
 20
320.5314912387817
 30
0.0
 11
1153.004467024497
 21
320.5314912387817
 31
0.0
  0
LINE
  5
8F
330
17
100
AcDbEntity
  8
L-CENTER
 48
2.0
100
AcDbLine
 10
1435.546494722936
 20
320.5314912387817
 30
0.0
 11
2169.043303254282
 21
320.5314912387817
 31
0.0
  0
LINE
  5
90
330
17
100
AcDbEntity
  8
4
100
AcDbLine
 10
1562.340198909996
 20
358.0314912274566
 30
0.0
 11
1580.34019890456
 21
358.0314912274566
 31
0.0
  0
LINE
  5
91
330
17
100
AcDbEntity
  8
4
100
AcDbLine
 10
1562.340198909996
 20
358.0314912274566
 30
0.0
 11
1562.340198909996
 21
346.0314912310805
 31
0.0
  0
LINE
  5
92
330
17
100
AcDbEntity
  8
4
100
AcDbLine
 10
1580.34019890456
 20
358.0314912274566
 30
0.0
 11
1580.34019890456
 21
346.0314912310805
 31
0.0
  0
LINE
  5
93
330
17
100
AcDbEntity
  8
4
100
AcDbLine
 10
1580.34019890456
 20
346.0314912310805
 30
0.0
 11
1562.340198909996
 21
346.0314912310805
 31
0.0
  0
ARC
  5
94
330
17
100
AcDbEntity
  8
4
100
AcDbCircle
 10
1571.340198907279
 20
320.5314912387817
 30
0.0
 40
31.50009153978275
100
AcDbArc
 50
106.6015010000008
 51
73.39849900000095
  0
LINE
  5
95
330
17
100
AcDbEntity
  8
4
100
AcDbLine
 10
829.0015375448811
 20
132.5314912961612
 30
0.0
 11
829.0015375448811
 21
90.53149130824158
 31
0.0
  0
LINE
  5
96
330
17
100
AcDbEntity
  8
4
100
AcDbLine
 10
829.0015375448811
 20
90.53149130824158
 30
0.0
 11
1029.001537484481
 21
90.53149130824158
 31
0.0
  0
ARC
  5
97
330
17
100
AcDbEntity
  8
4
100
AcDbCircle
 10
1026.001537485387
 20
129.5314912970675
 30
0.0
 40
2.999999999094
100
AcDbArc
 50
0.0
 51
90.0
  0
LINE
  5
98
330
17
100
AcDbEntity
  8
4
100
AcDbLine
 10
1026.001537485387
 20
132.5314912961617
 30
0.0
 11
829.0015375448811
 21
132.5314912961617
 31
0.0
  0
LINE
  5
99
330
17
100
AcDbEntity
  8
4
100
AcDbLine
 10
1029.001537484481
 20
129.5314912970675
 30
0.0
 11
1029.001537484481
 21
90.53149130824158
 31
0.0
  0
LINE
  5
9A
330
17
100
AcDbEntity
  8
4
100
AcDbLine
 10
689.0015375871612
 20
130.5314912961617
 30
0.0
 11
797.0015375545449
 21
130.5314912961617
 31
0.0
  0
LINE
  5
9B
330
17
100
AcDbEntity
  8
4
100
AcDbLine
 10
803.0015375527332
 20
136.5314912943495
 30
0.0
 11
797.0015375545449
 21
130.5314912961617
 31
0.0
  0
LINE
  5
9C
330
17
100
AcDbEntity
  8
4
100
AcDbLine
 10
788.001537557263
 20
156.5314912883096
 30
0.0
 11
829.0015375448811
 21
115.5314913006914
 31
0.0
  0
LINE
  5
9D
330
17
100
AcDbEntity
  8
4
100
AcDbLine
 10
761.001537565417
 20
136.5314912943495
 30
0.0
 11
781.0015375593771
 21
156.5314912883096
 31
0.0
  0
LINE
  5
9E
330
17
100
AcDbEntity
  8
4
100
AcDbLine
 10
808.001537551223
 20
136.5314912943495
 30
0.0
 11
761.001537565417
 21
136.5314912943495
 31
0.0
  0
LINE
  5
9F
330
17
100
AcDbEntity
  8
4
100
AcDbLine
 10
788.001537557263
 20
156.5314912883096
 30
0.0
 11
689.0015375871612
 21
156.5314912883096
 31
0.0
  0
LINE
  5
A0
330
17
100
AcDbEntity
  8
L-CENTER
 48
2.0
100
AcDbLine
 10
979.0015374995814
 20
70.53149130824158
 30
0.0
 11
979.0015374995814
 21
152.5314912961617
 31
0.0
  0
LINE
  5
A1
330
17
100
AcDbEntity
  8
4
100
AcDbLine
 10
981.0015374989775
 20
435.0314912042027
 30
0.0
 11
981.0015374989775
 21
206.0314912733606
 31
0.0
  0
LINE
  5
A2
330
17
100
AcDbEntity
  8
4
100
AcDbLine
 10
981.3015374989768
 20
435.0314912042027
 30
0.0
 11
981.3015374989768
 21
206.0314912733606
 31
0.0
  0
LINE
  5
A3
330
17
100
AcDbEntity
  8
4
100
AcDbLine
 10
976.0015375004873
 20
435.0314912042027
 30
0.0
 11
976.0015375004873
 21
206.0314912733606
 31
0.0
  0
LINE
  5
A4
330
17
100
AcDbEntity
  8
4
100
AcDbLine
 10
982.5015374985246
 20
436.5314912037493
 30
0.0
 11
982.5015374985246
 21
439.5314912028434
 31
0.0
  0
LINE
  5
A5
330
17
100
AcDbEntity
  8
4
100
AcDbLine
 10
985.5015374976178
 20
435.0314912042027
 30
0.0
 11
985.5015374976178
 21
436.5314912037493
 31
0.0
  0
LINE
  5
A6
330
17
100
AcDbEntity
  8
4
100
AcDbLine
 10
689.0015375871612
 20
206.0314912733606
 30
0.0
 11
1000.301537492937
 21
206.0314912733606
 31
0.0
  0
LINE
  5
A7
330
17
100
AcDbEntity
  8
4
100
AcDbLine
 10
1001.301537492937
 20
434.0314912042027
 30
0.0
 11
1001.301537492937
 21
207.0314912733606
 31
0.0
  0
LINE
  5
A8
330
17
100
AcDbEntity
  8
4
100
AcDbLine
 10
1002.301537492635
 20
358.3314912387823
 30
0.0
 11
1002.301537492635
 21
282.731491238781
 31
0.0
  0
LINE
  5
A9
330
17
100
AcDbEntity
  8
4
100
AcDbLine
 10
985.5015374976178
 20
173.2341965217247
 30
0.0
 11
985.5015374976178
 21
206.0314912733606
 31
0.0
  0
LINE
  5
AA
330
17
100
AcDbEntity
  8
4
100
AcDbLine
 10
966.565976107137
 20
206.0314912733611
 30
0.0
 11
1009.001298053901
 21
132.5314912961617
 31
0.0
  0
LINE
  5
AB
330
17
100
AcDbEntity
  8
4
100
AcDbLine
 10
411.4371061094389
 20
206.0314912733606
 30
0.0
 11
369.0017841626741
 21
132.5314912961617
 31
0.0
  0
LINE
  5
AC
330
17
100
AcDbEntity
  8
4
100
AcDbLine
 10
392.5015376767042
 20
173.2341843242057
 30
0.0
 11
392.5015376767042
 21
206.0314912733606
 31
0.0
  0
LINE
  5
AD
330
17
100
AcDbEntity
  8
4
100
AcDbLine
 10
376.7015376813852
 20
434.0314912042027
 30
0.0
 11
376.7015376813852
 21
207.0314912733606
 31
0.0
  0
LINE
  5
AE
330
17
100
AcDbEntity
  8
4
100
AcDbLine
 10
689.0015375871612
 20
206.0314912733606
 30
0.0
 11
377.7015376813852
 21
206.0314912733606
 31
0.0
  0
LINE
  5
AF
330
17
100
AcDbEntity
  8
4
100
AcDbLine
 10
1000.301537492937
 20
435.0314912042027
 30
0.0
 11
377.7015376813852
 21
435.0314912042027
 31
0.0
  0
LINE
  5
B0
330
17
100
AcDbEntity
  8
4
100
AcDbLine
 10
392.5015376767042
 20
435.0314912042027
 30
0.0
 11
392.5015376767042
 21
436.5314912037493
 31
0.0
  0
LINE
  5
B1
330
17
100
AcDbEntity
  8
4
100
AcDbLine
 10
395.5015376757983
 20
436.5314912037493
 30
0.0
 11
395.5015376757983
 21
439.5314912028434
 31
0.0
  0
LINE
  5
B2
330
17
100
AcDbEntity
  8
4
100
AcDbLine
 10
392.5015376767042
 20
436.5314912037493
 30
0.0
 11
985.5015374976188
 21
436.5314912037493
 31
0.0
  0
LINE
  5
B3
330
17
100
AcDbEntity
  8
4
100
AcDbLine
 10
689.0015375871612
 20
439.5314912028434
 30
0.0
 11
395.5015376757983
 21
439.5314912028434
 31
0.0
  0
LINE
  5
B4
330
17
100
AcDbEntity
  8
4
100
AcDbLine
 10
402.0015376738352
 20
435.0314912042027
 30
0.0
 11
402.0015376738352
 21
206.0314912733606
 31
0.0
  0
LINE
  5
B5
330
17
100
AcDbEntity
  8
4
100
AcDbLine
 10
397.0015376753449
 20
435.0314912042027
 30
0.0
 11
397.0015376753449
 21
206.0314912733606
 31
0.0
  0
LINE
  5
B6
330
17
100
AcDbEntity
  8
4
100
AcDbLine
 10
396.7015376753452
 20
435.0314912042027
 30
0.0
 11
396.7015376753452
 21
206.0314912733606
 31
0.0
  0
LINE
  5
B7
330
17
100
AcDbEntity
  8
L-CENTER
 48
2.0
100
AcDbLine
 10
399.001537674741
 20
70.53149130824158
 30
0.0
 11
399.001537674741
 21
152.5314912961617
 31
0.0
  0
LINE
  5
B8
330
17
100
AcDbEntity
  8
4
100
AcDbLine
 10
590.0015376170591
 20
156.5314912883096
 30
0.0
 11
689.0015375871612
 21
156.5314912883096
 31
0.0
  0
LINE
  5
B9
330
17
100
AcDbEntity
  8
4
100
AcDbLine
 10
570.001537623099
 20
136.5314912943495
 30
0.0
 11
617.0015376089054
 21
136.5314912943495
 31
0.0
  0
LINE
  5
BA
330
17
100
AcDbEntity
  8
4
100
AcDbLine
 10
617.0015376089054
 20
136.5314912943495
 30
0.0
 11
597.0015376149449
 21
156.5314912883096
 31
0.0
  0
LINE
  5
BB
330
17
100
AcDbEntity
  8
4
100
AcDbLine
 10
590.0015376170591
 20
156.5314912883096
 30
0.0
 11
549.0015376294409
 21
115.5314913006914
 31
0.0
  0
LINE
  5
BC
330
17
100
AcDbEntity
  8
4
100
AcDbLine
 10
575.0015376215893
 20
136.5314912943495
 30
0.0
 11
581.0015376197771
 21
130.5314912961617
 31
0.0
  0
LINE
  5
BD
330
17
100
AcDbEntity
  8
4
100
AcDbLine
 10
689.0015375871612
 20
130.5314912961617
 30
0.0
 11
581.0015376197771
 21
130.5314912961617
 31
0.0
  0
LINE
  5
BE
330
17
100
AcDbEntity
  8
4
100
AcDbLine
 10
349.0015376898414
 20
129.5314912970675
 30
0.0
 11
349.0015376898414
 21
90.53149130824158
 31
0.0
  0
LINE
  5
BF
330
17
100
AcDbEntity
  8
4
100
AcDbLine
 10
352.0015376889351
 20
132.5314912961617
 30
0.0
 11
549.0015376294409
 21
132.5314912961617
 31
0.0
  0
ARC
  5
C0
330
17
100
AcDbEntity
  8
4
100
AcDbCircle
 10
352.0015376889351
 20
129.5314912970675
 30
0.0
 40
2.999999999094
100
AcDbArc
 50
90.0
 51
180.0
  0
LINE
  5
C1
330
17
100
AcDbEntity
  8
4
100
AcDbLine
 10
549.0015376294409
 20
90.53149130824158
 30
0.0
 11
349.0015376898414
 21
90.53149130824158
 31
0.0
  0
LINE
  5
C2
330
17
100
AcDbEntity
  8
4
100
AcDbLine
 10
549.0015376294409
 20
132.5314912961617
 30
0.0
 11
549.0015376294409
 21
90.53149130824158
 31
0.0
  0
LINE
  5
C3
330
17
100
AcDbEntity
  8
4
100
AcDbLine
 10
681.0015375871608
 20
510.8314911814016
 30
0.0
 11
581.0015376197771
 21
510.8314911814016
 31
0.0
  0
LINE
  5
C4
330
17
100
AcDbEntity
  8
4
100
AcDbLine
 10
681.0015375871608
 20
511.8314911810994
 30
0.0
 11
629.0015376052811
 21
511.8314911810996
 31
0.0
  0
LINE
  5
C5
330
17
100
AcDbEntity
  8
4
100
AcDbLine
 10
697.0015375871608
 20
510.8314911814016
 30
0.0
 11
797.0015375545449
 21
510.8314911814016
 31
0.0
  0
LINE
  5
C6
330
17
100
AcDbEntity
  8
4
100
AcDbLine
 10
697.0015375871608
 20
511.8314911810994
 30
0.0
 11
749.0015375690414
 21
511.8314911810996
 31
0.0
  0
LINE
  5
C7
330
17
100
AcDbEntity
  8
L-CENTER
 48
2.0
100
AcDbLine
 10
484.001537649071
 20
497.649385266119
 30
0.0
 11
484.001537649071
 21
449.655470073116
 31
0.0
  0
LINE
  5
C8
330
17
100
AcDbEntity
  8
4
100
AcDbLine
 10
462.0015376557153
 20
480.8314911904611
 30
0.0
 11
462.0015376557153
 21
478.8314911910654
 31
0.0
  0
LINE
  5
C9
330
17
100
AcDbEntity
  8
4
100
AcDbLine
 10
461.0015376560173
 20
480.8314911904611
 30
0.0
 11
461.0015376560173
 21
489.8314911877435
 31
0.0
  0
LINE
  5
CA
330
17
100
AcDbEntity
  8
4
100
AcDbLine
 10
462.0015376557153
 20
478.8314911910654
 30
0.0
 11
506.0015376424267
 21
478.8314911910654
 31
0.0
  0
LINE
  5
CB
330
17
100
AcDbEntity
  8
4
100
AcDbLine
 10
461.0015376560173
 20
480.8314911904611
 30
0.0
 11
507.0015376421252
 21
480.8314911904611
 31
0.0
  0
LINE
  5
CC
330
17
100
AcDbEntity
  8
4
100
AcDbLine
 10
461.0015376560173
 20
484.8314911892533
 30
0.0
 11
507.0015376421252
 21
484.8314911892533
 31
0.0
  0
LINE
  5
CD
330
17
100
AcDbEntity
  8
4
100
AcDbLine
 10
461.0015376560173
 20
489.8314911877435
 30
0.0
 11
507.0015376421252
 21
489.8314911877435
 31
0.0
  0
LINE
  5
CE
330
17
100
AcDbEntity
  8
4
100
AcDbLine
 10
506.0015376424267
 20
480.8314911904611
 30
0.0
 11
506.0015376424267
 21
478.8314911910654
 31
0.0
  0
LINE
  5
CF
330
17
100
AcDbEntity
  8
4
100
AcDbLine
 10
507.0015376421252
 20
480.8314911904611
 30
0.0
 11
507.0015376421252
 21
489.8314911877435
 31
0.0
  0
LINE
  5
D0
330
17
100
AcDbEntity
  8
4
100
AcDbLine
 10
472.5015376525439
 20
484.8314911892533
 30
0.0
 11
472.5015376525439
 21
489.8314911877435
 31
0.0
  0
LINE
  5
D1
330
17
100
AcDbEntity
  8
4
100
AcDbLine
 10
495.5015376455981
 20
484.8314911892533
 30
0.0
 11
495.5015376455981
 21
489.8314911877435
 31
0.0
  0
LINE
  5
D2
330
17
100
AcDbEntity
  8
4
100
AcDbLine
 10
714.0015375796111
 20
468.6784137293428
 30
0.0
 11
714.0015375796111
 21
476.8314911889513
 31
0.0
  0
LINE
  5
D3
330
17
100
AcDbEntity
  8
4
100
AcDbLine
 10
664.001537594711
 20
469.1076179545655
 30
0.0
 11
664.001537594711
 21
476.8314911889513
 31
0.0
  0
ARC
  5
D4
330
17
100
AcDbEntity
  8
4
100
AcDbCircle
 10
689.0015375871612
 20
537.2150404692081
 30
0.0
 40
70.0000704013952
100
AcDbArc
 50
249.075817
 51
290.9260769999999
  0
LINE
  5
D5
330
17
100
AcDbEntity
  8
4
100
AcDbLine
 10
672.4246145102725
 20
484.8314911892535
 30
0.0
 11
574.0015376218912
 21
484.8314911892533
 31
0.0
  0
LINE
  5
D6
330
17
100
AcDbEntity
  8
4
100
AcDbLine
 10
705.5784606640491
 20
484.8314911892533
 30
0.0
 11
804.0015375524313
 21
484.8314911892533
 31
0.0
  0
LINE
  5
D7
330
17
100
AcDbEntity
  8
4
100
AcDbLine
 10
664.001537594711
 20
476.8314911889513
 30
0.0
 11
714.0015375796111
 21
476.8314911889513
 31
0.0
  0
LINE
  5
D8
330
17
100
AcDbEntity
  8
4
100
AcDbLine
 10
459.0015376566212
 20
478.8314911910654
 30
0.0
 11
509.0015376415208
 21
478.8314911910654
 31
0.0
  0
LINE
  5
D9
330
17
100
AcDbEntity
  8
4
100
AcDbLine
 10
459.0015376566212
 20
478.8314911910654
 30
0.0
 11
459.0015376566212
 21
468.5688010533197
 31
0.0
  0
LINE
  5
DA
330
17
100
AcDbEntity
  8
4
100
AcDbLine
 10
509.0015376415208
 20
478.8314911910654
 30
0.0
 11
509.0015376415208
 21
475.6395968258323
 31
0.0
  0
LINE
  5
DB
330
17
100
AcDbEntity
  8
4
100
AcDbLine
 10
631.5015376045262
 20
466.8314911946893
 30
0.0
 11
616.0015376092074
 21
484.8314911892533
 31
0.0
  0
LINE
  5
DC
330
17
100
AcDbEntity
  8
4
100
AcDbLine
 10
746.5015375697963
 20
466.8314911946893
 30
0.0
 11
762.0015375651151
 21
484.8314911892533
 31
0.0
  0
LINE
  5
DD
330
17
100
AcDbEntity
  8
4
100
AcDbLine
 10
574.0015376218912
 20
484.8314911892533
 30
0.0
 11
581.0015376197771
 21
510.8314911814016
 31
0.0
  0
LINE
  5
DE
330
17
100
AcDbEntity
  8
4
100
AcDbLine
 10
446.7158968152612
 20
466.8314911946893
 30
0.0
 11
574.0015376218912
 21
484.8314911892533
 31
0.0
  0
LINE
  5
DF
330
17
100
AcDbEntity
  8
4
100
AcDbLine
 10
982.5015374985246
 20
439.5314912028434
 30
0.0
 11
395.5015376757983
 21
439.5314912028434
 31
0.0
  0
LINE
  5
E0
330
17
100
AcDbEntity
  8
4
100
AcDbLine
 10
982.5015374985246
 20
439.8314912028434
 30
0.0
 11
395.5015376757983
 21
439.8314912028434
 31
0.0
  0
ARC
  5
E1
330
17
100
AcDbEntity
  8
4
100
AcDbCircle
 10
396.5015376754959
 20
465.8314911949913
 30
0.0
 40
0.999999999698
100
AcDbArc
 50
90.0
 51
180.0
  0
LINE
  5
E2
330
17
100
AcDbEntity
  8
4
100
AcDbLine
 10
396.5015376754959
 20
466.8314911946893
 30
0.0
 11
689.0015375871612
 21
466.8314911946893
 31
0.0
  0
LINE
  5
E3
330
17
100
AcDbEntity
  8
4
100
AcDbLine
 10
395.5015376757983
 20
465.8314911949913
 30
0.0
 11
395.5015376757983
 21
439.5314912028434
 31
0.0
  0
LINE
  5
E4
330
17
100
AcDbEntity
  8
4
100
AcDbLine
 10
629.0015376052811
 20
510.8314911814016
 30
0.0
 11
629.0015376052811
 21
511.8314911810996
 31
0.0
  0
LINE
  5
E5
330
17
100
AcDbEntity
  8
4
100
AcDbLine
 10
749.0015375690414
 20
510.8314911814016
 30
0.0
 11
749.0015375690414
 21
511.8314911810996
 31
0.0
  0
LINE
  5
E6
330
17
100
AcDbEntity
  8
4
100
AcDbLine
 10
982.5015374985246
 20
465.8314911949913
 30
0.0
 11
982.5015374985246
 21
439.5314912028434
 31
0.0
  0
LINE
  5
E7
330
17
100
AcDbEntity
  8
4
100
AcDbLine
 10
981.5015374988266
 20
466.8314911946893
 30
0.0
 11
689.0015375871612
 21
466.8314911946893
 31
0.0
  0
ARC
  5
E8
330
17
100
AcDbEntity
  8
4
100
AcDbCircle
 10
981.5015374988266
 20
465.8314911949913
 30
0.0
 40
0.999999999698
100
AcDbArc
 50
0.0
 51
90.0
  0
LINE
  5
E9
330
17
100
AcDbEntity
  8
4
100
AcDbLine
 10
931.2871854013147
 20
466.8314911946893
 30
0.0
 11
804.0015375524313
 21
484.8314911892533
 31
0.0
  0
LINE
  5
EA
330
17
100
AcDbEntity
  8
4
100
AcDbLine
 10
804.0015375524313
 20
484.8314911892533
 30
0.0
 11
797.0015375545449
 21
510.8314911814016
 31
0.0
  0
LINE
  5
EB
330
17
100
AcDbEntity
  8
4
100
AcDbLine
 10
967.0015375032049
 20
132.5314912961612
 30
0.0
 11
967.0015375032049
 21
90.53149130824158
 31
0.0
  0
LINE
  5
EC
330
17
100
AcDbEntity
  8
4
100
AcDbLine
 10
991.0015374959571
 20
132.5314912961612
 30
0.0
 11
991.0015374959571
 21
90.53149130824158
 31
0.0
  0
LINE
  5
ED
330
17
100
AcDbEntity
  8
4
100
AcDbLine
 10
1002.301537492635
 20
288.0314912485965
 30
0.0
 11
1019.001537487502
 21
288.0314912485965
 31
0.0
  0
LINE
  5
EE
330
17
100
AcDbEntity
  8
4
100
AcDbLine
 10
1002.301537492635
 20
353.0314912289664
 30
0.0
 11
1019.001537487502
 21
353.0314912289664
 31
0.0
  0
LINE
  5
EF
330
17
100
AcDbEntity
  8
4
100
AcDbLine
 10
1019.001537487502
 20
353.0314912289664
 30
0.0
 11
1019.001537487502
 21
288.0314912485965
 31
0.0
  0
LINE
  5
F0
330
17
100
AcDbEntity
  8
4
100
AcDbLine
 10
1139.001537451261
 20
350.0314912298722
 30
0.0
 11
1137.001537451866
 21
352.0314912292683
 31
0.0
  0
LINE
  5
F1
330
17
100
AcDbEntity
  8
4
100
AcDbLine
 10
1137.001537451866
 20
352.0314912292683
 30
0.0
 11
1019.001537487502
 21
352.0314912292683
 31
0.0
  0
LINE
  5
F2
330
17
100
AcDbEntity
  8
4
100
AcDbLine
 10
1139.001537451261
 20
291.0314912476902
 30
0.0
 11
1137.001537451866
 21
289.0314912482945
 31
0.0
  0
LINE
  5
F3
330
17
100
AcDbEntity
  8
4
100
AcDbLine
 10
1137.001537451866
 20
289.0314912482945
 30
0.0
 11
1019.001537487502
 21
289.0314912482945
 31
0.0
  0
LINE
  5
F4
330
17
100
AcDbEntity
  8
4
100
AcDbLine
 10
1139.001537451261
 20
291.0314912476902
 30
0.0
 11
1139.001537451261
 21
358.0314912274566
 31
0.0
  0
LINE
  5
F5
330
17
100
AcDbEntity
  8
4
100
AcDbLine
 10
1137.001537451866
 20
289.0314912482945
 30
0.0
 11
1137.001537451866
 21
352.0314912292683
 31
0.0
  0
LINE
  5
F6
330
17
100
AcDbEntity
  8
4
100
AcDbLine
 10
1029.001537484481
 20
358.0314912274566
 30
0.0
 11
1139.001537451261
 21
358.0314912274566
 31
0.0
  0
LINE
  5
F7
330
17
100
AcDbEntity
  8
4
100
AcDbLine
 10
1029.001537484481
 20
352.0314912292683
 30
0.0
 11
1029.001537484481
 21
358.0314912274566
 31
0.0
  0
LINE
  5
F8
330
17
100
AcDbEntity
  8
4
100
AcDbLine
 10
1808.840198835554
 20
466.8314911946893
 30
0.0
 11
1793.340198840234
 21
484.8314911892533
 31
0.0
  0
LINE
  5
F9
330
17
100
AcDbEntity
  8
4
100
AcDbLine
 10
1923.840198800824
 20
466.8314911946893
 30
0.0
 11
1939.340198796142
 21
484.8314911892533
 31
0.0
  0
LINE
  5
FA
330
17
100
AcDbEntity
  8
4
100
AcDbLine
 10
1751.340198852918
 20
484.8314911892533
 30
0.0
 11
1758.340198850804
 21
510.8314911814016
 31
0.0
  0
LINE
  5
FB
330
17
100
AcDbEntity
  8
4
100
AcDbLine
 10
1636.102198818188
 20
468.5351998551248
 30
0.0
 11
1751.340198852918
 21
484.8314911892533
 31
0.0
  0
LINE
  5
FC
330
17
100
AcDbEntity
  8
4
100
AcDbLine
 10
1866.340198818188
 20
510.8314911814016
 30
0.0
 11
1758.340198850804
 21
510.8314911814016
 31
0.0
  0
LINE
  5
FD
330
17
100
AcDbEntity
  8
4
100
AcDbLine
 10
1866.340198818188
 20
439.5314912028434
 30
0.0
 11
1572.840198906826
 21
439.5314912028434
 31
0.0
  0
ARC
  5
FE
330
17
100
AcDbEntity
  8
4
100
AcDbCircle
 10
1573.840198906524
 20
465.8314911949913
 30
0.0
 40
0.999999999698
100
AcDbArc
 50
90.0
 51
180.0
  0
LINE
  5
FF
330
17
100
AcDbEntity
  8
4
100
AcDbLine
 10
1573.840198906524
 20
466.8314911946893
 30
0.0
 11
1866.340198818188
 21
466.8314911946893
 31
0.0
  0
LINE
  5
100
330
17
100
AcDbEntity
  8
4
100
AcDbLine
 10
1572.840198906826
 20
465.5314911949913
 30
0.0
 11
1572.840198906826
 21
439.5314912028434
 31
0.0
  0
LINE
  5
101
330
17
100
AcDbEntity
  8
4
100
AcDbLine
 10
1806.340198836309
 20
510.8314911814016
 30
0.0
 11
1806.340198836309
 21
511.8314911810996
 31
0.0
  0
LINE
  5
102
330
17
100
AcDbEntity
  8
4
100
AcDbLine
 10
1866.340198818188
 20
511.8314911810996
 30
0.0
 11
1806.340198836309
 21
511.8314911810996
 31
0.0
  0
LINE
  5
103
330
17
100
AcDbEntity
  8
4
100
AcDbLine
 10
1866.340198818188
 20
511.8314911810996
 30
0.0
 11
1926.340198800067
 21
511.8314911810996
 31
0.0
  0
LINE
  5
104
330
17
100
AcDbEntity
  8
4
100
AcDbLine
 10
1926.340198800067
 20
510.8314911814016
 30
0.0
 11
1926.340198800067
 21
511.8314911810996
 31
0.0
  0
LINE
  5
105
330
17
100
AcDbEntity
  8
4
100
AcDbLine
 10
2159.840198729551
 20
465.8314911949913
 30
0.0
 11
2159.840198729551
 21
439.5314912028434
 31
0.0
  0
LINE
  5
106
330
17
100
AcDbEntity
  8
4
100
AcDbLine
 10
2158.840198729853
 20
466.8314911946893
 30
0.0
 11
1866.340198818188
 21
466.8314911946893
 31
0.0
  0
ARC
  5
107
330
17
100
AcDbEntity
  8
4
100
AcDbCircle
 10
2158.840198729853
 20
465.8314911949913
 30
0.0
 40
0.999999999698
100
AcDbArc
 50
0.0
 51
90.0
  0
LINE
  5
108
330
17
100
AcDbEntity
  8
4
100
AcDbLine
 10
1866.340198818188
 20
439.5314912028434
 30
0.0
 11
2159.840198729551
 21
439.5314912028434
 31
0.0
  0
LINE
  5
109
330
17
100
AcDbEntity
  8
4
100
AcDbLine
 10
1866.340198818188
 20
510.8314911814016
 30
0.0
 11
1974.340198785572
 21
510.8314911814016
 31
0.0
  0
LINE
  5
10A
330
17
100
AcDbEntity
  8
4
100
AcDbLine
 10
2096.578198818189
 20
468.53519895351
 30
0.0
 11
1981.340198783458
 21
484.8314911892533
 31
0.0
  0
LINE
  5
10B
330
17
100
AcDbEntity
  8
4
100
AcDbLine
 10
1981.340198783458
 20
484.8314911892533
 30
0.0
 11
1974.340198785572
 21
510.8314911814016
 31
0.0
  0
LINE
  5
10C
330
17
100
AcDbEntity
  8
4
100
AcDbLine
 10
1866.340198818188
 20
484.8314911892533
 30
0.0
 11
1981.340198783458
 21
484.8314911892533
 31
0.0
  0
LINE
  5
10D
330
17
100
AcDbEntity
  8
4
100
AcDbLine
 10
1866.340198818188
 20
484.8314911892533
 30
0.0
 11
1751.340198852918
 21
484.8314911892533
 31
0.0
  0
LINE
  5
10E
330
17
100
AcDbEntity
  8
4
100
AcDbLine
 10
2056.340198760808
 20
474.2255334459776
 30
0.0
 11
2056.340198760808
 21
476.8314911889513
 31
0.0
  0
LINE
  5
10F
330
17
100
AcDbEntity
  8
4
100
AcDbLine
 10
2058.840198760053
 20
476.8314911889513
 30
0.0
 11
2096.702735439463
 21
476.8314911889513
 31
0.0
  0
LINE
  5
110
330
17
100
AcDbEntity
  8
L-CENTER
 48
2.0
100
AcDbLine
 10
1651.340198883118
 20
562.4821037803606
 30
0.0
 11
1651.340198883118
 21
449.5546390845132
 31
0.0
  0
LINE
  5
111
330
17
100
AcDbEntity
  8
4
100
AcDbLine
 10
1676.340198875568
 20
474.2255334459776
 30
0.0
 11
1676.340198875568
 21
476.8314911889513
 31
0.0
  0
LINE
  5
112
330
17
100
AcDbEntity
  8
L-CENTER
 48
2.0
100
AcDbLine
 10
2149.796494507232
 20
186.5314912792496
 30
0.0
 11
2170.522184391313
 21
186.5314912792496
 31
0.0
  0
LINE
  5
113
330
17
100
AcDbEntity
  8
4
100
AcDbLine
 10
2168.340100134635
 20
178.0024419860506
 30
0.0
 11
2168.340100134635
 21
186.5314912792496
 31
0.0
  0
LINE
  5
114
330
17
100
AcDbEntity
  8
4
100
AcDbLine
 10
2168.340100134635
 20
178.0024419860506
 30
0.0
 11
2165.34019872789
 21
178.1997025493715
 31
0.0
  0
LINE
  5
115
330
17
100
AcDbEntity
  8
4
100
AcDbLine
 10
2168.340100134635
 20
195.0603011358285
 30
0.0
 11
2165.34019872789
 21
194.8630335302546
 31
0.0
  0
LINE
  5
116
330
17
100
AcDbEntity
  8
4
100
AcDbLine
 10
2168.340100134635
 20
195.0603011358285
 30
0.0
 11
2168.340100134635
 21
186.5312518426294
 31
0.0
  0
LINE
  5
117
330
17
100
AcDbEntity
  8
L-CENTER
 48
2.0
100
AcDbLine
 10
2180.042735990135
 20
280.5314912508616
 30
0.0
 11
2146.048452254843
 21
280.5314912508616
 31
0.0
  0
CIRCLE
  5
118
330
17
100
AcDbEntity
  8
4
100
AcDbCircle
 10
1571.340198907279
 20
320.5314912387817
 30
0.0
 40
43.99999998671201
  0
LINE
  5
119
330
17
100
AcDbEntity
  8
4
100
AcDbLine
 10
1794.340198839932
 20
136.5314912943495
 30
0.0
 11
1732.340198858656
 21
136.5314912943495
 31
0.0
  0
LINE
  5
11A
330
17
100
AcDbEntity
  8
4
100
AcDbLine
 10
1794.340198839932
 20
136.5314912943495
 30
0.0
 11
1774.340198845972
 21
156.5314912883096
 31
0.0
  0
LINE
  5
11B
330
17
100
AcDbEntity
  8
4
100
AcDbLine
 10
1938.340198796444
 20
136.5314912943495
 30
0.0
 11
2000.340198777719
 21
136.5314912943495
 31
0.0
  0
LINE
  5
11C
330
17
100
AcDbEntity
  8
4
100
AcDbLine
 10
1938.340198796444
 20
136.5314912943495
 30
0.0
 11
1958.340198790405
 21
156.5314912883096
 31
0.0
  0
ARC
  5
11D
330
17
100
AcDbEntity
  8
4
100
AcDbCircle
 10
1986.544297373436
 20
169.6017871079521
 30
0.0
 40
150.0000422082211
100
AcDbArc
 50
2.988961999999957
 51
37.36478799999997
  0
ARC
  5
11E
330
17
100
AcDbEntity
  8
4
100
AcDbCircle
 10
2201.137071956516
 20
169.6017871079521
 30
0.0
 40
149.9999013631507
100
AcDbArc
 50
142.635622
 51
177.0115969999999
  0
ARC
  5
11F
330
17
100
AcDbEntity
  8
4
100
AcDbCircle
 10
2093.840684664975
 20
251.5314701818011
 30
0.0
 40
15.00002112223056
100
AcDbArc
 50
37.36452799999835
 51
142.6354719999985
  0
LINE
  5
120
330
17
100
AcDbEntity
  8
4
100
AcDbLine
 10
1681.340198874058
 20
195.5314912765316
 30
0.0
 11
1681.340198874058
 21
132.5314912961621
 31
0.0
  0
LINE
  5
121
330
17
100
AcDbEntity
  8
4
100
AcDbLine
 10
1680.609487606673
 20
201.5314912747194
 30
0.0
 11
1696.340198869528
 21
201.5314912747194
 31
0.0
  0
LINE
  5
122
330
17
100
AcDbEntity
  8
4
100
AcDbLine
 10
2051.340198762318
 20
201.5314912747194
 30
0.0
 11
2051.340198762318
 21
132.5314912961617
 31
0.0
  0
LINE
  5
123
330
17
100
AcDbEntity
  8
4
100
AcDbLine
 10
2051.340198762318
 20
201.5314912747194
 30
0.0
 11
2036.340198766849
 21
201.5314912747194
 31
0.0
  0
LINE
  5
124
330
17
100
AcDbEntity
  8
4
100
AcDbLine
 10
2036.340198766849
 20
201.5314912747194
 30
0.0
 11
2036.340198766849
 21
90.53149130824158
 31
0.0
  0
LINE
  5
125
330
17
100
AcDbEntity
  8
4
100
AcDbLine
 10
1656.340198881608
 20
220.5314912689814
 30
0.0
 11
1627.109727059451
 21
220.5314912689814
 31
0.0
  0
ARC
  5
126
330
17
100
AcDbEntity
  8
4
100
AcDbCircle
 10
1656.340198881608
 20
195.5314912765316
 30
0.0
 40
24.99999999245
100
AcDbArc
 50
0.0
 51
90.0
  0
LINE
  5
127
330
17
100
AcDbEntity
  8
4
100
AcDbLine
 10
1696.340198869528
 20
201.5314912747194
 30
0.0
 11
1696.340198869528
 21
90.53149130824158
 31
0.0
  0
LINE
  5
128
330
17
100
AcDbEntity
  8
4
100
AcDbLine
 10
2156.340198730608
 20
156.5314912883096
 30
0.0
 11
2162.840198728646
 21
156.5314912883096
 31
0.0
  0
LINE
  5
129
330
17
100
AcDbEntity
  8
4
100
AcDbLine
 10
1576.340198905768
 20
206.1406250761443
 30
0.0
 11
1576.340198905768
 21
90.53149130824158
 31
0.0
  0
LINE
  5
12A
330
17
100
AcDbEntity
  8
L-CENTER
 48
2.0
100
AcDbLine
 10
1571.340198907279
 20
456.3251954231241
 30
0.0
 11
1571.340198907279
 21
184.7377870544392
 31
0.0
  0
LINE
  5
12B
330
17
100
AcDbEntity
  8
4
100
AcDbLine
 10
1569.840198907732
 20
435.0217235985715
 30
0.0
 11
1569.840198907732
 21
436.5314912037493
 31
0.0
  0
LINE
  5
12C
330
17
100
AcDbEntity
  8
4
100
AcDbLine
 10
1569.840198907732
 20
436.5314912037493
 30
0.0
 11
2162.840198728646
 21
436.5314912037493
 31
0.0
  0
LINE
  5
12D
330
17
100
AcDbEntity
  8
4
100
AcDbLine
 10
2156.340198730608
 20
156.5314912883096
 30
0.0
 11
2156.340198730608
 21
90.53149130824158
 31
0.0
  0
LINE
  5
12E
330
17
100
AcDbEntity
  8
4
100
AcDbLine
 10
2162.840198728646
 20
156.5314912883096
 30
0.0
 11
2162.840198728646
 21
436.5314912037493
 31
0.0
  0
LINE
  5
12F
330
17
100
AcDbEntity
  8
4
100
AcDbLine
 10
2162.840198728646
 20
171.5314912837794
 30
0.0
 11
2165.34019872789
 21
171.5314912837794
 31
0.0
  0
LINE
  5
130
330
17
100
AcDbEntity
  8
4
100
AcDbLine
 10
2165.34019872789
 20
171.5314912837794
 30
0.0
 11
2165.34019872789
 21
260.5314912569015
 31
0.0
  0
LINE
  5
131
330
17
100
AcDbEntity
  8
4
100
AcDbLine
 10
2162.840198728646
 20
300.5314912448216
 30
0.0
 11
2168.340198726984
 21
300.5314912448216
 31
0.0
  0
LINE
  5
132
330
17
100
AcDbEntity
  8
4
100
AcDbLine
 10
2162.840198728646
 20
260.5314912569015
 30
0.0
 11
2168.340198726984
 21
260.5314912569015
 31
0.0
  0
LINE
  5
133
330
17
100
AcDbEntity
  8
4
100
AcDbLine
 10
2168.340198726984
 20
260.5314912569015
 30
0.0
 11
2168.340198726984
 21
300.5314912448216
 31
0.0
  0
LINE
  5
134
330
17
100
AcDbEntity
  8
4
100
AcDbLine
 10
2159.840198729551
 20
436.5314912037493
 30
0.0
 11
2159.840198729551
 21
439.5314912028434
 31
0.0
  0
LINE
  5
135
330
17
100
AcDbEntity
  8
4
100
AcDbLine
 10
2159.840198729551
 20
439.5314912028434
 30
0.0
 11
1572.840198906826
 21
439.5314912028434
 31
0.0
  0
LINE
  5
136
330
17
100
AcDbEntity
  8
4
100
AcDbLine
 10
2159.840198729551
 20
439.8314912028434
 30
0.0
 11
1572.840198906826
 21
439.8314912028434
 31
0.0
  0
LINE
  5
137
330
17
100
AcDbEntity
  8
4
100
AcDbLine
 10
1572.840198906826
 20
436.5314912037493
 30
0.0
 11
1572.840198906826
 21
439.5314912028434
 31
0.0
  0
ARC
  5
138
330
17
100
AcDbEntity
  8
4
100
AcDbCircle
 10
1571.340198907279
 20
-164.9685086145978
 30
0.0
 40
600.0000068610535
100
AcDbArc
 50
89.99997700000003
 51
100.013902
  0
ARC
  5
139
330
17
100
AcDbEntity
  8
4
100
AcDbCircle
 10
1571.340198907279
 20
806.0314910921606
 30
0.0
 40
599.9999927765465
100
AcDbArc
 50
259.986784
 51
270.000886
  0
ARC
  5
13A
330
17
100
AcDbEntity
  8
4
100
AcDbCircle
 10
2054.340198761412
 20
320.5314912387817
 30
0.0
 40
600.0000561568281
100
AcDbArc
 50
170.282462
 51
189.7180099999999
  0
ARC
  5
13B
330
17
100
AcDbEntity
  8
4
100
AcDbCircle
 10
1467.878283445566
 20
420.9672869830979
 30
0.0
 40
4.999999998490001
100
AcDbArc
 50
100.016073000009
 51
170.2819550000015
  0
ARC
  5
13C
330
17
100
AcDbEntity
  8
4
100
AcDbCircle
 10
1467.878283445566
 20
220.0957025367188
 30
0.0
 40
4.999999998490001
100
AcDbArc
 50
189.7180449999985
 51
259.9839269999907
  0
LINE
  5
13D
330
17
100
AcDbEntity
  8
L-CENTER
 48
2.0
100
AcDbLine
 10
1636.340198887648
 20
70.53149130824158
 30
0.0
 11
1636.340198887648
 21
152.5314912961617
 31
0.0
  0
LINE
  5
13E
330
17
100
AcDbEntity
  8
L-CENTER
 48
2.0
100
AcDbLine
 10
2096.340198748728
 20
70.53149130824158
 30
0.0
 11
2096.340198748728
 21
152.5314912961617
 31
0.0
  0
CIRCLE
  5
13F
330
17
100
AcDbEntity
  8
4
100
AcDbCircle
 10
1571.340198907279
 20
320.5314912387817
 30
0.0
 40
114.499999965421
  0
LINE
  5
140
330
17
100
AcDbEntity
  8
4
100
AcDbLine
 10
1711.340198864998
 20
132.5314912961617
 30
0.0
 11
1711.340198864998
 21
90.53149130824158
 31
0.0
  0
LINE
  5
141
330
17
100
AcDbEntity
  8
4
100
AcDbLine
 10
1711.340198864998
 20
90.53149130824158
 30
0.0
 11
1576.340198905768
 21
90.53149130824158
 31
0.0
  0
LINE
  5
142
330
17
100
AcDbEntity
  8
4
100
AcDbLine
 10
1752.340198852616
 20
136.5314912943495
 30
0.0
 11
1758.340198850804
 21
130.5314912961617
 31
0.0
  0
LINE
  5
143
330
17
100
AcDbEntity
  8
4
100
AcDbLine
 10
1752.340198852616
 20
156.5314912883096
 30
0.0
 11
1711.340198864998
 21
115.5314913006914
 31
0.0
  0
LINE
  5
144
330
17
100
AcDbEntity
  8
4
100
AcDbLine
 10
1866.340198818188
 20
130.5314912961617
 30
0.0
 11
1758.340198850804
 21
130.5314912961617
 31
0.0
  0
LINE
  5
145
330
17
100
AcDbEntity
  8
4
100
AcDbLine
 10
1866.340198818188
 20
156.5314912883096
 30
0.0
 11
1752.340198852616
 21
156.5314912883096
 31
0.0
  0
ARC
  5
146
330
17
100
AcDbEntity
  8
4
100
AcDbCircle
 10
1579.340198904863
 20
129.5314912970675
 30
0.0
 40
2.999999999094
100
AcDbArc
 50
90.0
 51
180.0
  0
LINE
  5
147
330
17
100
AcDbEntity
  8
4
100
AcDbLine
 10
1579.340198904863
 20
132.5314912961617
 30
0.0
 11
1711.340198864998
 21
132.5314912961617
 31
0.0
  0
LINE
  5
148
330
17
100
AcDbEntity
  8
4
100
AcDbLine
 10
2153.340198731515
 20
132.5314912961617
 30
0.0
 11
2021.340198771378
 21
132.5314912961617
 31
0.0
  0
ARC
  5
149
330
17
100
AcDbEntity
  8
4
100
AcDbCircle
 10
2153.340198731515
 20
129.5314912970675
 30
0.0
 40
2.999999999094
100
AcDbArc
 50
0.0
 51
90.0
  0
LINE
  5
14A
330
17
100
AcDbEntity
  8
4
100
AcDbLine
 10
1866.340198818188
 20
156.5314912883096
 30
0.0
 11
1980.34019878376
 21
156.5314912883096
 31
0.0
  0
LINE
  5
14B
330
17
100
AcDbEntity
  8
4
100
AcDbLine
 10
1866.340198818188
 20
130.5314912961617
 30
0.0
 11
1974.340198785572
 21
130.5314912961617
 31
0.0
  0
LINE
  5
14C
330
17
100
AcDbEntity
  8
4
100
AcDbLine
 10
1980.34019878376
 20
156.5314912883096
 30
0.0
 11
2021.340198771378
 21
115.5314913006914
 31
0.0
  0
LINE
  5
14D
330
17
100
AcDbEntity
  8
4
100
AcDbLine
 10
1980.34019878376
 20
136.5314912943495
 30
0.0
 11
1974.340198785572
 21
130.5314912961617
 31
0.0
  0
LINE
  5
14E
330
17
100
AcDbEntity
  8
4
100
AcDbLine
 10
2021.340198771378
 20
90.53149130824158
 30
0.0
 11
2156.340198730608
 21
90.53149130824158
 31
0.0
  0
LINE
  5
14F
330
17
100
AcDbEntity
  8
4
100
AcDbLine
 10
2036.340198766849
 20
130.5314912961617
 30
0.0
 11
2036.340198766849
 21
90.53149130824158
 31
0.0
  0
LINE
  5
150
330
17
100
AcDbEntity
  8
4
100
AcDbLine
 10
2021.340198771378
 20
132.5314912961617
 30
0.0
 11
2021.340198771378
 21
90.53149130824158
 31
0.0
  0
LINE
  5
151
330
17
100
AcDbEntity
  8
4
100
AcDbLine
 10
1854.340198821812
 20
679.0314910994084
 30
0.0
 11
1819.840198831778
 21
679.0314910994089
 31
0.0
  0
LINE
  5
152
330
17
100
AcDbEntity
  8
L-CENTER
 48
2.0
100
AcDbLine
 10
689.0015375871612
 20
689.4262263020414
 30
0.0
 11
689.0015375871612
 21
119.5872227314449
 31
0.0
  0
LINE
  5
153
330
17
100
AcDbEntity
  8
4
100
AcDbLine
 10
644.0015376002984
 20
680.531491098955
 30
0.0
 11
743.5015375735716
 21
680.5314910989555
 31
0.0
  0
LINE
  5
154
330
17
100
AcDbEntity
  8
4
100
AcDbLine
 10
642.5015376007514
 20
679.0314910994089
 30
0.0
 11
735.5015375735711
 21
679.0314910994089
 31
0.0
  0
LINE
  5
155
330
17
100
AcDbEntity
  8
4
100
AcDbLine
 10
743.5015375735716
 20
680.5314910989555
 30
0.0
 11
743.5015375735707
 21
530.5314910989546
 31
0.0
  0
LINE
  5
156
330
17
100
AcDbEntity
  8
4
100
AcDbLine
 10
735.5015375735711
 20
679.0314910994089
 30
0.0
 11
735.5015375735711
 21
520.5314911602613
 31
0.0
  0
LINE
  5
157
330
17
100
AcDbEntity
  8
4
100
AcDbLine
 10
734.001537574024
 20
680.531491098955
 30
0.0
 11
735.5015375735711
 21
679.0314910994089
 31
0.0
  0
LINE
  5
158
330
17
100
AcDbEntity
  8
4
100
AcDbLine
 10
642.5015376007514
 20
679.0314910994089
 30
0.0
 11
642.5015376007514
 21
520.5314911602613
 31
0.0
  0
LINE
  5
159
330
17
100
AcDbEntity
  8
4
100
AcDbLine
 10
644.0015376002984
 20
680.531491098955
 30
0.0
 11
642.5015376007514
 21
679.0314910994089
 31
0.0
  0
LINE
  5
15A
330
17
100
AcDbEntity
  8
4
100
AcDbLine
 10
735.5015375735711
 20
530.5314910989555
 30
0.0
 11
743.501537573572
 21
530.5314910989555
 31
0.0
  0
LINE
  5
15B
330
17
100
AcDbEntity
  8
4
100
AcDbLine
 10
681.0015375871608
 20
520.5314911602618
 30
0.0
 11
641.5015376015062
 21
520.5314911602613
 31
0.0
  0
LINE
  5
15C
330
17
100
AcDbEntity
  8
4
100
AcDbLine
 10
2136.340279331614
 20
177.4233247862603
 30
0.0
 11
2136.340279331614
 21
132.5314912961617
 31
0.0
  0
LINE
  5
15D
330
17
100
AcDbEntity
  8
4
100
AcDbLine
 10
1001.301537492937
 20
415.9184912387809
 30
0.0
 11
1011.301537492937
 21
415.9184912387809
 31
0.0
  0
LINE
  5
15E
330
17
100
AcDbEntity
  8
4
100
AcDbLine
 10
1004.301537492937
 20
415.9184912387809
 30
0.0
 11
1004.301537492937
 21
394.0184912387822
 31
0.0
  0
LINE
  5
15F
330
17
100
AcDbEntity
  8
4
 62
     3
100
AcDbLine
 10
1012.301537492937
 20
413.1684912387809
 30
0.0
 11
1012.301537492937
 21
396.7684912387822
 31
0.0
  0
LINE
  5
160
330
17
100
AcDbEntity
  8
4
100
AcDbLine
 10
1001.301537492937
 20
394.0184912387822
 30
0.0
 11
1011.301537492937
 21
394.0184912387822
 31
0.0
  0
LINE
  5
161
330
17
100
AcDbEntity
  8
L-CENTER
 48
2.0
100
AcDbLine
 10
972.4545079136201
 20
404.9684912387816
 30
0.0
 11
1015.745417287507
 21
404.9684912387816
 31
0.0
  0
LINE
  5
162
330
17
100
AcDbEntity
  8
4
100
AcDbLine
 10
1004.301537492937
 20
399.5184912387822
 30
0.0
 11
1011.301537492938
 21
399.5184912387822
 31
0.0
  0
ARC
  5
163
330
17
100
AcDbEntity
  8
4
100
AcDbCircle
 10
1008.020287492937
 20
396.7684912387822
 30
0.0
 40
4.281249999999739
100
AcDbArc
 50
320.0337869562023
 51
39.96621304379763
  0
ARC
  5
164
330
17
100
AcDbEntity
  8
4
100
AcDbCircle
 10
1008.020287492937
 20
413.1684912387809
 30
0.0
 40
4.281249999999739
100
AcDbArc
 50
320.0337869562023
 51
39.96621304379763
  0
ARC
  5
165
330
17
100
AcDbEntity
  8
4
100
AcDbCircle
 10
996.9502874929353
 20
404.9684912387806
 30
0.0
 40
15.35125000000168
100
AcDbArc
 50
339.2053329551341
 51
20.79466704487132
  0
LINE
  5
166
330
17
100
AcDbEntity
  8
4
100
AcDbLine
 10
1004.301537492937
 20
410.4184912387809
 30
0.0
 11
1011.301537492938
 21
410.4184912387809
 31
0.0
  0
LINE
  5
167
330
17
100
AcDbEntity
  8
L-CENTER
 48
2.0
100
AcDbLine
 10
972.4545079136201
 20
369.2814912387817
 30
0.0
 11
1015.745417287507
 21
369.2814912387817
 31
0.0
  0
ARC
  5
168
330
17
100
AcDbEntity
  8
4
100
AcDbCircle
 10
1008.020287492937
 20
377.481491238781
 30
0.0
 40
4.281249999999739
100
AcDbArc
 50
320.0337869562023
 51
39.96621304379763
  0
LINE
  5
169
330
17
100
AcDbEntity
  8
4
100
AcDbLine
 10
1004.301537492937
 20
380.231491238781
 30
0.0
 11
1004.301537492937
 21
358.3314912387823
 31
0.0
  0
ARC
  5
16A
330
17
100
AcDbEntity
  8
4
100
AcDbCircle
 10
1008.020287492937
 20
361.0814912387823
 30
0.0
 40
4.281249999999739
100
AcDbArc
 50
320.0337869562023
 51
39.96621304379763
  0
ARC
  5
16B
330
17
100
AcDbEntity
  8
4
100
AcDbCircle
 10
996.9502874929353
 20
369.2814912387807
 30
0.0
 40
15.35125000000168
100
AcDbArc
 50
339.2053329551341
 51
20.79466704487132
  0
LINE
  5
16C
330
17
100
AcDbEntity
  8
4
 62
     3
100
AcDbLine
 10
1012.301537492937
 20
377.481491238781
 30
0.0
 11
1012.301537492937
 21
361.0814912387823
 31
0.0
  0
LINE
  5
16D
330
17
100
AcDbEntity
  8
4
100
AcDbLine
 10
1004.301537492937
 20
374.731491238781
 30
0.0
 11
1011.301537492938
 21
374.731491238781
 31
0.0
  0
LINE
  5
16E
330
17
100
AcDbEntity
  8
4
100
AcDbLine
 10
1004.301537492937
 20
363.8314912387823
 30
0.0
 11
1011.301537492938
 21
363.8314912387823
 31
0.0
  0
LINE
  5
16F
330
17
100
AcDbEntity
  8
4
100
AcDbLine
 10
1001.301537492937
 20
358.3314912387823
 30
0.0
 11
1011.301537492937
 21
358.3314912387823
 31
0.0
  0
LINE
  5
170
330
17
100
AcDbEntity
  8
4
100
AcDbLine
 10
1001.301537492937
 20
380.231491238781
 30
0.0
 11
1011.301537492937
 21
380.231491238781
 31
0.0
  0
LINE
  5
171
330
17
100
AcDbEntity
  8
L-CENTER
 48
2.0
100
AcDbLine
 10
972.4545079136201
 20
271.7814912387817
 30
0.0
 11
1015.745417287507
 21
271.7814912387817
 31
0.0
  0
LINE
  5
172
330
17
100
AcDbEntity
  8
L-CENTER
 48
2.0
100
AcDbLine
 10
972.4545079136201
 20
236.0944912387818
 30
0.0
 11
1015.745417287507
 21
236.0944912387818
 31
0.0
  0
LINE
  5
173
330
17
100
AcDbEntity
  8
4
 62
     3
100
AcDbLine
 10
1012.301537492937
 20
263.5814912387823
 30
0.0
 11
1012.301537492937
 21
279.981491238781
 31
0.0
  0
ARC
  5
174
330
17
100
AcDbEntity
  8
4
100
AcDbCircle
 10
996.9502874929353
 20
271.7814912387826
 30
0.0
 40
15.35125000000168
100
AcDbArc
 50
339.2053329551276
 51
20.79466704486517
  0
LINE
  5
175
330
17
100
AcDbEntity
  8
4
100
AcDbLine
 10
1004.301537492937
 20
260.8314912387823
 30
0.0
 11
1004.301537492937
 21
282.731491238781
 31
0.0
  0
LINE
  5
176
330
17
100
AcDbEntity
  8
4
100
AcDbLine
 10
1001.301537492937
 20
282.731491238781
 30
0.0
 11
1011.301537492937
 21
282.731491238781
 31
0.0
  0
LINE
  5
177
330
17
100
AcDbEntity
  8
4
100
AcDbLine
 10
1004.301537492937
 20
277.231491238781
 30
0.0
 11
1011.301537492938
 21
277.231491238781
 31
0.0
  0
ARC
  5
178
330
17
100
AcDbEntity
  8
4
100
AcDbCircle
 10
1008.020287492937
 20
279.981491238781
 30
0.0
 40
4.281249999999739
100
AcDbArc
 50
320.0337869562023
 51
39.96621304379763
  0
ARC
  5
179
330
17
100
AcDbEntity
  8
4
100
AcDbCircle
 10
1008.020287492937
 20
227.8944912387824
 30
0.0
 40
4.281249999999739
100
AcDbArc
 50
320.0337869562005
 51
39.96621304379958
  0
LINE
  5
17A
330
17
100
AcDbEntity
  8
4
100
AcDbLine
 10
1004.301537492937
 20
225.1444912387824
 30
0.0
 11
1004.301537492937
 21
247.0444912387811
 31
0.0
  0
LINE
  5
17B
330
17
100
AcDbEntity
  8
4
100
AcDbLine
 10
1001.301537492937
 20
260.8314912387823
 30
0.0
 11
1011.301537492937
 21
260.8314912387823
 31
0.0
  0
LINE
  5
17C
330
17
100
AcDbEntity
  8
4
100
AcDbLine
 10
1004.301537492937
 20
266.3314912387823
 30
0.0
 11
1011.301537492938
 21
266.3314912387823
 31
0.0
  0
ARC
  5
17D
330
17
100
AcDbEntity
  8
4
100
AcDbCircle
 10
1008.020287492937
 20
263.5814912387823
 30
0.0
 40
4.281249999999739
100
AcDbArc
 50
320.0337869562023
 51
39.96621304379763
  0
ARC
  5
17E
330
17
100
AcDbEntity
  8
4
100
AcDbCircle
 10
1008.020287492937
 20
244.2944912387811
 30
0.0
 40
4.281249999999739
100
AcDbArc
 50
320.0337869562023
 51
39.96621304379763
  0
ARC
  5
17F
330
17
100
AcDbEntity
  8
4
100
AcDbCircle
 10
996.9502874929353
 20
236.0944912387827
 30
0.0
 40
15.35125000000168
100
AcDbArc
 50
339.205332955128
 51
20.79466704486517
  0
LINE
  5
180
330
17
100
AcDbEntity
  8
4
 62
     3
100
AcDbLine
 10
1012.301537492937
 20
227.8944912387824
 30
0.0
 11
1012.301537492937
 21
244.2944912387811
 31
0.0
  0
LINE
  5
181
330
17
100
AcDbEntity
  8
4
100
AcDbLine
 10
1004.301537492937
 20
230.6444912387824
 30
0.0
 11
1011.301537492938
 21
230.6444912387824
 31
0.0
  0
LINE
  5
182
330
17
100
AcDbEntity
  8
4
100
AcDbLine
 10
1004.301537492937
 20
241.5444912387811
 30
0.0
 11
1011.301537492938
 21
241.5444912387811
 31
0.0
  0
LINE
  5
183
330
17
100
AcDbEntity
  8
4
100
AcDbLine
 10
1001.301537492937
 20
247.0444912387811
 30
0.0
 11
1011.301537492937
 21
247.0444912387811
 31
0.0
  0
LINE
  5
184
330
17
100
AcDbEntity
  8
4
100
AcDbLine
 10
1001.301537492937
 20
225.1444912387824
 30
0.0
 11
1011.301537492937
 21
225.1444912387824
 31
0.0
  0
LINE
  5
185
330
17
100
AcDbEntity
  8
4
100
AcDbLine
 10
376.7015376813852
 20
225.1444912387824
 30
0.0
 11
366.7015376813852
 21
225.1444912387824
 31
0.0
  0
LINE
  5
186
330
17
100
AcDbEntity
  8
4
100
AcDbLine
 10
376.7015376813852
 20
247.0444912387811
 30
0.0
 11
366.7015376813852
 21
247.0444912387811
 31
0.0
  0
LINE
  5
187
330
17
100
AcDbEntity
  8
4
100
AcDbLine
 10
373.7015376813852
 20
241.5444912387811
 30
0.0
 11
366.7015376813847
 21
241.5444912387811
 31
0.0
  0
LINE
  5
188
330
17
100
AcDbEntity
  8
4
100
AcDbLine
 10
373.7015376813852
 20
230.6444912387824
 30
0.0
 11
366.7015376813847
 21
230.6444912387824
 31
0.0
  0
LINE
  5
189
330
17
100
AcDbEntity
  8
4
 62
     3
100
AcDbLine
 10
365.7015376813852
 20
227.8944912387824
 30
0.0
 11
365.7015376813852
 21
244.2944912387811
 31
0.0
  0
ARC
  5
18A
330
17
100
AcDbEntity
  8
4
100
AcDbCircle
 10
381.0527876813867
 20
236.0944912387827
 30
0.0
 40
15.35125000000168
100
AcDbArc
 50
159.2053329551331
 51
200.7946670448714
  0
ARC
  5
18B
330
17
100
AcDbEntity
  8
4
100
AcDbCircle
 10
369.9827876813847
 20
244.2944912387811
 30
0.0
 40
4.281249999999739
100
AcDbArc
 50
140.0337869561971
 51
219.9662130438029
  0
LINE
  5
18C
330
17
100
AcDbEntity
  8
4
100
AcDbLine
 10
373.7015376813852
 20
225.1444912387824
 30
0.0
 11
373.7015376813852
 21
247.0444912387811
 31
0.0
  0
ARC
  5
18D
330
17
100
AcDbEntity
  8
4
100
AcDbCircle
 10
369.9827876813847
 20
227.8944912387824
 30
0.0
 40
4.281249999999739
100
AcDbArc
 50
140.0337869561971
 51
219.9662130438029
  0
ARC
  5
18E
330
17
100
AcDbEntity
  8
4
100
AcDbCircle
 10
369.9827876813847
 20
263.5814912387823
 30
0.0
 40
4.281249999999739
100
AcDbArc
 50
140.0337869561971
 51
219.9662130438029
  0
LINE
  5
18F
330
17
100
AcDbEntity
  8
4
100
AcDbLine
 10
373.7015376813852
 20
266.3314912387823
 30
0.0
 11
366.7015376813847
 21
266.3314912387823
 31
0.0
  0
LINE
  5
190
330
17
100
AcDbEntity
  8
4
100
AcDbLine
 10
376.7015376813852
 20
260.8314912387823
 30
0.0
 11
366.7015376813852
 21
260.8314912387823
 31
0.0
  0
ARC
  5
191
330
17
100
AcDbEntity
  8
4
100
AcDbCircle
 10
369.9827876813847
 20
279.981491238781
 30
0.0
 40
4.281249999999739
100
AcDbArc
 50
140.0337869561971
 51
219.9662130438029
  0
LINE
  5
192
330
17
100
AcDbEntity
  8
4
100
AcDbLine
 10
373.7015376813852
 20
277.231491238781
 30
0.0
 11
366.7015376813847
 21
277.231491238781
 31
0.0
  0
LINE
  5
193
330
17
100
AcDbEntity
  8
4
100
AcDbLine
 10
376.7015376813852
 20
282.731491238781
 30
0.0
 11
366.7015376813852
 21
282.731491238781
 31
0.0
  0
LINE
  5
194
330
17
100
AcDbEntity
  8
4
100
AcDbLine
 10
373.7015376813852
 20
260.8314912387823
 30
0.0
 11
373.7015376813852
 21
282.731491238781
 31
0.0
  0
ARC
  5
195
330
17
100
AcDbEntity
  8
4
100
AcDbCircle
 10
381.0527876813867
 20
271.7814912387826
 30
0.0
 40
15.35125000000168
100
AcDbArc
 50
159.2053329551331
 51
200.7946670448714
  0
LINE
  5
196
330
17
100
AcDbEntity
  8
4
 62
     3
100
AcDbLine
 10
365.7015376813852
 20
263.5814912387823
 30
0.0
 11
365.7015376813852
 21
279.981491238781
 31
0.0
  0
LINE
  5
197
330
17
100
AcDbEntity
  8
4
 62
     3
100
AcDbLine
 10
365.7015376813852
 20
377.481491238781
 30
0.0
 11
365.7015376813852
 21
361.0814912387823
 31
0.0
  0
ARC
  5
198
330
17
100
AcDbEntity
  8
4
100
AcDbCircle
 10
381.0527876813867
 20
369.2814912387807
 30
0.0
 40
15.35125000000168
100
AcDbArc
 50
159.2053329551286
 51
200.7946670448659
  0
LINE
  5
199
330
17
100
AcDbEntity
  8
4
100
AcDbLine
 10
373.7015376813852
 20
380.231491238781
 30
0.0
 11
373.7015376813852
 21
358.3314912387823
 31
0.0
  0
LINE
  5
19A
330
17
100
AcDbEntity
  8
4
100
AcDbLine
 10
376.7015376813852
 20
358.3314912387823
 30
0.0
 11
366.7015376813852
 21
358.3314912387823
 31
0.0
  0
LINE
  5
19B
330
17
100
AcDbEntity
  8
4
100
AcDbLine
 10
373.7015376813852
 20
363.8314912387823
 30
0.0
 11
366.7015376813847
 21
363.8314912387823
 31
0.0
  0
ARC
  5
19C
330
17
100
AcDbEntity
  8
4
100
AcDbCircle
 10
369.9827876813847
 20
361.0814912387823
 30
0.0
 40
4.281249999999739
100
AcDbArc
 50
140.0337869561971
 51
219.9662130438029
  0
ARC
  5
19D
330
17
100
AcDbEntity
  8
4
100
AcDbCircle
 10
369.9827876813847
 20
413.1684912387809
 30
0.0
 40
4.281249999999739
100
AcDbArc
 50
140.0337869561971
 51
219.9662130438029
  0
LINE
  5
19E
330
17
100
AcDbEntity
  8
4
100
AcDbLine
 10
373.7015376813852
 20
415.9184912387809
 30
0.0
 11
373.7015376813852
 21
394.0184912387822
 31
0.0
  0
LINE
  5
19F
330
17
100
AcDbEntity
  8
4
100
AcDbLine
 10
376.7015376813852
 20
380.231491238781
 30
0.0
 11
366.7015376813852
 21
380.231491238781
 31
0.0
  0
LINE
  5
1A0
330
17
100
AcDbEntity
  8
4
100
AcDbLine
 10
373.7015376813852
 20
374.731491238781
 30
0.0
 11
366.7015376813847
 21
374.731491238781
 31
0.0
  0
ARC
  5
1A1
330
17
100
AcDbEntity
  8
4
100
AcDbCircle
 10
369.9827876813847
 20
377.481491238781
 30
0.0
 40
4.281249999999739
100
AcDbArc
 50
140.0337869561971
 51
219.9662130438029
  0
ARC
  5
1A2
330
17
100
AcDbEntity
  8
4
100
AcDbCircle
 10
369.9827876813847
 20
396.7684912387822
 30
0.0
 40
4.281249999999739
100
AcDbArc
 50
140.0337869561971
 51
219.9662130438029
  0
ARC
  5
1A3
330
17
100
AcDbEntity
  8
4
100
AcDbCircle
 10
381.0527876813867
 20
404.9684912387806
 30
0.0
 40
15.35125000000168
100
AcDbArc
 50
159.2053329551286
 51
200.7946670448659
  0
LINE
  5
1A4
330
17
100
AcDbEntity
  8
4
 62
     3
100
AcDbLine
 10
365.7015376813852
 20
413.1684912387809
 30
0.0
 11
365.7015376813852
 21
396.7684912387822
 31
0.0
  0
LINE
  5
1A5
330
17
100
AcDbEntity
  8
4
100
AcDbLine
 10
373.7015376813852
 20
410.4184912387809
 30
0.0
 11
366.7015376813847
 21
410.4184912387809
 31
0.0
  0
LINE
  5
1A6
330
17
100
AcDbEntity
  8
4
100
AcDbLine
 10
373.7015376813852
 20
399.5184912387822
 30
0.0
 11
366.7015376813847
 21
399.5184912387822
 31
0.0
  0
LINE
  5
1A7
330
17
100
AcDbEntity
  8
4
100
AcDbLine
 10
376.7015376813852
 20
394.0184912387822
 30
0.0
 11
366.7015376813852
 21
394.0184912387822
 31
0.0
  0
LINE
  5
1A8
330
17
100
AcDbEntity
  8
4
100
AcDbLine
 10
376.7015376813852
 20
415.9184912387809
 30
0.0
 11
366.7015376813852
 21
415.9184912387809
 31
0.0
  0
LINE
  5
1A9
330
17
100
AcDbEntity
  8
L-CENTER
 48
2.0
100
AcDbLine
 10
405.5485672607019
 20
404.9684912387816
 30
0.0
 11
362.2576578868147
 21
404.9684912387816
 31
0.0
  0
LINE
  5
1AA
330
17
100
AcDbEntity
  8
L-CENTER
 48
2.0
100
AcDbLine
 10
405.5485672607019
 20
369.2814912387817
 30
0.0
 11
362.2576578868147
 21
369.2814912387817
 31
0.0
  0
LINE
  5
1AB
330
17
100
AcDbEntity
  8
L-CENTER
 48
2.0
100
AcDbLine
 10
405.5485672607019
 20
271.7814912387817
 30
0.0
 11
362.2576578868147
 21
271.7814912387817
 31
0.0
  0
LINE
  5
1AC
330
17
100
AcDbEntity
  8
L-CENTER
 48
2.0
100
AcDbLine
 10
405.5485672607019
 20
236.0944912387818
 30
0.0
 11
362.2576578868147
 21
236.0944912387818
 31
0.0
  0
LINE
  5
1AD
330
17
100
AcDbEntity
  8
L-CENTER
 48
2.0
100
AcDbLine
 10
828.2515375871612
 20
437.9844616153725
 30
0.0
 11
828.2515375871612
 21
481.2753709892597
 31
0.0
  0
ARC
  5
1AE
330
17
100
AcDbEntity
  8
4
100
AcDbCircle
 10
820.0515375871619
 20
473.5502411946898
 30
0.0
 40
4.281249999999739
100
AcDbArc
 50
50.03378695619809
 51
129.9662130438019
  0
LINE
  5
1AF
330
17
100
AcDbEntity
  8
4
100
AcDbLine
 10
817.3015375871619
 20
469.8314911946893
 30
0.0
 11
839.2015375871606
 21
469.8314911946893
 31
0.0
  0
ARC
  5
1B0
330
17
100
AcDbEntity
  8
4
100
AcDbCircle
 10
836.4515375871606
 20
473.5502411946898
 30
0.0
 40
4.281249999999739
100
AcDbArc
 50
50.03378695619809
 51
129.9662130438019
  0
ARC
  5
1B1
330
17
100
AcDbEntity
  8
4
100
AcDbCircle
 10
828.2515375871621
 20
462.4802411946878
 30
0.0
 40
15.35125000000168
100
AcDbArc
 50
69.20533295513404
 51
110.7946670448713
  0
LINE
  5
1B2
330
17
100
AcDbEntity
  8
4
 62
     3
100
AcDbLine
 10
820.0515375871619
 20
477.8314911946893
 30
0.0
 11
836.4515375871606
 21
477.8314911946893
 31
0.0
  0
LINE
  5
1B3
330
17
100
AcDbEntity
  8
4
100
AcDbLine
 10
822.8015375871619
 20
469.8314911946893
 30
0.0
 11
822.8015375871619
 21
476.8314911946902
 31
0.0
  0
LINE
  5
1B4
330
17
100
AcDbEntity
  8
4
100
AcDbLine
 10
833.7015375871606
 20
469.8314911946893
 30
0.0
 11
833.7015375871606
 21
476.8314911946902
 31
0.0
  0
LINE
  5
1B5
330
17
100
AcDbEntity
  8
4
100
AcDbLine
 10
839.2015375871606
 20
466.8314911946893
 30
0.0
 11
839.2015375871606
 21
476.8314911946893
 31
0.0
  0
LINE
  5
1B6
330
17
100
AcDbEntity
  8
4
100
AcDbLine
 10
817.3015375871619
 20
466.8314911946893
 30
0.0
 11
817.3015375871619
 21
476.8314911946893
 31
0.0
  0
LINE
  5
1B7
330
17
100
AcDbEntity
  8
4
 62
     3
100
AcDbLine
 10
959.3015375871614
 20
477.8314911946893
 30
0.0
 11
975.701537587161
 21
477.8314911946893
 31
0.0
  0
LINE
  5
1B8
330
17
100
AcDbEntity
  8
4
100
AcDbLine
 10
956.5515375871614
 20
469.8314911946893
 30
0.0
 11
978.451537587161
 21
469.8314911946893
 31
0.0
  0
ARC
  5
1B9
330
17
100
AcDbEntity
  8
4
100
AcDbCircle
 10
967.5015375871621
 20
462.4802411946878
 30
0.0
 40
15.35125000000168
100
AcDbArc
 50
69.20533295513404
 51
110.7946670448732
  0
LINE
  5
1BA
330
17
100
AcDbEntity
  8
4
100
AcDbLine
 10
962.0515375871614
 20
469.8314911946893
 30
0.0
 11
962.0515375871614
 21
476.8314911946902
 31
0.0
  0
LINE
  5
1BB
330
17
100
AcDbEntity
  8
4
100
AcDbLine
 10
956.5515375871614
 20
466.8314911946893
 30
0.0
 11
956.5515375871614
 21
476.8314911946893
 31
0.0
  0
ARC
  5
1BC
330
17
100
AcDbEntity
  8
4
100
AcDbCircle
 10
959.3015375871614
 20
473.5502411946898
 30
0.0
 40
4.281249999999739
100
AcDbArc
 50
50.03378695619809
 51
129.9662130438019
  0
LINE
  5
1BD
330
17
100
AcDbEntity
  8
4
100
AcDbLine
 10
978.451537587161
 20
466.8314911946893
 30
0.0
 11
978.451537587161
 21
476.8314911946893
 31
0.0
  0
LINE
  5
1BE
330
17
100
AcDbEntity
  8
4
100
AcDbLine
 10
972.951537587161
 20
469.8314911946893
 30
0.0
 11
972.951537587161
 21
476.8314911946902
 31
0.0
  0
ARC
  5
1BF
330
17
100
AcDbEntity
  8
4
100
AcDbCircle
 10
975.701537587161
 20
473.5502411946898
 30
0.0
 40
4.281249999999739
100
AcDbArc
 50
50.03378695619809
 51
129.9662130438019
  0
LINE
  5
1C0
330
17
100
AcDbEntity
  8
L-CENTER
 48
2.0
100
AcDbLine
 10
967.5015375871612
 20
437.9844616153725
 30
0.0
 11
967.5015375871612
 21
481.2753709892597
 31
0.0
  0
LINE
  5
1C1
330
17
100
AcDbEntity
  8
4
 62
     3
100
AcDbLine
 10
557.9515375871606
 20
477.8314911946893
 30
0.0
 11
541.5515375871619
 21
477.8314911946893
 31
0.0
  0
LINE
  5
1C2
330
17
100
AcDbEntity
  8
4
100
AcDbLine
 10
560.7015375871606
 20
469.8314911946893
 30
0.0
 11
538.8015375871619
 21
469.8314911946893
 31
0.0
  0
ARC
  5
1C3
330
17
100
AcDbEntity
  8
4
100
AcDbCircle
 10
549.7515375871599
 20
462.4802411946878
 30
0.0
 40
15.35125000000168
100
AcDbArc
 50
69.20533295512868
 51
110.794667044866
  0
LINE
  5
1C4
330
17
100
AcDbEntity
  8
4
100
AcDbLine
 10
555.2015375871606
 20
469.8314911946893
 30
0.0
 11
555.2015375871606
 21
476.8314911946902
 31
0.0
  0
LINE
  5
1C5
330
17
100
AcDbEntity
  8
4
100
AcDbLine
 10
560.7015375871606
 20
466.8314911946893
 30
0.0
 11
560.7015375871606
 21
476.8314911946893
 31
0.0
  0
ARC
  5
1C6
330
17
100
AcDbEntity
  8
4
100
AcDbCircle
 10
557.9515375871601
 20
473.5502411946898
 30
0.0
 40
4.281249999999739
100
AcDbArc
 50
50.03378695619809
 51
129.9662130438019
  0
LINE
  5
1C7
330
17
100
AcDbEntity
  8
4
100
AcDbLine
 10
538.8015375871619
 20
466.8314911946893
 30
0.0
 11
538.8015375871619
 21
476.8314911946893
 31
0.0
  0
LINE
  5
1C8
330
17
100
AcDbEntity
  8
4
100
AcDbLine
 10
544.3015375871619
 20
469.8314911946893
 30
0.0
 11
544.3015375871619
 21
476.8314911946902
 31
0.0
  0
ARC
  5
1C9
330
17
100
AcDbEntity
  8
4
100
AcDbCircle
 10
541.5515375871614
 20
473.5502411946898
 30
0.0
 40
4.281249999999739
100
AcDbArc
 50
50.03378695619809
 51
129.9662130438019
  0
LINE
  5
1CA
330
17
100
AcDbEntity
  8
L-CENTER
 48
2.0
100
AcDbLine
 10
549.7515375871612
 20
437.9844616153725
 30
0.0
 11
549.7515375871612
 21
481.2753709892597
 31
0.0
  0
ARC
  5
1CB
330
17
100
AcDbEntity
  8
4
100
AcDbCircle
 10
402.3015375871614
 20
473.5502411946898
 30
0.0
 40
4.281249999999739
100
AcDbArc
 50
50.03378695619809
 51
129.9662130438019
  0
LINE
  5
1CC
330
17
100
AcDbEntity
  8
4
100
AcDbLine
 10
405.0515375871619
 20
469.8314911946893
 30
0.0
 11
405.0515375871619
 21
476.8314911946902
 31
0.0
  0
LINE
  5
1CD
330
17
100
AcDbEntity
  8
4
100
AcDbLine
 10
399.5515375871619
 20
466.8314911946893
 30
0.0
 11
399.5515375871619
 21
476.8314911946893
 31
0.0
  0
ARC
  5
1CE
330
17
100
AcDbEntity
  8
4
100
AcDbCircle
 10
418.7015375871601
 20
473.5502411946898
 30
0.0
 40
4.281249999999739
100
AcDbArc
 50
50.03378695619809
 51
129.9662130438019
  0
LINE
  5
1CF
330
17
100
AcDbEntity
  8
4
100
AcDbLine
 10
421.4515375871606
 20
466.8314911946893
 30
0.0
 11
421.4515375871606
 21
476.8314911946893
 31
0.0
  0
LINE
  5
1D0
330
17
100
AcDbEntity
  8
4
100
AcDbLine
 10
415.9515375871606
 20
469.8314911946893
 30
0.0
 11
415.9515375871606
 21
476.8314911946902
 31
0.0
  0
ARC
  5
1D1
330
17
100
AcDbEntity
  8
4
100
AcDbCircle
 10
410.5015375871599
 20
462.4802411946878
 30
0.0
 40
15.35125000000168
100
AcDbArc
 50
69.20533295512868
 51
110.794667044866
  0
LINE
  5
1D2
330
17
100
AcDbEntity
  8
4
100
AcDbLine
 10
421.4515375871606
 20
469.8314911946893
 30
0.0
 11
399.5515375871619
 21
469.8314911946893
 31
0.0
  0
LINE
  5
1D3
330
17
100
AcDbEntity
  8
4
 62
     3
100
AcDbLine
 10
418.7015375871606
 20
477.8314911946893
 30
0.0
 11
402.3015375871619
 21
477.8314911946893
 31
0.0
  0
LINE
  5
1D4
330
17
100
AcDbEntity
  8
L-CENTER
 48
2.0
100
AcDbLine
 10
410.5015375871612
 20
437.9844616153725
 30
0.0
 11
410.5015375871612
 21
481.2753709892597
 31
0.0
  0
LINE
  5
1D5
330
17
100
AcDbEntity
  8
L-CENTER
 48
2.0
100
AcDbLine
 10
2107.528198818188
 20
437.9844616153725
 30
0.0
 11
2107.528198818188
 21
481.2753709892597
 31
0.0
  0
LINE
  5
1D6
330
17
100
AcDbEntity
  8
L-CENTER
 48
2.0
100
AcDbLine
 10
1625.152198818188
 20
437.9844616153725
 30
0.0
 11
1625.152198818188
 21
481.2753709892597
 31
0.0
  0
ARC
  5
1E3
330
17
100
AcDbEntity
  8
4
100
AcDbCircle
 10
-14.49846241283876
 20
1495.67754936287
 30
0.0
 40
1000.0
100
AcDbArc
 50
344.9966502307968
 51
15.00334976920323
  0
ARC
  5
1E4
330
17
100
AcDbEntity
  8
4
100
AcDbCircle
 10
1392.50153758716
 20
1495.67754936287
 30
0.0
 40
1000.0
100
AcDbArc
 50
164.9966502307968
 51
195.0033497692032
  0
LINE
  5
1E5
330
17
100
AcDbEntity
  8
L-CENTER
 48
2.0
100
AcDbLine
 10
689.0015375871612
 20
1068.67754936287
 30
0.0
 11
689.0015375871612
 21
1813.924789604788
 31
0.0
  0
LINE
  5
1E6
330
17
100
AcDbEntity
  8
L-CENTER
 48
2.0
100
AcDbLine
 10
1000.50153758716
 20
1495.67754936287
 30
0.0
 11
377.5015375871612
 21
1495.67754936287
 31
0.0
  0
LINE
  5
1E7
330
17
100
AcDbEntity
  8
4
100
AcDbLine
 10
402.0015375871612
 20
1083.67754936287
 30
0.0
 11
976.0015375871603
 21
1083.67754936287
 31
0.0
  0
LINE
  5
1E8
330
17
100
AcDbEntity
  8
L-CENTER
 48
2.0
100
AcDbLine
 10
224.9986081498259
 20
1200.67754936287
 30
0.0
 11
1153.004467024497
 21
1200.67754936287
 31
0.0
  0
LINE
  5
1E9
330
17
100
AcDbEntity
  8
4
100
AcDbLine
 10
349.0015375871612
 20
1232.177549353357
 30
0.0
 11
349.0015375871612
 21
1321.847966776402
 31
0.0
  0
LINE
  5
1EA
330
17
100
AcDbEntity
  8
4
100
AcDbLine
 10
402.0015375871612
 20
1220.67754936287
 30
0.0
 11
402.0015375871612
 21
1358.164822679119
 31
0.0
  0
ARC
  5
1EB
330
17
100
AcDbEntity
  8
4
100
AcDbCircle
 10
689.0015375871612
 20
2199.17754936287
 30
0.0
 40
1000.0
100
AcDbArc
 50
254.9966502307968
 51
285.0033497692032
  0
LINE
  5
1EC
330
17
100
AcDbEntity
  8
4
100
AcDbLine
 10
397.0015375871612
 20
1086.17754936287
 30
0.0
 11
397.0015375871612
 21
1315.17754936287
 31
0.0
  0
LINE
  5
1ED
330
17
100
AcDbEntity
  8
4
100
AcDbLine
 10
396.7015375871611
 20
1086.17754936287
 30
0.0
 11
396.7015375871611
 21
1315.17754936287
 31
0.0
  0
LINE
  5
1EE
330
17
100
AcDbEntity
  8
4
100
AcDbLine
 10
402.0015375871612
 20
1086.17754936287
 30
0.0
 11
377.7015375871611
 21
1086.17754936287
 31
0.0
  0
LINE
  5
1F1
330
17
100
AcDbEntity
  8
4
100
AcDbLine
 10
402.0015375871612
 20
1083.67754936287
 30
0.0
 11
402.0015375871612
 21
1180.67754936287
 31
0.0
  0
LINE
  5
1F2
330
17
100
AcDbEntity
  8
4
100
AcDbLine
 10
639.0015375871612
 20
1164.67754936287
 30
0.0
 11
639.0015375871612
 21
1138.67754936287
 31
0.0
  0
LINE
  5
1F3
330
17
100
AcDbEntity
  8
4
100
AcDbLine
 10
647.0015375871612
 20
1164.67754936287
 30
0.0
 11
647.0015375871612
 21
1138.67754936287
 31
0.0
  0
LINE
  5
1F4
330
17
100
AcDbEntity
  8
4
100
AcDbLine
 10
613.0015375871612
 20
1138.67754936287
 30
0.0
 11
613.0015375871612
 21
1164.67754936287
 31
0.0
  0
LINE
  5
1F5
330
17
100
AcDbEntity
  8
4
100
AcDbLine
 10
605.0015375871612
 20
1138.67754936287
 30
0.0
 11
605.0015375871612
 21
1164.67754936287
 31
0.0
  0
ARC
  5
1F6
330
17
100
AcDbEntity
  8
4
100
AcDbCircle
 10
626.0015375871612
 20
1138.67754936287
 30
0.0
 40
21.0
100
AcDbArc
 50
180.0
 51
0.0
  0
ARC
  5
1F7
330
17
100
AcDbEntity
  8
4
100
AcDbCircle
 10
626.0015375871612
 20
1138.67754936287
 30
0.0
 40
13.0
100
AcDbArc
 50
180.0
 51
0.0
  0
ARC
  5
1F8
330
17
100
AcDbEntity
  8
4
100
AcDbCircle
 10
626.0015375871612
 20
1164.67754936287
 30
0.0
 40
21.0
100
AcDbArc
 50
0.0
 51
180.0
  0
ARC
  5
1F9
330
17
100
AcDbEntity
  8
4
100
AcDbCircle
 10
626.0015375871612
 20
1164.67754936287
 30
0.0
 40
13.0
100
AcDbArc
 50
0.0
 51
180.0
  0
LINE
  5
1FA
330
17
100
AcDbEntity
  8
4
100
AcDbLine
 10
669.0015375871612
 20
1147.67754936287
 30
0.0
 11
669.0015375871612
 21
1155.67754936287
 31
0.0
  0
LINE
  5
1FB
330
17
100
AcDbEntity
  8
4
100
AcDbLine
 10
683.0015375871612
 20
1147.67754936287
 30
0.0
 11
683.0015375871612
 21
1155.67754936287
 31
0.0
  0
LINE
  5
1FC
330
17
100
AcDbEntity
  8
4
100
AcDbLine
 10
655.0015375871612
 20
1117.67754936287
 30
0.0
 11
655.0015375871612
 21
1185.67754936287
 31
0.0
  0
LINE
  5
1FD
330
17
100
AcDbEntity
  8
4
100
AcDbLine
 10
663.0015375871612
 20
1117.67754936287
 30
0.0
 11
663.0015375871612
 21
1185.67754936287
 31
0.0
  0
LINE
  5
1FE
330
17
100
AcDbEntity
  8
4
100
AcDbLine
 10
683.0015375871612
 20
1147.67754936287
 30
0.0
 11
669.0015375871612
 21
1147.67754936287
 31
0.0
  0
LINE
  5
1FF
330
17
100
AcDbEntity
  8
4
100
AcDbLine
 10
663.0015375871612
 20
1117.67754936287
 30
0.0
 11
655.0015375871612
 21
1117.67754936287
 31
0.0
  0
LINE
  5
200
330
17
100
AcDbEntity
  8
4
100
AcDbLine
 10
683.0015375871612
 20
1155.67754936287
 30
0.0
 11
669.0015375871612
 21
1155.67754936287
 31
0.0
  0
LINE
  5
201
330
17
100
AcDbEntity
  8
4
100
AcDbLine
 10
663.0015375871612
 20
1185.67754936287
 30
0.0
 11
655.0015375871612
 21
1185.67754936287
 31
0.0
  0
LINE
  5
202
330
17
100
AcDbEntity
  8
4
100
AcDbLine
 10
377.7015375871611
 20
1315.17754936287
 30
0.0
 11
402.0015375871612
 21
1315.17754936287
 31
0.0
  0
LINE
  5
203
330
17
100
AcDbEntity
  8
4
100
AcDbLine
 10
372.0015375871612
 20
1325.67754936287
 30
0.0
 11
402.0015375871612
 21
1325.67754936287
 31
0.0
  0
LINE
  5
204
330
17
100
AcDbEntity
  8
4
100
AcDbLine
 10
352.6988634269405
 20
1326.675289018836
 30
0.0
 11
402.0015375871612
 21
1339.979832704307
 31
0.0
  0
ARC
  5
205
330
17
100
AcDbEntity
  8
4
100
AcDbCircle
 10
372.0015375871612
 20
1313.67754936287
 30
0.0
 40
3.0
100
AcDbArc
 50
180.0
 51
270.0
  0
LINE
  5
206
330
17
100
AcDbEntity
  8
4
100
AcDbLine
 10
376.7015375871611
 20
1310.67754936287
 30
0.0
 11
372.0015375871612
 21
1310.67754936287
 31
0.0
  0
ARC
  5
207
330
17
100
AcDbEntity
  8
4
100
AcDbCircle
 10
372.0015375871612
 20
1322.67754936287
 30
0.0
 40
3.0
100
AcDbArc
 50
90.0
 51
180.0
  0
LINE
  5
208
330
17
100
AcDbEntity
  8
4
100
AcDbLine
 10
369.0015375871612
 20
1322.67754936287
 30
0.0
 11
369.0015375871612
 21
1313.67754936287
 31
0.0
  0
ARC
  5
209
330
17
100
AcDbEntity
  8
4
100
AcDbCircle
 10
354.0015375871612
 20
1321.847966776402
 30
0.0
 40
5.0
100
AcDbArc
 50
105.1017995437989
 51
180.0
  0
ARC
  5
20A
330
17
100
AcDbEntity
  8
4
100
AcDbCircle
 10
431.4203981399801
 20
1238.09640991569
 30
0.0
 40
5.0
100
AcDbArc
 50
195.003349769204
 51
254.9966502307963
  0
ARC
  5
20B
330
17
100
AcDbEntity
  8
4
100
AcDbCircle
 10
431.4203981399801
 20
1238.096409915689
 30
0.0
 40
5.0
100
AcDbArc
 50
195.003349769204
 51
254.9966502308013
  0
LINE
  5
20C
330
17
100
AcDbEntity
  8
4
100
AcDbLine
 10
1029.00153758716
 20
1232.177549353357
 30
0.0
 11
1029.00153758716
 21
1321.847966776402
 31
0.0
  0
LINE
  5
20D
330
17
100
AcDbEntity
  8
4
100
AcDbLine
 10
981.0015375871603
 20
1086.17754936287
 30
0.0
 11
981.0015375871603
 21
1315.17754936287
 31
0.0
  0
LINE
  5
20E
330
17
100
AcDbEntity
  8
4
100
AcDbLine
 10
981.3015375871605
 20
1086.17754936287
 30
0.0
 11
981.3015375871605
 21
1315.17754936287
 31
0.0
  0
LINE
  5
20F
330
17
100
AcDbEntity
  8
4
100
AcDbLine
 10
976.0015375871603
 20
1086.17754936287
 30
0.0
 11
1000.301537587161
 21
1086.17754936287
 31
0.0
  0
LINE
  5
210
330
17
100
AcDbEntity
  8
4
100
AcDbLine
 10
1025.304211747381
 20
1326.675289018836
 30
0.0
 11
976.0015375871603
 21
1339.979832704307
 31
0.0
  0
ARC
  5
211
330
17
100
AcDbEntity
  8
4
100
AcDbCircle
 10
1006.00153758716
 20
1313.67754936287
 30
0.0
 40
3.0
100
AcDbArc
 50
270.0
 51
0.0
  0
LINE
  5
212
330
17
100
AcDbEntity
  8
4
100
AcDbLine
 10
1001.301537587161
 20
1310.67754936287
 30
0.0
 11
1006.00153758716
 21
1310.67754936287
 31
0.0
  0
LINE
  5
213
330
17
100
AcDbEntity
  8
4
100
AcDbLine
 10
1006.00153758716
 20
1325.67754936287
 30
0.0
 11
976.0015375871603
 21
1325.67754936287
 31
0.0
  0
ARC
  5
214
330
17
100
AcDbEntity
  8
4
100
AcDbCircle
 10
978.0015375871603
 20
1317.17754936287
 30
0.0
 40
2.0
100
AcDbArc
 50
180.0
 51
270.0
  0
LINE
  5
215
330
17
100
AcDbEntity
  8
4
100
AcDbLine
 10
978.0015375871603
 20
1315.17754936287
 30
0.0
 11
1000.301537587161
 21
1315.17754936287
 31
0.0
  0
LINE
  5
216
330
17
100
AcDbEntity
  8
4
100
AcDbLine
 10
1009.00153758716
 20
1322.67754936287
 30
0.0
 11
1009.00153758716
 21
1313.67754936287
 31
0.0
  0
ARC
  5
217
330
17
100
AcDbEntity
  8
4
100
AcDbCircle
 10
1006.00153758716
 20
1322.67754936287
 30
0.0
 40
3.0
100
AcDbArc
 50
0.0
 51
90.0
  0
ARC
  5
218
330
17
100
AcDbEntity
  8
4
100
AcDbCircle
 10
1024.00153758716
 20
1321.847966776402
 30
0.0
 40
5.0
100
AcDbArc
 50
0.0
 51
74.89820045619918
  0
ARC
  5
219
330
17
100
AcDbEntity
  8
4
100
AcDbCircle
 10
689.0015375871612
 20
792.1775493628706
 30
0.0
 40
1000.0
100
AcDbArc
 50
74.99665023079677
 51
105.0033497692033
  0
LINE
  5
21A
330
17
100
AcDbEntity
  8
4
100
AcDbLine
 10
354.0015375871612
 20
1785.67754936287
 30
0.0
 11
549.0015375871612
 21
1785.67754936287
 31
0.0
  0
LINE
  5
21B
330
17
100
AcDbEntity
  8
L-CENTER
 48
2.0
100
AcDbLine
 10
399.0015375871612
 20
1752.977549362871
 30
0.0
 11
399.0015375871612
 21
1698.37754936287
 31
0.0
  0
CIRCLE
  5
21C
330
17
100
AcDbEntity
  8
4
100
AcDbCircle
 10
399.0015375871612
 20
1725.67754936287
 30
0.0
 40
13.0
  0
LINE
  5
21D
330
17
100
AcDbEntity
  8
4
100
AcDbLine
 10
349.0015375871612
 20
1669.507131949339
 30
0.0
 11
349.0015375871612
 21
1780.67754936287
 31
0.0
  0
LINE
  5
21E
330
17
100
AcDbEntity
  8
4
100
AcDbLine
 10
352.6988634269405
 20
1664.679809706906
 30
0.0
 11
404.5870676050681
 21
1650.67754936287
 31
0.0
  0
LINE
  5
21F
330
17
100
AcDbEntity
  8
4
100
AcDbLine
 10
372.0015375871612
 20
1680.67754936287
 30
0.0
 11
409.7630169215672
 21
1680.67754936287
 31
0.0
  0
LINE
  5
220
330
17
100
AcDbEntity
  8
4
100
AcDbLine
 10
372.0015375871612
 20
1665.67754936287
 30
0.0
 11
407.0574752477505
 21
1665.67754936287
 31
0.0
  0
ARC
  5
221
330
17
100
AcDbEntity
  8
4
100
AcDbCircle
 10
372.0015375871612
 20
1677.67754936287
 30
0.0
 40
3.0
100
AcDbArc
 50
90.0
 51
180.0
  0
ARC
  5
222
330
17
100
AcDbEntity
  8
4
100
AcDbCircle
 10
372.0015375871612
 20
1668.67754936287
 30
0.0
 40
3.0
100
AcDbArc
 50
180.0
 51
270.0
  0
LINE
  5
223
330
17
100
AcDbEntity
  8
4
100
AcDbLine
 10
369.0015375871612
 20
1668.67754936287
 30
0.0
 11
369.0015375871612
 21
1677.67754936287
 31
0.0
  0
ARC
  5
224
330
17
100
AcDbEntity
  8
4
100
AcDbCircle
 10
354.0015375871612
 20
1669.507131949339
 30
0.0
 40
5.0
100
AcDbArc
 50
180.0
 51
254.8982004561998
  0
LINE
  5
225
330
17
100
AcDbEntity
  8
L-CENTER
 48
2.0
100
AcDbLine
 10
426.301537587161
 20
1725.67754936287
 30
0.0
 11
371.7015375871611
 21
1725.67754936287
 31
0.0
  0
ARC
  5
226
330
17
100
AcDbEntity
  8
4
100
AcDbCircle
 10
354.0015375871612
 20
1780.67754936287
 30
0.0
 40
5.0
100
AcDbArc
 50
90.0
 51
180.0
  0
ARC
  5
227
330
17
100
AcDbEntity
  8
4
100
AcDbCircle
 10
431.4203981399801
 20
1753.258688810052
 30
0.0
 40
5.0
100
AcDbArc
 50
105.0033497691955
 51
164.9966502307959
  0
ARC
  5
228
330
17
100
AcDbEntity
  8
4
100
AcDbCircle
 10
431.4203981399801
 20
1753.258688810052
 30
0.0
 40
5.0
100
AcDbArc
 50
105.0033497692044
 51
164.9966502307959
  0
LINE
  5
229
330
17
100
AcDbEntity
  8
4
100
AcDbLine
 10
549.0015375871612
 20
1785.67754936287
 30
0.0
 11
549.0015375871612
 21
1782.329052921796
 31
0.0
  0
ARC
  5
22A
330
17
100
AcDbEntity
  8
4
100
AcDbCircle
 10
712.0015375871612
 20
1794.91380581319
 30
0.0
 40
3.0
100
AcDbArc
 50
180.0
 51
268.686023481121
  0
LINE
  5
22B
330
17
100
AcDbEntity
  8
4
100
AcDbLine
 10
669.0015375871612
 20
1797.677549362871
 30
0.0
 11
709.0015375871612
 21
1797.677549362871
 31
0.0
  0
LINE
  5
22C
330
17
100
AcDbEntity
  8
4
100
AcDbLine
 10
669.0015375871612
 20
1797.677549362871
 30
0.0
 11
669.0015375871612
 21
1794.91380581319
 31
0.0
  0
ARC
  5
22D
330
17
100
AcDbEntity
  8
4
100
AcDbCircle
 10
666.0015375871612
 20
1794.91380581319
 30
0.0
 40
3.0
100
AcDbArc
 50
271.313976518879
 51
0.0
  0
LINE
  5
22E
330
17
100
AcDbEntity
  8
4
100
AcDbLine
 10
709.0015375871612
 20
1797.677549362871
 30
0.0
 11
709.0015375871612
 21
1794.91380581319
 31
0.0
  0
LINE
  5
22F
330
17
100
AcDbEntity
  8
4
100
AcDbLine
 10
829.0015375871608
 20
1785.67754936287
 30
0.0
 11
1024.00153758716
 21
1785.67754936287
 31
0.0
  0
LINE
  5
230
330
17
100
AcDbEntity
  8
4
100
AcDbLine
 10
1025.304211747381
 20
1664.679809706906
 30
0.0
 11
973.4160075692539
 21
1650.67754936287
 31
0.0
  0
LINE
  5
231
330
17
100
AcDbEntity
  8
L-CENTER
 48
2.0
100
AcDbLine
 10
979.0015375871621
 20
1752.977549362871
 30
0.0
 11
979.0015375871621
 21
1698.37754936287
 31
0.0
  0
CIRCLE
  5
232
330
17
100
AcDbEntity
  8
4
100
AcDbCircle
 10
979.0015375871621
 20
1725.67754936287
 30
0.0
 40
13.0
  0
ARC
  5
233
330
17
100
AcDbEntity
  8
4
100
AcDbCircle
 10
1006.00153758716
 20
1677.67754936287
 30
0.0
 40
3.0
100
AcDbArc
 50
0.0
 51
90.0
  0
LINE
  5
234
330
17
100
AcDbEntity
  8
4
100
AcDbLine
 10
1006.00153758716
 20
1665.67754936287
 30
0.0
 11
970.9455999265715
 21
1665.67754936287
 31
0.0
  0
LINE
  5
235
330
17
100
AcDbEntity
  8
4
100
AcDbLine
 10
1009.00153758716
 20
1668.67754936287
 30
0.0
 11
1009.00153758716
 21
1677.67754936287
 31
0.0
  0
ARC
  5
236
330
17
100
AcDbEntity
  8
4
100
AcDbCircle
 10
1006.00153758716
 20
1668.67754936287
 30
0.0
 40
3.0
100
AcDbArc
 50
270.0
 51
0.0
  0
LINE
  5
237
330
17
100
AcDbEntity
  8
4
100
AcDbLine
 10
1006.00153758716
 20
1680.67754936287
 30
0.0
 11
968.2400582527548
 21
1680.67754936287
 31
0.0
  0
LINE
  5
238
330
17
100
AcDbEntity
  8
4
100
AcDbLine
 10
829.0015375871608
 20
1785.67754936287
 30
0.0
 11
829.0015375871608
 21
1782.329052921796
 31
0.0
  0
LINE
  5
239
330
17
100
AcDbEntity
  8
L-CENTER
 48
2.0
100
AcDbLine
 10
951.701537587161
 20
1725.67754936287
 30
0.0
 11
1006.301537587161
 21
1725.67754936287
 31
0.0
  0
ARC
  5
23A
330
17
100
AcDbEntity
  8
4
100
AcDbCircle
 10
946.5826770343424
 20
1753.258688810052
 30
0.0
 40
5.0
100
AcDbArc
 50
15.00334976920372
 51
74.99665023079561
  0
LINE
  5
23B
330
17
100
AcDbEntity
  8
4
100
AcDbLine
 10
1029.00153758716
 20
1669.507131949339
 30
0.0
 11
1029.00153758716
 21
1780.67754936287
 31
0.0
  0
ARC
  5
23C
330
17
100
AcDbEntity
  8
4
100
AcDbCircle
 10
1024.00153758716
 20
1669.507131949339
 30
0.0
 40
5.0
100
AcDbArc
 50
285.1017995438008
 51
0.0
  0
ARC
  5
23D
330
17
100
AcDbEntity
  8
4
100
AcDbCircle
 10
1024.00153758716
 20
1780.67754936287
 30
0.0
 40
5.0
100
AcDbArc
 50
0.0
 51
90.0
  0
ARC
  5
23E
330
17
100
AcDbEntity
  8
4
100
AcDbCircle
 10
946.5826770343424
 20
1238.096409915689
 30
0.0
 40
5.0
100
AcDbArc
 50
285.0033497692037
 51
344.9966502307963
  0
ARC
  5
23F
330
17
100
AcDbEntity
  8
4
100
AcDbCircle
 10
946.5826770343424
 20
1238.09640991569
 30
0.0
 40
5.0
100
AcDbArc
 50
285.0033497692037
 51
344.9966502307963
  0
LINE
  5
240
330
17
100
AcDbEntity
  8
4
100
AcDbLine
 10
699.0015375871612
 20
1164.67754936287
 30
0.0
 11
691.0015375871612
 21
1164.67754936287
 31
0.0
  0
ARC
  5
241
330
17
100
AcDbEntity
  8
4
100
AcDbCircle
 10
712.0015375871612
 20
1164.67754936287
 30
0.0
 40
21.0
100
AcDbArc
 50
0.0
 51
180.0
  0
LINE
  5
242
330
17
100
AcDbEntity
  8
4
100
AcDbLine
 10
699.0015375871612
 20
1138.67754936287
 30
0.0
 11
691.0015375871612
 21
1138.67754936287
 31
0.0
  0
ARC
  5
243
330
17
100
AcDbEntity
  8
4
100
AcDbCircle
 10
712.0015375871612
 20
1138.67754936287
 30
0.0
 40
21.0
100
AcDbArc
 50
180.0
 51
0.0
  0
LINE
  5
244
330
17
100
AcDbEntity
  8
4
100
AcDbLine
 10
765.0015375871612
 20
1117.67754936287
 30
0.0
 11
765.0015375871612
 21
1177.67754936287
 31
0.0
  0
LINE
  5
245
330
17
100
AcDbEntity
  8
4
100
AcDbLine
 10
773.0015375871612
 20
1117.67754936287
 30
0.0
 11
773.0015375871612
 21
1185.67754936287
 31
0.0
  0
ARC
  5
246
330
17
100
AcDbEntity
  8
4
100
AcDbCircle
 10
712.0015375871612
 20
1164.67754936287
 30
0.0
 40
13.0
100
AcDbArc
 50
0.0
 51
180.0
  0
ARC
  5
247
330
17
100
AcDbEntity
  8
4
100
AcDbCircle
 10
712.0015375871612
 20
1138.67754936287
 30
0.0
 40
13.0
100
AcDbArc
 50
180.0
 51
0.0
  0
LINE
  5
248
330
17
100
AcDbEntity
  8
4
100
AcDbLine
 10
725.0015375871612
 20
1164.67754936287
 30
0.0
 11
725.0015375871612
 21
1138.67754936287
 31
0.0
  0
LINE
  5
249
330
17
100
AcDbEntity
  8
4
100
AcDbLine
 10
733.0015375871612
 20
1164.67754936287
 30
0.0
 11
733.0015375871612
 21
1138.67754936287
 31
0.0
  0
LINE
  5
24A
330
17
100
AcDbEntity
  8
4
100
AcDbLine
 10
773.0015375871612
 20
1117.67754936287
 30
0.0
 11
765.0015375871612
 21
1117.67754936287
 31
0.0
  0
LINE
  5
24B
330
17
100
AcDbEntity
  8
4
100
AcDbLine
 10
765.0015375871612
 20
1177.67754936287
 30
0.0
 11
737.0015375871612
 21
1177.67754936287
 31
0.0
  0
LINE
  5
24C
330
17
100
AcDbEntity
  8
4
100
AcDbLine
 10
773.0015375871612
 20
1185.67754936287
 30
0.0
 11
737.0015375871612
 21
1185.67754936287
 31
0.0
  0
LINE
  5
24D
330
17
100
AcDbEntity
  8
4
100
AcDbLine
 10
737.0015375871612
 20
1177.67754936287
 30
0.0
 11
737.0015375871612
 21
1185.67754936287
 31
0.0
  0
LINE
  5
24E
330
17
100
AcDbEntity
  8
4
100
AcDbLine
 10
976.0015375871612
 20
1083.67754936287
 30
0.0
 11
976.0015375871612
 21
1180.67754936287
 31
0.0
  0
LINE
  5
24F
330
17
100
AcDbEntity
  8
4
100
AcDbLine
 10
976.0015375871612
 20
1220.67754936287
 30
0.0
 11
976.0015375871612
 21
1358.164822679119
 31
0.0
  0
ARC
  5
250
330
17
100
AcDbEntity
  8
4
100
AcDbCircle
 10
297.0015375871612
 20
1495.67754936287
 30
0.0
 40
500.0
100
AcDbArc
 50
348.8981303845912
 51
11.10186961540886
  0
ARC
  5
251
330
17
100
AcDbEntity
  8
4
100
AcDbCircle
 10
304.0015375871612
 20
1495.67754936287
 30
0.0
 40
500.0
100
AcDbArc
 50
348.2133909687814
 51
11.80489633831079
  0
ARC
  5
252
330
17
100
AcDbEntity
  8
4
100
AcDbCircle
 10
1081.001537587161
 20
1495.67754936287
 30
0.0
 40
500.0
100
AcDbArc
 50
168.8981303845912
 51
191.1018696154088
  0
ARC
  5
253
330
17
100
AcDbEntity
  8
4
100
AcDbCircle
 10
1074.001537587161
 20
1495.67754936287
 30
0.0
 40
500.0
100
AcDbArc
 50
168.1951036616891
 51
191.7866090312186
  0
CIRCLE
  5
254
330
17
100
AcDbEntity
  8
L-CENTER
 48
2.0
100
AcDbCircle
 10
689.0015375871612
 20
1495.67754936287
 30
0.0
 40
278.5
  0
CIRCLE
  5
255
330
17
100
AcDbEntity
  8
4
100
AcDbCircle
 10
689.0015375871612
 20
1495.67754936287
 30
0.0
 40
263.5
  0
CIRCLE
  5
256
330
17
100
AcDbEntity
  8
4
100
AcDbCircle
 10
689.0015375871612
 20
1495.67754936287
 30
0.0
 40
295.5
  0
LINE
  5
257
330
17
100
AcDbEntity
  8
L-CENTER
 48
2.0
100
AcDbLine
 10
726.9426339762244
 20
1280.67754936287
 30
0.0
 11
651.060441198098
 21
1280.67754936287
 31
0.0
  0
CIRCLE
  5
258
330
17
100
AcDbEntity
  8
4
100
AcDbCircle
 10
689.0015375871612
 20
1495.67754936287
 30
0.0
 40
65.0
  0
ARC
  5
259
330
17
100
AcDbEntity
  8
4
100
AcDbCircle
 10
689.0015375871612
 20
1880.67754936287
 30
0.0
 40
500.0
100
AcDbArc
 50
258.2133909687814
 51
281.7866090312186
  0
ARC
  5
25A
330
17
100
AcDbEntity
  8
4
100
AcDbCircle
 10
689.0015375871612
 20
1887.67754936287
 30
0.0
 40
500.0
100
AcDbArc
 50
258.8981303845912
 51
281.1018696154088
  0
LINE
  5
25B
330
17
100
AcDbEntity
  8
L-CENTER
 48
2.0
100
AcDbLine
 10
538.1094247038377
 20
1234.324743387536
 30
0.0
 11
561.3936504704852
 21
1274.654205430274
 31
0.0
  0
LINE
  5
25C
330
17
100
AcDbEntity
  8
4
100
AcDbLine
 10
630.9131426985364
 20
1244.127312680347
 30
0.0
 11
616.8058539065355
 21
1378.380889024553
 31
0.0
  0
ARC
  5
25D
330
17
100
AcDbEntity
  8
4
100
AcDbCircle
 10
626.9350448586338
 20
1243.709296441238
 30
0.0
 40
4.0
100
AcDbArc
 50
256.1620147383562
 51
5.998594083043264
  0
LINE
  5
25E
330
17
100
AcDbEntity
  8
4
100
AcDbLine
 10
437.4513009046382
 20
1437.589154474246
 30
0.0
 11
571.7048772488438
 21
1423.481865682245
 31
0.0
  0
ARC
  5
25F
330
17
100
AcDbEntity
  8
4
100
AcDbCircle
 10
592.4506873063938
 20
1399.126699082103
 30
0.0
 40
2.0
100
AcDbArc
 50
191.1791407569922
 51
258.8208592429918
  0
ARC
  5
260
330
17
100
AcDbEntity
  8
4
100
AcDbCircle
 10
593.3022060829562
 20
1399.978217858666
 30
0.0
 40
3.0
100
AcDbArc
 50
191.1018696154183
 51
258.8981303845899
  0
ARC
  5
261
330
17
100
AcDbEntity
  8
4
100
AcDbCircle
 10
586.6358902153456
 20
1393.311901991055
 30
0.0
 40
2.0
100
AcDbArc
 50
191.8619028382972
 51
258.1380971617123
  0
ARC
  5
262
330
17
100
AcDbEntity
  8
4
100
AcDbCircle
 10
587.4807049919177
 20
1394.156716767627
 30
0.0
 40
3.0
100
AcDbArc
 50
191.7866090312037
 51
258.2133909687779
  0
ARC
  5
263
330
17
100
AcDbEntity
  8
4
100
AcDbCircle
 10
570.6598366510707
 20
1413.536621082487
 30
0.0
 40
10.0
100
AcDbArc
 50
9.268465124024724
 51
84.00140591696209
  0
ARC
  5
264
330
17
100
AcDbEntity
  8
4
100
AcDbCircle
 10
606.8606093067779
 20
1377.335848426779
 30
0.0
 40
10.0
100
AcDbArc
 50
5.998594083037969
 51
80.73153487597777
  0
LINE
  5
265
330
17
100
AcDbEntity
  8
4
100
AcDbLine
 10
437.4513009046382
 20
1553.765944251495
 30
0.0
 11
571.7048772488438
 21
1567.873233043496
 31
0.0
  0
CIRCLE
  5
266
330
17
100
AcDbEntity
  8
4
100
AcDbCircle
 10
484.0015375871612
 20
1495.67754936287
 30
0.0
 40
25.0
  0
LINE
  5
267
330
17
100
AcDbEntity
  8
L-CENTER
 48
2.0
100
AcDbLine
 10
484.0015375871612
 20
1537.414793626524
 30
0.0
 11
484.0015375871612
 21
1451.249059153549
 31
0.0
  0
ARC
  5
268
330
17
100
AcDbEntity
  8
4
100
AcDbCircle
 10
437.0332846655292
 20
1433.611056634343
 30
0.0
 40
4.0
100
AcDbArc
 50
84.00140591696338
 51
193.8379852616422
  0
ARC
  5
269
330
17
100
AcDbEntity
  8
4
100
AcDbCircle
 10
437.0332846655292
 20
1557.744042091397
 30
0.0
 40
4.0
100
AcDbArc
 50
166.1620147383578
 51
275.9985940830366
  0
ARC
  5
26A
330
17
100
AcDbEntity
  8
4
100
AcDbCircle
 10
570.6598366510707
 20
1577.818477643254
 30
0.0
 40
10.0
100
AcDbArc
 50
275.9985940830405
 51
350.7315348759805
  0
LINE
  5
26B
330
17
100
AcDbEntity
  8
L-CENTER
 48
2.0
100
AcDbLine
 10
839.8936504704852
 20
1234.324743387535
 30
0.0
 11
816.6094247038372
 21
1274.654205430273
 31
0.0
  0
ARC
  5
26C
330
17
100
AcDbEntity
  8
4
100
AcDbCircle
 10
689.0015375871612
 20
1280.67754936287
 30
0.0
 40
25.0
100
AcDbArc
 50
108.6629248849426
 51
251.3370751150554
  0
LINE
  5
26D
330
17
100
AcDbEntity
  8
4
100
AcDbLine
 10
747.0899324757852
 20
1244.127312680347
 30
0.0
 11
761.197221267787
 21
1378.380889024553
 31
0.0
  0
ARC
  5
26E
330
17
100
AcDbEntity
  8
4
100
AcDbCircle
 10
751.0680303156882
 20
1243.709296441238
 30
0.0
 40
4.0
100
AcDbArc
 50
174.0014059169567
 51
283.8379852616438
  0
LINE
  5
26F
330
17
100
AcDbEntity
  8
4
100
AcDbLine
 10
940.5517742696843
 20
1437.589154474246
 30
0.0
 11
806.2981979254787
 21
1423.481865682245
 31
0.0
  0
LINE
  5
270
330
17
100
AcDbEntity
  8
4
100
AcDbLine
 10
940.5517742696843
 20
1553.765944251495
 30
0.0
 11
806.2981979254787
 21
1567.873233043496
 31
0.0
  0
ARC
  5
271
330
17
100
AcDbEntity
  8
4
100
AcDbCircle
 10
771.1424658675446
 20
1377.335848426779
 30
0.0
 40
10.0
100
AcDbArc
 50
99.2684651240248
 51
174.001405916962
  0
ARC
  5
272
330
17
100
AcDbEntity
  8
4
100
AcDbCircle
 10
785.5523878679282
 20
1399.126699082103
 30
0.0
 40
2.0
100
AcDbArc
 50
281.1791407570082
 51
348.8208592430078
  0
ARC
  5
273
330
17
100
AcDbEntity
  8
4
100
AcDbCircle
 10
784.7008690913658
 20
1399.978217858666
 30
0.0
 40
3.0
100
AcDbArc
 50
281.1018696154101
 51
348.8981303845817
  0
ARC
  5
274
330
17
100
AcDbEntity
  8
4
100
AcDbCircle
 10
791.3671849589768
 20
1393.311901991055
 30
0.0
 40
2.0
100
AcDbArc
 50
281.8619028382877
 51
348.1380971617028
  0
ARC
  5
275
330
17
100
AcDbEntity
  8
4
100
AcDbCircle
 10
791.3671849589768
 20
1393.311901991055
 30
0.0
 40
2.0
100
AcDbArc
 50
281.8619028382877
 51
348.1380971617028
  0
ARC
  5
276
330
17
100
AcDbEntity
  8
4
100
AcDbCircle
 10
790.5223701824038
 20
1394.156716767627
 30
0.0
 40
3.0
100
AcDbArc
 50
281.786609031222
 51
348.2133909687784
  0
ARC
  5
277
330
17
100
AcDbEntity
  8
4
100
AcDbCircle
 10
807.3432385232513
 20
1413.536621082487
 30
0.0
 40
10.0
100
AcDbArc
 50
95.99859408303791
 51
170.7315348759805
  0
ARC
  5
278
330
17
100
AcDbEntity
  8
4
100
AcDbCircle
 10
807.3432385232513
 20
1577.818477643254
 30
0.0
 40
10.0
100
AcDbArc
 50
189.2684651240247
 51
264.0014059169621
  0
ARC
  5
279
330
17
100
AcDbEntity
  8
4
100
AcDbCircle
 10
940.9697905087928
 20
1433.611056634343
 30
0.0
 40
4.0
100
AcDbArc
 50
346.1620147383578
 51
95.99859408303661
  0
ARC
  5
27A
330
17
100
AcDbEntity
  8
4
100
AcDbCircle
 10
940.9697905087928
 20
1557.744042091397
 30
0.0
 40
4.0
100
AcDbArc
 50
264.0014059169634
 51
13.83798526164223
  0
LINE
  5
27B
330
17
100
AcDbEntity
  8
L-CENTER
 48
2.0
100
AcDbLine
 10
651.060441198098
 20
1710.67754936287
 30
0.0
 11
726.9426339762244
 21
1710.67754936287
 31
0.0
  0
ARC
  5
27C
330
17
100
AcDbEntity
  8
4
100
AcDbCircle
 10
689.0015375871612
 20
1103.67754936287
 30
0.0
 40
500.0
100
AcDbArc
 50
78.89813038459117
 51
101.1018696154088
  0
ARC
  5
27D
330
17
100
AcDbEntity
  8
4
100
AcDbCircle
 10
689.0015375871612
 20
1103.67754936287
 30
0.0
 40
507.0
100
AcDbArc
 50
78.38315647824388
 51
101.6168435217561
  0
LINE
  5
27E
330
17
100
AcDbEntity
  8
4
100
AcDbLine
 10
630.9131426985373
 20
1747.227786045394
 30
0.0
 11
616.8058539065355
 21
1612.974209701188
 31
0.0
  0
ARC
  5
27F
330
17
100
AcDbEntity
  8
4
100
AcDbCircle
 10
586.6358902153456
 20
1598.043196734686
 30
0.0
 40
2.0
100
AcDbArc
 50
101.861902838294
 51
168.1380971617028
  0
ARC
  5
280
330
17
100
AcDbEntity
  8
4
100
AcDbCircle
 10
586.6689774319434
 20
1598.200599515316
 30
0.0
 40
2.0
100
AcDbArc
 50
101.6913075314826
 51
168.1195919159414
  0
ARC
  5
281
330
17
100
AcDbEntity
  8
4
100
AcDbCircle
 10
587.5131325545649
 20
1597.353661448456
 30
0.0
 40
3.0
100
AcDbArc
 50
101.6168435217561
 51
168.1951036616782
  0
ARC
  5
282
330
17
100
AcDbEntity
  8
4
100
AcDbCircle
 10
592.4506873063938
 20
1592.228399643637
 30
0.0
 40
2.0
100
AcDbArc
 50
101.1791407570018
 51
168.8208592430078
  0
ARC
  5
283
330
17
100
AcDbEntity
  8
4
100
AcDbCircle
 10
593.3022060829562
 20
1591.376880867075
 30
0.0
 40
3.0
100
AcDbArc
 50
101.1018696154102
 51
168.8981303845817
  0
ARC
  5
284
330
17
100
AcDbEntity
  8
4
100
AcDbCircle
 10
606.8606093067779
 20
1614.019250298961
 30
0.0
 40
10.0
100
AcDbArc
 50
279.2684651240248
 51
354.0014059169621
  0
LINE
  5
285
330
17
100
AcDbEntity
  8
L-CENTER
 48
2.0
100
AcDbLine
 10
538.1094247038372
 20
1757.030355338206
 30
0.0
 11
561.3936504704852
 21
1716.700893295468
 31
0.0
  0
ARC
  5
286
330
17
100
AcDbEntity
  8
4
100
AcDbCircle
 10
626.9350448586338
 20
1747.645802284503
 30
0.0
 40
4.0
100
AcDbArc
 50
354.0014059169699
 51
103.8379852616407
  0
LINE
  5
287
330
17
100
AcDbEntity
  8
4
100
AcDbLine
 10
747.0899324757861
 20
1747.227786045393
 30
0.0
 11
761.197221267787
 21
1612.974209701188
 31
0.0
  0
ARC
  5
288
330
17
100
AcDbEntity
  8
4
100
AcDbCircle
 10
771.1424658675446
 20
1614.019250298961
 30
0.0
 40
10.0
100
AcDbArc
 50
185.998594083038
 51
260.7315348759778
  0
ARC
  5
289
330
17
100
AcDbEntity
  8
4
100
AcDbCircle
 10
751.0680303156882
 20
1747.645802284503
 30
0.0
 40
4.0
100
AcDbArc
 50
76.16201473835936
 51
185.9985940830301
  0
ARC
  5
28A
330
17
100
AcDbEntity
  8
4
100
AcDbCircle
 10
791.3671849589768
 20
1598.043196734686
 30
0.0
 40
2.0
100
AcDbArc
 50
11.8619028382972
 51
78.13809716170597
  0
ARC
  5
28B
330
17
100
AcDbEntity
  8
4
100
AcDbCircle
 10
791.3671849589768
 20
1598.043196734686
 30
0.0
 40
2.0
100
AcDbArc
 50
11.8619028382972
 51
78.13809716170597
  0
ARC
  5
28C
330
17
100
AcDbEntity
  8
4
100
AcDbCircle
 10
791.3340977423791
 20
1598.200599515316
 30
0.0
 40
2.0
100
AcDbArc
 50
11.8804080840586
 51
78.30869246851736
  0
ARC
  5
28D
330
17
100
AcDbEntity
  8
4
100
AcDbCircle
 10
790.4899426197576
 20
1597.353661448456
 30
0.0
 40
3.0
100
AcDbArc
 50
11.80489633832179
 51
78.38315647824389
  0
ARC
  5
28E
330
17
100
AcDbEntity
  8
4
100
AcDbCircle
 10
785.5523878679282
 20
1592.228399643637
 30
0.0
 40
2.0
100
AcDbArc
 50
11.17914075699222
 51
78.8208592429982
  0
ARC
  5
28F
330
17
100
AcDbEntity
  8
4
100
AcDbCircle
 10
784.7008690913658
 20
1591.376880867075
 30
0.0
 40
3.0
100
AcDbArc
 50
11.10186961540083
 51
78.89813038458983
  0
LINE
  5
290
330
17
100
AcDbEntity
  8
L-CENTER
 48
2.0
100
AcDbLine
 10
839.8936504704852
 20
1757.030355338206
 30
0.0
 11
816.6094247038372
 21
1716.700893295468
 31
0.0
  0
LINE
  5
291
330
17
100
AcDbEntity
  8
4
100
AcDbLine
 10
1001.301537587161
 20
1087.17754936287
 30
0.0
 11
1001.301537587161
 21
1314.17754936287
 31
0.0
  0
LINE
  5
292
330
17
100
AcDbEntity
  8
4
100
AcDbLine
 10
376.7015375871611
 20
1087.17754936287
 30
0.0
 11
376.7015375871611
 21
1314.17754936287
 31
0.0
  0
ARC
  5
293
330
17
100
AcDbEntity
  8
4
100
AcDbCircle
 10
1000.301537587161
 20
1314.17754936287
 30
0.0
 40
1.0
100
AcDbArc
 50
0.0
 51
90.0
  0
ARC
  5
294
330
17
100
AcDbEntity
  8
4
100
AcDbCircle
 10
1000.301537587161
 20
1087.17754936287
 30
0.0
 40
1.0
100
AcDbArc
 50
270.0
 51
0.0
  0
ARC
  5
295
330
17
100
AcDbEntity
  8
4
100
AcDbCircle
 10
377.7015375871611
 20
1314.17754936287
 30
0.0
 40
1.0
100
AcDbArc
 50
90.0
 51
180.0
  0
ARC
  5
296
330
17
100
AcDbEntity
  8
4
100
AcDbCircle
 10
377.7015375871611
 20
1087.17754936287
 30
0.0
 40
1.0
100
AcDbArc
 50
180.0
 51
270.0
  0
LINE
  5
297
330
17
100
AcDbEntity
  8
4
100
AcDbLine
 10
366.8387184977882
 20
1290.5997017976
 30
0.0
 11
373.7015375871615
 21
1290.5997017976
 31
0.0
  0
LINE
  5
298
330
17
100
AcDbEntity
  8
4
100
AcDbLine
 10
376.7015375871615
 20
1296.084529354901
 30
0.0
 11
366.8387184977882
 21
1296.084529354901
 31
0.0
  0
LINE
  5
299
330
17
100
AcDbEntity
  8
4
100
AcDbLine
 10
366.8387184977882
 20
1279.630046682997
 30
0.0
 11
373.7015375871615
 21
1279.630046682997
 31
0.0
  0
LINE
  5
29A
330
17
100
AcDbEntity
  8
4
100
AcDbLine
 10
366.8387184977882
 20
1274.145219125695
 30
0.0
 11
376.7015375871615
 21
1274.145219125695
 31
0.0
  0
ARC
  5
29B
330
17
100
AcDbEntity
  8
4
100
AcDbCircle
 10
369.5769164624407
 20
1293.342115576251
 30
0.0
 40
3.875378875279264
100
AcDbArc
 50
134.9559267627375
 51
225.044073237253
  0
ARC
  5
29C
330
17
100
AcDbEntity
  8
4
100
AcDbCircle
 10
379.4972817223388
 20
1285.114874240299
 30
0.0
 40
13.7957441351769
100
AcDbArc
 50
156.5734024913727
 51
203.4265975086273
  0
LINE
  5
29D
330
17
100
AcDbEntity
  8
4
100
AcDbLine
 10
365.7015375871615
 20
1293.342115576251
 30
0.0
 11
365.7015375871615
 21
1276.887632904346
 31
0.0
  0
ARC
  5
29E
330
17
100
AcDbEntity
  8
4
100
AcDbCircle
 10
369.5769164624407
 20
1276.887632904346
 30
0.0
 40
3.875378875279244
100
AcDbArc
 50
134.9559267627375
 51
225.044073237253
  0
LINE
  5
29F
330
17
100
AcDbEntity
  8
4
100
AcDbLine
 10
376.7015375871615
 20
1274.145219125695
 30
0.0
 11
376.7015375871615
 21
1296.084529354901
 31
0.0
  0
LINE
  5
2A0
330
17
100
AcDbEntity
  8
4
100
AcDbLine
 10
373.7015375871615
 20
1274.145219125695
 30
0.0
 11
373.7015375871615
 21
1296.084529354901
 31
0.0
  0
LINE
  5
2A1
330
17
100
AcDbEntity
  8
L-CENTER
 48
2.0
100
AcDbLine
 10
362.1006977070574
 20
1285.114874240299
 30
0.0
 11
412.4422915535451
 21
1285.114874240299
 31
0.0
  0
LINE
  5
2A2
330
17
100
AcDbEntity
  8
L-CENTER
 48
2.0
100
AcDbLine
 10
362.100697707057
 20
1116.240196743584
 30
0.0
 11
412.4422915535451
 21
1116.240196743584
 31
0.0
  0
LINE
  5
2A3
330
17
100
AcDbEntity
  8
4
100
AcDbLine
 10
373.7015375871611
 20
1105.27054162898
 30
0.0
 11
373.7015375871611
 21
1127.209851858186
 31
0.0
  0
LINE
  5
2A4
330
17
100
AcDbEntity
  8
4
100
AcDbLine
 10
376.7015375871611
 20
1105.27054162898
 30
0.0
 11
376.7015375871611
 21
1127.209851858186
 31
0.0
  0
ARC
  5
2A5
330
17
100
AcDbEntity
  8
4
100
AcDbCircle
 10
369.5769164624403
 20
1108.012955407631
 30
0.0
 40
3.875378875279244
100
AcDbArc
 50
134.955926762747
 51
225.0440732372626
  0
LINE
  5
2A6
330
17
100
AcDbEntity
  8
4
100
AcDbLine
 10
365.7015375871611
 20
1124.467438079536
 30
0.0
 11
365.7015375871611
 21
1108.012955407631
 31
0.0
  0
ARC
  5
2A7
330
17
100
AcDbEntity
  8
4
100
AcDbCircle
 10
379.4972817223384
 20
1116.240196743584
 30
0.0
 40
13.7957441351769
100
AcDbArc
 50
156.5734024913727
 51
203.4265975086273
  0
ARC
  5
2A8
330
17
100
AcDbEntity
  8
4
100
AcDbCircle
 10
369.5769164624403
 20
1124.467438079536
 30
0.0
 40
3.875378875279264
100
AcDbArc
 50
134.955926762747
 51
225.0440732372626
  0
LINE
  5
2A9
330
17
100
AcDbEntity
  8
4
100
AcDbLine
 10
366.8387184977878
 20
1105.27054162898
 30
0.0
 11
376.7015375871611
 21
1105.27054162898
 31
0.0
  0
LINE
  5
2AA
330
17
100
AcDbEntity
  8
4
100
AcDbLine
 10
366.8387184977878
 20
1110.755369186282
 30
0.0
 11
373.7015375871611
 21
1110.755369186282
 31
0.0
  0
LINE
  5
2AB
330
17
100
AcDbEntity
  8
4
100
AcDbLine
 10
376.7015375871611
 20
1127.209851858186
 30
0.0
 11
366.8387184977878
 21
1127.209851858186
 31
0.0
  0
LINE
  5
2AC
330
17
100
AcDbEntity
  8
4
100
AcDbLine
 10
366.8387184977878
 20
1121.725024300885
 30
0.0
 11
373.7015375871611
 21
1121.725024300885
 31
0.0
  0
LINE
  5
2AD
330
17
100
AcDbEntity
  8
4
100
AcDbLine
 10
373.7015375871611
 20
1189.707894248267
 30
0.0
 11
373.7015375871611
 21
1211.647204477473
 31
0.0
  0
LINE
  5
2AE
330
17
100
AcDbEntity
  8
4
100
AcDbLine
 10
376.7015375871611
 20
1189.707894248267
 30
0.0
 11
376.7015375871611
 21
1211.647204477473
 31
0.0
  0
ARC
  5
2AF
330
17
100
AcDbEntity
  8
4
100
AcDbCircle
 10
369.5769164624403
 20
1192.450308026918
 30
0.0
 40
3.875378875279244
100
AcDbArc
 50
134.9559267627375
 51
225.044073237253
  0
LINE
  5
2B0
330
17
100
AcDbEntity
  8
4
100
AcDbLine
 10
365.7015375871611
 20
1208.904790698823
 30
0.0
 11
365.7015375871611
 21
1192.450308026918
 31
0.0
  0
ARC
  5
2B1
330
17
100
AcDbEntity
  8
4
100
AcDbCircle
 10
379.4972817223384
 20
1200.67754936287
 30
0.0
 40
13.7957441351769
100
AcDbArc
 50
156.5734024913727
 51
203.4265975086273
  0
ARC
  5
2B2
330
17
100
AcDbEntity
  8
4
100
AcDbCircle
 10
369.5769164624403
 20
1208.904790698823
 30
0.0
 40
3.875378875279264
100
AcDbArc
 50
134.9559267627375
 51
225.044073237253
  0
LINE
  5
2B3
330
17
100
AcDbEntity
  8
4
100
AcDbLine
 10
366.8387184977878
 20
1189.707894248267
 30
0.0
 11
376.7015375871611
 21
1189.707894248267
 31
0.0
  0
LINE
  5
2B4
330
17
100
AcDbEntity
  8
4
100
AcDbLine
 10
366.8387184977878
 20
1195.192721805569
 30
0.0
 11
373.7015375871611
 21
1195.192721805569
 31
0.0
  0
LINE
  5
2B5
330
17
100
AcDbEntity
  8
4
100
AcDbLine
 10
376.7015375871611
 20
1211.647204477473
 30
0.0
 11
366.8387184977878
 21
1211.647204477473
 31
0.0
  0
LINE
  5
2B6
330
17
100
AcDbEntity
  8
4
100
AcDbLine
 10
366.8387184977878
 20
1206.162376920172
 30
0.0
 11
373.7015375871611
 21
1206.162376920172
 31
0.0
  0
LINE
  5
2B7
330
17
100
AcDbEntity
  8
4
100
AcDbLine
 10
1137.001537451866
 20
1169.177549372384
 30
0.0
 11
1019.001537487502
 21
1169.177549372384
 31
0.0
  0
LINE
  5
2B8
330
17
100
AcDbEntity
  8
4
100
AcDbLine
 10
1002.301537492635
 20
1168.177549372686
 30
0.0
 11
1019.001537487502
 21
1168.177549372686
 31
0.0
  0
LINE
  5
2B9
330
17
100
AcDbEntity
  8
4
100
AcDbLine
 10
1019.001537487502
 20
1233.177549353055
 30
0.0
 11
1019.001537487502
 21
1168.177549372686
 31
0.0
  0
LINE
  5
2BA
330
17
100
AcDbEntity
  8
4
100
AcDbLine
 10
1137.001537451866
 20
1169.177549372384
 30
0.0
 11
1137.001537451866
 21
1191.67754936287
 31
0.0
  0
LINE
  5
2BB
330
17
100
AcDbEntity
  8
4
100
AcDbLine
 10
1139.001537451261
 20
1171.177549371779
 30
0.0
 11
1139.001537451261
 21
1230.177549353962
 31
0.0
  0
LINE
  5
2BC
330
17
100
AcDbEntity
  8
4
100
AcDbLine
 10
1139.001537451261
 20
1171.177549371779
 30
0.0
 11
1137.001537451866
 21
1169.177549372384
 31
0.0
  0
LINE
  5
2BD
330
17
100
AcDbEntity
  8
4
100
AcDbLine
 10
1137.001537451866
 20
1232.177549353357
 30
0.0
 11
1019.001537487502
 21
1232.177549353357
 31
0.0
  0
LINE
  5
2BE
330
17
100
AcDbEntity
  8
4
100
AcDbLine
 10
1002.301537492635
 20
1233.177549353055
 30
0.0
 11
1019.001537487502
 21
1233.177549353055
 31
0.0
  0
LINE
  5
2BF
330
17
100
AcDbEntity
  8
4
100
AcDbLine
 10
1002.301537492635
 20
1245.677549362871
 30
0.0
 11
1002.301537492635
 21
1211.647204477496
 31
0.0
  0
LINE
  5
2C0
330
17
100
AcDbEntity
  8
4
100
AcDbLine
 10
1139.001537451261
 20
1230.177549353962
 30
0.0
 11
1137.001537451866
 21
1232.177549353358
 31
0.0
  0
LINE
  5
2C1
330
17
100
AcDbEntity
  8
4
100
AcDbLine
 10
1137.001537451866
 20
1209.67754936287
 30
0.0
 11
1137.001537451866
 21
1232.177549353357
 31
0.0
  0
LINE
  5
2C2
330
17
100
AcDbEntity
  8
4
100
AcDbLine
 10
1001.301537587161
 20
1245.67754936287
 30
0.0
 11
1002.301537492635
 21
1245.67754936287
 31
0.0
  0
LINE
  5
2C3
330
17
100
AcDbEntity
  8
4
100
AcDbLine
 10
1001.301537587161
 20
1155.677549362871
 30
0.0
 11
1002.301537492635
 21
1155.677549362871
 31
0.0
  0
LINE
  5
2C4
330
17
100
AcDbEntity
  8
L-CENTER
 48
2.0
100
AcDbLine
 10
1015.902377467268
 20
1285.114874240322
 30
0.0
 11
965.5607836207805
 21
1285.114874240319
 31
0.0
  0
LINE
  5
2C5
330
17
100
AcDbEntity
  8
4
100
AcDbLine
 10
1004.301537587165
 20
1274.145219125718
 30
0.0
 11
1004.301537587163
 21
1296.084529354924
 31
0.0
  0
LINE
  5
2C6
330
17
100
AcDbEntity
  8
4
100
AcDbLine
 10
1001.301537587165
 20
1274.145219125718
 30
0.0
 11
1001.301537587163
 21
1296.084529354924
 31
0.0
  0
ARC
  5
2C7
330
17
100
AcDbEntity
  8
4
100
AcDbCircle
 10
1008.426158711886
 20
1276.88763290437
 30
0.0
 40
3.875378875279244
100
AcDbArc
 50
314.955926762738
 51
45.04407323727145
  0
LINE
  5
2C8
330
17
100
AcDbEntity
  8
4
100
AcDbLine
 10
1012.301537587163
 20
1293.342115576275
 30
0.0
 11
1012.301537587165
 21
1276.88763290437
 31
0.0
  0
ARC
  5
2C9
330
17
100
AcDbEntity
  8
4
100
AcDbCircle
 10
998.5057934519868
 20
1285.114874240321
 30
0.0
 40
13.7957441351769
100
AcDbArc
 50
336.5734024913767
 51
23.42659750862713
  0
ARC
  5
2CA
330
17
100
AcDbEntity
  8
4
100
AcDbCircle
 10
1008.426158711885
 20
1293.342115576275
 30
0.0
 40
3.875378875279264
100
AcDbArc
 50
314.955926762738
 51
45.04407323727145
  0
LINE
  5
2CB
330
17
100
AcDbEntity
  8
4
100
AcDbLine
 10
1011.164356676538
 20
1274.145219125719
 30
0.0
 11
1001.301537587165
 21
1274.145219125718
 31
0.0
  0
LINE
  5
2CC
330
17
100
AcDbEntity
  8
4
100
AcDbLine
 10
1011.164356676538
 20
1279.630046683021
 30
0.0
 11
1004.301537587165
 21
1279.63004668302
 31
0.0
  0
LINE
  5
2CD
330
17
100
AcDbEntity
  8
4
100
AcDbLine
 10
1001.301537587163
 20
1296.084529354924
 30
0.0
 11
1011.164356676536
 21
1296.084529354925
 31
0.0
  0
LINE
  5
2CE
330
17
100
AcDbEntity
  8
4
100
AcDbLine
 10
1011.164356676537
 20
1290.599701797624
 30
0.0
 11
1004.301537587164
 21
1290.599701797623
 31
0.0
  0
LINE
  5
2CF
330
17
100
AcDbEntity
  8
4
100
AcDbLine
 10
1011.164356676544
 20
1206.162376920195
 30
0.0
 11
1004.301537587171
 21
1206.162376920194
 31
0.0
  0
LINE
  5
2D0
330
17
100
AcDbEntity
  8
4
100
AcDbLine
 10
1001.301537587171
 20
1211.647204477496
 30
0.0
 11
1011.164356676543
 21
1211.647204477497
 31
0.0
  0
LINE
  5
2D1
330
17
100
AcDbEntity
  8
4
100
AcDbLine
 10
1011.164356676545
 20
1195.192721805593
 30
0.0
 11
1004.301537587171
 21
1195.192721805592
 31
0.0
  0
LINE
  5
2D2
330
17
100
AcDbEntity
  8
4
100
AcDbLine
 10
1011.164356676545
 20
1189.707894248291
 30
0.0
 11
1001.301537587171
 21
1189.70789424829
 31
0.0
  0
ARC
  5
2D3
330
17
100
AcDbEntity
  8
4
100
AcDbCircle
 10
1008.426158711891
 20
1208.904790698846
 30
0.0
 40
3.875378875279264
100
AcDbArc
 50
314.955926762738
 51
45.04407323727145
  0
ARC
  5
2D4
330
17
100
AcDbEntity
  8
4
100
AcDbCircle
 10
998.5057934519932
 20
1200.677549362893
 30
0.0
 40
13.7957441351769
100
AcDbArc
 50
336.5734024913767
 51
23.42659750863135
  0
LINE
  5
2D5
330
17
100
AcDbEntity
  8
4
100
AcDbLine
 10
1012.301537587171
 20
1208.904790698846
 30
0.0
 11
1012.301537587171
 21
1192.450308026942
 31
0.0
  0
ARC
  5
2D6
330
17
100
AcDbEntity
  8
4
100
AcDbCircle
 10
1008.426158711892
 20
1192.450308026942
 30
0.0
 40
3.875378875279244
100
AcDbArc
 50
314.955926762738
 51
45.04407323726194
  0
LINE
  5
2D7
330
17
100
AcDbEntity
  8
4
100
AcDbLine
 10
1001.301537587171
 20
1189.70789424829
 30
0.0
 11
1001.301537587171
 21
1211.647204477496
 31
0.0
  0
LINE
  5
2D8
330
17
100
AcDbEntity
  8
4
100
AcDbLine
 10
1004.301537587171
 20
1189.70789424829
 30
0.0
 11
1004.301537587171
 21
1211.647204477496
 31
0.0
  0
LINE
  5
2D9
330
17
100
AcDbEntity
  8
L-CENTER
 48
2.0
100
AcDbLine
 10
1015.902377467281
 20
1116.240196743607
 30
0.0
 11
965.5607836207932
 21
1116.240196743604
 31
0.0
  0
LINE
  5
2DA
330
17
100
AcDbEntity
  8
4
100
AcDbLine
 10
1011.16435667655
 20
1121.725024300908
 30
0.0
 11
1004.301537587177
 21
1121.725024300908
 31
0.0
  0
LINE
  5
2DB
330
17
100
AcDbEntity
  8
4
100
AcDbLine
 10
1001.301537587176
 20
1127.209851858209
 30
0.0
 11
1011.164356676549
 21
1127.209851858209
 31
0.0
  0
LINE
  5
2DC
330
17
100
AcDbEntity
  8
4
100
AcDbLine
 10
1011.16435667655
 20
1110.755369186305
 30
0.0
 11
1004.301537587178
 21
1110.755369186305
 31
0.0
  0
LINE
  5
2DD
330
17
100
AcDbEntity
  8
4
100
AcDbLine
 10
1011.164356676551
 20
1105.270541629003
 30
0.0
 11
1001.301537587178
 21
1105.270541629003
 31
0.0
  0
ARC
  5
2DE
330
17
100
AcDbEntity
  8
4
100
AcDbCircle
 10
1008.426158711898
 20
1124.467438079559
 30
0.0
 40
3.875378875279264
100
AcDbArc
 50
314.9559267627476
 51
45.04407323728095
  0
ARC
  5
2DF
330
17
100
AcDbEntity
  8
4
100
AcDbCircle
 10
998.5057934519996
 20
1116.240196743606
 30
0.0
 40
13.7957441351769
100
AcDbArc
 50
336.5734024913767
 51
23.42659750863135
  0
LINE
  5
2E0
330
17
100
AcDbEntity
  8
4
100
AcDbLine
 10
1012.301537587176
 20
1124.467438079559
 30
0.0
 11
1012.301537587178
 21
1108.012955407654
 31
0.0
  0
ARC
  5
2E1
330
17
100
AcDbEntity
  8
4
100
AcDbCircle
 10
1008.426158711899
 20
1108.012955407654
 30
0.0
 40
3.875378875279244
100
AcDbArc
 50
314.9559267627476
 51
45.04407323728095
  0
LINE
  5
2E2
330
17
100
AcDbEntity
  8
4
100
AcDbLine
 10
1001.301537587178
 20
1105.270541629003
 30
0.0
 11
1001.301537587176
 21
1127.209851858209
 31
0.0
  0
LINE
  5
2E3
330
17
100
AcDbEntity
  8
4
100
AcDbLine
 10
1004.301537587178
 20
1105.270541629003
 30
0.0
 11
1004.301537587176
 21
1127.209851858209
 31
0.0
  0
LINE
  5
2E4
330
17
100
AcDbEntity
  8
4
100
AcDbLine
 10
1002.301537492635
 20
1189.70789424829
 30
0.0
 11
1002.301537492635
 21
1155.67754936287
 31
0.0
  0
LINE
  5
2E5
330
17
100
AcDbEntity
  8
4
100
AcDbLine
 10
1571.340198907279
 20
429.0011463533842
 30
0.0
 11
1561.840198907279
 21
423.5163187960829
 31
0.0
  0
LINE
  5
2E6
330
17
100
AcDbEntity
  8
4
100
AcDbLine
 10
1561.840198907279
 20
412.5466636814804
 30
0.0
 11
1571.340198907279
 21
407.0618361241782
 31
0.0
  0
CIRCLE
  5
2E7
330
17
100
AcDbEntity
  8
4
100
AcDbCircle
 10
1571.340198907279
 20
418.0314912387817
 30
0.0
 40
9.5
  0
LINE
  5
2E8
330
17
100
AcDbEntity
  8
4
100
AcDbLine
 10
1561.840198907279
 20
423.5163187960829
 30
0.0
 11
1561.840198907279
 21
412.5466636814804
 31
0.0
  0
LINE
  5
2E9
330
17
100
AcDbEntity
  8
4
100
AcDbLine
 10
1580.840198907279
 20
423.5163187960829
 30
0.0
 11
1571.340198907279
 21
429.0011463533842
 31
0.0
  0
LINE
  5
2EA
330
17
100
AcDbEntity
  8
4
100
AcDbLine
 10
1580.840198907279
 20
412.5466636814804
 30
0.0
 11
1580.840198907279
 21
423.5163187960829
 31
0.0
  0
LINE
  5
2EB
330
17
100
AcDbEntity
  8
4
100
AcDbLine
 10
1571.340198907279
 20
407.0618361241782
 30
0.0
 11
1580.840198907279
 21
412.5466636814804
 31
0.0
  0
CIRCLE
  5
2EC
330
17
100
AcDbEntity
  8
4
100
AcDbCircle
 10
1486.902722038295
 20
369.2814912387812
 30
0.0
 40
9.5
  0
LINE
  5
2ED
330
17
100
AcDbEntity
  8
4
100
AcDbLine
 10
1486.902722038295
 20
358.3118361241786
 30
0.0
 11
1496.402722038295
 21
363.7966636814795
 31
0.0
  0
LINE
  5
2EE
330
17
100
AcDbEntity
  8
4
100
AcDbLine
 10
1477.402722038295
 20
374.7663187960825
 30
0.0
 11
1477.402722038295
 21
363.7966636814799
 31
0.0
  0
LINE
  5
2EF
330
17
100
AcDbEntity
  8
4
100
AcDbLine
 10
1477.402722038295
 20
363.7966636814799
 30
0.0
 11
1486.902722038295
 21
358.3118361241786
 31
0.0
  0
LINE
  5
2F0
330
17
100
AcDbEntity
  8
4
100
AcDbLine
 10
1496.402722038295
 20
363.7966636814795
 30
0.0
 11
1496.402722038295
 21
374.7663187960829
 31
0.0
  0
LINE
  5
2F1
330
17
100
AcDbEntity
  8
4
100
AcDbLine
 10
1496.402722038295
 20
374.7663187960829
 30
0.0
 11
1486.902722038295
 21
380.2511463533842
 31
0.0
  0
LINE
  5
2F2
330
17
100
AcDbEntity
  8
4
100
AcDbLine
 10
1486.902722038295
 20
380.2511463533842
 30
0.0
 11
1477.402722038295
 21
374.7663187960825
 31
0.0
  0
CIRCLE
  5
2F3
330
17
100
AcDbEntity
  8
4
100
AcDbCircle
 10
1486.902722038295
 20
271.7814912387819
 30
0.0
 40
9.5
  0
LINE
  5
2F4
330
17
100
AcDbEntity
  8
4
100
AcDbLine
 10
1496.402722038295
 20
266.2966636814799
 30
0.0
 11
1496.402722038296
 21
277.2663187960832
 31
0.0
  0
LINE
  5
2F5
330
17
100
AcDbEntity
  8
4
100
AcDbLine
 10
1477.402722038296
 20
266.2966636814801
 30
0.0
 11
1486.902722038296
 21
260.8118361241786
 31
0.0
  0
LINE
  5
2F6
330
17
100
AcDbEntity
  8
4
100
AcDbLine
 10
1486.902722038296
 20
260.8118361241786
 30
0.0
 11
1496.402722038295
 21
266.2966636814799
 31
0.0
  0
LINE
  5
2F7
330
17
100
AcDbEntity
  8
4
100
AcDbLine
 10
1496.402722038296
 20
277.2663187960832
 30
0.0
 11
1486.902722038295
 21
282.7511463533842
 31
0.0
  0
LINE
  5
2F8
330
17
100
AcDbEntity
  8
4
100
AcDbLine
 10
1486.902722038295
 20
282.7511463533842
 30
0.0
 11
1477.402722038296
 21
277.2663187960829
 31
0.0
  0
LINE
  5
2F9
330
17
100
AcDbEntity
  8
4
100
AcDbLine
 10
1477.402722038296
 20
277.2663187960829
 30
0.0
 11
1477.402722038296
 21
266.2966636814801
 31
0.0
  0
CIRCLE
  5
2FA
330
17
100
AcDbEntity
  8
4
100
AcDbCircle
 10
1571.340198907279
 20
223.0314912387819
 30
0.0
 40
9.5
  0
LINE
  5
2FB
330
17
100
AcDbEntity
  8
4
100
AcDbLine
 10
1580.840198907279
 20
228.5163187960832
 30
0.0
 11
1571.340198907279
 21
234.0011463533854
 31
0.0
  0
LINE
  5
2FC
330
17
100
AcDbEntity
  8
4
100
AcDbLine
 10
1571.340198907279
 20
212.0618361241793
 30
0.0
 11
1580.840198907279
 21
217.5466636814806
 31
0.0
  0
LINE
  5
2FD
330
17
100
AcDbEntity
  8
4
100
AcDbLine
 10
1580.840198907279
 20
217.5466636814806
 30
0.0
 11
1580.840198907279
 21
228.5163187960832
 31
0.0
  0
LINE
  5
2FE
330
17
100
AcDbEntity
  8
4
100
AcDbLine
 10
1571.340198907279
 20
234.0011463533854
 30
0.0
 11
1561.840198907279
 21
228.5163187960832
 31
0.0
  0
LINE
  5
2FF
330
17
100
AcDbEntity
  8
4
100
AcDbLine
 10
1561.840198907279
 20
228.5163187960832
 30
0.0
 11
1561.840198907279
 21
217.5466636814806
 31
0.0
  0
LINE
  5
300
330
17
100
AcDbEntity
  8
4
100
AcDbLine
 10
1561.840198907279
 20
217.5466636814806
 30
0.0
 11
1571.340198907279
 21
212.0618361241793
 31
0.0
  0
CIRCLE
  5
301
330
17
100
AcDbEntity
  8
4
100
AcDbCircle
 10
1655.777675776262
 20
271.7814912387819
 30
0.0
 40
9.5
  0
LINE
  5
302
330
17
100
AcDbEntity
  8
4
100
AcDbLine
 10
1655.777675776262
 20
282.7511463533847
 30
0.0
 11
1646.277675776261
 21
277.2663187960834
 31
0.0
  0
LINE
  5
303
330
17
100
AcDbEntity
  8
4
100
AcDbLine
 10
1665.277675776261
 20
266.2966636814804
 30
0.0
 11
1665.277675776262
 21
277.2663187960834
 31
0.0
  0
LINE
  5
304
330
17
100
AcDbEntity
  8
4
100
AcDbLine
 10
1665.277675776262
 20
277.2663187960834
 30
0.0
 11
1655.777675776262
 21
282.7511463533847
 31
0.0
  0
LINE
  5
305
330
17
100
AcDbEntity
  8
4
100
AcDbLine
 10
1646.277675776261
 20
277.2663187960834
 30
0.0
 11
1646.277675776262
 21
266.2966636814804
 31
0.0
  0
LINE
  5
306
330
17
100
AcDbEntity
  8
4
100
AcDbLine
 10
1646.277675776262
 20
266.2966636814804
 30
0.0
 11
1655.777675776262
 21
260.8118361241791
 31
0.0
  0
LINE
  5
307
330
17
100
AcDbEntity
  8
4
100
AcDbLine
 10
1655.777675776262
 20
260.8118361241791
 30
0.0
 11
1665.277675776261
 21
266.2966636814804
 31
0.0
  0
CIRCLE
  5
308
330
17
100
AcDbEntity
  8
4
100
AcDbCircle
 10
1655.777675776261
 20
369.2814912387821
 30
0.0
 40
9.5
  0
LINE
  5
309
330
17
100
AcDbEntity
  8
4
100
AcDbLine
 10
1646.277675776261
 20
374.7663187960834
 30
0.0
 11
1646.277675776261
 21
363.7966636814799
 31
0.0
  0
LINE
  5
30A
330
17
100
AcDbEntity
  8
4
100
AcDbLine
 10
1665.277675776261
 20
374.7663187960829
 30
0.0
 11
1655.777675776261
 21
380.2511463533847
 31
0.0
  0
LINE
  5
30B
330
17
100
AcDbEntity
  8
4
100
AcDbLine
 10
1655.777675776261
 20
380.2511463533847
 30
0.0
 11
1646.277675776261
 21
374.7663187960834
 31
0.0
  0
LINE
  5
30C
330
17
100
AcDbEntity
  8
4
100
AcDbLine
 10
1646.277675776261
 20
363.7966636814799
 30
0.0
 11
1655.777675776261
 21
358.3118361241791
 31
0.0
  0
LINE
  5
30D
330
17
100
AcDbEntity
  8
4
100
AcDbLine
 10
1655.777675776261
 20
358.3118361241791
 30
0.0
 11
1665.277675776261
 21
363.7966636814804
 31
0.0
  0
LINE
  5
30E
330
17
100
AcDbEntity
  8
4
100
AcDbLine
 10
1665.277675776261
 20
363.7966636814804
 30
0.0
 11
1665.277675776261
 21
374.7663187960829
 31
0.0
  0
ARC
  5
30F
330
17
100
AcDbEntity
  8
4
100
AcDbCircle
 10
689.0015375871612
 20
1495.67754936287
 30
0.0
 40
46.500054
100
AcDbArc
 50
14.95523054380946
 51
345.0447870000007
  0
LINE
  5
310
330
17
100
AcDbEntity
  8
4
100
AcDbLine
 10
727.5015335871617
 20
1483.67754936287
 30
0.0
 11
727.5015335871617
 21
1507.67754936287
 31
0.0
  0
LINE
  5
311
330
17
100
AcDbEntity
  8
4
100
AcDbLine
 10
743.5015355871615
 20
1483.67754936287
 30
0.0
 11
743.5015355871615
 21
1507.67754936287
 31
0.0
  0
LINE
  5
312
330
17
100
AcDbEntity
  8
4
100
AcDbLine
 10
743.5015355871615
 20
1507.67754936287
 30
0.0
 11
727.5015335871617
 21
1507.67754936287
 31
0.0
  0
LINE
  5
313
330
17
100
AcDbEntity
  8
4
100
AcDbLine
 10
727.5015335871617
 20
1483.67754936287
 30
0.0
 11
743.5015355871615
 21
1483.67754936287
 31
0.0
  0
LINE
  5
314
330
17
100
AcDbEntity
  8
L-CENTER
 48
2.0
100
AcDbLine
 10
1600.689586291709
 20
511.8314911889513
 30
0.0
 11
1701.990811474527
 21
511.8314911889513
 31
0.0
  0
ARC
  5
315
330
17
100
AcDbEntity
  8
4
100
AcDbCircle
 10
1651.340198883119
 20
511.8314911889513
 30
0.0
 40
36.0
100
AcDbArc
 50
304.0502224511964
 51
235.9497775487916
  0
LINE
  5
316
330
17
100
AcDbEntity
  8
4
100
AcDbLine
 10
1668.840198883119
 20
476.8314911889513
 30
0.0
 11
1667.340198883119
 21
489.8314911889513
 31
0.0
  0
LINE
  5
317
330
17
100
AcDbEntity
  8
4
100
AcDbLine
 10
1635.340198883119
 20
489.8314911889513
 30
0.0
 11
1651.340198883119
 21
491.8314911889513
 31
0.0
  0
LINE
  5
318
330
17
100
AcDbEntity
  8
4
100
AcDbLine
 10
1633.950698687931
 20
477.7891561639979
 30
0.0
 11
1635.340198883119
 21
489.8314911889513
 31
0.0
  0
LINE
  5
319
330
17
100
AcDbEntity
  8
4
100
AcDbLine
 10
1651.340198883119
 20
491.8314911889513
 30
0.0
 11
1667.340198883119
 21
489.8314911889513
 31
0.0
  0
LINE
  5
31A
330
17
100
AcDbEntity
  8
4
100
AcDbLine
 10
1635.340198883119
 20
489.8314911889513
 30
0.0
 11
1667.340198883119
 21
489.8314911889513
 31
0.0
  0
CIRCLE
  5
31B
330
17
100
AcDbEntity
  8
4
100
AcDbCircle
 10
1651.340198883119
 20
511.8314911889513
 30
0.0
 40
20.0
  0
ARC
  5
31C
330
17
100
AcDbEntity
  8
4
100
AcDbCircle
 10
1674.856812803655
 20
477.0325131908487
 30
0.0
 40
6.0
100
AcDbArc
 50
124.050222451196
 51
181.9199780251475
  0
ARC
  5
31D
330
17
100
AcDbEntity
  8
4
100
AcDbCircle
 10
1627.823584962578
 20
477.0325131908569
 30
0.0
 40
6.0
100
AcDbArc
 50
7.459598857820763
 51
55.94977754878231
  0
CIRCLE
  5
31E
330
17
100
AcDbEntity
  8
4
100
AcDbCircle
 10
2081.340198753259
 20
511.8314911889513
 30
0.0
 40
20.0
  0
ARC
  5
31F
330
17
100
AcDbEntity
  8
4
100
AcDbCircle
 10
2081.340198753259
 20
511.8314911889513
 30
0.0
 40
36.0
100
AcDbArc
 50
304.0502224512069
 51
235.949777548802
  0
LINE
  5
320
330
17
100
AcDbEntity
  8
L-CENTER
 48
2.0
100
AcDbLine
 10
2131.990811344669
 20
511.8314911889513
 30
0.0
 11
2030.68958616185
 21
511.8314911889513
 31
0.0
  0
LINE
  5
321
330
17
100
AcDbEntity
  8
4
100
AcDbLine
 10
2097.340198753259
 20
489.8314911889513
 30
0.0
 11
2065.340198753259
 21
489.8314911889513
 31
0.0
  0
LINE
  5
322
330
17
100
AcDbEntity
  8
4
100
AcDbLine
 10
2081.340198753259
 20
491.8314911889513
 30
0.0
 11
2065.340198753259
 21
489.8314911889513
 31
0.0
  0
LINE
  5
323
330
17
100
AcDbEntity
  8
4
100
AcDbLine
 10
2098.729698948446
 20
477.7891561639979
 30
0.0
 11
2097.340198753259
 21
489.8314911889513
 31
0.0
  0
LINE
  5
324
330
17
100
AcDbEntity
  8
4
100
AcDbLine
 10
2097.340198753259
 20
489.8314911889513
 30
0.0
 11
2081.340198753259
 21
491.8314911889513
 31
0.0
  0
LINE
  5
325
330
17
100
AcDbEntity
  8
4
100
AcDbLine
 10
2063.840198753259
 20
476.8314911889513
 30
0.0
 11
2065.340198753259
 21
489.8314911889513
 31
0.0
  0
ARC
  5
326
330
17
100
AcDbEntity
  8
4
100
AcDbCircle
 10
2057.823584832722
 20
477.0325131908487
 30
0.0
 40
6.0
100
AcDbArc
 50
358.0800219748526
 51
55.94977754880399
  0
ARC
  5
327
330
17
100
AcDbEntity
  8
4
100
AcDbCircle
 10
2104.856812673799
 20
477.0325131908569
 30
0.0
 40
6.0
100
AcDbArc
 50
124.0502224512177
 51
172.5404011421793
  0
LINE
  5
328
330
17
100
AcDbEntity
  8
L-CENTER
 48
2.0
100
AcDbLine
 10
2081.340198753259
 20
562.4821037803606
 30
0.0
 11
2081.340198753259
 21
449.5546390845132
 31
0.0
  0
ARC
  5
329
330
17
100
AcDbEntity
  8
4
100
AcDbCircle
 10
689.0015375871608
 20
539.8314911889513
 30
0.0
 40
8.0
100
AcDbArc
 50
0.0
 51
180.0
  0
LINE
  5
32A
330
17
100
AcDbEntity
  8
L-CENTER
100
AcDbLine
 10
673.2915700461017
 20
511.8314911889513
 30
0.0
 11
703.8300000314393
 21
511.8314911889513
 31
0.0
  0
ARC
  5
32B
330
17
100
AcDbEntity
  8
4
100
AcDbCircle
 10
675.0015375871608
 20
482.8314911889513
 30
0.0
 40
6.0
100
AcDbArc
 50
270.0
 51
0.0
  0
LINE
  5
32C
330
17
100
AcDbEntity
  8
4
100
AcDbLine
 10
673.0015375871617
 20
489.8314911889513
 30
0.0
 11
681.0015375871617
 21
490.8314911889513
 31
0.0
  0
LINE
  5
32D
330
17
100
AcDbEntity
  8
4
100
AcDbLine
 10
671.5015375871608
 20
476.8314911889513
 30
0.0
 11
673.0015375871608
 21
489.8314911889513
 31
0.0
  0
LINE
  5
32E
330
17
100
AcDbEntity
  8
4
100
AcDbLine
 10
681.0015375871608
 20
539.8314911889513
 30
0.0
 11
681.0015375871608
 21
482.8314911889513
 31
0.0
  0
ARC
  5
32F
330
17
100
AcDbEntity
  8
4
100
AcDbCircle
 10
703.0015375871608
 20
482.8314911889513
 30
0.0
 40
6.0
100
AcDbArc
 50
180.0
 51
270.0
  0
LINE
  5
330
330
17
100
AcDbEntity
  8
4
100
AcDbLine
 10
697.0015375871617
 20
490.8314911889513
 30
0.0
 11
705.0015375871608
 21
489.8314911889513
 31
0.0
  0
LINE
  5
331
330
17
100
AcDbEntity
  8
4
100
AcDbLine
 10
706.5015375871608
 20
476.8314911889513
 30
0.0
 11
705.0015375871608
 21
489.8314911889513
 31
0.0
  0
LINE
  5
332
330
17
100
AcDbEntity
  8
4
100
AcDbLine
 10
697.0015375871608
 20
539.8314911889513
 30
0.0
 11
697.0015375871608
 21
482.8314911889513
 31
0.0
  0
LINE
  5
333
330
17
100
AcDbEntity
  8
L-CENTER
100
AcDbLine
 10
689.0015375871608
 20
554.5133123798789
 30
0.0
 11
689.0015375871608
 21
474.5488504199659
 31
0.0
  0
ARC
  5
334
330
17
100
AcDbEntity
  8
4
100
AcDbCircle
 10
689.0015375871612
 20
1308.67754936287
 30
0.0
 40
8.0
100
AcDbArc
 50
0.0
 51
180.0
  0
ARC
  5
335
330
17
100
AcDbEntity
  8
4
100
AcDbCircle
 10
689.0015375871612
 20
1252.67754936287
 30
0.0
 40
8.0
100
AcDbArc
 50
180.0
 51
0.0
  0
ARC
  5
336
330
17
100
AcDbEntity
  8
4
100
AcDbCircle
 10
689.0015375871612
 20
1280.67754936287
 30
0.0
 40
17.5
100
AcDbArc
 50
297.2028944122143
 51
62.79710558778572
  0
ARC
  5
337
330
17
100
AcDbEntity
  8
4
100
AcDbCircle
 10
689.0015375871612
 20
1280.67754936287
 30
0.0
 40
16.0
100
AcDbArc
 50
299.9999999999994
 51
60.00000000000097
  0
ARC
  5
338
330
17
100
AcDbEntity
  8
4
100
AcDbCircle
 10
689.0015375871612
 20
1280.67754936287
 30
0.0
 40
16.0
100
AcDbArc
 50
119.999999999999
 51
239.9999999999984
  0
ARC
  5
339
330
17
100
AcDbEntity
  8
4
100
AcDbCircle
 10
689.0015375871612
 20
1280.67754936287
 30
0.0
 40
17.5
100
AcDbArc
 50
117.2028944122143
 51
242.7971055877857
  0
LINE
  5
33A
330
17
100
AcDbEntity
  8
4
100
AcDbLine
 10
697.0015375871603
 20
1252.67754936287
 30
0.0
 11
697.0015375871612
 21
1308.67754936287
 31
0.0
  0
LINE
  5
33B
330
17
100
AcDbEntity
  8
4
100
AcDbLine
 10
681.0015375871603
 20
1252.67754936287
 30
0.0
 11
681.0015375871612
 21
1308.67754936287
 31
0.0
  0
ARC
  5
33C
330
17
100
AcDbEntity
  8
4
100
AcDbCircle
 10
689.0015375871612
 20
1280.67754936287
 30
0.0
 40
25.0
100
AcDbArc
 50
288.6629248849405
 51
71.33707511505739
  0
ARC
  5
33D
330
17
100
AcDbEntity
  8
4
100
AcDbCircle
 10
689.0015375871612
 20
1738.67754936287
 30
0.0
 40
8.0
100
AcDbArc
 50
0.0
 51
180.0
  0
ARC
  5
33E
330
17
100
AcDbEntity
  8
4
100
AcDbCircle
 10
689.0015375871612
 20
1682.67754936287
 30
0.0
 40
8.0
100
AcDbArc
 50
180.0
 51
0.0
  0
ARC
  5
33F
330
17
100
AcDbEntity
  8
4
100
AcDbCircle
 10
689.0015375871612
 20
1710.67754936287
 30
0.0
 40
25.0
100
AcDbArc
 50
108.6629248849446
 51
251.3370751150574
  0
ARC
  5
340
330
17
100
AcDbEntity
  8
4
100
AcDbCircle
 10
689.0015375871612
 20
1710.67754936287
 30
0.0
 40
16.0
100
AcDbArc
 50
120.0000000000016
 51
239.9999999999984
  0
ARC
  5
341
330
17
100
AcDbEntity
  8
4
100
AcDbCircle
 10
689.0015375871612
 20
1710.67754936287
 30
0.0
 40
17.5
100
AcDbArc
 50
117.2028944122143
 51
242.7971055877857
  0
LINE
  5
342
330
17
100
AcDbEntity
  8
4
100
AcDbLine
 10
681.0015375871603
 20
1738.677549362871
 30
0.0
 11
681.0015375871612
 21
1682.677549362871
 31
0.0
  0
ARC
  5
343
330
17
100
AcDbEntity
  8
4
100
AcDbCircle
 10
689.0015375871612
 20
1710.67754936287
 30
0.0
 40
25.0
100
AcDbArc
 50
288.6629248849426
 51
71.33707511505995
  0
ARC
  5
344
330
17
100
AcDbEntity
  8
4
100
AcDbCircle
 10
689.0015375871612
 20
1710.67754936287
 30
0.0
 40
17.5
100
AcDbArc
 50
297.2028944122143
 51
62.79710558778572
  0
ARC
  5
345
330
17
100
AcDbEntity
  8
4
100
AcDbCircle
 10
689.0015375871612
 20
1710.67754936287
 30
0.0
 40
16.0
100
AcDbArc
 50
299.9999999999994
 51
60.00000000000097
  0
LINE
  5
346
330
17
100
AcDbEntity
  8
4
100
AcDbLine
 10
697.0015375871603
 20
1738.677549362871
 30
0.0
 11
697.0015375871612
 21
1682.677549362871
 31
0.0
  0
ARC
  5
347
330
17
100
AcDbEntity
  8
4
100
AcDbCircle
 10
484.0015375871617
 20
1515.596133649913
 30
0.0
 40
3.0
100
AcDbArc
 50
59.9999999999965
 51
120.0000000000035
  0
ARC
  5
348
330
17
100
AcDbEntity
  8
4
100
AcDbCircle
 10
501.2515375871617
 20
1485.71825721935
 30
0.0
 40
3.0
100
AcDbArc
 50
300.0000000000035
 51
0.0
  0
ARC
  5
349
330
17
100
AcDbEntity
  8
4
100
AcDbCircle
 10
501.2515375871617
 20
1505.636841506392
 30
0.0
 40
3.0
100
AcDbArc
 50
0.0
 51
59.9999999999965
  0
LINE
  5
34A
330
17
100
AcDbEntity
  8
4
100
AcDbLine
 10
504.2515375871617
 20
1505.636841506392
 30
0.0
 11
504.2515375871617
 21
1485.71825721935
 31
0.0
  0
ARC
  5
34B
330
17
100
AcDbEntity
  8
4
100
AcDbCircle
 10
466.7515375871608
 20
1505.636841506392
 30
0.0
 40
3.0
100
AcDbArc
 50
119.999999999986
 51
180.0
  0
ARC
  5
34C
330
17
100
AcDbEntity
  8
4
100
AcDbCircle
 10
466.7515375871608
 20
1485.71825721935
 30
0.0
 40
3.0
100
AcDbArc
 50
180.0
 51
240.0000000000084
  0
ARC
  5
34D
330
17
100
AcDbEntity
  8
4
100
AcDbCircle
 10
484.0015375871617
 20
1475.758965075828
 30
0.0
 40
3.0
100
AcDbArc
 50
239.9999999999965
 51
300.0000000000035
  0
LINE
  5
34E
330
17
100
AcDbEntity
  8
4
100
AcDbLine
 10
482.5015375871617
 20
1473.160888864475
 30
0.0
 11
465.2515375871617
 21
1483.120181007997
 31
0.0
  0
LINE
  5
34F
330
17
100
AcDbEntity
  8
4
100
AcDbLine
 10
463.7515375871617
 20
1505.636841506392
 30
0.0
 11
463.7515375871617
 21
1485.71825721935
 31
0.0
  0
LINE
  5
350
330
17
100
AcDbEntity
  8
4
100
AcDbLine
 10
502.7515375871617
 20
1483.120181007997
 30
0.0
 11
485.5015375871617
 21
1473.160888864475
 31
0.0
  0
LINE
  5
351
330
17
100
AcDbEntity
  8
4
100
AcDbLine
 10
485.5015375871617
 20
1518.194209861266
 30
0.0
 11
502.7515375871617
 21
1508.234917717745
 31
0.0
  0
LINE
  5
352
330
17
100
AcDbEntity
  8
4
100
AcDbLine
 10
482.5015375871617
 20
1518.194209861266
 30
0.0
 11
465.2515375871617
 21
1508.234917717745
 31
0.0
  0
CIRCLE
  5
353
330
17
100
AcDbEntity
  8
4
100
AcDbCircle
 10
484.0015375871617
 20
1495.67754936287
 30
0.0
 40
23.0
  0
LINE
  5
354
330
17
100
AcDbEntity
  8
4
100
AcDbLine
 10
828.2515375871608
 20
1747.83527943144
 30
0.0
 11
818.7515375871608
 21
1742.350451874139
 31
0.0
  0
LINE
  5
355
330
17
100
AcDbEntity
  8
4
100
AcDbLine
 10
818.7515375871608
 20
1731.380796759536
 30
0.0
 11
828.2515375871608
 21
1725.895969202234
 31
0.0
  0
CIRCLE
  5
356
330
17
100
AcDbEntity
  8
4
100
AcDbCircle
 10
828.2515375871608
 20
1736.865624316837
 30
0.0
 40
9.5
  0
LINE
  5
357
330
17
100
AcDbEntity
  8
4
100
AcDbLine
 10
818.7515375871608
 20
1742.350451874139
 30
0.0
 11
818.7515375871608
 21
1731.380796759536
 31
0.0
  0
LINE
  5
358
330
17
100
AcDbEntity
  8
4
100
AcDbLine
 10
837.7515375871608
 20
1742.350451874139
 30
0.0
 11
828.2515375871608
 21
1747.83527943144
 31
0.0
  0
LINE
  5
359
330
17
100
AcDbEntity
  8
4
100
AcDbLine
 10
837.7515375871608
 20
1731.380796759536
 30
0.0
 11
837.7515375871608
 21
1742.350451874139
 31
0.0
  0
LINE
  5
35A
330
17
100
AcDbEntity
  8
4
100
AcDbLine
 10
828.2515375871608
 20
1725.895969202234
 30
0.0
 11
837.7515375871608
 21
1731.380796759536
 31
0.0
  0
LINE
  5
35B
330
17
100
AcDbEntity
  8
4
100
AcDbLine
 10
559.2515375871612
 20
1731.380796759535
 30
0.0
 11
559.2515375871608
 21
1742.350451874139
 31
0.0
  0
LINE
  5
35C
330
17
100
AcDbEntity
  8
4
100
AcDbLine
 10
549.7515375871608
 20
1747.83527943144
 30
0.0
 11
540.2515375871608
 21
1742.350451874138
 31
0.0
  0
CIRCLE
  5
35D
330
17
100
AcDbEntity
  8
4
100
AcDbCircle
 10
549.7515375871603
 20
1736.865624316836
 30
0.0
 40
9.5
  0
LINE
  5
35E
330
17
100
AcDbEntity
  8
4
100
AcDbLine
 10
540.2515375871608
 20
1731.380796759535
 30
0.0
 11
549.7515375871608
 21
1725.895969202234
 31
0.0
  0
LINE
  5
35F
330
17
100
AcDbEntity
  8
4
100
AcDbLine
 10
549.7515375871608
 20
1725.895969202234
 30
0.0
 11
559.2515375871612
 21
1731.380796759535
 31
0.0
  0
LINE
  5
360
330
17
100
AcDbEntity
  8
4
100
AcDbLine
 10
540.2515375871608
 20
1742.350451874138
 30
0.0
 11
540.2515375871608
 21
1731.380796759535
 31
0.0
  0
LINE
  5
361
330
17
100
AcDbEntity
  8
4
100
AcDbLine
 10
559.2515375871608
 20
1742.350451874139
 30
0.0
 11
549.7515375871608
 21
1747.83527943144
 31
0.0
  0
LINE
  5
362
330
17
100
AcDbEntity
  8
4
100
AcDbLine
 10
420.0015375871617
 20
1501.162376920172
 30
0.0
 11
410.5015375871608
 21
1506.647204477473
 31
0.0
  0
LINE
  5
363
330
17
100
AcDbEntity
  8
4
100
AcDbLine
 10
401.0015375871608
 20
1501.162376920172
 30
0.0
 11
401.0015375871617
 21
1490.192721805568
 31
0.0
  0
CIRCLE
  5
364
330
17
100
AcDbEntity
  8
4
100
AcDbCircle
 10
410.5015375871612
 20
1495.67754936287
 30
0.0
 40
9.5
  0
LINE
  5
365
330
17
100
AcDbEntity
  8
4
100
AcDbLine
 10
410.5015375871608
 20
1484.707894248267
 30
0.0
 11
420.0015375871608
 21
1490.192721805568
 31
0.0
  0
LINE
  5
366
330
17
100
AcDbEntity
  8
4
100
AcDbLine
 10
420.0015375871608
 20
1490.192721805568
 30
0.0
 11
420.0015375871617
 21
1501.162376920172
 31
0.0
  0
LINE
  5
367
330
17
100
AcDbEntity
  8
4
100
AcDbLine
 10
401.0015375871617
 20
1490.192721805568
 30
0.0
 11
410.5015375871608
 21
1484.707894248267
 31
0.0
  0
LINE
  5
368
330
17
100
AcDbEntity
  8
4
100
AcDbLine
 10
410.5015375871608
 20
1506.647204477473
 30
0.0
 11
401.0015375871608
 21
1501.162376920172
 31
0.0
  0
LINE
  5
369
330
17
100
AcDbEntity
  8
4
100
AcDbLine
 10
549.7515375871617
 20
1265.459129523508
 30
0.0
 11
540.2515375871617
 21
1259.974301966206
 31
0.0
  0
LINE
  5
36A
330
17
100
AcDbEntity
  8
4
100
AcDbLine
 10
540.2515375871617
 20
1249.004646851603
 30
0.0
 11
549.7515375871617
 21
1243.519819294302
 31
0.0
  0
CIRCLE
  5
36B
330
17
100
AcDbEntity
  8
4
100
AcDbCircle
 10
549.7515375871617
 20
1254.489474408904
 30
0.0
 40
9.5
  0
LINE
  5
36C
330
17
100
AcDbEntity
  8
4
100
AcDbLine
 10
559.2515375871617
 20
1249.004646851603
 30
0.0
 11
559.2515375871617
 21
1259.974301966206
 31
0.0
  0
LINE
  5
36D
330
17
100
AcDbEntity
  8
4
100
AcDbLine
 10
559.2515375871617
 20
1259.974301966206
 30
0.0
 11
549.7515375871617
 21
1265.459129523508
 31
0.0
  0
LINE
  5
36E
330
17
100
AcDbEntity
  8
4
100
AcDbLine
 10
549.7515375871617
 20
1243.519819294302
 30
0.0
 11
559.2515375871617
 21
1249.004646851603
 31
0.0
  0
LINE
  5
36F
330
17
100
AcDbEntity
  8
4
100
AcDbLine
 10
540.2515375871617
 20
1259.974301966206
 30
0.0
 11
540.2515375871617
 21
1249.004646851603
 31
0.0
  0
LINE
  5
370
330
17
100
AcDbEntity
  8
4
100
AcDbLine
 10
818.7515375871612
 20
1259.974301966207
 30
0.0
 11
818.7515375871617
 21
1249.004646851603
 31
0.0
  0
LINE
  5
371
330
17
100
AcDbEntity
  8
4
100
AcDbLine
 10
828.2515375871617
 20
1243.519819294302
 30
0.0
 11
837.7515375871612
 21
1249.004646851603
 31
0.0
  0
CIRCLE
  5
372
330
17
100
AcDbEntity
  8
4
100
AcDbCircle
 10
828.2515375871621
 20
1254.489474408904
 30
0.0
 40
9.5
  0
LINE
  5
373
330
17
100
AcDbEntity
  8
4
100
AcDbLine
 10
837.7515375871617
 20
1259.974301966207
 30
0.0
 11
828.2515375871617
 21
1265.459129523508
 31
0.0
  0
LINE
  5
374
330
17
100
AcDbEntity
  8
4
100
AcDbLine
 10
828.2515375871617
 20
1265.459129523508
 30
0.0
 11
818.7515375871612
 21
1259.974301966207
 31
0.0
  0
LINE
  5
375
330
17
100
AcDbEntity
  8
4
100
AcDbLine
 10
837.7515375871612
 20
1249.004646851603
 30
0.0
 11
837.7515375871617
 21
1259.974301966207
 31
0.0
  0
LINE
  5
376
330
17
100
AcDbEntity
  8
4
100
AcDbLine
 10
818.7515375871617
 20
1249.004646851603
 30
0.0
 11
828.2515375871617
 21
1243.519819294302
 31
0.0
  0
LINE
  5
377
330
17
100
AcDbEntity
  8
4
100
AcDbLine
 10
958.0015375871612
 20
1490.192721805569
 30
0.0
 11
967.5015375871621
 21
1484.707894248268
 31
0.0
  0
LINE
  5
378
330
17
100
AcDbEntity
  8
4
100
AcDbLine
 10
977.0015375871621
 20
1490.192721805569
 30
0.0
 11
977.0015375871612
 21
1501.162376920173
 31
0.0
  0
CIRCLE
  5
379
330
17
100
AcDbEntity
  8
4
100
AcDbCircle
 10
967.5015375871612
 20
1495.67754936287
 30
0.0
 40
9.5
  0
LINE
  5
37A
330
17
100
AcDbEntity
  8
4
100
AcDbLine
 10
967.5015375871621
 20
1506.647204477474
 30
0.0
 11
958.0015375871621
 21
1501.162376920173
 31
0.0
  0
LINE
  5
37B
330
17
100
AcDbEntity
  8
4
100
AcDbLine
 10
958.0015375871621
 20
1501.162376920173
 30
0.0
 11
958.0015375871612
 21
1490.192721805569
 31
0.0
  0
LINE
  5
37C
330
17
100
AcDbEntity
  8
4
100
AcDbLine
 10
977.0015375871612
 20
1501.162376920173
 30
0.0
 11
967.5015375871621
 21
1506.647204477474
 31
0.0
  0
LINE
  5
37D
330
17
100
AcDbEntity
  8
4
100
AcDbLine
 10
967.5015375871621
 20
1484.707894248268
 30
0.0
 11
977.0015375871621
 21
1490.192721805569
 31
0.0
  0
LINE
  5
37E
330
17
100
AcDbEntity
  8
4
100
AcDbLine
 10
2096.558543703586
 20
476.6943102840626
 30
0.0
 11
2096.558543703586
 21
466.8314911946893
 31
0.0
  0
LINE
  5
37F
330
17
100
AcDbEntity
  8
4
100
AcDbLine
 10
2102.043371260888
 20
476.6943102840626
 30
0.0
 11
2102.043371260888
 21
469.8314911946893
 31
0.0
  0
LINE
  5
380
330
17
100
AcDbEntity
  8
4
100
AcDbLine
 10
2118.497853932791
 20
466.8314911946893
 30
0.0
 11
2118.497853932791
 21
476.6943102840626
 31
0.0
  0
LINE
  5
381
330
17
100
AcDbEntity
  8
4
100
AcDbLine
 10
2113.01302637549
 20
476.6943102840626
 30
0.0
 11
2113.01302637549
 21
469.8314911946893
 31
0.0
  0
ARC
  5
382
330
17
100
AcDbEntity
  8
4
100
AcDbCircle
 10
2099.300957482237
 20
473.9561123194101
 30
0.0
 40
3.875378875279244
100
AcDbArc
 50
44.9559267627547
 51
135.044073237262
  0
LINE
  5
383
330
17
100
AcDbEntity
  8
4
100
AcDbLine
 10
2115.755440154142
 20
477.8314911946893
 30
0.0
 11
2099.300957482237
 21
477.8314911946893
 31
0.0
  0
ARC
  5
384
330
17
100
AcDbEntity
  8
4
100
AcDbCircle
 10
2107.528198818188
 20
464.035747059512
 30
0.0
 40
13.7957441351769
100
AcDbArc
 50
66.57340249136868
 51
113.4265975086233
  0
ARC
  5
385
330
17
100
AcDbEntity
  8
4
100
AcDbCircle
 10
2115.755440154142
 20
473.9561123194101
 30
0.0
 40
3.875378875279264
100
AcDbArc
 50
44.9559267627547
 51
135.044073237262
  0
LINE
  5
386
330
17
100
AcDbEntity
  8
4
100
AcDbLine
 10
2096.558543703586
 20
469.8314911946893
 30
0.0
 11
2118.497853932791
 21
469.8314911946893
 31
0.0
  0
LINE
  5
387
330
17
100
AcDbEntity
  8
4
100
AcDbLine
 10
2096.558543703586
 20
466.8314911946893
 30
0.0
 11
2118.497853932791
 21
466.8314911946893
 31
0.0
  0
LINE
  5
388
330
17
100
AcDbEntity
  8
4
100
AcDbLine
 10
1855.370543703586
 20
466.8314911946893
 30
0.0
 11
1877.309853932791
 21
466.8314911946893
 31
0.0
  0
LINE
  5
389
330
17
100
AcDbEntity
  8
4
100
AcDbLine
 10
1855.370543703586
 20
469.8314911946893
 30
0.0
 11
1877.309853932791
 21
469.8314911946893
 31
0.0
  0
ARC
  5
38A
330
17
100
AcDbEntity
  8
4
100
AcDbCircle
 10
1874.567440154141
 20
473.9561123194101
 30
0.0
 40
3.875378875279264
100
AcDbArc
 50
44.9559267627547
 51
135.044073237262
  0
ARC
  5
38B
330
17
100
AcDbEntity
  8
4
100
AcDbCircle
 10
1866.340198818188
 20
464.035747059512
 30
0.0
 40
13.7957441351769
100
AcDbArc
 50
66.57340249136868
 51
113.4265975086233
  0
LINE
  5
38C
330
17
100
AcDbEntity
  8
4
100
AcDbLine
 10
1874.567440154141
 20
477.8314911946893
 30
0.0
 11
1858.112957482237
 21
477.8314911946893
 31
0.0
  0
ARC
  5
38D
330
17
100
AcDbEntity
  8
4
100
AcDbCircle
 10
1858.112957482237
 20
473.9561123194101
 30
0.0
 40
3.875378875279244
100
AcDbArc
 50
44.9559267627547
 51
135.044073237262
  0
LINE
  5
38E
330
17
100
AcDbEntity
  8
4
100
AcDbLine
 10
1871.82502637549
 20
476.6943102840626
 30
0.0
 11
1871.82502637549
 21
469.8314911946893
 31
0.0
  0
LINE
  5
38F
330
17
100
AcDbEntity
  8
4
100
AcDbLine
 10
1877.309853932791
 20
466.8314911946893
 30
0.0
 11
1877.309853932791
 21
476.6943102840626
 31
0.0
  0
LINE
  5
390
330
17
100
AcDbEntity
  8
4
100
AcDbLine
 10
1860.855371260888
 20
476.6943102840626
 30
0.0
 11
1860.855371260888
 21
469.8314911946893
 31
0.0
  0
LINE
  5
391
330
17
100
AcDbEntity
  8
4
100
AcDbLine
 10
1855.370543703586
 20
476.6943102840626
 30
0.0
 11
1855.370543703586
 21
466.8314911946893
 31
0.0
  0
ARC
  5
392
330
17
100
AcDbEntity
  8
4
100
AcDbCircle
 10
1633.379440154141
 20
473.9561123194101
 30
0.0
 40
3.875378875279264
100
AcDbArc
 50
44.95592676275233
 51
135.044073237262
  0
LINE
  5
393
330
17
100
AcDbEntity
  8
4
100
AcDbLine
 10
1614.182543703585
 20
469.8314911946893
 30
0.0
 11
1636.121853932791
 21
469.8314911946893
 31
0.0
  0
LINE
  5
394
330
17
100
AcDbEntity
  8
4
100
AcDbLine
 10
1614.182543703585
 20
466.8314911946893
 30
0.0
 11
1636.121853932791
 21
466.8314911946893
 31
0.0
  0
LINE
  5
395
330
17
100
AcDbEntity
  8
4
100
AcDbLine
 10
1614.182543703585
 20
476.6943102840626
 30
0.0
 11
1614.182543703585
 21
466.8314911946893
 31
0.0
  0
LINE
  5
396
330
17
100
AcDbEntity
  8
4
100
AcDbLine
 10
1619.667371260888
 20
476.6943102840626
 30
0.0
 11
1619.667371260888
 21
469.8314911946893
 31
0.0
  0
LINE
  5
397
330
17
100
AcDbEntity
  8
4
100
AcDbLine
 10
1630.63702637549
 20
476.6943102840626
 30
0.0
 11
1630.63702637549
 21
469.8314911946893
 31
0.0
  0
ARC
  5
398
330
17
100
AcDbEntity
  8
4
100
AcDbCircle
 10
1616.924957482237
 20
473.9561123194101
 30
0.0
 40
3.875378875279244
100
AcDbArc
 50
44.95592676275233
 51
135.044073237262
  0
LINE
  5
399
330
17
100
AcDbEntity
  8
4
100
AcDbLine
 10
1633.379440154141
 20
477.8314911946893
 30
0.0
 11
1616.924957482237
 21
477.8314911946893
 31
0.0
  0
ARC
  5
39A
330
17
100
AcDbEntity
  8
4
100
AcDbCircle
 10
1625.152198818188
 20
464.035747059512
 30
0.0
 40
13.7957441351769
100
AcDbArc
 50
66.57340249136868
 51
113.4265975086271
  0
LINE
  5
39B
330
17
100
AcDbEntity
  8
4
100
AcDbLine
 10
1636.121853932791
 20
466.8314911946893
 30
0.0
 11
1636.121853932791
 21
476.6943102840626
 31
0.0
  0
LINE
  5
39C
330
17
100
AcDbEntity
  8
4
100
AcDbLine
 10
2096.702735439463
 20
476.8314911889513
 30
0.0
 11
2056.340198760808
 21
476.8314911889513
 31
0.0
  0
LINE
  5
39D
330
17
100
AcDbEntity
  8
4
100
AcDbLine
 10
1635.977662196915
 20
476.8314911889513
 30
0.0
 11
1676.340198875568
 21
476.8314911889513
 31
0.0
  0
LINE
  5
39E
330
17
100
AcDbEntity
  8
4
100
AcDbLine
 10
2169.840198726984
 20
298.0314912508616
 30
0.0
 11
2168.340198726984
 21
298.0314912508616
 31
0.0
  0
LINE
  5
39F
330
17
100
AcDbEntity
  8
4
100
AcDbLine
 10
2171.840198726984
 20
298.5314912508616
 30
0.0
 11
2169.840198726984
 21
298.5314912508616
 31
0.0
  0
LINE
  5
3A0
330
17
100
AcDbEntity
  8
4
100
AcDbLine
 10
2176.088787178698
 20
297.8519993265504
 30
0.0
 11
2171.840198726984
 21
297.8519993265504
 31
0.0
  0
LINE
  5
3A1
330
17
100
AcDbEntity
  8
4
100
AcDbLine
 10
2176.652610753866
 20
271.8712372130171
 30
0.0
 11
2171.840198726984
 21
271.8712372130171
 31
0.0
  0
LINE
  5
3A2
330
17
100
AcDbEntity
  8
4
100
AcDbLine
 10
2176.652610753866
 20
289.191745288706
 30
0.0
 11
2171.840198726984
 21
289.191745288706
 31
0.0
  0
LINE
  5
3A3
330
17
100
AcDbEntity
  8
4
100
AcDbLine
 10
2169.840198726984
 20
263.0314912508616
 30
0.0
 11
2168.340198726984
 21
263.0314912508616
 31
0.0
  0
LINE
  5
3A4
330
17
100
AcDbEntity
  8
4
100
AcDbLine
 10
2171.840198726984
 20
262.5314912508616
 30
0.0
 11
2169.840198726984
 21
262.5314912508616
 31
0.0
  0
LINE
  5
3A5
330
17
100
AcDbEntity
  8
4
100
AcDbLine
 10
2176.088787178698
 20
263.2109831751727
 30
0.0
 11
2171.840198726984
 21
263.2109831751727
 31
0.0
  0
ARC
  5
3A6
330
17
100
AcDbEntity
  8
4
100
AcDbCircle
 10
1976.840198726984
 20
280.5314912508616
 30
0.0
 40
200.0
100
AcDbArc
 50
355.0318164639294
 51
4.968183536070257
  0
LINE
  5
3A7
330
17
100
AcDbEntity
  8
4
100
AcDbLine
 10
2168.340198726984
 20
298.0314912508616
 30
0.0
 11
2168.340198726984
 21
263.0314912508616
 31
0.0
  0
LINE
  5
3A8
330
17
100
AcDbEntity
  8
4
100
AcDbLine
 10
2169.840198726984
 20
298.5314912508616
 30
0.0
 11
2169.840198726984
 21
262.5314912508616
 31
0.0
  0
LINE
  5
3A9
330
17
100
AcDbEntity
  8
4
100
AcDbLine
 10
2171.840198726984
 20
298.5314912508616
 30
0.0
 11
2171.840198726984
 21
262.5314912508616
 31
0.0
  0
LINE
  5
3AA
330
17
100
AcDbEntity
  8
4
100
AcDbLine
 10
671.0015375871617
 20
1799.177549362871
 30
0.0
 11
707.0015375871617
 21
1799.177549362871
 31
0.0
  0
LINE
  5
3AB
330
17
100
AcDbEntity
  8
4
100
AcDbLine
 10
671.0015375871617
 20
1801.177549362871
 30
0.0
 11
707.0015375871617
 21
1801.177549362871
 31
0.0
  0
LINE
  5
3AC
330
17
100
AcDbEntity
  8
4
100
AcDbLine
 10
671.0015375871617
 20
1801.177549362871
 30
0.0
 11
671.0015375871617
 21
1799.177549362871
 31
0.0
  0
LINE
  5
3AD
330
17
100
AcDbEntity
  8
4
100
AcDbLine
 10
706.5015375871617
 20
1799.177549362871
 30
0.0
 11
706.5015375871617
 21
1797.677549362871
 31
0.0
  0
LINE
  5
3AE
330
17
100
AcDbEntity
  8
4
100
AcDbLine
 10
707.0015375871617
 20
1801.177549362871
 30
0.0
 11
707.0015375871617
 21
1799.177549362871
 31
0.0
  0
LINE
  5
3AF
330
17
100
AcDbEntity
  8
4
100
AcDbLine
 10
704.0015375871617
 20
1805.614256114663
 30
0.0
 11
704.0015375871617
 21
1801.177549362871
 31
0.0
  0
LINE
  5
3B0
330
17
100
AcDbEntity
  8
4
100
AcDbLine
 10
671.5015375871617
 20
1799.177549362871
 30
0.0
 11
671.5015375871617
 21
1797.677549362871
 31
0.0
  0
LINE
  5
3B1
330
17
100
AcDbEntity
  8
4
100
AcDbLine
 10
674.0015375871617
 20
1805.614256114663
 30
0.0
 11
674.0015375871617
 21
1801.177549362871
 31
0.0
  0
ARC
  5
3B2
330
17
100
AcDbEntity
  8
4
100
AcDbCircle
 10
689.0015375871617
 20
1606.177549362871
 30
0.0
 40
200.0
100
AcDbArc
 50
85.69877769532965
 51
94.30122230467038
  0
LINE
  5
3B3
330
17
100
AcDbEntity
  8
4
100
AcDbLine
 10
671.5015375871617
 20
1797.677549362871
 30
0.0
 11
706.5015375871617
 21
1797.677549362871
 31
0.0
  0
LINE
  5
3B4
330
17
100
AcDbEntity
  8
4
100
AcDbLine
 10
1038.001537484481
 20
1209.67754936287
 30
0.0
 11
1139.001537451261
 21
1209.67754936287
 31
0.0
  0
LINE
  5
3B5
330
17
100
AcDbEntity
  8
4
100
AcDbLine
 10
1038.001537484481
 20
1191.67754936287
 30
0.0
 11
1139.001537451261
 21
1191.67754936287
 31
0.0
  0
ARC
  5
3B6
330
17
100
AcDbEntity
  8
4
100
AcDbCircle
 10
1038.001537484481
 20
1200.67754936287
 30
0.0
 40
9.0
100
AcDbArc
 50
90.0
 51
270.0
  0
CIRCLE
  5
417
330
17
100
AcDbEntity
  8
4
100
AcDbCircle
 10
1571.340198907279
 20
320.5314912387817
 30
0.0
 40
50.0
  0
CIRCLE
  5
418
330
17
100
AcDbEntity
  8
4
100
AcDbCircle
 10
1571.340198907279
 20
320.5314912387817
 30
0.0
 40
72.0
  0
SPLINE
  5
586
330
17
100
AcDbEntity
  8
4
100
AcDbSpline
210
0.0
220
0.0
230
1.0
 70
     8
 71
     3
 72
    10
 73
     6
 74
     0
 42
0.000000001
 43
0.0
 40
10.15181342429091
 40
10.15181342429091
 40
10.15181342429091
 40
10.15181342429091
 40
22.97080335179979
 40
39.7370718880326
 40
53.00932436427401
 40
53.00932436427401
 40
53.00932436427401
 40
53.00932436427401
 10
937.4404867201797
 20
132.5314912961619
 30
0.0
 10
939.0136266882669
 20
128.3100281305286
 30
0.0
 10
941.0181373086261
 20
118.2780194582417
 30
0.0
 10
931.4828649181795
 20
106.6295550827567
 30
0.0
 10
930.2622971115748
 20
95.10983518742535
 30
0.0
 10
931.106363949882
 20
90.53149130824181
 30
0.0
  0
ARC
  5
587
330
17
100
AcDbEntity
  8
4
100
AcDbCircle
 10
377.7015376813852
 20
207.0314912733606
 30
0.0
 40
1.0
100
AcDbArc
 50
180.0
 51
270.0
  0
ARC
  5
588
330
17
100
AcDbEntity
  8
4
100
AcDbCircle
 10
377.7015376813852
 20
434.0314912042027
 30
0.0
 40
1.0
100
AcDbArc
 50
90.0
 51
180.0
  0
ARC
  5
589
330
17
100
AcDbEntity
  8
4
100
AcDbCircle
 10
1000.301537492937
 20
434.0314912042027
 30
0.0
 40
1.0
100
AcDbArc
 50
0.0
 51
90.0
  0
ARC
  5
58A
330
17
100
AcDbEntity
  8
4
100
AcDbCircle
 10
1000.301537492937
 20
207.0314912733606
 30
0.0
 40
1.0
100
AcDbArc
 50
270.0
 51
0.0
  0
LINE
  5
5AE
330
17
100
AcDbEntity
  8
4
100
AcDbLine
 10
375.7015376816876
 20
358.3314912387823
 30
0.0
 11
375.7015376816876
 21
282.731491238781
 31
0.0
  0
LINE
  5
5AF
330
17
100
AcDbEntity
  8
4
100
AcDbLine
 10
375.7015376816876
 20
288.0314912485965
 30
0.0
 11
359.0015376868209
 21
288.0314912485965
 31
0.0
  0
LINE
  5
5B0
330
17
100
AcDbEntity
  8
4
100
AcDbLine
 10
375.7015376816876
 20
353.0314912289664
 30
0.0
 11
359.0015376868209
 21
353.0314912289664
 31
0.0
  0
LINE
  5
5B1
330
17
100
AcDbEntity
  8
4
100
AcDbLine
 10
359.0015376868209
 20
353.0314912289664
 30
0.0
 11
359.0015376868209
 21
288.0314912485965
 31
0.0
  0
LINE
  5
5B2
330
17
100
AcDbEntity
  8
4
100
AcDbLine
 10
239.0015377230616
 20
350.0314912298722
 30
0.0
 11
241.0015377224568
 21
352.0314912292683
 31
0.0
  0
LINE
  5
5B3
330
17
100
AcDbEntity
  8
4
100
AcDbLine
 10
241.0015377224568
 20
352.0314912292683
 30
0.0
 11
359.0015376868209
 21
352.0314912292683
 31
0.0
  0
LINE
  5
5B4
330
17
100
AcDbEntity
  8
4
100
AcDbLine
 10
239.0015377230616
 20
291.0314912476902
 30
0.0
 11
241.0015377224568
 21
289.0314912482945
 31
0.0
  0
LINE
  5
5B5
330
17
100
AcDbEntity
  8
4
100
AcDbLine
 10
241.0015377224568
 20
289.0314912482945
 30
0.0
 11
359.0015376868209
 21
289.0314912482945
 31
0.0
  0
LINE
  5
5B6
330
17
100
AcDbEntity
  8
4
100
AcDbLine
 10
239.0015377230616
 20
291.0314912476902
 30
0.0
 11
239.0015377230616
 21
358.0314912274566
 31
0.0
  0
LINE
  5
5B7
330
17
100
AcDbEntity
  8
4
100
AcDbLine
 10
241.0015377224568
 20
289.0314912482945
 30
0.0
 11
241.0015377224568
 21
352.0314912292683
 31
0.0
  0
LINE
  5
5B8
330
17
100
AcDbEntity
  8
4
100
AcDbLine
 10
349.0015376898414
 20
358.0314912274566
 30
0.0
 11
239.0015377230616
 21
358.0314912274566
 31
0.0
  0
LINE
  5
5B9
330
17
100
AcDbEntity
  8
4
100
AcDbLine
 10
349.0015376898414
 20
352.0314912292683
 30
0.0
 11
349.0015376898414
 21
358.0314912274566
 31
0.0
  0
LINE
  5
5BD
330
17
100
AcDbEntity
  8
4
100
AcDbLine
 10
241.0015377224568
 20
1169.177549372384
 30
0.0
 11
359.0015376868209
 21
1169.177549372384
 31
0.0
  0
LINE
  5
5BE
330
17
100
AcDbEntity
  8
4
100
AcDbLine
 10
375.7015376816876
 20
1168.177549372686
 30
0.0
 11
359.0015376868209
 21
1168.177549372686
 31
0.0
  0
LINE
  5
5BF
330
17
100
AcDbEntity
  8
4
100
AcDbLine
 10
359.0015376868209
 20
1233.177549353055
 30
0.0
 11
359.0015376868209
 21
1168.177549372686
 31
0.0
  0
LINE
  5
5C0
330
17
100
AcDbEntity
  8
4
100
AcDbLine
 10
241.0015377224568
 20
1169.177549372384
 30
0.0
 11
241.0015377224568
 21
1191.67754936287
 31
0.0
  0
LINE
  5
5C1
330
17
100
AcDbEntity
  8
4
100
AcDbLine
 10
239.0015377230616
 20
1171.177549371779
 30
0.0
 11
239.0015377230616
 21
1230.177549353962
 31
0.0
  0
LINE
  5
5C2
330
17
100
AcDbEntity
  8
4
100
AcDbLine
 10
239.0015377230616
 20
1171.177549371779
 30
0.0
 11
241.0015377224568
 21
1169.177549372384
 31
0.0
  0
LINE
  5
5C3
330
17
100
AcDbEntity
  8
4
100
AcDbLine
 10
241.0015377224568
 20
1232.177549353357
 30
0.0
 11
359.0015376868209
 21
1232.177549353357
 31
0.0
  0
LINE
  5
5C4
330
17
100
AcDbEntity
  8
4
100
AcDbLine
 10
375.7015376816876
 20
1233.177549353055
 30
0.0
 11
359.0015376868209
 21
1233.177549353055
 31
0.0
  0
LINE
  5
5C5
330
17
100
AcDbEntity
  8
4
100
AcDbLine
 10
375.7015376816876
 20
1245.677549362871
 30
0.0
 11
375.7015376816876
 21
1211.647204477496
 31
0.0
  0
LINE
  5
5C6
330
17
100
AcDbEntity
  8
4
100
AcDbLine
 10
239.0015377230616
 20
1230.177549353962
 30
0.0
 11
241.0015377224568
 21
1232.177549353358
 31
0.0
  0
LINE
  5
5C7
330
17
100
AcDbEntity
  8
4
100
AcDbLine
 10
241.0015377224568
 20
1209.67754936287
 30
0.0
 11
241.0015377224568
 21
1232.177549353357
 31
0.0
  0
LINE
  5
5C8
330
17
100
AcDbEntity
  8
4
100
AcDbLine
 10
376.701537587162
 20
1245.67754936287
 30
0.0
 11
375.7015376816876
 21
1245.67754936287
 31
0.0
  0
LINE
  5
5C9
330
17
100
AcDbEntity
  8
4
100
AcDbLine
 10
376.701537587162
 20
1155.677549362871
 30
0.0
 11
375.7015376816876
 21
1155.677549362871
 31
0.0
  0
LINE
  5
5CA
330
17
100
AcDbEntity
  8
4
100
AcDbLine
 10
375.7015376816876
 20
1189.70789424829
 30
0.0
 11
375.7015376816876
 21
1155.67754936287
 31
0.0
  0
LINE
  5
5CB
330
17
100
AcDbEntity
  8
4
100
AcDbLine
 10
340.0015376898414
 20
1209.67754936287
 30
0.0
 11
239.0015377230616
 21
1209.67754936287
 31
0.0
  0
LINE
  5
5CC
330
17
100
AcDbEntity
  8
4
100
AcDbLine
 10
340.0015376898414
 20
1191.67754936287
 30
0.0
 11
239.0015377230616
 21
1191.67754936287
 31
0.0
  0
ARC
  5
5CD
330
17
100
AcDbEntity
  8
4
100
AcDbCircle
 10
340.0015376898414
 20
1200.67754936287
 30
0.0
 40
9.0
100
AcDbArc
 50
270.0
 51
90.0
  0
ENDSEC
  0
SECTION
  2
OBJECTS
  0
DICTIONARY
  5
5
330
0
100
AcDbDictionary
281
     1
  3
ACAD_COLOR
350
29
  3
ACAD_GROUP
350
27
  3
ACAD_LAYOUT
350
1E
  3
ACAD_MATERIAL
350
7
  3
ACAD_MLEADERSTYLE
350
58E
  3
ACAD_MLINESTYLE
350
15
  3
ACAD_PLOTSETTINGS
350
28
  3
ACAD_PLOTSTYLENAME
350
4
  3
ACAD_SCALELIST
350
2D
  3
ACAD_TABLESTYLE
350
58D
  3
ACAD_VISUALSTYLE
350
2A
  3
ACDBHEADERROUNDTRIPXREC
350
5E8
  3
AcDbVariableDictionary
350
58B
  3
DWGPROPS
350
5EB
  0
DICTIONARY
  5
5EC
330
26
100
AcDbDictionary
280
     1
281
     1
  3
ACAD_XREC_ROUNDTRIP
360
5ED
  0
DICTIONARY
  5
18
330
17
100
AcDbDictionary
280
     1
281
     1
  3
ACAD_SORTENTS
360
19
  0
DICTIONARY
  5
29
102
{ACAD_REACTORS
330
5
102
}
330
5
100
AcDbDictionary
281
     1
  0
DICTIONARY
  5
27
102
{ACAD_REACTORS
330
5
102
}
330
5
100
AcDbDictionary
281
     1
  0
DICTIONARY
  5
1E
102
{ACAD_REACTORS
330
5
102
}
330
5
100
AcDbDictionary
281
     1
  3
Model
350
1D
  3
ﾚｲｱｳﾄ1
350
23
  0
DICTIONARY
  5
7
102
{ACAD_REACTORS
330
5
102
}
330
5
100
AcDbDictionary
281
     1
  3
ByBlock
350
70
  3
ByLayer
350
10
  3
Global
350
6
  0
DICTIONARY
  5
58E
102
{ACAD_REACTORS
330
5
102
}
330
5
100
AcDbDictionary
281
     1
  3
Standard
350
5A9
  0
DICTIONARY
  5
15
102
{ACAD_REACTORS
330
5
102
}
330
5
100
AcDbDictionary
281
     1
  3
STANDARD
350
14
  0
DICTIONARY
  5
28
102
{ACAD_REACTORS
330
5
102
}
330
5
100
AcDbDictionary
281
     1
  0
ACDBDICTIONARYWDFLT
  5
4
102
{ACAD_REACTORS
330
5
102
}
330
5
100
AcDbDictionary
281
     1
  3
Normal
350
3
100
AcDbDictionaryWithDefault
340
3
  0
DICTIONARY
  5
2D
102
{ACAD_REACTORS
330
5
102
}
330
5
100
AcDbDictionary
281
     1
  3
*A1
350
4F
  3
*A10
350
58
  3
*A11
350
59
  3
*A12
350
5A
  3
*A13
350
5B
  3
*A14
350
5C
  3
*A15
350
5D
  3
*A16
350
5E
  3
*A17
350
5F
  3
*A18
350
60
  3
*A19
350
61
  3
*A2
350
50
  3
*A20
350
62
  3
*A21
350
63
  3
*A22
350
64
  3
*A23
350
65
  3
*A24
350
66
  3
*A25
350
67
  3
*A26
350
68
  3
*A27
350
69
  3
*A28
350
6A
  3
*A29
350
6B
  3
*A3
350
51
  3
*A30
350
6C
  3
*A31
350
6D
  3
*A32
350
6E
  3
*A33
350
6F
  3
*A4
350
52
  3
*A5
350
53
  3
*A6
350
54
  3
*A7
350
55
  3
*A8
350
56
  3
*A9
350
57
  0
DICTIONARY
  5
58D
102
{ACAD_REACTORS
330
5
102
}
330
5
100
AcDbDictionary
281
     1
  3
Standard
350
5E4
  0
DICTIONARY
  5
2A
102
{ACAD_REACTORS
330
5
102
}
330
5
100
AcDbDictionary
281
     1
  3
2dWireframe
350
595
  3
Basic
350
598
  3
Brighten
350
59C
  3
ColorChange
350
5A0
  3
Conceptual
350
59A
  3
Dim
350
59B
  3
EdgeColorOff
350
5A3
  3
Facepattern
350
59F
  3
Flat
350
591
  3
FlatWithEdges
350
592
  3
Gouraud
350
593
  3
GouraudWithEdges
350
594
  3
Hidden
350
597
  3
JitterOff
350
5A1
  3
Linepattern
350
59E
  3
OverhangOff
350
5A2
  3
Realistic
350
599
  3
Shaded
350
5A8
  3
Shaded with edges
350
5A7
  3
Shades of Gray
350
5A4
  3
Sketchy
350
5A5
  3
Thicken
350
59D
  3
Wireframe
350
596
  3
X-Ray
350
5A6
  0
DICTIONARY
  5
5E8
102
{ACAD_REACTORS
330
5
102
}
330
5
100
AcDbDictionary
281
     1
  3
COLORDICT
350
5E9
  3
MATERIALDICT
350
5EA
  0
DICTIONARY
  5
58B
102
{ACAD_REACTORS
330
5
102
}
330
5
100
AcDbDictionary
281
     1
  3
CANNOSCALE
350
58C
  3
CMLEADERSTYLE
350
5AB
  3
CTABLESTYLE
350
5E5
  3
DIMASSOC
350
5E6
  3
HIDETEXT
350
5E7
  3
MSLTSCALE
350
5EE
  0
XRECORD
  5
5EB
102
{ACAD_REACTORS
330
5
102
}
330
5
100
AcDbXrecord
280
     1
  1
DWGPROPS COOKIE
  2

  3

  4

  6

  7

  8
sg-d04
  9

300
=
301
=
302
=
303
=
304
=
305
=
306
=
307
=
308
=
309
=
 40
0.0
 41
2457431.467175023
 42
2457871.468983206
  1

 90
        0
  0
XRECORD
  5
5ED
102
{ACAD_REACTORS
330
5EC
102
}
330
5EC
100
AcDbXrecord
280
     1
102
VTR_0.000_0.000_1.000_1.000_VISUALSTYLE
340
595
102
VTR_0.000_0.000_1.000_1.000_GRIDDISPLAY
 70
     3
102
VTR_0.000_0.000_1.000_1.000_GRIDMAJOR
 70
     5
102
VTR_0.000_0.000_1.000_1.000_DEFAULTLIGHTING
280
     1
102
VTR_0.000_0.000_1.000_1.000_DEFAULTLIGHTINGTYPE
 70
     1
102
VTR_0.000_0.000_1.000_1.000_BRIGHTNESS
141
0.0
102
VTR_0.000_0.000_1.000_1.000_CONTRAST
142
0.0
  0
SORTENTSTABLE
  5
19
102
{ACAD_REACTORS
330
18
102
}
330
18
100
AcDbSortentsTable
330
17
  0
LAYOUT
  5
1D
102
{ACAD_REACTORS
330
1E
102
}
330
1E
100
AcDbPlotSettings
  1

  2
Bullzip PDF Printer.pc3
  4
A3
  6

 40
0.2
 41
0.0
 42
0.0
 43
0.0
 44
420.2
 45
297.1
 46
25.0
 47
12.0
 48
139.9999997783334
 49
0.0
140
2813.999993653335
141
1907.499995549166
142
1.0
143
7.0
 70
  1696
 72
     1
 73
     0
 74
     4
  7
monochrome.ctb
 75
     0
147
0.1428571428571428
148
-139.9999997783334
149
0.0
100
AcDbLayout
  1
Model
 70
     0
 71
     0
 10
0.0
 20
0.0
 11
12.0
 21
9.0
 12
0.0
 22
0.0
 32
0.0
 14
224.9986081498259
 24
70.53149130824158
 34
0.0
 15
2180.042735990135
 25
1813.924789604789
 35
0.0
146
0.0
 13
0.0
 23
0.0
 33
0.0
 16
1.0
 26
0.0
 36
0.0
 17
0.0
 27
1.0
 37
0.0
 76
     0
330
17
331
2B
1001
ACAD_PSEXT
1000
Bullzip PDF Printer.pc3
1000
Bullzip PDF Printer
1000
BULLZIP
1000
Bullzip PDF Printer 10.1.0.1871
1070
     0
  0
LAYOUT
  5
23
102
{ACAD_REACTORS
330
1E
102
}
330
1E
100
AcDbPlotSettings
  1

  2
SR-LP8300F
  4

  6

 40
0.0
 41
0.0
 42
0.0
 43
0.0
 44
0.0
 45
0.0
 46
0.0
 47
0.0
 48
0.0
 49
0.0
140
0.0
141
0.0
142
1.0
143
1.0
 70
   688
 72
     0
 73
     0
 74
     5
  7
monochrome.ctb
 75
    16
147
1.0
148
0.0
149
0.0
100
AcDbLayout
  1
ﾚｲｱｳﾄ1
 70
     0
 71
     1
 10
0.0
 20
0.0
 11
12.0
 21
9.0
 12
0.0
 22
0.0
 32
0.0
 14
1.000000000000000E+20
 24
1.000000000000000E+20
 34
1.000000000000000E+20
 15
-1.000000000000000E+20
 25
-1.000000000000000E+20
 35
-1.000000000000000E+20
146
0.0
 13
0.0
 23
0.0
 33
0.0
 16
1.0
 26
0.0
 36
0.0
 17
0.0
 27
1.0
 37
0.0
 76
     0
330
20
  0
MATERIAL
  5
70
102
{ACAD_REACTORS
330
7
102
}
102
{ACAD_XDICTIONARY
360
5F3
102
}
330
7
100
AcDbMaterial
  1
ByBlock
  0
MATERIAL
  5
10
102
{ACAD_REACTORS
330
7
102
}
102
{ACAD_XDICTIONARY
360
5EF
102
}
330
7
100
AcDbMaterial
  1
ByLayer
  0
MATERIAL
  5
6
102
{ACAD_REACTORS
330
7
102
}
102
{ACAD_XDICTIONARY
360
5F1
102
}
330
7
100
AcDbMaterial
  1
Global
1001
ACAD
1070
    -1
1070
     3
1070
     0
1000

1071
        0
  0
MLEADERSTYLE
  5
5A9
102
{ACAD_REACTORS
330
58E
102
}
102
{ACAD_XDICTIONARY
360
625
102
}
330
58E
100
AcDbMLeaderStyle
170
     2
171
     1
172
     0
 90
        2
 40
0.0
 41
0.0
173
     1
 91
-1056964608
340
D
 92
       -2
290
     1
 42
0.09
291
     1
 43
0.36
  3
Standard
341
0
 44
0.18
300

342
E
174
     1
178
     6
175
     1
176
     0
 93
-1056964608
 45
0.18
292
     0
297
     0
 46
0.18
343
0
 94
-1056964608
 47
1.0
 49
1.0
140
1.0
293
     1
141
0.0
294
     1
177
     0
142
1.0
295
     0
296
     0
143
0.125
1001
ACAD_MLEADERVER
1070
     2
  0
MLINESTYLE
  5
14
102
{ACAD_REACTORS
330
15
102
}
330
15
100
AcDbMlineStyle
  2
STANDARD
 70
     0
  3

 62
     0
 51
90.0
 52
90.0
 71
     2
 49
0.5
 62
   256
  6
BYLAYER
 49
-0.5
 62
   256
  6
BYLAYER
  0
ACDBPLACEHOLDER
  5
3
102
{ACAD_REACTORS
330
4
102
}
330
4
  0
SCALE
  5
4F
102
{ACAD_REACTORS
330
2D
102
}
330
2D
100
AcDbScale
 70
     0
300
1:1
140
1.0
141
1.0
290
     1
  0
SCALE
  5
58
102
{ACAD_REACTORS
330
2D
102
}
330
2D
100
AcDbScale
 70
     0
300
1:40
140
1.0
141
40.0
290
     0
  0
SCALE
  5
59
102
{ACAD_REACTORS
330
2D
102
}
330
2D
100
AcDbScale
 70
     0
300
1:50
140
1.0
141
50.0
290
     0
  0
SCALE
  5
5A
102
{ACAD_REACTORS
330
2D
102
}
330
2D
100
AcDbScale
 70
     0
300
1:100
140
1.0
141
100.0
290
     0
  0
SCALE
  5
5B
102
{ACAD_REACTORS
330
2D
102
}
330
2D
100
AcDbScale
 70
     0
300
2:1
140
2.0
141
1.0
290
     0
  0
SCALE
  5
5C
102
{ACAD_REACTORS
330
2D
102
}
330
2D
100
AcDbScale
 70
     0
300
4:1
140
4.0
141
1.0
290
     0
  0
SCALE
  5
5D
102
{ACAD_REACTORS
330
2D
102
}
330
2D
100
AcDbScale
 70
     0
300
8:1
140
8.0
141
1.0
290
     0
  0
SCALE
  5
5E
102
{ACAD_REACTORS
330
2D
102
}
330
2D
100
AcDbScale
 70
     0
300
10:1
140
10.0
141
1.0
290
     0
  0
SCALE
  5
5F
102
{ACAD_REACTORS
330
2D
102
}
330
2D
100
AcDbScale
 70
     0
300
100:1
140
100.0
141
1.0
290
     0
  0
SCALE
  5
60
102
{ACAD_REACTORS
330
2D
102
}
330
2D
100
AcDbScale
 70
     0
300
1/128" = 1'-0"
140
0.0078125
141
12.0
290
     0
  0
SCALE
  5
61
102
{ACAD_REACTORS
330
2D
102
}
330
2D
100
AcDbScale
 70
     0
300
1/64" = 1'-0"
140
0.015625
141
12.0
290
     0
  0
SCALE
  5
50
102
{ACAD_REACTORS
330
2D
102
}
330
2D
100
AcDbScale
 70
     0
300
1:2
140
1.0
141
2.0
290
     0
  0
SCALE
  5
62
102
{ACAD_REACTORS
330
2D
102
}
330
2D
100
AcDbScale
 70
     0
300
1/32" = 1'-0"
140
0.03125
141
12.0
290
     0
  0
SCALE
  5
63
102
{ACAD_REACTORS
330
2D
102
}
330
2D
100
AcDbScale
 70
     0
300
1/16" = 1'-0"
140
0.0625
141
12.0
290
     0
  0
SCALE
  5
64
102
{ACAD_REACTORS
330
2D
102
}
330
2D
100
AcDbScale
 70
     0
300
3/32" = 1'-0"
140
0.09375
141
12.0
290
     0
  0
SCALE
  5
65
102
{ACAD_REACTORS
330
2D
102
}
330
2D
100
AcDbScale
 70
     0
300
1/8" = 1'-0"
140
0.125
141
12.0
290
     0
  0
SCALE
  5
66
102
{ACAD_REACTORS
330
2D
102
}
330
2D
100
AcDbScale
 70
     0
300
3/16" = 1'-0"
140
0.1875
141
12.0
290
     0
  0
SCALE
  5
67
102
{ACAD_REACTORS
330
2D
102
}
330
2D
100
AcDbScale
 70
     0
300
1/4" = 1'-0"
140
0.25
141
12.0
290
     0
  0
SCALE
  5
68
102
{ACAD_REACTORS
330
2D
102
}
330
2D
100
AcDbScale
 70
     0
300
3/8" = 1'-0"
140
0.375
141
12.0
290
     0
  0
SCALE
  5
69
102
{ACAD_REACTORS
330
2D
102
}
330
2D
100
AcDbScale
 70
     0
300
1/2" = 1'-0"
140
0.5
141
12.0
290
     0
  0
SCALE
  5
6A
102
{ACAD_REACTORS
330
2D
102
}
330
2D
100
AcDbScale
 70
     0
300
3/4" = 1'-0"
140
0.75
141
12.0
290
     0
  0
SCALE
  5
6B
102
{ACAD_REACTORS
330
2D
102
}
330
2D
100
AcDbScale
 70
     0
300
1" = 1'-0"
140
1.0
141
12.0
290
     0
  0
SCALE
  5
51
102
{ACAD_REACTORS
330
2D
102
}
330
2D
100
AcDbScale
 70
     0
300
1:4
140
1.0
141
4.0
290
     0
  0
SCALE
  5
6C
102
{ACAD_REACTORS
330
2D
102
}
330
2D
100
AcDbScale
 70
     0
300
1-1/2" = 1'-0"
140
1.5
141
12.0
290
     0
  0
SCALE
  5
6D
102
{ACAD_REACTORS
330
2D
102
}
330
2D
100
AcDbScale
 70
     0
300
3" = 1'-0"
140
3.0
141
12.0
290
     0
  0
SCALE
  5
6E
102
{ACAD_REACTORS
330
2D
102
}
330
2D
100
AcDbScale
 70
     0
300
6" = 1'-0"
140
6.0
141
12.0
290
     0
  0
SCALE
  5
6F
102
{ACAD_REACTORS
330
2D
102
}
330
2D
100
AcDbScale
 70
     0
300
1'-0" = 1'-0"
140
12.0
141
12.0
290
     0
  0
SCALE
  5
52
102
{ACAD_REACTORS
330
2D
102
}
330
2D
100
AcDbScale
 70
     0
300
1:5
140
1.0
141
5.0
290
     0
  0
SCALE
  5
53
102
{ACAD_REACTORS
330
2D
102
}
330
2D
100
AcDbScale
 70
     0
300
1:8
140
1.0
141
8.0
290
     0
  0
SCALE
  5
54
102
{ACAD_REACTORS
330
2D
102
}
330
2D
100
AcDbScale
 70
     0
300
1:10
140
1.0
141
10.0
290
     0
  0
SCALE
  5
55
102
{ACAD_REACTORS
330
2D
102
}
330
2D
100
AcDbScale
 70
     0
300
1:16
140
1.0
141
16.0
290
     0
  0
SCALE
  5
56
102
{ACAD_REACTORS
330
2D
102
}
330
2D
100
AcDbScale
 70
     0
300
1:20
140
1.0
141
20.0
290
     0
  0
SCALE
  5
57
102
{ACAD_REACTORS
330
2D
102
}
330
2D
100
AcDbScale
 70
     0
300
1:30
140
1.0
141
30.0
290
     0
  0
TABLESTYLE
  5
5E4
102
{ACAD_REACTORS
330
58D
102
}
330
58D
100
AcDbTableStyle
  3
Standard
 70
     0
 71
     0
 40
0.06
 41
0.06
280
     0
281
     0
  7
STANDARD
140
0.18
170
     2
 62
     0
 63
   257
283
     0
274
    -2
284
     1
 64
     0
275
    -2
285
     1
 65
     0
276
    -2
286
     1
 66
     0
277
    -2
287
     1
 67
     0
278
    -2
288
     1
 68
     0
279
    -2
289
     1
 69
     0
  7
STANDARD
140
0.25
170
     5
 62
     0
 63
   257
283
     0
274
    -2
284
     1
 64
     0
275
    -2
285
     1
 65
     0
276
    -2
286
     1
 66
     0
277
    -2
287
     1
 67
     0
278
    -2
288
     1
 68
     0
279
    -2
289
     1
 69
     0
  7
STANDARD
140
0.18
170
     5
 62
     0
 63
   257
283
     0
274
    -2
284
     1
 64
     0
275
    -2
285
     1
 65
     0
276
    -2
286
     1
 66
     0
277
    -2
287
     1
 67
     0
278
    -2
288
     1
 68
     0
279
    -2
289
     1
 69
     0
  0
VISUALSTYLE
  5
595
102
{ACAD_REACTORS
330
2A
102
}
102
{ACAD_XDICTIONARY
360
5FD
102
}
330
2A
100
AcDbVisualStyle
  2
2dWireframe
 70
     4
 71
     0
 72
     2
 73
     0
 90
        0
 40
0.6
 41
30.0
 62
     5
 63
     7
 74
     1
 91
        4
 64
     7
 65
   257
 75
     1
175
     1
 42
1.0
 92
        0
 66
   257
 43
1.0
 76
     1
 77
     6
 78
     2
 67
     7
 79
     5
170
     0
171
     0
290
     0
174
     0
 93
        1
 44
0.0
173
     0
291
     0
 45
0.0
1001
ACAD
1000
AcDbSavedByObjectVersion
1070
     0
  0
VISUALSTYLE
  5
598
102
{ACAD_REACTORS
330
2A
102
}
102
{ACAD_XDICTIONARY
360
603
102
}
330
2A
100
AcDbVisualStyle
  2
Basic
 70
     7
 71
     1
 72
     0
 73
     1
 90
        0
 40
0.6
 41
30.0
 62
     5
 63
     7
 74
     0
 91
        4
 64
     7
 65
   257
 75
     1
175
     1
 42
1.0
 92
        8
 66
     7
 43
1.0
 76
     1
 77
     6
 78
     2
 67
     7
 79
     5
170
     0
171
     0
290
     0
174
     0
 93
        1
 44
0.0
173
     0
291
     1
 45
0.0
1001
ACAD
1000
AcDbSavedByObjectVersion
1070
     0
  0
VISUALSTYLE
  5
59C
102
{ACAD_REACTORS
330
2A
102
}
102
{ACAD_XDICTIONARY
360
60B
102
}
330
2A
100
AcDbVisualStyle
  2
Brighten
 70
    12
 71
     2
 72
     2
 73
     0
 90
        0
 40
0.6
 41
30.0
 62
     5
 63
     7
 74
     1
 91
        4
 64
     7
 65
   257
 75
     1
175
     1
 42
1.0
 92
        8
 66
     7
 43
1.0
 76
     1
 77
     6
 78
     2
 67
     7
 79
     5
170
     0
171
     0
290
     0
174
     0
 93
        1
 44
50.0
173
     0
291
     1
 45
0.0
1001
ACAD
1000
AcDbSavedByObjectVersion
1070
     0
  0
VISUALSTYLE
  5
5A0
102
{ACAD_REACTORS
330
2A
102
}
102
{ACAD_XDICTIONARY
360
613
102
}
330
2A
100
AcDbVisualStyle
  2
ColorChange
 70
    16
 71
     2
 72
     2
 73
     3
 90
        0
 40
0.6
 41
30.0
 62
     5
 63
     8
 74
     1
 91
        4
 64
     7
 65
   257
 75
     1
175
     1
 42
1.0
 92
        8
 66
     8
 43
1.0
 76
     1
 77
     6
 78
     2
 67
     7
 79
     5
170
     0
171
     0
290
     0
174
     0
 93
        1
 44
0.0
173
     0
291
     1
 45
0.0
1001
ACAD
1000
AcDbSavedByObjectVersion
1070
     0
  0
VISUALSTYLE
  5
59A
102
{ACAD_REACTORS
330
2A
102
}
102
{ACAD_XDICTIONARY
360
607
102
}
330
2A
100
AcDbVisualStyle
  2
Conceptual
 70
     9
 71
     3
 72
     2
 73
     0
 90
        0
 40
0.6
 41
30.0
 62
     5
 63
     7
 74
     2
 91
        2
 64
     7
 65
   257
 75
     1
175
     1
 42
40.0
 92
        8
 66
     7
 43
1.0
 76
     1
 77
     6
 78
     2
 67
     7
 79
     3
170
     0
171
     0
290
     0
174
     0
 93
        1
 44
0.0
173
     0
291
     0
 45
0.0
1001
ACAD
1000
AcDbSavedByObjectVersion
1070
     0
  0
VISUALSTYLE
  5
59B
102
{ACAD_REACTORS
330
2A
102
}
102
{ACAD_XDICTIONARY
360
609
102
}
330
2A
100
AcDbVisualStyle
  2
Dim
 70
    11
 71
     2
 72
     2
 73
     0
 90
        0
 40
0.6
 41
30.0
 62
     5
 63
     7
 74
     1
 91
        4
 64
     7
 65
   257
 75
     1
175
     1
 42
1.0
 92
        8
 66
     7
 43
1.0
 76
     1
 77
     6
 78
     2
 67
     7
 79
     5
170
     0
171
     0
290
     0
174
     0
 93
        1
 44
-50.0
173
     0
291
     1
 45
0.0
1001
ACAD
1000
AcDbSavedByObjectVersion
1070
     0
  0
VISUALSTYLE
  5
5A3
102
{ACAD_REACTORS
330
2A
102
}
102
{ACAD_XDICTIONARY
360
619
102
}
330
2A
100
AcDbVisualStyle
  2
EdgeColorOff
 70
    22
 71
     2
 72
     2
 73
     0
 90
        0
 40
0.6
 41
30.0
 62
     5
 63
     7
 74
     1
 91
        4
 64
     7
 65
   257
 75
     1
175
     1
 42
1.0
 92
        8
 66
     7
 43
1.0
 76
     1
 77
     6
 78
     2
 67
     7
 79
     5
170
     0
171
     0
290
     0
174
     0
 93
        1
 44
0.0
173
     0
291
     1
 45
0.0
1001
ACAD
1000
AcDbSavedByObjectVersion
1070
     0
  0
VISUALSTYLE
  5
59F
102
{ACAD_REACTORS
330
2A
102
}
102
{ACAD_XDICTIONARY
360
611
102
}
330
2A
100
AcDbVisualStyle
  2
Facepattern
 70
    15
 71
     2
 72
     2
 73
     0
 90
        0
 40
0.6
 41
30.0
 62
     5
 63
     7
 74
     1
 91
        4
 64
     7
 65
   257
 75
     1
175
     1
 42
1.0
 92
        8
 66
     7
 43
1.0
 76
     1
 77
     6
 78
     2
 67
     7
 79
     5
170
     0
171
     0
290
     0
174
     0
 93
        1
 44
0.0
173
     0
291
     1
 45
0.0
1001
ACAD
1000
AcDbSavedByObjectVersion
1070
     0
  0
VISUALSTYLE
  5
591
102
{ACAD_REACTORS
330
2A
102
}
102
{ACAD_XDICTIONARY
360
5F5
102
}
330
2A
100
AcDbVisualStyle
  2
Flat
 70
     0
 71
     2
 72
     1
 73
     1
 90
        2
 40
0.6
 41
30.0
 62
     5
 63
     7
 74
     0
 91
        4
 64
     7
 65
   257
 75
     1
175
     1
 42
1.0
 92
        8
 66
     7
 43
1.0
 76
     1
 77
     6
 78
     2
 67
     7
 79
     5
170
     0
171
     0
290
     0
174
     0
 93
       13
 44
0.0
173
     0
291
     1
 45
0.0
1001
ACAD
1000
AcDbSavedByObjectVersion
1070
     0
  0
VISUALSTYLE
  5
592
102
{ACAD_REACTORS
330
2A
102
}
102
{ACAD_XDICTIONARY
360
5F7
102
}
330
2A
100
AcDbVisualStyle
  2
FlatWithEdges
 70
     1
 71
     2
 72
     1
 73
     1
 90
        2
 40
0.6
 41
30.0
 62
     5
 63
     7
 74
     1
 91
        4
 64
     7
 65
   257
 75
     1
175
     1
 42
1.0
 92
        0
 66
   257
 43
1.0
 76
     1
 77
     6
 78
     2
 67
     7
 79
     5
170
     0
171
     0
290
     0
174
     0
 93
       13
 44
0.0
173
     0
291
     1
 45
0.0
1001
ACAD
1000
AcDbSavedByObjectVersion
1070
     0
  0
VISUALSTYLE
  5
593
102
{ACAD_REACTORS
330
2A
102
}
102
{ACAD_XDICTIONARY
360
5F9
102
}
330
2A
100
AcDbVisualStyle
  2
Gouraud
 70
     2
 71
     2
 72
     2
 73
     1
 90
        2
 40
0.6
 41
30.0
 62
     5
 63
     7
 74
     0
 91
        4
 64
     7
 65
   257
 75
     1
175
     1
 42
1.0
 92
        0
 66
     7
 43
1.0
 76
     1
 77
     6
 78
     2
 67
     7
 79
     5
170
     0
171
     0
290
     0
174
     0
 93
       13
 44
0.0
173
     0
291
     1
 45
0.0
1001
ACAD
1000
AcDbSavedByObjectVersion
1070
     0
  0
VISUALSTYLE
  5
594
102
{ACAD_REACTORS
330
2A
102
}
102
{ACAD_XDICTIONARY
360
5FB
102
}
330
2A
100
AcDbVisualStyle
  2
GouraudWithEdges
 70
     3
 71
     2
 72
     2
 73
     1
 90
        2
 40
0.6
 41
30.0
 62
     5
 63
     7
 74
     1
 91
        4
 64
     7
 65
   257
 75
     1
175
     1
 42
1.0
 92
        0
 66
   257
 43
1.0
 76
     1
 77
     6
 78
     2
 67
     7
 79
     5
170
     0
171
     0
290
     0
174
     0
 93
       13
 44
0.0
173
     0
291
     1
 45
0.0
1001
ACAD
1000
AcDbSavedByObjectVersion
1070
     0
  0
VISUALSTYLE
  5
597
102
{ACAD_REACTORS
330
2A
102
}
102
{ACAD_XDICTIONARY
360
601
102
}
330
2A
100
AcDbVisualStyle
  2
Hidden
 70
     6
 71
     1
 72
     2
 73
     2
 90
        0
 40
0.6
 41
30.0
 62
     5
 63
     7
 74
     2
 91
        2
 64
     7
 65
   257
 75
     2
175
     1
 42
40.0
 92
        0
 66
   257
 43
1.0
 76
     1
 77
     6
 78
     2
 67
     7
 79
     3
170
     0
171
     0
290
     0
174
     0
 93
        1
 44
0.0
173
     0
291
     0
 45
0.0
1001
ACAD
1000
AcDbSavedByObjectVersion
1070
     0
  0
VISUALSTYLE
  5
5A1
102
{ACAD_REACTORS
330
2A
102
}
102
{ACAD_XDICTIONARY
360
615
102
}
330
2A
100
AcDbVisualStyle
  2
JitterOff
 70
    20
 71
     2
 72
     2
 73
     0
 90
        0
 40
0.6
 41
30.0
 62
     5
 63
     7
 74
     1
 91
        4
 64
     7
 65
   257
 75
     1
175
     1
 42
1.0
 92
       10
 66
     7
 43
1.0
 76
     1
 77
     6
 78
     2
 67
     7
 79
     5
170
     0
171
     0
290
     0
174
     0
 93
        1
 44
0.0
173
     0
291
     1
 45
0.0
1001
ACAD
1000
AcDbSavedByObjectVersion
1070
     0
  0
VISUALSTYLE
  5
59E
102
{ACAD_REACTORS
330
2A
102
}
102
{ACAD_XDICTIONARY
360
60F
102
}
330
2A
100
AcDbVisualStyle
  2
Linepattern
 70
    14
 71
     2
 72
     2
 73
     0
 90
        0
 40
0.6
 41
30.0
 62
     5
 63
     7
 74
     1
 91
        4
 64
     7
 65
   257
 75
     7
175
     7
 42
1.0
 92
        8
 66
     7
 43
1.0
 76
     1
 77
     6
 78
     2
 67
     7
 79
     5
170
     0
171
     0
290
     0
174
     0
 93
        1
 44
0.0
173
     0
291
     1
 45
0.0
1001
ACAD
1000
AcDbSavedByObjectVersion
1070
     0
  0
VISUALSTYLE
  5
5A2
102
{ACAD_REACTORS
330
2A
102
}
102
{ACAD_XDICTIONARY
360
617
102
}
330
2A
100
AcDbVisualStyle
  2
OverhangOff
 70
    21
 71
     2
 72
     2
 73
     0
 90
        0
 40
0.6
 41
30.0
 62
     5
 63
     7
 74
     1
 91
        4
 64
     7
 65
   257
 75
     1
175
     1
 42
1.0
 92
        9
 66
     7
 43
1.0
 76
     1
 77
     6
 78
     2
 67
     7
 79
     5
170
     0
171
     0
290
     0
174
     0
 93
        1
 44
0.0
173
     0
291
     1
 45
0.0
1001
ACAD
1000
AcDbSavedByObjectVersion
1070
     0
  0
VISUALSTYLE
  5
599
102
{ACAD_REACTORS
330
2A
102
}
102
{ACAD_XDICTIONARY
360
605
102
}
330
2A
100
AcDbVisualStyle
  2
Realistic
 70
     8
 71
     2
 72
     3
 73
     0
 90
        2
 40
0.6
 41
30.0
 62
     5
 63
     7
 74
     0
 91
        0
 64
     7
 65
   257
 75
     1
175
     1
 42
1.0
 92
        8
 66
   257
 43
1.0
 76
     1
 77
     6
 78
     2
 67
     7
 79
     3
170
     0
171
     0
290
     0
174
     0
 93
       13
 44
0.0
173
     0
291
     0
 45
0.0
1001
ACAD
1000
AcDbSavedByObjectVersion
1070
     0
  0
VISUALSTYLE
  5
5A8
102
{ACAD_REACTORS
330
2A
102
}
102
{ACAD_XDICTIONARY
360
623
102
}
330
2A
100
AcDbVisualStyle
  2
Shaded
 70
    27
 71
     2
 72
     2
 73
     1
 90
        2
 40
0.6
 41
30.0
 62
     5
 63
     7
 74
     0
 91
        4
 64
     7
 65
   257
 75
     1
175
     1
 42
1.0
 92
        8
 66
   257
 43
1.0
 76
     1
 77
     6
 78
     2
 67
   251
 79
     3
170
     0
171
     0
290
     0
174
     0
 93
        5
 44
0.0
173
     0
291
     0
 45
0.0
1001
ACAD
1000
AcDbSavedByObjectVersion
1070
     0
  0
VISUALSTYLE
  5
5A7
102
{ACAD_REACTORS
330
2A
102
}
102
{ACAD_XDICTIONARY
360
621
102
}
330
2A
100
AcDbVisualStyle
  2
Shaded with edges
 70
    26
 71
     2
 72
     2
 73
     1
 90
        2
 40
0.6
 41
30.0
 62
     5
 63
     7
 74
     1
 91
       10
 64
     7
 65
   257
 75
     2
175
     1
 42
1.0
 92
        8
 66
   257
 43
1.0
 76
     1
 77
     6
 78
     2
 67
     7
 79
     3
170
     0
171
     0
290
     0
174
     0
 93
        5
 44
0.0
173
     0
291
     0
 45
0.0
1001
ACAD
1000
AcDbSavedByObjectVersion
1070
     0
  0
VISUALSTYLE
  5
5A4
102
{ACAD_REACTORS
330
2A
102
}
102
{ACAD_XDICTIONARY
360
61B
102
}
330
2A
100
AcDbVisualStyle
  2
Shades of Gray
 70
    23
 71
     2
 72
     2
 73
     3
 90
        0
 40
0.6
 41
30.0
 62
     5
 63
     7
 74
     2
 91
        2
 64
     7
 65
     7
 75
     1
175
     1
 42
40.0
 92
        8
 66
     7
 43
1.0
 76
     1
 77
     6
 78
     2
 67
     7
 79
     3
170
     0
171
     0
290
     0
174
     0
 93
        1
 44
0.0
173
     0
291
     0
 45
0.0
1001
ACAD
1000
AcDbSavedByObjectVersion
1070
     0
  0
VISUALSTYLE
  5
5A5
102
{ACAD_REACTORS
330
2A
102
}
102
{ACAD_XDICTIONARY
360
61D
102
}
330
2A
100
AcDbVisualStyle
  2
Sketchy
 70
    24
 71
     1
 72
     2
 73
     2
 90
        0
 40
0.6
 41
30.0
 62
     5
 63
     7
 74
     2
 91
        2
 64
     7
 65
     7
 75
     1
175
     1
 42
40.0
 92
       11
 66
     7
 43
1.0
 76
     1
 77
     6
 78
     2
 67
     7
 79
     6
170
     0
171
     0
290
     0
174
     0
 93
        1
 44
0.0
173
     0
291
     0
 45
0.0
1001
ACAD
1000
AcDbSavedByObjectVersion
1070
     0
  0
VISUALSTYLE
  5
59D
102
{ACAD_REACTORS
330
2A
102
}
102
{ACAD_XDICTIONARY
360
60D
102
}
330
2A
100
AcDbVisualStyle
  2
Thicken
 70
    13
 71
     2
 72
     2
 73
     0
 90
        0
 40
0.6
 41
30.0
 62
     5
 63
     7
 74
     1
 91
        4
 64
     7
 65
   257
 75
     1
175
     1
 42
1.0
 92
       12
 66
     7
 43
1.0
 76
     1
 77
     6
 78
     2
 67
     7
 79
     5
170
     0
171
     0
290
     0
174
     0
 93
        1
 44
0.0
173
     0
291
     1
 45
0.0
1001
ACAD
1000
AcDbSavedByObjectVersion
1070
     0
  0
VISUALSTYLE
  5
596
102
{ACAD_REACTORS
330
2A
102
}
102
{ACAD_XDICTIONARY
360
5FF
102
}
330
2A
100
AcDbVisualStyle
  2
Wireframe
 70
     5
 71
     0
 72
     2
 73
     0
 90
        0
 40
0.6
 41
30.0
 62
     5
 63
     7
 74
     1
 91
        4
 64
     7
 65
   257
 75
     1
175
     1
 42
1.0
 92
        0
 66
   257
 43
1.0
 76
     1
 77
     6
 78
     2
 67
     7
 79
     5
170
     0
171
     0
290
     0
174
     0
 93
        1
 44
0.0
173
     0
291
     0
 45
0.0
1001
ACAD
1000
AcDbSavedByObjectVersion
1070
     0
  0
VISUALSTYLE
  5
5A6
102
{ACAD_REACTORS
330
2A
102
}
102
{ACAD_XDICTIONARY
360
61F
102
}
330
2A
100
AcDbVisualStyle
  2
X-Ray
 70
    25
 71
     2
 72
     2
 73
     1
 90
        1
 40
0.5
 41
30.0
 62
     5
 63
     7
 74
     1
 91
        0
 64
     7
 65
   257
 75
     1
175
     1
 42
1.0
 92
        8
 66
     7
 43
1.0
 76
     1
 77
     6
 78
     2
 67
     7
 79
     3
170
     0
171
     0
290
     0
174
     0
 93
       13
 44
0.0
173
     0
291
     0
 45
0.0
1001
ACAD
1000
AcDbSavedByObjectVersion
1070
     0
  0
XRECORD
  5
5E9
102
{ACAD_REACTORS
330
5E8
102
}
330
5E8
100
AcDbXrecord
280
     1
340
29
  0
XRECORD
  5
5EA
102
{ACAD_REACTORS
330
5E8
102
}
330
5E8
100
AcDbXrecord
280
     1
340
7
  0
DICTIONARYVAR
  5
58C
102
{ACAD_REACTORS
330
58B
102
}
330
58B
100
DictionaryVariables
280
     0
  1
1:1
  0
DICTIONARYVAR
  5
5AB
102
{ACAD_REACTORS
330
58B
102
}
330
58B
100
DictionaryVariables
280
     0
  1
Standard
  0
DICTIONARYVAR
  5
5E5
102
{ACAD_REACTORS
330
58B
102
}
330
58B
100
DictionaryVariables
280
     0
  1
Standard
  0
DICTIONARYVAR
  5
5E6
102
{ACAD_REACTORS
330
58B
102
}
330
58B
100
DictionaryVariables
280
     0
  1
0
  0
DICTIONARYVAR
  5
5E7
102
{ACAD_REACTORS
330
58B
102
}
330
58B
100
DictionaryVariables
280
     0
  1
1
  0
DICTIONARYVAR
  5
5EE
102
{ACAD_REACTORS
330
58B
102
}
330
58B
100
DictionaryVariables
280
     0
  1
1
  0
DICTIONARY
  5
5F3
330
70
100
AcDbDictionary
280
     1
281
     1
  3
ACAD_XREC_ROUNDTRIP
360
5F4
  0
DICTIONARY
  5
5EF
330
10
100
AcDbDictionary
280
     1
281
     1
  3
ACAD_XREC_ROUNDTRIP
360
5F0
  0
DICTIONARY
  5
5F1
330
6
100
AcDbDictionary
280
     1
281
     1
  3
ACAD_XREC_ROUNDTRIP
360
5F2
  0
DICTIONARY
  5
625
330
5A9
100
AcDbDictionary
280
     1
281
     1
  3
ACAD_XREC_ROUNDTRIP
360
626
  0
DICTIONARY
  5
5FD
330
595
100
AcDbDictionary
280
     1
281
     1
  3
ACAD_XREC_ROUNDTRIP
360
5FE
  0
DICTIONARY
  5
603
330
598
100
AcDbDictionary
280
     1
281
     1
  3
ACAD_XREC_ROUNDTRIP
360
604
  0
DICTIONARY
  5
60B
330
59C
100
AcDbDictionary
280
     1
281
     1
  3
ACAD_XREC_ROUNDTRIP
360
60C
  0
DICTIONARY
  5
613
330
5A0
100
AcDbDictionary
280
     1
281
     1
  3
ACAD_XREC_ROUNDTRIP
360
614
  0
DICTIONARY
  5
607
330
59A
100
AcDbDictionary
280
     1
281
     1
  3
ACAD_XREC_ROUNDTRIP
360
608
  0
DICTIONARY
  5
609
330
59B
100
AcDbDictionary
280
     1
281
     1
  3
ACAD_XREC_ROUNDTRIP
360
60A
  0
DICTIONARY
  5
619
330
5A3
100
AcDbDictionary
280
     1
281
     1
  3
ACAD_XREC_ROUNDTRIP
360
61A
  0
DICTIONARY
  5
611
330
59F
100
AcDbDictionary
280
     1
281
     1
  3
ACAD_XREC_ROUNDTRIP
360
612
  0
DICTIONARY
  5
5F5
330
591
100
AcDbDictionary
280
     1
281
     1
  3
ACAD_XREC_ROUNDTRIP
360
5F6
  0
DICTIONARY
  5
5F7
330
592
100
AcDbDictionary
280
     1
281
     1
  3
ACAD_XREC_ROUNDTRIP
360
5F8
  0
DICTIONARY
  5
5F9
330
593
100
AcDbDictionary
280
     1
281
     1
  3
ACAD_XREC_ROUNDTRIP
360
5FA
  0
DICTIONARY
  5
5FB
330
594
100
AcDbDictionary
280
     1
281
     1
  3
ACAD_XREC_ROUNDTRIP
360
5FC
  0
DICTIONARY
  5
601
330
597
100
AcDbDictionary
280
     1
281
     1
  3
ACAD_XREC_ROUNDTRIP
360
602
  0
DICTIONARY
  5
615
330
5A1
100
AcDbDictionary
280
     1
281
     1
  3
ACAD_XREC_ROUNDTRIP
360
616
  0
DICTIONARY
  5
60F
330
59E
100
AcDbDictionary
280
     1
281
     1
  3
ACAD_XREC_ROUNDTRIP
360
610
  0
DICTIONARY
  5
617
330
5A2
100
AcDbDictionary
280
     1
281
     1
  3
ACAD_XREC_ROUNDTRIP
360
618
  0
DICTIONARY
  5
605
330
599
100
AcDbDictionary
280
     1
281
     1
  3
ACAD_XREC_ROUNDTRIP
360
606
  0
DICTIONARY
  5
623
330
5A8
100
AcDbDictionary
280
     1
281
     1
  3
ACAD_XREC_ROUNDTRIP
360
624
  0
DICTIONARY
  5
621
330
5A7
100
AcDbDictionary
280
     1
281
     1
  3
ACAD_XREC_ROUNDTRIP
360
622
  0
DICTIONARY
  5
61B
330
5A4
100
AcDbDictionary
280
     1
281
     1
  3
ACAD_XREC_ROUNDTRIP
360
61C
  0
DICTIONARY
  5
61D
330
5A5
100
AcDbDictionary
280
     1
281
     1
  3
ACAD_XREC_ROUNDTRIP
360
61E
  0
DICTIONARY
  5
60D
330
59D
100
AcDbDictionary
280
     1
281
     1
  3
ACAD_XREC_ROUNDTRIP
360
60E
  0
DICTIONARY
  5
5FF
330
596
100
AcDbDictionary
280
     1
281
     1
  3
ACAD_XREC_ROUNDTRIP
360
600
  0
DICTIONARY
  5
61F
330
5A6
100
AcDbDictionary
280
     1
281
     1
  3
ACAD_XREC_ROUNDTRIP
360
620
  0
XRECORD
  5
5F4
102
{ACAD_REACTORS
330
5F3
102
}
330
5F3
100
AcDbXrecord
280
     1
102
MATERIAL
148
0.0
149
0.0
149
0.0
 93
        0
 94
      127
282
     0
 72
     1
 77
     1
171
     1
175
     1
179
     1
273
     0
  0
XRECORD
  5
5F0
102
{ACAD_REACTORS
330
5EF
102
}
330
5EF
100
AcDbXrecord
280
     1
102
MATERIAL
148
0.0
149
0.0
149
0.0
 93
        0
 94
      127
282
     0
 72
     1
 77
     1
171
     1
175
     1
179
     1
273
     0
  0
XRECORD
  5
5F2
102
{ACAD_REACTORS
330
5F1
102
}
330
5F1
100
AcDbXrecord
280
     1
102
MATERIAL
148
0.0
149
0.0
149
0.0
 93
        0
 94
      127
282
     0
 72
     1
 77
     1
171
     1
175
     1
179
     1
273
     0
  0
XRECORD
  5
626
102
{ACAD_REACTORS
330
625
102
}
330
625
100
AcDbXrecord
280
     1
102
ACAD_ROUNDTRIP_2010_MLEADER_STYLE
  0
XRECORD
  5
5FE
102
{ACAD_REACTORS
330
5FD
102
}
330
5FD
100
AcDbXrecord
280
     1
102
RTVSPropertyOp0
 70
     1
102
RTVSPropertyOp1
 70
     1
102
RTVSPropertyOp2
 70
     1
102
RTVSPropertyOp3
 70
     1
102
RTVSPropertyOp4
 70
     1
102
RTVSPropertyOp5
 70
     1
102
RTVSPropertyOp6
 70
     1
102
RTVSPropertyOp7
 70
     1
102
RTVSPropertyOp8
 70
     1
102
RTVSPropertyOp9
 70
     1
102
RTVSPropertyOp10
 70
     1
102
RTVSPropertyOp11
 70
     1
102
RTVSPropertyOp12
 70
     1
102
RTVSPropertyOp13
 70
     1
102
RTVSPropertyOp14
 70
     1
102
RTVSPropertyOp15
 70
     1
102
RTVSPropertyOp16
 70
     1
102
RTVSPropertyOp17
 70
     1
102
RTVSPropertyOp18
 70
     1
102
RTVSPropertyOp19
 70
     1
102
RTVSPropertyOp20
 70
     1
102
RTVSPropertyOp21
 70
     1
102
RTVSPropertyOp22
 70
     1
102
RTVSPropertyOp23
 70
     1
102
RTVSPropertyOp24
 70
     1
102
RTVSPropertyOp25
 70
     1
102
RTVSPropertyOp26
 70
     1
102
RTVSPropertyOp27
 70
     1
102
RTVSPropertyOp28
 70
     1
102
RTVSPropertyOp29
 70
     1
102
RTVSPropertyOp30
 70
     1
102
RTVSPropertyOp31
 70
     1
102
RTVSPropertyOp32
 70
     1
102
RTVSPropertyOp33
 70
     1
102
RTVSPropertyOp34
 70
     1
102
RTVSPropertyOp35
 70
     1
102
RTVSPropertyOp36
 70
     1
102
RTVSPropertyOp37
 70
     1
102
RTVSPropertyOp38
 70
     1
102
RTVSPropertyOp39
 70
     1
102
RTVSPropertyOp40
 70
     1
102
RTVSPropertyOp41
 70
     1
102
RTVSPropertyOp42
 70
     1
102
RTVSPropertyOp43
 70
     1
102
RTVSPropertyOp44
 70
     1
102
RTVSPropertyOp45
 70
     1
102
RTVSPropertyOp46
 70
     1
102
RTVSPropertyOp47
 70
     1
102
RTVSPropertyOp48
 70
     1
102
RTVSPropertyOp49
 70
     1
102
RTVSPropertyOp50
 70
     1
102
RTVSPropertyOp51
 70
     0
102
RTVSPropertyOp52
 70
     0
102
RTVSPropertyOp53
 70
     1
102
RTVSPropertyOp54
 70
     1
102
RTVSPropertyOp55
 70
     1
102
RTVSPropertyOp56
 70
     1
102
RTVSPropertyOp57
 70
     1
102
RTVSPost2010Prop28
280
     1
102
RTVSPost2010PropOp28
 70
     1
102
RTVSPost2010Prop29
280
     1
102
RTVSPost2010PropOp29
 70
     1
102
RTVSPost2010Prop30
280
     0
102
RTVSPost2010PropOp30
 70
     1
102
RTVSPost2010Prop31
280
     0
102
RTVSPost2010PropOp31
 70
     1
102
RTVSPost2010Prop32
280
     0
102
RTVSPost2010PropOp32
 70
     1
102
RTVSPost2010Prop33
280
     0
102
RTVSPost2010PropOp33
 70
     1
102
RTVSPost2010Prop34
280
     0
102
RTVSPost2010PropOp34
 70
     1
102
RTVSPost2010Prop35
280
     0
102
RTVSPost2010PropOp35
 70
     1
102
RTVSPost2010Prop36
280
     0
102
RTVSPost2010PropOp36
 70
     1
102
RTVSPost2010Prop37
 90
       50
102
RTVSPost2010PropOp37
 70
     1
102
RTVSPost2010Prop38
140
0.0
102
RTVSPost2010PropOp38
 70
     1
102
RTVSPost2010Prop39
140
1.0
102
RTVSPost2010PropOp39
 70
     1
102
RTVSPost2010Prop40
 90
        0
102
RTVSPost2010PropOp40
 70
     1
102
RTVSPost2010Prop41ColorIndex
 90
       18
102
RTVSPost2010Prop41ColorRGB
 90
        0
102
RTVSPost2010PropOp41
 70
     1
102
RTVSPost2010Prop42
 90
       50
102
RTVSPost2010PropOp42
 70
     1
102
RTVSPost2010Prop43
 90
        3
102
RTVSPost2010PropOp43
 70
     1
102
RTVSPost2010Prop44ColorIndex
 90
        5
102
RTVSPost2010Prop44ColorRGB
 90
      255
102
RTVSPost2010PropOp44
 70
     1
102
RTVSPost2010Prop45
280
     0
102
RTVSPost2010PropOp45
 70
     1
102
RTVSPost2010Prop46
 90
       50
102
RTVSPost2010PropOp46
 70
     1
102
RTVSPost2010Prop47
 90
       50
102
RTVSPost2010PropOp47
 70
     1
102
RTVSPost2010Prop48
 90
       50
102
RTVSPost2010PropOp48
 70
     1
102
RTVSPost2010Prop49
280
     0
102
RTVSPost2010PropOp49
 70
     1
102
RTVSPost2010Prop50
 90
       50
102
RTVSPost2010PropOp50
 70
     1
102
RTVSPost2010Prop51ColorIndex
 90
      256
102
RTVSPost2010Prop51ColorRGB
 90
-16777216
102
RTVSPost2010PropOp51
 70
     0
102
RTVSPost2010Prop52
140
1.0
102
RTVSPost2010PropOp52
 70
     0
102
RTVSPost2010Prop53
 90
        2
102
RTVSPost2010PropOp53
 70
     1
102
RTVSPost2010Prop54
  1
strokes_ogs.tif
102
RTVSPost2010PropOp54
 70
     1
102
RTVSPost2010Prop55
280
     0
102
RTVSPost2010PropOp55
 70
     1
102
RTVSPost2010Prop56
140
1.0
102
RTVSPost2010PropOp56
 70
     1
102
RTVSPost2010Prop57
140
1.0
102
RTVSPost2010PropOp57
 70
     1
  0
XRECORD
  5
604
102
{ACAD_REACTORS
330
603
102
}
330
603
100
AcDbXrecord
280
     1
102
RTVSPropertyOp0
 70
     1
102
RTVSPropertyOp1
 70
     1
102
RTVSPropertyOp2
 70
     1
102
RTVSPropertyOp3
 70
     1
102
RTVSPropertyOp4
 70
     1
102
RTVSPropertyOp5
 70
     1
102
RTVSPropertyOp6
 70
     1
102
RTVSPropertyOp7
 70
     1
102
RTVSPropertyOp8
 70
     1
102
RTVSPropertyOp9
 70
     1
102
RTVSPropertyOp10
 70
     1
102
RTVSPropertyOp11
 70
     1
102
RTVSPropertyOp12
 70
     1
102
RTVSPropertyOp13
 70
     1
102
RTVSPropertyOp14
 70
     1
102
RTVSPropertyOp15
 70
     1
102
RTVSPropertyOp16
 70
     1
102
RTVSPropertyOp17
 70
     1
102
RTVSPropertyOp18
 70
     1
102
RTVSPropertyOp19
 70
     1
102
RTVSPropertyOp20
 70
     1
102
RTVSPropertyOp21
 70
     1
102
RTVSPropertyOp22
 70
     1
102
RTVSPropertyOp23
 70
     1
102
RTVSPropertyOp24
 70
     1
102
RTVSPropertyOp25
 70
     1
102
RTVSPropertyOp26
 70
     1
102
RTVSPropertyOp27
 70
     1
102
RTVSPropertyOp28
 70
     1
102
RTVSPropertyOp29
 70
     1
102
RTVSPropertyOp30
 70
     1
102
RTVSPropertyOp31
 70
     1
102
RTVSPropertyOp32
 70
     1
102
RTVSPropertyOp33
 70
     1
102
RTVSPropertyOp34
 70
     1
102
RTVSPropertyOp35
 70
     1
102
RTVSPropertyOp36
 70
     1
102
RTVSPropertyOp37
 70
     1
102
RTVSPropertyOp38
 70
     1
102
RTVSPropertyOp39
 70
     1
102
RTVSPropertyOp40
 70
     1
102
RTVSPropertyOp41
 70
     1
102
RTVSPropertyOp42
 70
     1
102
RTVSPropertyOp43
 70
     1
102
RTVSPropertyOp44
 70
     1
102
RTVSPropertyOp45
 70
     1
102
RTVSPropertyOp46
 70
     1
102
RTVSPropertyOp47
 70
     1
102
RTVSPropertyOp48
 70
     1
102
RTVSPropertyOp49
 70
     1
102
RTVSPropertyOp50
 70
     1
102
RTVSPropertyOp51
 70
     0
102
RTVSPropertyOp52
 70
     0
102
RTVSPropertyOp53
 70
     1
102
RTVSPropertyOp54
 70
     1
102
RTVSPropertyOp55
 70
     1
102
RTVSPropertyOp56
 70
     1
102
RTVSPropertyOp57
 70
     1
102
RTVSPost2010Prop28
280
     0
102
RTVSPost2010PropOp28
 70
     1
102
RTVSPost2010Prop29
280
     1
102
RTVSPost2010PropOp29
 70
     1
102
RTVSPost2010Prop30
280
     1
102
RTVSPost2010PropOp30
 70
     1
102
RTVSPost2010Prop31
280
     0
102
RTVSPost2010PropOp31
 70
     1
102
RTVSPost2010Prop32
280
     0
102
RTVSPost2010PropOp32
 70
     1
102
RTVSPost2010Prop33
280
     0
102
RTVSPost2010PropOp33
 70
     1
102
RTVSPost2010Prop34
280
     0
102
RTVSPost2010PropOp34
 70
     1
102
RTVSPost2010Prop35
280
     0
102
RTVSPost2010PropOp35
 70
     1
102
RTVSPost2010Prop36
280
     0
102
RTVSPost2010PropOp36
 70
     1
102
RTVSPost2010Prop37
 90
       50
102
RTVSPost2010PropOp37
 70
     1
102
RTVSPost2010Prop38
140
0.0
102
RTVSPost2010PropOp38
 70
     1
102
RTVSPost2010Prop39
140
1.0
102
RTVSPost2010PropOp39
 70
     1
102
RTVSPost2010Prop40
 90
        0
102
RTVSPost2010PropOp40
 70
     1
102
RTVSPost2010Prop41ColorIndex
 90
       18
102
RTVSPost2010Prop41ColorRGB
 90
        0
102
RTVSPost2010PropOp41
 70
     1
102
RTVSPost2010Prop42
 90
       50
102
RTVSPost2010PropOp42
 70
     1
102
RTVSPost2010Prop43
 90
        3
102
RTVSPost2010PropOp43
 70
     1
102
RTVSPost2010Prop44ColorIndex
 90
        5
102
RTVSPost2010Prop44ColorRGB
 90
      255
102
RTVSPost2010PropOp44
 70
     1
102
RTVSPost2010Prop45
280
     0
102
RTVSPost2010PropOp45
 70
     1
102
RTVSPost2010Prop46
 90
       50
102
RTVSPost2010PropOp46
 70
     1
102
RTVSPost2010Prop47
 90
       50
102
RTVSPost2010PropOp47
 70
     1
102
RTVSPost2010Prop48
 90
       50
102
RTVSPost2010PropOp48
 70
     1
102
RTVSPost2010Prop49
280
     0
102
RTVSPost2010PropOp49
 70
     1
102
RTVSPost2010Prop50
 90
       50
102
RTVSPost2010PropOp50
 70
     1
102
RTVSPost2010Prop51ColorIndex
 90
      256
102
RTVSPost2010Prop51ColorRGB
 90
-16777216
102
RTVSPost2010PropOp51
 70
     0
102
RTVSPost2010Prop52
140
1.0
102
RTVSPost2010PropOp52
 70
     0
102
RTVSPost2010Prop53
 90
        2
102
RTVSPost2010PropOp53
 70
     1
102
RTVSPost2010Prop54
  1
strokes_ogs.tif
102
RTVSPost2010PropOp54
 70
     1
102
RTVSPost2010Prop55
280
     0
102
RTVSPost2010PropOp55
 70
     1
102
RTVSPost2010Prop56
140
1.0
102
RTVSPost2010PropOp56
 70
     1
102
RTVSPost2010Prop57
140
1.0
102
RTVSPost2010PropOp57
 70
     1
  0
XRECORD
  5
60C
102
{ACAD_REACTORS
330
60B
102
}
330
60B
100
AcDbXrecord
280
     1
102
RTVSPropertyOp0
 70
     1
102
RTVSPropertyOp1
 70
     1
102
RTVSPropertyOp2
 70
     1
102
RTVSPropertyOp3
 70
     1
102
RTVSPropertyOp4
 70
     1
102
RTVSPropertyOp5
 70
     1
102
RTVSPropertyOp6
 70
     1
102
RTVSPropertyOp7
 70
     1
102
RTVSPropertyOp8
 70
     1
102
RTVSPropertyOp9
 70
     1
102
RTVSPropertyOp10
 70
     1
102
RTVSPropertyOp11
 70
     1
102
RTVSPropertyOp12
 70
     1
102
RTVSPropertyOp13
 70
     1
102
RTVSPropertyOp14
 70
     1
102
RTVSPropertyOp15
 70
     1
102
RTVSPropertyOp16
 70
     1
102
RTVSPropertyOp17
 70
     1
102
RTVSPropertyOp18
 70
     1
102
RTVSPropertyOp19
 70
     1
102
RTVSPropertyOp20
 70
     1
102
RTVSPropertyOp21
 70
     1
102
RTVSPropertyOp22
 70
     1
102
RTVSPropertyOp23
 70
     1
102
RTVSPropertyOp24
 70
     1
102
RTVSPropertyOp25
 70
     1
102
RTVSPropertyOp26
 70
     1
102
RTVSPropertyOp27
 70
     1
102
RTVSPropertyOp28
 70
     1
102
RTVSPropertyOp29
 70
     1
102
RTVSPropertyOp30
 70
     1
102
RTVSPropertyOp31
 70
     1
102
RTVSPropertyOp32
 70
     1
102
RTVSPropertyOp33
 70
     1
102
RTVSPropertyOp34
 70
     1
102
RTVSPropertyOp35
 70
     1
102
RTVSPropertyOp36
 70
     1
102
RTVSPropertyOp37
 70
     1
102
RTVSPropertyOp38
 70
     1
102
RTVSPropertyOp39
 70
     1
102
RTVSPropertyOp40
 70
     1
102
RTVSPropertyOp41
 70
     1
102
RTVSPropertyOp42
 70
     1
102
RTVSPropertyOp43
 70
     1
102
RTVSPropertyOp44
 70
     1
102
RTVSPropertyOp45
 70
     1
102
RTVSPropertyOp46
 70
     1
102
RTVSPropertyOp47
 70
     1
102
RTVSPropertyOp48
 70
     1
102
RTVSPropertyOp49
 70
     1
102
RTVSPropertyOp50
 70
     1
102
RTVSPropertyOp51
 70
     0
102
RTVSPropertyOp52
 70
     0
102
RTVSPropertyOp53
 70
     1
102
RTVSPropertyOp54
 70
     1
102
RTVSPropertyOp55
 70
     1
102
RTVSPropertyOp56
 70
     1
102
RTVSPropertyOp57
 70
     1
102
RTVSPost2010Prop28
280
     0
102
RTVSPost2010PropOp28
 70
     1
102
RTVSPost2010Prop29
280
     1
102
RTVSPost2010PropOp29
 70
     1
102
RTVSPost2010Prop30
280
     1
102
RTVSPost2010PropOp30
 70
     1
102
RTVSPost2010Prop31
280
     0
102
RTVSPost2010PropOp31
 70
     1
102
RTVSPost2010Prop32
280
     0
102
RTVSPost2010PropOp32
 70
     1
102
RTVSPost2010Prop33
280
     0
102
RTVSPost2010PropOp33
 70
     1
102
RTVSPost2010Prop34
280
     0
102
RTVSPost2010PropOp34
 70
     1
102
RTVSPost2010Prop35
280
     0
102
RTVSPost2010PropOp35
 70
     1
102
RTVSPost2010Prop36
280
     0
102
RTVSPost2010PropOp36
 70
     1
102
RTVSPost2010Prop37
 90
       50
102
RTVSPost2010PropOp37
 70
     1
102
RTVSPost2010Prop38
140
0.0
102
RTVSPost2010PropOp38
 70
     1
102
RTVSPost2010Prop39
140
1.0
102
RTVSPost2010PropOp39
 70
     1
102
RTVSPost2010Prop40
 90
        0
102
RTVSPost2010PropOp40
 70
     1
102
RTVSPost2010Prop41ColorIndex
 90
       18
102
RTVSPost2010Prop41ColorRGB
 90
        0
102
RTVSPost2010PropOp41
 70
     1
102
RTVSPost2010Prop42
 90
       50
102
RTVSPost2010PropOp42
 70
     1
102
RTVSPost2010Prop43
 90
        3
102
RTVSPost2010PropOp43
 70
     1
102
RTVSPost2010Prop44ColorIndex
 90
        5
102
RTVSPost2010Prop44ColorRGB
 90
      255
102
RTVSPost2010PropOp44
 70
     1
102
RTVSPost2010Prop45
280
     0
102
RTVSPost2010PropOp45
 70
     1
102
RTVSPost2010Prop46
 90
       50
102
RTVSPost2010PropOp46
 70
     1
102
RTVSPost2010Prop47
 90
       50
102
RTVSPost2010PropOp47
 70
     1
102
RTVSPost2010Prop48
 90
       50
102
RTVSPost2010PropOp48
 70
     1
102
RTVSPost2010Prop49
280
     0
102
RTVSPost2010PropOp49
 70
     1
102
RTVSPost2010Prop50
 90
       50
102
RTVSPost2010PropOp50
 70
     1
102
RTVSPost2010Prop51ColorIndex
 90
      256
102
RTVSPost2010Prop51ColorRGB
 90
-16777216
102
RTVSPost2010PropOp51
 70
     0
102
RTVSPost2010Prop52
140
1.0
102
RTVSPost2010PropOp52
 70
     0
102
RTVSPost2010Prop53
 90
        2
102
RTVSPost2010PropOp53
 70
     1
102
RTVSPost2010Prop54
  1
strokes_ogs.tif
102
RTVSPost2010PropOp54
 70
     1
102
RTVSPost2010Prop55
280
     0
102
RTVSPost2010PropOp55
 70
     1
102
RTVSPost2010Prop56
140
1.0
102
RTVSPost2010PropOp56
 70
     1
102
RTVSPost2010Prop57
140
1.0
102
RTVSPost2010PropOp57
 70
     1
  0
XRECORD
  5
614
102
{ACAD_REACTORS
330
613
102
}
330
613
100
AcDbXrecord
280
     1
102
RTVSPropertyOp0
 70
     1
102
RTVSPropertyOp1
 70
     1
102
RTVSPropertyOp2
 70
     1
102
RTVSPropertyOp3
 70
     1
102
RTVSPropertyOp4
 70
     1
102
RTVSPropertyOp5
 70
     1
102
RTVSPropertyOp6
 70
     1
102
RTVSPropertyOp7
 70
     1
102
RTVSPropertyOp8
 70
     1
102
RTVSPropertyOp9
 70
     1
102
RTVSPropertyOp10
 70
     1
102
RTVSPropertyOp11
 70
     1
102
RTVSPropertyOp12
 70
     1
102
RTVSPropertyOp13
 70
     1
102
RTVSPropertyOp14
 70
     1
102
RTVSPropertyOp15
 70
     1
102
RTVSPropertyOp16
 70
     1
102
RTVSPropertyOp17
 70
     1
102
RTVSPropertyOp18
 70
     1
102
RTVSPropertyOp19
 70
     1
102
RTVSPropertyOp20
 70
     1
102
RTVSPropertyOp21
 70
     1
102
RTVSPropertyOp22
 70
     1
102
RTVSPropertyOp23
 70
     1
102
RTVSPropertyOp24
 70
     1
102
RTVSPropertyOp25
 70
     1
102
RTVSPropertyOp26
 70
     1
102
RTVSPropertyOp27
 70
     1
102
RTVSPropertyOp28
 70
     1
102
RTVSPropertyOp29
 70
     1
102
RTVSPropertyOp30
 70
     1
102
RTVSPropertyOp31
 70
     1
102
RTVSPropertyOp32
 70
     1
102
RTVSPropertyOp33
 70
     1
102
RTVSPropertyOp34
 70
     1
102
RTVSPropertyOp35
 70
     1
102
RTVSPropertyOp36
 70
     1
102
RTVSPropertyOp37
 70
     1
102
RTVSPropertyOp38
 70
     1
102
RTVSPropertyOp39
 70
     1
102
RTVSPropertyOp40
 70
     1
102
RTVSPropertyOp41
 70
     1
102
RTVSPropertyOp42
 70
     1
102
RTVSPropertyOp43
 70
     1
102
RTVSPropertyOp44
 70
     1
102
RTVSPropertyOp45
 70
     1
102
RTVSPropertyOp46
 70
     1
102
RTVSPropertyOp47
 70
     1
102
RTVSPropertyOp48
 70
     1
102
RTVSPropertyOp49
 70
     1
102
RTVSPropertyOp50
 70
     1
102
RTVSPropertyOp51
 70
     0
102
RTVSPropertyOp52
 70
     0
102
RTVSPropertyOp53
 70
     1
102
RTVSPropertyOp54
 70
     1
102
RTVSPropertyOp55
 70
     1
102
RTVSPropertyOp56
 70
     1
102
RTVSPropertyOp57
 70
     1
102
RTVSPost2010Prop28
280
     0
102
RTVSPost2010PropOp28
 70
     1
102
RTVSPost2010Prop29
280
     1
102
RTVSPost2010PropOp29
 70
     1
102
RTVSPost2010Prop30
280
     1
102
RTVSPost2010PropOp30
 70
     1
102
RTVSPost2010Prop31
280
     0
102
RTVSPost2010PropOp31
 70
     1
102
RTVSPost2010Prop32
280
     0
102
RTVSPost2010PropOp32
 70
     1
102
RTVSPost2010Prop33
280
     0
102
RTVSPost2010PropOp33
 70
     1
102
RTVSPost2010Prop34
280
     0
102
RTVSPost2010PropOp34
 70
     1
102
RTVSPost2010Prop35
280
     0
102
RTVSPost2010PropOp35
 70
     1
102
RTVSPost2010Prop36
280
     0
102
RTVSPost2010PropOp36
 70
     1
102
RTVSPost2010Prop37
 90
       50
102
RTVSPost2010PropOp37
 70
     1
102
RTVSPost2010Prop38
140
0.0
102
RTVSPost2010PropOp38
 70
     1
102
RTVSPost2010Prop39
140
1.0
102
RTVSPost2010PropOp39
 70
     1
102
RTVSPost2010Prop40
 90
        0
102
RTVSPost2010PropOp40
 70
     1
102
RTVSPost2010Prop41ColorIndex
 90
       18
102
RTVSPost2010Prop41ColorRGB
 90
        0
102
RTVSPost2010PropOp41
 70
     1
102
RTVSPost2010Prop42
 90
       50
102
RTVSPost2010PropOp42
 70
     1
102
RTVSPost2010Prop43
 90
        3
102
RTVSPost2010PropOp43
 70
     1
102
RTVSPost2010Prop44ColorIndex
 90
        5
102
RTVSPost2010Prop44ColorRGB
 90
      255
102
RTVSPost2010PropOp44
 70
     1
102
RTVSPost2010Prop45
280
     0
102
RTVSPost2010PropOp45
 70
     1
102
RTVSPost2010Prop46
 90
       50
102
RTVSPost2010PropOp46
 70
     1
102
RTVSPost2010Prop47
 90
       50
102
RTVSPost2010PropOp47
 70
     1
102
RTVSPost2010Prop48
 90
       50
102
RTVSPost2010PropOp48
 70
     1
102
RTVSPost2010Prop49
280
     0
102
RTVSPost2010PropOp49
 70
     1
102
RTVSPost2010Prop50
 90
       50
102
RTVSPost2010PropOp50
 70
     1
102
RTVSPost2010Prop51ColorIndex
 90
      256
102
RTVSPost2010Prop51ColorRGB
 90
-16777216
102
RTVSPost2010PropOp51
 70
     0
102
RTVSPost2010Prop52
140
1.0
102
RTVSPost2010PropOp52
 70
     0
102
RTVSPost2010Prop53
 90
        2
102
RTVSPost2010PropOp53
 70
     1
102
RTVSPost2010Prop54
  1
strokes_ogs.tif
102
RTVSPost2010PropOp54
 70
     1
102
RTVSPost2010Prop55
280
     0
102
RTVSPost2010PropOp55
 70
     1
102
RTVSPost2010Prop56
140
1.0
102
RTVSPost2010PropOp56
 70
     1
102
RTVSPost2010Prop57
140
1.0
102
RTVSPost2010PropOp57
 70
     1
  0
XRECORD
  5
608
102
{ACAD_REACTORS
330
607
102
}
330
607
100
AcDbXrecord
280
     1
102
RTVSPropertyOp0
 70
     1
102
RTVSPropertyOp1
 70
     1
102
RTVSPropertyOp2
 70
     1
102
RTVSPropertyOp3
 70
     1
102
RTVSPropertyOp4
 70
     1
102
RTVSPropertyOp5
 70
     1
102
RTVSPropertyOp6
 70
     1
102
RTVSPropertyOp7
 70
     1
102
RTVSPropertyOp8
 70
     1
102
RTVSPropertyOp9
 70
     1
102
RTVSPropertyOp10
 70
     1
102
RTVSPropertyOp11
 70
     1
102
RTVSPropertyOp12
 70
     1
102
RTVSPropertyOp13
 70
     1
102
RTVSPropertyOp14
 70
     1
102
RTVSPropertyOp15
 70
     1
102
RTVSPropertyOp16
 70
     1
102
RTVSPropertyOp17
 70
     1
102
RTVSPropertyOp18
 70
     1
102
RTVSPropertyOp19
 70
     1
102
RTVSPropertyOp20
 70
     1
102
RTVSPropertyOp21
 70
     1
102
RTVSPropertyOp22
 70
     1
102
RTVSPropertyOp23
 70
     1
102
RTVSPropertyOp24
 70
     1
102
RTVSPropertyOp25
 70
     1
102
RTVSPropertyOp26
 70
     1
102
RTVSPropertyOp27
 70
     1
102
RTVSPropertyOp28
 70
     1
102
RTVSPropertyOp29
 70
     1
102
RTVSPropertyOp30
 70
     1
102
RTVSPropertyOp31
 70
     1
102
RTVSPropertyOp32
 70
     1
102
RTVSPropertyOp33
 70
     1
102
RTVSPropertyOp34
 70
     1
102
RTVSPropertyOp35
 70
     1
102
RTVSPropertyOp36
 70
     1
102
RTVSPropertyOp37
 70
     1
102
RTVSPropertyOp38
 70
     1
102
RTVSPropertyOp39
 70
     1
102
RTVSPropertyOp40
 70
     1
102
RTVSPropertyOp41
 70
     1
102
RTVSPropertyOp42
 70
     1
102
RTVSPropertyOp43
 70
     1
102
RTVSPropertyOp44
 70
     1
102
RTVSPropertyOp45
 70
     1
102
RTVSPropertyOp46
 70
     1
102
RTVSPropertyOp47
 70
     1
102
RTVSPropertyOp48
 70
     1
102
RTVSPropertyOp49
 70
     1
102
RTVSPropertyOp50
 70
     1
102
RTVSPropertyOp51
 70
     0
102
RTVSPropertyOp52
 70
     0
102
RTVSPropertyOp53
 70
     1
102
RTVSPropertyOp54
 70
     1
102
RTVSPropertyOp55
 70
     1
102
RTVSPropertyOp56
 70
     1
102
RTVSPropertyOp57
 70
     1
102
RTVSPost2010Prop28
280
     0
102
RTVSPost2010PropOp28
 70
     1
102
RTVSPost2010Prop29
280
     1
102
RTVSPost2010PropOp29
 70
     1
102
RTVSPost2010Prop30
280
     1
102
RTVSPost2010PropOp30
 70
     1
102
RTVSPost2010Prop31
280
     0
102
RTVSPost2010PropOp31
 70
     1
102
RTVSPost2010Prop32
280
     0
102
RTVSPost2010PropOp32
 70
     1
102
RTVSPost2010Prop33
280
     0
102
RTVSPost2010PropOp33
 70
     1
102
RTVSPost2010Prop34
280
     0
102
RTVSPost2010PropOp34
 70
     1
102
RTVSPost2010Prop35
280
     0
102
RTVSPost2010PropOp35
 70
     1
102
RTVSPost2010Prop36
280
     0
102
RTVSPost2010PropOp36
 70
     1
102
RTVSPost2010Prop37
 90
       50
102
RTVSPost2010PropOp37
 70
     1
102
RTVSPost2010Prop38
140
0.0
102
RTVSPost2010PropOp38
 70
     1
102
RTVSPost2010Prop39
140
1.0
102
RTVSPost2010PropOp39
 70
     1
102
RTVSPost2010Prop40
 90
        0
102
RTVSPost2010PropOp40
 70
     1
102
RTVSPost2010Prop41ColorIndex
 90
       18
102
RTVSPost2010Prop41ColorRGB
 90
        0
102
RTVSPost2010PropOp41
 70
     1
102
RTVSPost2010Prop42
 90
       50
102
RTVSPost2010PropOp42
 70
     1
102
RTVSPost2010Prop43
 90
        3
102
RTVSPost2010PropOp43
 70
     1
102
RTVSPost2010Prop44ColorIndex
 90
        5
102
RTVSPost2010Prop44ColorRGB
 90
      255
102
RTVSPost2010PropOp44
 70
     1
102
RTVSPost2010Prop45
280
     0
102
RTVSPost2010PropOp45
 70
     1
102
RTVSPost2010Prop46
 90
       50
102
RTVSPost2010PropOp46
 70
     1
102
RTVSPost2010Prop47
 90
       50
102
RTVSPost2010PropOp47
 70
     1
102
RTVSPost2010Prop48
 90
       50
102
RTVSPost2010PropOp48
 70
     1
102
RTVSPost2010Prop49
280
     0
102
RTVSPost2010PropOp49
 70
     1
102
RTVSPost2010Prop50
 90
       50
102
RTVSPost2010PropOp50
 70
     1
102
RTVSPost2010Prop51ColorIndex
 90
      256
102
RTVSPost2010Prop51ColorRGB
 90
-16777216
102
RTVSPost2010PropOp51
 70
     0
102
RTVSPost2010Prop52
140
1.0
102
RTVSPost2010PropOp52
 70
     0
102
RTVSPost2010Prop53
 90
        2
102
RTVSPost2010PropOp53
 70
     1
102
RTVSPost2010Prop54
  1
strokes_ogs.tif
102
RTVSPost2010PropOp54
 70
     1
102
RTVSPost2010Prop55
280
     0
102
RTVSPost2010PropOp55
 70
     1
102
RTVSPost2010Prop56
140
1.0
102
RTVSPost2010PropOp56
 70
     1
102
RTVSPost2010Prop57
140
1.0
102
RTVSPost2010PropOp57
 70
     1
  0
XRECORD
  5
60A
102
{ACAD_REACTORS
330
609
102
}
330
609
100
AcDbXrecord
280
     1
102
RTVSPropertyOp0
 70
     1
102
RTVSPropertyOp1
 70
     1
102
RTVSPropertyOp2
 70
     1
102
RTVSPropertyOp3
 70
     1
102
RTVSPropertyOp4
 70
     1
102
RTVSPropertyOp5
 70
     1
102
RTVSPropertyOp6
 70
     1
102
RTVSPropertyOp7
 70
     1
102
RTVSPropertyOp8
 70
     1
102
RTVSPropertyOp9
 70
     1
102
RTVSPropertyOp10
 70
     1
102
RTVSPropertyOp11
 70
     1
102
RTVSPropertyOp12
 70
     1
102
RTVSPropertyOp13
 70
     1
102
RTVSPropertyOp14
 70
     1
102
RTVSPropertyOp15
 70
     1
102
RTVSPropertyOp16
 70
     1
102
RTVSPropertyOp17
 70
     1
102
RTVSPropertyOp18
 70
     1
102
RTVSPropertyOp19
 70
     1
102
RTVSPropertyOp20
 70
     1
102
RTVSPropertyOp21
 70
     1
102
RTVSPropertyOp22
 70
     1
102
RTVSPropertyOp23
 70
     1
102
RTVSPropertyOp24
 70
     1
102
RTVSPropertyOp25
 70
     1
102
RTVSPropertyOp26
 70
     1
102
RTVSPropertyOp27
 70
     1
102
RTVSPropertyOp28
 70
     1
102
RTVSPropertyOp29
 70
     1
102
RTVSPropertyOp30
 70
     1
102
RTVSPropertyOp31
 70
     1
102
RTVSPropertyOp32
 70
     1
102
RTVSPropertyOp33
 70
     1
102
RTVSPropertyOp34
 70
     1
102
RTVSPropertyOp35
 70
     1
102
RTVSPropertyOp36
 70
     1
102
RTVSPropertyOp37
 70
     1
102
RTVSPropertyOp38
 70
     1
102
RTVSPropertyOp39
 70
     1
102
RTVSPropertyOp40
 70
     1
102
RTVSPropertyOp41
 70
     1
102
RTVSPropertyOp42
 70
     1
102
RTVSPropertyOp43
 70
     1
102
RTVSPropertyOp44
 70
     1
102
RTVSPropertyOp45
 70
     1
102
RTVSPropertyOp46
 70
     1
102
RTVSPropertyOp47
 70
     1
102
RTVSPropertyOp48
 70
     1
102
RTVSPropertyOp49
 70
     1
102
RTVSPropertyOp50
 70
     1
102
RTVSPropertyOp51
 70
     0
102
RTVSPropertyOp52
 70
     0
102
RTVSPropertyOp53
 70
     1
102
RTVSPropertyOp54
 70
     1
102
RTVSPropertyOp55
 70
     1
102
RTVSPropertyOp56
 70
     1
102
RTVSPropertyOp57
 70
     1
102
RTVSPost2010Prop28
280
     0
102
RTVSPost2010PropOp28
 70
     1
102
RTVSPost2010Prop29
280
     1
102
RTVSPost2010PropOp29
 70
     1
102
RTVSPost2010Prop30
280
     1
102
RTVSPost2010PropOp30
 70
     1
102
RTVSPost2010Prop31
280
     0
102
RTVSPost2010PropOp31
 70
     1
102
RTVSPost2010Prop32
280
     0
102
RTVSPost2010PropOp32
 70
     1
102
RTVSPost2010Prop33
280
     0
102
RTVSPost2010PropOp33
 70
     1
102
RTVSPost2010Prop34
280
     0
102
RTVSPost2010PropOp34
 70
     1
102
RTVSPost2010Prop35
280
     0
102
RTVSPost2010PropOp35
 70
     1
102
RTVSPost2010Prop36
280
     0
102
RTVSPost2010PropOp36
 70
     1
102
RTVSPost2010Prop37
 90
       50
102
RTVSPost2010PropOp37
 70
     1
102
RTVSPost2010Prop38
140
0.0
102
RTVSPost2010PropOp38
 70
     1
102
RTVSPost2010Prop39
140
1.0
102
RTVSPost2010PropOp39
 70
     1
102
RTVSPost2010Prop40
 90
        0
102
RTVSPost2010PropOp40
 70
     1
102
RTVSPost2010Prop41ColorIndex
 90
       18
102
RTVSPost2010Prop41ColorRGB
 90
        0
102
RTVSPost2010PropOp41
 70
     1
102
RTVSPost2010Prop42
 90
       50
102
RTVSPost2010PropOp42
 70
     1
102
RTVSPost2010Prop43
 90
        3
102
RTVSPost2010PropOp43
 70
     1
102
RTVSPost2010Prop44ColorIndex
 90
        5
102
RTVSPost2010Prop44ColorRGB
 90
      255
102
RTVSPost2010PropOp44
 70
     1
102
RTVSPost2010Prop45
280
     0
102
RTVSPost2010PropOp45
 70
     1
102
RTVSPost2010Prop46
 90
       50
102
RTVSPost2010PropOp46
 70
     1
102
RTVSPost2010Prop47
 90
       50
102
RTVSPost2010PropOp47
 70
     1
102
RTVSPost2010Prop48
 90
       50
102
RTVSPost2010PropOp48
 70
     1
102
RTVSPost2010Prop49
280
     0
102
RTVSPost2010PropOp49
 70
     1
102
RTVSPost2010Prop50
 90
       50
102
RTVSPost2010PropOp50
 70
     1
102
RTVSPost2010Prop51ColorIndex
 90
      256
102
RTVSPost2010Prop51ColorRGB
 90
-16777216
102
RTVSPost2010PropOp51
 70
     0
102
RTVSPost2010Prop52
140
1.0
102
RTVSPost2010PropOp52
 70
     0
102
RTVSPost2010Prop53
 90
        2
102
RTVSPost2010PropOp53
 70
     1
102
RTVSPost2010Prop54
  1
strokes_ogs.tif
102
RTVSPost2010PropOp54
 70
     1
102
RTVSPost2010Prop55
280
     0
102
RTVSPost2010PropOp55
 70
     1
102
RTVSPost2010Prop56
140
1.0
102
RTVSPost2010PropOp56
 70
     1
102
RTVSPost2010Prop57
140
1.0
102
RTVSPost2010PropOp57
 70
     1
  0
XRECORD
  5
61A
102
{ACAD_REACTORS
330
619
102
}
330
619
100
AcDbXrecord
280
     1
102
RTVSPropertyOp0
 70
     0
102
RTVSPropertyOp1
 70
     0
102
RTVSPropertyOp2
 70
     0
102
RTVSPropertyOp3
 70
     0
102
RTVSPropertyOp4
 70
     0
102
RTVSPropertyOp5
 70
     0
102
RTVSPropertyOp6
 70
     0
102
RTVSPropertyOp7
 70
     0
102
RTVSPropertyOp8
 70
     0
102
RTVSPropertyOp9
 70
     0
102
RTVSPropertyOp10
 70
     0
102
RTVSPropertyOp11
 70
     0
102
RTVSPropertyOp12
 70
     0
102
RTVSPropertyOp13
 70
     0
102
RTVSPropertyOp14
 70
     0
102
RTVSPropertyOp15
 70
     0
102
RTVSPropertyOp16
 70
     0
102
RTVSPropertyOp17
 70
     0
102
RTVSPropertyOp18
 70
     0
102
RTVSPropertyOp19
 70
     0
102
RTVSPropertyOp20
 70
     0
102
RTVSPropertyOp21
 70
     0
102
RTVSPropertyOp22
 70
     0
102
RTVSPropertyOp23
 70
     0
102
RTVSPropertyOp24
 70
     0
102
RTVSPropertyOp25
 70
     0
102
RTVSPropertyOp26
 70
     0
102
RTVSPropertyOp27
 70
     0
102
RTVSPropertyOp28
 70
     1
102
RTVSPropertyOp29
 70
     1
102
RTVSPropertyOp30
 70
     1
102
RTVSPropertyOp31
 70
     1
102
RTVSPropertyOp32
 70
     1
102
RTVSPropertyOp33
 70
     1
102
RTVSPropertyOp34
 70
     1
102
RTVSPropertyOp35
 70
     1
102
RTVSPropertyOp36
 70
     1
102
RTVSPropertyOp37
 70
     1
102
RTVSPropertyOp38
 70
     1
102
RTVSPropertyOp39
 70
     1
102
RTVSPropertyOp40
 70
     1
102
RTVSPropertyOp41
 70
     1
102
RTVSPropertyOp42
 70
     1
102
RTVSPropertyOp43
 70
     1
102
RTVSPropertyOp44
 70
     1
102
RTVSPropertyOp45
 70
     1
102
RTVSPropertyOp46
 70
     1
102
RTVSPropertyOp47
 70
     1
102
RTVSPropertyOp48
 70
     1
102
RTVSPropertyOp49
 70
     1
102
RTVSPropertyOp50
 70
     1
102
RTVSPropertyOp51
 70
     0
102
RTVSPropertyOp52
 70
     0
102
RTVSPropertyOp53
 70
     1
102
RTVSPropertyOp54
 70
     1
102
RTVSPropertyOp55
 70
     1
102
RTVSPropertyOp56
 70
     1
102
RTVSPropertyOp57
 70
     1
102
RTVSPost2010Prop28
280
     0
102
RTVSPost2010PropOp28
 70
     1
102
RTVSPost2010Prop29
280
     1
102
RTVSPost2010PropOp29
 70
     1
102
RTVSPost2010Prop30
280
     1
102
RTVSPost2010PropOp30
 70
     1
102
RTVSPost2010Prop31
280
     0
102
RTVSPost2010PropOp31
 70
     1
102
RTVSPost2010Prop32
280
     0
102
RTVSPost2010PropOp32
 70
     1
102
RTVSPost2010Prop33
280
     0
102
RTVSPost2010PropOp33
 70
     1
102
RTVSPost2010Prop34
280
     0
102
RTVSPost2010PropOp34
 70
     1
102
RTVSPost2010Prop35
280
     0
102
RTVSPost2010PropOp35
 70
     1
102
RTVSPost2010Prop36
280
     0
102
RTVSPost2010PropOp36
 70
     1
102
RTVSPost2010Prop37
 90
       50
102
RTVSPost2010PropOp37
 70
     1
102
RTVSPost2010Prop38
140
0.0
102
RTVSPost2010PropOp38
 70
     1
102
RTVSPost2010Prop39
140
1.0
102
RTVSPost2010PropOp39
 70
     1
102
RTVSPost2010Prop40
 90
        0
102
RTVSPost2010PropOp40
 70
     1
102
RTVSPost2010Prop41ColorIndex
 90
       18
102
RTVSPost2010Prop41ColorRGB
 90
        0
102
RTVSPost2010PropOp41
 70
     1
102
RTVSPost2010Prop42
 90
       50
102
RTVSPost2010PropOp42
 70
     1
102
RTVSPost2010Prop43
 90
        3
102
RTVSPost2010PropOp43
 70
     1
102
RTVSPost2010Prop44ColorIndex
 90
        5
102
RTVSPost2010Prop44ColorRGB
 90
      255
102
RTVSPost2010PropOp44
 70
     1
102
RTVSPost2010Prop45
280
     0
102
RTVSPost2010PropOp45
 70
     1
102
RTVSPost2010Prop46
 90
       50
102
RTVSPost2010PropOp46
 70
     1
102
RTVSPost2010Prop47
 90
       50
102
RTVSPost2010PropOp47
 70
     1
102
RTVSPost2010Prop48
 90
       50
102
RTVSPost2010PropOp48
 70
     1
102
RTVSPost2010Prop49
280
     0
102
RTVSPost2010PropOp49
 70
     1
102
RTVSPost2010Prop50
 90
       50
102
RTVSPost2010PropOp50
 70
     1
102
RTVSPost2010Prop51ColorIndex
 90
      256
102
RTVSPost2010Prop51ColorRGB
 90
-16777216
102
RTVSPost2010PropOp51
 70
     0
102
RTVSPost2010Prop52
140
1.0
102
RTVSPost2010PropOp52
 70
     0
102
RTVSPost2010Prop53
 90
        2
102
RTVSPost2010PropOp53
 70
     1
102
RTVSPost2010Prop54
  1
strokes_ogs.tif
102
RTVSPost2010PropOp54
 70
     1
102
RTVSPost2010Prop55
280
     0
102
RTVSPost2010PropOp55
 70
     1
102
RTVSPost2010Prop56
140
1.0
102
RTVSPost2010PropOp56
 70
     1
102
RTVSPost2010Prop57
140
1.0
102
RTVSPost2010PropOp57
 70
     1
  0
XRECORD
  5
612
102
{ACAD_REACTORS
330
611
102
}
330
611
100
AcDbXrecord
280
     1
102
RTVSPropertyOp0
 70
     1
102
RTVSPropertyOp1
 70
     1
102
RTVSPropertyOp2
 70
     1
102
RTVSPropertyOp3
 70
     1
102
RTVSPropertyOp4
 70
     1
102
RTVSPropertyOp5
 70
     1
102
RTVSPropertyOp6
 70
     1
102
RTVSPropertyOp7
 70
     1
102
RTVSPropertyOp8
 70
     1
102
RTVSPropertyOp9
 70
     1
102
RTVSPropertyOp10
 70
     1
102
RTVSPropertyOp11
 70
     1
102
RTVSPropertyOp12
 70
     1
102
RTVSPropertyOp13
 70
     1
102
RTVSPropertyOp14
 70
     1
102
RTVSPropertyOp15
 70
     1
102
RTVSPropertyOp16
 70
     1
102
RTVSPropertyOp17
 70
     1
102
RTVSPropertyOp18
 70
     1
102
RTVSPropertyOp19
 70
     1
102
RTVSPropertyOp20
 70
     1
102
RTVSPropertyOp21
 70
     1
102
RTVSPropertyOp22
 70
     1
102
RTVSPropertyOp23
 70
     1
102
RTVSPropertyOp24
 70
     1
102
RTVSPropertyOp25
 70
     1
102
RTVSPropertyOp26
 70
     1
102
RTVSPropertyOp27
 70
     1
102
RTVSPropertyOp28
 70
     1
102
RTVSPropertyOp29
 70
     1
102
RTVSPropertyOp30
 70
     1
102
RTVSPropertyOp31
 70
     1
102
RTVSPropertyOp32
 70
     1
102
RTVSPropertyOp33
 70
     1
102
RTVSPropertyOp34
 70
     1
102
RTVSPropertyOp35
 70
     1
102
RTVSPropertyOp36
 70
     1
102
RTVSPropertyOp37
 70
     1
102
RTVSPropertyOp38
 70
     1
102
RTVSPropertyOp39
 70
     1
102
RTVSPropertyOp40
 70
     1
102
RTVSPropertyOp41
 70
     1
102
RTVSPropertyOp42
 70
     1
102
RTVSPropertyOp43
 70
     1
102
RTVSPropertyOp44
 70
     1
102
RTVSPropertyOp45
 70
     1
102
RTVSPropertyOp46
 70
     1
102
RTVSPropertyOp47
 70
     1
102
RTVSPropertyOp48
 70
     1
102
RTVSPropertyOp49
 70
     1
102
RTVSPropertyOp50
 70
     1
102
RTVSPropertyOp51
 70
     0
102
RTVSPropertyOp52
 70
     0
102
RTVSPropertyOp53
 70
     1
102
RTVSPropertyOp54
 70
     1
102
RTVSPropertyOp55
 70
     1
102
RTVSPropertyOp56
 70
     1
102
RTVSPropertyOp57
 70
     1
102
RTVSPost2010Prop28
280
     0
102
RTVSPost2010PropOp28
 70
     1
102
RTVSPost2010Prop29
280
     1
102
RTVSPost2010PropOp29
 70
     1
102
RTVSPost2010Prop30
280
     1
102
RTVSPost2010PropOp30
 70
     1
102
RTVSPost2010Prop31
280
     0
102
RTVSPost2010PropOp31
 70
     1
102
RTVSPost2010Prop32
280
     0
102
RTVSPost2010PropOp32
 70
     1
102
RTVSPost2010Prop33
280
     0
102
RTVSPost2010PropOp33
 70
     1
102
RTVSPost2010Prop34
280
     0
102
RTVSPost2010PropOp34
 70
     1
102
RTVSPost2010Prop35
280
     0
102
RTVSPost2010PropOp35
 70
     1
102
RTVSPost2010Prop36
280
     0
102
RTVSPost2010PropOp36
 70
     1
102
RTVSPost2010Prop37
 90
       50
102
RTVSPost2010PropOp37
 70
     1
102
RTVSPost2010Prop38
140
0.0
102
RTVSPost2010PropOp38
 70
     1
102
RTVSPost2010Prop39
140
1.0
102
RTVSPost2010PropOp39
 70
     1
102
RTVSPost2010Prop40
 90
        0
102
RTVSPost2010PropOp40
 70
     1
102
RTVSPost2010Prop41ColorIndex
 90
       18
102
RTVSPost2010Prop41ColorRGB
 90
        0
102
RTVSPost2010PropOp41
 70
     1
102
RTVSPost2010Prop42
 90
       50
102
RTVSPost2010PropOp42
 70
     1
102
RTVSPost2010Prop43
 90
        3
102
RTVSPost2010PropOp43
 70
     1
102
RTVSPost2010Prop44ColorIndex
 90
        5
102
RTVSPost2010Prop44ColorRGB
 90
      255
102
RTVSPost2010PropOp44
 70
     1
102
RTVSPost2010Prop45
280
     0
102
RTVSPost2010PropOp45
 70
     1
102
RTVSPost2010Prop46
 90
       50
102
RTVSPost2010PropOp46
 70
     1
102
RTVSPost2010Prop47
 90
       50
102
RTVSPost2010PropOp47
 70
     1
102
RTVSPost2010Prop48
 90
       50
102
RTVSPost2010PropOp48
 70
     1
102
RTVSPost2010Prop49
280
     0
102
RTVSPost2010PropOp49
 70
     1
102
RTVSPost2010Prop50
 90
       50
102
RTVSPost2010PropOp50
 70
     1
102
RTVSPost2010Prop51ColorIndex
 90
      256
102
RTVSPost2010Prop51ColorRGB
 90
-16777216
102
RTVSPost2010PropOp51
 70
     0
102
RTVSPost2010Prop52
140
1.0
102
RTVSPost2010PropOp52
 70
     0
102
RTVSPost2010Prop53
 90
        2
102
RTVSPost2010PropOp53
 70
     1
102
RTVSPost2010Prop54
  1
strokes_ogs.tif
102
RTVSPost2010PropOp54
 70
     1
102
RTVSPost2010Prop55
280
     0
102
RTVSPost2010PropOp55
 70
     1
102
RTVSPost2010Prop56
140
1.0
102
RTVSPost2010PropOp56
 70
     1
102
RTVSPost2010Prop57
140
1.0
102
RTVSPost2010PropOp57
 70
     1
  0
XRECORD
  5
5F6
102
{ACAD_REACTORS
330
5F5
102
}
330
5F5
100
AcDbXrecord
280
     1
102
RTVSPropertyOp0
 70
     1
102
RTVSPropertyOp1
 70
     1
102
RTVSPropertyOp2
 70
     1
102
RTVSPropertyOp3
 70
     1
102
RTVSPropertyOp4
 70
     1
102
RTVSPropertyOp5
 70
     1
102
RTVSPropertyOp6
 70
     1
102
RTVSPropertyOp7
 70
     1
102
RTVSPropertyOp8
 70
     1
102
RTVSPropertyOp9
 70
     1
102
RTVSPropertyOp10
 70
     1
102
RTVSPropertyOp11
 70
     1
102
RTVSPropertyOp12
 70
     1
102
RTVSPropertyOp13
 70
     1
102
RTVSPropertyOp14
 70
     1
102
RTVSPropertyOp15
 70
     1
102
RTVSPropertyOp16
 70
     1
102
RTVSPropertyOp17
 70
     1
102
RTVSPropertyOp18
 70
     1
102
RTVSPropertyOp19
 70
     1
102
RTVSPropertyOp20
 70
     1
102
RTVSPropertyOp21
 70
     1
102
RTVSPropertyOp22
 70
     1
102
RTVSPropertyOp23
 70
     1
102
RTVSPropertyOp24
 70
     1
102
RTVSPropertyOp25
 70
     1
102
RTVSPropertyOp26
 70
     1
102
RTVSPropertyOp27
 70
     1
102
RTVSPropertyOp28
 70
     1
102
RTVSPropertyOp29
 70
     1
102
RTVSPropertyOp30
 70
     1
102
RTVSPropertyOp31
 70
     1
102
RTVSPropertyOp32
 70
     1
102
RTVSPropertyOp33
 70
     1
102
RTVSPropertyOp34
 70
     1
102
RTVSPropertyOp35
 70
     1
102
RTVSPropertyOp36
 70
     1
102
RTVSPropertyOp37
 70
     1
102
RTVSPropertyOp38
 70
     1
102
RTVSPropertyOp39
 70
     1
102
RTVSPropertyOp40
 70
     1
102
RTVSPropertyOp41
 70
     1
102
RTVSPropertyOp42
 70
     1
102
RTVSPropertyOp43
 70
     1
102
RTVSPropertyOp44
 70
     1
102
RTVSPropertyOp45
 70
     1
102
RTVSPropertyOp46
 70
     1
102
RTVSPropertyOp47
 70
     1
102
RTVSPropertyOp48
 70
     1
102
RTVSPropertyOp49
 70
     1
102
RTVSPropertyOp50
 70
     1
102
RTVSPropertyOp51
 70
     0
102
RTVSPropertyOp52
 70
     0
102
RTVSPropertyOp53
 70
     1
102
RTVSPropertyOp54
 70
     1
102
RTVSPropertyOp55
 70
     1
102
RTVSPropertyOp56
 70
     1
102
RTVSPropertyOp57
 70
     1
102
RTVSPost2010Prop28
280
     0
102
RTVSPost2010PropOp28
 70
     1
102
RTVSPost2010Prop29
280
     1
102
RTVSPost2010PropOp29
 70
     1
102
RTVSPost2010Prop30
280
     1
102
RTVSPost2010PropOp30
 70
     1
102
RTVSPost2010Prop31
280
     0
102
RTVSPost2010PropOp31
 70
     1
102
RTVSPost2010Prop32
280
     0
102
RTVSPost2010PropOp32
 70
     1
102
RTVSPost2010Prop33
280
     0
102
RTVSPost2010PropOp33
 70
     1
102
RTVSPost2010Prop34
280
     0
102
RTVSPost2010PropOp34
 70
     1
102
RTVSPost2010Prop35
280
     0
102
RTVSPost2010PropOp35
 70
     1
102
RTVSPost2010Prop36
280
     0
102
RTVSPost2010PropOp36
 70
     1
102
RTVSPost2010Prop37
 90
       50
102
RTVSPost2010PropOp37
 70
     1
102
RTVSPost2010Prop38
140
0.0
102
RTVSPost2010PropOp38
 70
     1
102
RTVSPost2010Prop39
140
1.0
102
RTVSPost2010PropOp39
 70
     1
102
RTVSPost2010Prop40
 90
        0
102
RTVSPost2010PropOp40
 70
     1
102
RTVSPost2010Prop41ColorIndex
 90
       18
102
RTVSPost2010Prop41ColorRGB
 90
        0
102
RTVSPost2010PropOp41
 70
     1
102
RTVSPost2010Prop42
 90
       50
102
RTVSPost2010PropOp42
 70
     1
102
RTVSPost2010Prop43
 90
        3
102
RTVSPost2010PropOp43
 70
     1
102
RTVSPost2010Prop44ColorIndex
 90
        5
102
RTVSPost2010Prop44ColorRGB
 90
      255
102
RTVSPost2010PropOp44
 70
     1
102
RTVSPost2010Prop45
280
     0
102
RTVSPost2010PropOp45
 70
     1
102
RTVSPost2010Prop46
 90
       50
102
RTVSPost2010PropOp46
 70
     1
102
RTVSPost2010Prop47
 90
       50
102
RTVSPost2010PropOp47
 70
     1
102
RTVSPost2010Prop48
 90
       50
102
RTVSPost2010PropOp48
 70
     1
102
RTVSPost2010Prop49
280
     0
102
RTVSPost2010PropOp49
 70
     1
102
RTVSPost2010Prop50
 90
       50
102
RTVSPost2010PropOp50
 70
     1
102
RTVSPost2010Prop51ColorIndex
 90
      256
102
RTVSPost2010Prop51ColorRGB
 90
-16777216
102
RTVSPost2010PropOp51
 70
     0
102
RTVSPost2010Prop52
140
1.0
102
RTVSPost2010PropOp52
 70
     0
102
RTVSPost2010Prop53
 90
        2
102
RTVSPost2010PropOp53
 70
     1
102
RTVSPost2010Prop54
  1
strokes_ogs.tif
102
RTVSPost2010PropOp54
 70
     1
102
RTVSPost2010Prop55
280
     0
102
RTVSPost2010PropOp55
 70
     1
102
RTVSPost2010Prop56
140
1.0
102
RTVSPost2010PropOp56
 70
     1
102
RTVSPost2010Prop57
140
1.0
102
RTVSPost2010PropOp57
 70
     1
  0
XRECORD
  5
5F8
102
{ACAD_REACTORS
330
5F7
102
}
330
5F7
100
AcDbXrecord
280
     1
102
RTVSPropertyOp0
 70
     1
102
RTVSPropertyOp1
 70
     1
102
RTVSPropertyOp2
 70
     1
102
RTVSPropertyOp3
 70
     1
102
RTVSPropertyOp4
 70
     1
102
RTVSPropertyOp5
 70
     1
102
RTVSPropertyOp6
 70
     1
102
RTVSPropertyOp7
 70
     1
102
RTVSPropertyOp8
 70
     1
102
RTVSPropertyOp9
 70
     1
102
RTVSPropertyOp10
 70
     1
102
RTVSPropertyOp11
 70
     1
102
RTVSPropertyOp12
 70
     1
102
RTVSPropertyOp13
 70
     1
102
RTVSPropertyOp14
 70
     1
102
RTVSPropertyOp15
 70
     1
102
RTVSPropertyOp16
 70
     1
102
RTVSPropertyOp17
 70
     1
102
RTVSPropertyOp18
 70
     1
102
RTVSPropertyOp19
 70
     1
102
RTVSPropertyOp20
 70
     1
102
RTVSPropertyOp21
 70
     1
102
RTVSPropertyOp22
 70
     1
102
RTVSPropertyOp23
 70
     1
102
RTVSPropertyOp24
 70
     1
102
RTVSPropertyOp25
 70
     1
102
RTVSPropertyOp26
 70
     1
102
RTVSPropertyOp27
 70
     1
102
RTVSPropertyOp28
 70
     1
102
RTVSPropertyOp29
 70
     1
102
RTVSPropertyOp30
 70
     1
102
RTVSPropertyOp31
 70
     1
102
RTVSPropertyOp32
 70
     1
102
RTVSPropertyOp33
 70
     1
102
RTVSPropertyOp34
 70
     1
102
RTVSPropertyOp35
 70
     1
102
RTVSPropertyOp36
 70
     1
102
RTVSPropertyOp37
 70
     1
102
RTVSPropertyOp38
 70
     1
102
RTVSPropertyOp39
 70
     1
102
RTVSPropertyOp40
 70
     1
102
RTVSPropertyOp41
 70
     1
102
RTVSPropertyOp42
 70
     1
102
RTVSPropertyOp43
 70
     1
102
RTVSPropertyOp44
 70
     1
102
RTVSPropertyOp45
 70
     1
102
RTVSPropertyOp46
 70
     1
102
RTVSPropertyOp47
 70
     1
102
RTVSPropertyOp48
 70
     1
102
RTVSPropertyOp49
 70
     1
102
RTVSPropertyOp50
 70
     1
102
RTVSPropertyOp51
 70
     0
102
RTVSPropertyOp52
 70
     0
102
RTVSPropertyOp53
 70
     1
102
RTVSPropertyOp54
 70
     1
102
RTVSPropertyOp55
 70
     1
102
RTVSPropertyOp56
 70
     1
102
RTVSPropertyOp57
 70
     1
102
RTVSPost2010Prop28
280
     0
102
RTVSPost2010PropOp28
 70
     1
102
RTVSPost2010Prop29
280
     1
102
RTVSPost2010PropOp29
 70
     1
102
RTVSPost2010Prop30
280
     1
102
RTVSPost2010PropOp30
 70
     1
102
RTVSPost2010Prop31
280
     0
102
RTVSPost2010PropOp31
 70
     1
102
RTVSPost2010Prop32
280
     0
102
RTVSPost2010PropOp32
 70
     1
102
RTVSPost2010Prop33
280
     0
102
RTVSPost2010PropOp33
 70
     1
102
RTVSPost2010Prop34
280
     0
102
RTVSPost2010PropOp34
 70
     1
102
RTVSPost2010Prop35
280
     0
102
RTVSPost2010PropOp35
 70
     1
102
RTVSPost2010Prop36
280
     0
102
RTVSPost2010PropOp36
 70
     1
102
RTVSPost2010Prop37
 90
       50
102
RTVSPost2010PropOp37
 70
     1
102
RTVSPost2010Prop38
140
0.0
102
RTVSPost2010PropOp38
 70
     1
102
RTVSPost2010Prop39
140
1.0
102
RTVSPost2010PropOp39
 70
     1
102
RTVSPost2010Prop40
 90
        0
102
RTVSPost2010PropOp40
 70
     1
102
RTVSPost2010Prop41ColorIndex
 90
       18
102
RTVSPost2010Prop41ColorRGB
 90
        0
102
RTVSPost2010PropOp41
 70
     1
102
RTVSPost2010Prop42
 90
       50
102
RTVSPost2010PropOp42
 70
     1
102
RTVSPost2010Prop43
 90
        3
102
RTVSPost2010PropOp43
 70
     1
102
RTVSPost2010Prop44ColorIndex
 90
        5
102
RTVSPost2010Prop44ColorRGB
 90
      255
102
RTVSPost2010PropOp44
 70
     1
102
RTVSPost2010Prop45
280
     0
102
RTVSPost2010PropOp45
 70
     1
102
RTVSPost2010Prop46
 90
       50
102
RTVSPost2010PropOp46
 70
     1
102
RTVSPost2010Prop47
 90
       50
102
RTVSPost2010PropOp47
 70
     1
102
RTVSPost2010Prop48
 90
       50
102
RTVSPost2010PropOp48
 70
     1
102
RTVSPost2010Prop49
280
     0
102
RTVSPost2010PropOp49
 70
     1
102
RTVSPost2010Prop50
 90
       50
102
RTVSPost2010PropOp50
 70
     1
102
RTVSPost2010Prop51ColorIndex
 90
      256
102
RTVSPost2010Prop51ColorRGB
 90
-16777216
102
RTVSPost2010PropOp51
 70
     0
102
RTVSPost2010Prop52
140
1.0
102
RTVSPost2010PropOp52
 70
     0
102
RTVSPost2010Prop53
 90
        2
102
RTVSPost2010PropOp53
 70
     1
102
RTVSPost2010Prop54
  1
strokes_ogs.tif
102
RTVSPost2010PropOp54
 70
     1
102
RTVSPost2010Prop55
280
     0
102
RTVSPost2010PropOp55
 70
     1
102
RTVSPost2010Prop56
140
1.0
102
RTVSPost2010PropOp56
 70
     1
102
RTVSPost2010Prop57
140
1.0
102
RTVSPost2010PropOp57
 70
     1
  0
XRECORD
  5
5FA
102
{ACAD_REACTORS
330
5F9
102
}
330
5F9
100
AcDbXrecord
280
     1
102
RTVSPropertyOp0
 70
     1
102
RTVSPropertyOp1
 70
     1
102
RTVSPropertyOp2
 70
     1
102
RTVSPropertyOp3
 70
     1
102
RTVSPropertyOp4
 70
     1
102
RTVSPropertyOp5
 70
     1
102
RTVSPropertyOp6
 70
     1
102
RTVSPropertyOp7
 70
     1
102
RTVSPropertyOp8
 70
     1
102
RTVSPropertyOp9
 70
     1
102
RTVSPropertyOp10
 70
     1
102
RTVSPropertyOp11
 70
     1
102
RTVSPropertyOp12
 70
     1
102
RTVSPropertyOp13
 70
     1
102
RTVSPropertyOp14
 70
     1
102
RTVSPropertyOp15
 70
     1
102
RTVSPropertyOp16
 70
     1
102
RTVSPropertyOp17
 70
     1
102
RTVSPropertyOp18
 70
     1
102
RTVSPropertyOp19
 70
     1
102
RTVSPropertyOp20
 70
     1
102
RTVSPropertyOp21
 70
     1
102
RTVSPropertyOp22
 70
     1
102
RTVSPropertyOp23
 70
     1
102
RTVSPropertyOp24
 70
     1
102
RTVSPropertyOp25
 70
     1
102
RTVSPropertyOp26
 70
     1
102
RTVSPropertyOp27
 70
     1
102
RTVSPropertyOp28
 70
     1
102
RTVSPropertyOp29
 70
     1
102
RTVSPropertyOp30
 70
     1
102
RTVSPropertyOp31
 70
     1
102
RTVSPropertyOp32
 70
     1
102
RTVSPropertyOp33
 70
     1
102
RTVSPropertyOp34
 70
     1
102
RTVSPropertyOp35
 70
     1
102
RTVSPropertyOp36
 70
     1
102
RTVSPropertyOp37
 70
     1
102
RTVSPropertyOp38
 70
     1
102
RTVSPropertyOp39
 70
     1
102
RTVSPropertyOp40
 70
     1
102
RTVSPropertyOp41
 70
     1
102
RTVSPropertyOp42
 70
     1
102
RTVSPropertyOp43
 70
     1
102
RTVSPropertyOp44
 70
     1
102
RTVSPropertyOp45
 70
     1
102
RTVSPropertyOp46
 70
     1
102
RTVSPropertyOp47
 70
     1
102
RTVSPropertyOp48
 70
     1
102
RTVSPropertyOp49
 70
     1
102
RTVSPropertyOp50
 70
     1
102
RTVSPropertyOp51
 70
     0
102
RTVSPropertyOp52
 70
     0
102
RTVSPropertyOp53
 70
     1
102
RTVSPropertyOp54
 70
     1
102
RTVSPropertyOp55
 70
     1
102
RTVSPropertyOp56
 70
     1
102
RTVSPropertyOp57
 70
     1
102
RTVSPost2010Prop28
280
     0
102
RTVSPost2010PropOp28
 70
     1
102
RTVSPost2010Prop29
280
     1
102
RTVSPost2010PropOp29
 70
     1
102
RTVSPost2010Prop30
280
     1
102
RTVSPost2010PropOp30
 70
     1
102
RTVSPost2010Prop31
280
     0
102
RTVSPost2010PropOp31
 70
     1
102
RTVSPost2010Prop32
280
     0
102
RTVSPost2010PropOp32
 70
     1
102
RTVSPost2010Prop33
280
     0
102
RTVSPost2010PropOp33
 70
     1
102
RTVSPost2010Prop34
280
     0
102
RTVSPost2010PropOp34
 70
     1
102
RTVSPost2010Prop35
280
     0
102
RTVSPost2010PropOp35
 70
     1
102
RTVSPost2010Prop36
280
     0
102
RTVSPost2010PropOp36
 70
     1
102
RTVSPost2010Prop37
 90
       50
102
RTVSPost2010PropOp37
 70
     1
102
RTVSPost2010Prop38
140
0.0
102
RTVSPost2010PropOp38
 70
     1
102
RTVSPost2010Prop39
140
1.0
102
RTVSPost2010PropOp39
 70
     1
102
RTVSPost2010Prop40
 90
        0
102
RTVSPost2010PropOp40
 70
     1
102
RTVSPost2010Prop41ColorIndex
 90
       18
102
RTVSPost2010Prop41ColorRGB
 90
        0
102
RTVSPost2010PropOp41
 70
     1
102
RTVSPost2010Prop42
 90
       50
102
RTVSPost2010PropOp42
 70
     1
102
RTVSPost2010Prop43
 90
        3
102
RTVSPost2010PropOp43
 70
     1
102
RTVSPost2010Prop44ColorIndex
 90
        5
102
RTVSPost2010Prop44ColorRGB
 90
      255
102
RTVSPost2010PropOp44
 70
     1
102
RTVSPost2010Prop45
280
     0
102
RTVSPost2010PropOp45
 70
     1
102
RTVSPost2010Prop46
 90
       50
102
RTVSPost2010PropOp46
 70
     1
102
RTVSPost2010Prop47
 90
       50
102
RTVSPost2010PropOp47
 70
     1
102
RTVSPost2010Prop48
 90
       50
102
RTVSPost2010PropOp48
 70
     1
102
RTVSPost2010Prop49
280
     0
102
RTVSPost2010PropOp49
 70
     1
102
RTVSPost2010Prop50
 90
       50
102
RTVSPost2010PropOp50
 70
     1
102
RTVSPost2010Prop51ColorIndex
 90
      256
102
RTVSPost2010Prop51ColorRGB
 90
-16777216
102
RTVSPost2010PropOp51
 70
     0
102
RTVSPost2010Prop52
140
1.0
102
RTVSPost2010PropOp52
 70
     0
102
RTVSPost2010Prop53
 90
        2
102
RTVSPost2010PropOp53
 70
     1
102
RTVSPost2010Prop54
  1
strokes_ogs.tif
102
RTVSPost2010PropOp54
 70
     1
102
RTVSPost2010Prop55
280
     0
102
RTVSPost2010PropOp55
 70
     1
102
RTVSPost2010Prop56
140
1.0
102
RTVSPost2010PropOp56
 70
     1
102
RTVSPost2010Prop57
140
1.0
102
RTVSPost2010PropOp57
 70
     1
  0
XRECORD
  5
5FC
102
{ACAD_REACTORS
330
5FB
102
}
330
5FB
100
AcDbXrecord
280
     1
102
RTVSPropertyOp0
 70
     1
102
RTVSPropertyOp1
 70
     1
102
RTVSPropertyOp2
 70
     1
102
RTVSPropertyOp3
 70
     1
102
RTVSPropertyOp4
 70
     1
102
RTVSPropertyOp5
 70
     1
102
RTVSPropertyOp6
 70
     1
102
RTVSPropertyOp7
 70
     1
102
RTVSPropertyOp8
 70
     1
102
RTVSPropertyOp9
 70
     1
102
RTVSPropertyOp10
 70
     1
102
RTVSPropertyOp11
 70
     1
102
RTVSPropertyOp12
 70
     1
102
RTVSPropertyOp13
 70
     1
102
RTVSPropertyOp14
 70
     1
102
RTVSPropertyOp15
 70
     1
102
RTVSPropertyOp16
 70
     1
102
RTVSPropertyOp17
 70
     1
102
RTVSPropertyOp18
 70
     1
102
RTVSPropertyOp19
 70
     1
102
RTVSPropertyOp20
 70
     1
102
RTVSPropertyOp21
 70
     1
102
RTVSPropertyOp22
 70
     1
102
RTVSPropertyOp23
 70
     1
102
RTVSPropertyOp24
 70
     1
102
RTVSPropertyOp25
 70
     1
102
RTVSPropertyOp26
 70
     1
102
RTVSPropertyOp27
 70
     1
102
RTVSPropertyOp28
 70
     1
102
RTVSPropertyOp29
 70
     1
102
RTVSPropertyOp30
 70
     1
102
RTVSPropertyOp31
 70
     1
102
RTVSPropertyOp32
 70
     1
102
RTVSPropertyOp33
 70
     1
102
RTVSPropertyOp34
 70
     1
102
RTVSPropertyOp35
 70
     1
102
RTVSPropertyOp36
 70
     1
102
RTVSPropertyOp37
 70
     1
102
RTVSPropertyOp38
 70
     1
102
RTVSPropertyOp39
 70
     1
102
RTVSPropertyOp40
 70
     1
102
RTVSPropertyOp41
 70
     1
102
RTVSPropertyOp42
 70
     1
102
RTVSPropertyOp43
 70
     1
102
RTVSPropertyOp44
 70
     1
102
RTVSPropertyOp45
 70
     1
102
RTVSPropertyOp46
 70
     1
102
RTVSPropertyOp47
 70
     1
102
RTVSPropertyOp48
 70
     1
102
RTVSPropertyOp49
 70
     1
102
RTVSPropertyOp50
 70
     1
102
RTVSPropertyOp51
 70
     0
102
RTVSPropertyOp52
 70
     0
102
RTVSPropertyOp53
 70
     1
102
RTVSPropertyOp54
 70
     1
102
RTVSPropertyOp55
 70
     1
102
RTVSPropertyOp56
 70
     1
102
RTVSPropertyOp57
 70
     1
102
RTVSPost2010Prop28
280
     0
102
RTVSPost2010PropOp28
 70
     1
102
RTVSPost2010Prop29
280
     1
102
RTVSPost2010PropOp29
 70
     1
102
RTVSPost2010Prop30
280
     1
102
RTVSPost2010PropOp30
 70
     1
102
RTVSPost2010Prop31
280
     0
102
RTVSPost2010PropOp31
 70
     1
102
RTVSPost2010Prop32
280
     0
102
RTVSPost2010PropOp32
 70
     1
102
RTVSPost2010Prop33
280
     0
102
RTVSPost2010PropOp33
 70
     1
102
RTVSPost2010Prop34
280
     0
102
RTVSPost2010PropOp34
 70
     1
102
RTVSPost2010Prop35
280
     0
102
RTVSPost2010PropOp35
 70
     1
102
RTVSPost2010Prop36
280
     0
102
RTVSPost2010PropOp36
 70
     1
102
RTVSPost2010Prop37
 90
       50
102
RTVSPost2010PropOp37
 70
     1
102
RTVSPost2010Prop38
140
0.0
102
RTVSPost2010PropOp38
 70
     1
102
RTVSPost2010Prop39
140
1.0
102
RTVSPost2010PropOp39
 70
     1
102
RTVSPost2010Prop40
 90
        0
102
RTVSPost2010PropOp40
 70
     1
102
RTVSPost2010Prop41ColorIndex
 90
       18
102
RTVSPost2010Prop41ColorRGB
 90
        0
102
RTVSPost2010PropOp41
 70
     1
102
RTVSPost2010Prop42
 90
       50
102
RTVSPost2010PropOp42
 70
     1
102
RTVSPost2010Prop43
 90
        3
102
RTVSPost2010PropOp43
 70
     1
102
RTVSPost2010Prop44ColorIndex
 90
        5
102
RTVSPost2010Prop44ColorRGB
 90
      255
102
RTVSPost2010PropOp44
 70
     1
102
RTVSPost2010Prop45
280
     0
102
RTVSPost2010PropOp45
 70
     1
102
RTVSPost2010Prop46
 90
       50
102
RTVSPost2010PropOp46
 70
     1
102
RTVSPost2010Prop47
 90
       50
102
RTVSPost2010PropOp47
 70
     1
102
RTVSPost2010Prop48
 90
       50
102
RTVSPost2010PropOp48
 70
     1
102
RTVSPost2010Prop49
280
     0
102
RTVSPost2010PropOp49
 70
     1
102
RTVSPost2010Prop50
 90
       50
102
RTVSPost2010PropOp50
 70
     1
102
RTVSPost2010Prop51ColorIndex
 90
      256
102
RTVSPost2010Prop51ColorRGB
 90
-16777216
102
RTVSPost2010PropOp51
 70
     0
102
RTVSPost2010Prop52
140
1.0
102
RTVSPost2010PropOp52
 70
     0
102
RTVSPost2010Prop53
 90
        2
102
RTVSPost2010PropOp53
 70
     1
102
RTVSPost2010Prop54
  1
strokes_ogs.tif
102
RTVSPost2010PropOp54
 70
     1
102
RTVSPost2010Prop55
280
     0
102
RTVSPost2010PropOp55
 70
     1
102
RTVSPost2010Prop56
140
1.0
102
RTVSPost2010PropOp56
 70
     1
102
RTVSPost2010Prop57
140
1.0
102
RTVSPost2010PropOp57
 70
     1
  0
XRECORD
  5
602
102
{ACAD_REACTORS
330
601
102
}
330
601
100
AcDbXrecord
280
     1
102
RTVSPropertyOp0
 70
     1
102
RTVSPropertyOp1
 70
     1
102
RTVSPropertyOp2
 70
     1
102
RTVSPropertyOp3
 70
     1
102
RTVSPropertyOp4
 70
     1
102
RTVSPropertyOp5
 70
     1
102
RTVSPropertyOp6
 70
     1
102
RTVSPropertyOp7
 70
     1
102
RTVSPropertyOp8
 70
     1
102
RTVSPropertyOp9
 70
     1
102
RTVSPropertyOp10
 70
     1
102
RTVSPropertyOp11
 70
     1
102
RTVSPropertyOp12
 70
     1
102
RTVSPropertyOp13
 70
     1
102
RTVSPropertyOp14
 70
     1
102
RTVSPropertyOp15
 70
     1
102
RTVSPropertyOp16
 70
     1
102
RTVSPropertyOp17
 70
     1
102
RTVSPropertyOp18
 70
     1
102
RTVSPropertyOp19
 70
     1
102
RTVSPropertyOp20
 70
     1
102
RTVSPropertyOp21
 70
     1
102
RTVSPropertyOp22
 70
     1
102
RTVSPropertyOp23
 70
     1
102
RTVSPropertyOp24
 70
     1
102
RTVSPropertyOp25
 70
     1
102
RTVSPropertyOp26
 70
     1
102
RTVSPropertyOp27
 70
     1
102
RTVSPropertyOp28
 70
     1
102
RTVSPropertyOp29
 70
     1
102
RTVSPropertyOp30
 70
     1
102
RTVSPropertyOp31
 70
     1
102
RTVSPropertyOp32
 70
     1
102
RTVSPropertyOp33
 70
     1
102
RTVSPropertyOp34
 70
     1
102
RTVSPropertyOp35
 70
     1
102
RTVSPropertyOp36
 70
     1
102
RTVSPropertyOp37
 70
     1
102
RTVSPropertyOp38
 70
     1
102
RTVSPropertyOp39
 70
     1
102
RTVSPropertyOp40
 70
     1
102
RTVSPropertyOp41
 70
     1
102
RTVSPropertyOp42
 70
     1
102
RTVSPropertyOp43
 70
     1
102
RTVSPropertyOp44
 70
     1
102
RTVSPropertyOp45
 70
     1
102
RTVSPropertyOp46
 70
     1
102
RTVSPropertyOp47
 70
     1
102
RTVSPropertyOp48
 70
     1
102
RTVSPropertyOp49
 70
     1
102
RTVSPropertyOp50
 70
     1
102
RTVSPropertyOp51
 70
     0
102
RTVSPropertyOp52
 70
     0
102
RTVSPropertyOp53
 70
     1
102
RTVSPropertyOp54
 70
     1
102
RTVSPropertyOp55
 70
     1
102
RTVSPropertyOp56
 70
     1
102
RTVSPropertyOp57
 70
     1
102
RTVSPost2010Prop28
280
     0
102
RTVSPost2010PropOp28
 70
     1
102
RTVSPost2010Prop29
280
     1
102
RTVSPost2010PropOp29
 70
     1
102
RTVSPost2010Prop30
280
     1
102
RTVSPost2010PropOp30
 70
     1
102
RTVSPost2010Prop31
280
     0
102
RTVSPost2010PropOp31
 70
     1
102
RTVSPost2010Prop32
280
     0
102
RTVSPost2010PropOp32
 70
     1
102
RTVSPost2010Prop33
280
     0
102
RTVSPost2010PropOp33
 70
     1
102
RTVSPost2010Prop34
280
     0
102
RTVSPost2010PropOp34
 70
     1
102
RTVSPost2010Prop35
280
     0
102
RTVSPost2010PropOp35
 70
     1
102
RTVSPost2010Prop36
280
     0
102
RTVSPost2010PropOp36
 70
     1
102
RTVSPost2010Prop37
 90
       50
102
RTVSPost2010PropOp37
 70
     1
102
RTVSPost2010Prop38
140
0.0
102
RTVSPost2010PropOp38
 70
     1
102
RTVSPost2010Prop39
140
1.0
102
RTVSPost2010PropOp39
 70
     1
102
RTVSPost2010Prop40
 90
        0
102
RTVSPost2010PropOp40
 70
     1
102
RTVSPost2010Prop41ColorIndex
 90
       18
102
RTVSPost2010Prop41ColorRGB
 90
        0
102
RTVSPost2010PropOp41
 70
     1
102
RTVSPost2010Prop42
 90
       50
102
RTVSPost2010PropOp42
 70
     1
102
RTVSPost2010Prop43
 90
        3
102
RTVSPost2010PropOp43
 70
     1
102
RTVSPost2010Prop44ColorIndex
 90
        5
102
RTVSPost2010Prop44ColorRGB
 90
      255
102
RTVSPost2010PropOp44
 70
     1
102
RTVSPost2010Prop45
280
     0
102
RTVSPost2010PropOp45
 70
     1
102
RTVSPost2010Prop46
 90
       50
102
RTVSPost2010PropOp46
 70
     1
102
RTVSPost2010Prop47
 90
       50
102
RTVSPost2010PropOp47
 70
     1
102
RTVSPost2010Prop48
 90
       50
102
RTVSPost2010PropOp48
 70
     1
102
RTVSPost2010Prop49
280
     0
102
RTVSPost2010PropOp49
 70
     1
102
RTVSPost2010Prop50
 90
       50
102
RTVSPost2010PropOp50
 70
     1
102
RTVSPost2010Prop51ColorIndex
 90
      256
102
RTVSPost2010Prop51ColorRGB
 90
-16777216
102
RTVSPost2010PropOp51
 70
     0
102
RTVSPost2010Prop52
140
1.0
102
RTVSPost2010PropOp52
 70
     0
102
RTVSPost2010Prop53
 90
        2
102
RTVSPost2010PropOp53
 70
     1
102
RTVSPost2010Prop54
  1
strokes_ogs.tif
102
RTVSPost2010PropOp54
 70
     1
102
RTVSPost2010Prop55
280
     0
102
RTVSPost2010PropOp55
 70
     1
102
RTVSPost2010Prop56
140
1.0
102
RTVSPost2010PropOp56
 70
     1
102
RTVSPost2010Prop57
140
1.0
102
RTVSPost2010PropOp57
 70
     1
  0
XRECORD
  5
616
102
{ACAD_REACTORS
330
615
102
}
330
615
100
AcDbXrecord
280
     1
102
RTVSPropertyOp0
 70
     0
102
RTVSPropertyOp1
 70
     0
102
RTVSPropertyOp2
 70
     0
102
RTVSPropertyOp3
 70
     0
102
RTVSPropertyOp4
 70
     0
102
RTVSPropertyOp5
 70
     0
102
RTVSPropertyOp6
 70
     0
102
RTVSPropertyOp7
 70
     0
102
RTVSPropertyOp8
 70
     0
102
RTVSPropertyOp9
 70
     0
102
RTVSPropertyOp10
 70
     0
102
RTVSPropertyOp11
 70
     0
102
RTVSPropertyOp12
 70
     0
102
RTVSPropertyOp13
 70
     0
102
RTVSPropertyOp14
 70
     0
102
RTVSPropertyOp15
 70
     0
102
RTVSPropertyOp16
 70
     0
102
RTVSPropertyOp17
 70
     0
102
RTVSPropertyOp18
 70
     0
102
RTVSPropertyOp19
 70
     0
102
RTVSPropertyOp20
 70
     0
102
RTVSPropertyOp21
 70
     0
102
RTVSPropertyOp22
 70
     0
102
RTVSPropertyOp23
 70
     0
102
RTVSPropertyOp24
 70
     0
102
RTVSPropertyOp25
 70
     0
102
RTVSPropertyOp26
 70
     0
102
RTVSPropertyOp27
 70
     0
102
RTVSPropertyOp28
 70
     1
102
RTVSPropertyOp29
 70
     1
102
RTVSPropertyOp30
 70
     1
102
RTVSPropertyOp31
 70
     1
102
RTVSPropertyOp32
 70
     1
102
RTVSPropertyOp33
 70
     1
102
RTVSPropertyOp34
 70
     1
102
RTVSPropertyOp35
 70
     1
102
RTVSPropertyOp36
 70
     1
102
RTVSPropertyOp37
 70
     1
102
RTVSPropertyOp38
 70
     1
102
RTVSPropertyOp39
 70
     1
102
RTVSPropertyOp40
 70
     1
102
RTVSPropertyOp41
 70
     1
102
RTVSPropertyOp42
 70
     1
102
RTVSPropertyOp43
 70
     1
102
RTVSPropertyOp44
 70
     1
102
RTVSPropertyOp45
 70
     1
102
RTVSPropertyOp46
 70
     1
102
RTVSPropertyOp47
 70
     1
102
RTVSPropertyOp48
 70
     1
102
RTVSPropertyOp49
 70
     1
102
RTVSPropertyOp50
 70
     1
102
RTVSPropertyOp51
 70
     0
102
RTVSPropertyOp52
 70
     0
102
RTVSPropertyOp53
 70
     1
102
RTVSPropertyOp54
 70
     1
102
RTVSPropertyOp55
 70
     1
102
RTVSPropertyOp56
 70
     1
102
RTVSPropertyOp57
 70
     1
102
RTVSPost2010Prop28
280
     0
102
RTVSPost2010PropOp28
 70
     1
102
RTVSPost2010Prop29
280
     1
102
RTVSPost2010PropOp29
 70
     1
102
RTVSPost2010Prop30
280
     1
102
RTVSPost2010PropOp30
 70
     1
102
RTVSPost2010Prop31
280
     0
102
RTVSPost2010PropOp31
 70
     1
102
RTVSPost2010Prop32
280
     0
102
RTVSPost2010PropOp32
 70
     1
102
RTVSPost2010Prop33
280
     0
102
RTVSPost2010PropOp33
 70
     1
102
RTVSPost2010Prop34
280
     0
102
RTVSPost2010PropOp34
 70
     1
102
RTVSPost2010Prop35
280
     0
102
RTVSPost2010PropOp35
 70
     1
102
RTVSPost2010Prop36
280
     0
102
RTVSPost2010PropOp36
 70
     1
102
RTVSPost2010Prop37
 90
       50
102
RTVSPost2010PropOp37
 70
     1
102
RTVSPost2010Prop38
140
0.0
102
RTVSPost2010PropOp38
 70
     1
102
RTVSPost2010Prop39
140
1.0
102
RTVSPost2010PropOp39
 70
     1
102
RTVSPost2010Prop40
 90
        0
102
RTVSPost2010PropOp40
 70
     1
102
RTVSPost2010Prop41ColorIndex
 90
       18
102
RTVSPost2010Prop41ColorRGB
 90
        0
102
RTVSPost2010PropOp41
 70
     1
102
RTVSPost2010Prop42
 90
       50
102
RTVSPost2010PropOp42
 70
     1
102
RTVSPost2010Prop43
 90
        3
102
RTVSPost2010PropOp43
 70
     1
102
RTVSPost2010Prop44ColorIndex
 90
        5
102
RTVSPost2010Prop44ColorRGB
 90
      255
102
RTVSPost2010PropOp44
 70
     1
102
RTVSPost2010Prop45
280
     0
102
RTVSPost2010PropOp45
 70
     1
102
RTVSPost2010Prop46
 90
       50
102
RTVSPost2010PropOp46
 70
     1
102
RTVSPost2010Prop47
 90
       50
102
RTVSPost2010PropOp47
 70
     1
102
RTVSPost2010Prop48
 90
       50
102
RTVSPost2010PropOp48
 70
     1
102
RTVSPost2010Prop49
280
     0
102
RTVSPost2010PropOp49
 70
     1
102
RTVSPost2010Prop50
 90
       50
102
RTVSPost2010PropOp50
 70
     1
102
RTVSPost2010Prop51ColorIndex
 90
      256
102
RTVSPost2010Prop51ColorRGB
 90
-16777216
102
RTVSPost2010PropOp51
 70
     0
102
RTVSPost2010Prop52
140
1.0
102
RTVSPost2010PropOp52
 70
     0
102
RTVSPost2010Prop53
 90
        2
102
RTVSPost2010PropOp53
 70
     1
102
RTVSPost2010Prop54
  1
strokes_ogs.tif
102
RTVSPost2010PropOp54
 70
     1
102
RTVSPost2010Prop55
280
     0
102
RTVSPost2010PropOp55
 70
     1
102
RTVSPost2010Prop56
140
1.0
102
RTVSPost2010PropOp56
 70
     1
102
RTVSPost2010Prop57
140
1.0
102
RTVSPost2010PropOp57
 70
     1
  0
XRECORD
  5
610
102
{ACAD_REACTORS
330
60F
102
}
330
60F
100
AcDbXrecord
280
     1
102
RTVSPropertyOp0
 70
     1
102
RTVSPropertyOp1
 70
     1
102
RTVSPropertyOp2
 70
     1
102
RTVSPropertyOp3
 70
     1
102
RTVSPropertyOp4
 70
     1
102
RTVSPropertyOp5
 70
     1
102
RTVSPropertyOp6
 70
     1
102
RTVSPropertyOp7
 70
     1
102
RTVSPropertyOp8
 70
     1
102
RTVSPropertyOp9
 70
     1
102
RTVSPropertyOp10
 70
     1
102
RTVSPropertyOp11
 70
     1
102
RTVSPropertyOp12
 70
     1
102
RTVSPropertyOp13
 70
     1
102
RTVSPropertyOp14
 70
     1
102
RTVSPropertyOp15
 70
     1
102
RTVSPropertyOp16
 70
     1
102
RTVSPropertyOp17
 70
     1
102
RTVSPropertyOp18
 70
     1
102
RTVSPropertyOp19
 70
     1
102
RTVSPropertyOp20
 70
     1
102
RTVSPropertyOp21
 70
     1
102
RTVSPropertyOp22
 70
     1
102
RTVSPropertyOp23
 70
     1
102
RTVSPropertyOp24
 70
     1
102
RTVSPropertyOp25
 70
     1
102
RTVSPropertyOp26
 70
     1
102
RTVSPropertyOp27
 70
     1
102
RTVSPropertyOp28
 70
     1
102
RTVSPropertyOp29
 70
     1
102
RTVSPropertyOp30
 70
     1
102
RTVSPropertyOp31
 70
     1
102
RTVSPropertyOp32
 70
     1
102
RTVSPropertyOp33
 70
     1
102
RTVSPropertyOp34
 70
     1
102
RTVSPropertyOp35
 70
     1
102
RTVSPropertyOp36
 70
     1
102
RTVSPropertyOp37
 70
     1
102
RTVSPropertyOp38
 70
     1
102
RTVSPropertyOp39
 70
     1
102
RTVSPropertyOp40
 70
     1
102
RTVSPropertyOp41
 70
     1
102
RTVSPropertyOp42
 70
     1
102
RTVSPropertyOp43
 70
     1
102
RTVSPropertyOp44
 70
     1
102
RTVSPropertyOp45
 70
     1
102
RTVSPropertyOp46
 70
     1
102
RTVSPropertyOp47
 70
     1
102
RTVSPropertyOp48
 70
     1
102
RTVSPropertyOp49
 70
     1
102
RTVSPropertyOp50
 70
     1
102
RTVSPropertyOp51
 70
     0
102
RTVSPropertyOp52
 70
     0
102
RTVSPropertyOp53
 70
     1
102
RTVSPropertyOp54
 70
     1
102
RTVSPropertyOp55
 70
     1
102
RTVSPropertyOp56
 70
     1
102
RTVSPropertyOp57
 70
     1
102
RTVSPost2010Prop28
280
     0
102
RTVSPost2010PropOp28
 70
     1
102
RTVSPost2010Prop29
280
     1
102
RTVSPost2010PropOp29
 70
     1
102
RTVSPost2010Prop30
280
     1
102
RTVSPost2010PropOp30
 70
     1
102
RTVSPost2010Prop31
280
     0
102
RTVSPost2010PropOp31
 70
     1
102
RTVSPost2010Prop32
280
     0
102
RTVSPost2010PropOp32
 70
     1
102
RTVSPost2010Prop33
280
     0
102
RTVSPost2010PropOp33
 70
     1
102
RTVSPost2010Prop34
280
     0
102
RTVSPost2010PropOp34
 70
     1
102
RTVSPost2010Prop35
280
     0
102
RTVSPost2010PropOp35
 70
     1
102
RTVSPost2010Prop36
280
     0
102
RTVSPost2010PropOp36
 70
     1
102
RTVSPost2010Prop37
 90
       50
102
RTVSPost2010PropOp37
 70
     1
102
RTVSPost2010Prop38
140
0.0
102
RTVSPost2010PropOp38
 70
     1
102
RTVSPost2010Prop39
140
1.0
102
RTVSPost2010PropOp39
 70
     1
102
RTVSPost2010Prop40
 90
        0
102
RTVSPost2010PropOp40
 70
     1
102
RTVSPost2010Prop41ColorIndex
 90
       18
102
RTVSPost2010Prop41ColorRGB
 90
        0
102
RTVSPost2010PropOp41
 70
     1
102
RTVSPost2010Prop42
 90
       50
102
RTVSPost2010PropOp42
 70
     1
102
RTVSPost2010Prop43
 90
        3
102
RTVSPost2010PropOp43
 70
     1
102
RTVSPost2010Prop44ColorIndex
 90
        5
102
RTVSPost2010Prop44ColorRGB
 90
      255
102
RTVSPost2010PropOp44
 70
     1
102
RTVSPost2010Prop45
280
     0
102
RTVSPost2010PropOp45
 70
     1
102
RTVSPost2010Prop46
 90
       50
102
RTVSPost2010PropOp46
 70
     1
102
RTVSPost2010Prop47
 90
       50
102
RTVSPost2010PropOp47
 70
     1
102
RTVSPost2010Prop48
 90
       50
102
RTVSPost2010PropOp48
 70
     1
102
RTVSPost2010Prop49
280
     0
102
RTVSPost2010PropOp49
 70
     1
102
RTVSPost2010Prop50
 90
       50
102
RTVSPost2010PropOp50
 70
     1
102
RTVSPost2010Prop51ColorIndex
 90
      256
102
RTVSPost2010Prop51ColorRGB
 90
-16777216
102
RTVSPost2010PropOp51
 70
     0
102
RTVSPost2010Prop52
140
1.0
102
RTVSPost2010PropOp52
 70
     0
102
RTVSPost2010Prop53
 90
        2
102
RTVSPost2010PropOp53
 70
     1
102
RTVSPost2010Prop54
  1
strokes_ogs.tif
102
RTVSPost2010PropOp54
 70
     1
102
RTVSPost2010Prop55
280
     0
102
RTVSPost2010PropOp55
 70
     1
102
RTVSPost2010Prop56
140
1.0
102
RTVSPost2010PropOp56
 70
     1
102
RTVSPost2010Prop57
140
1.0
102
RTVSPost2010PropOp57
 70
     1
  0
XRECORD
  5
618
102
{ACAD_REACTORS
330
617
102
}
330
617
100
AcDbXrecord
280
     1
102
RTVSPropertyOp0
 70
     0
102
RTVSPropertyOp1
 70
     0
102
RTVSPropertyOp2
 70
     0
102
RTVSPropertyOp3
 70
     0
102
RTVSPropertyOp4
 70
     0
102
RTVSPropertyOp5
 70
     0
102
RTVSPropertyOp6
 70
     0
102
RTVSPropertyOp7
 70
     0
102
RTVSPropertyOp8
 70
     0
102
RTVSPropertyOp9
 70
     0
102
RTVSPropertyOp10
 70
     0
102
RTVSPropertyOp11
 70
     0
102
RTVSPropertyOp12
 70
     0
102
RTVSPropertyOp13
 70
     0
102
RTVSPropertyOp14
 70
     0
102
RTVSPropertyOp15
 70
     0
102
RTVSPropertyOp16
 70
     0
102
RTVSPropertyOp17
 70
     0
102
RTVSPropertyOp18
 70
     0
102
RTVSPropertyOp19
 70
     0
102
RTVSPropertyOp20
 70
     0
102
RTVSPropertyOp21
 70
     0
102
RTVSPropertyOp22
 70
     0
102
RTVSPropertyOp23
 70
     0
102
RTVSPropertyOp24
 70
     0
102
RTVSPropertyOp25
 70
     0
102
RTVSPropertyOp26
 70
     0
102
RTVSPropertyOp27
 70
     0
102
RTVSPropertyOp28
 70
     1
102
RTVSPropertyOp29
 70
     1
102
RTVSPropertyOp30
 70
     1
102
RTVSPropertyOp31
 70
     1
102
RTVSPropertyOp32
 70
     1
102
RTVSPropertyOp33
 70
     1
102
RTVSPropertyOp34
 70
     1
102
RTVSPropertyOp35
 70
     1
102
RTVSPropertyOp36
 70
     1
102
RTVSPropertyOp37
 70
     1
102
RTVSPropertyOp38
 70
     1
102
RTVSPropertyOp39
 70
     1
102
RTVSPropertyOp40
 70
     1
102
RTVSPropertyOp41
 70
     1
102
RTVSPropertyOp42
 70
     1
102
RTVSPropertyOp43
 70
     1
102
RTVSPropertyOp44
 70
     1
102
RTVSPropertyOp45
 70
     1
102
RTVSPropertyOp46
 70
     1
102
RTVSPropertyOp47
 70
     1
102
RTVSPropertyOp48
 70
     1
102
RTVSPropertyOp49
 70
     1
102
RTVSPropertyOp50
 70
     1
102
RTVSPropertyOp51
 70
     0
102
RTVSPropertyOp52
 70
     0
102
RTVSPropertyOp53
 70
     1
102
RTVSPropertyOp54
 70
     1
102
RTVSPropertyOp55
 70
     1
102
RTVSPropertyOp56
 70
     1
102
RTVSPropertyOp57
 70
     1
102
RTVSPost2010Prop28
280
     0
102
RTVSPost2010PropOp28
 70
     1
102
RTVSPost2010Prop29
280
     1
102
RTVSPost2010PropOp29
 70
     1
102
RTVSPost2010Prop30
280
     1
102
RTVSPost2010PropOp30
 70
     1
102
RTVSPost2010Prop31
280
     0
102
RTVSPost2010PropOp31
 70
     1
102
RTVSPost2010Prop32
280
     0
102
RTVSPost2010PropOp32
 70
     1
102
RTVSPost2010Prop33
280
     0
102
RTVSPost2010PropOp33
 70
     1
102
RTVSPost2010Prop34
280
     0
102
RTVSPost2010PropOp34
 70
     1
102
RTVSPost2010Prop35
280
     0
102
RTVSPost2010PropOp35
 70
     1
102
RTVSPost2010Prop36
280
     0
102
RTVSPost2010PropOp36
 70
     1
102
RTVSPost2010Prop37
 90
       50
102
RTVSPost2010PropOp37
 70
     1
102
RTVSPost2010Prop38
140
0.0
102
RTVSPost2010PropOp38
 70
     1
102
RTVSPost2010Prop39
140
1.0
102
RTVSPost2010PropOp39
 70
     1
102
RTVSPost2010Prop40
 90
        0
102
RTVSPost2010PropOp40
 70
     1
102
RTVSPost2010Prop41ColorIndex
 90
       18
102
RTVSPost2010Prop41ColorRGB
 90
        0
102
RTVSPost2010PropOp41
 70
     1
102
RTVSPost2010Prop42
 90
       50
102
RTVSPost2010PropOp42
 70
     1
102
RTVSPost2010Prop43
 90
        3
102
RTVSPost2010PropOp43
 70
     1
102
RTVSPost2010Prop44ColorIndex
 90
        5
102
RTVSPost2010Prop44ColorRGB
 90
      255
102
RTVSPost2010PropOp44
 70
     1
102
RTVSPost2010Prop45
280
     0
102
RTVSPost2010PropOp45
 70
     1
102
RTVSPost2010Prop46
 90
       50
102
RTVSPost2010PropOp46
 70
     1
102
RTVSPost2010Prop47
 90
       50
102
RTVSPost2010PropOp47
 70
     1
102
RTVSPost2010Prop48
 90
       50
102
RTVSPost2010PropOp48
 70
     1
102
RTVSPost2010Prop49
280
     0
102
RTVSPost2010PropOp49
 70
     1
102
RTVSPost2010Prop50
 90
       50
102
RTVSPost2010PropOp50
 70
     1
102
RTVSPost2010Prop51ColorIndex
 90
      256
102
RTVSPost2010Prop51ColorRGB
 90
-16777216
102
RTVSPost2010PropOp51
 70
     0
102
RTVSPost2010Prop52
140
1.0
102
RTVSPost2010PropOp52
 70
     0
102
RTVSPost2010Prop53
 90
        2
102
RTVSPost2010PropOp53
 70
     1
102
RTVSPost2010Prop54
  1
strokes_ogs.tif
102
RTVSPost2010PropOp54
 70
     1
102
RTVSPost2010Prop55
280
     0
102
RTVSPost2010PropOp55
 70
     1
102
RTVSPost2010Prop56
140
1.0
102
RTVSPost2010PropOp56
 70
     1
102
RTVSPost2010Prop57
140
1.0
102
RTVSPost2010PropOp57
 70
     1
  0
XRECORD
  5
606
102
{ACAD_REACTORS
330
605
102
}
330
605
100
AcDbXrecord
280
     1
102
RTVSPropertyOp0
 70
     1
102
RTVSPropertyOp1
 70
     1
102
RTVSPropertyOp2
 70
     1
102
RTVSPropertyOp3
 70
     1
102
RTVSPropertyOp4
 70
     1
102
RTVSPropertyOp5
 70
     1
102
RTVSPropertyOp6
 70
     1
102
RTVSPropertyOp7
 70
     1
102
RTVSPropertyOp8
 70
     1
102
RTVSPropertyOp9
 70
     1
102
RTVSPropertyOp10
 70
     1
102
RTVSPropertyOp11
 70
     1
102
RTVSPropertyOp12
 70
     1
102
RTVSPropertyOp13
 70
     1
102
RTVSPropertyOp14
 70
     1
102
RTVSPropertyOp15
 70
     1
102
RTVSPropertyOp16
 70
     1
102
RTVSPropertyOp17
 70
     1
102
RTVSPropertyOp18
 70
     1
102
RTVSPropertyOp19
 70
     1
102
RTVSPropertyOp20
 70
     1
102
RTVSPropertyOp21
 70
     1
102
RTVSPropertyOp22
 70
     1
102
RTVSPropertyOp23
 70
     1
102
RTVSPropertyOp24
 70
     1
102
RTVSPropertyOp25
 70
     1
102
RTVSPropertyOp26
 70
     1
102
RTVSPropertyOp27
 70
     1
102
RTVSPropertyOp28
 70
     1
102
RTVSPropertyOp29
 70
     1
102
RTVSPropertyOp30
 70
     1
102
RTVSPropertyOp31
 70
     1
102
RTVSPropertyOp32
 70
     1
102
RTVSPropertyOp33
 70
     1
102
RTVSPropertyOp34
 70
     1
102
RTVSPropertyOp35
 70
     1
102
RTVSPropertyOp36
 70
     1
102
RTVSPropertyOp37
 70
     1
102
RTVSPropertyOp38
 70
     1
102
RTVSPropertyOp39
 70
     1
102
RTVSPropertyOp40
 70
     1
102
RTVSPropertyOp41
 70
     1
102
RTVSPropertyOp42
 70
     1
102
RTVSPropertyOp43
 70
     1
102
RTVSPropertyOp44
 70
     1
102
RTVSPropertyOp45
 70
     1
102
RTVSPropertyOp46
 70
     1
102
RTVSPropertyOp47
 70
     1
102
RTVSPropertyOp48
 70
     1
102
RTVSPropertyOp49
 70
     1
102
RTVSPropertyOp50
 70
     1
102
RTVSPropertyOp51
 70
     0
102
RTVSPropertyOp52
 70
     0
102
RTVSPropertyOp53
 70
     1
102
RTVSPropertyOp54
 70
     1
102
RTVSPropertyOp55
 70
     1
102
RTVSPropertyOp56
 70
     1
102
RTVSPropertyOp57
 70
     1
102
RTVSPost2010Prop28
280
     0
102
RTVSPost2010PropOp28
 70
     1
102
RTVSPost2010Prop29
280
     1
102
RTVSPost2010PropOp29
 70
     1
102
RTVSPost2010Prop30
280
     1
102
RTVSPost2010PropOp30
 70
     1
102
RTVSPost2010Prop31
280
     0
102
RTVSPost2010PropOp31
 70
     1
102
RTVSPost2010Prop32
280
     0
102
RTVSPost2010PropOp32
 70
     1
102
RTVSPost2010Prop33
280
     0
102
RTVSPost2010PropOp33
 70
     1
102
RTVSPost2010Prop34
280
     0
102
RTVSPost2010PropOp34
 70
     1
102
RTVSPost2010Prop35
280
     0
102
RTVSPost2010PropOp35
 70
     1
102
RTVSPost2010Prop36
280
     0
102
RTVSPost2010PropOp36
 70
     1
102
RTVSPost2010Prop37
 90
       50
102
RTVSPost2010PropOp37
 70
     1
102
RTVSPost2010Prop38
140
0.0
102
RTVSPost2010PropOp38
 70
     1
102
RTVSPost2010Prop39
140
1.0
102
RTVSPost2010PropOp39
 70
     1
102
RTVSPost2010Prop40
 90
        0
102
RTVSPost2010PropOp40
 70
     1
102
RTVSPost2010Prop41ColorIndex
 90
       18
102
RTVSPost2010Prop41ColorRGB
 90
        0
102
RTVSPost2010PropOp41
 70
     1
102
RTVSPost2010Prop42
 90
       50
102
RTVSPost2010PropOp42
 70
     1
102
RTVSPost2010Prop43
 90
        3
102
RTVSPost2010PropOp43
 70
     1
102
RTVSPost2010Prop44ColorIndex
 90
        5
102
RTVSPost2010Prop44ColorRGB
 90
      255
102
RTVSPost2010PropOp44
 70
     1
102
RTVSPost2010Prop45
280
     0
102
RTVSPost2010PropOp45
 70
     1
102
RTVSPost2010Prop46
 90
       50
102
RTVSPost2010PropOp46
 70
     1
102
RTVSPost2010Prop47
 90
       50
102
RTVSPost2010PropOp47
 70
     1
102
RTVSPost2010Prop48
 90
       50
102
RTVSPost2010PropOp48
 70
     1
102
RTVSPost2010Prop49
280
     0
102
RTVSPost2010PropOp49
 70
     1
102
RTVSPost2010Prop50
 90
       50
102
RTVSPost2010PropOp50
 70
     1
102
RTVSPost2010Prop51ColorIndex
 90
      256
102
RTVSPost2010Prop51ColorRGB
 90
-16777216
102
RTVSPost2010PropOp51
 70
     0
102
RTVSPost2010Prop52
140
1.0
102
RTVSPost2010PropOp52
 70
     0
102
RTVSPost2010Prop53
 90
        2
102
RTVSPost2010PropOp53
 70
     1
102
RTVSPost2010Prop54
  1
strokes_ogs.tif
102
RTVSPost2010PropOp54
 70
     1
102
RTVSPost2010Prop55
280
     0
102
RTVSPost2010PropOp55
 70
     1
102
RTVSPost2010Prop56
140
1.0
102
RTVSPost2010PropOp56
 70
     1
102
RTVSPost2010Prop57
140
1.0
102
RTVSPost2010PropOp57
 70
     1
  0
XRECORD
  5
624
102
{ACAD_REACTORS
330
623
102
}
330
623
100
AcDbXrecord
280
     1
102
RTVSPropertyOp0
 70
     1
102
RTVSPropertyOp1
 70
     1
102
RTVSPropertyOp2
 70
     1
102
RTVSPropertyOp3
 70
     1
102
RTVSPropertyOp4
 70
     1
102
RTVSPropertyOp5
 70
     1
102
RTVSPropertyOp6
 70
     1
102
RTVSPropertyOp7
 70
     1
102
RTVSPropertyOp8
 70
     1
102
RTVSPropertyOp9
 70
     1
102
RTVSPropertyOp10
 70
     1
102
RTVSPropertyOp11
 70
     1
102
RTVSPropertyOp12
 70
     1
102
RTVSPropertyOp13
 70
     1
102
RTVSPropertyOp14
 70
     1
102
RTVSPropertyOp15
 70
     1
102
RTVSPropertyOp16
 70
     1
102
RTVSPropertyOp17
 70
     1
102
RTVSPropertyOp18
 70
     1
102
RTVSPropertyOp19
 70
     1
102
RTVSPropertyOp20
 70
     1
102
RTVSPropertyOp21
 70
     1
102
RTVSPropertyOp22
 70
     1
102
RTVSPropertyOp23
 70
     1
102
RTVSPropertyOp24
 70
     1
102
RTVSPropertyOp25
 70
     1
102
RTVSPropertyOp26
 70
     1
102
RTVSPropertyOp27
 70
     1
102
RTVSPropertyOp28
 70
     1
102
RTVSPropertyOp29
 70
     1
102
RTVSPropertyOp30
 70
     1
102
RTVSPropertyOp31
 70
     1
102
RTVSPropertyOp32
 70
     1
102
RTVSPropertyOp33
 70
     1
102
RTVSPropertyOp34
 70
     1
102
RTVSPropertyOp35
 70
     1
102
RTVSPropertyOp36
 70
     1
102
RTVSPropertyOp37
 70
     1
102
RTVSPropertyOp38
 70
     1
102
RTVSPropertyOp39
 70
     1
102
RTVSPropertyOp40
 70
     1
102
RTVSPropertyOp41
 70
     1
102
RTVSPropertyOp42
 70
     1
102
RTVSPropertyOp43
 70
     1
102
RTVSPropertyOp44
 70
     1
102
RTVSPropertyOp45
 70
     1
102
RTVSPropertyOp46
 70
     1
102
RTVSPropertyOp47
 70
     1
102
RTVSPropertyOp48
 70
     1
102
RTVSPropertyOp49
 70
     1
102
RTVSPropertyOp50
 70
     1
102
RTVSPropertyOp51
 70
     0
102
RTVSPropertyOp52
 70
     0
102
RTVSPropertyOp53
 70
     1
102
RTVSPropertyOp54
 70
     1
102
RTVSPropertyOp55
 70
     1
102
RTVSPropertyOp56
 70
     1
102
RTVSPropertyOp57
 70
     1
102
RTVSPost2010Prop28
280
     0
102
RTVSPost2010PropOp28
 70
     1
102
RTVSPost2010Prop29
280
     1
102
RTVSPost2010PropOp29
 70
     1
102
RTVSPost2010Prop30
280
     1
102
RTVSPost2010PropOp30
 70
     1
102
RTVSPost2010Prop31
280
     0
102
RTVSPost2010PropOp31
 70
     1
102
RTVSPost2010Prop32
280
     0
102
RTVSPost2010PropOp32
 70
     1
102
RTVSPost2010Prop33
280
     0
102
RTVSPost2010PropOp33
 70
     1
102
RTVSPost2010Prop34
280
     0
102
RTVSPost2010PropOp34
 70
     1
102
RTVSPost2010Prop35
280
     0
102
RTVSPost2010PropOp35
 70
     1
102
RTVSPost2010Prop36
280
     0
102
RTVSPost2010PropOp36
 70
     1
102
RTVSPost2010Prop37
 90
       50
102
RTVSPost2010PropOp37
 70
     1
102
RTVSPost2010Prop38
140
0.0
102
RTVSPost2010PropOp38
 70
     1
102
RTVSPost2010Prop39
140
1.0
102
RTVSPost2010PropOp39
 70
     1
102
RTVSPost2010Prop40
 90
        0
102
RTVSPost2010PropOp40
 70
     1
102
RTVSPost2010Prop41ColorIndex
 90
       18
102
RTVSPost2010Prop41ColorRGB
 90
        0
102
RTVSPost2010PropOp41
 70
     1
102
RTVSPost2010Prop42
 90
       50
102
RTVSPost2010PropOp42
 70
     1
102
RTVSPost2010Prop43
 90
        3
102
RTVSPost2010PropOp43
 70
     1
102
RTVSPost2010Prop44ColorIndex
 90
        5
102
RTVSPost2010Prop44ColorRGB
 90
      255
102
RTVSPost2010PropOp44
 70
     1
102
RTVSPost2010Prop45
280
     0
102
RTVSPost2010PropOp45
 70
     1
102
RTVSPost2010Prop46
 90
       50
102
RTVSPost2010PropOp46
 70
     1
102
RTVSPost2010Prop47
 90
       50
102
RTVSPost2010PropOp47
 70
     1
102
RTVSPost2010Prop48
 90
       50
102
RTVSPost2010PropOp48
 70
     1
102
RTVSPost2010Prop49
280
     0
102
RTVSPost2010PropOp49
 70
     1
102
RTVSPost2010Prop50
 90
       50
102
RTVSPost2010PropOp50
 70
     1
102
RTVSPost2010Prop51ColorIndex
 90
      256
102
RTVSPost2010Prop51ColorRGB
 90
-16777216
102
RTVSPost2010PropOp51
 70
     0
102
RTVSPost2010Prop52
140
1.0
102
RTVSPost2010PropOp52
 70
     0
102
RTVSPost2010Prop53
 90
        2
102
RTVSPost2010PropOp53
 70
     1
102
RTVSPost2010Prop54
  1
strokes_ogs.tif
102
RTVSPost2010PropOp54
 70
     1
102
RTVSPost2010Prop55
280
     0
102
RTVSPost2010PropOp55
 70
     1
102
RTVSPost2010Prop56
140
1.0
102
RTVSPost2010PropOp56
 70
     1
102
RTVSPost2010Prop57
140
1.0
102
RTVSPost2010PropOp57
 70
     1
  0
XRECORD
  5
622
102
{ACAD_REACTORS
330
621
102
}
330
621
100
AcDbXrecord
280
     1
102
RTVSPropertyOp0
 70
     1
102
RTVSPropertyOp1
 70
     1
102
RTVSPropertyOp2
 70
     1
102
RTVSPropertyOp3
 70
     1
102
RTVSPropertyOp4
 70
     1
102
RTVSPropertyOp5
 70
     1
102
RTVSPropertyOp6
 70
     1
102
RTVSPropertyOp7
 70
     1
102
RTVSPropertyOp8
 70
     1
102
RTVSPropertyOp9
 70
     1
102
RTVSPropertyOp10
 70
     1
102
RTVSPropertyOp11
 70
     1
102
RTVSPropertyOp12
 70
     1
102
RTVSPropertyOp13
 70
     1
102
RTVSPropertyOp14
 70
     1
102
RTVSPropertyOp15
 70
     1
102
RTVSPropertyOp16
 70
     1
102
RTVSPropertyOp17
 70
     1
102
RTVSPropertyOp18
 70
     1
102
RTVSPropertyOp19
 70
     1
102
RTVSPropertyOp20
 70
     1
102
RTVSPropertyOp21
 70
     1
102
RTVSPropertyOp22
 70
     1
102
RTVSPropertyOp23
 70
     1
102
RTVSPropertyOp24
 70
     1
102
RTVSPropertyOp25
 70
     1
102
RTVSPropertyOp26
 70
     1
102
RTVSPropertyOp27
 70
     1
102
RTVSPropertyOp28
 70
     1
102
RTVSPropertyOp29
 70
     1
102
RTVSPropertyOp30
 70
     1
102
RTVSPropertyOp31
 70
     1
102
RTVSPropertyOp32
 70
     1
102
RTVSPropertyOp33
 70
     1
102
RTVSPropertyOp34
 70
     1
102
RTVSPropertyOp35
 70
     1
102
RTVSPropertyOp36
 70
     1
102
RTVSPropertyOp37
 70
     1
102
RTVSPropertyOp38
 70
     1
102
RTVSPropertyOp39
 70
     1
102
RTVSPropertyOp40
 70
     1
102
RTVSPropertyOp41
 70
     1
102
RTVSPropertyOp42
 70
     1
102
RTVSPropertyOp43
 70
     1
102
RTVSPropertyOp44
 70
     1
102
RTVSPropertyOp45
 70
     1
102
RTVSPropertyOp46
 70
     1
102
RTVSPropertyOp47
 70
     1
102
RTVSPropertyOp48
 70
     1
102
RTVSPropertyOp49
 70
     1
102
RTVSPropertyOp50
 70
     1
102
RTVSPropertyOp51
 70
     0
102
RTVSPropertyOp52
 70
     0
102
RTVSPropertyOp53
 70
     1
102
RTVSPropertyOp54
 70
     1
102
RTVSPropertyOp55
 70
     1
102
RTVSPropertyOp56
 70
     1
102
RTVSPropertyOp57
 70
     1
102
RTVSPost2010Prop28
280
     0
102
RTVSPost2010PropOp28
 70
     1
102
RTVSPost2010Prop29
280
     1
102
RTVSPost2010PropOp29
 70
     1
102
RTVSPost2010Prop30
280
     1
102
RTVSPost2010PropOp30
 70
     1
102
RTVSPost2010Prop31
280
     0
102
RTVSPost2010PropOp31
 70
     1
102
RTVSPost2010Prop32
280
     0
102
RTVSPost2010PropOp32
 70
     1
102
RTVSPost2010Prop33
280
     0
102
RTVSPost2010PropOp33
 70
     1
102
RTVSPost2010Prop34
280
     0
102
RTVSPost2010PropOp34
 70
     1
102
RTVSPost2010Prop35
280
     0
102
RTVSPost2010PropOp35
 70
     1
102
RTVSPost2010Prop36
280
     0
102
RTVSPost2010PropOp36
 70
     1
102
RTVSPost2010Prop37
 90
       50
102
RTVSPost2010PropOp37
 70
     1
102
RTVSPost2010Prop38
140
0.0
102
RTVSPost2010PropOp38
 70
     1
102
RTVSPost2010Prop39
140
1.0
102
RTVSPost2010PropOp39
 70
     1
102
RTVSPost2010Prop40
 90
        0
102
RTVSPost2010PropOp40
 70
     1
102
RTVSPost2010Prop41ColorIndex
 90
       18
102
RTVSPost2010Prop41ColorRGB
 90
        0
102
RTVSPost2010PropOp41
 70
     1
102
RTVSPost2010Prop42
 90
       50
102
RTVSPost2010PropOp42
 70
     1
102
RTVSPost2010Prop43
 90
        3
102
RTVSPost2010PropOp43
 70
     1
102
RTVSPost2010Prop44ColorIndex
 90
        5
102
RTVSPost2010Prop44ColorRGB
 90
      255
102
RTVSPost2010PropOp44
 70
     1
102
RTVSPost2010Prop45
280
     0
102
RTVSPost2010PropOp45
 70
     1
102
RTVSPost2010Prop46
 90
       50
102
RTVSPost2010PropOp46
 70
     1
102
RTVSPost2010Prop47
 90
       50
102
RTVSPost2010PropOp47
 70
     1
102
RTVSPost2010Prop48
 90
       50
102
RTVSPost2010PropOp48
 70
     1
102
RTVSPost2010Prop49
280
     0
102
RTVSPost2010PropOp49
 70
     1
102
RTVSPost2010Prop50
 90
       50
102
RTVSPost2010PropOp50
 70
     1
102
RTVSPost2010Prop51ColorIndex
 90
      256
102
RTVSPost2010Prop51ColorRGB
 90
-16777216
102
RTVSPost2010PropOp51
 70
     0
102
RTVSPost2010Prop52
140
1.0
102
RTVSPost2010PropOp52
 70
     0
102
RTVSPost2010Prop53
 90
        2
102
RTVSPost2010PropOp53
 70
     1
102
RTVSPost2010Prop54
  1
strokes_ogs.tif
102
RTVSPost2010PropOp54
 70
     1
102
RTVSPost2010Prop55
280
     0
102
RTVSPost2010PropOp55
 70
     1
102
RTVSPost2010Prop56
140
1.0
102
RTVSPost2010PropOp56
 70
     1
102
RTVSPost2010Prop57
140
1.0
102
RTVSPost2010PropOp57
 70
     1
  0
XRECORD
  5
61C
102
{ACAD_REACTORS
330
61B
102
}
330
61B
100
AcDbXrecord
280
     1
102
RTVSPropertyOp0
 70
     1
102
RTVSPropertyOp1
 70
     1
102
RTVSPropertyOp2
 70
     1
102
RTVSPropertyOp3
 70
     1
102
RTVSPropertyOp4
 70
     1
102
RTVSPropertyOp5
 70
     1
102
RTVSPropertyOp6
 70
     1
102
RTVSPropertyOp7
 70
     1
102
RTVSPropertyOp8
 70
     1
102
RTVSPropertyOp9
 70
     1
102
RTVSPropertyOp10
 70
     1
102
RTVSPropertyOp11
 70
     1
102
RTVSPropertyOp12
 70
     1
102
RTVSPropertyOp13
 70
     1
102
RTVSPropertyOp14
 70
     1
102
RTVSPropertyOp15
 70
     1
102
RTVSPropertyOp16
 70
     1
102
RTVSPropertyOp17
 70
     1
102
RTVSPropertyOp18
 70
     1
102
RTVSPropertyOp19
 70
     1
102
RTVSPropertyOp20
 70
     1
102
RTVSPropertyOp21
 70
     1
102
RTVSPropertyOp22
 70
     1
102
RTVSPropertyOp23
 70
     1
102
RTVSPropertyOp24
 70
     1
102
RTVSPropertyOp25
 70
     1
102
RTVSPropertyOp26
 70
     1
102
RTVSPropertyOp27
 70
     1
102
RTVSPropertyOp28
 70
     1
102
RTVSPropertyOp29
 70
     1
102
RTVSPropertyOp30
 70
     1
102
RTVSPropertyOp31
 70
     1
102
RTVSPropertyOp32
 70
     1
102
RTVSPropertyOp33
 70
     1
102
RTVSPropertyOp34
 70
     1
102
RTVSPropertyOp35
 70
     1
102
RTVSPropertyOp36
 70
     1
102
RTVSPropertyOp37
 70
     1
102
RTVSPropertyOp38
 70
     1
102
RTVSPropertyOp39
 70
     1
102
RTVSPropertyOp40
 70
     1
102
RTVSPropertyOp41
 70
     1
102
RTVSPropertyOp42
 70
     1
102
RTVSPropertyOp43
 70
     1
102
RTVSPropertyOp44
 70
     1
102
RTVSPropertyOp45
 70
     1
102
RTVSPropertyOp46
 70
     1
102
RTVSPropertyOp47
 70
     1
102
RTVSPropertyOp48
 70
     1
102
RTVSPropertyOp49
 70
     1
102
RTVSPropertyOp50
 70
     1
102
RTVSPropertyOp51
 70
     0
102
RTVSPropertyOp52
 70
     0
102
RTVSPropertyOp53
 70
     1
102
RTVSPropertyOp54
 70
     1
102
RTVSPropertyOp55
 70
     1
102
RTVSPropertyOp56
 70
     1
102
RTVSPropertyOp57
 70
     1
102
RTVSPost2010Prop28
280
     0
102
RTVSPost2010PropOp28
 70
     1
102
RTVSPost2010Prop29
280
     1
102
RTVSPost2010PropOp29
 70
     1
102
RTVSPost2010Prop30
280
     1
102
RTVSPost2010PropOp30
 70
     1
102
RTVSPost2010Prop31
280
     0
102
RTVSPost2010PropOp31
 70
     1
102
RTVSPost2010Prop32
280
     0
102
RTVSPost2010PropOp32
 70
     1
102
RTVSPost2010Prop33
280
     0
102
RTVSPost2010PropOp33
 70
     1
102
RTVSPost2010Prop34
280
     0
102
RTVSPost2010PropOp34
 70
     1
102
RTVSPost2010Prop35
280
     0
102
RTVSPost2010PropOp35
 70
     1
102
RTVSPost2010Prop36
280
     0
102
RTVSPost2010PropOp36
 70
     1
102
RTVSPost2010Prop37
 90
       50
102
RTVSPost2010PropOp37
 70
     1
102
RTVSPost2010Prop38
140
0.0
102
RTVSPost2010PropOp38
 70
     1
102
RTVSPost2010Prop39
140
1.0
102
RTVSPost2010PropOp39
 70
     1
102
RTVSPost2010Prop40
 90
        0
102
RTVSPost2010PropOp40
 70
     1
102
RTVSPost2010Prop41ColorIndex
 90
       18
102
RTVSPost2010Prop41ColorRGB
 90
        0
102
RTVSPost2010PropOp41
 70
     1
102
RTVSPost2010Prop42
 90
       50
102
RTVSPost2010PropOp42
 70
     1
102
RTVSPost2010Prop43
 90
        3
102
RTVSPost2010PropOp43
 70
     1
102
RTVSPost2010Prop44ColorIndex
 90
        5
102
RTVSPost2010Prop44ColorRGB
 90
      255
102
RTVSPost2010PropOp44
 70
     1
102
RTVSPost2010Prop45
280
     0
102
RTVSPost2010PropOp45
 70
     1
102
RTVSPost2010Prop46
 90
       50
102
RTVSPost2010PropOp46
 70
     1
102
RTVSPost2010Prop47
 90
       50
102
RTVSPost2010PropOp47
 70
     1
102
RTVSPost2010Prop48
 90
       50
102
RTVSPost2010PropOp48
 70
     1
102
RTVSPost2010Prop49
280
     0
102
RTVSPost2010PropOp49
 70
     1
102
RTVSPost2010Prop50
 90
       50
102
RTVSPost2010PropOp50
 70
     1
102
RTVSPost2010Prop51ColorIndex
 90
      256
102
RTVSPost2010Prop51ColorRGB
 90
-16777216
102
RTVSPost2010PropOp51
 70
     0
102
RTVSPost2010Prop52
140
1.0
102
RTVSPost2010PropOp52
 70
     0
102
RTVSPost2010Prop53
 90
        2
102
RTVSPost2010PropOp53
 70
     1
102
RTVSPost2010Prop54
  1
strokes_ogs.tif
102
RTVSPost2010PropOp54
 70
     1
102
RTVSPost2010Prop55
280
     0
102
RTVSPost2010PropOp55
 70
     1
102
RTVSPost2010Prop56
140
1.0
102
RTVSPost2010PropOp56
 70
     1
102
RTVSPost2010Prop57
140
1.0
102
RTVSPost2010PropOp57
 70
     1
  0
XRECORD
  5
61E
102
{ACAD_REACTORS
330
61D
102
}
330
61D
100
AcDbXrecord
280
     1
102
RTVSPropertyOp0
 70
     1
102
RTVSPropertyOp1
 70
     1
102
RTVSPropertyOp2
 70
     1
102
RTVSPropertyOp3
 70
     1
102
RTVSPropertyOp4
 70
     1
102
RTVSPropertyOp5
 70
     1
102
RTVSPropertyOp6
 70
     1
102
RTVSPropertyOp7
 70
     1
102
RTVSPropertyOp8
 70
     1
102
RTVSPropertyOp9
 70
     1
102
RTVSPropertyOp10
 70
     1
102
RTVSPropertyOp11
 70
     1
102
RTVSPropertyOp12
 70
     1
102
RTVSPropertyOp13
 70
     1
102
RTVSPropertyOp14
 70
     1
102
RTVSPropertyOp15
 70
     1
102
RTVSPropertyOp16
 70
     1
102
RTVSPropertyOp17
 70
     1
102
RTVSPropertyOp18
 70
     1
102
RTVSPropertyOp19
 70
     1
102
RTVSPropertyOp20
 70
     1
102
RTVSPropertyOp21
 70
     1
102
RTVSPropertyOp22
 70
     1
102
RTVSPropertyOp23
 70
     1
102
RTVSPropertyOp24
 70
     1
102
RTVSPropertyOp25
 70
     1
102
RTVSPropertyOp26
 70
     1
102
RTVSPropertyOp27
 70
     1
102
RTVSPropertyOp28
 70
     1
102
RTVSPropertyOp29
 70
     1
102
RTVSPropertyOp30
 70
     1
102
RTVSPropertyOp31
 70
     1
102
RTVSPropertyOp32
 70
     1
102
RTVSPropertyOp33
 70
     1
102
RTVSPropertyOp34
 70
     1
102
RTVSPropertyOp35
 70
     1
102
RTVSPropertyOp36
 70
     1
102
RTVSPropertyOp37
 70
     1
102
RTVSPropertyOp38
 70
     1
102
RTVSPropertyOp39
 70
     1
102
RTVSPropertyOp40
 70
     1
102
RTVSPropertyOp41
 70
     1
102
RTVSPropertyOp42
 70
     1
102
RTVSPropertyOp43
 70
     1
102
RTVSPropertyOp44
 70
     1
102
RTVSPropertyOp45
 70
     1
102
RTVSPropertyOp46
 70
     1
102
RTVSPropertyOp47
 70
     1
102
RTVSPropertyOp48
 70
     1
102
RTVSPropertyOp49
 70
     1
102
RTVSPropertyOp50
 70
     1
102
RTVSPropertyOp51
 70
     0
102
RTVSPropertyOp52
 70
     0
102
RTVSPropertyOp53
 70
     1
102
RTVSPropertyOp54
 70
     1
102
RTVSPropertyOp55
 70
     1
102
RTVSPropertyOp56
 70
     1
102
RTVSPropertyOp57
 70
     1
102
RTVSPost2010Prop28
280
     0
102
RTVSPost2010PropOp28
 70
     1
102
RTVSPost2010Prop29
280
     1
102
RTVSPost2010PropOp29
 70
     1
102
RTVSPost2010Prop30
280
     1
102
RTVSPost2010PropOp30
 70
     1
102
RTVSPost2010Prop31
280
     0
102
RTVSPost2010PropOp31
 70
     1
102
RTVSPost2010Prop32
280
     0
102
RTVSPost2010PropOp32
 70
     1
102
RTVSPost2010Prop33
280
     0
102
RTVSPost2010PropOp33
 70
     1
102
RTVSPost2010Prop34
280
     0
102
RTVSPost2010PropOp34
 70
     1
102
RTVSPost2010Prop35
280
     0
102
RTVSPost2010PropOp35
 70
     1
102
RTVSPost2010Prop36
280
     0
102
RTVSPost2010PropOp36
 70
     1
102
RTVSPost2010Prop37
 90
       50
102
RTVSPost2010PropOp37
 70
     1
102
RTVSPost2010Prop38
140
0.0
102
RTVSPost2010PropOp38
 70
     1
102
RTVSPost2010Prop39
140
1.0
102
RTVSPost2010PropOp39
 70
     1
102
RTVSPost2010Prop40
 90
        0
102
RTVSPost2010PropOp40
 70
     1
102
RTVSPost2010Prop41ColorIndex
 90
       18
102
RTVSPost2010Prop41ColorRGB
 90
        0
102
RTVSPost2010PropOp41
 70
     1
102
RTVSPost2010Prop42
 90
       50
102
RTVSPost2010PropOp42
 70
     1
102
RTVSPost2010Prop43
 90
        3
102
RTVSPost2010PropOp43
 70
     1
102
RTVSPost2010Prop44ColorIndex
 90
        5
102
RTVSPost2010Prop44ColorRGB
 90
      255
102
RTVSPost2010PropOp44
 70
     1
102
RTVSPost2010Prop45
280
     0
102
RTVSPost2010PropOp45
 70
     1
102
RTVSPost2010Prop46
 90
       50
102
RTVSPost2010PropOp46
 70
     1
102
RTVSPost2010Prop47
 90
       50
102
RTVSPost2010PropOp47
 70
     1
102
RTVSPost2010Prop48
 90
       50
102
RTVSPost2010PropOp48
 70
     1
102
RTVSPost2010Prop49
280
     0
102
RTVSPost2010PropOp49
 70
     1
102
RTVSPost2010Prop50
 90
       50
102
RTVSPost2010PropOp50
 70
     1
102
RTVSPost2010Prop51ColorIndex
 90
      256
102
RTVSPost2010Prop51ColorRGB
 90
-16777216
102
RTVSPost2010PropOp51
 70
     0
102
RTVSPost2010Prop52
140
1.0
102
RTVSPost2010PropOp52
 70
     0
102
RTVSPost2010Prop53
 90
        2
102
RTVSPost2010PropOp53
 70
     1
102
RTVSPost2010Prop54
  1
strokes_ogs.tif
102
RTVSPost2010PropOp54
 70
     1
102
RTVSPost2010Prop55
280
     0
102
RTVSPost2010PropOp55
 70
     1
102
RTVSPost2010Prop56
140
1.0
102
RTVSPost2010PropOp56
 70
     1
102
RTVSPost2010Prop57
140
1.0
102
RTVSPost2010PropOp57
 70
     1
  0
XRECORD
  5
60E
102
{ACAD_REACTORS
330
60D
102
}
330
60D
100
AcDbXrecord
280
     1
102
RTVSPropertyOp0
 70
     1
102
RTVSPropertyOp1
 70
     1
102
RTVSPropertyOp2
 70
     1
102
RTVSPropertyOp3
 70
     1
102
RTVSPropertyOp4
 70
     1
102
RTVSPropertyOp5
 70
     1
102
RTVSPropertyOp6
 70
     1
102
RTVSPropertyOp7
 70
     1
102
RTVSPropertyOp8
 70
     1
102
RTVSPropertyOp9
 70
     1
102
RTVSPropertyOp10
 70
     1
102
RTVSPropertyOp11
 70
     1
102
RTVSPropertyOp12
 70
     1
102
RTVSPropertyOp13
 70
     1
102
RTVSPropertyOp14
 70
     1
102
RTVSPropertyOp15
 70
     1
102
RTVSPropertyOp16
 70
     1
102
RTVSPropertyOp17
 70
     1
102
RTVSPropertyOp18
 70
     1
102
RTVSPropertyOp19
 70
     1
102
RTVSPropertyOp20
 70
     1
102
RTVSPropertyOp21
 70
     1
102
RTVSPropertyOp22
 70
     1
102
RTVSPropertyOp23
 70
     1
102
RTVSPropertyOp24
 70
     1
102
RTVSPropertyOp25
 70
     1
102
RTVSPropertyOp26
 70
     1
102
RTVSPropertyOp27
 70
     1
102
RTVSPropertyOp28
 70
     1
102
RTVSPropertyOp29
 70
     1
102
RTVSPropertyOp30
 70
     1
102
RTVSPropertyOp31
 70
     1
102
RTVSPropertyOp32
 70
     1
102
RTVSPropertyOp33
 70
     1
102
RTVSPropertyOp34
 70
     1
102
RTVSPropertyOp35
 70
     1
102
RTVSPropertyOp36
 70
     1
102
RTVSPropertyOp37
 70
     1
102
RTVSPropertyOp38
 70
     1
102
RTVSPropertyOp39
 70
     1
102
RTVSPropertyOp40
 70
     1
102
RTVSPropertyOp41
 70
     1
102
RTVSPropertyOp42
 70
     1
102
RTVSPropertyOp43
 70
     1
102
RTVSPropertyOp44
 70
     1
102
RTVSPropertyOp45
 70
     1
102
RTVSPropertyOp46
 70
     1
102
RTVSPropertyOp47
 70
     1
102
RTVSPropertyOp48
 70
     1
102
RTVSPropertyOp49
 70
     1
102
RTVSPropertyOp50
 70
     1
102
RTVSPropertyOp51
 70
     0
102
RTVSPropertyOp52
 70
     0
102
RTVSPropertyOp53
 70
     1
102
RTVSPropertyOp54
 70
     1
102
RTVSPropertyOp55
 70
     1
102
RTVSPropertyOp56
 70
     1
102
RTVSPropertyOp57
 70
     1
102
RTVSPost2010Prop28
280
     0
102
RTVSPost2010PropOp28
 70
     1
102
RTVSPost2010Prop29
280
     1
102
RTVSPost2010PropOp29
 70
     1
102
RTVSPost2010Prop30
280
     1
102
RTVSPost2010PropOp30
 70
     1
102
RTVSPost2010Prop31
280
     0
102
RTVSPost2010PropOp31
 70
     1
102
RTVSPost2010Prop32
280
     0
102
RTVSPost2010PropOp32
 70
     1
102
RTVSPost2010Prop33
280
     0
102
RTVSPost2010PropOp33
 70
     1
102
RTVSPost2010Prop34
280
     0
102
RTVSPost2010PropOp34
 70
     1
102
RTVSPost2010Prop35
280
     0
102
RTVSPost2010PropOp35
 70
     1
102
RTVSPost2010Prop36
280
     0
102
RTVSPost2010PropOp36
 70
     1
102
RTVSPost2010Prop37
 90
       50
102
RTVSPost2010PropOp37
 70
     1
102
RTVSPost2010Prop38
140
0.0
102
RTVSPost2010PropOp38
 70
     1
102
RTVSPost2010Prop39
140
1.0
102
RTVSPost2010PropOp39
 70
     1
102
RTVSPost2010Prop40
 90
        0
102
RTVSPost2010PropOp40
 70
     1
102
RTVSPost2010Prop41ColorIndex
 90
       18
102
RTVSPost2010Prop41ColorRGB
 90
        0
102
RTVSPost2010PropOp41
 70
     1
102
RTVSPost2010Prop42
 90
       50
102
RTVSPost2010PropOp42
 70
     1
102
RTVSPost2010Prop43
 90
        3
102
RTVSPost2010PropOp43
 70
     1
102
RTVSPost2010Prop44ColorIndex
 90
        5
102
RTVSPost2010Prop44ColorRGB
 90
      255
102
RTVSPost2010PropOp44
 70
     1
102
RTVSPost2010Prop45
280
     0
102
RTVSPost2010PropOp45
 70
     1
102
RTVSPost2010Prop46
 90
       50
102
RTVSPost2010PropOp46
 70
     1
102
RTVSPost2010Prop47
 90
       50
102
RTVSPost2010PropOp47
 70
     1
102
RTVSPost2010Prop48
 90
       50
102
RTVSPost2010PropOp48
 70
     1
102
RTVSPost2010Prop49
280
     0
102
RTVSPost2010PropOp49
 70
     1
102
RTVSPost2010Prop50
 90
       50
102
RTVSPost2010PropOp50
 70
     1
102
RTVSPost2010Prop51ColorIndex
 90
      256
102
RTVSPost2010Prop51ColorRGB
 90
-16777216
102
RTVSPost2010PropOp51
 70
     0
102
RTVSPost2010Prop52
140
1.0
102
RTVSPost2010PropOp52
 70
     0
102
RTVSPost2010Prop53
 90
        2
102
RTVSPost2010PropOp53
 70
     1
102
RTVSPost2010Prop54
  1
strokes_ogs.tif
102
RTVSPost2010PropOp54
 70
     1
102
RTVSPost2010Prop55
280
     0
102
RTVSPost2010PropOp55
 70
     1
102
RTVSPost2010Prop56
140
1.0
102
RTVSPost2010PropOp56
 70
     1
102
RTVSPost2010Prop57
140
1.0
102
RTVSPost2010PropOp57
 70
     1
  0
XRECORD
  5
600
102
{ACAD_REACTORS
330
5FF
102
}
330
5FF
100
AcDbXrecord
280
     1
102
RTVSPropertyOp0
 70
     1
102
RTVSPropertyOp1
 70
     1
102
RTVSPropertyOp2
 70
     1
102
RTVSPropertyOp3
 70
     1
102
RTVSPropertyOp4
 70
     1
102
RTVSPropertyOp5
 70
     1
102
RTVSPropertyOp6
 70
     1
102
RTVSPropertyOp7
 70
     1
102
RTVSPropertyOp8
 70
     1
102
RTVSPropertyOp9
 70
     1
102
RTVSPropertyOp10
 70
     1
102
RTVSPropertyOp11
 70
     1
102
RTVSPropertyOp12
 70
     1
102
RTVSPropertyOp13
 70
     1
102
RTVSPropertyOp14
 70
     1
102
RTVSPropertyOp15
 70
     1
102
RTVSPropertyOp16
 70
     1
102
RTVSPropertyOp17
 70
     1
102
RTVSPropertyOp18
 70
     1
102
RTVSPropertyOp19
 70
     1
102
RTVSPropertyOp20
 70
     1
102
RTVSPropertyOp21
 70
     1
102
RTVSPropertyOp22
 70
     1
102
RTVSPropertyOp23
 70
     1
102
RTVSPropertyOp24
 70
     1
102
RTVSPropertyOp25
 70
     1
102
RTVSPropertyOp26
 70
     1
102
RTVSPropertyOp27
 70
     1
102
RTVSPropertyOp28
 70
     1
102
RTVSPropertyOp29
 70
     1
102
RTVSPropertyOp30
 70
     1
102
RTVSPropertyOp31
 70
     1
102
RTVSPropertyOp32
 70
     1
102
RTVSPropertyOp33
 70
     1
102
RTVSPropertyOp34
 70
     1
102
RTVSPropertyOp35
 70
     1
102
RTVSPropertyOp36
 70
     1
102
RTVSPropertyOp37
 70
     1
102
RTVSPropertyOp38
 70
     1
102
RTVSPropertyOp39
 70
     1
102
RTVSPropertyOp40
 70
     1
102
RTVSPropertyOp41
 70
     1
102
RTVSPropertyOp42
 70
     1
102
RTVSPropertyOp43
 70
     1
102
RTVSPropertyOp44
 70
     1
102
RTVSPropertyOp45
 70
     1
102
RTVSPropertyOp46
 70
     1
102
RTVSPropertyOp47
 70
     1
102
RTVSPropertyOp48
 70
     1
102
RTVSPropertyOp49
 70
     1
102
RTVSPropertyOp50
 70
     1
102
RTVSPropertyOp51
 70
     0
102
RTVSPropertyOp52
 70
     0
102
RTVSPropertyOp53
 70
     1
102
RTVSPropertyOp54
 70
     1
102
RTVSPropertyOp55
 70
     1
102
RTVSPropertyOp56
 70
     1
102
RTVSPropertyOp57
 70
     1
102
RTVSPost2010Prop28
280
     0
102
RTVSPost2010PropOp28
 70
     1
102
RTVSPost2010Prop29
280
     1
102
RTVSPost2010PropOp29
 70
     1
102
RTVSPost2010Prop30
280
     1
102
RTVSPost2010PropOp30
 70
     1
102
RTVSPost2010Prop31
280
     0
102
RTVSPost2010PropOp31
 70
     1
102
RTVSPost2010Prop32
280
     0
102
RTVSPost2010PropOp32
 70
     1
102
RTVSPost2010Prop33
280
     0
102
RTVSPost2010PropOp33
 70
     1
102
RTVSPost2010Prop34
280
     0
102
RTVSPost2010PropOp34
 70
     1
102
RTVSPost2010Prop35
280
     0
102
RTVSPost2010PropOp35
 70
     1
102
RTVSPost2010Prop36
280
     0
102
RTVSPost2010PropOp36
 70
     1
102
RTVSPost2010Prop37
 90
       50
102
RTVSPost2010PropOp37
 70
     1
102
RTVSPost2010Prop38
140
0.0
102
RTVSPost2010PropOp38
 70
     1
102
RTVSPost2010Prop39
140
1.0
102
RTVSPost2010PropOp39
 70
     1
102
RTVSPost2010Prop40
 90
        0
102
RTVSPost2010PropOp40
 70
     1
102
RTVSPost2010Prop41ColorIndex
 90
       18
102
RTVSPost2010Prop41ColorRGB
 90
        0
102
RTVSPost2010PropOp41
 70
     1
102
RTVSPost2010Prop42
 90
       50
102
RTVSPost2010PropOp42
 70
     1
102
RTVSPost2010Prop43
 90
        3
102
RTVSPost2010PropOp43
 70
     1
102
RTVSPost2010Prop44ColorIndex
 90
        5
102
RTVSPost2010Prop44ColorRGB
 90
      255
102
RTVSPost2010PropOp44
 70
     1
102
RTVSPost2010Prop45
280
     0
102
RTVSPost2010PropOp45
 70
     1
102
RTVSPost2010Prop46
 90
       50
102
RTVSPost2010PropOp46
 70
     1
102
RTVSPost2010Prop47
 90
       50
102
RTVSPost2010PropOp47
 70
     1
102
RTVSPost2010Prop48
 90
       50
102
RTVSPost2010PropOp48
 70
     1
102
RTVSPost2010Prop49
280
     0
102
RTVSPost2010PropOp49
 70
     1
102
RTVSPost2010Prop50
 90
       50
102
RTVSPost2010PropOp50
 70
     1
102
RTVSPost2010Prop51ColorIndex
 90
      256
102
RTVSPost2010Prop51ColorRGB
 90
-16777216
102
RTVSPost2010PropOp51
 70
     0
102
RTVSPost2010Prop52
140
1.0
102
RTVSPost2010PropOp52
 70
     0
102
RTVSPost2010Prop53
 90
        2
102
RTVSPost2010PropOp53
 70
     1
102
RTVSPost2010Prop54
  1
strokes_ogs.tif
102
RTVSPost2010PropOp54
 70
     1
102
RTVSPost2010Prop55
280
     0
102
RTVSPost2010PropOp55
 70
     1
102
RTVSPost2010Prop56
140
1.0
102
RTVSPost2010PropOp56
 70
     1
102
RTVSPost2010Prop57
140
1.0
102
RTVSPost2010PropOp57
 70
     1
  0
XRECORD
  5
620
102
{ACAD_REACTORS
330
61F
102
}
330
61F
100
AcDbXrecord
280
     1
102
RTVSPropertyOp0
 70
     1
102
RTVSPropertyOp1
 70
     1
102
RTVSPropertyOp2
 70
     1
102
RTVSPropertyOp3
 70
     1
102
RTVSPropertyOp4
 70
     1
102
RTVSPropertyOp5
 70
     1
102
RTVSPropertyOp6
 70
     1
102
RTVSPropertyOp7
 70
     1
102
RTVSPropertyOp8
 70
     1
102
RTVSPropertyOp9
 70
     1
102
RTVSPropertyOp10
 70
     1
102
RTVSPropertyOp11
 70
     1
102
RTVSPropertyOp12
 70
     1
102
RTVSPropertyOp13
 70
     1
102
RTVSPropertyOp14
 70
     1
102
RTVSPropertyOp15
 70
     1
102
RTVSPropertyOp16
 70
     1
102
RTVSPropertyOp17
 70
     1
102
RTVSPropertyOp18
 70
     1
102
RTVSPropertyOp19
 70
     1
102
RTVSPropertyOp20
 70
     1
102
RTVSPropertyOp21
 70
     1
102
RTVSPropertyOp22
 70
     1
102
RTVSPropertyOp23
 70
     1
102
RTVSPropertyOp24
 70
     1
102
RTVSPropertyOp25
 70
     1
102
RTVSPropertyOp26
 70
     1
102
RTVSPropertyOp27
 70
     1
102
RTVSPropertyOp28
 70
     1
102
RTVSPropertyOp29
 70
     1
102
RTVSPropertyOp30
 70
     1
102
RTVSPropertyOp31
 70
     1
102
RTVSPropertyOp32
 70
     1
102
RTVSPropertyOp33
 70
     1
102
RTVSPropertyOp34
 70
     1
102
RTVSPropertyOp35
 70
     1
102
RTVSPropertyOp36
 70
     1
102
RTVSPropertyOp37
 70
     1
102
RTVSPropertyOp38
 70
     1
102
RTVSPropertyOp39
 70
     1
102
RTVSPropertyOp40
 70
     1
102
RTVSPropertyOp41
 70
     1
102
RTVSPropertyOp42
 70
     1
102
RTVSPropertyOp43
 70
     1
102
RTVSPropertyOp44
 70
     1
102
RTVSPropertyOp45
 70
     1
102
RTVSPropertyOp46
 70
     1
102
RTVSPropertyOp47
 70
     1
102
RTVSPropertyOp48
 70
     1
102
RTVSPropertyOp49
 70
     1
102
RTVSPropertyOp50
 70
     1
102
RTVSPropertyOp51
 70
     0
102
RTVSPropertyOp52
 70
     0
102
RTVSPropertyOp53
 70
     1
102
RTVSPropertyOp54
 70
     1
102
RTVSPropertyOp55
 70
     1
102
RTVSPropertyOp56
 70
     1
102
RTVSPropertyOp57
 70
     1
102
RTVSPost2010Prop28
280
     0
102
RTVSPost2010PropOp28
 70
     1
102
RTVSPost2010Prop29
280
     1
102
RTVSPost2010PropOp29
 70
     1
102
RTVSPost2010Prop30
280
     1
102
RTVSPost2010PropOp30
 70
     1
102
RTVSPost2010Prop31
280
     0
102
RTVSPost2010PropOp31
 70
     1
102
RTVSPost2010Prop32
280
     0
102
RTVSPost2010PropOp32
 70
     1
102
RTVSPost2010Prop33
280
     0
102
RTVSPost2010PropOp33
 70
     1
102
RTVSPost2010Prop34
280
     0
102
RTVSPost2010PropOp34
 70
     1
102
RTVSPost2010Prop35
280
     0
102
RTVSPost2010PropOp35
 70
     1
102
RTVSPost2010Prop36
280
     0
102
RTVSPost2010PropOp36
 70
     1
102
RTVSPost2010Prop37
 90
       50
102
RTVSPost2010PropOp37
 70
     1
102
RTVSPost2010Prop38
140
0.0
102
RTVSPost2010PropOp38
 70
     1
102
RTVSPost2010Prop39
140
1.0
102
RTVSPost2010PropOp39
 70
     1
102
RTVSPost2010Prop40
 90
        0
102
RTVSPost2010PropOp40
 70
     1
102
RTVSPost2010Prop41ColorIndex
 90
       18
102
RTVSPost2010Prop41ColorRGB
 90
        0
102
RTVSPost2010PropOp41
 70
     1
102
RTVSPost2010Prop42
 90
       50
102
RTVSPost2010PropOp42
 70
     1
102
RTVSPost2010Prop43
 90
        3
102
RTVSPost2010PropOp43
 70
     1
102
RTVSPost2010Prop44ColorIndex
 90
        5
102
RTVSPost2010Prop44ColorRGB
 90
      255
102
RTVSPost2010PropOp44
 70
     1
102
RTVSPost2010Prop45
280
     0
102
RTVSPost2010PropOp45
 70
     1
102
RTVSPost2010Prop46
 90
       50
102
RTVSPost2010PropOp46
 70
     1
102
RTVSPost2010Prop47
 90
       50
102
RTVSPost2010PropOp47
 70
     1
102
RTVSPost2010Prop48
 90
       50
102
RTVSPost2010PropOp48
 70
     1
102
RTVSPost2010Prop49
280
     0
102
RTVSPost2010PropOp49
 70
     1
102
RTVSPost2010Prop50
 90
       50
102
RTVSPost2010PropOp50
 70
     1
102
RTVSPost2010Prop51ColorIndex
 90
      256
102
RTVSPost2010Prop51ColorRGB
 90
-16777216
102
RTVSPost2010PropOp51
 70
     0
102
RTVSPost2010Prop52
140
1.0
102
RTVSPost2010PropOp52
 70
     0
102
RTVSPost2010Prop53
 90
        2
102
RTVSPost2010PropOp53
 70
     1
102
RTVSPost2010Prop54
  1
strokes_ogs.tif
102
RTVSPost2010PropOp54
 70
     1
102
RTVSPost2010Prop55
280
     0
102
RTVSPost2010PropOp55
 70
     1
102
RTVSPost2010Prop56
140
1.0
102
RTVSPost2010PropOp56
 70
     1
102
RTVSPost2010Prop57
140
1.0
102
RTVSPost2010PropOp57
 70
     1
  0
ENDSEC
  0
EOF
