  0
SECTION
  2
HEADER
  9
$ACADVER
  1
AC1015
  9
$ACADMAINTVER
 70
     6
  9
$DWGCODEPAGE
  3
ANSI_932
  9
$INSBASE
 10
2925.44401025168
 20
774.5461826135838
 30
0.0
  9
$EXTMIN
 10
199.3677953365973
 20
46.16196317147137
 30
0.0
  9
$EXTMAX
 10
2314.075140742379
 20
1789.555261468019
 30
0.0
  9
$LIMMIN
 10
0.0
 20
0.0
  9
$LIMMAX
 10
816.5000000000001
 20
565.0
  9
$ORTHOMODE
 70
     1
  9
$REGENMODE
 70
     1
  9
$FILLMODE
 70
     1
  9
$QTEXTMODE
 70
     0
  9
$MIRRTEXT
 70
     1
  9
$LTSCALE
 40
20.0
  9
$ATTMODE
 70
     1
  9
$TEXTSIZE
 40
21.0
  9
$TRACEWID
 40
0.05
  9
$TEXTSTYLE
  7
KANJI
  9
$CLAYER
  8
2
  9
$CELTYPE
  6
BYLAYER
  9
$CECOLOR
 62
   256
  9
$CELTSCALE
 40
1.0
  9
$DISPSILH
 70
     0
  9
$DIMSCALE
 40
7.0
  9
$DIMASZ
 40
2.0
  9
$DIMEXO
 40
0.5
  9
$DIMDLI
 40
0.0
  9
$DIMRND
 40
0.0
  9
$DIMDLE
 40
0.0
  9
$DIMEXE
 40
1.0
  9
$DIMTP
 40
0.0
  9
$DIMTM
 40
0.0
  9
$DIMTXT
 40
3.0
  9
$DIMCEN
 40
0.09
  9
$DIMTSZ
 40
0.0
  9
$DIMTOL
 70
     0
  9
$DIMLIM
 70
     0
  9
$DIMTIH
 70
     0
  9
$DIMTOH
 70
     0
  9
$DIMSE1
 70
     0
  9
$DIMSE2
 70
     0
  9
$DIMTAD
 70
     0
  9
$DIMZIN
 70
     8
  9
$DIMBLK
  1

  9
$DIMASO
 70
     0
  9
$DIMSHO
 70
     0
  9
$DIMPOST
  1

  9
$DIMAPOST
  1

  9
$DIMALT
 70
     0
  9
$DIMALTD
 70
     2
  9
$DIMALTF
 40
25.4
  9
$DIMLFAC
 40
1.0
  9
$DIMTOFL
 70
     1
  9
$DIMTVP
 40
1.0
  9
$DIMTIX
 70
     1
  9
$DIMSOXD
 70
     1
  9
$DIMSAH
 70
     0
  9
$DIMBLK1
  1

  9
$DIMBLK2
  1

  9
$DIMSTYLE
  2
STANDARD
  9
$DIMCLRD
 70
   256
  9
$DIMCLRE
 70
   256
  9
$DIMCLRT
 70
   256
  9
$DIMTFAC
 40
1.0
  9
$DIMGAP
 40
0.09
  9
$DIMJUST
 70
     0
  9
$DIMSD1
 70
     0
  9
$DIMSD2
 70
     0
  9
$DIMTOLJ
 70
     1
  9
$DIMTZIN
 70
     0
  9
$DIMALTZ
 70
     0
  9
$DIMALTTZ
 70
     0
  9
$DIMUPT
 70
     0
  9
$DIMDEC
 70
     1
  9
$DIMTDEC
 70
     4
  9
$DIMALTU
 70
     2
  9
$DIMALTTD
 70
     2
  9
$DIMTXSTY
  7
STANDARD
  9
$DIMAUNIT
 70
     0
  9
$DIMADEC
 70
     0
  9
$DIMALTRND
 40
0.0
  9
$DIMAZIN
 70
     0
  9
$DIMDSEP
 70
    46
  9
$DIMATFIT
 70
     3
  9
$DIMFRAC
 70
     0
  9
$DIMLDRBLK
  1

  9
$DIMLUNIT
 70
     2
  9
$DIMLWD
 70
    -2
  9
$DIMLWE
 70
    -2
  9
$DIMTMOVE
 70
     0
  9
$LUNITS
 70
     2
  9
$LUPREC
 70
     3
  9
$SKETCHINC
 40
0.1
  9
$FILLETRAD
 40
1.0
  9
$AUNITS
 70
     0
  9
$AUPREC
 70
     3
  9
$MENU
  1
C:\R13\WIN\SUPPORT\ACADFULL
  9
$ELEVATION
 40
0.0
  9
$PELEVATION
 40
0.0
  9
$THICKNESS
 40
0.0
  9
$LIMCHECK
 70
     0
  9
$CHAMFERA
 40
0.0
  9
$CHAMFERB
 40
0.0
  9
$CHAMFERC
 40
0.0
  9
$CHAMFERD
 40
0.0
  9
$SKPOLY
 70
     0
  9
$TDCREATE
 40
2457431.842175023
  9
$TDUCREATE
 40
2457431.467175023
  9
$TDUPDATE
 40
2457871.84340037
  9
$TDUUPDATE
 40
2457871.46840037
  9
$TDINDWG
 40
0.0296426273
  9
$TDUSRTIMER
 40
0.0296419097
  9
$USRTIMER
 70
     1
  9
$ANGBASE
 50
0.0
  9
$ANGDIR
 70
     0
  9
$PDMODE
 70
     0
  9
$PDSIZE
 40
0.0
  9
$PLINEWID
 40
0.0
  9
$SPLFRAME
 70
     0
  9
$SPLINETYPE
 70
     6
  9
$SPLINESEGS
 70
     8
  9
$HANDSEED
  5
628
  9
$SURFTAB1
 70
     6
  9
$SURFTAB2
 70
     6
  9
$SURFTYPE
 70
     6
  9
$SURFU
 70
     6
  9
$SURFV
 70
     6
  9
$UCSBASE
  2

  9
$UCSNAME
  2

  9
$UCSORG
 10
0.0
 20
0.0
 30
0.0
  9
$UCSXDIR
 10
1.0
 20
0.0
 30
0.0
  9
$UCSYDIR
 10
0.0
 20
1.0
 30
0.0
  9
$UCSORTHOREF
  2

  9
$UCSORTHOVIEW
 70
     0
  9
$UCSORGTOP
 10
0.0
 20
0.0
 30
0.0
  9
$UCSORGBOTTOM
 10
0.0
 20
0.0
 30
0.0
  9
$UCSORGLEFT
 10
0.0
 20
0.0
 30
0.0
  9
$UCSORGRIGHT
 10
0.0
 20
0.0
 30
0.0
  9
$UCSORGFRONT
 10
0.0
 20
0.0
 30
0.0
  9
$UCSORGBACK
 10
0.0
 20
0.0
 30
0.0
  9
$PUCSBASE
  2

  9
$PUCSNAME
  2

  9
$PUCSORG
 10
0.0
 20
0.0
 30
0.0
  9
$PUCSXDIR
 10
1.0
 20
0.0
 30
0.0
  9
$PUCSYDIR
 10
0.0
 20
1.0
 30
0.0
  9
$PUCSORTHOREF
  2

  9
$PUCSORTHOVIEW
 70
     0
  9
$PUCSORGTOP
 10
0.0
 20
0.0
 30
0.0
  9
$PUCSORGBOTTOM
 10
0.0
 20
0.0
 30
0.0
  9
$PUCSORGLEFT
 10
0.0
 20
0.0
 30
0.0
  9
$PUCSORGRIGHT
 10
0.0
 20
0.0
 30
0.0
  9
$PUCSORGFRONT
 10
0.0
 20
0.0
 30
0.0
  9
$PUCSORGBACK
 10
0.0
 20
0.0
 30
0.0
  9
$USERI1
 70
     0
  9
$USERI2
 70
     0
  9
$USERI3
 70
     0
  9
$USERI4
 70
     0
  9
$USERI5
 70
     0
  9
$USERR1
 40
0.0
  9
$USERR2
 40
0.0
  9
$USERR3
 40
0.0
  9
$USERR4
 40
2448925.372986111
  9
$USERR5
 40
0.04166667
  9
$WORLDVIEW
 70
     1
  9
$SHADEDGE
 70
     3
  9
$SHADEDIF
 70
    70
  9
$TILEMODE
 70
     1
  9
$MAXACTVP
 70
    16
  9
$PINSBASE
 10
0.0
 20
0.0
 30
0.0
  9
$PLIMCHECK
 70
     0
  9
$PEXTMIN
 10
1.000000000000000E+20
 20
1.000000000000000E+20
 30
1.000000000000000E+20
  9
$PEXTMAX
 10
-1.000000000000000E+20
 20
-1.000000000000000E+20
 30
-1.000000000000000E+20
  9
$PLIMMIN
 10
0.0
 20
0.0
  9
$PLIMMAX
 10
12.0
 20
9.0
  9
$UNITMODE
 70
     0
  9
$VISRETAIN
 70
     0
  9
$PLINEGEN
 70
     0
  9
$PSLTSCALE
 70
     0
  9
$TREEDEPTH
 70
  3020
  9
$CMLSTYLE
  2
STANDARD
  9
$CMLJUST
 70
     0
  9
$CMLSCALE
 40
1.0
  9
$PROXYGRAPHICS
 70
     1
  9
$MEASUREMENT
 70
     0
  9
$CELWEIGHT
370
    -1
  9
$ENDCAPS
280
     0
  9
$JOINSTYLE
280
     0
  9
$LWDISPLAY
290
     0
  9
$INSUNITS
 70
     0
  9
$HYPERLINKBASE
  1

  9
$STYLESHEET
  1

  9
$XEDIT
290
     1
  9
$CEPSNTYPE
380
     0
  9
$PSTYLEMODE
290
     1
  9
$FINGERPRINTGUID
  2
{176DD0A4-1973-4263-9A71-0B74F89336CA}
  9
$VERSIONGUID
  2
{08DD4DBB-34D9-4A5D-AB8F-A097F5F9DDB8}
  9
$EXTNAMES
290
     1
  9
$PSVPSCALE
 40
0.0
  9
$OLESTARTUP
290
     0
  0
ENDSEC
  0
SECTION
  2
CLASSES
  0
CLASS
  1
ACDBDICTIONARYWDFLT
  2
AcDbDictionaryWithDefault
  3
ObjectDBX Classes
 90
        0
280
     0
281
     0
  0
CLASS
  1
MATERIAL
  2
AcDbMaterial
  3
ObjectDBX Classes
 90
     1153
280
     0
281
     0
  0
CLASS
  1
SORTENTSTABLE
  2
AcDbSortentsTable
  3
ObjectDBX Classes
 90
        0
280
     0
281
     0
  0
CLASS
  1
SCALE
  2
AcDbScale
  3
ObjectDBX Classes
 90
     1153
280
     0
281
     0
  0
CLASS
  1
DICTIONARYVAR
  2
AcDbDictionaryVar
  3
ObjectDBX Classes
 90
        0
280
     0
281
     0
  0
CLASS
  1
VISUALSTYLE
  2
AcDbVisualStyle
  3
ObjectDBX Classes
 90
     4095
280
     0
281
     0
  0
CLASS
  1
MLEADERSTYLE
  2
AcDbMLeaderStyle
  3
ACDB_MLEADERSTYLE_CLASS
 90
     4095
280
     0
281
     0
  0
CLASS
  1
TABLESTYLE
  2
AcDbTableStyle
  3
ObjectDBX Classes
 90
     4095
280
     0
281
     0
  0
CLASS
  1
ACDBPLACEHOLDER
  2
AcDbPlaceHolder
  3
ObjectDBX Classes
 90
        0
280
     0
281
     0
  0
CLASS
  1
LAYOUT
  2
AcDbLayout
  3
ObjectDBX Classes
 90
        0
280
     0
281
     0
  0
ENDSEC
  0
SECTION
  2
TABLES
  0
TABLE
  2
VPORT
  5
26
102
{ACAD_XDICTIONARY
360
5ED
102
}
330
0
100
AcDbSymbolTable
 70
     2
  0
VPORT
  5
2B
330
26
100
AcDbSymbolTableRecord
100
AcDbViewportTableRecord
  2
*ACTIVE
 70
     0
 10
0.0
 20
0.0
 11
1.0
 21
1.0
 12
1999.940571860732
 22
1010.961705294511
 13
0.0
 23
0.0
 14
1.0
 24
1.0
 15
50.0
 25
50.0
 16
0.0
 26
0.0
 36
1.0
 17
0.0
 27
0.0
 37
0.0
 40
2522.542148327549
 41
2.174107142857143
 42
50.0
 43
0.0
 44
0.0
 50
0.0
 51
0.0
 71
     0
 72
  5000
 73
     1
 74
     0
 75
     0
 76
     0
 77
     0
 78
     0
281
     0
 65
     1
110
0.0
120
0.0
130
0.0
111
1.0
121
0.0
131
0.0
112
0.0
122
1.0
132
0.0
 79
     0
146
0.0
  0
ENDTAB
  0
TABLE
  2
LTYPE
  5
B
330
0
100
AcDbSymbolTable
 70
     2
  0
LTYPE
  5
C
330
B
100
AcDbSymbolTableRecord
100
AcDbLinetypeTableRecord
  2
BYBLOCK
 70
     0
  3

 72
    65
 73
     0
 40
0.0
  0
LTYPE
  5
D
330
B
100
AcDbSymbolTableRecord
100
AcDbLinetypeTableRecord
  2
BYLAYER
 70
     0
  3

 72
    65
 73
     0
 40
0.0
  0
LTYPE
  5
A
330
B
100
AcDbSymbolTableRecord
100
AcDbLinetypeTableRecord
  2
CONTINUOUS
 70
     0
  3
Solid line
 72
    65
 73
     0
 40
0.0
  0
LTYPE
  5
78
330
B
100
AcDbSymbolTableRecord
100
AcDbLinetypeTableRecord
  2
CENTER
 70
     0
  3
____ _ ____ _ ____ _ ____ _ ____ _ ____ _ ____
 72
    65
 73
     4
 40
2.0
 49
1.25
 74
     0
 49
-0.25
 74
     0
 49
0.25
 74
     0
 49
-0.25
 74
     0
  0
ENDTAB
  0
TABLE
  2
LAYER
  5
2
330
0
100
AcDbSymbolTable
 70
     9
  0
LAYER
  5
1B
330
2
100
AcDbSymbolTableRecord
100
AcDbLayerTableRecord
  2
0
 70
     0
 62
     7
  6
CONTINUOUS
370
    -3
390
3
  0
LAYER
  5
46F
330
2
100
AcDbSymbolTableRecord
100
AcDbLayerTableRecord
  2
1
 70
     0
 62
     9
  6
CONTINUOUS
370
    -3
390
3
  0
LAYER
  5
1
330
2
100
AcDbSymbolTableRecord
100
AcDbLayerTableRecord
  2
2
 70
     0
 62
     4
  6
CONTINUOUS
370
    -3
390
3
  0
LAYER
  5
7F
330
2
100
AcDbSymbolTableRecord
100
AcDbLayerTableRecord
  2
4
 70
     0
 62
     3
  6
CONTINUOUS
370
    -3
390
3
  0
LAYER
  5
77
330
2
100
AcDbSymbolTableRecord
100
AcDbLayerTableRecord
  2
L-CENTER
 70
     0
 62
     1
  6
CENTER
370
    -3
390
3
  0
LAYER
  5
72
330
2
100
AcDbSymbolTableRecord
100
AcDbLayerTableRecord
  2
3
 70
     0
 62
     2
  6
CONTINUOUS
370
    -3
390
3
  0
LAYER
  5
468
330
2
100
AcDbSymbolTableRecord
100
AcDbLayerTableRecord
  2
5
 70
     0
 62
     6
  6
CONTINUOUS
370
    -3
390
3
  0
LAYER
  5
5AC
330
2
100
AcDbSymbolTableRecord
100
AcDbLayerTableRecord
  2
Defpoints
 70
     0
 62
     7
  6
CONTINUOUS
290
     0
370
    -3
390
3
  0
ENDTAB
  0
TABLE
  2
STYLE
  5
F
330
0
100
AcDbSymbolTable
 70
     2
  0
STYLE
  5
13
330
F
100
AcDbSymbolTableRecord
100
AcDbTextStyleTableRecord
  2
STANDARD
 70
     0
 40
0.0
 41
1.0
 50
0.0
 71
     0
 42
12.6
  3
TXT
  4

  0
STYLE
  5
E
330
F
100
AcDbSymbolTableRecord
100
AcDbTextStyleTableRecord
  2
KANJI
 70
     0
 40
0.0
 41
1.0
 50
0.0
 71
     0
 42
21.0
  3
TXT
  4
BIGFONT
  0
ENDTAB
  0
TABLE
  2
VIEW
  5
24
330
0
100
AcDbSymbolTable
 70
     0
  0
ENDTAB
  0
TABLE
  2
UCS
  5
25
330
0
100
AcDbSymbolTable
 70
     0
  0
ENDTAB
  0
TABLE
  2
APPID
  5
9
330
0
100
AcDbSymbolTable
 70
     5
  0
APPID
  5
8
330
9
100
AcDbSymbolTableRecord
100
AcDbRegAppTableRecord
  2
ACAD
 70
     0
  0
APPID
  5
1F
330
9
100
AcDbSymbolTableRecord
100
AcDbRegAppTableRecord
  2
ACAD_PSEXT
 70
     0
  0
APPID
  5
5AA
330
9
100
AcDbSymbolTableRecord
100
AcDbRegAppTableRecord
  2
ACAD_MLEADERVER
 70
     0
  0
ENDTAB
  0
TABLE
  2
DIMSTYLE
  5
12
330
0
100
AcDbSymbolTable
 70
     1
100
AcDbDimStyleTable
  0
DIMSTYLE
105
11
330
12
100
AcDbSymbolTableRecord
100
AcDbDimStyleTableRecord
  2
STANDARD
 70
     0
178
     0
340
13
  0
ENDTAB
  0
TABLE
  2
BLOCK_RECORD
  5
16
330
0
100
AcDbSymbolTable
 70
     0
  0
BLOCK_RECORD
  5
17
102
{ACAD_XDICTIONARY
360
18
102
}
330
16
100
AcDbSymbolTableRecord
100
AcDbBlockTableRecord
  2
*MODEL_SPACE
340
1D
  0
BLOCK_RECORD
  5
20
330
16
100
AcDbSymbolTableRecord
100
AcDbBlockTableRecord
  2
*PAPER_SPACE
340
23
  0
ENDTAB
  0
ENDSEC
  0
SECTION
  2
BLOCKS
  0
BLOCK
  5
1A
330
17
100
AcDbEntity
  8
0
100
AcDbBlockBegin
  2
*MODEL_SPACE
 70
     0
 10
0.0
 20
0.0
 30
0.0
  3
*MODEL_SPACE
  1

  0
ENDBLK
  5
1C
330
17
100
AcDbEntity
  8
0
100
AcDbBlockEnd
  0
BLOCK
  5
21
330
20
100
AcDbEntity
 67
     1
  8
0
100
AcDbBlockBegin
  2
*PAPER_SPACE
 70
     0
 10
0.0
 20
0.0
 30
0.0
  3
*PAPER_SPACE
  1

  0
ENDBLK
  5
22
330
20
100
AcDbEntity
 67
     1
  8
0
100
AcDbBlockEnd
  0
ENDSEC
  0
SECTION
  2
ENTITIES
  0
TEXT
  5
71
330
17
100
AcDbEntity
  8
3
100
AcDbText
 10
1304.654234727497
 20
56.34968418132428
 30
0.0
 40
19.67512676884769
  1
LC10-01
  7
KANJI
100
AcDbText
  0
CIRCLE
  5
76
330
17
100
AcDbEntity
  8
L-CENTER
 48
2.0
100
AcDbCircle
 10
1705.372603659522
 20
296.1619631020114
 30
0.0
 40
97.5
  0
LINE
  5
79
330
17
100
AcDbEntity
  8
L-CENTER
 48
2.0
100
AcDbLine
 10
1603.307944224131
 20
237.2352213638333
 30
0.0
 11
1638.56206802942
 21
257.5891228329228
 31
0.0
  0
LINE
  5
7A
330
17
100
AcDbEntity
  8
L-CENTER
 48
2.0
100
AcDbLine
 10
1638.562297659522
 20
334.7352011020123
 30
0.0
 11
1603.308204420948
 21
355.0891555143155
 31
0.0
  0
LINE
  5
7B
330
17
100
AcDbEntity
  8
L-CENTER
 48
2.0
100
AcDbLine
 10
1772.183184108302
 20
257.5892004616205
 30
0.0
 11
1807.437294067383
 21
237.2352750101236
 31
0.0
  0
LINE
  5
7C
330
17
100
AcDbEntity
  8
L-CENTER
 48
2.0
100
AcDbLine
 10
1807.436992106638
 20
355.0891742052891
 30
0.0
 11
1772.182864967263
 21
334.7352785110274
 31
0.0
  0
LINE
  5
7D
330
17
100
AcDbEntity
  8
L-CENTER
 48
2.0
100
AcDbLine
 10
2000.372603570432
 20
665.0566981652712
 30
0.0
 11
2000.372603570432
 21
95.21769459467487
 31
0.0
  0
ARC
  5
7E
330
17
100
AcDbEntity
  8
4
100
AcDbCircle
 10
2000.372603570432
 20
518.1619630138273
 30
0.0
 40
11.999999996376
100
AcDbArc
 50
180.0
 51
0.0
  0
LINE
  5
80
330
17
100
AcDbEntity
  8
4
100
AcDbLine
 10
1988.372603574056
 20
656.1619629621853
 30
0.0
 11
1988.372603574056
 21
518.1619630138273
 31
0.0
  0
LINE
  5
81
330
17
100
AcDbEntity
  8
4
100
AcDbLine
 10
2012.372603566808
 20
518.1619630138273
 30
0.0
 11
2012.372603566808
 21
656.1619629621853
 31
0.0
  0
LINE
  5
82
330
17
100
AcDbEntity
  8
4
100
AcDbLine
 10
775.5339423537498
 20
487.4619630443294
 30
0.0
 11
775.5339423537498
 21
496.1619630234911
 31
0.0
  0
LINE
  5
83
330
17
100
AcDbEntity
  8
4
100
AcDbLine
 10
870.5339423250598
 20
487.4619630443294
 30
0.0
 11
870.5339423250598
 21
496.1619630234911
 31
0.0
  0
LINE
  5
84
330
17
100
AcDbEntity
  8
4
100
AcDbLine
 10
870.5339423250598
 20
496.1619630234911
 30
0.0
 11
831.0339423394043
 21
496.1619630234914
 31
0.0
  0
LINE
  5
85
330
17
100
AcDbEntity
  8
4
100
AcDbLine
 10
1955.372603583568
 20
656.1619629621848
 30
0.0
 11
1953.872603584021
 21
654.6619629626387
 31
0.0
  0
LINE
  5
86
330
17
100
AcDbEntity
  8
4
100
AcDbLine
 10
1953.872603584021
 20
654.6619629626387
 30
0.0
 11
1953.872603584021
 21
496.1619630234911
 31
0.0
  0
LINE
  5
87
330
17
100
AcDbEntity
  8
4
100
AcDbLine
 10
2045.372603557295
 20
656.1619629621848
 30
0.0
 11
2046.872603556842
 21
654.6619629626387
 31
0.0
  0
LINE
  5
88
330
17
100
AcDbEntity
  8
4
100
AcDbLine
 10
2045.372603557295
 20
656.1619629621848
 30
0.0
 11
1955.372603583568
 21
656.1619629621848
 31
0.0
  0
LINE
  5
89
330
17
100
AcDbEntity
  8
4
100
AcDbLine
 10
2046.872603556842
 20
654.6619629626387
 30
0.0
 11
2046.872603556842
 21
496.1619630234911
 31
0.0
  0
LINE
  5
8A
330
17
100
AcDbEntity
  8
4
100
AcDbLine
 10
2046.872603556842
 20
654.6619629626387
 30
0.0
 11
2012.372603566808
 21
654.6619629626382
 31
0.0
  0
LINE
  5
8B
330
17
100
AcDbEntity
  8
4
100
AcDbLine
 10
2047.872603556087
 20
496.1619630234911
 30
0.0
 11
1952.872603584776
 21
496.1619630234911
 31
0.0
  0
LINE
  5
8C
330
17
100
AcDbEntity
  8
4
100
AcDbLine
 10
2047.872603556087
 20
487.4619630443294
 30
0.0
 11
2047.872603556087
 21
496.1619630234911
 31
0.0
  0
LINE
  5
8D
330
17
100
AcDbEntity
  8
4
100
AcDbLine
 10
1952.872603584776
 20
487.4619630443294
 30
0.0
 11
1952.872603584776
 21
496.1619630234911
 31
0.0
  0
LINE
  5
8E
330
17
100
AcDbEntity
  8
L-CENTER
 48
2.0
100
AcDbLine
 10
1144.927342491854
 20
296.1619631020114
 30
0.0
 11
359.0310129020695
 21
296.1619631020114
 31
0.0
  0
LINE
  5
8F
330
17
100
AcDbEntity
  8
L-CENTER
 48
2.0
100
AcDbLine
 10
1569.57889947518
 20
296.1619631020114
 30
0.0
 11
2303.075708006525
 21
296.1619631020114
 31
0.0
  0
LINE
  5
95
330
17
100
AcDbEntity
  8
4
100
AcDbLine
 10
963.0339422971247
 20
108.161963159391
 30
0.0
 11
963.0339422971247
 21
66.16196317147137
 31
0.0
  0
LINE
  5
96
330
17
100
AcDbEntity
  8
4
100
AcDbLine
 10
963.0339422971247
 20
66.16196317147137
 30
0.0
 11
1163.033942236725
 21
66.16196317147137
 31
0.0
  0
ARC
  5
97
330
17
100
AcDbEntity
  8
4
100
AcDbCircle
 10
1160.033942237631
 20
105.1619631602973
 30
0.0
 40
2.999999999094
100
AcDbArc
 50
0.0
 51
90.0
  0
LINE
  5
98
330
17
100
AcDbEntity
  8
4
100
AcDbLine
 10
1160.033942237631
 20
108.1619631593915
 30
0.0
 11
963.0339422971247
 21
108.1619631593915
 31
0.0
  0
LINE
  5
99
330
17
100
AcDbEntity
  8
4
100
AcDbLine
 10
1163.033942236725
 20
105.1619631602973
 30
0.0
 11
1163.033942236725
 21
66.16196317147137
 31
0.0
  0
LINE
  5
9A
330
17
100
AcDbEntity
  8
4
100
AcDbLine
 10
823.0339423394048
 20
106.1619631593915
 30
0.0
 11
931.0339423067885
 21
106.1619631593915
 31
0.0
  0
LINE
  5
9B
330
17
100
AcDbEntity
  8
4
100
AcDbLine
 10
937.0339423049768
 20
112.1619631575793
 30
0.0
 11
931.0339423067885
 21
106.1619631593915
 31
0.0
  0
LINE
  5
9C
330
17
100
AcDbEntity
  8
4
100
AcDbLine
 10
922.0339423095065
 20
132.1619631515393
 30
0.0
 11
963.0339422971247
 21
91.1619631639212
 31
0.0
  0
LINE
  5
9D
330
17
100
AcDbEntity
  8
4
100
AcDbLine
 10
895.0339423176606
 20
112.1619631575793
 30
0.0
 11
915.0339423116206
 21
132.1619631515393
 31
0.0
  0
LINE
  5
9E
330
17
100
AcDbEntity
  8
4
100
AcDbLine
 10
942.0339423034666
 20
112.1619631575793
 30
0.0
 11
895.0339423176606
 21
112.1619631575793
 31
0.0
  0
LINE
  5
9F
330
17
100
AcDbEntity
  8
4
100
AcDbLine
 10
922.0339423095065
 20
132.1619631515393
 30
0.0
 11
823.0339423394048
 21
132.1619631515393
 31
0.0
  0
LINE
  5
A0
330
17
100
AcDbEntity
  8
L-CENTER
 48
2.0
100
AcDbLine
 10
1113.033942251825
 20
46.16196317147137
 30
0.0
 11
1113.033942251825
 21
128.1619631593915
 31
0.0
  0
LINE
  5
A1
330
17
100
AcDbEntity
  8
4
100
AcDbLine
 10
1115.033942251221
 20
410.6619630674325
 30
0.0
 11
1115.033942251221
 21
181.6619631365904
 31
0.0
  0
LINE
  5
A2
330
17
100
AcDbEntity
  8
4
100
AcDbLine
 10
1115.33394225122
 20
410.6619630674325
 30
0.0
 11
1115.33394225122
 21
181.6619631365904
 31
0.0
  0
LINE
  5
A3
330
17
100
AcDbEntity
  8
4
100
AcDbLine
 10
1110.033942252731
 20
410.6619630674325
 30
0.0
 11
1110.033942252731
 21
181.6619631365904
 31
0.0
  0
LINE
  5
A4
330
17
100
AcDbEntity
  8
4
100
AcDbLine
 10
1116.533942250768
 20
412.1619630669791
 30
0.0
 11
1116.533942250768
 21
415.1619630660732
 31
0.0
  0
LINE
  5
A5
330
17
100
AcDbEntity
  8
4
100
AcDbLine
 10
1119.533942249861
 20
410.6619630674325
 30
0.0
 11
1119.533942249861
 21
412.1619630669791
 31
0.0
  0
LINE
  5
A6
330
17
100
AcDbEntity
  8
4
100
AcDbLine
 10
823.0339423394048
 20
181.6619631365904
 30
0.0
 11
1134.33394224518
 21
181.6619631365904
 31
0.0
  0
LINE
  5
A7
330
17
100
AcDbEntity
  8
4
100
AcDbLine
 10
1135.33394224518
 20
409.6619630674325
 30
0.0
 11
1135.33394224518
 21
182.6619631365904
 31
0.0
  0
LINE
  5
A8
330
17
100
AcDbEntity
  8
4
100
AcDbLine
 10
509.7339424339311
 20
333.9619631020121
 30
0.0
 11
509.7339424339311
 21
258.3619631020108
 31
0.0
  0
LINE
  5
A9
330
17
100
AcDbEntity
  8
4
100
AcDbLine
 10
1119.533942249861
 20
148.8646683849545
 30
0.0
 11
1119.533942249861
 21
181.6619631365904
 31
0.0
  0
LINE
  5
AA
330
17
100
AcDbEntity
  8
4
100
AcDbLine
 10
1100.598380859381
 20
181.6619631365909
 30
0.0
 11
1143.033702806144
 21
108.1619631593915
 31
0.0
  0
LINE
  5
AB
330
17
100
AcDbEntity
  8
4
100
AcDbLine
 10
545.4695108616825
 20
181.6619631365904
 30
0.0
 11
503.0341889149176
 21
108.1619631593915
 31
0.0
  0
LINE
  5
AC
330
17
100
AcDbEntity
  8
4
100
AcDbLine
 10
526.5339424289477
 20
148.8646561874355
 30
0.0
 11
526.5339424289477
 21
181.6619631365904
 31
0.0
  0
LINE
  5
AD
330
17
100
AcDbEntity
  8
4
100
AcDbLine
 10
510.7339424336287
 20
409.6619630674325
 30
0.0
 11
510.7339424336287
 21
182.6619631365904
 31
0.0
  0
LINE
  5
AE
330
17
100
AcDbEntity
  8
4
100
AcDbLine
 10
823.0339423394048
 20
181.6619631365904
 30
0.0
 11
511.7339424336287
 21
181.6619631365904
 31
0.0
  0
LINE
  5
AF
330
17
100
AcDbEntity
  8
4
100
AcDbLine
 10
1134.33394224518
 20
410.6619630674325
 30
0.0
 11
511.7339424336287
 21
410.6619630674325
 31
0.0
  0
LINE
  5
B0
330
17
100
AcDbEntity
  8
4
100
AcDbLine
 10
526.5339424289477
 20
410.6619630674325
 30
0.0
 11
526.5339424289477
 21
412.1619630669791
 31
0.0
  0
LINE
  5
B1
330
17
100
AcDbEntity
  8
4
100
AcDbLine
 10
529.5339424280419
 20
412.1619630669791
 30
0.0
 11
529.5339424280419
 21
415.1619630660732
 31
0.0
  0
LINE
  5
B2
330
17
100
AcDbEntity
  8
4
100
AcDbLine
 10
526.5339424289477
 20
412.1619630669791
 30
0.0
 11
1119.533942249862
 21
412.1619630669791
 31
0.0
  0
LINE
  5
B3
330
17
100
AcDbEntity
  8
4
100
AcDbLine
 10
823.0339423394048
 20
415.1619630660732
 30
0.0
 11
529.5339424280419
 21
415.1619630660732
 31
0.0
  0
LINE
  5
B4
330
17
100
AcDbEntity
  8
4
100
AcDbLine
 10
536.0339424260787
 20
410.6619630674325
 30
0.0
 11
536.0339424260787
 21
181.6619631365904
 31
0.0
  0
LINE
  5
B5
330
17
100
AcDbEntity
  8
4
100
AcDbLine
 10
531.0339424275885
 20
410.6619630674325
 30
0.0
 11
531.0339424275885
 21
181.6619631365904
 31
0.0
  0
LINE
  5
B6
330
17
100
AcDbEntity
  8
4
100
AcDbLine
 10
530.7339424275888
 20
410.6619630674325
 30
0.0
 11
530.7339424275888
 21
181.6619631365904
 31
0.0
  0
LINE
  5
B7
330
17
100
AcDbEntity
  8
L-CENTER
 48
2.0
100
AcDbLine
 10
533.0339424269846
 20
46.16196317147137
 30
0.0
 11
533.0339424269846
 21
128.1619631593915
 31
0.0
  0
LINE
  5
B8
330
17
100
AcDbEntity
  8
4
100
AcDbLine
 10
724.0339423693026
 20
132.1619631515393
 30
0.0
 11
823.0339423394048
 21
132.1619631515393
 31
0.0
  0
LINE
  5
B9
330
17
100
AcDbEntity
  8
4
100
AcDbLine
 10
704.0339423753426
 20
112.1619631575793
 30
0.0
 11
751.033942361149
 21
112.1619631575793
 31
0.0
  0
LINE
  5
BA
330
17
100
AcDbEntity
  8
4
100
AcDbLine
 10
751.033942361149
 20
112.1619631575793
 30
0.0
 11
731.0339423671885
 21
132.1619631515393
 31
0.0
  0
LINE
  5
BB
330
17
100
AcDbEntity
  8
4
100
AcDbLine
 10
724.0339423693026
 20
132.1619631515393
 30
0.0
 11
683.0339423816845
 21
91.1619631639212
 31
0.0
  0
LINE
  5
BC
330
17
100
AcDbEntity
  8
4
100
AcDbLine
 10
709.0339423738328
 20
112.1619631575793
 30
0.0
 11
715.0339423720206
 21
106.1619631593915
 31
0.0
  0
LINE
  5
BD
330
17
100
AcDbEntity
  8
4
100
AcDbLine
 10
823.0339423394048
 20
106.1619631593915
 30
0.0
 11
715.0339423720206
 21
106.1619631593915
 31
0.0
  0
LINE
  5
BE
330
17
100
AcDbEntity
  8
4
100
AcDbLine
 10
483.0339424420849
 20
105.1619631602973
 30
0.0
 11
483.0339424420849
 21
66.16196317147137
 31
0.0
  0
LINE
  5
BF
330
17
100
AcDbEntity
  8
4
100
AcDbLine
 10
486.0339424411786
 20
108.1619631593915
 30
0.0
 11
683.0339423816845
 21
108.1619631593915
 31
0.0
  0
ARC
  5
C0
330
17
100
AcDbEntity
  8
4
100
AcDbCircle
 10
486.0339424411786
 20
105.1619631602973
 30
0.0
 40
2.999999999094
100
AcDbArc
 50
90.0
 51
180.0
  0
LINE
  5
C1
330
17
100
AcDbEntity
  8
4
100
AcDbLine
 10
683.0339423816845
 20
66.16196317147137
 30
0.0
 11
483.0339424420849
 21
66.16196317147137
 31
0.0
  0
LINE
  5
C2
330
17
100
AcDbEntity
  8
4
100
AcDbLine
 10
683.0339423816845
 20
108.1619631593915
 30
0.0
 11
683.0339423816845
 21
66.16196317147137
 31
0.0
  0
LINE
  5
C3
330
17
100
AcDbEntity
  8
4
100
AcDbLine
 10
815.0339423394043
 20
486.4619630446314
 30
0.0
 11
715.0339423720206
 21
486.4619630446314
 31
0.0
  0
LINE
  5
C4
330
17
100
AcDbEntity
  8
4
100
AcDbLine
 10
815.0339423394043
 20
487.4619630443292
 30
0.0
 11
763.0339423575247
 21
487.4619630443294
 31
0.0
  0
LINE
  5
C5
330
17
100
AcDbEntity
  8
4
100
AcDbLine
 10
831.0339423394043
 20
486.4619630446314
 30
0.0
 11
931.0339423067885
 21
486.4619630446314
 31
0.0
  0
LINE
  5
C6
330
17
100
AcDbEntity
  8
4
100
AcDbLine
 10
831.0339423394043
 20
487.4619630443292
 30
0.0
 11
883.0339423212849
 21
487.4619630443294
 31
0.0
  0
LINE
  5
C7
330
17
100
AcDbEntity
  8
L-CENTER
 48
2.0
100
AcDbLine
 10
1028.033942277495
 20
473.2798571293488
 30
0.0
 11
1028.033942277495
 21
425.2859419363458
 31
0.0
  0
LINE
  5
C8
330
17
100
AcDbEntity
  8
4
100
AcDbLine
 10
1050.033942270851
 20
456.4619630536909
 30
0.0
 11
1050.033942270851
 21
454.4619630542952
 31
0.0
  0
LINE
  5
C9
330
17
100
AcDbEntity
  8
4
100
AcDbLine
 10
1051.033942270549
 20
456.4619630536909
 30
0.0
 11
1051.033942270549
 21
465.4619630509733
 31
0.0
  0
LINE
  5
CA
330
17
100
AcDbEntity
  8
4
100
AcDbLine
 10
1050.033942270851
 20
454.4619630542952
 30
0.0
 11
1006.033942284139
 21
454.4619630542952
 31
0.0
  0
LINE
  5
CB
330
17
100
AcDbEntity
  8
4
100
AcDbLine
 10
1051.033942270549
 20
456.4619630536909
 30
0.0
 11
1005.033942284441
 21
456.4619630536909
 31
0.0
  0
LINE
  5
CC
330
17
100
AcDbEntity
  8
4
100
AcDbLine
 10
1051.033942270549
 20
460.461963052483
 30
0.0
 11
1005.033942284441
 21
460.461963052483
 31
0.0
  0
LINE
  5
CD
330
17
100
AcDbEntity
  8
4
100
AcDbLine
 10
1051.033942270549
 20
465.4619630509733
 30
0.0
 11
1005.033942284441
 21
465.4619630509733
 31
0.0
  0
LINE
  5
CE
330
17
100
AcDbEntity
  8
4
100
AcDbLine
 10
1006.033942284139
 20
456.4619630536909
 30
0.0
 11
1006.033942284139
 21
454.4619630542952
 31
0.0
  0
LINE
  5
CF
330
17
100
AcDbEntity
  8
4
100
AcDbLine
 10
1005.033942284441
 20
456.4619630536909
 30
0.0
 11
1005.033942284441
 21
465.4619630509733
 31
0.0
  0
LINE
  5
D0
330
17
100
AcDbEntity
  8
4
100
AcDbLine
 10
1039.533942274022
 20
460.461963052483
 30
0.0
 11
1039.533942274022
 21
465.4619630509733
 31
0.0
  0
LINE
  5
D1
330
17
100
AcDbEntity
  8
4
100
AcDbLine
 10
1016.533942280968
 20
460.461963052483
 30
0.0
 11
1016.533942280968
 21
465.4619630509733
 31
0.0
  0
LINE
  5
D2
330
17
100
AcDbEntity
  8
4
100
AcDbLine
 10
848.0339423318546
 20
444.3088855925726
 30
0.0
 11
848.0339423318546
 21
452.4619630521811
 31
0.0
  0
LINE
  5
D3
330
17
100
AcDbEntity
  8
4
100
AcDbLine
 10
798.0339423469545
 20
444.7380898177953
 30
0.0
 11
798.0339423469545
 21
452.4619630521811
 31
0.0
  0
ARC
  5
D4
330
17
100
AcDbEntity
  8
4
100
AcDbCircle
 10
823.0339423394048
 20
512.8455123324379
 30
0.0
 40
70.0000704013952
100
AcDbArc
 50
249.075817
 51
290.9260769999999
  0
LINE
  5
D5
330
17
100
AcDbEntity
  8
4
100
AcDbLine
 10
806.457019262516
 20
460.4619630524833
 30
0.0
 11
708.0339423741348
 21
460.461963052483
 31
0.0
  0
LINE
  5
D6
330
17
100
AcDbEntity
  8
4
100
AcDbLine
 10
839.6108654162927
 20
460.461963052483
 30
0.0
 11
938.0339423046748
 21
460.461963052483
 31
0.0
  0
LINE
  5
D7
330
17
100
AcDbEntity
  8
4
100
AcDbLine
 10
798.0339423469545
 20
452.4619630521811
 30
0.0
 11
848.0339423318546
 21
452.4619630521811
 31
0.0
  0
LINE
  5
D8
330
17
100
AcDbEntity
  8
4
100
AcDbLine
 10
1053.033942269945
 20
454.4619630542952
 30
0.0
 11
1003.033942285045
 21
454.4619630542952
 31
0.0
  0
LINE
  5
D9
330
17
100
AcDbEntity
  8
4
100
AcDbLine
 10
1053.033942269945
 20
454.4619630542952
 30
0.0
 11
1053.033942269945
 21
444.1992729165495
 31
0.0
  0
LINE
  5
DA
330
17
100
AcDbEntity
  8
4
100
AcDbLine
 10
1003.033942285045
 20
454.4619630542952
 30
0.0
 11
1003.033942285045
 21
451.2700686890621
 31
0.0
  0
LINE
  5
DB
330
17
100
AcDbEntity
  8
4
100
AcDbLine
 10
765.5339423567698
 20
442.4619630579191
 30
0.0
 11
750.033942361451
 21
460.461963052483
 31
0.0
  0
LINE
  5
DC
330
17
100
AcDbEntity
  8
4
100
AcDbLine
 10
880.5339423220398
 20
442.4619630579191
 30
0.0
 11
896.0339423173587
 21
460.461963052483
 31
0.0
  0
LINE
  5
DD
330
17
100
AcDbEntity
  8
4
100
AcDbLine
 10
708.0339423741348
 20
460.461963052483
 30
0.0
 11
715.0339423720206
 21
486.4619630446314
 31
0.0
  0
LINE
  5
DE
330
17
100
AcDbEntity
  8
4
100
AcDbLine
 10
580.7483015675048
 20
442.4619630579191
 30
0.0
 11
708.0339423741348
 21
460.461963052483
 31
0.0
  0
LINE
  5
DF
330
17
100
AcDbEntity
  8
4
100
AcDbLine
 10
1116.533942250768
 20
415.1619630660732
 30
0.0
 11
529.5339424280419
 21
415.1619630660732
 31
0.0
  0
LINE
  5
E0
330
17
100
AcDbEntity
  8
4
100
AcDbLine
 10
1116.533942250768
 20
415.4619630660732
 30
0.0
 11
529.5339424280419
 21
415.4619630660732
 31
0.0
  0
ARC
  5
E1
330
17
100
AcDbEntity
  8
4
100
AcDbCircle
 10
530.5339424277395
 20
441.461963058221
 30
0.0
 40
0.999999999698
100
AcDbArc
 50
90.0
 51
180.0
  0
LINE
  5
E2
330
17
100
AcDbEntity
  8
4
100
AcDbLine
 10
530.5339424277395
 20
442.4619630579191
 30
0.0
 11
823.0339423394048
 21
442.4619630579191
 31
0.0
  0
LINE
  5
E3
330
17
100
AcDbEntity
  8
4
100
AcDbLine
 10
529.5339424280419
 20
441.461963058221
 30
0.0
 11
529.5339424280419
 21
415.1619630660732
 31
0.0
  0
LINE
  5
E4
330
17
100
AcDbEntity
  8
4
100
AcDbLine
 10
763.0339423575247
 20
486.4619630446314
 30
0.0
 11
763.0339423575247
 21
487.4619630443294
 31
0.0
  0
LINE
  5
E5
330
17
100
AcDbEntity
  8
4
100
AcDbLine
 10
883.0339423212849
 20
486.4619630446314
 30
0.0
 11
883.0339423212849
 21
487.4619630443294
 31
0.0
  0
LINE
  5
E6
330
17
100
AcDbEntity
  8
4
100
AcDbLine
 10
1116.533942250768
 20
441.461963058221
 30
0.0
 11
1116.533942250768
 21
415.1619630660732
 31
0.0
  0
LINE
  5
E7
330
17
100
AcDbEntity
  8
4
100
AcDbLine
 10
1115.53394225107
 20
442.4619630579191
 30
0.0
 11
823.0339423394048
 21
442.4619630579191
 31
0.0
  0
ARC
  5
E8
330
17
100
AcDbEntity
  8
4
100
AcDbCircle
 10
1115.53394225107
 20
441.461963058221
 30
0.0
 40
0.999999999698
100
AcDbArc
 50
0.0
 51
90.0
  0
LINE
  5
E9
330
17
100
AcDbEntity
  8
4
100
AcDbLine
 10
1065.319590153558
 20
442.4619630579191
 30
0.0
 11
938.0339423046748
 21
460.461963052483
 31
0.0
  0
LINE
  5
EA
330
17
100
AcDbEntity
  8
4
100
AcDbLine
 10
938.0339423046748
 20
460.461963052483
 30
0.0
 11
931.0339423067885
 21
486.4619630446314
 31
0.0
  0
LINE
  5
EB
330
17
100
AcDbEntity
  8
4
100
AcDbLine
 10
1101.033942255448
 20
108.161963159391
 30
0.0
 11
1101.033942255448
 21
66.16196317147137
 31
0.0
  0
LINE
  5
EC
330
17
100
AcDbEntity
  8
4
100
AcDbLine
 10
1125.033942248201
 20
108.161963159391
 30
0.0
 11
1125.033942248201
 21
66.16196317147137
 31
0.0
  0
LINE
  5
ED
330
17
100
AcDbEntity
  8
4
100
AcDbLine
 10
509.7339424339311
 20
263.6619631118263
 30
0.0
 11
493.0339424390645
 21
263.6619631118263
 31
0.0
  0
LINE
  5
EE
330
17
100
AcDbEntity
  8
4
100
AcDbLine
 10
509.7339424339311
 20
328.6619630921962
 30
0.0
 11
493.0339424390645
 21
328.6619630921962
 31
0.0
  0
LINE
  5
EF
330
17
100
AcDbEntity
  8
4
100
AcDbLine
 10
493.0339424390645
 20
328.6619630921962
 30
0.0
 11
493.0339424390645
 21
263.6619631118263
 31
0.0
  0
LINE
  5
F0
330
17
100
AcDbEntity
  8
4
100
AcDbLine
 10
373.0339424753051
 20
325.661963093102
 30
0.0
 11
375.0339424747003
 21
327.6619630924981
 31
0.0
  0
LINE
  5
F1
330
17
100
AcDbEntity
  8
4
100
AcDbLine
 10
375.0339424747003
 20
327.6619630924981
 30
0.0
 11
493.0339424390645
 21
327.6619630924981
 31
0.0
  0
LINE
  5
F2
330
17
100
AcDbEntity
  8
4
100
AcDbLine
 10
373.0339424753051
 20
266.6619631109199
 30
0.0
 11
375.0339424747003
 21
264.6619631115243
 31
0.0
  0
LINE
  5
F3
330
17
100
AcDbEntity
  8
4
100
AcDbLine
 10
375.0339424747003
 20
264.6619631115243
 30
0.0
 11
493.0339424390645
 21
264.6619631115243
 31
0.0
  0
LINE
  5
F4
330
17
100
AcDbEntity
  8
4
100
AcDbLine
 10
373.0339424753051
 20
266.6619631109199
 30
0.0
 11
373.0339424753051
 21
333.6619630906864
 31
0.0
  0
LINE
  5
F5
330
17
100
AcDbEntity
  8
4
100
AcDbLine
 10
375.0339424747003
 20
264.6619631115243
 30
0.0
 11
375.0339424747003
 21
327.6619630924981
 31
0.0
  0
LINE
  5
F6
330
17
100
AcDbEntity
  8
4
100
AcDbLine
 10
483.0339424420849
 20
333.6619630906864
 30
0.0
 11
373.0339424753051
 21
333.6619630906864
 31
0.0
  0
LINE
  5
F7
330
17
100
AcDbEntity
  8
4
100
AcDbLine
 10
483.0339424420849
 20
327.6619630924981
 30
0.0
 11
483.0339424420849
 21
333.6619630906864
 31
0.0
  0
LINE
  5
F8
330
17
100
AcDbEntity
  8
4
100
AcDbLine
 10
1942.872603587798
 20
442.4619630579191
 30
0.0
 11
1927.372603592478
 21
460.461963052483
 31
0.0
  0
LINE
  5
F9
330
17
100
AcDbEntity
  8
4
100
AcDbLine
 10
2057.872603553068
 20
442.4619630579191
 30
0.0
 11
2073.372603548386
 21
460.461963052483
 31
0.0
  0
LINE
  5
FA
330
17
100
AcDbEntity
  8
4
100
AcDbLine
 10
1885.372603605162
 20
460.461963052483
 30
0.0
 11
1892.372603603048
 21
486.4619630446314
 31
0.0
  0
LINE
  5
FB
330
17
100
AcDbEntity
  8
4
100
AcDbLine
 10
1770.134603570431
 20
444.1656717183546
 30
0.0
 11
1885.372603605162
 21
460.461963052483
 31
0.0
  0
LINE
  5
FC
330
17
100
AcDbEntity
  8
4
100
AcDbLine
 10
2000.372603570432
 20
486.4619630446314
 30
0.0
 11
1892.372603603048
 21
486.4619630446314
 31
0.0
  0
LINE
  5
FD
330
17
100
AcDbEntity
  8
4
100
AcDbLine
 10
2000.372603570432
 20
415.1619630660732
 30
0.0
 11
1706.872603659069
 21
415.1619630660732
 31
0.0
  0
ARC
  5
FE
330
17
100
AcDbEntity
  8
4
100
AcDbCircle
 10
1707.872603658767
 20
441.461963058221
 30
0.0
 40
0.999999999698
100
AcDbArc
 50
90.0
 51
180.0
  0
LINE
  5
FF
330
17
100
AcDbEntity
  8
4
100
AcDbLine
 10
1707.872603658767
 20
442.4619630579191
 30
0.0
 11
2000.372603570432
 21
442.4619630579191
 31
0.0
  0
LINE
  5
100
330
17
100
AcDbEntity
  8
4
100
AcDbLine
 10
1706.872603659069
 20
441.1619630582211
 30
0.0
 11
1706.872603659069
 21
415.1619630660732
 31
0.0
  0
LINE
  5
101
330
17
100
AcDbEntity
  8
4
100
AcDbLine
 10
1940.372603588552
 20
486.4619630446314
 30
0.0
 11
1940.372603588552
 21
487.4619630443294
 31
0.0
  0
LINE
  5
102
330
17
100
AcDbEntity
  8
4
100
AcDbLine
 10
2000.372603570432
 20
487.4619630443294
 30
0.0
 11
1940.372603588552
 21
487.4619630443294
 31
0.0
  0
LINE
  5
103
330
17
100
AcDbEntity
  8
4
100
AcDbLine
 10
2000.372603570432
 20
487.4619630443294
 30
0.0
 11
2060.372603552311
 21
487.4619630443294
 31
0.0
  0
LINE
  5
104
330
17
100
AcDbEntity
  8
4
100
AcDbLine
 10
2060.372603552311
 20
486.4619630446314
 30
0.0
 11
2060.372603552311
 21
487.4619630443294
 31
0.0
  0
LINE
  5
105
330
17
100
AcDbEntity
  8
4
100
AcDbLine
 10
2293.872603481794
 20
441.461963058221
 30
0.0
 11
2293.872603481794
 21
415.1619630660732
 31
0.0
  0
LINE
  5
106
330
17
100
AcDbEntity
  8
4
100
AcDbLine
 10
2292.872603482096
 20
442.4619630579191
 30
0.0
 11
2000.372603570432
 21
442.4619630579191
 31
0.0
  0
ARC
  5
107
330
17
100
AcDbEntity
  8
4
100
AcDbCircle
 10
2292.872603482096
 20
441.461963058221
 30
0.0
 40
0.999999999698
100
AcDbArc
 50
0.0
 51
90.0
  0
LINE
  5
108
330
17
100
AcDbEntity
  8
4
100
AcDbLine
 10
2000.372603570432
 20
415.1619630660732
 30
0.0
 11
2293.872603481794
 21
415.1619630660732
 31
0.0
  0
LINE
  5
109
330
17
100
AcDbEntity
  8
4
100
AcDbLine
 10
2000.372603570432
 20
486.4619630446314
 30
0.0
 11
2108.372603537815
 21
486.4619630446314
 31
0.0
  0
LINE
  5
10A
330
17
100
AcDbEntity
  8
4
100
AcDbLine
 10
2230.610603570433
 20
444.1656708167397
 30
0.0
 11
2115.372603535702
 21
460.461963052483
 31
0.0
  0
LINE
  5
10B
330
17
100
AcDbEntity
  8
4
100
AcDbLine
 10
2115.372603535702
 20
460.461963052483
 30
0.0
 11
2108.372603537815
 21
486.4619630446314
 31
0.0
  0
LINE
  5
10C
330
17
100
AcDbEntity
  8
4
100
AcDbLine
 10
2000.372603570432
 20
460.461963052483
 30
0.0
 11
2115.372603535702
 21
460.461963052483
 31
0.0
  0
LINE
  5
10D
330
17
100
AcDbEntity
  8
4
100
AcDbLine
 10
2000.372603570432
 20
460.461963052483
 30
0.0
 11
1885.372603605162
 21
460.461963052483
 31
0.0
  0
LINE
  5
10E
330
17
100
AcDbEntity
  8
4
100
AcDbLine
 10
2190.372603513052
 20
449.8560053092074
 30
0.0
 11
2190.372603513052
 21
452.4619630521811
 31
0.0
  0
LINE
  5
10F
330
17
100
AcDbEntity
  8
4
100
AcDbLine
 10
2192.872603512297
 20
452.4619630521811
 30
0.0
 11
2230.735140191706
 21
452.4619630521811
 31
0.0
  0
LINE
  5
110
330
17
100
AcDbEntity
  8
L-CENTER
 48
2.0
100
AcDbLine
 10
1785.372603635361
 20
538.1125756435904
 30
0.0
 11
1785.372603635361
 21
425.1851109477429
 31
0.0
  0
LINE
  5
111
330
17
100
AcDbEntity
  8
4
100
AcDbLine
 10
1810.372603627812
 20
449.8560053092074
 30
0.0
 11
1810.372603627812
 21
452.4619630521811
 31
0.0
  0
LINE
  5
112
330
17
100
AcDbEntity
  8
L-CENTER
 48
2.0
100
AcDbLine
 10
2283.828899259476
 20
162.1619631424794
 30
0.0
 11
2304.554589143556
 21
162.1619631424794
 31
0.0
  0
LINE
  5
113
330
17
100
AcDbEntity
  8
4
100
AcDbLine
 10
2302.372504886879
 20
153.6329138492804
 30
0.0
 11
2302.372504886879
 21
162.1619631424794
 31
0.0
  0
LINE
  5
114
330
17
100
AcDbEntity
  8
4
100
AcDbLine
 10
2302.372504886879
 20
153.6329138492804
 30
0.0
 11
2299.372603480133
 21
153.8301744126013
 31
0.0
  0
LINE
  5
115
330
17
100
AcDbEntity
  8
4
100
AcDbLine
 10
2302.372504886879
 20
170.6907729990583
 30
0.0
 11
2299.372603480133
 21
170.4935053934844
 31
0.0
  0
LINE
  5
116
330
17
100
AcDbEntity
  8
4
100
AcDbLine
 10
2302.372504886879
 20
170.6907729990583
 30
0.0
 11
2302.372504886879
 21
162.1617237058592
 31
0.0
  0
LINE
  5
117
330
17
100
AcDbEntity
  8
L-CENTER
 48
2.0
100
AcDbLine
 10
2314.075140742379
 20
256.1619631140913
 30
0.0
 11
2280.080857007086
 21
256.1619631140913
 31
0.0
  0
LINE
  5
119
330
17
100
AcDbEntity
  8
4
100
AcDbLine
 10
1928.372603592176
 20
112.1619631575793
 30
0.0
 11
1866.3726036109
 21
112.1619631575793
 31
0.0
  0
LINE
  5
11A
330
17
100
AcDbEntity
  8
4
100
AcDbLine
 10
1928.372603592176
 20
112.1619631575793
 30
0.0
 11
1908.372603598216
 21
132.1619631515393
 31
0.0
  0
LINE
  5
11B
330
17
100
AcDbEntity
  8
4
100
AcDbLine
 10
2072.372603548687
 20
112.1619631575793
 30
0.0
 11
2134.372603529963
 21
112.1619631575793
 31
0.0
  0
LINE
  5
11C
330
17
100
AcDbEntity
  8
4
100
AcDbLine
 10
2072.372603548687
 20
112.1619631575793
 30
0.0
 11
2092.372603542648
 21
132.1619631515393
 31
0.0
  0
ARC
  5
11D
330
17
100
AcDbEntity
  8
4
100
AcDbCircle
 10
2120.576702125679
 20
145.2322589711819
 30
0.0
 40
150.0000422082211
100
AcDbArc
 50
2.988961999999957
 51
37.36478799999997
  0
ARC
  5
11E
330
17
100
AcDbEntity
  8
4
100
AcDbCircle
 10
2335.16947670876
 20
145.2322589711819
 30
0.0
 40
149.9999013631507
100
AcDbArc
 50
142.635622
 51
177.0115969999999
  0
ARC
  5
11F
330
17
100
AcDbEntity
  8
4
100
AcDbCircle
 10
2227.873089417219
 20
227.1619420450309
 30
0.0
 40
15.00002112223056
100
AcDbArc
 50
37.36452799999835
 51
142.6354719999985
  0
LINE
  5
120
330
17
100
AcDbEntity
  8
4
100
AcDbLine
 10
1815.372603626302
 20
171.1619631397614
 30
0.0
 11
1815.372603626302
 21
108.1619631593919
 31
0.0
  0
LINE
  5
121
330
17
100
AcDbEntity
  8
4
100
AcDbLine
 10
1814.641892358917
 20
177.1619631379492
 30
0.0
 11
1830.372603621772
 21
177.1619631379492
 31
0.0
  0
LINE
  5
122
330
17
100
AcDbEntity
  8
4
100
AcDbLine
 10
2185.372603514561
 20
177.1619631379492
 30
0.0
 11
2185.372603514561
 21
108.1619631593915
 31
0.0
  0
LINE
  5
123
330
17
100
AcDbEntity
  8
4
100
AcDbLine
 10
2185.372603514561
 20
177.1619631379492
 30
0.0
 11
2170.372603519093
 21
177.1619631379492
 31
0.0
  0
LINE
  5
124
330
17
100
AcDbEntity
  8
4
100
AcDbLine
 10
2170.372603519093
 20
177.1619631379492
 30
0.0
 11
2170.372603519093
 21
66.16196317147137
 31
0.0
  0
LINE
  5
125
330
17
100
AcDbEntity
  8
4
100
AcDbLine
 10
1790.372603633852
 20
196.1619631322112
 30
0.0
 11
1761.142131811694
 21
196.1619631322112
 31
0.0
  0
ARC
  5
126
330
17
100
AcDbEntity
  8
4
100
AcDbCircle
 10
1790.372603633852
 20
171.1619631397614
 30
0.0
 40
24.99999999245
100
AcDbArc
 50
0.0
 51
90.0
  0
LINE
  5
127
330
17
100
AcDbEntity
  8
4
100
AcDbLine
 10
1830.372603621772
 20
177.1619631379492
 30
0.0
 11
1830.372603621772
 21
66.16196317147137
 31
0.0
  0
LINE
  5
128
330
17
100
AcDbEntity
  8
4
100
AcDbLine
 10
2290.372603482852
 20
132.1619631515393
 30
0.0
 11
2296.872603480889
 21
132.1619631515393
 31
0.0
  0
LINE
  5
129
330
17
100
AcDbEntity
  8
4
100
AcDbLine
 10
1710.372603658011
 20
181.771096939374
 30
0.0
 11
1710.372603658011
 21
66.16196317147137
 31
0.0
  0
LINE
  5
12A
330
17
100
AcDbEntity
  8
L-CENTER
 48
2.0
100
AcDbLine
 10
1705.372603659522
 20
431.9556672863539
 30
0.0
 11
1705.372603659522
 21
160.368258917669
 31
0.0
  0
LINE
  5
12B
330
17
100
AcDbEntity
  8
4
100
AcDbLine
 10
1703.872603659975
 20
410.6521954618013
 30
0.0
 11
1703.872603659975
 21
412.1619630669791
 31
0.0
  0
LINE
  5
12C
330
17
100
AcDbEntity
  8
4
100
AcDbLine
 10
1703.872603659975
 20
412.1619630669791
 30
0.0
 11
2296.872603480889
 21
412.1619630669791
 31
0.0
  0
LINE
  5
12D
330
17
100
AcDbEntity
  8
4
100
AcDbLine
 10
2290.372603482852
 20
132.1619631515393
 30
0.0
 11
2290.372603482852
 21
66.16196317147137
 31
0.0
  0
LINE
  5
12E
330
17
100
AcDbEntity
  8
4
100
AcDbLine
 10
2296.872603480889
 20
132.1619631515393
 30
0.0
 11
2296.872603480889
 21
412.1619630669791
 31
0.0
  0
LINE
  5
12F
330
17
100
AcDbEntity
  8
4
100
AcDbLine
 10
2296.872603480889
 20
147.1619631470091
 30
0.0
 11
2299.372603480133
 21
147.1619631470091
 31
0.0
  0
LINE
  5
130
330
17
100
AcDbEntity
  8
4
100
AcDbLine
 10
2299.372603480133
 20
147.1619631470091
 30
0.0
 11
2299.372603480133
 21
236.1619631201313
 31
0.0
  0
LINE
  5
131
330
17
100
AcDbEntity
  8
4
100
AcDbLine
 10
2296.872603480889
 20
276.1619631080514
 30
0.0
 11
2302.372603479228
 21
276.1619631080514
 31
0.0
  0
LINE
  5
132
330
17
100
AcDbEntity
  8
4
100
AcDbLine
 10
2296.872603480889
 20
236.1619631201313
 30
0.0
 11
2302.372603479228
 21
236.1619631201313
 31
0.0
  0
LINE
  5
133
330
17
100
AcDbEntity
  8
4
100
AcDbLine
 10
2302.372603479228
 20
236.1619631201313
 30
0.0
 11
2302.372603479228
 21
276.1619631080514
 31
0.0
  0
LINE
  5
134
330
17
100
AcDbEntity
  8
4
100
AcDbLine
 10
2293.872603481794
 20
412.1619630669791
 30
0.0
 11
2293.872603481794
 21
415.1619630660732
 31
0.0
  0
LINE
  5
135
330
17
100
AcDbEntity
  8
4
100
AcDbLine
 10
2293.872603481794
 20
415.1619630660732
 30
0.0
 11
1706.872603659069
 21
415.1619630660732
 31
0.0
  0
LINE
  5
136
330
17
100
AcDbEntity
  8
4
100
AcDbLine
 10
2293.872603481794
 20
415.4619630660732
 30
0.0
 11
1706.872603659069
 21
415.4619630660732
 31
0.0
  0
LINE
  5
137
330
17
100
AcDbEntity
  8
4
100
AcDbLine
 10
1706.872603659069
 20
412.1619630669791
 30
0.0
 11
1706.872603659069
 21
415.1619630660732
 31
0.0
  0
ARC
  5
138
330
17
100
AcDbEntity
  8
4
100
AcDbCircle
 10
1705.372603659522
 20
-189.338036751368
 30
0.0
 40
600.0000068610535
100
AcDbArc
 50
89.99997700000003
 51
100.013902
  0
ARC
  5
139
330
17
100
AcDbEntity
  8
4
100
AcDbCircle
 10
1705.372603659522
 20
781.6619629553904
 30
0.0
 40
599.9999927765465
100
AcDbArc
 50
259.986784
 51
270.000886
  0
ARC
  5
13A
330
17
100
AcDbEntity
  8
4
100
AcDbCircle
 10
2188.372603513656
 20
296.1619631020114
 30
0.0
 40
600.0000561568281
100
AcDbArc
 50
170.282462
 51
189.7180099999999
  0
ARC
  5
13B
330
17
100
AcDbEntity
  8
4
100
AcDbCircle
 10
1601.91068819781
 20
396.5977588463277
 30
0.0
 40
4.999999998490001
100
AcDbArc
 50
100.016073000009
 51
170.2819550000015
  0
ARC
  5
13C
330
17
100
AcDbEntity
  8
4
100
AcDbCircle
 10
1601.91068819781
 20
195.7261743999486
 30
0.0
 40
4.999999998490001
100
AcDbArc
 50
189.7180449999985
 51
259.9839269999907
  0
LINE
  5
13D
330
17
100
AcDbEntity
  8
L-CENTER
 48
2.0
100
AcDbLine
 10
1770.372603639892
 20
46.16196317147137
 30
0.0
 11
1770.372603639892
 21
128.1619631593915
 31
0.0
  0
LINE
  5
13E
330
17
100
AcDbEntity
  8
L-CENTER
 48
2.0
100
AcDbLine
 10
2230.372603500972
 20
46.16196317147137
 30
0.0
 11
2230.372603500972
 21
128.1619631593915
 31
0.0
  0
CIRCLE
  5
13F
330
17
100
AcDbEntity
  8
4
100
AcDbCircle
 10
1705.372603659522
 20
296.1619631020114
 30
0.0
 40
114.499999965421
  0
LINE
  5
140
330
17
100
AcDbEntity
  8
4
100
AcDbLine
 10
1845.372603617242
 20
108.1619631593915
 30
0.0
 11
1845.372603617242
 21
66.16196317147137
 31
0.0
  0
LINE
  5
141
330
17
100
AcDbEntity
  8
4
100
AcDbLine
 10
1845.372603617242
 20
66.16196317147137
 30
0.0
 11
1710.372603658011
 21
66.16196317147137
 31
0.0
  0
LINE
  5
142
330
17
100
AcDbEntity
  8
4
100
AcDbLine
 10
1886.37260360486
 20
112.1619631575793
 30
0.0
 11
1892.372603603048
 21
106.1619631593915
 31
0.0
  0
LINE
  5
143
330
17
100
AcDbEntity
  8
4
100
AcDbLine
 10
1886.37260360486
 20
132.1619631515393
 30
0.0
 11
1845.372603617242
 21
91.1619631639212
 31
0.0
  0
LINE
  5
144
330
17
100
AcDbEntity
  8
4
100
AcDbLine
 10
2000.372603570432
 20
106.1619631593915
 30
0.0
 11
1892.372603603048
 21
106.1619631593915
 31
0.0
  0
LINE
  5
145
330
17
100
AcDbEntity
  8
4
100
AcDbLine
 10
2000.372603570432
 20
132.1619631515393
 30
0.0
 11
1886.37260360486
 21
132.1619631515393
 31
0.0
  0
ARC
  5
146
330
17
100
AcDbEntity
  8
4
100
AcDbCircle
 10
1713.372603657107
 20
105.1619631602973
 30
0.0
 40
2.999999999094
100
AcDbArc
 50
90.0
 51
180.0
  0
LINE
  5
147
330
17
100
AcDbEntity
  8
4
100
AcDbLine
 10
1713.372603657107
 20
108.1619631593915
 30
0.0
 11
1845.372603617242
 21
108.1619631593915
 31
0.0
  0
LINE
  5
148
330
17
100
AcDbEntity
  8
4
100
AcDbLine
 10
2287.372603483759
 20
108.1619631593915
 30
0.0
 11
2155.372603523622
 21
108.1619631593915
 31
0.0
  0
ARC
  5
149
330
17
100
AcDbEntity
  8
4
100
AcDbCircle
 10
2287.372603483759
 20
105.1619631602973
 30
0.0
 40
2.999999999094
100
AcDbArc
 50
0.0
 51
90.0
  0
LINE
  5
14A
330
17
100
AcDbEntity
  8
4
100
AcDbLine
 10
2000.372603570432
 20
132.1619631515393
 30
0.0
 11
2114.372603536004
 21
132.1619631515393
 31
0.0
  0
LINE
  5
14B
330
17
100
AcDbEntity
  8
4
100
AcDbLine
 10
2000.372603570432
 20
106.1619631593915
 30
0.0
 11
2108.372603537815
 21
106.1619631593915
 31
0.0
  0
LINE
  5
14C
330
17
100
AcDbEntity
  8
4
100
AcDbLine
 10
2114.372603536004
 20
132.1619631515393
 30
0.0
 11
2155.372603523622
 21
91.1619631639212
 31
0.0
  0
LINE
  5
14D
330
17
100
AcDbEntity
  8
4
100
AcDbLine
 10
2114.372603536004
 20
112.1619631575793
 30
0.0
 11
2108.372603537815
 21
106.1619631593915
 31
0.0
  0
LINE
  5
14E
330
17
100
AcDbEntity
  8
4
100
AcDbLine
 10
2155.372603523622
 20
66.16196317147137
 30
0.0
 11
2290.372603482852
 21
66.16196317147137
 31
0.0
  0
LINE
  5
14F
330
17
100
AcDbEntity
  8
4
100
AcDbLine
 10
2170.372603519093
 20
106.1619631593915
 30
0.0
 11
2170.372603519093
 21
66.16196317147137
 31
0.0
  0
LINE
  5
150
330
17
100
AcDbEntity
  8
4
100
AcDbLine
 10
2155.372603523622
 20
108.1619631593915
 30
0.0
 11
2155.372603523622
 21
66.16196317147137
 31
0.0
  0
LINE
  5
151
330
17
100
AcDbEntity
  8
4
100
AcDbLine
 10
1988.372603574056
 20
654.6619629626382
 30
0.0
 11
1953.872603584021
 21
654.6619629626387
 31
0.0
  0
LINE
  5
152
330
17
100
AcDbEntity
  8
L-CENTER
 48
2.0
100
AcDbLine
 10
823.0339423394048
 20
665.0566981652712
 30
0.0
 11
823.0339423394048
 21
95.21769459467464
 31
0.0
  0
LINE
  5
153
330
17
100
AcDbEntity
  8
4
100
AcDbLine
 10
778.033942352542
 20
656.1619629621848
 30
0.0
 11
877.5339423258151
 21
656.1619629621853
 31
0.0
  0
LINE
  5
154
330
17
100
AcDbEntity
  8
4
100
AcDbLine
 10
776.5339423529949
 20
654.6619629626387
 30
0.0
 11
869.5339423258147
 21
654.6619629626387
 31
0.0
  0
LINE
  5
155
330
17
100
AcDbEntity
  8
4
100
AcDbLine
 10
877.5339423258151
 20
656.1619629621853
 30
0.0
 11
877.5339423258142
 21
506.1619629621844
 31
0.0
  0
LINE
  5
156
330
17
100
AcDbEntity
  8
4
100
AcDbLine
 10
869.5339423258147
 20
654.6619629626387
 30
0.0
 11
869.5339423258147
 21
496.1619630234911
 31
0.0
  0
LINE
  5
157
330
17
100
AcDbEntity
  8
4
100
AcDbLine
 10
868.0339423262676
 20
656.1619629621848
 30
0.0
 11
869.5339423258147
 21
654.6619629626387
 31
0.0
  0
LINE
  5
158
330
17
100
AcDbEntity
  8
4
100
AcDbLine
 10
776.5339423529949
 20
654.6619629626387
 30
0.0
 11
776.5339423529949
 21
496.1619630234911
 31
0.0
  0
LINE
  5
159
330
17
100
AcDbEntity
  8
4
100
AcDbLine
 10
778.033942352542
 20
656.1619629621848
 30
0.0
 11
776.5339423529949
 21
654.6619629626387
 31
0.0
  0
LINE
  5
15A
330
17
100
AcDbEntity
  8
4
100
AcDbLine
 10
869.5339423258147
 20
506.1619629621853
 30
0.0
 11
877.5339423258156
 21
506.1619629621853
 31
0.0
  0
LINE
  5
15B
330
17
100
AcDbEntity
  8
4
100
AcDbLine
 10
815.0339423394043
 20
496.1619630234916
 30
0.0
 11
775.5339423537498
 21
496.1619630234911
 31
0.0
  0
LINE
  5
15C
330
17
100
AcDbEntity
  8
4
100
AcDbLine
 10
2270.372684083858
 20
153.0537966494901
 30
0.0
 11
2270.372684083858
 21
108.1619631593915
 31
0.0
  0
LINE
  5
15D
330
17
100
AcDbEntity
  8
4
100
AcDbLine
 10
1135.33394224518
 20
391.5489631020107
 30
0.0
 11
1145.33394224518
 21
391.5489631020107
 31
0.0
  0
LINE
  5
15E
330
17
100
AcDbEntity
  8
4
100
AcDbLine
 10
1138.33394224518
 20
391.5489631020107
 30
0.0
 11
1138.33394224518
 21
369.648963102012
 31
0.0
  0
LINE
  5
15F
330
17
100
AcDbEntity
  8
4
 62
     3
100
AcDbLine
 10
1146.33394224518
 20
388.7989631020107
 30
0.0
 11
1146.33394224518
 21
372.398963102012
 31
0.0
  0
LINE
  5
160
330
17
100
AcDbEntity
  8
4
100
AcDbLine
 10
1135.33394224518
 20
369.648963102012
 30
0.0
 11
1145.33394224518
 21
369.648963102012
 31
0.0
  0
LINE
  5
161
330
17
100
AcDbEntity
  8
L-CENTER
 48
2.0
100
AcDbLine
 10
1106.486912665864
 20
380.5989631020113
 30
0.0
 11
1149.777822039751
 21
380.5989631020113
 31
0.0
  0
LINE
  5
162
330
17
100
AcDbEntity
  8
4
100
AcDbLine
 10
1138.33394224518
 20
375.148963102012
 30
0.0
 11
1145.333942245181
 21
375.148963102012
 31
0.0
  0
ARC
  5
163
330
17
100
AcDbEntity
  8
4
100
AcDbCircle
 10
1142.05269224518
 20
372.398963102012
 30
0.0
 40
4.281249999999739
100
AcDbArc
 50
320.0337869562023
 51
39.96621304379763
  0
ARC
  5
164
330
17
100
AcDbEntity
  8
4
100
AcDbCircle
 10
1142.05269224518
 20
388.7989631020107
 30
0.0
 40
4.281249999999739
100
AcDbArc
 50
320.0337869562023
 51
39.96621304379763
  0
ARC
  5
165
330
17
100
AcDbEntity
  8
4
100
AcDbCircle
 10
1130.982692245179
 20
380.5989631020104
 30
0.0
 40
15.35125000000168
100
AcDbArc
 50
339.2053329551341
 51
20.79466704487132
  0
LINE
  5
166
330
17
100
AcDbEntity
  8
4
100
AcDbLine
 10
1138.33394224518
 20
386.0489631020107
 30
0.0
 11
1145.333942245181
 21
386.0489631020107
 31
0.0
  0
LINE
  5
167
330
17
100
AcDbEntity
  8
L-CENTER
 48
2.0
100
AcDbLine
 10
1106.486912665864
 20
344.9119631020114
 30
0.0
 11
1149.777822039751
 21
344.9119631020114
 31
0.0
  0
ARC
  5
168
330
17
100
AcDbEntity
  8
4
100
AcDbCircle
 10
1142.05269224518
 20
353.1119631020108
 30
0.0
 40
4.281249999999739
100
AcDbArc
 50
320.0337869562023
 51
39.96621304379763
  0
LINE
  5
169
330
17
100
AcDbEntity
  8
4
100
AcDbLine
 10
1138.33394224518
 20
355.8619631020108
 30
0.0
 11
1138.33394224518
 21
333.9619631020121
 31
0.0
  0
ARC
  5
16A
330
17
100
AcDbEntity
  8
4
100
AcDbCircle
 10
1142.05269224518
 20
336.7119631020121
 30
0.0
 40
4.281249999999739
100
AcDbArc
 50
320.0337869562023
 51
39.96621304379763
  0
ARC
  5
16B
330
17
100
AcDbEntity
  8
4
100
AcDbCircle
 10
1130.982692245179
 20
344.9119631020105
 30
0.0
 40
15.35125000000168
100
AcDbArc
 50
339.2053329551341
 51
20.79466704487132
  0
LINE
  5
16C
330
17
100
AcDbEntity
  8
4
 62
     3
100
AcDbLine
 10
1146.33394224518
 20
353.1119631020108
 30
0.0
 11
1146.33394224518
 21
336.7119631020121
 31
0.0
  0
LINE
  5
16D
330
17
100
AcDbEntity
  8
4
100
AcDbLine
 10
1138.33394224518
 20
350.3619631020108
 30
0.0
 11
1145.333942245181
 21
350.3619631020108
 31
0.0
  0
LINE
  5
16E
330
17
100
AcDbEntity
  8
4
100
AcDbLine
 10
1138.33394224518
 20
339.4619631020121
 30
0.0
 11
1145.333942245181
 21
339.4619631020121
 31
0.0
  0
LINE
  5
16F
330
17
100
AcDbEntity
  8
4
100
AcDbLine
 10
1135.33394224518
 20
333.9619631020121
 30
0.0
 11
1145.33394224518
 21
333.9619631020121
 31
0.0
  0
LINE
  5
170
330
17
100
AcDbEntity
  8
4
100
AcDbLine
 10
1135.33394224518
 20
355.8619631020108
 30
0.0
 11
1145.33394224518
 21
355.8619631020108
 31
0.0
  0
LINE
  5
171
330
17
100
AcDbEntity
  8
L-CENTER
 48
2.0
100
AcDbLine
 10
1106.486912665864
 20
247.4119631020114
 30
0.0
 11
1149.777822039751
 21
247.4119631020114
 31
0.0
  0
LINE
  5
172
330
17
100
AcDbEntity
  8
L-CENTER
 48
2.0
100
AcDbLine
 10
1106.486912665864
 20
211.7249631020115
 30
0.0
 11
1149.777822039751
 21
211.7249631020115
 31
0.0
  0
LINE
  5
173
330
17
100
AcDbEntity
  8
4
 62
     3
100
AcDbLine
 10
1146.33394224518
 20
239.2119631020121
 30
0.0
 11
1146.33394224518
 21
255.6119631020108
 31
0.0
  0
ARC
  5
174
330
17
100
AcDbEntity
  8
4
100
AcDbCircle
 10
1130.982692245179
 20
247.4119631020124
 30
0.0
 40
15.35125000000168
100
AcDbArc
 50
339.2053329551276
 51
20.79466704486517
  0
LINE
  5
175
330
17
100
AcDbEntity
  8
4
100
AcDbLine
 10
1138.33394224518
 20
236.4619631020121
 30
0.0
 11
1138.33394224518
 21
258.3619631020108
 31
0.0
  0
LINE
  5
176
330
17
100
AcDbEntity
  8
4
100
AcDbLine
 10
1135.33394224518
 20
258.3619631020108
 30
0.0
 11
1145.33394224518
 21
258.3619631020108
 31
0.0
  0
LINE
  5
177
330
17
100
AcDbEntity
  8
4
100
AcDbLine
 10
1138.33394224518
 20
252.8619631020108
 30
0.0
 11
1145.333942245181
 21
252.8619631020108
 31
0.0
  0
ARC
  5
178
330
17
100
AcDbEntity
  8
4
100
AcDbCircle
 10
1142.05269224518
 20
255.6119631020108
 30
0.0
 40
4.281249999999739
100
AcDbArc
 50
320.0337869562023
 51
39.96621304379763
  0
ARC
  5
179
330
17
100
AcDbEntity
  8
4
100
AcDbCircle
 10
1142.05269224518
 20
203.5249631020122
 30
0.0
 40
4.281249999999739
100
AcDbArc
 50
320.0337869562005
 51
39.96621304379958
  0
LINE
  5
17A
330
17
100
AcDbEntity
  8
4
100
AcDbLine
 10
1138.33394224518
 20
200.7749631020122
 30
0.0
 11
1138.33394224518
 21
222.6749631020109
 31
0.0
  0
LINE
  5
17B
330
17
100
AcDbEntity
  8
4
100
AcDbLine
 10
1135.33394224518
 20
236.4619631020121
 30
0.0
 11
1145.33394224518
 21
236.4619631020121
 31
0.0
  0
LINE
  5
17C
330
17
100
AcDbEntity
  8
4
100
AcDbLine
 10
1138.33394224518
 20
241.9619631020121
 30
0.0
 11
1145.333942245181
 21
241.9619631020121
 31
0.0
  0
ARC
  5
17D
330
17
100
AcDbEntity
  8
4
100
AcDbCircle
 10
1142.05269224518
 20
239.2119631020121
 30
0.0
 40
4.281249999999739
100
AcDbArc
 50
320.0337869562023
 51
39.96621304379763
  0
ARC
  5
17E
330
17
100
AcDbEntity
  8
4
100
AcDbCircle
 10
1142.05269224518
 20
219.9249631020109
 30
0.0
 40
4.281249999999739
100
AcDbArc
 50
320.0337869562023
 51
39.96621304379763
  0
ARC
  5
17F
330
17
100
AcDbEntity
  8
4
100
AcDbCircle
 10
1130.982692245179
 20
211.7249631020125
 30
0.0
 40
15.35125000000168
100
AcDbArc
 50
339.205332955128
 51
20.79466704486517
  0
LINE
  5
180
330
17
100
AcDbEntity
  8
4
 62
     3
100
AcDbLine
 10
1146.33394224518
 20
203.5249631020122
 30
0.0
 11
1146.33394224518
 21
219.9249631020109
 31
0.0
  0
LINE
  5
181
330
17
100
AcDbEntity
  8
4
100
AcDbLine
 10
1138.33394224518
 20
206.2749631020122
 30
0.0
 11
1145.333942245181
 21
206.2749631020122
 31
0.0
  0
LINE
  5
182
330
17
100
AcDbEntity
  8
4
100
AcDbLine
 10
1138.33394224518
 20
217.1749631020109
 30
0.0
 11
1145.333942245181
 21
217.1749631020109
 31
0.0
  0
LINE
  5
183
330
17
100
AcDbEntity
  8
4
100
AcDbLine
 10
1135.33394224518
 20
222.6749631020109
 30
0.0
 11
1145.33394224518
 21
222.6749631020109
 31
0.0
  0
LINE
  5
184
330
17
100
AcDbEntity
  8
4
100
AcDbLine
 10
1135.33394224518
 20
200.7749631020122
 30
0.0
 11
1145.33394224518
 21
200.7749631020122
 31
0.0
  0
LINE
  5
185
330
17
100
AcDbEntity
  8
4
100
AcDbLine
 10
510.7339424336287
 20
200.7749631020122
 30
0.0
 11
500.7339424336287
 21
200.7749631020122
 31
0.0
  0
LINE
  5
186
330
17
100
AcDbEntity
  8
4
100
AcDbLine
 10
510.7339424336287
 20
222.6749631020109
 30
0.0
 11
500.7339424336287
 21
222.6749631020109
 31
0.0
  0
LINE
  5
187
330
17
100
AcDbEntity
  8
4
100
AcDbLine
 10
507.7339424336287
 20
217.1749631020109
 30
0.0
 11
500.7339424336283
 21
217.1749631020109
 31
0.0
  0
LINE
  5
188
330
17
100
AcDbEntity
  8
4
100
AcDbLine
 10
507.7339424336287
 20
206.2749631020122
 30
0.0
 11
500.7339424336283
 21
206.2749631020122
 31
0.0
  0
LINE
  5
189
330
17
100
AcDbEntity
  8
4
 62
     3
100
AcDbLine
 10
499.7339424336287
 20
203.5249631020122
 30
0.0
 11
499.7339424336287
 21
219.9249631020109
 31
0.0
  0
ARC
  5
18A
330
17
100
AcDbEntity
  8
4
100
AcDbCircle
 10
515.0851924336303
 20
211.7249631020125
 30
0.0
 40
15.35125000000168
100
AcDbArc
 50
159.2053329551331
 51
200.7946670448714
  0
ARC
  5
18B
330
17
100
AcDbEntity
  8
4
100
AcDbCircle
 10
504.0151924336283
 20
219.9249631020109
 30
0.0
 40
4.281249999999739
100
AcDbArc
 50
140.0337869561971
 51
219.9662130438029
  0
LINE
  5
18C
330
17
100
AcDbEntity
  8
4
100
AcDbLine
 10
507.7339424336287
 20
200.7749631020122
 30
0.0
 11
507.7339424336287
 21
222.6749631020109
 31
0.0
  0
ARC
  5
18D
330
17
100
AcDbEntity
  8
4
100
AcDbCircle
 10
504.0151924336283
 20
203.5249631020122
 30
0.0
 40
4.281249999999739
100
AcDbArc
 50
140.0337869561971
 51
219.9662130438029
  0
ARC
  5
18E
330
17
100
AcDbEntity
  8
4
100
AcDbCircle
 10
504.0151924336283
 20
239.2119631020121
 30
0.0
 40
4.281249999999739
100
AcDbArc
 50
140.0337869561971
 51
219.9662130438029
  0
LINE
  5
18F
330
17
100
AcDbEntity
  8
4
100
AcDbLine
 10
507.7339424336287
 20
241.9619631020121
 30
0.0
 11
500.7339424336283
 21
241.9619631020121
 31
0.0
  0
LINE
  5
190
330
17
100
AcDbEntity
  8
4
100
AcDbLine
 10
510.7339424336287
 20
236.4619631020121
 30
0.0
 11
500.7339424336287
 21
236.4619631020121
 31
0.0
  0
ARC
  5
191
330
17
100
AcDbEntity
  8
4
100
AcDbCircle
 10
504.0151924336283
 20
255.6119631020108
 30
0.0
 40
4.281249999999739
100
AcDbArc
 50
140.0337869561971
 51
219.9662130438029
  0
LINE
  5
192
330
17
100
AcDbEntity
  8
4
100
AcDbLine
 10
507.7339424336287
 20
252.8619631020108
 30
0.0
 11
500.7339424336283
 21
252.8619631020108
 31
0.0
  0
LINE
  5
193
330
17
100
AcDbEntity
  8
4
100
AcDbLine
 10
510.7339424336287
 20
258.3619631020108
 30
0.0
 11
500.7339424336287
 21
258.3619631020108
 31
0.0
  0
LINE
  5
194
330
17
100
AcDbEntity
  8
4
100
AcDbLine
 10
507.7339424336287
 20
236.4619631020121
 30
0.0
 11
507.7339424336287
 21
258.3619631020108
 31
0.0
  0
ARC
  5
195
330
17
100
AcDbEntity
  8
4
100
AcDbCircle
 10
515.0851924336303
 20
247.4119631020124
 30
0.0
 40
15.35125000000168
100
AcDbArc
 50
159.2053329551331
 51
200.7946670448714
  0
LINE
  5
196
330
17
100
AcDbEntity
  8
4
 62
     3
100
AcDbLine
 10
499.7339424336287
 20
239.2119631020121
 30
0.0
 11
499.7339424336287
 21
255.6119631020108
 31
0.0
  0
LINE
  5
197
330
17
100
AcDbEntity
  8
4
 62
     3
100
AcDbLine
 10
499.7339424336287
 20
353.1119631020108
 30
0.0
 11
499.7339424336287
 21
336.7119631020121
 31
0.0
  0
ARC
  5
198
330
17
100
AcDbEntity
  8
4
100
AcDbCircle
 10
515.0851924336303
 20
344.9119631020105
 30
0.0
 40
15.35125000000168
100
AcDbArc
 50
159.2053329551286
 51
200.7946670448659
  0
LINE
  5
199
330
17
100
AcDbEntity
  8
4
100
AcDbLine
 10
507.7339424336287
 20
355.8619631020108
 30
0.0
 11
507.7339424336287
 21
333.9619631020121
 31
0.0
  0
LINE
  5
19A
330
17
100
AcDbEntity
  8
4
100
AcDbLine
 10
510.7339424336287
 20
333.9619631020121
 30
0.0
 11
500.7339424336287
 21
333.9619631020121
 31
0.0
  0
LINE
  5
19B
330
17
100
AcDbEntity
  8
4
100
AcDbLine
 10
507.7339424336287
 20
339.4619631020121
 30
0.0
 11
500.7339424336283
 21
339.4619631020121
 31
0.0
  0
ARC
  5
19C
330
17
100
AcDbEntity
  8
4
100
AcDbCircle
 10
504.0151924336283
 20
336.7119631020121
 30
0.0
 40
4.281249999999739
100
AcDbArc
 50
140.0337869561971
 51
219.9662130438029
  0
ARC
  5
19D
330
17
100
AcDbEntity
  8
4
100
AcDbCircle
 10
504.0151924336283
 20
388.7989631020107
 30
0.0
 40
4.281249999999739
100
AcDbArc
 50
140.0337869561971
 51
219.9662130438029
  0
LINE
  5
19E
330
17
100
AcDbEntity
  8
4
100
AcDbLine
 10
507.7339424336287
 20
391.5489631020107
 30
0.0
 11
507.7339424336287
 21
369.648963102012
 31
0.0
  0
LINE
  5
19F
330
17
100
AcDbEntity
  8
4
100
AcDbLine
 10
510.7339424336287
 20
355.8619631020108
 30
0.0
 11
500.7339424336287
 21
355.8619631020108
 31
0.0
  0
LINE
  5
1A0
330
17
100
AcDbEntity
  8
4
100
AcDbLine
 10
507.7339424336287
 20
350.3619631020108
 30
0.0
 11
500.7339424336283
 21
350.3619631020108
 31
0.0
  0
ARC
  5
1A1
330
17
100
AcDbEntity
  8
4
100
AcDbCircle
 10
504.0151924336283
 20
353.1119631020108
 30
0.0
 40
4.281249999999739
100
AcDbArc
 50
140.0337869561971
 51
219.9662130438029
  0
ARC
  5
1A2
330
17
100
AcDbEntity
  8
4
100
AcDbCircle
 10
504.0151924336283
 20
372.398963102012
 30
0.0
 40
4.281249999999739
100
AcDbArc
 50
140.0337869561971
 51
219.9662130438029
  0
ARC
  5
1A3
330
17
100
AcDbEntity
  8
4
100
AcDbCircle
 10
515.0851924336303
 20
380.5989631020104
 30
0.0
 40
15.35125000000168
100
AcDbArc
 50
159.2053329551286
 51
200.7946670448659
  0
LINE
  5
1A4
330
17
100
AcDbEntity
  8
4
 62
     3
100
AcDbLine
 10
499.7339424336287
 20
388.7989631020107
 30
0.0
 11
499.7339424336287
 21
372.398963102012
 31
0.0
  0
LINE
  5
1A5
330
17
100
AcDbEntity
  8
4
100
AcDbLine
 10
507.7339424336287
 20
386.0489631020107
 30
0.0
 11
500.7339424336283
 21
386.0489631020107
 31
0.0
  0
LINE
  5
1A6
330
17
100
AcDbEntity
  8
4
100
AcDbLine
 10
507.7339424336287
 20
375.148963102012
 30
0.0
 11
500.7339424336283
 21
375.148963102012
 31
0.0
  0
LINE
  5
1A7
330
17
100
AcDbEntity
  8
4
100
AcDbLine
 10
510.7339424336287
 20
369.648963102012
 30
0.0
 11
500.7339424336287
 21
369.648963102012
 31
0.0
  0
LINE
  5
1A8
330
17
100
AcDbEntity
  8
4
100
AcDbLine
 10
510.7339424336287
 20
391.5489631020107
 30
0.0
 11
500.7339424336287
 21
391.5489631020107
 31
0.0
  0
LINE
  5
1A9
330
17
100
AcDbEntity
  8
L-CENTER
 48
2.0
100
AcDbLine
 10
539.5809720129455
 20
380.5989631020113
 30
0.0
 11
496.2900626390583
 21
380.5989631020113
 31
0.0
  0
LINE
  5
1AA
330
17
100
AcDbEntity
  8
L-CENTER
 48
2.0
100
AcDbLine
 10
539.5809720129455
 20
344.9119631020114
 30
0.0
 11
496.2900626390583
 21
344.9119631020114
 31
0.0
  0
LINE
  5
1AB
330
17
100
AcDbEntity
  8
L-CENTER
 48
2.0
100
AcDbLine
 10
539.5809720129455
 20
247.4119631020114
 30
0.0
 11
496.2900626390583
 21
247.4119631020114
 31
0.0
  0
LINE
  5
1AC
330
17
100
AcDbEntity
  8
L-CENTER
 48
2.0
100
AcDbLine
 10
539.5809720129455
 20
211.7249631020115
 30
0.0
 11
496.2900626390583
 21
211.7249631020115
 31
0.0
  0
LINE
  5
1AD
330
17
100
AcDbEntity
  8
L-CENTER
 48
2.0
100
AcDbLine
 10
962.2839423394048
 20
413.6149334786023
 30
0.0
 11
962.2839423394048
 21
456.9058428524895
 31
0.0
  0
ARC
  5
1AE
330
17
100
AcDbEntity
  8
4
100
AcDbCircle
 10
954.0839423394054
 20
449.1807130579195
 30
0.0
 40
4.281249999999739
100
AcDbArc
 50
50.03378695619809
 51
129.9662130438019
  0
LINE
  5
1AF
330
17
100
AcDbEntity
  8
4
100
AcDbLine
 10
951.3339423394054
 20
445.4619630579191
 30
0.0
 11
973.2339423394042
 21
445.4619630579191
 31
0.0
  0
ARC
  5
1B0
330
17
100
AcDbEntity
  8
4
100
AcDbCircle
 10
970.4839423394042
 20
449.1807130579195
 30
0.0
 40
4.281249999999739
100
AcDbArc
 50
50.03378695619809
 51
129.9662130438019
  0
ARC
  5
1B1
330
17
100
AcDbEntity
  8
4
100
AcDbCircle
 10
962.2839423394057
 20
438.1107130579176
 30
0.0
 40
15.35125000000168
100
AcDbArc
 50
69.20533295513404
 51
110.7946670448713
  0
LINE
  5
1B2
330
17
100
AcDbEntity
  8
4
 62
     3
100
AcDbLine
 10
954.0839423394054
 20
453.4619630579191
 30
0.0
 11
970.4839423394042
 21
453.4619630579191
 31
0.0
  0
LINE
  5
1B3
330
17
100
AcDbEntity
  8
4
100
AcDbLine
 10
956.8339423394054
 20
445.4619630579191
 30
0.0
 11
956.8339423394054
 21
452.46196305792
 31
0.0
  0
LINE
  5
1B4
330
17
100
AcDbEntity
  8
4
100
AcDbLine
 10
967.7339423394042
 20
445.4619630579191
 30
0.0
 11
967.7339423394042
 21
452.46196305792
 31
0.0
  0
LINE
  5
1B5
330
17
100
AcDbEntity
  8
4
100
AcDbLine
 10
973.2339423394042
 20
442.4619630579191
 30
0.0
 11
973.2339423394042
 21
452.4619630579191
 31
0.0
  0
LINE
  5
1B6
330
17
100
AcDbEntity
  8
4
100
AcDbLine
 10
951.3339423394054
 20
442.4619630579191
 30
0.0
 11
951.3339423394054
 21
452.4619630579191
 31
0.0
  0
LINE
  5
1B7
330
17
100
AcDbEntity
  8
4
 62
     3
100
AcDbLine
 10
1093.333942339405
 20
453.4619630579191
 30
0.0
 11
1109.733942339405
 21
453.4619630579191
 31
0.0
  0
LINE
  5
1B8
330
17
100
AcDbEntity
  8
4
100
AcDbLine
 10
1090.583942339405
 20
445.4619630579191
 30
0.0
 11
1112.483942339405
 21
445.4619630579191
 31
0.0
  0
ARC
  5
1B9
330
17
100
AcDbEntity
  8
4
100
AcDbCircle
 10
1101.533942339406
 20
438.1107130579176
 30
0.0
 40
15.35125000000168
100
AcDbArc
 50
69.20533295513404
 51
110.7946670448732
  0
LINE
  5
1BA
330
17
100
AcDbEntity
  8
4
100
AcDbLine
 10
1096.083942339405
 20
445.4619630579191
 30
0.0
 11
1096.083942339405
 21
452.46196305792
 31
0.0
  0
LINE
  5
1BB
330
17
100
AcDbEntity
  8
4
100
AcDbLine
 10
1090.583942339405
 20
442.4619630579191
 30
0.0
 11
1090.583942339405
 21
452.4619630579191
 31
0.0
  0
ARC
  5
1BC
330
17
100
AcDbEntity
  8
4
100
AcDbCircle
 10
1093.333942339405
 20
449.1807130579195
 30
0.0
 40
4.281249999999739
100
AcDbArc
 50
50.03378695619809
 51
129.9662130438019
  0
LINE
  5
1BD
330
17
100
AcDbEntity
  8
4
100
AcDbLine
 10
1112.483942339405
 20
442.4619630579191
 30
0.0
 11
1112.483942339405
 21
452.4619630579191
 31
0.0
  0
LINE
  5
1BE
330
17
100
AcDbEntity
  8
4
100
AcDbLine
 10
1106.983942339405
 20
445.4619630579191
 30
0.0
 11
1106.983942339405
 21
452.46196305792
 31
0.0
  0
ARC
  5
1BF
330
17
100
AcDbEntity
  8
4
100
AcDbCircle
 10
1109.733942339405
 20
449.1807130579195
 30
0.0
 40
4.281249999999739
100
AcDbArc
 50
50.03378695619809
 51
129.9662130438019
  0
LINE
  5
1C0
330
17
100
AcDbEntity
  8
L-CENTER
 48
2.0
100
AcDbLine
 10
1101.533942339405
 20
413.6149334786023
 30
0.0
 11
1101.533942339405
 21
456.9058428524895
 31
0.0
  0
LINE
  5
1C1
330
17
100
AcDbEntity
  8
4
 62
     3
100
AcDbLine
 10
691.9839423394042
 20
453.4619630579191
 30
0.0
 11
675.5839423394054
 21
453.4619630579191
 31
0.0
  0
LINE
  5
1C2
330
17
100
AcDbEntity
  8
4
100
AcDbLine
 10
694.7339423394042
 20
445.4619630579191
 30
0.0
 11
672.8339423394054
 21
445.4619630579191
 31
0.0
  0
ARC
  5
1C3
330
17
100
AcDbEntity
  8
4
100
AcDbCircle
 10
683.7839423394034
 20
438.1107130579176
 30
0.0
 40
15.35125000000168
100
AcDbArc
 50
69.20533295512868
 51
110.794667044866
  0
LINE
  5
1C4
330
17
100
AcDbEntity
  8
4
100
AcDbLine
 10
689.2339423394042
 20
445.4619630579191
 30
0.0
 11
689.2339423394042
 21
452.46196305792
 31
0.0
  0
LINE
  5
1C5
330
17
100
AcDbEntity
  8
4
100
AcDbLine
 10
694.7339423394042
 20
442.4619630579191
 30
0.0
 11
694.7339423394042
 21
452.4619630579191
 31
0.0
  0
ARC
  5
1C6
330
17
100
AcDbEntity
  8
4
100
AcDbCircle
 10
691.9839423394037
 20
449.1807130579195
 30
0.0
 40
4.281249999999739
100
AcDbArc
 50
50.03378695619809
 51
129.9662130438019
  0
LINE
  5
1C7
330
17
100
AcDbEntity
  8
4
100
AcDbLine
 10
672.8339423394054
 20
442.4619630579191
 30
0.0
 11
672.8339423394054
 21
452.4619630579191
 31
0.0
  0
LINE
  5
1C8
330
17
100
AcDbEntity
  8
4
100
AcDbLine
 10
678.3339423394054
 20
445.4619630579191
 30
0.0
 11
678.3339423394054
 21
452.46196305792
 31
0.0
  0
ARC
  5
1C9
330
17
100
AcDbEntity
  8
4
100
AcDbCircle
 10
675.583942339405
 20
449.1807130579195
 30
0.0
 40
4.281249999999739
100
AcDbArc
 50
50.03378695619809
 51
129.9662130438019
  0
LINE
  5
1CA
330
17
100
AcDbEntity
  8
L-CENTER
 48
2.0
100
AcDbLine
 10
683.7839423394048
 20
413.6149334786023
 30
0.0
 11
683.7839423394048
 21
456.9058428524895
 31
0.0
  0
ARC
  5
1CB
330
17
100
AcDbEntity
  8
4
100
AcDbCircle
 10
536.333942339405
 20
449.1807130579195
 30
0.0
 40
4.281249999999739
100
AcDbArc
 50
50.03378695619809
 51
129.9662130438019
  0
LINE
  5
1CC
330
17
100
AcDbEntity
  8
4
100
AcDbLine
 10
539.0839423394054
 20
445.4619630579191
 30
0.0
 11
539.0839423394054
 21
452.46196305792
 31
0.0
  0
LINE
  5
1CD
330
17
100
AcDbEntity
  8
4
100
AcDbLine
 10
533.5839423394054
 20
442.4619630579191
 30
0.0
 11
533.5839423394054
 21
452.4619630579191
 31
0.0
  0
ARC
  5
1CE
330
17
100
AcDbEntity
  8
4
100
AcDbCircle
 10
552.7339423394037
 20
449.1807130579195
 30
0.0
 40
4.281249999999739
100
AcDbArc
 50
50.03378695619809
 51
129.9662130438019
  0
LINE
  5
1CF
330
17
100
AcDbEntity
  8
4
100
AcDbLine
 10
555.4839423394042
 20
442.4619630579191
 30
0.0
 11
555.4839423394042
 21
452.4619630579191
 31
0.0
  0
LINE
  5
1D0
330
17
100
AcDbEntity
  8
4
100
AcDbLine
 10
549.9839423394042
 20
445.4619630579191
 30
0.0
 11
549.9839423394042
 21
452.46196305792
 31
0.0
  0
ARC
  5
1D1
330
17
100
AcDbEntity
  8
4
100
AcDbCircle
 10
544.5339423394034
 20
438.1107130579176
 30
0.0
 40
15.35125000000168
100
AcDbArc
 50
69.20533295512868
 51
110.794667044866
  0
LINE
  5
1D2
330
17
100
AcDbEntity
  8
4
100
AcDbLine
 10
555.4839423394042
 20
445.4619630579191
 30
0.0
 11
533.5839423394054
 21
445.4619630579191
 31
0.0
  0
LINE
  5
1D3
330
17
100
AcDbEntity
  8
4
 62
     3
100
AcDbLine
 10
552.7339423394042
 20
453.4619630579191
 30
0.0
 11
536.3339423394054
 21
453.4619630579191
 31
0.0
  0
LINE
  5
1D4
330
17
100
AcDbEntity
  8
L-CENTER
 48
2.0
100
AcDbLine
 10
544.5339423394048
 20
413.6149334786023
 30
0.0
 11
544.5339423394048
 21
456.9058428524895
 31
0.0
  0
LINE
  5
1D5
330
17
100
AcDbEntity
  8
L-CENTER
 48
2.0
100
AcDbLine
 10
2241.560603570432
 20
413.6149334786023
 30
0.0
 11
2241.560603570432
 21
456.9058428524895
 31
0.0
  0
LINE
  5
1D6
330
17
100
AcDbEntity
  8
L-CENTER
 48
2.0
100
AcDbLine
 10
1759.184603570432
 20
413.6149334786023
 30
0.0
 11
1759.184603570432
 21
456.9058428524895
 31
0.0
  0
ARC
  5
1E3
330
17
100
AcDbEntity
  8
4
100
AcDbCircle
 10
119.5339423394048
 20
1471.308021226101
 30
0.0
 40
1000.0
100
AcDbArc
 50
344.9966502307968
 51
15.00334976920323
  0
ARC
  5
1E4
330
17
100
AcDbEntity
  8
4
100
AcDbCircle
 10
1526.533942339404
 20
1471.308021226101
 30
0.0
 40
1000.0
100
AcDbArc
 50
164.9966502307968
 51
195.0033497692032
  0
LINE
  5
1E5
330
17
100
AcDbEntity
  8
L-CENTER
 48
2.0
100
AcDbLine
 10
823.0339423394048
 20
1044.308021226101
 30
0.0
 11
823.0339423394048
 21
1789.555261468019
 31
0.0
  0
LINE
  5
1E6
330
17
100
AcDbEntity
  8
L-CENTER
 48
2.0
100
AcDbLine
 10
1134.533942339404
 20
1471.308021226101
 30
0.0
 11
511.5339423394048
 21
1471.308021226101
 31
0.0
  0
LINE
  5
1E7
330
17
100
AcDbEntity
  8
4
100
AcDbLine
 10
536.0339423394048
 20
1059.308021226101
 30
0.0
 11
1110.033942339404
 21
1059.308021226101
 31
0.0
  0
LINE
  5
1E8
330
17
100
AcDbEntity
  8
L-CENTER
 48
2.0
100
AcDbLine
 10
1156.46528848356
 20
1176.308021226101
 30
0.0
 11
359.0310129020695
 21
1176.308021226101
 31
0.0
  0
LINE
  5
1E9
330
17
100
AcDbEntity
  8
4
100
AcDbLine
 10
1163.033942339405
 20
1186.308021226101
 30
0.0
 11
1163.033942339405
 21
1297.478438639632
 31
0.0
  0
LINE
  5
1EA
330
17
100
AcDbEntity
  8
4
100
AcDbLine
 10
536.0339423394048
 20
1196.308021226101
 30
0.0
 11
536.0339423394048
 21
1333.795294542349
 31
0.0
  0
ARC
  5
1EB
330
17
100
AcDbEntity
  8
4
100
AcDbCircle
 10
823.0339423394048
 20
2174.808021226101
 30
0.0
 40
1000.0
100
AcDbArc
 50
254.9966502307968
 51
285.0033497692032
  0
LINE
  5
1EC
330
17
100
AcDbEntity
  8
4
100
AcDbLine
 10
531.0339423394048
 20
1061.808021226101
 30
0.0
 11
531.0339423394048
 21
1290.808021226101
 31
0.0
  0
LINE
  5
1ED
330
17
100
AcDbEntity
  8
4
100
AcDbLine
 10
530.7339423394046
 20
1061.808021226101
 30
0.0
 11
530.7339423394046
 21
1290.808021226101
 31
0.0
  0
LINE
  5
1EE
330
17
100
AcDbEntity
  8
4
100
AcDbLine
 10
536.0339423394048
 20
1061.808021226101
 30
0.0
 11
511.7339423394046
 21
1061.808021226101
 31
0.0
  0
LINE
  5
1EF
330
17
100
AcDbEntity
  8
4
100
AcDbLine
 10
1158.033942339405
 20
1181.308021226101
 30
0.0
 11
1146.033942339405
 21
1181.308021226101
 31
0.0
  0
ARC
  5
1F0
330
17
100
AcDbEntity
  8
4
100
AcDbCircle
 10
1158.033942339405
 20
1186.308021226101
 30
0.0
 40
5.0
100
AcDbArc
 50
270.0
 51
0.0
  0
LINE
  5
1F1
330
17
100
AcDbEntity
  8
4
100
AcDbLine
 10
536.0339423394048
 20
1059.308021226101
 30
0.0
 11
536.0339423394048
 21
1156.308021226101
 31
0.0
  0
LINE
  5
1F2
330
17
100
AcDbEntity
  8
4
100
AcDbLine
 10
773.0339423394048
 20
1140.308021226101
 30
0.0
 11
773.0339423394048
 21
1114.308021226101
 31
0.0
  0
LINE
  5
1F3
330
17
100
AcDbEntity
  8
4
100
AcDbLine
 10
781.0339423394048
 20
1140.308021226101
 30
0.0
 11
781.0339423394048
 21
1114.308021226101
 31
0.0
  0
LINE
  5
1F4
330
17
100
AcDbEntity
  8
4
100
AcDbLine
 10
747.0339423394048
 20
1114.308021226101
 30
0.0
 11
747.0339423394048
 21
1140.308021226101
 31
0.0
  0
LINE
  5
1F5
330
17
100
AcDbEntity
  8
4
100
AcDbLine
 10
739.0339423394048
 20
1114.308021226101
 30
0.0
 11
739.0339423394048
 21
1140.308021226101
 31
0.0
  0
ARC
  5
1F6
330
17
100
AcDbEntity
  8
4
100
AcDbCircle
 10
760.0339423394048
 20
1114.308021226101
 30
0.0
 40
21.0
100
AcDbArc
 50
180.0
 51
0.0
  0
ARC
  5
1F7
330
17
100
AcDbEntity
  8
4
100
AcDbCircle
 10
760.0339423394048
 20
1114.308021226101
 30
0.0
 40
13.0
100
AcDbArc
 50
180.0
 51
0.0
  0
ARC
  5
1F8
330
17
100
AcDbEntity
  8
4
100
AcDbCircle
 10
760.0339423394048
 20
1140.308021226101
 30
0.0
 40
21.0
100
AcDbArc
 50
0.0
 51
180.0
  0
ARC
  5
1F9
330
17
100
AcDbEntity
  8
4
100
AcDbCircle
 10
760.0339423394048
 20
1140.308021226101
 30
0.0
 40
13.0
100
AcDbArc
 50
0.0
 51
180.0
  0
LINE
  5
1FA
330
17
100
AcDbEntity
  8
4
100
AcDbLine
 10
803.0339423394048
 20
1123.308021226101
 30
0.0
 11
803.0339423394048
 21
1131.308021226101
 31
0.0
  0
LINE
  5
1FB
330
17
100
AcDbEntity
  8
4
100
AcDbLine
 10
817.0339423394048
 20
1123.308021226101
 30
0.0
 11
817.0339423394048
 21
1131.308021226101
 31
0.0
  0
LINE
  5
1FC
330
17
100
AcDbEntity
  8
4
100
AcDbLine
 10
789.0339423394048
 20
1093.308021226101
 30
0.0
 11
789.0339423394048
 21
1161.308021226101
 31
0.0
  0
LINE
  5
1FD
330
17
100
AcDbEntity
  8
4
100
AcDbLine
 10
797.0339423394048
 20
1093.308021226101
 30
0.0
 11
797.0339423394048
 21
1161.308021226101
 31
0.0
  0
LINE
  5
1FE
330
17
100
AcDbEntity
  8
4
100
AcDbLine
 10
817.0339423394048
 20
1123.308021226101
 30
0.0
 11
803.0339423394048
 21
1123.308021226101
 31
0.0
  0
LINE
  5
1FF
330
17
100
AcDbEntity
  8
4
100
AcDbLine
 10
797.0339423394048
 20
1093.308021226101
 30
0.0
 11
789.0339423394048
 21
1093.308021226101
 31
0.0
  0
LINE
  5
200
330
17
100
AcDbEntity
  8
4
100
AcDbLine
 10
817.0339423394048
 20
1131.308021226101
 30
0.0
 11
803.0339423394048
 21
1131.308021226101
 31
0.0
  0
LINE
  5
201
330
17
100
AcDbEntity
  8
4
100
AcDbLine
 10
797.0339423394048
 20
1161.308021226101
 30
0.0
 11
789.0339423394048
 21
1161.308021226101
 31
0.0
  0
LINE
  5
202
330
17
100
AcDbEntity
  8
4
100
AcDbLine
 10
511.7339423394046
 20
1290.808021226101
 30
0.0
 11
536.0339423394048
 21
1290.808021226101
 31
0.0
  0
LINE
  5
203
330
17
100
AcDbEntity
  8
4
100
AcDbLine
 10
506.0339423394048
 20
1301.308021226101
 30
0.0
 11
536.0339423394048
 21
1301.308021226101
 31
0.0
  0
LINE
  5
204
330
17
100
AcDbEntity
  8
4
100
AcDbLine
 10
486.7312681791841
 20
1302.305760882066
 30
0.0
 11
536.0339423394048
 21
1315.610304567537
 31
0.0
  0
ARC
  5
205
330
17
100
AcDbEntity
  8
4
100
AcDbCircle
 10
506.0339423394048
 20
1289.308021226101
 30
0.0
 40
3.0
100
AcDbArc
 50
180.0
 51
270.0
  0
LINE
  5
206
330
17
100
AcDbEntity
  8
4
100
AcDbLine
 10
510.7339423394046
 20
1286.308021226101
 30
0.0
 11
506.0339423394048
 21
1286.308021226101
 31
0.0
  0
ARC
  5
207
330
17
100
AcDbEntity
  8
4
100
AcDbCircle
 10
506.0339423394048
 20
1298.308021226101
 30
0.0
 40
3.0
100
AcDbArc
 50
90.0
 51
180.0
  0
LINE
  5
208
330
17
100
AcDbEntity
  8
4
100
AcDbLine
 10
503.0339423394048
 20
1298.308021226101
 30
0.0
 11
503.0339423394048
 21
1289.308021226101
 31
0.0
  0
ARC
  5
209
330
17
100
AcDbEntity
  8
4
100
AcDbCircle
 10
488.0339423394048
 20
1297.478438639632
 30
0.0
 40
5.0
100
AcDbArc
 50
105.1017995437989
 51
180.0
  0
ARC
  5
20A
330
17
100
AcDbEntity
  8
4
100
AcDbCircle
 10
565.4528028922236
 20
1213.72688177892
 30
0.0
 40
5.0
100
AcDbArc
 50
195.003349769204
 51
254.9966502307963
  0
ARC
  5
20B
330
17
100
AcDbEntity
  8
4
100
AcDbCircle
 10
565.4528028922236
 20
1213.72688177892
 30
0.0
 40
5.0
100
AcDbArc
 50
195.003349769204
 51
254.9966502308013
  0
LINE
  5
20C
330
17
100
AcDbEntity
  8
4
100
AcDbLine
 10
483.0339423394057
 20
1207.808021216587
 30
0.0
 11
483.0339423394057
 21
1297.478438639633
 31
0.0
  0
LINE
  5
20D
330
17
100
AcDbEntity
  8
4
100
AcDbLine
 10
1115.033942339404
 20
1061.808021226101
 30
0.0
 11
1115.033942339404
 21
1290.808021226101
 31
0.0
  0
LINE
  5
20E
330
17
100
AcDbEntity
  8
4
100
AcDbLine
 10
1115.333942339404
 20
1061.808021226101
 30
0.0
 11
1115.333942339404
 21
1290.808021226101
 31
0.0
  0
LINE
  5
20F
330
17
100
AcDbEntity
  8
4
100
AcDbLine
 10
1110.033942339404
 20
1061.808021226101
 30
0.0
 11
1134.333942339404
 21
1061.808021226101
 31
0.0
  0
LINE
  5
210
330
17
100
AcDbEntity
  8
4
100
AcDbLine
 10
1159.336616499625
 20
1302.305760882066
 30
0.0
 11
1110.033942339404
 21
1315.610304567537
 31
0.0
  0
ARC
  5
211
330
17
100
AcDbEntity
  8
4
100
AcDbCircle
 10
1140.033942339404
 20
1289.308021226101
 30
0.0
 40
3.0
100
AcDbArc
 50
270.0
 51
0.0
  0
LINE
  5
212
330
17
100
AcDbEntity
  8
4
100
AcDbLine
 10
1135.333942339404
 20
1286.308021226101
 30
0.0
 11
1140.033942339404
 21
1286.308021226101
 31
0.0
  0
LINE
  5
213
330
17
100
AcDbEntity
  8
4
100
AcDbLine
 10
1140.033942339404
 20
1301.308021226101
 30
0.0
 11
1110.033942339404
 21
1301.308021226101
 31
0.0
  0
ARC
  5
214
330
17
100
AcDbEntity
  8
4
100
AcDbCircle
 10
1112.033942339404
 20
1292.808021226101
 30
0.0
 40
2.0
100
AcDbArc
 50
180.0
 51
270.0
  0
LINE
  5
215
330
17
100
AcDbEntity
  8
4
100
AcDbLine
 10
1112.033942339404
 20
1290.808021226101
 30
0.0
 11
1134.333942339404
 21
1290.808021226101
 31
0.0
  0
LINE
  5
216
330
17
100
AcDbEntity
  8
4
100
AcDbLine
 10
1143.033942339404
 20
1298.308021226101
 30
0.0
 11
1143.033942339404
 21
1289.308021226101
 31
0.0
  0
ARC
  5
217
330
17
100
AcDbEntity
  8
4
100
AcDbCircle
 10
1140.033942339404
 20
1298.308021226101
 30
0.0
 40
3.0
100
AcDbArc
 50
0.0
 51
90.0
  0
ARC
  5
218
330
17
100
AcDbEntity
  8
4
100
AcDbCircle
 10
1158.033942339404
 20
1297.478438639633
 30
0.0
 40
5.0
100
AcDbArc
 50
0.0
 51
74.89820045619918
  0
ARC
  5
219
330
17
100
AcDbEntity
  8
4
100
AcDbCircle
 10
823.0339423394048
 20
767.8080212261009
 30
0.0
 40
1000.0
100
AcDbArc
 50
74.99665023079677
 51
105.0033497692032
  0
LINE
  5
21A
330
17
100
AcDbEntity
  8
4
100
AcDbLine
 10
488.0339423394048
 20
1761.308021226101
 30
0.0
 11
683.0339423394048
 21
1761.308021226101
 31
0.0
  0
LINE
  5
21B
330
17
100
AcDbEntity
  8
L-CENTER
 48
2.0
100
AcDbLine
 10
533.0339423394048
 20
1728.608021226101
 30
0.0
 11
533.0339423394048
 21
1674.0080212261
 31
0.0
  0
CIRCLE
  5
21C
330
17
100
AcDbEntity
  8
4
100
AcDbCircle
 10
533.0339423394048
 20
1701.308021226101
 30
0.0
 40
13.0
  0
LINE
  5
21D
330
17
100
AcDbEntity
  8
4
100
AcDbLine
 10
483.0339423394048
 20
1645.13760381257
 30
0.0
 11
483.0339423394048
 21
1756.308021226101
 31
0.0
  0
LINE
  5
21E
330
17
100
AcDbEntity
  8
4
100
AcDbLine
 10
486.7312681791841
 20
1640.310281570136
 30
0.0
 11
538.6194723573117
 21
1626.308021226101
 31
0.0
  0
LINE
  5
21F
330
17
100
AcDbEntity
  8
4
100
AcDbLine
 10
506.0339423394048
 20
1656.308021226101
 30
0.0
 11
543.7954216738108
 21
1656.308021226101
 31
0.0
  0
LINE
  5
220
330
17
100
AcDbEntity
  8
4
100
AcDbLine
 10
506.0339423394048
 20
1641.308021226101
 30
0.0
 11
541.0898799999941
 21
1641.308021226101
 31
0.0
  0
ARC
  5
221
330
17
100
AcDbEntity
  8
4
100
AcDbCircle
 10
506.0339423394048
 20
1653.308021226101
 30
0.0
 40
3.0
100
AcDbArc
 50
90.0
 51
180.0
  0
ARC
  5
222
330
17
100
AcDbEntity
  8
4
100
AcDbCircle
 10
506.0339423394048
 20
1644.308021226101
 30
0.0
 40
3.0
100
AcDbArc
 50
180.0
 51
270.0
  0
LINE
  5
223
330
17
100
AcDbEntity
  8
4
100
AcDbLine
 10
503.0339423394048
 20
1644.308021226101
 30
0.0
 11
503.0339423394048
 21
1653.308021226101
 31
0.0
  0
ARC
  5
224
330
17
100
AcDbEntity
  8
4
100
AcDbCircle
 10
488.0339423394048
 20
1645.13760381257
 30
0.0
 40
5.0
100
AcDbArc
 50
180.0
 51
254.8982004561998
  0
LINE
  5
225
330
17
100
AcDbEntity
  8
L-CENTER
 48
2.0
100
AcDbLine
 10
560.3339423394045
 20
1701.308021226101
 30
0.0
 11
505.7339423394046
 21
1701.308021226101
 31
0.0
  0
ARC
  5
226
330
17
100
AcDbEntity
  8
4
100
AcDbCircle
 10
488.0339423394048
 20
1756.308021226101
 30
0.0
 40
5.0
100
AcDbArc
 50
90.0
 51
180.0
  0
ARC
  5
227
330
17
100
AcDbEntity
  8
4
100
AcDbCircle
 10
565.4528028922236
 20
1728.889160673282
 30
0.0
 40
5.0
100
AcDbArc
 50
105.0033497691955
 51
164.9966502307959
  0
ARC
  5
228
330
17
100
AcDbEntity
  8
4
100
AcDbCircle
 10
565.4528028922236
 20
1728.889160673282
 30
0.0
 40
5.0
100
AcDbArc
 50
105.0033497692044
 51
164.9966502307959
  0
LINE
  5
229
330
17
100
AcDbEntity
  8
4
100
AcDbLine
 10
683.0339423394048
 20
1761.308021226101
 30
0.0
 11
683.0339423394048
 21
1757.959524785026
 31
0.0
  0
ARC
  5
22A
330
17
100
AcDbEntity
  8
4
100
AcDbCircle
 10
846.0339423394048
 20
1770.54427767642
 30
0.0
 40
3.0
100
AcDbArc
 50
180.0
 51
268.686023481121
  0
LINE
  5
22B
330
17
100
AcDbEntity
  8
4
100
AcDbLine
 10
803.0339423394048
 20
1773.308021226102
 30
0.0
 11
843.0339423394048
 21
1773.308021226102
 31
0.0
  0
LINE
  5
22C
330
17
100
AcDbEntity
  8
4
100
AcDbLine
 10
803.0339423394048
 20
1773.308021226102
 30
0.0
 11
803.0339423394048
 21
1770.54427767642
 31
0.0
  0
ARC
  5
22D
330
17
100
AcDbEntity
  8
4
100
AcDbCircle
 10
800.0339423394048
 20
1770.54427767642
 30
0.0
 40
3.0
100
AcDbArc
 50
271.313976518879
 51
0.0
  0
LINE
  5
22E
330
17
100
AcDbEntity
  8
4
100
AcDbLine
 10
843.0339423394048
 20
1773.308021226102
 30
0.0
 11
843.0339423394048
 21
1770.54427767642
 31
0.0
  0
LINE
  5
22F
330
17
100
AcDbEntity
  8
4
100
AcDbLine
 10
963.0339423394043
 20
1761.308021226101
 30
0.0
 11
1158.033942339404
 21
1761.308021226101
 31
0.0
  0
LINE
  5
230
330
17
100
AcDbEntity
  8
4
100
AcDbLine
 10
1159.336616499625
 20
1640.310281570136
 30
0.0
 11
1107.448412321497
 21
1626.308021226101
 31
0.0
  0
LINE
  5
231
330
17
100
AcDbEntity
  8
L-CENTER
 48
2.0
100
AcDbLine
 10
1113.033942339406
 20
1728.608021226101
 30
0.0
 11
1113.033942339406
 21
1674.0080212261
 31
0.0
  0
CIRCLE
  5
232
330
17
100
AcDbEntity
  8
4
100
AcDbCircle
 10
1113.033942339406
 20
1701.308021226101
 30
0.0
 40
13.0
  0
ARC
  5
233
330
17
100
AcDbEntity
  8
4
100
AcDbCircle
 10
1140.033942339404
 20
1653.308021226101
 30
0.0
 40
3.0
100
AcDbArc
 50
0.0
 51
90.0
  0
LINE
  5
234
330
17
100
AcDbEntity
  8
4
100
AcDbLine
 10
1140.033942339404
 20
1641.308021226101
 30
0.0
 11
1104.978004678815
 21
1641.308021226101
 31
0.0
  0
LINE
  5
235
330
17
100
AcDbEntity
  8
4
100
AcDbLine
 10
1143.033942339404
 20
1644.308021226101
 30
0.0
 11
1143.033942339404
 21
1653.308021226101
 31
0.0
  0
ARC
  5
236
330
17
100
AcDbEntity
  8
4
100
AcDbCircle
 10
1140.033942339404
 20
1644.308021226101
 30
0.0
 40
3.0
100
AcDbArc
 50
270.0
 51
0.0
  0
LINE
  5
237
330
17
100
AcDbEntity
  8
4
100
AcDbLine
 10
1140.033942339404
 20
1656.308021226101
 30
0.0
 11
1102.272463004998
 21
1656.308021226101
 31
0.0
  0
LINE
  5
238
330
17
100
AcDbEntity
  8
4
100
AcDbLine
 10
963.0339423394043
 20
1761.308021226101
 30
0.0
 11
963.0339423394043
 21
1757.959524785026
 31
0.0
  0
LINE
  5
239
330
17
100
AcDbEntity
  8
L-CENTER
 48
2.0
100
AcDbLine
 10
1085.733942339405
 20
1701.308021226101
 30
0.0
 11
1140.333942339405
 21
1701.308021226101
 31
0.0
  0
ARC
  5
23A
330
17
100
AcDbEntity
  8
4
100
AcDbCircle
 10
1080.615081786586
 20
1728.889160673282
 30
0.0
 40
5.0
100
AcDbArc
 50
15.00334976920372
 51
74.99665023079561
  0
LINE
  5
23B
330
17
100
AcDbEntity
  8
4
100
AcDbLine
 10
1163.033942339404
 20
1645.13760381257
 30
0.0
 11
1163.033942339404
 21
1756.308021226101
 31
0.0
  0
ARC
  5
23C
330
17
100
AcDbEntity
  8
4
100
AcDbCircle
 10
1158.033942339404
 20
1645.13760381257
 30
0.0
 40
5.0
100
AcDbArc
 50
285.1017995438008
 51
0.0
  0
ARC
  5
23D
330
17
100
AcDbEntity
  8
4
100
AcDbCircle
 10
1158.033942339404
 20
1756.308021226101
 30
0.0
 40
5.0
100
AcDbArc
 50
0.0
 51
90.0
  0
ARC
  5
23E
330
17
100
AcDbEntity
  8
4
100
AcDbCircle
 10
1080.615081786586
 20
1213.72688177892
 30
0.0
 40
5.0
100
AcDbArc
 50
285.0033497692037
 51
344.9966502307963
  0
ARC
  5
23F
330
17
100
AcDbEntity
  8
4
100
AcDbCircle
 10
1080.615081786586
 20
1213.72688177892
 30
0.0
 40
5.0
100
AcDbArc
 50
285.0033497692037
 51
344.9966502307963
  0
LINE
  5
240
330
17
100
AcDbEntity
  8
4
100
AcDbLine
 10
833.0339423394048
 20
1140.308021226101
 30
0.0
 11
825.0339423394048
 21
1140.308021226101
 31
0.0
  0
ARC
  5
241
330
17
100
AcDbEntity
  8
4
100
AcDbCircle
 10
846.0339423394048
 20
1140.308021226101
 30
0.0
 40
21.0
100
AcDbArc
 50
0.0
 51
180.0
  0
LINE
  5
242
330
17
100
AcDbEntity
  8
4
100
AcDbLine
 10
833.0339423394048
 20
1114.308021226101
 30
0.0
 11
825.0339423394048
 21
1114.308021226101
 31
0.0
  0
ARC
  5
243
330
17
100
AcDbEntity
  8
4
100
AcDbCircle
 10
846.0339423394048
 20
1114.308021226101
 30
0.0
 40
21.0
100
AcDbArc
 50
180.0
 51
0.0
  0
LINE
  5
244
330
17
100
AcDbEntity
  8
4
100
AcDbLine
 10
899.0339423394048
 20
1093.308021226101
 30
0.0
 11
899.0339423394048
 21
1153.308021226101
 31
0.0
  0
LINE
  5
245
330
17
100
AcDbEntity
  8
4
100
AcDbLine
 10
907.0339423394048
 20
1093.308021226101
 30
0.0
 11
907.0339423394048
 21
1161.308021226101
 31
0.0
  0
ARC
  5
246
330
17
100
AcDbEntity
  8
4
100
AcDbCircle
 10
846.0339423394048
 20
1140.308021226101
 30
0.0
 40
13.0
100
AcDbArc
 50
0.0
 51
180.0
  0
ARC
  5
247
330
17
100
AcDbEntity
  8
4
100
AcDbCircle
 10
846.0339423394048
 20
1114.308021226101
 30
0.0
 40
13.0
100
AcDbArc
 50
180.0
 51
0.0
  0
LINE
  5
248
330
17
100
AcDbEntity
  8
4
100
AcDbLine
 10
859.0339423394048
 20
1140.308021226101
 30
0.0
 11
859.0339423394048
 21
1114.308021226101
 31
0.0
  0
LINE
  5
249
330
17
100
AcDbEntity
  8
4
100
AcDbLine
 10
867.0339423394048
 20
1140.308021226101
 30
0.0
 11
867.0339423394048
 21
1114.308021226101
 31
0.0
  0
LINE
  5
24A
330
17
100
AcDbEntity
  8
4
100
AcDbLine
 10
907.0339423394048
 20
1093.308021226101
 30
0.0
 11
899.0339423394048
 21
1093.308021226101
 31
0.0
  0
LINE
  5
24B
330
17
100
AcDbEntity
  8
4
100
AcDbLine
 10
899.0339423394048
 20
1153.308021226101
 30
0.0
 11
871.0339423394048
 21
1153.308021226101
 31
0.0
  0
LINE
  5
24C
330
17
100
AcDbEntity
  8
4
100
AcDbLine
 10
907.0339423394048
 20
1161.308021226101
 30
0.0
 11
871.0339423394048
 21
1161.308021226101
 31
0.0
  0
LINE
  5
24D
330
17
100
AcDbEntity
  8
4
100
AcDbLine
 10
871.0339423394048
 20
1153.308021226101
 30
0.0
 11
871.0339423394048
 21
1161.308021226101
 31
0.0
  0
LINE
  5
24E
330
17
100
AcDbEntity
  8
4
100
AcDbLine
 10
1110.033942339405
 20
1059.308021226101
 30
0.0
 11
1110.033942339405
 21
1156.308021226101
 31
0.0
  0
LINE
  5
24F
330
17
100
AcDbEntity
  8
4
100
AcDbLine
 10
1110.033942339405
 20
1196.308021226101
 30
0.0
 11
1110.033942339405
 21
1333.795294542349
 31
0.0
  0
ARC
  5
250
330
17
100
AcDbEntity
  8
4
100
AcDbCircle
 10
431.0339423394048
 20
1471.308021226101
 30
0.0
 40
500.0
100
AcDbArc
 50
348.8981303845912
 51
11.10186961540886
  0
ARC
  5
251
330
17
100
AcDbEntity
  8
4
100
AcDbCircle
 10
438.0339423394048
 20
1471.308021226101
 30
0.0
 40
500.0
100
AcDbArc
 50
348.2133909687814
 51
11.80489633831079
  0
ARC
  5
252
330
17
100
AcDbEntity
  8
4
100
AcDbCircle
 10
1215.033942339405
 20
1471.308021226101
 30
0.0
 40
500.0
100
AcDbArc
 50
168.8981303845912
 51
191.1018696154088
  0
ARC
  5
253
330
17
100
AcDbEntity
  8
4
100
AcDbCircle
 10
1208.033942339405
 20
1471.308021226101
 30
0.0
 40
500.0
100
AcDbArc
 50
168.1951036616891
 51
191.7866090312186
  0
CIRCLE
  5
254
330
17
100
AcDbEntity
  8
L-CENTER
 48
2.0
100
AcDbCircle
 10
823.0339423394048
 20
1471.308021226101
 30
0.0
 40
278.5
  0
CIRCLE
  5
255
330
17
100
AcDbEntity
  8
4
100
AcDbCircle
 10
823.0339423394048
 20
1471.308021226101
 30
0.0
 40
263.5
  0
CIRCLE
  5
256
330
17
100
AcDbEntity
  8
4
100
AcDbCircle
 10
823.0339423394048
 20
1471.308021226101
 30
0.0
 40
295.5
  0
LINE
  5
257
330
17
100
AcDbEntity
  8
L-CENTER
 48
2.0
100
AcDbLine
 10
860.975038728468
 20
1256.308021226101
 30
0.0
 11
785.0928459503416
 21
1256.308021226101
 31
0.0
  0
CIRCLE
  5
258
330
17
100
AcDbEntity
  8
4
100
AcDbCircle
 10
823.0339423394048
 20
1471.308021226101
 30
0.0
 40
65.0
  0
ARC
  5
259
330
17
100
AcDbEntity
  8
4
100
AcDbCircle
 10
823.0339423394048
 20
1856.308021226101
 30
0.0
 40
500.0
100
AcDbArc
 50
258.2133909687814
 51
281.7866090312186
  0
ARC
  5
25A
330
17
100
AcDbEntity
  8
4
100
AcDbCircle
 10
823.0339423394048
 20
1863.308021226101
 30
0.0
 40
500.0
100
AcDbArc
 50
258.8981303845912
 51
281.1018696154088
  0
LINE
  5
25B
330
17
100
AcDbEntity
  8
L-CENTER
 48
2.0
100
AcDbLine
 10
672.1418294560813
 20
1209.955215250766
 30
0.0
 11
695.4260552227288
 21
1250.284677293504
 31
0.0
  0
LINE
  5
25C
330
17
100
AcDbEntity
  8
4
100
AcDbLine
 10
764.9455474507799
 20
1219.757784543578
 30
0.0
 11
750.8382586587791
 21
1354.011360887783
 31
0.0
  0
ARC
  5
25D
330
17
100
AcDbEntity
  8
4
100
AcDbCircle
 10
760.9674496108773
 20
1219.339768304468
 30
0.0
 40
4.0
100
AcDbArc
 50
256.1620147383562
 51
5.998594083043264
  0
LINE
  5
25E
330
17
100
AcDbEntity
  8
4
100
AcDbLine
 10
571.4837056568817
 20
1413.219626337477
 30
0.0
 11
705.7372820010874
 21
1399.112337545475
 31
0.0
  0
ARC
  5
25F
330
17
100
AcDbEntity
  8
4
100
AcDbCircle
 10
726.4830920586373
 20
1374.757170945333
 30
0.0
 40
2.0
100
AcDbArc
 50
191.1791407569922
 51
258.8208592429918
  0
ARC
  5
260
330
17
100
AcDbEntity
  8
4
100
AcDbCircle
 10
727.3346108351998
 20
1375.608689721896
 30
0.0
 40
3.0
100
AcDbArc
 50
191.1018696154183
 51
258.8981303845899
  0
ARC
  5
261
330
17
100
AcDbEntity
  8
4
100
AcDbCircle
 10
720.6682949675892
 20
1368.942373854285
 30
0.0
 40
2.0
100
AcDbArc
 50
191.8619028382972
 51
258.1380971617123
  0
ARC
  5
262
330
17
100
AcDbEntity
  8
4
100
AcDbCircle
 10
721.5131097441613
 20
1369.787188630857
 30
0.0
 40
3.0
100
AcDbArc
 50
191.7866090312037
 51
258.2133909687779
  0
ARC
  5
263
330
17
100
AcDbEntity
  8
4
100
AcDbCircle
 10
704.6922414033143
 20
1389.167092945717
 30
0.0
 40
10.0
100
AcDbArc
 50
9.268465124024724
 51
84.00140591696209
  0
ARC
  5
264
330
17
100
AcDbEntity
  8
4
100
AcDbCircle
 10
740.8930140590214
 20
1352.96632029001
 30
0.0
 40
10.0
100
AcDbArc
 50
5.998594083037969
 51
80.73153487597777
  0
LINE
  5
265
330
17
100
AcDbEntity
  8
4
100
AcDbLine
 10
571.4837056568817
 20
1529.396416114726
 30
0.0
 11
705.7372820010874
 21
1543.503704906726
 31
0.0
  0
CIRCLE
  5
266
330
17
100
AcDbEntity
  8
4
100
AcDbCircle
 10
1028.033942339405
 20
1471.308021226101
 30
0.0
 40
25.0
  0
LINE
  5
267
330
17
100
AcDbEntity
  8
L-CENTER
 48
2.0
100
AcDbLine
 10
1028.033942339405
 20
1429.570776962447
 30
0.0
 11
1028.033942339405
 21
1515.736511435422
 31
0.0
  0
ARC
  5
268
330
17
100
AcDbEntity
  8
4
100
AcDbCircle
 10
571.0656894177728
 20
1409.241528497573
 30
0.0
 40
4.0
100
AcDbArc
 50
84.00140591696338
 51
193.8379852616422
  0
ARC
  5
269
330
17
100
AcDbEntity
  8
4
100
AcDbCircle
 10
571.0656894177728
 20
1533.374513954628
 30
0.0
 40
4.0
100
AcDbArc
 50
166.1620147383578
 51
275.9985940830366
  0
ARC
  5
26A
330
17
100
AcDbEntity
  8
4
100
AcDbCircle
 10
704.6922414033143
 20
1553.448949506484
 30
0.0
 40
10.0
100
AcDbArc
 50
275.9985940830405
 51
350.7315348759805
  0
LINE
  5
26B
330
17
100
AcDbEntity
  8
L-CENTER
 48
2.0
100
AcDbLine
 10
973.9260552227288
 20
1209.955215250765
 30
0.0
 11
950.6418294560808
 21
1250.284677293503
 31
0.0
  0
ARC
  5
26C
330
17
100
AcDbEntity
  8
4
100
AcDbCircle
 10
823.0339423394048
 20
1256.308021226101
 30
0.0
 40
25.0
100
AcDbArc
 50
108.6629248849426
 51
251.3370751150554
  0
LINE
  5
26D
330
17
100
AcDbEntity
  8
4
100
AcDbLine
 10
881.1223372280288
 20
1219.757784543578
 30
0.0
 11
895.2296260200305
 21
1354.011360887783
 31
0.0
  0
ARC
  5
26E
330
17
100
AcDbEntity
  8
4
100
AcDbCircle
 10
885.1004350679318
 20
1219.339768304468
 30
0.0
 40
4.0
100
AcDbArc
 50
174.0014059169567
 51
283.8379852616438
  0
LINE
  5
26F
330
17
100
AcDbEntity
  8
4
100
AcDbLine
 10
1074.584179021928
 20
1413.219626337477
 30
0.0
 11
940.3306026777223
 21
1399.112337545475
 31
0.0
  0
LINE
  5
270
330
17
100
AcDbEntity
  8
4
100
AcDbLine
 10
1074.584179021928
 20
1529.396416114726
 30
0.0
 11
940.3306026777223
 21
1543.503704906726
 31
0.0
  0
ARC
  5
271
330
17
100
AcDbEntity
  8
4
100
AcDbCircle
 10
905.1748706197882
 20
1352.96632029001
 30
0.0
 40
10.0
100
AcDbArc
 50
99.2684651240248
 51
174.001405916962
  0
ARC
  5
272
330
17
100
AcDbEntity
  8
4
100
AcDbCircle
 10
919.5847926201718
 20
1374.757170945333
 30
0.0
 40
2.0
100
AcDbArc
 50
281.1791407570082
 51
348.8208592430078
  0
ARC
  5
273
330
17
100
AcDbEntity
  8
4
100
AcDbCircle
 10
918.7332738436094
 20
1375.608689721896
 30
0.0
 40
3.0
100
AcDbArc
 50
281.1018696154101
 51
348.8981303845817
  0
ARC
  5
274
330
17
100
AcDbEntity
  8
4
100
AcDbCircle
 10
925.3995897112204
 20
1368.942373854285
 30
0.0
 40
2.0
100
AcDbArc
 50
281.8619028382877
 51
348.1380971617028
  0
ARC
  5
275
330
17
100
AcDbEntity
  8
4
100
AcDbCircle
 10
925.3995897112204
 20
1368.942373854285
 30
0.0
 40
2.0
100
AcDbArc
 50
281.8619028382877
 51
348.1380971617028
  0
ARC
  5
276
330
17
100
AcDbEntity
  8
4
100
AcDbCircle
 10
924.5547749346474
 20
1369.787188630857
 30
0.0
 40
3.0
100
AcDbArc
 50
281.786609031222
 51
348.2133909687784
  0
ARC
  5
277
330
17
100
AcDbEntity
  8
4
100
AcDbCircle
 10
941.3756432754949
 20
1389.167092945717
 30
0.0
 40
10.0
100
AcDbArc
 50
95.99859408303791
 51
170.7315348759805
  0
ARC
  5
278
330
17
100
AcDbEntity
  8
4
100
AcDbCircle
 10
941.3756432754949
 20
1553.448949506484
 30
0.0
 40
10.0
100
AcDbArc
 50
189.2684651240247
 51
264.0014059169621
  0
ARC
  5
279
330
17
100
AcDbEntity
  8
4
100
AcDbCircle
 10
1075.002195261036
 20
1409.241528497573
 30
0.0
 40
4.0
100
AcDbArc
 50
346.1620147383578
 51
95.99859408303661
  0
ARC
  5
27A
330
17
100
AcDbEntity
  8
4
100
AcDbCircle
 10
1075.002195261036
 20
1533.374513954628
 30
0.0
 40
4.0
100
AcDbArc
 50
264.0014059169634
 51
13.83798526164223
  0
LINE
  5
27B
330
17
100
AcDbEntity
  8
L-CENTER
 48
2.0
100
AcDbLine
 10
785.0928459503416
 20
1686.308021226101
 30
0.0
 11
860.975038728468
 21
1686.308021226101
 31
0.0
  0
ARC
  5
27C
330
17
100
AcDbEntity
  8
4
100
AcDbCircle
 10
823.0339423394048
 20
1079.308021226101
 30
0.0
 40
500.0
100
AcDbArc
 50
78.89813038459117
 51
101.1018696154088
  0
ARC
  5
27D
330
17
100
AcDbEntity
  8
4
100
AcDbCircle
 10
823.0339423394048
 20
1079.308021226101
 30
0.0
 40
507.0
100
AcDbArc
 50
78.38315647824388
 51
101.6168435217561
  0
LINE
  5
27E
330
17
100
AcDbEntity
  8
4
100
AcDbLine
 10
764.9455474507809
 20
1722.858257908625
 30
0.0
 11
750.8382586587791
 21
1588.604681564418
 31
0.0
  0
ARC
  5
27F
330
17
100
AcDbEntity
  8
4
100
AcDbCircle
 10
720.6682949675892
 20
1573.673668597916
 30
0.0
 40
2.0
100
AcDbArc
 50
101.861902838294
 51
168.1380971617028
  0
ARC
  5
280
330
17
100
AcDbEntity
  8
4
100
AcDbCircle
 10
720.701382184187
 20
1573.831071378546
 30
0.0
 40
2.0
100
AcDbArc
 50
101.6913075314826
 51
168.1195919159414
  0
ARC
  5
281
330
17
100
AcDbEntity
  8
4
100
AcDbCircle
 10
721.5455373068085
 20
1572.984133311686
 30
0.0
 40
3.0
100
AcDbArc
 50
101.6168435217561
 51
168.1951036616782
  0
ARC
  5
282
330
17
100
AcDbEntity
  8
4
100
AcDbCircle
 10
726.4830920586373
 20
1567.858871506868
 30
0.0
 40
2.0
100
AcDbArc
 50
101.1791407570018
 51
168.8208592430078
  0
ARC
  5
283
330
17
100
AcDbEntity
  8
4
100
AcDbCircle
 10
727.3346108351998
 20
1567.007352730305
 30
0.0
 40
3.0
100
AcDbArc
 50
101.1018696154102
 51
168.8981303845817
  0
ARC
  5
284
330
17
100
AcDbEntity
  8
4
100
AcDbCircle
 10
740.8930140590214
 20
1589.649722162191
 30
0.0
 40
10.0
100
AcDbArc
 50
279.2684651240248
 51
354.0014059169621
  0
LINE
  5
285
330
17
100
AcDbEntity
  8
L-CENTER
 48
2.0
100
AcDbLine
 10
672.1418294560808
 20
1732.660827201436
 30
0.0
 11
695.4260552227288
 21
1692.331365158698
 31
0.0
  0
ARC
  5
286
330
17
100
AcDbEntity
  8
4
100
AcDbCircle
 10
760.9674496108773
 20
1723.276274147733
 30
0.0
 40
4.0
100
AcDbArc
 50
354.0014059169699
 51
103.8379852616407
  0
LINE
  5
287
330
17
100
AcDbEntity
  8
4
100
AcDbLine
 10
881.1223372280297
 20
1722.858257908624
 30
0.0
 11
895.2296260200305
 21
1588.604681564418
 31
0.0
  0
ARC
  5
288
330
17
100
AcDbEntity
  8
4
100
AcDbCircle
 10
905.1748706197882
 20
1589.649722162191
 30
0.0
 40
10.0
100
AcDbArc
 50
185.998594083038
 51
260.7315348759778
  0
ARC
  5
289
330
17
100
AcDbEntity
  8
4
100
AcDbCircle
 10
885.1004350679318
 20
1723.276274147733
 30
0.0
 40
4.0
100
AcDbArc
 50
76.16201473835936
 51
185.9985940830301
  0
ARC
  5
28A
330
17
100
AcDbEntity
  8
4
100
AcDbCircle
 10
925.3995897112204
 20
1573.673668597916
 30
0.0
 40
2.0
100
AcDbArc
 50
11.8619028382972
 51
78.13809716170597
  0
ARC
  5
28B
330
17
100
AcDbEntity
  8
4
100
AcDbCircle
 10
925.3995897112204
 20
1573.673668597916
 30
0.0
 40
2.0
100
AcDbArc
 50
11.8619028382972
 51
78.13809716170597
  0
ARC
  5
28C
330
17
100
AcDbEntity
  8
4
100
AcDbCircle
 10
925.3665024946226
 20
1573.831071378546
 30
0.0
 40
2.0
100
AcDbArc
 50
11.8804080840586
 51
78.30869246851736
  0
ARC
  5
28D
330
17
100
AcDbEntity
  8
4
100
AcDbCircle
 10
924.5223473720011
 20
1572.984133311686
 30
0.0
 40
3.0
100
AcDbArc
 50
11.80489633832179
 51
78.38315647824389
  0
ARC
  5
28E
330
17
100
AcDbEntity
  8
4
100
AcDbCircle
 10
919.5847926201718
 20
1567.858871506868
 30
0.0
 40
2.0
100
AcDbArc
 50
11.17914075699222
 51
78.8208592429982
  0
ARC
  5
28F
330
17
100
AcDbEntity
  8
4
100
AcDbCircle
 10
918.7332738436094
 20
1567.007352730305
 30
0.0
 40
3.0
100
AcDbArc
 50
11.10186961540083
 51
78.89813038458983
  0
LINE
  5
290
330
17
100
AcDbEntity
  8
L-CENTER
 48
2.0
100
AcDbLine
 10
973.9260552227288
 20
1732.660827201436
 30
0.0
 11
950.6418294560808
 21
1692.331365158698
 31
0.0
  0
LINE
  5
291
330
17
100
AcDbEntity
  8
4
100
AcDbLine
 10
1135.333942339404
 20
1062.808021226101
 30
0.0
 11
1135.333942339404
 21
1289.808021226101
 31
0.0
  0
LINE
  5
292
330
17
100
AcDbEntity
  8
4
100
AcDbLine
 10
510.7339423394046
 20
1062.808021226101
 30
0.0
 11
510.7339423394046
 21
1289.808021226101
 31
0.0
  0
ARC
  5
293
330
17
100
AcDbEntity
  8
4
100
AcDbCircle
 10
1134.333942339404
 20
1289.808021226101
 30
0.0
 40
1.0
100
AcDbArc
 50
0.0
 51
90.0
  0
ARC
  5
294
330
17
100
AcDbEntity
  8
4
100
AcDbCircle
 10
1134.333942339404
 20
1062.808021226101
 30
0.0
 40
1.0
100
AcDbArc
 50
270.0
 51
0.0
  0
ARC
  5
295
330
17
100
AcDbEntity
  8
4
100
AcDbCircle
 10
511.7339423394046
 20
1289.808021226101
 30
0.0
 40
1.0
100
AcDbArc
 50
90.0
 51
180.0
  0
ARC
  5
296
330
17
100
AcDbEntity
  8
4
100
AcDbCircle
 10
511.7339423394046
 20
1062.808021226101
 30
0.0
 40
1.0
100
AcDbArc
 50
180.0
 51
270.0
  0
LINE
  5
297
330
17
100
AcDbEntity
  8
4
100
AcDbLine
 10
500.8711232500318
 20
1266.23017366083
 30
0.0
 11
507.7339423394051
 21
1266.23017366083
 31
0.0
  0
LINE
  5
298
330
17
100
AcDbEntity
  8
4
100
AcDbLine
 10
510.7339423394051
 20
1271.715001218131
 30
0.0
 11
500.8711232500318
 21
1271.715001218131
 31
0.0
  0
LINE
  5
299
330
17
100
AcDbEntity
  8
4
100
AcDbLine
 10
500.8711232500318
 20
1255.260518546228
 30
0.0
 11
507.7339423394051
 21
1255.260518546228
 31
0.0
  0
LINE
  5
29A
330
17
100
AcDbEntity
  8
4
100
AcDbLine
 10
500.8711232500318
 20
1249.775690988925
 30
0.0
 11
510.7339423394051
 21
1249.775690988925
 31
0.0
  0
ARC
  5
29B
330
17
100
AcDbEntity
  8
4
100
AcDbCircle
 10
503.6093212146843
 20
1268.972587439481
 30
0.0
 40
3.875378875279264
100
AcDbArc
 50
134.9559267627375
 51
225.044073237253
  0
ARC
  5
29C
330
17
100
AcDbEntity
  8
4
100
AcDbCircle
 10
513.5296864745824
 20
1260.745346103529
 30
0.0
 40
13.7957441351769
100
AcDbArc
 50
156.5734024913727
 51
203.4265975086273
  0
LINE
  5
29D
330
17
100
AcDbEntity
  8
4
100
AcDbLine
 10
499.7339423394051
 20
1268.972587439481
 30
0.0
 11
499.7339423394051
 21
1252.518104767576
 31
0.0
  0
ARC
  5
29E
330
17
100
AcDbEntity
  8
4
100
AcDbCircle
 10
503.6093212146843
 20
1252.518104767576
 30
0.0
 40
3.875378875279244
100
AcDbArc
 50
134.9559267627375
 51
225.044073237253
  0
LINE
  5
29F
330
17
100
AcDbEntity
  8
4
100
AcDbLine
 10
510.7339423394051
 20
1249.775690988925
 30
0.0
 11
510.7339423394051
 21
1271.715001218131
 31
0.0
  0
LINE
  5
2A0
330
17
100
AcDbEntity
  8
4
100
AcDbLine
 10
507.7339423394051
 20
1249.775690988925
 30
0.0
 11
507.7339423394051
 21
1271.715001218131
 31
0.0
  0
LINE
  5
2A1
330
17
100
AcDbEntity
  8
L-CENTER
 48
2.0
100
AcDbLine
 10
496.133102459301
 20
1260.745346103529
 30
0.0
 11
546.4746963057887
 21
1260.745346103529
 31
0.0
  0
LINE
  5
2A2
330
17
100
AcDbEntity
  8
L-CENTER
 48
2.0
100
AcDbLine
 10
496.1331024593005
 20
1091.870668606814
 30
0.0
 11
546.4746963057887
 21
1091.870668606814
 31
0.0
  0
LINE
  5
2A3
330
17
100
AcDbEntity
  8
4
100
AcDbLine
 10
507.7339423394046
 20
1080.90101349221
 30
0.0
 11
507.7339423394046
 21
1102.840323721417
 31
0.0
  0
LINE
  5
2A4
330
17
100
AcDbEntity
  8
4
100
AcDbLine
 10
510.7339423394046
 20
1080.90101349221
 30
0.0
 11
510.7339423394046
 21
1102.840323721417
 31
0.0
  0
ARC
  5
2A5
330
17
100
AcDbEntity
  8
4
100
AcDbCircle
 10
503.6093212146839
 20
1083.643427270862
 30
0.0
 40
3.875378875279244
100
AcDbArc
 50
134.955926762747
 51
225.0440732372626
  0
LINE
  5
2A6
330
17
100
AcDbEntity
  8
4
100
AcDbLine
 10
499.7339423394046
 20
1100.097909942766
 30
0.0
 11
499.7339423394046
 21
1083.643427270862
 31
0.0
  0
ARC
  5
2A7
330
17
100
AcDbEntity
  8
4
100
AcDbCircle
 10
513.5296864745819
 20
1091.870668606814
 30
0.0
 40
13.7957441351769
100
AcDbArc
 50
156.5734024913727
 51
203.4265975086273
  0
ARC
  5
2A8
330
17
100
AcDbEntity
  8
4
100
AcDbCircle
 10
503.6093212146839
 20
1100.097909942766
 30
0.0
 40
3.875378875279264
100
AcDbArc
 50
134.955926762747
 51
225.0440732372626
  0
LINE
  5
2A9
330
17
100
AcDbEntity
  8
4
100
AcDbLine
 10
500.8711232500314
 20
1080.90101349221
 30
0.0
 11
510.7339423394046
 21
1080.90101349221
 31
0.0
  0
LINE
  5
2AA
330
17
100
AcDbEntity
  8
4
100
AcDbLine
 10
500.8711232500314
 20
1086.385841049513
 30
0.0
 11
507.7339423394046
 21
1086.385841049513
 31
0.0
  0
LINE
  5
2AB
330
17
100
AcDbEntity
  8
4
100
AcDbLine
 10
510.7339423394046
 20
1102.840323721417
 30
0.0
 11
500.8711232500314
 21
1102.840323721417
 31
0.0
  0
LINE
  5
2AC
330
17
100
AcDbEntity
  8
4
100
AcDbLine
 10
500.8711232500314
 20
1097.355496164115
 30
0.0
 11
507.7339423394046
 21
1097.355496164115
 31
0.0
  0
LINE
  5
2AD
330
17
100
AcDbEntity
  8
4
100
AcDbLine
 10
507.7339423394046
 20
1165.338366111497
 30
0.0
 11
507.7339423394046
 21
1187.277676340703
 31
0.0
  0
LINE
  5
2AE
330
17
100
AcDbEntity
  8
4
100
AcDbLine
 10
510.7339423394046
 20
1165.338366111497
 30
0.0
 11
510.7339423394046
 21
1187.277676340703
 31
0.0
  0
ARC
  5
2AF
330
17
100
AcDbEntity
  8
4
100
AcDbCircle
 10
503.6093212146839
 20
1168.080779890148
 30
0.0
 40
3.875378875279244
100
AcDbArc
 50
134.9559267627375
 51
225.044073237253
  0
LINE
  5
2B0
330
17
100
AcDbEntity
  8
4
100
AcDbLine
 10
499.7339423394046
 20
1184.535262562053
 30
0.0
 11
499.7339423394046
 21
1168.080779890148
 31
0.0
  0
ARC
  5
2B1
330
17
100
AcDbEntity
  8
4
100
AcDbCircle
 10
513.5296864745819
 20
1176.308021226101
 30
0.0
 40
13.7957441351769
100
AcDbArc
 50
156.5734024913727
 51
203.4265975086273
  0
ARC
  5
2B2
330
17
100
AcDbEntity
  8
4
100
AcDbCircle
 10
503.6093212146839
 20
1184.535262562053
 30
0.0
 40
3.875378875279264
100
AcDbArc
 50
134.9559267627375
 51
225.044073237253
  0
LINE
  5
2B3
330
17
100
AcDbEntity
  8
4
100
AcDbLine
 10
500.8711232500314
 20
1165.338366111497
 30
0.0
 11
510.7339423394046
 21
1165.338366111497
 31
0.0
  0
LINE
  5
2B4
330
17
100
AcDbEntity
  8
4
100
AcDbLine
 10
500.8711232500314
 20
1170.823193668799
 30
0.0
 11
507.7339423394046
 21
1170.823193668799
 31
0.0
  0
LINE
  5
2B5
330
17
100
AcDbEntity
  8
4
100
AcDbLine
 10
510.7339423394046
 20
1187.277676340703
 30
0.0
 11
500.8711232500314
 21
1187.277676340703
 31
0.0
  0
LINE
  5
2B6
330
17
100
AcDbEntity
  8
4
100
AcDbLine
 10
500.8711232500314
 20
1181.792848783402
 30
0.0
 11
507.7339423394046
 21
1181.792848783402
 31
0.0
  0
LINE
  5
2B7
330
17
100
AcDbEntity
  8
4
100
AcDbLine
 10
375.0339424747003
 20
1144.808021235614
 30
0.0
 11
493.0339424390645
 21
1144.808021235614
 31
0.0
  0
LINE
  5
2B8
330
17
100
AcDbEntity
  8
4
100
AcDbLine
 10
509.7339424339311
 20
1143.808021235916
 30
0.0
 11
493.0339424390645
 21
1143.808021235916
 31
0.0
  0
LINE
  5
2B9
330
17
100
AcDbEntity
  8
4
100
AcDbLine
 10
493.0339424390645
 20
1208.808021216285
 30
0.0
 11
493.0339424390645
 21
1143.808021235916
 31
0.0
  0
LINE
  5
2BA
330
17
100
AcDbEntity
  8
4
100
AcDbLine
 10
375.0339424747003
 20
1144.808021235614
 30
0.0
 11
375.0339424747003
 21
1167.308021226101
 31
0.0
  0
LINE
  5
2BB
330
17
100
AcDbEntity
  8
4
100
AcDbLine
 10
373.0339424753051
 20
1146.808021235009
 30
0.0
 11
373.0339424753051
 21
1205.808021217192
 31
0.0
  0
LINE
  5
2BC
330
17
100
AcDbEntity
  8
4
100
AcDbLine
 10
373.0339424753051
 20
1146.808021235009
 30
0.0
 11
375.0339424747003
 21
1144.808021235614
 31
0.0
  0
LINE
  5
2BD
330
17
100
AcDbEntity
  8
4
100
AcDbLine
 10
375.0339424747003
 20
1207.808021216587
 30
0.0
 11
493.0339424390645
 21
1207.808021216587
 31
0.0
  0
LINE
  5
2BE
330
17
100
AcDbEntity
  8
4
100
AcDbLine
 10
509.7339424339311
 20
1208.808021216285
 30
0.0
 11
493.0339424390645
 21
1208.808021216285
 31
0.0
  0
LINE
  5
2BF
330
17
100
AcDbEntity
  8
4
100
AcDbLine
 10
509.7339424339311
 20
1221.308021226102
 30
0.0
 11
509.7339424339311
 21
1187.277676340726
 31
0.0
  0
LINE
  5
2C0
330
17
100
AcDbEntity
  8
4
100
AcDbLine
 10
373.0339424753051
 20
1205.808021217192
 30
0.0
 11
375.0339424747003
 21
1207.808021216588
 31
0.0
  0
LINE
  5
2C1
330
17
100
AcDbEntity
  8
4
100
AcDbLine
 10
375.0339424747003
 20
1185.308021226101
 30
0.0
 11
375.0339424747003
 21
1207.808021216587
 31
0.0
  0
LINE
  5
2C2
330
17
100
AcDbEntity
  8
4
100
AcDbLine
 10
510.7339423394055
 20
1221.308021226101
 30
0.0
 11
509.7339424339311
 21
1221.308021226101
 31
0.0
  0
LINE
  5
2C3
330
17
100
AcDbEntity
  8
4
100
AcDbLine
 10
510.7339423394055
 20
1131.308021226102
 30
0.0
 11
509.7339424339311
 21
1131.308021226102
 31
0.0
  0
LINE
  5
2C4
330
17
100
AcDbEntity
  8
L-CENTER
 48
2.0
100
AcDbLine
 10
1149.934782219512
 20
1260.745346103552
 30
0.0
 11
1099.593188373024
 21
1260.745346103549
 31
0.0
  0
LINE
  5
2C5
330
17
100
AcDbEntity
  8
4
100
AcDbLine
 10
1138.333942339409
 20
1249.775690988948
 30
0.0
 11
1138.333942339407
 21
1271.715001218154
 31
0.0
  0
LINE
  5
2C6
330
17
100
AcDbEntity
  8
4
100
AcDbLine
 10
1135.333942339409
 20
1249.775690988948
 30
0.0
 11
1135.333942339407
 21
1271.715001218154
 31
0.0
  0
ARC
  5
2C7
330
17
100
AcDbEntity
  8
4
100
AcDbCircle
 10
1142.458563464129
 20
1252.5181047676
 30
0.0
 40
3.875378875279244
100
AcDbArc
 50
314.955926762738
 51
45.04407323727145
  0
LINE
  5
2C8
330
17
100
AcDbEntity
  8
4
100
AcDbLine
 10
1146.333942339407
 20
1268.972587439505
 30
0.0
 11
1146.333942339409
 21
1252.5181047676
 31
0.0
  0
ARC
  5
2C9
330
17
100
AcDbEntity
  8
4
100
AcDbCircle
 10
1132.53819820423
 20
1260.745346103552
 30
0.0
 40
13.7957441351769
100
AcDbArc
 50
336.5734024913767
 51
23.42659750862713
  0
ARC
  5
2CA
330
17
100
AcDbEntity
  8
4
100
AcDbCircle
 10
1142.458563464128
 20
1268.972587439505
 30
0.0
 40
3.875378875279264
100
AcDbArc
 50
314.955926762738
 51
45.04407323727145
  0
LINE
  5
2CB
330
17
100
AcDbEntity
  8
4
100
AcDbLine
 10
1145.196761428782
 20
1249.775690988949
 30
0.0
 11
1135.333942339409
 21
1249.775690988948
 31
0.0
  0
LINE
  5
2CC
330
17
100
AcDbEntity
  8
4
100
AcDbLine
 10
1145.196761428782
 20
1255.260518546251
 30
0.0
 11
1138.333942339409
 21
1255.26051854625
 31
0.0
  0
LINE
  5
2CD
330
17
100
AcDbEntity
  8
4
100
AcDbLine
 10
1135.333942339407
 20
1271.715001218154
 30
0.0
 11
1145.19676142878
 21
1271.715001218155
 31
0.0
  0
LINE
  5
2CE
330
17
100
AcDbEntity
  8
4
100
AcDbLine
 10
1145.196761428781
 20
1266.230173660854
 30
0.0
 11
1138.333942339408
 21
1266.230173660853
 31
0.0
  0
LINE
  5
2CF
330
17
100
AcDbEntity
  8
4
100
AcDbLine
 10
1145.196761428787
 20
1181.792848783426
 30
0.0
 11
1138.333942339414
 21
1181.792848783425
 31
0.0
  0
LINE
  5
2D0
330
17
100
AcDbEntity
  8
4
100
AcDbLine
 10
1135.333942339414
 20
1187.277676340726
 30
0.0
 11
1145.196761428786
 21
1187.277676340727
 31
0.0
  0
LINE
  5
2D1
330
17
100
AcDbEntity
  8
4
100
AcDbLine
 10
1145.196761428788
 20
1170.823193668823
 30
0.0
 11
1138.333942339415
 21
1170.823193668822
 31
0.0
  0
LINE
  5
2D2
330
17
100
AcDbEntity
  8
4
100
AcDbLine
 10
1145.196761428788
 20
1165.338366111521
 30
0.0
 11
1135.333942339415
 21
1165.33836611152
 31
0.0
  0
ARC
  5
2D3
330
17
100
AcDbEntity
  8
4
100
AcDbCircle
 10
1142.458563464135
 20
1184.535262562077
 30
0.0
 40
3.875378875279264
100
AcDbArc
 50
314.955926762738
 51
45.04407323727145
  0
ARC
  5
2D4
330
17
100
AcDbEntity
  8
4
100
AcDbCircle
 10
1132.538198204237
 20
1176.308021226123
 30
0.0
 40
13.7957441351769
100
AcDbArc
 50
336.5734024913767
 51
23.42659750863135
  0
LINE
  5
2D5
330
17
100
AcDbEntity
  8
4
100
AcDbLine
 10
1146.333942339414
 20
1184.535262562077
 30
0.0
 11
1146.333942339415
 21
1168.080779890172
 31
0.0
  0
ARC
  5
2D6
330
17
100
AcDbEntity
  8
4
100
AcDbCircle
 10
1142.458563464136
 20
1168.080779890172
 30
0.0
 40
3.875378875279244
100
AcDbArc
 50
314.955926762738
 51
45.04407323726194
  0
LINE
  5
2D7
330
17
100
AcDbEntity
  8
4
100
AcDbLine
 10
1135.333942339415
 20
1165.33836611152
 30
0.0
 11
1135.333942339414
 21
1187.277676340726
 31
0.0
  0
LINE
  5
2D8
330
17
100
AcDbEntity
  8
4
100
AcDbLine
 10
1138.333942339415
 20
1165.33836611152
 30
0.0
 11
1138.333942339414
 21
1187.277676340726
 31
0.0
  0
LINE
  5
2D9
330
17
100
AcDbEntity
  8
L-CENTER
 48
2.0
100
AcDbLine
 10
1149.934782219525
 20
1091.870668606838
 30
0.0
 11
1099.593188373037
 21
1091.870668606834
 31
0.0
  0
LINE
  5
2DA
330
17
100
AcDbEntity
  8
4
100
AcDbLine
 10
1145.196761428794
 20
1097.355496164138
 30
0.0
 11
1138.33394233942
 21
1097.355496164138
 31
0.0
  0
LINE
  5
2DB
330
17
100
AcDbEntity
  8
4
100
AcDbLine
 10
1135.33394233942
 20
1102.840323721439
 30
0.0
 11
1145.196761428793
 21
1102.840323721439
 31
0.0
  0
LINE
  5
2DC
330
17
100
AcDbEntity
  8
4
100
AcDbLine
 10
1145.196761428794
 20
1086.385841049535
 30
0.0
 11
1138.333942339421
 21
1086.385841049535
 31
0.0
  0
LINE
  5
2DD
330
17
100
AcDbEntity
  8
4
100
AcDbLine
 10
1145.196761428795
 20
1080.901013492233
 30
0.0
 11
1135.333942339421
 21
1080.901013492233
 31
0.0
  0
ARC
  5
2DE
330
17
100
AcDbEntity
  8
4
100
AcDbCircle
 10
1142.458563464141
 20
1100.097909942789
 30
0.0
 40
3.875378875279264
100
AcDbArc
 50
314.9559267627476
 51
45.04407323728095
  0
ARC
  5
2DF
330
17
100
AcDbEntity
  8
4
100
AcDbCircle
 10
1132.538198204243
 20
1091.870668606836
 30
0.0
 40
13.7957441351769
100
AcDbArc
 50
336.5734024913767
 51
23.42659750863135
  0
LINE
  5
2E0
330
17
100
AcDbEntity
  8
4
100
AcDbLine
 10
1146.33394233942
 20
1100.097909942789
 30
0.0
 11
1146.333942339421
 21
1083.643427270884
 31
0.0
  0
ARC
  5
2E1
330
17
100
AcDbEntity
  8
4
100
AcDbCircle
 10
1142.458563464142
 20
1083.643427270884
 30
0.0
 40
3.875378875279244
100
AcDbArc
 50
314.9559267627476
 51
45.04407323728095
  0
LINE
  5
2E2
330
17
100
AcDbEntity
  8
4
100
AcDbLine
 10
1135.333942339421
 20
1080.901013492233
 30
0.0
 11
1135.33394233942
 21
1102.840323721439
 31
0.0
  0
LINE
  5
2E3
330
17
100
AcDbEntity
  8
4
100
AcDbLine
 10
1138.333942339421
 20
1080.901013492233
 30
0.0
 11
1138.33394233942
 21
1102.840323721439
 31
0.0
  0
LINE
  5
2E4
330
17
100
AcDbEntity
  8
4
100
AcDbLine
 10
509.7339424339311
 20
1165.33836611152
 30
0.0
 11
509.7339424339311
 21
1131.308021226101
 31
0.0
  0
LINE
  5
2E5
330
17
100
AcDbEntity
  8
4
100
AcDbLine
 10
1705.372603659522
 20
404.631618216614
 30
0.0
 11
1695.872603659522
 21
399.1467906593127
 31
0.0
  0
LINE
  5
2E6
330
17
100
AcDbEntity
  8
4
100
AcDbLine
 10
1695.872603659522
 20
388.1771355447102
 30
0.0
 11
1705.372603659522
 21
382.692307987408
 31
0.0
  0
CIRCLE
  5
2E7
330
17
100
AcDbEntity
  8
4
100
AcDbCircle
 10
1705.372603659522
 20
393.6619631020114
 30
0.0
 40
9.5
  0
LINE
  5
2E8
330
17
100
AcDbEntity
  8
4
100
AcDbLine
 10
1695.872603659522
 20
399.1467906593127
 30
0.0
 11
1695.872603659522
 21
388.1771355447102
 31
0.0
  0
LINE
  5
2E9
330
17
100
AcDbEntity
  8
4
100
AcDbLine
 10
1714.872603659522
 20
399.1467906593127
 30
0.0
 11
1705.372603659522
 21
404.631618216614
 31
0.0
  0
LINE
  5
2EA
330
17
100
AcDbEntity
  8
4
100
AcDbLine
 10
1714.872603659522
 20
388.1771355447102
 30
0.0
 11
1714.872603659522
 21
399.1467906593127
 31
0.0
  0
LINE
  5
2EB
330
17
100
AcDbEntity
  8
4
100
AcDbLine
 10
1705.372603659522
 20
382.692307987408
 30
0.0
 11
1714.872603659522
 21
388.1771355447102
 31
0.0
  0
CIRCLE
  5
2EC
330
17
100
AcDbEntity
  8
4
100
AcDbCircle
 10
1620.935126790539
 20
344.911963102011
 30
0.0
 40
9.5
  0
LINE
  5
2ED
330
17
100
AcDbEntity
  8
4
100
AcDbLine
 10
1620.935126790539
 20
333.9423079874084
 30
0.0
 11
1630.435126790539
 21
339.4271355447092
 31
0.0
  0
LINE
  5
2EE
330
17
100
AcDbEntity
  8
4
100
AcDbLine
 10
1611.435126790539
 20
350.3967906593123
 30
0.0
 11
1611.435126790539
 21
339.4271355447097
 31
0.0
  0
LINE
  5
2EF
330
17
100
AcDbEntity
  8
4
100
AcDbLine
 10
1611.435126790539
 20
339.4271355447097
 30
0.0
 11
1620.935126790539
 21
333.9423079874084
 31
0.0
  0
LINE
  5
2F0
330
17
100
AcDbEntity
  8
4
100
AcDbLine
 10
1630.435126790539
 20
339.4271355447092
 30
0.0
 11
1630.435126790539
 21
350.3967906593127
 31
0.0
  0
LINE
  5
2F1
330
17
100
AcDbEntity
  8
4
100
AcDbLine
 10
1630.435126790539
 20
350.3967906593127
 30
0.0
 11
1620.935126790539
 21
355.881618216614
 31
0.0
  0
LINE
  5
2F2
330
17
100
AcDbEntity
  8
4
100
AcDbLine
 10
1620.935126790539
 20
355.881618216614
 30
0.0
 11
1611.435126790539
 21
350.3967906593123
 31
0.0
  0
CIRCLE
  5
2F3
330
17
100
AcDbEntity
  8
4
100
AcDbCircle
 10
1620.935126790539
 20
247.4119631020117
 30
0.0
 40
9.5
  0
LINE
  5
2F4
330
17
100
AcDbEntity
  8
4
100
AcDbLine
 10
1630.435126790539
 20
241.9271355447097
 30
0.0
 11
1630.43512679054
 21
252.896790659313
 31
0.0
  0
LINE
  5
2F5
330
17
100
AcDbEntity
  8
4
100
AcDbLine
 10
1611.43512679054
 20
241.9271355447099
 30
0.0
 11
1620.93512679054
 21
236.4423079874084
 31
0.0
  0
LINE
  5
2F6
330
17
100
AcDbEntity
  8
4
100
AcDbLine
 10
1620.93512679054
 20
236.4423079874084
 30
0.0
 11
1630.435126790539
 21
241.9271355447097
 31
0.0
  0
LINE
  5
2F7
330
17
100
AcDbEntity
  8
4
100
AcDbLine
 10
1630.43512679054
 20
252.896790659313
 30
0.0
 11
1620.935126790539
 21
258.381618216614
 31
0.0
  0
LINE
  5
2F8
330
17
100
AcDbEntity
  8
4
100
AcDbLine
 10
1620.935126790539
 20
258.381618216614
 30
0.0
 11
1611.43512679054
 21
252.8967906593127
 31
0.0
  0
LINE
  5
2F9
330
17
100
AcDbEntity
  8
4
100
AcDbLine
 10
1611.43512679054
 20
252.8967906593127
 30
0.0
 11
1611.43512679054
 21
241.9271355447099
 31
0.0
  0
CIRCLE
  5
2FA
330
17
100
AcDbEntity
  8
4
100
AcDbCircle
 10
1705.372603659522
 20
198.6619631020117
 30
0.0
 40
9.5
  0
LINE
  5
2FB
330
17
100
AcDbEntity
  8
4
100
AcDbLine
 10
1714.872603659522
 20
204.146790659313
 30
0.0
 11
1705.372603659522
 21
209.6316182166152
 31
0.0
  0
LINE
  5
2FC
330
17
100
AcDbEntity
  8
4
100
AcDbLine
 10
1705.372603659522
 20
187.6923079874091
 30
0.0
 11
1714.872603659522
 21
193.1771355447104
 31
0.0
  0
LINE
  5
2FD
330
17
100
AcDbEntity
  8
4
100
AcDbLine
 10
1714.872603659522
 20
193.1771355447104
 30
0.0
 11
1714.872603659522
 21
204.146790659313
 31
0.0
  0
LINE
  5
2FE
330
17
100
AcDbEntity
  8
4
100
AcDbLine
 10
1705.372603659522
 20
209.6316182166152
 30
0.0
 11
1695.872603659522
 21
204.146790659313
 31
0.0
  0
LINE
  5
2FF
330
17
100
AcDbEntity
  8
4
100
AcDbLine
 10
1695.872603659522
 20
204.146790659313
 30
0.0
 11
1695.872603659522
 21
193.1771355447104
 31
0.0
  0
LINE
  5
300
330
17
100
AcDbEntity
  8
4
100
AcDbLine
 10
1695.872603659522
 20
193.1771355447104
 30
0.0
 11
1705.372603659522
 21
187.6923079874091
 31
0.0
  0
CIRCLE
  5
301
330
17
100
AcDbEntity
  8
4
100
AcDbCircle
 10
1789.810080528505
 20
247.4119631020117
 30
0.0
 40
9.5
  0
LINE
  5
302
330
17
100
AcDbEntity
  8
4
100
AcDbLine
 10
1789.810080528505
 20
258.3816182166145
 30
0.0
 11
1780.310080528504
 21
252.8967906593132
 31
0.0
  0
LINE
  5
303
330
17
100
AcDbEntity
  8
4
100
AcDbLine
 10
1799.310080528504
 20
241.9271355447102
 30
0.0
 11
1799.310080528505
 21
252.8967906593132
 31
0.0
  0
LINE
  5
304
330
17
100
AcDbEntity
  8
4
100
AcDbLine
 10
1799.310080528505
 20
252.8967906593132
 30
0.0
 11
1789.810080528505
 21
258.3816182166145
 31
0.0
  0
LINE
  5
305
330
17
100
AcDbEntity
  8
4
100
AcDbLine
 10
1780.310080528504
 20
252.8967906593132
 30
0.0
 11
1780.310080528505
 21
241.9271355447102
 31
0.0
  0
LINE
  5
306
330
17
100
AcDbEntity
  8
4
100
AcDbLine
 10
1780.310080528505
 20
241.9271355447102
 30
0.0
 11
1789.810080528505
 21
236.4423079874089
 31
0.0
  0
LINE
  5
307
330
17
100
AcDbEntity
  8
4
100
AcDbLine
 10
1789.810080528505
 20
236.4423079874089
 30
0.0
 11
1799.310080528504
 21
241.9271355447102
 31
0.0
  0
CIRCLE
  5
308
330
17
100
AcDbEntity
  8
4
100
AcDbCircle
 10
1789.810080528504
 20
344.9119631020119
 30
0.0
 40
9.5
  0
LINE
  5
309
330
17
100
AcDbEntity
  8
4
100
AcDbLine
 10
1780.310080528504
 20
350.3967906593132
 30
0.0
 11
1780.310080528504
 21
339.4271355447097
 31
0.0
  0
LINE
  5
30A
330
17
100
AcDbEntity
  8
4
100
AcDbLine
 10
1799.310080528504
 20
350.3967906593127
 30
0.0
 11
1789.810080528504
 21
355.8816182166145
 31
0.0
  0
LINE
  5
30B
330
17
100
AcDbEntity
  8
4
100
AcDbLine
 10
1789.810080528504
 20
355.8816182166145
 30
0.0
 11
1780.310080528504
 21
350.3967906593132
 31
0.0
  0
LINE
  5
30C
330
17
100
AcDbEntity
  8
4
100
AcDbLine
 10
1780.310080528504
 20
339.4271355447097
 30
0.0
 11
1789.810080528504
 21
333.9423079874089
 31
0.0
  0
LINE
  5
30D
330
17
100
AcDbEntity
  8
4
100
AcDbLine
 10
1789.810080528504
 20
333.9423079874089
 30
0.0
 11
1799.310080528504
 21
339.4271355447102
 31
0.0
  0
LINE
  5
30E
330
17
100
AcDbEntity
  8
4
100
AcDbLine
 10
1799.310080528504
 20
339.4271355447102
 30
0.0
 11
1799.310080528504
 21
350.3967906593127
 31
0.0
  0
ARC
  5
30F
330
17
100
AcDbEntity
  8
4
100
AcDbCircle
 10
823.0339423394048
 20
1471.308021226101
 30
0.0
 40
46.500054
100
AcDbArc
 50
14.95523054380946
 51
345.0447870000007
  0
LINE
  5
310
330
17
100
AcDbEntity
  8
4
100
AcDbLine
 10
861.5339383394053
 20
1459.308021226101
 30
0.0
 11
861.5339383394053
 21
1483.308021226101
 31
0.0
  0
LINE
  5
311
330
17
100
AcDbEntity
  8
4
100
AcDbLine
 10
877.533940339405
 20
1459.308021226101
 30
0.0
 11
877.533940339405
 21
1483.308021226101
 31
0.0
  0
LINE
  5
312
330
17
100
AcDbEntity
  8
4
100
AcDbLine
 10
877.533940339405
 20
1483.308021226101
 30
0.0
 11
861.5339383394053
 21
1483.308021226101
 31
0.0
  0
LINE
  5
313
330
17
100
AcDbEntity
  8
4
100
AcDbLine
 10
861.5339383394053
 20
1459.308021226101
 30
0.0
 11
877.533940339405
 21
1459.308021226101
 31
0.0
  0
LINE
  5
314
330
17
100
AcDbEntity
  8
L-CENTER
 48
2.0
100
AcDbLine
 10
1734.721991043952
 20
487.4619630521811
 30
0.0
 11
1836.023216226771
 21
487.4619630521811
 31
0.0
  0
ARC
  5
315
330
17
100
AcDbEntity
  8
4
100
AcDbCircle
 10
1785.372603635362
 20
487.4619630521811
 30
0.0
 40
36.0
100
AcDbArc
 50
304.0502224511964
 51
235.9497775487916
  0
LINE
  5
316
330
17
100
AcDbEntity
  8
4
100
AcDbLine
 10
1802.872603635362
 20
452.4619630521811
 30
0.0
 11
1801.372603635362
 21
465.4619630521811
 31
0.0
  0
LINE
  5
317
330
17
100
AcDbEntity
  8
4
100
AcDbLine
 10
1769.372603635362
 20
465.4619630521811
 30
0.0
 11
1785.372603635362
 21
467.4619630521811
 31
0.0
  0
LINE
  5
318
330
17
100
AcDbEntity
  8
4
100
AcDbLine
 10
1767.983103440175
 20
453.4196280272276
 30
0.0
 11
1769.372603635362
 21
465.4619630521811
 31
0.0
  0
LINE
  5
319
330
17
100
AcDbEntity
  8
4
100
AcDbLine
 10
1785.372603635362
 20
467.4619630521811
 30
0.0
 11
1801.372603635362
 21
465.4619630521811
 31
0.0
  0
LINE
  5
31A
330
17
100
AcDbEntity
  8
4
100
AcDbLine
 10
1769.372603635362
 20
465.4619630521811
 30
0.0
 11
1801.372603635362
 21
465.4619630521811
 31
0.0
  0
CIRCLE
  5
31B
330
17
100
AcDbEntity
  8
4
100
AcDbCircle
 10
1785.372603635362
 20
487.4619630521811
 30
0.0
 40
20.0
  0
ARC
  5
31C
330
17
100
AcDbEntity
  8
4
100
AcDbCircle
 10
1808.889217555898
 20
452.6629850540785
 30
0.0
 40
6.0
100
AcDbArc
 50
124.050222451196
 51
181.9199780251475
  0
ARC
  5
31D
330
17
100
AcDbEntity
  8
4
100
AcDbCircle
 10
1761.855989714821
 20
452.6629850540867
 30
0.0
 40
6.0
100
AcDbArc
 50
7.459598857820763
 51
55.94977754878231
  0
CIRCLE
  5
31E
330
17
100
AcDbEntity
  8
4
100
AcDbCircle
 10
2215.372603505503
 20
487.4619630521811
 30
0.0
 40
20.0
  0
ARC
  5
31F
330
17
100
AcDbEntity
  8
4
100
AcDbCircle
 10
2215.372603505503
 20
487.4619630521811
 30
0.0
 40
36.0
100
AcDbArc
 50
304.0502224512069
 51
235.949777548802
  0
LINE
  5
320
330
17
100
AcDbEntity
  8
L-CENTER
 48
2.0
100
AcDbLine
 10
2266.023216096912
 20
487.4619630521811
 30
0.0
 11
2164.721990914094
 21
487.4619630521811
 31
0.0
  0
LINE
  5
321
330
17
100
AcDbEntity
  8
4
100
AcDbLine
 10
2231.372603505503
 20
465.4619630521811
 30
0.0
 11
2199.372603505503
 21
465.4619630521811
 31
0.0
  0
LINE
  5
322
330
17
100
AcDbEntity
  8
4
100
AcDbLine
 10
2215.372603505503
 20
467.4619630521811
 30
0.0
 11
2199.372603505503
 21
465.4619630521811
 31
0.0
  0
LINE
  5
323
330
17
100
AcDbEntity
  8
4
100
AcDbLine
 10
2232.76210370069
 20
453.4196280272276
 30
0.0
 11
2231.372603505503
 21
465.4619630521811
 31
0.0
  0
LINE
  5
324
330
17
100
AcDbEntity
  8
4
100
AcDbLine
 10
2231.372603505503
 20
465.4619630521811
 30
0.0
 11
2215.372603505503
 21
467.4619630521811
 31
0.0
  0
LINE
  5
325
330
17
100
AcDbEntity
  8
4
100
AcDbLine
 10
2197.872603505503
 20
452.4619630521811
 30
0.0
 11
2199.372603505503
 21
465.4619630521811
 31
0.0
  0
ARC
  5
326
330
17
100
AcDbEntity
  8
4
100
AcDbCircle
 10
2191.855989584965
 20
452.6629850540785
 30
0.0
 40
6.0
100
AcDbArc
 50
358.0800219748526
 51
55.94977754880399
  0
ARC
  5
327
330
17
100
AcDbEntity
  8
4
100
AcDbCircle
 10
2238.889217426042
 20
452.6629850540867
 30
0.0
 40
6.0
100
AcDbArc
 50
124.0502224512177
 51
172.5404011421793
  0
LINE
  5
328
330
17
100
AcDbEntity
  8
L-CENTER
 48
2.0
100
AcDbLine
 10
2215.372603505503
 20
538.1125756435904
 30
0.0
 11
2215.372603505503
 21
425.1851109477429
 31
0.0
  0
ARC
  5
329
330
17
100
AcDbEntity
  8
4
100
AcDbCircle
 10
823.0339423394043
 20
515.4619630521811
 30
0.0
 40
8.0
100
AcDbArc
 50
0.0
 51
180.0
  0
LINE
  5
32A
330
17
100
AcDbEntity
  8
L-CENTER
100
AcDbLine
 10
807.3239747983453
 20
487.4619630521811
 30
0.0
 11
837.8624047836829
 21
487.4619630521811
 31
0.0
  0
ARC
  5
32B
330
17
100
AcDbEntity
  8
4
100
AcDbCircle
 10
809.0339423394043
 20
458.4619630521811
 30
0.0
 40
6.0
100
AcDbArc
 50
270.0
 51
0.0
  0
LINE
  5
32C
330
17
100
AcDbEntity
  8
4
100
AcDbLine
 10
807.0339423394053
 20
465.4619630521811
 30
0.0
 11
815.0339423394053
 21
466.4619630521811
 31
0.0
  0
LINE
  5
32D
330
17
100
AcDbEntity
  8
4
100
AcDbLine
 10
805.5339423394043
 20
452.4619630521811
 30
0.0
 11
807.0339423394043
 21
465.4619630521811
 31
0.0
  0
LINE
  5
32E
330
17
100
AcDbEntity
  8
4
100
AcDbLine
 10
815.0339423394043
 20
515.4619630521811
 30
0.0
 11
815.0339423394043
 21
458.4619630521811
 31
0.0
  0
ARC
  5
32F
330
17
100
AcDbEntity
  8
4
100
AcDbCircle
 10
837.0339423394043
 20
458.4619630521811
 30
0.0
 40
6.0
100
AcDbArc
 50
180.0
 51
270.0
  0
LINE
  5
330
330
17
100
AcDbEntity
  8
4
100
AcDbLine
 10
831.0339423394053
 20
466.4619630521811
 30
0.0
 11
839.0339423394043
 21
465.4619630521811
 31
0.0
  0
LINE
  5
331
330
17
100
AcDbEntity
  8
4
100
AcDbLine
 10
840.5339423394043
 20
452.4619630521811
 30
0.0
 11
839.0339423394043
 21
465.4619630521811
 31
0.0
  0
LINE
  5
332
330
17
100
AcDbEntity
  8
4
100
AcDbLine
 10
831.0339423394043
 20
515.4619630521811
 30
0.0
 11
831.0339423394043
 21
458.4619630521811
 31
0.0
  0
LINE
  5
333
330
17
100
AcDbEntity
  8
L-CENTER
100
AcDbLine
 10
823.0339423394043
 20
530.1437842431087
 30
0.0
 11
823.0339423394043
 21
450.1793222831957
 31
0.0
  0
ARC
  5
334
330
17
100
AcDbEntity
  8
4
100
AcDbCircle
 10
823.0339423394048
 20
1284.308021226101
 30
0.0
 40
8.0
100
AcDbArc
 50
0.0
 51
180.0
  0
ARC
  5
335
330
17
100
AcDbEntity
  8
4
100
AcDbCircle
 10
823.0339423394048
 20
1228.308021226101
 30
0.0
 40
8.0
100
AcDbArc
 50
180.0
 51
0.0
  0
ARC
  5
336
330
17
100
AcDbEntity
  8
4
100
AcDbCircle
 10
823.0339423394048
 20
1256.308021226101
 30
0.0
 40
17.5
100
AcDbArc
 50
297.2028944122143
 51
62.79710558778572
  0
ARC
  5
337
330
17
100
AcDbEntity
  8
4
100
AcDbCircle
 10
823.0339423394048
 20
1256.308021226101
 30
0.0
 40
16.0
100
AcDbArc
 50
299.9999999999994
 51
60.00000000000097
  0
ARC
  5
338
330
17
100
AcDbEntity
  8
4
100
AcDbCircle
 10
823.0339423394048
 20
1256.308021226101
 30
0.0
 40
16.0
100
AcDbArc
 50
119.999999999999
 51
239.9999999999984
  0
ARC
  5
339
330
17
100
AcDbEntity
  8
4
100
AcDbCircle
 10
823.0339423394048
 20
1256.308021226101
 30
0.0
 40
17.5
100
AcDbArc
 50
117.2028944122143
 51
242.7971055877857
  0
LINE
  5
33A
330
17
100
AcDbEntity
  8
4
100
AcDbLine
 10
831.0339423394039
 20
1228.308021226101
 30
0.0
 11
831.0339423394048
 21
1284.308021226101
 31
0.0
  0
LINE
  5
33B
330
17
100
AcDbEntity
  8
4
100
AcDbLine
 10
815.0339423394039
 20
1228.308021226101
 30
0.0
 11
815.0339423394048
 21
1284.308021226101
 31
0.0
  0
ARC
  5
33C
330
17
100
AcDbEntity
  8
4
100
AcDbCircle
 10
823.0339423394048
 20
1256.308021226101
 30
0.0
 40
25.0
100
AcDbArc
 50
288.6629248849405
 51
71.33707511505739
  0
ARC
  5
33D
330
17
100
AcDbEntity
  8
4
100
AcDbCircle
 10
823.0339423394048
 20
1714.308021226101
 30
0.0
 40
8.0
100
AcDbArc
 50
0.0
 51
180.0
  0
ARC
  5
33E
330
17
100
AcDbEntity
  8
4
100
AcDbCircle
 10
823.0339423394048
 20
1658.308021226101
 30
0.0
 40
8.0
100
AcDbArc
 50
180.0
 51
0.0
  0
ARC
  5
33F
330
17
100
AcDbEntity
  8
4
100
AcDbCircle
 10
823.0339423394048
 20
1686.308021226101
 30
0.0
 40
25.0
100
AcDbArc
 50
108.6629248849446
 51
251.3370751150574
  0
ARC
  5
340
330
17
100
AcDbEntity
  8
4
100
AcDbCircle
 10
823.0339423394048
 20
1686.308021226101
 30
0.0
 40
16.0
100
AcDbArc
 50
120.0000000000016
 51
239.9999999999984
  0
ARC
  5
341
330
17
100
AcDbEntity
  8
4
100
AcDbCircle
 10
823.0339423394048
 20
1686.308021226101
 30
0.0
 40
17.5
100
AcDbArc
 50
117.2028944122143
 51
242.7971055877857
  0
LINE
  5
342
330
17
100
AcDbEntity
  8
4
100
AcDbLine
 10
815.0339423394039
 20
1714.308021226102
 30
0.0
 11
815.0339423394048
 21
1658.308021226102
 31
0.0
  0
ARC
  5
343
330
17
100
AcDbEntity
  8
4
100
AcDbCircle
 10
823.0339423394048
 20
1686.308021226101
 30
0.0
 40
25.0
100
AcDbArc
 50
288.6629248849426
 51
71.33707511505995
  0
ARC
  5
344
330
17
100
AcDbEntity
  8
4
100
AcDbCircle
 10
823.0339423394048
 20
1686.308021226101
 30
0.0
 40
17.5
100
AcDbArc
 50
297.2028944122143
 51
62.79710558778572
  0
ARC
  5
345
330
17
100
AcDbEntity
  8
4
100
AcDbCircle
 10
823.0339423394048
 20
1686.308021226101
 30
0.0
 40
16.0
100
AcDbArc
 50
299.9999999999994
 51
60.00000000000097
  0
LINE
  5
346
330
17
100
AcDbEntity
  8
4
100
AcDbLine
 10
831.0339423394039
 20
1714.308021226102
 30
0.0
 11
831.0339423394048
 21
1658.308021226102
 31
0.0
  0
ARC
  5
347
330
17
100
AcDbEntity
  8
4
100
AcDbCircle
 10
1028.033942339404
 20
1451.389436939058
 30
0.0
 40
3.0
100
AcDbArc
 50
239.9999999999984
 51
300.0000000000053
  0
ARC
  5
348
330
17
100
AcDbEntity
  8
4
100
AcDbCircle
 10
1010.783942339404
 20
1481.267313369621
 30
0.0
 40
3.0
100
AcDbArc
 50
120.0000000000035
 51
180.0
  0
ARC
  5
349
330
17
100
AcDbEntity
  8
4
100
AcDbCircle
 10
1010.783942339404
 20
1461.348729082579
 30
0.0
 40
3.0
100
AcDbArc
 50
180.0
 51
239.9999999999965
  0
LINE
  5
34A
330
17
100
AcDbEntity
  8
4
100
AcDbLine
 10
1007.783942339404
 20
1461.348729082579
 30
0.0
 11
1007.783942339404
 21
1481.267313369621
 31
0.0
  0
ARC
  5
34B
330
17
100
AcDbEntity
  8
4
100
AcDbCircle
 10
1045.283942339405
 20
1461.348729082579
 30
0.0
 40
3.0
100
AcDbArc
 50
299.9999999999898
 51
0.0
  0
ARC
  5
34C
330
17
100
AcDbEntity
  8
4
100
AcDbCircle
 10
1045.283942339405
 20
1481.267313369621
 30
0.0
 40
3.0
100
AcDbArc
 50
0.0
 51
60.00000000000647
  0
ARC
  5
34D
330
17
100
AcDbEntity
  8
4
100
AcDbCircle
 10
1028.033942339404
 20
1491.226605513143
 30
0.0
 40
3.0
100
AcDbArc
 50
59.99999999999461
 51
120.0000000000016
  0
LINE
  5
34E
330
17
100
AcDbEntity
  8
4
100
AcDbLine
 10
1029.533942339404
 20
1493.824681724496
 30
0.0
 11
1046.783942339404
 21
1483.865389580974
 31
0.0
  0
LINE
  5
34F
330
17
100
AcDbEntity
  8
4
100
AcDbLine
 10
1048.283942339404
 20
1461.348729082579
 30
0.0
 11
1048.283942339404
 21
1481.267313369621
 31
0.0
  0
LINE
  5
350
330
17
100
AcDbEntity
  8
4
100
AcDbLine
 10
1009.283942339404
 20
1483.865389580974
 30
0.0
 11
1026.533942339404
 21
1493.824681724496
 31
0.0
  0
LINE
  5
351
330
17
100
AcDbEntity
  8
4
100
AcDbLine
 10
1026.533942339404
 20
1448.791360727705
 30
0.0
 11
1009.283942339404
 21
1458.750652871226
 31
0.0
  0
LINE
  5
352
330
17
100
AcDbEntity
  8
4
100
AcDbLine
 10
1029.533942339404
 20
1448.791360727705
 30
0.0
 11
1046.783942339404
 21
1458.750652871226
 31
0.0
  0
CIRCLE
  5
353
330
17
100
AcDbEntity
  8
4
100
AcDbCircle
 10
1028.033942339404
 20
1471.308021226101
 30
0.0
 40
23.0
  0
LINE
  5
354
330
17
100
AcDbEntity
  8
4
100
AcDbLine
 10
962.2839423394043
 20
1723.46575129467
 30
0.0
 11
952.7839423394043
 21
1717.980923737369
 31
0.0
  0
LINE
  5
355
330
17
100
AcDbEntity
  8
4
100
AcDbLine
 10
952.7839423394043
 20
1707.011268622766
 30
0.0
 11
962.2839423394043
 21
1701.526441065464
 31
0.0
  0
CIRCLE
  5
356
330
17
100
AcDbEntity
  8
4
100
AcDbCircle
 10
962.2839423394043
 20
1712.496096180068
 30
0.0
 40
9.5
  0
LINE
  5
357
330
17
100
AcDbEntity
  8
4
100
AcDbLine
 10
952.7839423394043
 20
1717.980923737369
 30
0.0
 11
952.7839423394043
 21
1707.011268622766
 31
0.0
  0
LINE
  5
358
330
17
100
AcDbEntity
  8
4
100
AcDbLine
 10
971.7839423394043
 20
1717.980923737369
 30
0.0
 11
962.2839423394043
 21
1723.46575129467
 31
0.0
  0
LINE
  5
359
330
17
100
AcDbEntity
  8
4
100
AcDbLine
 10
971.7839423394043
 20
1707.011268622766
 30
0.0
 11
971.7839423394043
 21
1717.980923737369
 31
0.0
  0
LINE
  5
35A
330
17
100
AcDbEntity
  8
4
100
AcDbLine
 10
962.2839423394043
 20
1701.526441065464
 30
0.0
 11
971.7839423394043
 21
1707.011268622766
 31
0.0
  0
LINE
  5
35B
330
17
100
AcDbEntity
  8
4
100
AcDbLine
 10
693.2839423394048
 20
1707.011268622765
 30
0.0
 11
693.2839423394043
 21
1717.980923737369
 31
0.0
  0
LINE
  5
35C
330
17
100
AcDbEntity
  8
4
100
AcDbLine
 10
683.7839423394043
 20
1723.46575129467
 30
0.0
 11
674.2839423394043
 21
1717.980923737368
 31
0.0
  0
CIRCLE
  5
35D
330
17
100
AcDbEntity
  8
4
100
AcDbCircle
 10
683.7839423394039
 20
1712.496096180067
 30
0.0
 40
9.5
  0
LINE
  5
35E
330
17
100
AcDbEntity
  8
4
100
AcDbLine
 10
674.2839423394043
 20
1707.011268622765
 30
0.0
 11
683.7839423394043
 21
1701.526441065464
 31
0.0
  0
LINE
  5
35F
330
17
100
AcDbEntity
  8
4
100
AcDbLine
 10
683.7839423394043
 20
1701.526441065464
 30
0.0
 11
693.2839423394048
 21
1707.011268622765
 31
0.0
  0
LINE
  5
360
330
17
100
AcDbEntity
  8
4
100
AcDbLine
 10
674.2839423394043
 20
1717.980923737368
 30
0.0
 11
674.2839423394043
 21
1707.011268622765
 31
0.0
  0
LINE
  5
361
330
17
100
AcDbEntity
  8
4
100
AcDbLine
 10
693.2839423394043
 20
1717.980923737369
 30
0.0
 11
683.7839423394043
 21
1723.46575129467
 31
0.0
  0
LINE
  5
362
330
17
100
AcDbEntity
  8
4
100
AcDbLine
 10
554.0339423394053
 20
1476.792848783402
 30
0.0
 11
544.5339423394043
 21
1482.277676340703
 31
0.0
  0
LINE
  5
363
330
17
100
AcDbEntity
  8
4
100
AcDbLine
 10
535.0339423394043
 20
1476.792848783402
 30
0.0
 11
535.0339423394053
 21
1465.823193668798
 31
0.0
  0
CIRCLE
  5
364
330
17
100
AcDbEntity
  8
4
100
AcDbCircle
 10
544.5339423394048
 20
1471.3080212261
 30
0.0
 40
9.5
  0
LINE
  5
365
330
17
100
AcDbEntity
  8
4
100
AcDbLine
 10
544.5339423394043
 20
1460.338366111497
 30
0.0
 11
554.0339423394043
 21
1465.823193668798
 31
0.0
  0
LINE
  5
366
330
17
100
AcDbEntity
  8
4
100
AcDbLine
 10
554.0339423394043
 20
1465.823193668798
 30
0.0
 11
554.0339423394053
 21
1476.792848783402
 31
0.0
  0
LINE
  5
367
330
17
100
AcDbEntity
  8
4
100
AcDbLine
 10
535.0339423394053
 20
1465.823193668798
 30
0.0
 11
544.5339423394043
 21
1460.338366111497
 31
0.0
  0
LINE
  5
368
330
17
100
AcDbEntity
  8
4
100
AcDbLine
 10
544.5339423394043
 20
1482.277676340703
 30
0.0
 11
535.0339423394043
 21
1476.792848783402
 31
0.0
  0
LINE
  5
369
330
17
100
AcDbEntity
  8
4
100
AcDbLine
 10
683.7839423394053
 20
1241.089601386738
 30
0.0
 11
674.2839423394053
 21
1235.604773829436
 31
0.0
  0
LINE
  5
36A
330
17
100
AcDbEntity
  8
4
100
AcDbLine
 10
674.2839423394053
 20
1224.635118714833
 30
0.0
 11
683.7839423394053
 21
1219.150291157532
 31
0.0
  0
CIRCLE
  5
36B
330
17
100
AcDbEntity
  8
4
100
AcDbCircle
 10
683.7839423394053
 20
1230.119946272135
 30
0.0
 40
9.5
  0
LINE
  5
36C
330
17
100
AcDbEntity
  8
4
100
AcDbLine
 10
693.2839423394053
 20
1224.635118714833
 30
0.0
 11
693.2839423394053
 21
1235.604773829436
 31
0.0
  0
LINE
  5
36D
330
17
100
AcDbEntity
  8
4
100
AcDbLine
 10
693.2839423394053
 20
1235.604773829436
 30
0.0
 11
683.7839423394053
 21
1241.089601386738
 31
0.0
  0
LINE
  5
36E
330
17
100
AcDbEntity
  8
4
100
AcDbLine
 10
683.7839423394053
 20
1219.150291157532
 30
0.0
 11
693.2839423394053
 21
1224.635118714833
 31
0.0
  0
LINE
  5
36F
330
17
100
AcDbEntity
  8
4
100
AcDbLine
 10
674.2839423394053
 20
1235.604773829436
 30
0.0
 11
674.2839423394053
 21
1224.635118714833
 31
0.0
  0
LINE
  5
370
330
17
100
AcDbEntity
  8
4
100
AcDbLine
 10
952.7839423394048
 20
1235.604773829437
 30
0.0
 11
952.7839423394053
 21
1224.635118714833
 31
0.0
  0
LINE
  5
371
330
17
100
AcDbEntity
  8
4
100
AcDbLine
 10
962.2839423394053
 20
1219.150291157532
 30
0.0
 11
971.7839423394048
 21
1224.635118714833
 31
0.0
  0
CIRCLE
  5
372
330
17
100
AcDbEntity
  8
4
100
AcDbCircle
 10
962.2839423394057
 20
1230.119946272135
 30
0.0
 40
9.5
  0
LINE
  5
373
330
17
100
AcDbEntity
  8
4
100
AcDbLine
 10
971.7839423394053
 20
1235.604773829437
 30
0.0
 11
962.2839423394053
 21
1241.089601386738
 31
0.0
  0
LINE
  5
374
330
17
100
AcDbEntity
  8
4
100
AcDbLine
 10
962.2839423394053
 20
1241.089601386738
 30
0.0
 11
952.7839423394048
 21
1235.604773829437
 31
0.0
  0
LINE
  5
375
330
17
100
AcDbEntity
  8
4
100
AcDbLine
 10
971.7839423394048
 20
1224.635118714833
 30
0.0
 11
971.7839423394053
 21
1235.604773829437
 31
0.0
  0
LINE
  5
376
330
17
100
AcDbEntity
  8
4
100
AcDbLine
 10
952.7839423394053
 20
1224.635118714833
 30
0.0
 11
962.2839423394053
 21
1219.150291157532
 31
0.0
  0
LINE
  5
377
330
17
100
AcDbEntity
  8
4
100
AcDbLine
 10
1092.033942339405
 20
1465.823193668799
 30
0.0
 11
1101.533942339406
 21
1460.338366111498
 31
0.0
  0
LINE
  5
378
330
17
100
AcDbEntity
  8
4
100
AcDbLine
 10
1111.033942339406
 20
1465.823193668799
 30
0.0
 11
1111.033942339405
 21
1476.792848783403
 31
0.0
  0
CIRCLE
  5
379
330
17
100
AcDbEntity
  8
4
100
AcDbCircle
 10
1101.533942339405
 20
1471.308021226101
 30
0.0
 40
9.5
  0
LINE
  5
37A
330
17
100
AcDbEntity
  8
4
100
AcDbLine
 10
1101.533942339406
 20
1482.277676340704
 30
0.0
 11
1092.033942339406
 21
1476.792848783403
 31
0.0
  0
LINE
  5
37B
330
17
100
AcDbEntity
  8
4
100
AcDbLine
 10
1092.033942339406
 20
1476.792848783403
 30
0.0
 11
1092.033942339405
 21
1465.823193668799
 31
0.0
  0
LINE
  5
37C
330
17
100
AcDbEntity
  8
4
100
AcDbLine
 10
1111.033942339405
 20
1476.792848783403
 30
0.0
 11
1101.533942339406
 21
1482.277676340704
 31
0.0
  0
LINE
  5
37D
330
17
100
AcDbEntity
  8
4
100
AcDbLine
 10
1101.533942339406
 20
1460.338366111498
 30
0.0
 11
1111.033942339406
 21
1465.823193668799
 31
0.0
  0
LINE
  5
37E
330
17
100
AcDbEntity
  8
4
100
AcDbLine
 10
2230.590948455829
 20
452.3247821472924
 30
0.0
 11
2230.590948455829
 21
442.4619630579191
 31
0.0
  0
LINE
  5
37F
330
17
100
AcDbEntity
  8
4
100
AcDbLine
 10
2236.075776013131
 20
452.3247821472924
 30
0.0
 11
2236.075776013131
 21
445.4619630579191
 31
0.0
  0
LINE
  5
380
330
17
100
AcDbEntity
  8
4
100
AcDbLine
 10
2252.530258685034
 20
442.4619630579191
 30
0.0
 11
2252.530258685034
 21
452.3247821472924
 31
0.0
  0
LINE
  5
381
330
17
100
AcDbEntity
  8
4
100
AcDbLine
 10
2247.045431127734
 20
452.3247821472924
 30
0.0
 11
2247.045431127734
 21
445.4619630579191
 31
0.0
  0
ARC
  5
382
330
17
100
AcDbEntity
  8
4
100
AcDbCircle
 10
2233.33336223448
 20
449.5865841826399
 30
0.0
 40
3.875378875279244
100
AcDbArc
 50
44.9559267627547
 51
135.044073237262
  0
LINE
  5
383
330
17
100
AcDbEntity
  8
4
100
AcDbLine
 10
2249.787844906385
 20
453.4619630579191
 30
0.0
 11
2233.33336223448
 21
453.4619630579191
 31
0.0
  0
ARC
  5
384
330
17
100
AcDbEntity
  8
4
100
AcDbCircle
 10
2241.560603570432
 20
439.6662189227418
 30
0.0
 40
13.7957441351769
100
AcDbArc
 50
66.57340249136868
 51
113.4265975086233
  0
ARC
  5
385
330
17
100
AcDbEntity
  8
4
100
AcDbCircle
 10
2249.787844906385
 20
449.5865841826399
 30
0.0
 40
3.875378875279264
100
AcDbArc
 50
44.9559267627547
 51
135.044073237262
  0
LINE
  5
386
330
17
100
AcDbEntity
  8
4
100
AcDbLine
 10
2230.590948455829
 20
445.4619630579191
 30
0.0
 11
2252.530258685034
 21
445.4619630579191
 31
0.0
  0
LINE
  5
387
330
17
100
AcDbEntity
  8
4
100
AcDbLine
 10
2230.590948455829
 20
442.4619630579191
 30
0.0
 11
2252.530258685034
 21
442.4619630579191
 31
0.0
  0
LINE
  5
388
330
17
100
AcDbEntity
  8
4
100
AcDbLine
 10
1989.402948455829
 20
442.4619630579191
 30
0.0
 11
2011.342258685034
 21
442.4619630579191
 31
0.0
  0
LINE
  5
389
330
17
100
AcDbEntity
  8
4
100
AcDbLine
 10
1989.402948455829
 20
445.4619630579191
 30
0.0
 11
2011.342258685034
 21
445.4619630579191
 31
0.0
  0
ARC
  5
38A
330
17
100
AcDbEntity
  8
4
100
AcDbCircle
 10
2008.599844906385
 20
449.5865841826399
 30
0.0
 40
3.875378875279264
100
AcDbArc
 50
44.9559267627547
 51
135.044073237262
  0
ARC
  5
38B
330
17
100
AcDbEntity
  8
4
100
AcDbCircle
 10
2000.372603570432
 20
439.6662189227418
 30
0.0
 40
13.7957441351769
100
AcDbArc
 50
66.57340249136868
 51
113.4265975086233
  0
LINE
  5
38C
330
17
100
AcDbEntity
  8
4
100
AcDbLine
 10
2008.599844906385
 20
453.4619630579191
 30
0.0
 11
1992.14536223448
 21
453.4619630579191
 31
0.0
  0
ARC
  5
38D
330
17
100
AcDbEntity
  8
4
100
AcDbCircle
 10
1992.14536223448
 20
449.5865841826399
 30
0.0
 40
3.875378875279244
100
AcDbArc
 50
44.9559267627547
 51
135.044073237262
  0
LINE
  5
38E
330
17
100
AcDbEntity
  8
4
100
AcDbLine
 10
2005.857431127734
 20
452.3247821472924
 30
0.0
 11
2005.857431127734
 21
445.4619630579191
 31
0.0
  0
LINE
  5
38F
330
17
100
AcDbEntity
  8
4
100
AcDbLine
 10
2011.342258685034
 20
442.4619630579191
 30
0.0
 11
2011.342258685034
 21
452.3247821472924
 31
0.0
  0
LINE
  5
390
330
17
100
AcDbEntity
  8
4
100
AcDbLine
 10
1994.887776013131
 20
452.3247821472924
 30
0.0
 11
1994.887776013131
 21
445.4619630579191
 31
0.0
  0
LINE
  5
391
330
17
100
AcDbEntity
  8
4
100
AcDbLine
 10
1989.402948455829
 20
452.3247821472924
 30
0.0
 11
1989.402948455829
 21
442.4619630579191
 31
0.0
  0
ARC
  5
392
330
17
100
AcDbEntity
  8
4
100
AcDbCircle
 10
1767.411844906385
 20
449.5865841826399
 30
0.0
 40
3.875378875279264
100
AcDbArc
 50
44.95592676275233
 51
135.044073237262
  0
LINE
  5
393
330
17
100
AcDbEntity
  8
4
100
AcDbLine
 10
1748.214948455829
 20
445.4619630579191
 30
0.0
 11
1770.154258685034
 21
445.4619630579191
 31
0.0
  0
LINE
  5
394
330
17
100
AcDbEntity
  8
4
100
AcDbLine
 10
1748.214948455829
 20
442.4619630579191
 30
0.0
 11
1770.154258685034
 21
442.4619630579191
 31
0.0
  0
LINE
  5
395
330
17
100
AcDbEntity
  8
4
100
AcDbLine
 10
1748.214948455829
 20
452.3247821472924
 30
0.0
 11
1748.214948455829
 21
442.4619630579191
 31
0.0
  0
LINE
  5
396
330
17
100
AcDbEntity
  8
4
100
AcDbLine
 10
1753.699776013131
 20
452.3247821472924
 30
0.0
 11
1753.699776013131
 21
445.4619630579191
 31
0.0
  0
LINE
  5
397
330
17
100
AcDbEntity
  8
4
100
AcDbLine
 10
1764.669431127734
 20
452.3247821472924
 30
0.0
 11
1764.669431127734
 21
445.4619630579191
 31
0.0
  0
ARC
  5
398
330
17
100
AcDbEntity
  8
4
100
AcDbCircle
 10
1750.95736223448
 20
449.5865841826399
 30
0.0
 40
3.875378875279244
100
AcDbArc
 50
44.95592676275233
 51
135.044073237262
  0
LINE
  5
399
330
17
100
AcDbEntity
  8
4
100
AcDbLine
 10
1767.411844906385
 20
453.4619630579191
 30
0.0
 11
1750.95736223448
 21
453.4619630579191
 31
0.0
  0
ARC
  5
39A
330
17
100
AcDbEntity
  8
4
100
AcDbCircle
 10
1759.184603570432
 20
439.6662189227418
 30
0.0
 40
13.7957441351769
100
AcDbArc
 50
66.57340249136868
 51
113.4265975086271
  0
LINE
  5
39B
330
17
100
AcDbEntity
  8
4
100
AcDbLine
 10
1770.154258685034
 20
442.4619630579191
 30
0.0
 11
1770.154258685034
 21
452.3247821472924
 31
0.0
  0
LINE
  5
39C
330
17
100
AcDbEntity
  8
4
100
AcDbLine
 10
2230.735140191706
 20
452.4619630521811
 30
0.0
 11
2190.372603513052
 21
452.4619630521811
 31
0.0
  0
LINE
  5
39D
330
17
100
AcDbEntity
  8
4
100
AcDbLine
 10
1770.010066949159
 20
452.4619630521811
 30
0.0
 11
1810.372603627812
 21
452.4619630521811
 31
0.0
  0
LINE
  5
39E
330
17
100
AcDbEntity
  8
4
100
AcDbLine
 10
2303.872603479228
 20
273.6619631140913
 30
0.0
 11
2302.372603479228
 21
273.6619631140913
 31
0.0
  0
LINE
  5
39F
330
17
100
AcDbEntity
  8
4
100
AcDbLine
 10
2305.872603479228
 20
274.1619631140913
 30
0.0
 11
2303.872603479228
 21
274.1619631140913
 31
0.0
  0
LINE
  5
3A0
330
17
100
AcDbEntity
  8
4
100
AcDbLine
 10
2310.121191930941
 20
273.4824711897802
 30
0.0
 11
2305.872603479228
 21
273.4824711897802
 31
0.0
  0
LINE
  5
3A1
330
17
100
AcDbEntity
  8
4
100
AcDbLine
 10
2310.68501550611
 20
247.5017090762469
 30
0.0
 11
2305.872603479228
 21
247.5017090762469
 31
0.0
  0
LINE
  5
3A2
330
17
100
AcDbEntity
  8
4
100
AcDbLine
 10
2310.68501550611
 20
264.8222171519358
 30
0.0
 11
2305.872603479228
 21
264.8222171519358
 31
0.0
  0
LINE
  5
3A3
330
17
100
AcDbEntity
  8
4
100
AcDbLine
 10
2303.872603479228
 20
238.6619631140913
 30
0.0
 11
2302.372603479228
 21
238.6619631140913
 31
0.0
  0
LINE
  5
3A4
330
17
100
AcDbEntity
  8
4
100
AcDbLine
 10
2305.872603479228
 20
238.1619631140913
 30
0.0
 11
2303.872603479228
 21
238.1619631140913
 31
0.0
  0
LINE
  5
3A5
330
17
100
AcDbEntity
  8
4
100
AcDbLine
 10
2310.121191930941
 20
238.8414550384025
 30
0.0
 11
2305.872603479228
 21
238.8414550384025
 31
0.0
  0
ARC
  5
3A6
330
17
100
AcDbEntity
  8
4
100
AcDbCircle
 10
2110.872603479228
 20
256.1619631140913
 30
0.0
 40
200.0
100
AcDbArc
 50
355.0318164639294
 51
4.968183536070257
  0
LINE
  5
3A7
330
17
100
AcDbEntity
  8
4
100
AcDbLine
 10
2302.372603479228
 20
273.6619631140913
 30
0.0
 11
2302.372603479228
 21
238.6619631140913
 31
0.0
  0
LINE
  5
3A8
330
17
100
AcDbEntity
  8
4
100
AcDbLine
 10
2303.872603479228
 20
274.1619631140913
 30
0.0
 11
2303.872603479228
 21
238.1619631140913
 31
0.0
  0
LINE
  5
3A9
330
17
100
AcDbEntity
  8
4
100
AcDbLine
 10
2305.872603479228
 20
274.1619631140913
 30
0.0
 11
2305.872603479228
 21
238.1619631140913
 31
0.0
  0
LINE
  5
3AA
330
17
100
AcDbEntity
  8
4
100
AcDbLine
 10
805.0339423394053
 20
1774.808021226102
 30
0.0
 11
841.0339423394053
 21
1774.808021226102
 31
0.0
  0
LINE
  5
3AB
330
17
100
AcDbEntity
  8
4
100
AcDbLine
 10
805.0339423394053
 20
1776.808021226102
 30
0.0
 11
841.0339423394053
 21
1776.808021226102
 31
0.0
  0
LINE
  5
3AC
330
17
100
AcDbEntity
  8
4
100
AcDbLine
 10
805.0339423394053
 20
1776.808021226102
 30
0.0
 11
805.0339423394053
 21
1774.808021226102
 31
0.0
  0
LINE
  5
3AD
330
17
100
AcDbEntity
  8
4
100
AcDbLine
 10
840.5339423394053
 20
1774.808021226102
 30
0.0
 11
840.5339423394053
 21
1773.308021226102
 31
0.0
  0
LINE
  5
3AE
330
17
100
AcDbEntity
  8
4
100
AcDbLine
 10
841.0339423394053
 20
1776.808021226102
 30
0.0
 11
841.0339423394053
 21
1774.808021226102
 31
0.0
  0
LINE
  5
3AF
330
17
100
AcDbEntity
  8
4
100
AcDbLine
 10
838.0339423394053
 20
1781.244727977893
 30
0.0
 11
838.0339423394053
 21
1776.808021226102
 31
0.0
  0
LINE
  5
3B0
330
17
100
AcDbEntity
  8
4
100
AcDbLine
 10
805.5339423394053
 20
1774.808021226102
 30
0.0
 11
805.5339423394053
 21
1773.308021226102
 31
0.0
  0
LINE
  5
3B1
330
17
100
AcDbEntity
  8
4
100
AcDbLine
 10
808.0339423394053
 20
1781.244727977893
 30
0.0
 11
808.0339423394053
 21
1776.808021226102
 31
0.0
  0
ARC
  5
3B2
330
17
100
AcDbEntity
  8
4
100
AcDbCircle
 10
823.0339423394053
 20
1581.808021226102
 30
0.0
 40
200.0
100
AcDbArc
 50
85.69877769532965
 51
94.30122230467038
  0
LINE
  5
3B3
330
17
100
AcDbEntity
  8
4
100
AcDbLine
 10
805.5339423394053
 20
1773.308021226102
 30
0.0
 11
840.5339423394053
 21
1773.308021226102
 31
0.0
  0
LINE
  5
3B4
330
17
100
AcDbEntity
  8
4
100
AcDbLine
 10
474.0339424420849
 20
1185.308021226101
 30
0.0
 11
373.0339424753051
 21
1185.308021226101
 31
0.0
  0
LINE
  5
3B5
330
17
100
AcDbEntity
  8
4
100
AcDbLine
 10
474.0339424420849
 20
1167.308021226101
 30
0.0
 11
373.0339424753051
 21
1167.308021226101
 31
0.0
  0
ARC
  5
3B6
330
17
100
AcDbEntity
  8
4
100
AcDbCircle
 10
474.0339424420849
 20
1176.308021226101
 30
0.0
 40
9.0
100
AcDbArc
 50
270.0
 51
90.0
  0
CIRCLE
  5
417
330
17
100
AcDbEntity
  8
4
100
AcDbCircle
 10
1705.372603659522
 20
296.1619631020114
 30
0.0
 40
50.0
  0
CIRCLE
  5
418
330
17
100
AcDbEntity
  8
4
100
AcDbCircle
 10
1705.372603659522
 20
296.1619631020114
 30
0.0
 40
72.0
  0
SPLINE
  5
586
330
17
100
AcDbEntity
  8
4
100
AcDbSpline
210
0.0
220
0.0
230
1.0
 70
     8
 71
     3
 72
    10
 73
     6
 74
     0
 42
0.000000001
 43
0.0
 40
10.15181342429091
 40
10.15181342429091
 40
10.15181342429091
 40
10.15181342429091
 40
22.97080335179979
 40
39.7370718880326
 40
53.00932436427401
 40
53.00932436427401
 40
53.00932436427401
 40
53.00932436427401
 10
1071.472891472423
 20
108.1619631593917
 30
0.0
 10
1073.04603144051
 20
103.9404999937584
 30
0.0
 10
1075.05054206087
 20
93.9084913214715
 30
0.0
 10
1065.515269670423
 20
82.26002694598651
 30
0.0
 10
1064.294701863818
 20
70.74030705065513
 30
0.0
 10
1065.138768702126
 20
66.1619631714716
 30
0.0
  0
ARC
  5
587
330
17
100
AcDbEntity
  8
4
100
AcDbCircle
 10
511.7339424336287
 20
182.6619631365904
 30
0.0
 40
1.0
100
AcDbArc
 50
180.0
 51
270.0
  0
ARC
  5
588
330
17
100
AcDbEntity
  8
4
100
AcDbCircle
 10
511.7339424336287
 20
409.6619630674325
 30
0.0
 40
1.0
100
AcDbArc
 50
90.0
 51
180.0
  0
ARC
  5
589
330
17
100
AcDbEntity
  8
4
100
AcDbCircle
 10
1134.33394224518
 20
409.6619630674325
 30
0.0
 40
1.0
100
AcDbArc
 50
0.0
 51
90.0
  0
ARC
  5
58A
330
17
100
AcDbEntity
  8
4
100
AcDbCircle
 10
1134.33394224518
 20
182.6619631365904
 30
0.0
 40
1.0
100
AcDbArc
 50
270.0
 51
0.0
  0
LINE
  5
5C9
330
17
100
AcDbEntity
  8
4
100
AcDbLine
 10
2022.372603563787
 20
456.4619630536909
 30
0.0
 11
2022.372603563787
 21
454.4619630542952
 31
0.0
  0
LINE
  5
5CA
330
17
100
AcDbEntity
  8
4
100
AcDbLine
 10
2023.372603563485
 20
456.4619630536909
 30
0.0
 11
2023.372603563485
 21
460.461963052483
 31
0.0
  0
LINE
  5
5CB
330
17
100
AcDbEntity
  8
4
100
AcDbLine
 10
2023.372603563485
 20
456.4619630536909
 30
0.0
 11
1977.372603577378
 21
456.4619630536909
 31
0.0
  0
LINE
  5
5CC
330
17
100
AcDbEntity
  8
4
100
AcDbLine
 10
2023.372603563485
 20
460.461963052483
 30
0.0
 11
1977.372603577378
 21
460.461963052483
 31
0.0
  0
LINE
  5
5CD
330
17
100
AcDbEntity
  8
4
100
AcDbLine
 10
2020.622603570432
 20
465.4619630509733
 30
0.0
 11
1980.122603570432
 21
465.4619630509733
 31
0.0
  0
LINE
  5
5CE
330
17
100
AcDbEntity
  8
4
100
AcDbLine
 10
2025.372603562882
 20
454.4619630542952
 30
0.0
 11
1975.372603577982
 21
454.4619630542952
 31
0.0
  0
LINE
  5
5CF
330
17
100
AcDbEntity
  8
4
100
AcDbLine
 10
2025.372603562882
 20
454.4619630542952
 30
0.0
 11
2025.372603562882
 21
447.7346836898889
 31
0.0
  0
LINE
  5
5D0
330
17
100
AcDbEntity
  8
4
 48
2.0
100
AcDbLine
 10
2020.622603570432
 20
465.4619630509733
 30
0.0
 11
2020.622603570432
 21
460.461963052483
 31
0.0
  0
LINE
  5
5D1
330
17
100
AcDbEntity
  8
4
 48
2.0
100
AcDbLine
 10
1980.122603570432
 20
465.4619630509733
 30
0.0
 11
1980.122603570432
 21
460.461963052483
 31
0.0
  0
LINE
  5
5D2
330
17
100
AcDbEntity
  8
4
100
AcDbLine
 10
1978.372603577076
 20
456.4619630536909
 30
0.0
 11
1978.372603577076
 21
454.4619630542952
 31
0.0
  0
LINE
  5
5D3
330
17
100
AcDbEntity
  8
4
100
AcDbLine
 10
1977.372603577378
 20
456.4619630536909
 30
0.0
 11
1977.372603577378
 21
460.461963052483
 31
0.0
  0
LINE
  5
5D4
330
17
100
AcDbEntity
  8
4
100
AcDbLine
 10
1975.372603577982
 20
454.4619630542952
 30
0.0
 11
1975.372603577982
 21
447.7346836898889
 31
0.0
  0
ELLIPSE
  5
5D7
330
17
100
AcDbEntity
  8
4
100
AcDbEllipse
 10
2000.372603570431
 20
447.7346836898889
 30
0.0
 11
24.99999999244983
 21
0.0
 31
0.0
210
0.0
220
0.0
230
1.0
 40
0.1414142151826381
 41
3.141592653589792
 42
4.258141528576989
  0
ELLIPSE
  5
5D8
330
17
100
AcDbEntity
  8
4
100
AcDbEllipse
 10
2000.372603570431
 20
447.7346836898889
 30
0.0
 11
24.99999999244983
 21
0.0
 31
0.0
210
0.0
220
0.0
230
1.0
 40
0.1414142151826381
 41
5.166636432192405
 42
6.283185307179586
  0
LINE
  5
5DB
330
17
100
AcDbEntity
  8
4
100
AcDbLine
 10
253.712815991023
 20
333.6619631020114
 30
0.0
 11
235.712815991023
 21
333.6619631020114
 31
0.0
  0
LINE
  5
5DC
330
17
100
AcDbEntity
  8
4
100
AcDbLine
 10
253.712815991023
 20
321.6619631020114
 30
0.0
 11
235.712815991023
 21
321.6619631020114
 31
0.0
  0
LINE
  5
5DD
330
17
100
AcDbEntity
  8
4
100
AcDbLine
 10
235.712815991023
 20
333.6619631020114
 30
0.0
 11
235.712815991023
 21
321.6619631020114
 31
0.0
  0
LINE
  5
5DF
330
17
100
AcDbEntity
  8
4
100
AcDbLine
 10
253.712815991023
 20
321.6619631020114
 30
0.0
 11
253.712815991023
 21
333.6619631020114
 31
0.0
  0
LINE
  5
5E0
330
17
100
AcDbEntity
  8
L-CENTER
 48
2.0
100
AcDbLine
 10
244.712815991023
 20
341.5069837564372
 30
0.0
 11
244.712815991023
 21
250.8169424475857
 31
0.0
  0
ARC
  5
5E2
330
17
100
AcDbEntity
  8
4
100
AcDbCircle
 10
244.712815991023
 20
296.1619631020114
 30
0.0
 40
31.500048
100
AcDbArc
 50
106.6015235688887
 51
73.39849900000029
  0
LINE
  5
5E4
330
17
100
AcDbEntity
  8
L-CENTER
 48
2.0
100
AcDbLine
 10
290.0578366454488
 20
296.1619631020114
 30
0.0
 11
199.3677953365973
 21
296.1619631020114
 31
0.0
  0
ENDSEC
  0
SECTION
  2
OBJECTS
  0
DICTIONARY
  5
5
330
0
100
AcDbDictionary
281
     1
  3
ACAD_COLOR
350
29
  3
ACAD_GROUP
350
27
  3
ACAD_LAYOUT
350
1E
  3
ACAD_MATERIAL
350
7
  3
ACAD_MLEADERSTYLE
350
58E
  3
ACAD_MLINESTYLE
350
15
  3
ACAD_PLOTSETTINGS
350
28
  3
ACAD_PLOTSTYLENAME
350
4
  3
ACAD_SCALELIST
350
2D
  3
ACAD_TABLESTYLE
350
58D
  3
ACAD_VISUALSTYLE
350
2A
  3
ACDBHEADERROUNDTRIPXREC
350
5E9
  3
AcDbVariableDictionary
350
58B
  3
DWGPROPS
350
5EC
  0
DICTIONARY
  5
5ED
330
26
100
AcDbDictionary
280
     1
281
     1
  3
ACAD_XREC_ROUNDTRIP
360
5EE
  0
DICTIONARY
  5
18
330
17
100
AcDbDictionary
280
     1
281
     1
  3
ACAD_SORTENTS
360
19
  0
DICTIONARY
  5
29
102
{ACAD_REACTORS
330
5
102
}
330
5
100
AcDbDictionary
281
     1
  0
DICTIONARY
  5
27
102
{ACAD_REACTORS
330
5
102
}
330
5
100
AcDbDictionary
281
     1
  0
DICTIONARY
  5
1E
102
{ACAD_REACTORS
330
5
102
}
330
5
100
AcDbDictionary
281
     1
  3
Model
350
1D
  3
ﾚｲｱｳﾄ1
350
23
  0
DICTIONARY
  5
7
102
{ACAD_REACTORS
330
5
102
}
330
5
100
AcDbDictionary
281
     1
  3
ByBlock
350
70
  3
ByLayer
350
10
  3
Global
350
6
  0
DICTIONARY
  5
58E
102
{ACAD_REACTORS
330
5
102
}
330
5
100
AcDbDictionary
281
     1
  3
Standard
350
5A9
  0
DICTIONARY
  5
15
102
{ACAD_REACTORS
330
5
102
}
330
5
100
AcDbDictionary
281
     1
  3
STANDARD
350
14
  0
DICTIONARY
  5
28
102
{ACAD_REACTORS
330
5
102
}
330
5
100
AcDbDictionary
281
     1
  0
ACDBDICTIONARYWDFLT
  5
4
102
{ACAD_REACTORS
330
5
102
}
330
5
100
AcDbDictionary
281
     1
  3
Normal
350
3
100
AcDbDictionaryWithDefault
340
3
  0
DICTIONARY
  5
2D
102
{ACAD_REACTORS
330
5
102
}
330
5
100
AcDbDictionary
281
     1
  3
*A1
350
4F
  3
*A10
350
58
  3
*A11
350
59
  3
*A12
350
5A
  3
*A13
350
5B
  3
*A14
350
5C
  3
*A15
350
5D
  3
*A16
350
5E
  3
*A17
350
5F
  3
*A18
350
60
  3
*A19
350
61
  3
*A2
350
50
  3
*A20
350
62
  3
*A21
350
63
  3
*A22
350
64
  3
*A23
350
65
  3
*A24
350
66
  3
*A25
350
67
  3
*A26
350
68
  3
*A27
350
69
  3
*A28
350
6A
  3
*A29
350
6B
  3
*A3
350
51
  3
*A30
350
6C
  3
*A31
350
6D
  3
*A32
350
6E
  3
*A33
350
6F
  3
*A4
350
52
  3
*A5
350
53
  3
*A6
350
54
  3
*A7
350
55
  3
*A8
350
56
  3
*A9
350
57
  0
DICTIONARY
  5
58D
102
{ACAD_REACTORS
330
5
102
}
330
5
100
AcDbDictionary
281
     1
  3
Standard
350
5E5
  0
DICTIONARY
  5
2A
102
{ACAD_REACTORS
330
5
102
}
330
5
100
AcDbDictionary
281
     1
  3
2dWireframe
350
595
  3
Basic
350
598
  3
Brighten
350
59C
  3
ColorChange
350
5A0
  3
Conceptual
350
59A
  3
Dim
350
59B
  3
EdgeColorOff
350
5A3
  3
Facepattern
350
59F
  3
Flat
350
591
  3
FlatWithEdges
350
592
  3
Gouraud
350
593
  3
GouraudWithEdges
350
594
  3
Hidden
350
597
  3
JitterOff
350
5A1
  3
Linepattern
350
59E
  3
OverhangOff
350
5A2
  3
Realistic
350
599
  3
Shaded
350
5A8
  3
Shaded with edges
350
5A7
  3
Shades of Gray
350
5A4
  3
Sketchy
350
5A5
  3
Thicken
350
59D
  3
Wireframe
350
596
  3
X-Ray
350
5A6
  0
DICTIONARY
  5
5E9
102
{ACAD_REACTORS
330
5
102
}
330
5
100
AcDbDictionary
281
     1
  3
COLORDICT
350
5EA
  3
MATERIALDICT
350
5EB
  0
DICTIONARY
  5
58B
102
{ACAD_REACTORS
330
5
102
}
330
5
100
AcDbDictionary
281
     1
  3
CANNOSCALE
350
58C
  3
CMLEADERSTYLE
350
5AB
  3
CTABLESTYLE
350
5E6
  3
DIMASSOC
350
5E7
  3
HIDETEXT
350
5E8
  3
MSLTSCALE
350
5EF
  0
XRECORD
  5
5EC
102
{ACAD_REACTORS
330
5
102
}
330
5
100
AcDbXrecord
280
     1
  1
DWGPROPS COOKIE
  2

  3

  4

  6

  7

  8
sg-d04
  9

300
=
301
=
302
=
303
=
304
=
305
=
306
=
307
=
308
=
309
=
 40
0.0
 41
2457431.467175023
 42
2457871.46840037
  1

 90
        0
  0
XRECORD
  5
5EE
102
{ACAD_REACTORS
330
5ED
102
}
330
5ED
100
AcDbXrecord
280
     1
102
VTR_0.000_0.000_1.000_1.000_VISUALSTYLE
340
595
102
VTR_0.000_0.000_1.000_1.000_GRIDDISPLAY
 70
     3
102
VTR_0.000_0.000_1.000_1.000_GRIDMAJOR
 70
     5
102
VTR_0.000_0.000_1.000_1.000_DEFAULTLIGHTING
280
     1
102
VTR_0.000_0.000_1.000_1.000_DEFAULTLIGHTINGTYPE
 70
     1
102
VTR_0.000_0.000_1.000_1.000_BRIGHTNESS
141
0.0
102
VTR_0.000_0.000_1.000_1.000_CONTRAST
142
0.0
  0
SORTENTSTABLE
  5
19
102
{ACAD_REACTORS
330
18
102
}
330
18
100
AcDbSortentsTable
330
17
331
0
  5
92
331
7E
  5
80
331
80
  5
81
331
81
  5
82
331
82
  5
83
331
83
  5
84
331
84
  5
85
331
85
  5
86
331
86
  5
87
331
87
  5
88
331
88
  5
89
331
89
  5
8A
331
8A
  5
8B
331
8B
  5
8C
331
8C
  5
8D
331
8D
  5
8E
331
8E
  5
8F
331
8F
  5
91
331
95
  5
97
331
96
  5
98
331
97
  5
99
331
98
  5
9A
331
99
  5
9B
331
9A
  5
9C
331
9B
  5
9D
331
9C
  5
9E
331
9D
  5
9F
331
9E
  5
A0
331
9F
  5
A1
331
A0
  5
A2
331
A1
  5
A3
331
A2
  5
A4
331
A3
  5
A5
331
A4
  5
A6
331
A5
  5
A7
331
A6
  5
A8
331
A7
  5
A9
331
A8
  5
AA
331
A9
  5
AB
331
AA
  5
AC
331
AB
  5
AD
331
AC
  5
AE
331
AD
  5
AF
331
AE
  5
B0
331
AF
  5
B1
331
B0
  5
B2
331
B1
  5
B3
331
B2
  5
B4
331
B3
  5
B5
331
B4
  5
B6
331
B5
  5
B7
331
B6
  5
B8
331
B7
  5
B9
331
B8
  5
BA
331
B9
  5
BB
331
BA
  5
BC
331
BB
  5
BD
331
BC
  5
BE
331
BD
  5
BF
331
BE
  5
C0
331
BF
  5
C1
331
C0
  5
C2
331
C1
  5
C3
331
C2
  5
C4
331
C3
  5
C5
331
C4
  5
C6
331
C5
  5
C7
331
C6
  5
C8
331
C7
  5
C9
331
C8
  5
CA
331
C9
  5
CB
331
CA
  5
CC
331
CB
  5
CD
331
CC
  5
CE
331
CD
  5
CF
331
CE
  5
D0
331
CF
  5
D1
331
D0
  5
D2
331
D1
  5
D3
331
D2
  5
D4
331
D3
  5
D5
331
D4
  5
D6
331
D5
  5
D7
331
D6
  5
D8
331
D7
  5
D9
331
D8
  5
DA
331
D9
  5
DB
331
DA
  5
DC
331
DB
  5
DD
331
DC
  5
DE
331
DD
  5
DF
331
DE
  5
E0
331
DF
  5
E1
331
E0
  5
E2
331
E1
  5
E3
331
E2
  5
E4
331
E3
  5
E5
331
E4
  5
E6
331
E5
  5
E7
331
E6
  5
E8
331
E7
  5
E9
331
E8
  5
EA
331
E9
  5
EB
331
EA
  5
EC
331
EB
  5
ED
331
EC
  5
EE
331
ED
  5
EF
331
EE
  5
F0
331
EF
  5
F1
331
F0
  5
F4
331
F1
  5
F5
331
F2
  5
F6
331
F3
  5
F7
331
F4
  5
F8
331
F5
  5
F9
331
F6
  5
FA
331
F7
  5
FB
331
F8
  5
FC
331
F9
  5
FD
331
FA
  5
FE
331
FB
  5
FF
331
FC
  5
100
331
FD
  5
101
331
FE
  5
102
331
FF
  5
103
331
100
  5
104
331
101
  5
105
331
102
  5
106
331
103
  5
107
331
104
  5
108
331
105
  5
109
331
106
  5
10A
331
107
  5
10B
331
108
  5
10C
331
109
  5
10D
331
10A
  5
10E
331
10B
  5
10F
331
10C
  5
110
331
10D
  5
111
331
10E
  5
112
331
10F
  5
113
331
110
  5
114
331
111
  5
115
331
112
  5
116
331
113
  5
117
331
114
  5
118
331
115
  5
119
331
116
  5
11A
331
117
  5
11B
331
119
  5
11D
331
11A
  5
11E
331
11B
  5
11F
331
11C
  5
120
331
11D
  5
121
331
11E
  5
122
331
11F
  5
123
331
120
  5
124
331
121
  5
125
331
122
  5
126
331
123
  5
127
331
124
  5
128
331
125
  5
129
331
126
  5
12A
331
127
  5
12B
331
128
  5
12C
331
129
  5
12D
331
12A
  5
12E
331
12B
  5
12F
331
12C
  5
130
331
12D
  5
131
331
12E
  5
132
331
12F
  5
133
331
130
  5
134
331
131
  5
135
331
132
  5
136
331
133
  5
137
331
134
  5
138
331
135
  5
139
331
136
  5
13A
331
137
  5
13B
331
138
  5
13C
331
139
  5
13D
331
13A
  5
13E
331
13B
  5
13F
331
13C
  5
140
331
13D
  5
141
331
13E
  5
142
331
13F
  5
143
331
140
  5
144
331
141
  5
145
331
142
  5
146
331
143
  5
147
331
144
  5
148
331
145
  5
149
331
146
  5
14A
331
147
  5
14B
331
148
  5
14C
331
149
  5
14D
331
14A
  5
14E
331
14B
  5
14F
331
14C
  5
150
331
14D
  5
151
331
14E
  5
152
331
14F
  5
153
331
150
  5
154
331
151
  5
155
331
152
  5
156
331
153
  5
157
331
154
  5
158
331
155
  5
159
331
156
  5
15A
331
157
  5
15B
331
158
  5
15C
331
159
  5
15D
331
15A
  5
15E
331
15B
  5
15F
331
15C
  5
160
331
15D
  5
161
331
15E
  5
162
331
15F
  5
163
331
160
  5
164
331
161
  5
165
331
162
  5
166
331
163
  5
167
331
164
  5
168
331
165
  5
169
331
166
  5
16A
331
167
  5
16B
331
168
  5
16C
331
169
  5
16D
331
16A
  5
16E
331
16B
  5
16F
331
16C
  5
170
331
16D
  5
171
331
16E
  5
172
331
16F
  5
173
331
170
  5
174
331
171
  5
175
331
172
  5
176
331
173
  5
177
331
174
  5
178
331
175
  5
179
331
176
  5
17A
331
177
  5
17B
331
178
  5
17C
331
179
  5
17D
331
17A
  5
17E
331
17B
  5
17F
331
17C
  5
180
331
17D
  5
181
331
17E
  5
182
331
17F
  5
183
331
180
  5
184
331
181
  5
185
331
182
  5
186
331
183
  5
187
331
184
  5
188
331
185
  5
189
331
186
  5
18A
331
187
  5
18B
331
188
  5
18C
331
189
  5
18D
331
18A
  5
18E
331
18B
  5
18F
331
18C
  5
190
331
18D
  5
191
331
18E
  5
192
331
18F
  5
193
331
190
  5
194
331
191
  5
195
331
192
  5
196
331
193
  5
197
331
194
  5
198
331
195
  5
199
331
196
  5
19A
331
197
  5
19B
331
198
  5
19C
331
199
  5
19D
331
19A
  5
19E
331
19B
  5
19F
331
19C
  5
1A0
331
19D
  5
1A1
331
19E
  5
1A2
331
19F
  5
1A3
331
1A0
  5
1A4
331
1A1
  5
1A5
331
1A2
  5
1A6
331
1A3
  5
1A7
331
1A4
  5
1A8
331
1A5
  5
1A9
331
1A6
  5
1AA
331
1A7
  5
1AB
331
1A8
  5
1AC
331
1A9
  5
1AD
331
1AA
  5
1AE
331
1AB
  5
1AF
331
1AC
  5
1B0
331
1AD
  5
1B1
331
1AE
  5
1B2
331
1AF
  5
1B3
331
1B0
  5
1B4
331
1B1
  5
1B5
331
1B2
  5
1B6
331
1B3
  5
1B7
331
1B4
  5
1B8
331
1B5
  5
1B9
331
1B6
  5
1BA
331
1B7
  5
1BB
331
1B8
  5
1BC
331
1B9
  5
1BD
331
1BA
  5
1BE
331
1BB
  5
1BF
331
1BC
  5
1C0
331
1BD
  5
1C1
331
1BE
  5
1C2
331
1BF
  5
1C3
331
1C0
  5
1C4
331
1C1
  5
1C5
331
1C2
  5
1C6
331
1C3
  5
1C7
331
1C4
  5
1C8
331
1C5
  5
1C9
331
1C6
  5
1CA
331
1C7
  5
1CB
331
1C8
  5
1CC
331
1C9
  5
1CD
331
1CA
  5
1CE
331
1CB
  5
1CF
331
1CC
  5
1D0
331
1CD
  5
1D1
331
1CE
  5
1D2
331
1CF
  5
1D3
331
1D0
  5
1D4
331
1D1
  5
1D5
331
1D2
  5
1D6
331
1D3
  5
1D7
331
1D4
  5
1D8
331
1D5
  5
1D9
331
1D6
  5
1DA
331
1E3
  5
1E7
331
1E4
  5
1E8
331
1E5
  5
1E9
331
1E6
  5
1EA
331
1E7
  5
1EB
331
1E8
  5
1EC
331
1E9
  5
1ED
331
1EA
  5
1EE
331
1EB
  5
1EF
331
1EC
  5
1F0
331
1ED
  5
1F1
331
1EE
  5
1F2
331
1EF
  5
1F3
331
1F0
  5
1F4
331
1F1
  5
1F5
331
1F2
  5
1F6
331
1F3
  5
1F7
331
1F4
  5
1F8
331
1F5
  5
1F9
331
1F6
  5
1FA
331
1F7
  5
1FB
331
1F8
  5
1FC
331
1F9
  5
1FD
331
1FA
  5
1FE
331
1FB
  5
1FF
331
1FC
  5
200
331
1FD
  5
201
331
1FE
  5
202
331
1FF
  5
203
331
200
  5
204
331
201
  5
205
331
202
  5
206
331
203
  5
207
331
204
  5
208
331
205
  5
209
331
206
  5
20A
331
207
  5
20B
331
208
  5
20C
331
209
  5
20D
331
20A
  5
20E
331
20B
  5
20F
331
20C
  5
210
331
20D
  5
211
331
20E
  5
212
331
20F
  5
213
331
210
  5
214
331
211
  5
215
331
212
  5
216
331
213
  5
217
331
214
  5
218
331
215
  5
219
331
216
  5
21A
331
217
  5
21B
331
218
  5
21C
331
219
  5
21D
331
21A
  5
21E
331
21B
  5
21F
331
21C
  5
220
331
21D
  5
221
331
21E
  5
222
331
21F
  5
223
331
220
  5
224
331
221
  5
225
331
222
  5
226
331
223
  5
227
331
224
  5
228
331
225
  5
229
331
226
  5
22A
331
227
  5
22B
331
228
  5
22C
331
229
  5
22D
331
22A
  5
22E
331
22B
  5
22F
331
22C
  5
230
331
22D
  5
231
331
22E
  5
232
331
22F
  5
233
331
230
  5
234
331
231
  5
235
331
232
  5
236
331
233
  5
237
331
234
  5
238
331
235
  5
239
331
236
  5
23A
331
237
  5
23B
331
238
  5
23C
331
239
  5
23D
331
23A
  5
23E
331
23B
  5
23F
331
23C
  5
240
331
23D
  5
241
331
23E
  5
242
331
23F
  5
243
331
240
  5
244
331
241
  5
245
331
242
  5
246
331
243
  5
247
331
244
  5
248
331
245
  5
249
331
246
  5
24A
331
247
  5
24B
331
248
  5
24C
331
249
  5
24D
331
24A
  5
24E
331
24B
  5
24F
331
24C
  5
250
331
24D
  5
251
331
24E
  5
252
331
24F
  5
253
331
250
  5
254
331
251
  5
255
331
252
  5
256
331
253
  5
257
331
254
  5
258
331
255
  5
259
331
256
  5
25A
331
257
  5
25B
331
258
  5
25C
331
259
  5
25D
331
25A
  5
25E
331
25B
  5
25F
331
25C
  5
260
331
25D
  5
261
331
25E
  5
262
331
25F
  5
263
331
260
  5
264
331
261
  5
265
331
262
  5
266
331
263
  5
267
331
264
  5
268
331
265
  5
269
331
266
  5
26A
331
267
  5
26B
331
268
  5
26C
331
269
  5
26D
331
26A
  5
26E
331
26B
  5
26F
331
26C
  5
270
331
26D
  5
271
331
26E
  5
272
331
26F
  5
273
331
270
  5
274
331
271
  5
275
331
272
  5
276
331
273
  5
277
331
274
  5
278
331
275
  5
279
331
276
  5
27A
331
277
  5
27B
331
278
  5
27C
331
279
  5
27D
331
27A
  5
27E
331
27B
  5
27F
331
27C
  5
280
331
27D
  5
281
331
27E
  5
282
331
27F
  5
283
331
280
  5
284
331
281
  5
285
331
282
  5
286
331
283
  5
287
331
284
  5
288
331
285
  5
289
331
286
  5
28A
331
287
  5
28B
331
288
  5
28C
331
289
  5
28D
331
28A
  5
28E
331
28B
  5
28F
331
28C
  5
290
331
28D
  5
291
331
28E
  5
292
331
28F
  5
293
331
290
  5
294
331
291
  5
295
331
292
  5
296
331
293
  5
297
331
294
  5
298
331
295
  5
299
331
296
  5
29A
331
297
  5
29B
331
298
  5
29C
331
299
  5
29D
331
29A
  5
29E
331
29B
  5
29F
331
29C
  5
2A0
331
29D
  5
2A1
331
29E
  5
2A2
331
29F
  5
2A3
331
2A0
  5
2A4
331
2A1
  5
2A5
331
2A2
  5
2A6
331
2A3
  5
2A7
331
2A4
  5
2A8
331
2A5
  5
2A9
331
2A6
  5
2AA
331
2A7
  5
2AB
331
2A8
  5
2AC
331
2A9
  5
2AD
331
2AA
  5
2AE
331
2AB
  5
2AF
331
2AC
  5
2B0
331
2AD
  5
2B1
331
2AE
  5
2B2
331
2AF
  5
2B3
331
2B0
  5
2B4
331
2B1
  5
2B5
331
2B2
  5
2B6
331
2B3
  5
2B7
331
2B4
  5
2B8
331
2B5
  5
2B9
331
2B6
  5
2BA
331
2B7
  5
2BB
331
2B8
  5
2BC
331
2B9
  5
2BD
331
2BA
  5
2BE
331
2BB
  5
2BF
331
2BC
  5
2C0
331
2BD
  5
2C1
331
2BE
  5
2C2
331
2BF
  5
2C3
331
2C0
  5
2C4
331
2C1
  5
2C5
331
2C2
  5
2C6
331
2C3
  5
2C7
331
2C4
  5
2C8
331
2C5
  5
2C9
331
2C6
  5
2CA
331
2C7
  5
2CB
331
2C8
  5
2CC
331
2C9
  5
2CD
331
2CA
  5
2CE
331
2CB
  5
2CF
331
2CC
  5
2D0
331
2CD
  5
2D1
331
2CE
  5
2D2
331
2CF
  5
2D3
331
2D0
  5
2D4
331
2D1
  5
2D5
331
2D2
  5
2D6
331
2D3
  5
2D7
331
2D4
  5
2D8
331
2D5
  5
2D9
331
2D6
  5
2DA
331
2D7
  5
2DB
331
2D8
  5
2DC
331
2D9
  5
2DD
331
2DA
  5
2DE
331
2DB
  5
2DF
331
2DC
  5
2E0
331
2DD
  5
2E1
331
2DE
  5
2E2
331
2DF
  5
2E3
331
2E0
  5
2E4
331
2E1
  5
2E5
331
2E2
  5
2E6
331
2E3
  5
2E7
331
2E4
  5
2E8
331
2E5
  5
2E9
331
2E6
  5
2EA
331
2E7
  5
2EB
331
2E8
  5
2EC
331
2E9
  5
2ED
331
2EA
  5
2EE
331
2EB
  5
2EF
331
2EC
  5
2F0
331
2ED
  5
2F1
331
2EE
  5
2F2
331
2EF
  5
2F3
331
2F0
  5
2F4
331
2F1
  5
2F5
331
2F2
  5
2F6
331
2F3
  5
2F7
331
2F4
  5
2F8
331
2F5
  5
2F9
331
2F6
  5
2FA
331
2F7
  5
2FB
331
2F8
  5
2FC
331
2F9
  5
2FD
331
2FA
  5
2FE
331
2FB
  5
2FF
331
2FC
  5
300
331
2FD
  5
301
331
2FE
  5
302
331
2FF
  5
303
331
300
  5
304
331
301
  5
305
331
302
  5
306
331
303
  5
307
331
304
  5
308
331
305
  5
309
331
306
  5
30A
331
307
  5
30B
331
308
  5
30C
331
309
  5
30D
331
30A
  5
30E
331
30B
  5
30F
331
30C
  5
310
331
30D
  5
311
331
30E
  5
312
331
30F
  5
313
331
310
  5
314
331
311
  5
315
331
312
  5
316
331
313
  5
317
331
314
  5
318
331
315
  5
319
331
316
  5
31A
331
317
  5
31B
331
318
  5
31C
331
319
  5
31D
331
31A
  5
31E
331
31B
  5
31F
331
31C
  5
320
331
31D
  5
321
331
31E
  5
322
331
31F
  5
323
331
320
  5
324
331
321
  5
325
331
322
  5
326
331
323
  5
327
331
324
  5
328
331
325
  5
329
331
326
  5
32A
331
327
  5
32B
331
328
  5
32C
331
329
  5
32D
331
32A
  5
32E
331
32B
  5
32F
331
32C
  5
330
331
32D
  5
331
331
32E
  5
332
331
32F
  5
333
331
330
  5
334
331
331
  5
335
331
332
  5
336
331
333
  5
337
331
334
  5
338
331
335
  5
339
331
336
  5
33A
331
337
  5
33B
331
338
  5
33C
331
339
  5
33D
331
33A
  5
33E
331
33B
  5
33F
331
33C
  5
340
331
33D
  5
341
331
33E
  5
342
331
33F
  5
343
331
340
  5
344
331
341
  5
345
331
342
  5
346
331
343
  5
347
331
344
  5
348
331
345
  5
349
331
346
  5
34A
331
347
  5
34B
331
348
  5
34C
331
349
  5
34D
331
34A
  5
34E
331
34B
  5
34F
331
34C
  5
350
331
34D
  5
351
331
34E
  5
352
331
34F
  5
353
331
350
  5
354
331
351
  5
355
331
352
  5
356
331
353
  5
357
331
354
  5
358
331
355
  5
359
331
356
  5
35A
331
357
  5
35B
331
358
  5
35C
331
359
  5
35D
331
35A
  5
35E
331
35B
  5
35F
331
35C
  5
360
331
35D
  5
361
331
35E
  5
362
331
35F
  5
363
331
360
  5
364
331
361
  5
365
331
362
  5
366
331
363
  5
367
331
364
  5
368
331
365
  5
369
331
366
  5
36A
331
367
  5
36B
331
368
  5
36C
331
369
  5
36D
331
36A
  5
36E
331
36B
  5
36F
331
36C
  5
370
331
36D
  5
371
331
36E
  5
372
331
36F
  5
373
331
370
  5
374
331
371
  5
375
331
372
  5
376
331
373
  5
377
331
374
  5
378
331
375
  5
379
331
376
  5
37A
331
377
  5
37B
331
378
  5
37C
331
379
  5
37D
331
37A
  5
37E
331
37B
  5
37F
331
37C
  5
380
331
37D
  5
381
331
37E
  5
382
331
37F
  5
383
331
380
  5
384
331
381
  5
385
331
382
  5
386
331
383
  5
387
331
384
  5
388
331
385
  5
389
331
386
  5
38A
331
387
  5
38B
331
388
  5
38C
331
389
  5
38D
331
38A
  5
38E
331
38B
  5
38F
331
38C
  5
390
331
38D
  5
391
331
38E
  5
392
331
38F
  5
393
331
390
  5
394
331
391
  5
395
331
392
  5
396
331
393
  5
397
331
394
  5
398
331
395
  5
399
331
396
  5
39A
331
397
  5
39B
331
398
  5
39C
331
399
  5
39D
331
39A
  5
39E
331
39B
  5
39F
331
39C
  5
3A0
331
39D
  5
3A1
331
39E
  5
3A2
331
39F
  5
3A3
331
3A0
  5
3A4
331
3A1
  5
3A5
331
3A2
  5
3A6
331
3A3
  5
3A7
331
3A4
  5
3A8
331
3A5
  5
3A9
331
3A6
  5
3AA
331
3A7
  5
3AB
331
3A8
  5
3AC
331
3A9
  5
3AD
331
3AA
  5
3AE
331
3AB
  5
3AF
331
3AC
  5
3B0
331
3AD
  5
3B1
331
3AE
  5
3B2
331
3AF
  5
3B3
331
3B0
  5
3B4
331
3B1
  5
3B5
331
3B2
  5
3B6
331
3B3
  5
3B7
331
3B4
  5
3B8
331
3B5
  5
3B9
331
3B6
  5
3BA
331
417
  5
41B
331
418
  5
41C
331
586
  5
58A
331
587
  5
5AD
331
588
  5
5AE
331
589
  5
5AF
331
58A
  5
5B0
331
5C9
  5
5CA
331
5CA
  5
5CB
331
5CB
  5
5CC
331
5CC
  5
5CD
331
5CD
  5
5CE
331
5CE
  5
5CF
331
5CF
  5
5D0
331
5D0
  5
7E
  0
LAYOUT
  5
1D
102
{ACAD_REACTORS
330
1E
102
}
330
1E
100
AcDbPlotSettings
  1

  2
Bullzip PDF Printer.pc3
  4
A3
  6

 40
0.2
 41
0.0
 42
0.0
 43
0.0
 44
420.2
 45
297.1
 46
25.0
 47
12.0
 48
139.9999997783334
 49
0.0
140
2813.999993653335
141
1907.499995549166
142
1.0
143
7.0
 70
  1696
 72
     1
 73
     0
 74
     4
  7
monochrome.ctb
 75
     0
147
0.1428571428571428
148
-139.9999997783334
149
0.0
100
AcDbLayout
  1
Model
 70
     0
 71
     0
 10
0.0
 20
0.0
 11
12.0
 21
9.0
 12
0.0
 22
0.0
 32
0.0
 14
199.3677953365973
 24
46.16196317147137
 34
0.0
 15
2314.075140742379
 25
1789.555261468019
 35
0.0
146
0.0
 13
0.0
 23
0.0
 33
0.0
 16
1.0
 26
0.0
 36
0.0
 17
0.0
 27
1.0
 37
0.0
 76
     0
330
17
331
2B
1001
ACAD_PSEXT
1000
Bullzip PDF Printer.pc3
1000
Bullzip PDF Printer
1000
BULLZIP
1000
Bullzip PDF Printer 10.1.0.1871
1070
     0
  0
LAYOUT
  5
23
102
{ACAD_REACTORS
330
1E
102
}
330
1E
100
AcDbPlotSettings
  1

  2
SR-LP8300F
  4

  6

 40
0.0
 41
0.0
 42
0.0
 43
0.0
 44
0.0
 45
0.0
 46
0.0
 47
0.0
 48
0.0
 49
0.0
140
0.0
141
0.0
142
1.0
143
1.0
 70
   688
 72
     0
 73
     0
 74
     5
  7
monochrome.ctb
 75
    16
147
1.0
148
0.0
149
0.0
100
AcDbLayout
  1
ﾚｲｱｳﾄ1
 70
     0
 71
     1
 10
0.0
 20
0.0
 11
12.0
 21
9.0
 12
0.0
 22
0.0
 32
0.0
 14
1.000000000000000E+20
 24
1.000000000000000E+20
 34
1.000000000000000E+20
 15
-1.000000000000000E+20
 25
-1.000000000000000E+20
 35
-1.000000000000000E+20
146
0.0
 13
0.0
 23
0.0
 33
0.0
 16
1.0
 26
0.0
 36
0.0
 17
0.0
 27
1.0
 37
0.0
 76
     0
330
20
  0
MATERIAL
  5
70
102
{ACAD_REACTORS
330
7
102
}
102
{ACAD_XDICTIONARY
360
5F4
102
}
330
7
100
AcDbMaterial
  1
ByBlock
  0
MATERIAL
  5
10
102
{ACAD_REACTORS
330
7
102
}
102
{ACAD_XDICTIONARY
360
5F0
102
}
330
7
100
AcDbMaterial
  1
ByLayer
  0
MATERIAL
  5
6
102
{ACAD_REACTORS
330
7
102
}
102
{ACAD_XDICTIONARY
360
5F2
102
}
330
7
100
AcDbMaterial
  1
Global
1001
ACAD
1070
    -1
1070
     3
1070
     0
1000

1071
        0
  0
MLEADERSTYLE
  5
5A9
102
{ACAD_REACTORS
330
58E
102
}
102
{ACAD_XDICTIONARY
360
626
102
}
330
58E
100
AcDbMLeaderStyle
170
     2
171
     1
172
     0
 90
        2
 40
0.0
 41
0.0
173
     1
 91
-1056964608
340
D
 92
       -2
290
     1
 42
0.09
291
     1
 43
0.36
  3
Standard
341
0
 44
0.18
300

342
E
174
     1
178
     6
175
     1
176
     0
 93
-1056964608
 45
0.18
292
     0
297
     0
 46
0.18
343
0
 94
-1056964608
 47
1.0
 49
1.0
140
1.0
293
     1
141
0.0
294
     1
177
     0
142
1.0
295
     0
296
     0
143
0.125
1001
ACAD_MLEADERVER
1070
     2
  0
MLINESTYLE
  5
14
102
{ACAD_REACTORS
330
15
102
}
330
15
100
AcDbMlineStyle
  2
STANDARD
 70
     0
  3

 62
     0
 51
90.0
 52
90.0
 71
     2
 49
0.5
 62
   256
  6
BYLAYER
 49
-0.5
 62
   256
  6
BYLAYER
  0
ACDBPLACEHOLDER
  5
3
102
{ACAD_REACTORS
330
4
102
}
330
4
  0
SCALE
  5
4F
102
{ACAD_REACTORS
330
2D
102
}
330
2D
100
AcDbScale
 70
     0
300
1:1
140
1.0
141
1.0
290
     1
  0
SCALE
  5
58
102
{ACAD_REACTORS
330
2D
102
}
330
2D
100
AcDbScale
 70
     0
300
1:40
140
1.0
141
40.0
290
     0
  0
SCALE
  5
59
102
{ACAD_REACTORS
330
2D
102
}
330
2D
100
AcDbScale
 70
     0
300
1:50
140
1.0
141
50.0
290
     0
  0
SCALE
  5
5A
102
{ACAD_REACTORS
330
2D
102
}
330
2D
100
AcDbScale
 70
     0
300
1:100
140
1.0
141
100.0
290
     0
  0
SCALE
  5
5B
102
{ACAD_REACTORS
330
2D
102
}
330
2D
100
AcDbScale
 70
     0
300
2:1
140
2.0
141
1.0
290
     0
  0
SCALE
  5
5C
102
{ACAD_REACTORS
330
2D
102
}
330
2D
100
AcDbScale
 70
     0
300
4:1
140
4.0
141
1.0
290
     0
  0
SCALE
  5
5D
102
{ACAD_REACTORS
330
2D
102
}
330
2D
100
AcDbScale
 70
     0
300
8:1
140
8.0
141
1.0
290
     0
  0
SCALE
  5
5E
102
{ACAD_REACTORS
330
2D
102
}
330
2D
100
AcDbScale
 70
     0
300
10:1
140
10.0
141
1.0
290
     0
  0
SCALE
  5
5F
102
{ACAD_REACTORS
330
2D
102
}
330
2D
100
AcDbScale
 70
     0
300
100:1
140
100.0
141
1.0
290
     0
  0
SCALE
  5
60
102
{ACAD_REACTORS
330
2D
102
}
330
2D
100
AcDbScale
 70
     0
300
1/128" = 1'-0"
140
0.0078125
141
12.0
290
     0
  0
SCALE
  5
61
102
{ACAD_REACTORS
330
2D
102
}
330
2D
100
AcDbScale
 70
     0
300
1/64" = 1'-0"
140
0.015625
141
12.0
290
     0
  0
SCALE
  5
50
102
{ACAD_REACTORS
330
2D
102
}
330
2D
100
AcDbScale
 70
     0
300
1:2
140
1.0
141
2.0
290
     0
  0
SCALE
  5
62
102
{ACAD_REACTORS
330
2D
102
}
330
2D
100
AcDbScale
 70
     0
300
1/32" = 1'-0"
140
0.03125
141
12.0
290
     0
  0
SCALE
  5
63
102
{ACAD_REACTORS
330
2D
102
}
330
2D
100
AcDbScale
 70
     0
300
1/16" = 1'-0"
140
0.0625
141
12.0
290
     0
  0
SCALE
  5
64
102
{ACAD_REACTORS
330
2D
102
}
330
2D
100
AcDbScale
 70
     0
300
3/32" = 1'-0"
140
0.09375
141
12.0
290
     0
  0
SCALE
  5
65
102
{ACAD_REACTORS
330
2D
102
}
330
2D
100
AcDbScale
 70
     0
300
1/8" = 1'-0"
140
0.125
141
12.0
290
     0
  0
SCALE
  5
66
102
{ACAD_REACTORS
330
2D
102
}
330
2D
100
AcDbScale
 70
     0
300
3/16" = 1'-0"
140
0.1875
141
12.0
290
     0
  0
SCALE
  5
67
102
{ACAD_REACTORS
330
2D
102
}
330
2D
100
AcDbScale
 70
     0
300
1/4" = 1'-0"
140
0.25
141
12.0
290
     0
  0
SCALE
  5
68
102
{ACAD_REACTORS
330
2D
102
}
330
2D
100
AcDbScale
 70
     0
300
3/8" = 1'-0"
140
0.375
141
12.0
290
     0
  0
SCALE
  5
69
102
{ACAD_REACTORS
330
2D
102
}
330
2D
100
AcDbScale
 70
     0
300
1/2" = 1'-0"
140
0.5
141
12.0
290
     0
  0
SCALE
  5
6A
102
{ACAD_REACTORS
330
2D
102
}
330
2D
100
AcDbScale
 70
     0
300
3/4" = 1'-0"
140
0.75
141
12.0
290
     0
  0
SCALE
  5
6B
102
{ACAD_REACTORS
330
2D
102
}
330
2D
100
AcDbScale
 70
     0
300
1" = 1'-0"
140
1.0
141
12.0
290
     0
  0
SCALE
  5
51
102
{ACAD_REACTORS
330
2D
102
}
330
2D
100
AcDbScale
 70
     0
300
1:4
140
1.0
141
4.0
290
     0
  0
SCALE
  5
6C
102
{ACAD_REACTORS
330
2D
102
}
330
2D
100
AcDbScale
 70
     0
300
1-1/2" = 1'-0"
140
1.5
141
12.0
290
     0
  0
SCALE
  5
6D
102
{ACAD_REACTORS
330
2D
102
}
330
2D
100
AcDbScale
 70
     0
300
3" = 1'-0"
140
3.0
141
12.0
290
     0
  0
SCALE
  5
6E
102
{ACAD_REACTORS
330
2D
102
}
330
2D
100
AcDbScale
 70
     0
300
6" = 1'-0"
140
6.0
141
12.0
290
     0
  0
SCALE
  5
6F
102
{ACAD_REACTORS
330
2D
102
}
330
2D
100
AcDbScale
 70
     0
300
1'-0" = 1'-0"
140
12.0
141
12.0
290
     0
  0
SCALE
  5
52
102
{ACAD_REACTORS
330
2D
102
}
330
2D
100
AcDbScale
 70
     0
300
1:5
140
1.0
141
5.0
290
     0
  0
SCALE
  5
53
102
{ACAD_REACTORS
330
2D
102
}
330
2D
100
AcDbScale
 70
     0
300
1:8
140
1.0
141
8.0
290
     0
  0
SCALE
  5
54
102
{ACAD_REACTORS
330
2D
102
}
330
2D
100
AcDbScale
 70
     0
300
1:10
140
1.0
141
10.0
290
     0
  0
SCALE
  5
55
102
{ACAD_REACTORS
330
2D
102
}
330
2D
100
AcDbScale
 70
     0
300
1:16
140
1.0
141
16.0
290
     0
  0
SCALE
  5
56
102
{ACAD_REACTORS
330
2D
102
}
330
2D
100
AcDbScale
 70
     0
300
1:20
140
1.0
141
20.0
290
     0
  0
SCALE
  5
57
102
{ACAD_REACTORS
330
2D
102
}
330
2D
100
AcDbScale
 70
     0
300
1:30
140
1.0
141
30.0
290
     0
  0
TABLESTYLE
  5
5E5
102
{ACAD_REACTORS
330
58D
102
}
330
58D
100
AcDbTableStyle
  3
Standard
 70
     0
 71
     0
 40
0.06
 41
0.06
280
     0
281
     0
  7
STANDARD
140
0.18
170
     2
 62
     0
 63
   257
283
     0
274
    -2
284
     1
 64
     0
275
    -2
285
     1
 65
     0
276
    -2
286
     1
 66
     0
277
    -2
287
     1
 67
     0
278
    -2
288
     1
 68
     0
279
    -2
289
     1
 69
     0
  7
STANDARD
140
0.25
170
     5
 62
     0
 63
   257
283
     0
274
    -2
284
     1
 64
     0
275
    -2
285
     1
 65
     0
276
    -2
286
     1
 66
     0
277
    -2
287
     1
 67
     0
278
    -2
288
     1
 68
     0
279
    -2
289
     1
 69
     0
  7
STANDARD
140
0.18
170
     5
 62
     0
 63
   257
283
     0
274
    -2
284
     1
 64
     0
275
    -2
285
     1
 65
     0
276
    -2
286
     1
 66
     0
277
    -2
287
     1
 67
     0
278
    -2
288
     1
 68
     0
279
    -2
289
     1
 69
     0
  0
VISUALSTYLE
  5
595
102
{ACAD_REACTORS
330
2A
102
}
102
{ACAD_XDICTIONARY
360
5FE
102
}
330
2A
100
AcDbVisualStyle
  2
2dWireframe
 70
     4
 71
     0
 72
     2
 73
     0
 90
        0
 40
0.6
 41
30.0
 62
     5
 63
     7
 74
     1
 91
        4
 64
     7
 65
   257
 75
     1
175
     1
 42
1.0
 92
        0
 66
   257
 43
1.0
 76
     1
 77
     6
 78
     2
 67
     7
 79
     5
170
     0
171
     0
290
     0
174
     0
 93
        1
 44
0.0
173
     0
291
     0
 45
0.0
1001
ACAD
1000
AcDbSavedByObjectVersion
1070
     0
  0
VISUALSTYLE
  5
598
102
{ACAD_REACTORS
330
2A
102
}
102
{ACAD_XDICTIONARY
360
604
102
}
330
2A
100
AcDbVisualStyle
  2
Basic
 70
     7
 71
     1
 72
     0
 73
     1
 90
        0
 40
0.6
 41
30.0
 62
     5
 63
     7
 74
     0
 91
        4
 64
     7
 65
   257
 75
     1
175
     1
 42
1.0
 92
        8
 66
     7
 43
1.0
 76
     1
 77
     6
 78
     2
 67
     7
 79
     5
170
     0
171
     0
290
     0
174
     0
 93
        1
 44
0.0
173
     0
291
     1
 45
0.0
1001
ACAD
1000
AcDbSavedByObjectVersion
1070
     0
  0
VISUALSTYLE
  5
59C
102
{ACAD_REACTORS
330
2A
102
}
102
{ACAD_XDICTIONARY
360
60C
102
}
330
2A
100
AcDbVisualStyle
  2
Brighten
 70
    12
 71
     2
 72
     2
 73
     0
 90
        0
 40
0.6
 41
30.0
 62
     5
 63
     7
 74
     1
 91
        4
 64
     7
 65
   257
 75
     1
175
     1
 42
1.0
 92
        8
 66
     7
 43
1.0
 76
     1
 77
     6
 78
     2
 67
     7
 79
     5
170
     0
171
     0
290
     0
174
     0
 93
        1
 44
50.0
173
     0
291
     1
 45
0.0
1001
ACAD
1000
AcDbSavedByObjectVersion
1070
     0
  0
VISUALSTYLE
  5
5A0
102
{ACAD_REACTORS
330
2A
102
}
102
{ACAD_XDICTIONARY
360
614
102
}
330
2A
100
AcDbVisualStyle
  2
ColorChange
 70
    16
 71
     2
 72
     2
 73
     3
 90
        0
 40
0.6
 41
30.0
 62
     5
 63
     8
 74
     1
 91
        4
 64
     7
 65
   257
 75
     1
175
     1
 42
1.0
 92
        8
 66
     8
 43
1.0
 76
     1
 77
     6
 78
     2
 67
     7
 79
     5
170
     0
171
     0
290
     0
174
     0
 93
        1
 44
0.0
173
     0
291
     1
 45
0.0
1001
ACAD
1000
AcDbSavedByObjectVersion
1070
     0
  0
VISUALSTYLE
  5
59A
102
{ACAD_REACTORS
330
2A
102
}
102
{ACAD_XDICTIONARY
360
608
102
}
330
2A
100
AcDbVisualStyle
  2
Conceptual
 70
     9
 71
     3
 72
     2
 73
     0
 90
        0
 40
0.6
 41
30.0
 62
     5
 63
     7
 74
     2
 91
        2
 64
     7
 65
   257
 75
     1
175
     1
 42
40.0
 92
        8
 66
     7
 43
1.0
 76
     1
 77
     6
 78
     2
 67
     7
 79
     3
170
     0
171
     0
290
     0
174
     0
 93
        1
 44
0.0
173
     0
291
     0
 45
0.0
1001
ACAD
1000
AcDbSavedByObjectVersion
1070
     0
  0
VISUALSTYLE
  5
59B
102
{ACAD_REACTORS
330
2A
102
}
102
{ACAD_XDICTIONARY
360
60A
102
}
330
2A
100
AcDbVisualStyle
  2
Dim
 70
    11
 71
     2
 72
     2
 73
     0
 90
        0
 40
0.6
 41
30.0
 62
     5
 63
     7
 74
     1
 91
        4
 64
     7
 65
   257
 75
     1
175
     1
 42
1.0
 92
        8
 66
     7
 43
1.0
 76
     1
 77
     6
 78
     2
 67
     7
 79
     5
170
     0
171
     0
290
     0
174
     0
 93
        1
 44
-50.0
173
     0
291
     1
 45
0.0
1001
ACAD
1000
AcDbSavedByObjectVersion
1070
     0
  0
VISUALSTYLE
  5
5A3
102
{ACAD_REACTORS
330
2A
102
}
102
{ACAD_XDICTIONARY
360
61A
102
}
330
2A
100
AcDbVisualStyle
  2
EdgeColorOff
 70
    22
 71
     2
 72
     2
 73
     0
 90
        0
 40
0.6
 41
30.0
 62
     5
 63
     7
 74
     1
 91
        4
 64
     7
 65
   257
 75
     1
175
     1
 42
1.0
 92
        8
 66
     7
 43
1.0
 76
     1
 77
     6
 78
     2
 67
     7
 79
     5
170
     0
171
     0
290
     0
174
     0
 93
        1
 44
0.0
173
     0
291
     1
 45
0.0
1001
ACAD
1000
AcDbSavedByObjectVersion
1070
     0
  0
VISUALSTYLE
  5
59F
102
{ACAD_REACTORS
330
2A
102
}
102
{ACAD_XDICTIONARY
360
612
102
}
330
2A
100
AcDbVisualStyle
  2
Facepattern
 70
    15
 71
     2
 72
     2
 73
     0
 90
        0
 40
0.6
 41
30.0
 62
     5
 63
     7
 74
     1
 91
        4
 64
     7
 65
   257
 75
     1
175
     1
 42
1.0
 92
        8
 66
     7
 43
1.0
 76
     1
 77
     6
 78
     2
 67
     7
 79
     5
170
     0
171
     0
290
     0
174
     0
 93
        1
 44
0.0
173
     0
291
     1
 45
0.0
1001
ACAD
1000
AcDbSavedByObjectVersion
1070
     0
  0
VISUALSTYLE
  5
591
102
{ACAD_REACTORS
330
2A
102
}
102
{ACAD_XDICTIONARY
360
5F6
102
}
330
2A
100
AcDbVisualStyle
  2
Flat
 70
     0
 71
     2
 72
     1
 73
     1
 90
        2
 40
0.6
 41
30.0
 62
     5
 63
     7
 74
     0
 91
        4
 64
     7
 65
   257
 75
     1
175
     1
 42
1.0
 92
        8
 66
     7
 43
1.0
 76
     1
 77
     6
 78
     2
 67
     7
 79
     5
170
     0
171
     0
290
     0
174
     0
 93
       13
 44
0.0
173
     0
291
     1
 45
0.0
1001
ACAD
1000
AcDbSavedByObjectVersion
1070
     0
  0
VISUALSTYLE
  5
592
102
{ACAD_REACTORS
330
2A
102
}
102
{ACAD_XDICTIONARY
360
5F8
102
}
330
2A
100
AcDbVisualStyle
  2
FlatWithEdges
 70
     1
 71
     2
 72
     1
 73
     1
 90
        2
 40
0.6
 41
30.0
 62
     5
 63
     7
 74
     1
 91
        4
 64
     7
 65
   257
 75
     1
175
     1
 42
1.0
 92
        0
 66
   257
 43
1.0
 76
     1
 77
     6
 78
     2
 67
     7
 79
     5
170
     0
171
     0
290
     0
174
     0
 93
       13
 44
0.0
173
     0
291
     1
 45
0.0
1001
ACAD
1000
AcDbSavedByObjectVersion
1070
     0
  0
VISUALSTYLE
  5
593
102
{ACAD_REACTORS
330
2A
102
}
102
{ACAD_XDICTIONARY
360
5FA
102
}
330
2A
100
AcDbVisualStyle
  2
Gouraud
 70
     2
 71
     2
 72
     2
 73
     1
 90
        2
 40
0.6
 41
30.0
 62
     5
 63
     7
 74
     0
 91
        4
 64
     7
 65
   257
 75
     1
175
     1
 42
1.0
 92
        0
 66
     7
 43
1.0
 76
     1
 77
     6
 78
     2
 67
     7
 79
     5
170
     0
171
     0
290
     0
174
     0
 93
       13
 44
0.0
173
     0
291
     1
 45
0.0
1001
ACAD
1000
AcDbSavedByObjectVersion
1070
     0
  0
VISUALSTYLE
  5
594
102
{ACAD_REACTORS
330
2A
102
}
102
{ACAD_XDICTIONARY
360
5FC
102
}
330
2A
100
AcDbVisualStyle
  2
GouraudWithEdges
 70
     3
 71
     2
 72
     2
 73
     1
 90
        2
 40
0.6
 41
30.0
 62
     5
 63
     7
 74
     1
 91
        4
 64
     7
 65
   257
 75
     1
175
     1
 42
1.0
 92
        0
 66
   257
 43
1.0
 76
     1
 77
     6
 78
     2
 67
     7
 79
     5
170
     0
171
     0
290
     0
174
     0
 93
       13
 44
0.0
173
     0
291
     1
 45
0.0
1001
ACAD
1000
AcDbSavedByObjectVersion
1070
     0
  0
VISUALSTYLE
  5
597
102
{ACAD_REACTORS
330
2A
102
}
102
{ACAD_XDICTIONARY
360
602
102
}
330
2A
100
AcDbVisualStyle
  2
Hidden
 70
     6
 71
     1
 72
     2
 73
     2
 90
        0
 40
0.6
 41
30.0
 62
     5
 63
     7
 74
     2
 91
        2
 64
     7
 65
   257
 75
     2
175
     1
 42
40.0
 92
        0
 66
   257
 43
1.0
 76
     1
 77
     6
 78
     2
 67
     7
 79
     3
170
     0
171
     0
290
     0
174
     0
 93
        1
 44
0.0
173
     0
291
     0
 45
0.0
1001
ACAD
1000
AcDbSavedByObjectVersion
1070
     0
  0
VISUALSTYLE
  5
5A1
102
{ACAD_REACTORS
330
2A
102
}
102
{ACAD_XDICTIONARY
360
616
102
}
330
2A
100
AcDbVisualStyle
  2
JitterOff
 70
    20
 71
     2
 72
     2
 73
     0
 90
        0
 40
0.6
 41
30.0
 62
     5
 63
     7
 74
     1
 91
        4
 64
     7
 65
   257
 75
     1
175
     1
 42
1.0
 92
       10
 66
     7
 43
1.0
 76
     1
 77
     6
 78
     2
 67
     7
 79
     5
170
     0
171
     0
290
     0
174
     0
 93
        1
 44
0.0
173
     0
291
     1
 45
0.0
1001
ACAD
1000
AcDbSavedByObjectVersion
1070
     0
  0
VISUALSTYLE
  5
59E
102
{ACAD_REACTORS
330
2A
102
}
102
{ACAD_XDICTIONARY
360
610
102
}
330
2A
100
AcDbVisualStyle
  2
Linepattern
 70
    14
 71
     2
 72
     2
 73
     0
 90
        0
 40
0.6
 41
30.0
 62
     5
 63
     7
 74
     1
 91
        4
 64
     7
 65
   257
 75
     7
175
     7
 42
1.0
 92
        8
 66
     7
 43
1.0
 76
     1
 77
     6
 78
     2
 67
     7
 79
     5
170
     0
171
     0
290
     0
174
     0
 93
        1
 44
0.0
173
     0
291
     1
 45
0.0
1001
ACAD
1000
AcDbSavedByObjectVersion
1070
     0
  0
VISUALSTYLE
  5
5A2
102
{ACAD_REACTORS
330
2A
102
}
102
{ACAD_XDICTIONARY
360
618
102
}
330
2A
100
AcDbVisualStyle
  2
OverhangOff
 70
    21
 71
     2
 72
     2
 73
     0
 90
        0
 40
0.6
 41
30.0
 62
     5
 63
     7
 74
     1
 91
        4
 64
     7
 65
   257
 75
     1
175
     1
 42
1.0
 92
        9
 66
     7
 43
1.0
 76
     1
 77
     6
 78
     2
 67
     7
 79
     5
170
     0
171
     0
290
     0
174
     0
 93
        1
 44
0.0
173
     0
291
     1
 45
0.0
1001
ACAD
1000
AcDbSavedByObjectVersion
1070
     0
  0
VISUALSTYLE
  5
599
102
{ACAD_REACTORS
330
2A
102
}
102
{ACAD_XDICTIONARY
360
606
102
}
330
2A
100
AcDbVisualStyle
  2
Realistic
 70
     8
 71
     2
 72
     3
 73
     0
 90
        2
 40
0.6
 41
30.0
 62
     5
 63
     7
 74
     0
 91
        0
 64
     7
 65
   257
 75
     1
175
     1
 42
1.0
 92
        8
 66
   257
 43
1.0
 76
     1
 77
     6
 78
     2
 67
     7
 79
     3
170
     0
171
     0
290
     0
174
     0
 93
       13
 44
0.0
173
     0
291
     0
 45
0.0
1001
ACAD
1000
AcDbSavedByObjectVersion
1070
     0
  0
VISUALSTYLE
  5
5A8
102
{ACAD_REACTORS
330
2A
102
}
102
{ACAD_XDICTIONARY
360
624
102
}
330
2A
100
AcDbVisualStyle
  2
Shaded
 70
    27
 71
     2
 72
     2
 73
     1
 90
        2
 40
0.6
 41
30.0
 62
     5
 63
     7
 74
     0
 91
        4
 64
     7
 65
   257
 75
     1
175
     1
 42
1.0
 92
        8
 66
   257
 43
1.0
 76
     1
 77
     6
 78
     2
 67
   251
 79
     3
170
     0
171
     0
290
     0
174
     0
 93
        5
 44
0.0
173
     0
291
     0
 45
0.0
1001
ACAD
1000
AcDbSavedByObjectVersion
1070
     0
  0
VISUALSTYLE
  5
5A7
102
{ACAD_REACTORS
330
2A
102
}
102
{ACAD_XDICTIONARY
360
622
102
}
330
2A
100
AcDbVisualStyle
  2
Shaded with edges
 70
    26
 71
     2
 72
     2
 73
     1
 90
        2
 40
0.6
 41
30.0
 62
     5
 63
     7
 74
     1
 91
       10
 64
     7
 65
   257
 75
     2
175
     1
 42
1.0
 92
        8
 66
   257
 43
1.0
 76
     1
 77
     6
 78
     2
 67
     7
 79
     3
170
     0
171
     0
290
     0
174
     0
 93
        5
 44
0.0
173
     0
291
     0
 45
0.0
1001
ACAD
1000
AcDbSavedByObjectVersion
1070
     0
  0
VISUALSTYLE
  5
5A4
102
{ACAD_REACTORS
330
2A
102
}
102
{ACAD_XDICTIONARY
360
61C
102
}
330
2A
100
AcDbVisualStyle
  2
Shades of Gray
 70
    23
 71
     2
 72
     2
 73
     3
 90
        0
 40
0.6
 41
30.0
 62
     5
 63
     7
 74
     2
 91
        2
 64
     7
 65
     7
 75
     1
175
     1
 42
40.0
 92
        8
 66
     7
 43
1.0
 76
     1
 77
     6
 78
     2
 67
     7
 79
     3
170
     0
171
     0
290
     0
174
     0
 93
        1
 44
0.0
173
     0
291
     0
 45
0.0
1001
ACAD
1000
AcDbSavedByObjectVersion
1070
     0
  0
VISUALSTYLE
  5
5A5
102
{ACAD_REACTORS
330
2A
102
}
102
{ACAD_XDICTIONARY
360
61E
102
}
330
2A
100
AcDbVisualStyle
  2
Sketchy
 70
    24
 71
     1
 72
     2
 73
     2
 90
        0
 40
0.6
 41
30.0
 62
     5
 63
     7
 74
     2
 91
        2
 64
     7
 65
     7
 75
     1
175
     1
 42
40.0
 92
       11
 66
     7
 43
1.0
 76
     1
 77
     6
 78
     2
 67
     7
 79
     6
170
     0
171
     0
290
     0
174
     0
 93
        1
 44
0.0
173
     0
291
     0
 45
0.0
1001
ACAD
1000
AcDbSavedByObjectVersion
1070
     0
  0
VISUALSTYLE
  5
59D
102
{ACAD_REACTORS
330
2A
102
}
102
{ACAD_XDICTIONARY
360
60E
102
}
330
2A
100
AcDbVisualStyle
  2
Thicken
 70
    13
 71
     2
 72
     2
 73
     0
 90
        0
 40
0.6
 41
30.0
 62
     5
 63
     7
 74
     1
 91
        4
 64
     7
 65
   257
 75
     1
175
     1
 42
1.0
 92
       12
 66
     7
 43
1.0
 76
     1
 77
     6
 78
     2
 67
     7
 79
     5
170
     0
171
     0
290
     0
174
     0
 93
        1
 44
0.0
173
     0
291
     1
 45
0.0
1001
ACAD
1000
AcDbSavedByObjectVersion
1070
     0
  0
VISUALSTYLE
  5
596
102
{ACAD_REACTORS
330
2A
102
}
102
{ACAD_XDICTIONARY
360
600
102
}
330
2A
100
AcDbVisualStyle
  2
Wireframe
 70
     5
 71
     0
 72
     2
 73
     0
 90
        0
 40
0.6
 41
30.0
 62
     5
 63
     7
 74
     1
 91
        4
 64
     7
 65
   257
 75
     1
175
     1
 42
1.0
 92
        0
 66
   257
 43
1.0
 76
     1
 77
     6
 78
     2
 67
     7
 79
     5
170
     0
171
     0
290
     0
174
     0
 93
        1
 44
0.0
173
     0
291
     0
 45
0.0
1001
ACAD
1000
AcDbSavedByObjectVersion
1070
     0
  0
VISUALSTYLE
  5
5A6
102
{ACAD_REACTORS
330
2A
102
}
102
{ACAD_XDICTIONARY
360
620
102
}
330
2A
100
AcDbVisualStyle
  2
X-Ray
 70
    25
 71
     2
 72
     2
 73
     1
 90
        1
 40
0.5
 41
30.0
 62
     5
 63
     7
 74
     1
 91
        0
 64
     7
 65
   257
 75
     1
175
     1
 42
1.0
 92
        8
 66
     7
 43
1.0
 76
     1
 77
     6
 78
     2
 67
     7
 79
     3
170
     0
171
     0
290
     0
174
     0
 93
       13
 44
0.0
173
     0
291
     0
 45
0.0
1001
ACAD
1000
AcDbSavedByObjectVersion
1070
     0
  0
XRECORD
  5
5EA
102
{ACAD_REACTORS
330
5E9
102
}
330
5E9
100
AcDbXrecord
280
     1
340
29
  0
XRECORD
  5
5EB
102
{ACAD_REACTORS
330
5E9
102
}
330
5E9
100
AcDbXrecord
280
     1
340
7
  0
DICTIONARYVAR
  5
58C
102
{ACAD_REACTORS
330
58B
102
}
330
58B
100
DictionaryVariables
280
     0
  1
1:1
  0
DICTIONARYVAR
  5
5AB
102
{ACAD_REACTORS
330
58B
102
}
330
58B
100
DictionaryVariables
280
     0
  1
Standard
  0
DICTIONARYVAR
  5
5E6
102
{ACAD_REACTORS
330
58B
102
}
330
58B
100
DictionaryVariables
280
     0
  1
Standard
  0
DICTIONARYVAR
  5
5E7
102
{ACAD_REACTORS
330
58B
102
}
330
58B
100
DictionaryVariables
280
     0
  1
0
  0
DICTIONARYVAR
  5
5E8
102
{ACAD_REACTORS
330
58B
102
}
330
58B
100
DictionaryVariables
280
     0
  1
1
  0
DICTIONARYVAR
  5
5EF
102
{ACAD_REACTORS
330
58B
102
}
330
58B
100
DictionaryVariables
280
     0
  1
1
  0
DICTIONARY
  5
5F4
330
70
100
AcDbDictionary
280
     1
281
     1
  3
ACAD_XREC_ROUNDTRIP
360
5F5
  0
DICTIONARY
  5
5F0
330
10
100
AcDbDictionary
280
     1
281
     1
  3
ACAD_XREC_ROUNDTRIP
360
5F1
  0
DICTIONARY
  5
5F2
330
6
100
AcDbDictionary
280
     1
281
     1
  3
ACAD_XREC_ROUNDTRIP
360
5F3
  0
DICTIONARY
  5
626
330
5A9
100
AcDbDictionary
280
     1
281
     1
  3
ACAD_XREC_ROUNDTRIP
360
627
  0
DICTIONARY
  5
5FE
330
595
100
AcDbDictionary
280
     1
281
     1
  3
ACAD_XREC_ROUNDTRIP
360
5FF
  0
DICTIONARY
  5
604
330
598
100
AcDbDictionary
280
     1
281
     1
  3
ACAD_XREC_ROUNDTRIP
360
605
  0
DICTIONARY
  5
60C
330
59C
100
AcDbDictionary
280
     1
281
     1
  3
ACAD_XREC_ROUNDTRIP
360
60D
  0
DICTIONARY
  5
614
330
5A0
100
AcDbDictionary
280
     1
281
     1
  3
ACAD_XREC_ROUNDTRIP
360
615
  0
DICTIONARY
  5
608
330
59A
100
AcDbDictionary
280
     1
281
     1
  3
ACAD_XREC_ROUNDTRIP
360
609
  0
DICTIONARY
  5
60A
330
59B
100
AcDbDictionary
280
     1
281
     1
  3
ACAD_XREC_ROUNDTRIP
360
60B
  0
DICTIONARY
  5
61A
330
5A3
100
AcDbDictionary
280
     1
281
     1
  3
ACAD_XREC_ROUNDTRIP
360
61B
  0
DICTIONARY
  5
612
330
59F
100
AcDbDictionary
280
     1
281
     1
  3
ACAD_XREC_ROUNDTRIP
360
613
  0
DICTIONARY
  5
5F6
330
591
100
AcDbDictionary
280
     1
281
     1
  3
ACAD_XREC_ROUNDTRIP
360
5F7
  0
DICTIONARY
  5
5F8
330
592
100
AcDbDictionary
280
     1
281
     1
  3
ACAD_XREC_ROUNDTRIP
360
5F9
  0
DICTIONARY
  5
5FA
330
593
100
AcDbDictionary
280
     1
281
     1
  3
ACAD_XREC_ROUNDTRIP
360
5FB
  0
DICTIONARY
  5
5FC
330
594
100
AcDbDictionary
280
     1
281
     1
  3
ACAD_XREC_ROUNDTRIP
360
5FD
  0
DICTIONARY
  5
602
330
597
100
AcDbDictionary
280
     1
281
     1
  3
ACAD_XREC_ROUNDTRIP
360
603
  0
DICTIONARY
  5
616
330
5A1
100
AcDbDictionary
280
     1
281
     1
  3
ACAD_XREC_ROUNDTRIP
360
617
  0
DICTIONARY
  5
610
330
59E
100
AcDbDictionary
280
     1
281
     1
  3
ACAD_XREC_ROUNDTRIP
360
611
  0
DICTIONARY
  5
618
330
5A2
100
AcDbDictionary
280
     1
281
     1
  3
ACAD_XREC_ROUNDTRIP
360
619
  0
DICTIONARY
  5
606
330
599
100
AcDbDictionary
280
     1
281
     1
  3
ACAD_XREC_ROUNDTRIP
360
607
  0
DICTIONARY
  5
624
330
5A8
100
AcDbDictionary
280
     1
281
     1
  3
ACAD_XREC_ROUNDTRIP
360
625
  0
DICTIONARY
  5
622
330
5A7
100
AcDbDictionary
280
     1
281
     1
  3
ACAD_XREC_ROUNDTRIP
360
623
  0
DICTIONARY
  5
61C
330
5A4
100
AcDbDictionary
280
     1
281
     1
  3
ACAD_XREC_ROUNDTRIP
360
61D
  0
DICTIONARY
  5
61E
330
5A5
100
AcDbDictionary
280
     1
281
     1
  3
ACAD_XREC_ROUNDTRIP
360
61F
  0
DICTIONARY
  5
60E
330
59D
100
AcDbDictionary
280
     1
281
     1
  3
ACAD_XREC_ROUNDTRIP
360
60F
  0
DICTIONARY
  5
600
330
596
100
AcDbDictionary
280
     1
281
     1
  3
ACAD_XREC_ROUNDTRIP
360
601
  0
DICTIONARY
  5
620
330
5A6
100
AcDbDictionary
280
     1
281
     1
  3
ACAD_XREC_ROUNDTRIP
360
621
  0
XRECORD
  5
5F5
102
{ACAD_REACTORS
330
5F4
102
}
330
5F4
100
AcDbXrecord
280
     1
102
MATERIAL
148
0.0
149
0.0
149
0.0
 93
        0
 94
      127
282
     0
 72
     1
 77
     1
171
     1
175
     1
179
     1
273
     0
  0
XRECORD
  5
5F1
102
{ACAD_REACTORS
330
5F0
102
}
330
5F0
100
AcDbXrecord
280
     1
102
MATERIAL
148
0.0
149
0.0
149
0.0
 93
        0
 94
      127
282
     0
 72
     1
 77
     1
171
     1
175
     1
179
     1
273
     0
  0
XRECORD
  5
5F3
102
{ACAD_REACTORS
330
5F2
102
}
330
5F2
100
AcDbXrecord
280
     1
102
MATERIAL
148
0.0
149
0.0
149
0.0
 93
        0
 94
      127
282
     0
 72
     1
 77
     1
171
     1
175
     1
179
     1
273
     0
  0
XRECORD
  5
627
102
{ACAD_REACTORS
330
626
102
}
330
626
100
AcDbXrecord
280
     1
102
ACAD_ROUNDTRIP_2010_MLEADER_STYLE
  0
XRECORD
  5
5FF
102
{ACAD_REACTORS
330
5FE
102
}
330
5FE
100
AcDbXrecord
280
     1
102
RTVSPropertyOp0
 70
     1
102
RTVSPropertyOp1
 70
     1
102
RTVSPropertyOp2
 70
     1
102
RTVSPropertyOp3
 70
     1
102
RTVSPropertyOp4
 70
     1
102
RTVSPropertyOp5
 70
     1
102
RTVSPropertyOp6
 70
     1
102
RTVSPropertyOp7
 70
     1
102
RTVSPropertyOp8
 70
     1
102
RTVSPropertyOp9
 70
     1
102
RTVSPropertyOp10
 70
     1
102
RTVSPropertyOp11
 70
     1
102
RTVSPropertyOp12
 70
     1
102
RTVSPropertyOp13
 70
     1
102
RTVSPropertyOp14
 70
     1
102
RTVSPropertyOp15
 70
     1
102
RTVSPropertyOp16
 70
     1
102
RTVSPropertyOp17
 70
     1
102
RTVSPropertyOp18
 70
     1
102
RTVSPropertyOp19
 70
     1
102
RTVSPropertyOp20
 70
     1
102
RTVSPropertyOp21
 70
     1
102
RTVSPropertyOp22
 70
     1
102
RTVSPropertyOp23
 70
     1
102
RTVSPropertyOp24
 70
     1
102
RTVSPropertyOp25
 70
     1
102
RTVSPropertyOp26
 70
     1
102
RTVSPropertyOp27
 70
     1
102
RTVSPropertyOp28
 70
     1
102
RTVSPropertyOp29
 70
     1
102
RTVSPropertyOp30
 70
     1
102
RTVSPropertyOp31
 70
     1
102
RTVSPropertyOp32
 70
     1
102
RTVSPropertyOp33
 70
     1
102
RTVSPropertyOp34
 70
     1
102
RTVSPropertyOp35
 70
     1
102
RTVSPropertyOp36
 70
     1
102
RTVSPropertyOp37
 70
     1
102
RTVSPropertyOp38
 70
     1
102
RTVSPropertyOp39
 70
     1
102
RTVSPropertyOp40
 70
     1
102
RTVSPropertyOp41
 70
     1
102
RTVSPropertyOp42
 70
     1
102
RTVSPropertyOp43
 70
     1
102
RTVSPropertyOp44
 70
     1
102
RTVSPropertyOp45
 70
     1
102
RTVSPropertyOp46
 70
     1
102
RTVSPropertyOp47
 70
     1
102
RTVSPropertyOp48
 70
     1
102
RTVSPropertyOp49
 70
     1
102
RTVSPropertyOp50
 70
     1
102
RTVSPropertyOp51
 70
     0
102
RTVSPropertyOp52
 70
     0
102
RTVSPropertyOp53
 70
     1
102
RTVSPropertyOp54
 70
     1
102
RTVSPropertyOp55
 70
     1
102
RTVSPropertyOp56
 70
     1
102
RTVSPropertyOp57
 70
     1
102
RTVSPost2010Prop28
280
     1
102
RTVSPost2010PropOp28
 70
     1
102
RTVSPost2010Prop29
280
     1
102
RTVSPost2010PropOp29
 70
     1
102
RTVSPost2010Prop30
280
     0
102
RTVSPost2010PropOp30
 70
     1
102
RTVSPost2010Prop31
280
     0
102
RTVSPost2010PropOp31
 70
     1
102
RTVSPost2010Prop32
280
     0
102
RTVSPost2010PropOp32
 70
     1
102
RTVSPost2010Prop33
280
     0
102
RTVSPost2010PropOp33
 70
     1
102
RTVSPost2010Prop34
280
     0
102
RTVSPost2010PropOp34
 70
     1
102
RTVSPost2010Prop35
280
     0
102
RTVSPost2010PropOp35
 70
     1
102
RTVSPost2010Prop36
280
     0
102
RTVSPost2010PropOp36
 70
     1
102
RTVSPost2010Prop37
 90
       50
102
RTVSPost2010PropOp37
 70
     1
102
RTVSPost2010Prop38
140
0.0
102
RTVSPost2010PropOp38
 70
     1
102
RTVSPost2010Prop39
140
1.0
102
RTVSPost2010PropOp39
 70
     1
102
RTVSPost2010Prop40
 90
        0
102
RTVSPost2010PropOp40
 70
     1
102
RTVSPost2010Prop41ColorIndex
 90
       18
102
RTVSPost2010Prop41ColorRGB
 90
        0
102
RTVSPost2010PropOp41
 70
     1
102
RTVSPost2010Prop42
 90
       50
102
RTVSPost2010PropOp42
 70
     1
102
RTVSPost2010Prop43
 90
        3
102
RTVSPost2010PropOp43
 70
     1
102
RTVSPost2010Prop44ColorIndex
 90
        5
102
RTVSPost2010Prop44ColorRGB
 90
      255
102
RTVSPost2010PropOp44
 70
     1
102
RTVSPost2010Prop45
280
     0
102
RTVSPost2010PropOp45
 70
     1
102
RTVSPost2010Prop46
 90
       50
102
RTVSPost2010PropOp46
 70
     1
102
RTVSPost2010Prop47
 90
       50
102
RTVSPost2010PropOp47
 70
     1
102
RTVSPost2010Prop48
 90
       50
102
RTVSPost2010PropOp48
 70
     1
102
RTVSPost2010Prop49
280
     0
102
RTVSPost2010PropOp49
 70
     1
102
RTVSPost2010Prop50
 90
       50
102
RTVSPost2010PropOp50
 70
     1
102
RTVSPost2010Prop51ColorIndex
 90
      256
102
RTVSPost2010Prop51ColorRGB
 90
-16777216
102
RTVSPost2010PropOp51
 70
     0
102
RTVSPost2010Prop52
140
1.0
102
RTVSPost2010PropOp52
 70
     0
102
RTVSPost2010Prop53
 90
        2
102
RTVSPost2010PropOp53
 70
     1
102
RTVSPost2010Prop54
  1
strokes_ogs.tif
102
RTVSPost2010PropOp54
 70
     1
102
RTVSPost2010Prop55
280
     0
102
RTVSPost2010PropOp55
 70
     1
102
RTVSPost2010Prop56
140
1.0
102
RTVSPost2010PropOp56
 70
     1
102
RTVSPost2010Prop57
140
1.0
102
RTVSPost2010PropOp57
 70
     1
  0
XRECORD
  5
605
102
{ACAD_REACTORS
330
604
102
}
330
604
100
AcDbXrecord
280
     1
102
RTVSPropertyOp0
 70
     1
102
RTVSPropertyOp1
 70
     1
102
RTVSPropertyOp2
 70
     1
102
RTVSPropertyOp3
 70
     1
102
RTVSPropertyOp4
 70
     1
102
RTVSPropertyOp5
 70
     1
102
RTVSPropertyOp6
 70
     1
102
RTVSPropertyOp7
 70
     1
102
RTVSPropertyOp8
 70
     1
102
RTVSPropertyOp9
 70
     1
102
RTVSPropertyOp10
 70
     1
102
RTVSPropertyOp11
 70
     1
102
RTVSPropertyOp12
 70
     1
102
RTVSPropertyOp13
 70
     1
102
RTVSPropertyOp14
 70
     1
102
RTVSPropertyOp15
 70
     1
102
RTVSPropertyOp16
 70
     1
102
RTVSPropertyOp17
 70
     1
102
RTVSPropertyOp18
 70
     1
102
RTVSPropertyOp19
 70
     1
102
RTVSPropertyOp20
 70
     1
102
RTVSPropertyOp21
 70
     1
102
RTVSPropertyOp22
 70
     1
102
RTVSPropertyOp23
 70
     1
102
RTVSPropertyOp24
 70
     1
102
RTVSPropertyOp25
 70
     1
102
RTVSPropertyOp26
 70
     1
102
RTVSPropertyOp27
 70
     1
102
RTVSPropertyOp28
 70
     1
102
RTVSPropertyOp29
 70
     1
102
RTVSPropertyOp30
 70
     1
102
RTVSPropertyOp31
 70
     1
102
RTVSPropertyOp32
 70
     1
102
RTVSPropertyOp33
 70
     1
102
RTVSPropertyOp34
 70
     1
102
RTVSPropertyOp35
 70
     1
102
RTVSPropertyOp36
 70
     1
102
RTVSPropertyOp37
 70
     1
102
RTVSPropertyOp38
 70
     1
102
RTVSPropertyOp39
 70
     1
102
RTVSPropertyOp40
 70
     1
102
RTVSPropertyOp41
 70
     1
102
RTVSPropertyOp42
 70
     1
102
RTVSPropertyOp43
 70
     1
102
RTVSPropertyOp44
 70
     1
102
RTVSPropertyOp45
 70
     1
102
RTVSPropertyOp46
 70
     1
102
RTVSPropertyOp47
 70
     1
102
RTVSPropertyOp48
 70
     1
102
RTVSPropertyOp49
 70
     1
102
RTVSPropertyOp50
 70
     1
102
RTVSPropertyOp51
 70
     0
102
RTVSPropertyOp52
 70
     0
102
RTVSPropertyOp53
 70
     1
102
RTVSPropertyOp54
 70
     1
102
RTVSPropertyOp55
 70
     1
102
RTVSPropertyOp56
 70
     1
102
RTVSPropertyOp57
 70
     1
102
RTVSPost2010Prop28
280
     0
102
RTVSPost2010PropOp28
 70
     1
102
RTVSPost2010Prop29
280
     1
102
RTVSPost2010PropOp29
 70
     1
102
RTVSPost2010Prop30
280
     1
102
RTVSPost2010PropOp30
 70
     1
102
RTVSPost2010Prop31
280
     0
102
RTVSPost2010PropOp31
 70
     1
102
RTVSPost2010Prop32
280
     0
102
RTVSPost2010PropOp32
 70
     1
102
RTVSPost2010Prop33
280
     0
102
RTVSPost2010PropOp33
 70
     1
102
RTVSPost2010Prop34
280
     0
102
RTVSPost2010PropOp34
 70
     1
102
RTVSPost2010Prop35
280
     0
102
RTVSPost2010PropOp35
 70
     1
102
RTVSPost2010Prop36
280
     0
102
RTVSPost2010PropOp36
 70
     1
102
RTVSPost2010Prop37
 90
       50
102
RTVSPost2010PropOp37
 70
     1
102
RTVSPost2010Prop38
140
0.0
102
RTVSPost2010PropOp38
 70
     1
102
RTVSPost2010Prop39
140
1.0
102
RTVSPost2010PropOp39
 70
     1
102
RTVSPost2010Prop40
 90
        0
102
RTVSPost2010PropOp40
 70
     1
102
RTVSPost2010Prop41ColorIndex
 90
       18
102
RTVSPost2010Prop41ColorRGB
 90
        0
102
RTVSPost2010PropOp41
 70
     1
102
RTVSPost2010Prop42
 90
       50
102
RTVSPost2010PropOp42
 70
     1
102
RTVSPost2010Prop43
 90
        3
102
RTVSPost2010PropOp43
 70
     1
102
RTVSPost2010Prop44ColorIndex
 90
        5
102
RTVSPost2010Prop44ColorRGB
 90
      255
102
RTVSPost2010PropOp44
 70
     1
102
RTVSPost2010Prop45
280
     0
102
RTVSPost2010PropOp45
 70
     1
102
RTVSPost2010Prop46
 90
       50
102
RTVSPost2010PropOp46
 70
     1
102
RTVSPost2010Prop47
 90
       50
102
RTVSPost2010PropOp47
 70
     1
102
RTVSPost2010Prop48
 90
       50
102
RTVSPost2010PropOp48
 70
     1
102
RTVSPost2010Prop49
280
     0
102
RTVSPost2010PropOp49
 70
     1
102
RTVSPost2010Prop50
 90
       50
102
RTVSPost2010PropOp50
 70
     1
102
RTVSPost2010Prop51ColorIndex
 90
      256
102
RTVSPost2010Prop51ColorRGB
 90
-16777216
102
RTVSPost2010PropOp51
 70
     0
102
RTVSPost2010Prop52
140
1.0
102
RTVSPost2010PropOp52
 70
     0
102
RTVSPost2010Prop53
 90
        2
102
RTVSPost2010PropOp53
 70
     1
102
RTVSPost2010Prop54
  1
strokes_ogs.tif
102
RTVSPost2010PropOp54
 70
     1
102
RTVSPost2010Prop55
280
     0
102
RTVSPost2010PropOp55
 70
     1
102
RTVSPost2010Prop56
140
1.0
102
RTVSPost2010PropOp56
 70
     1
102
RTVSPost2010Prop57
140
1.0
102
RTVSPost2010PropOp57
 70
     1
  0
XRECORD
  5
60D
102
{ACAD_REACTORS
330
60C
102
}
330
60C
100
AcDbXrecord
280
     1
102
RTVSPropertyOp0
 70
     1
102
RTVSPropertyOp1
 70
     1
102
RTVSPropertyOp2
 70
     1
102
RTVSPropertyOp3
 70
     1
102
RTVSPropertyOp4
 70
     1
102
RTVSPropertyOp5
 70
     1
102
RTVSPropertyOp6
 70
     1
102
RTVSPropertyOp7
 70
     1
102
RTVSPropertyOp8
 70
     1
102
RTVSPropertyOp9
 70
     1
102
RTVSPropertyOp10
 70
     1
102
RTVSPropertyOp11
 70
     1
102
RTVSPropertyOp12
 70
     1
102
RTVSPropertyOp13
 70
     1
102
RTVSPropertyOp14
 70
     1
102
RTVSPropertyOp15
 70
     1
102
RTVSPropertyOp16
 70
     1
102
RTVSPropertyOp17
 70
     1
102
RTVSPropertyOp18
 70
     1
102
RTVSPropertyOp19
 70
     1
102
RTVSPropertyOp20
 70
     1
102
RTVSPropertyOp21
 70
     1
102
RTVSPropertyOp22
 70
     1
102
RTVSPropertyOp23
 70
     1
102
RTVSPropertyOp24
 70
     1
102
RTVSPropertyOp25
 70
     1
102
RTVSPropertyOp26
 70
     1
102
RTVSPropertyOp27
 70
     1
102
RTVSPropertyOp28
 70
     1
102
RTVSPropertyOp29
 70
     1
102
RTVSPropertyOp30
 70
     1
102
RTVSPropertyOp31
 70
     1
102
RTVSPropertyOp32
 70
     1
102
RTVSPropertyOp33
 70
     1
102
RTVSPropertyOp34
 70
     1
102
RTVSPropertyOp35
 70
     1
102
RTVSPropertyOp36
 70
     1
102
RTVSPropertyOp37
 70
     1
102
RTVSPropertyOp38
 70
     1
102
RTVSPropertyOp39
 70
     1
102
RTVSPropertyOp40
 70
     1
102
RTVSPropertyOp41
 70
     1
102
RTVSPropertyOp42
 70
     1
102
RTVSPropertyOp43
 70
     1
102
RTVSPropertyOp44
 70
     1
102
RTVSPropertyOp45
 70
     1
102
RTVSPropertyOp46
 70
     1
102
RTVSPropertyOp47
 70
     1
102
RTVSPropertyOp48
 70
     1
102
RTVSPropertyOp49
 70
     1
102
RTVSPropertyOp50
 70
     1
102
RTVSPropertyOp51
 70
     0
102
RTVSPropertyOp52
 70
     0
102
RTVSPropertyOp53
 70
     1
102
RTVSPropertyOp54
 70
     1
102
RTVSPropertyOp55
 70
     1
102
RTVSPropertyOp56
 70
     1
102
RTVSPropertyOp57
 70
     1
102
RTVSPost2010Prop28
280
     0
102
RTVSPost2010PropOp28
 70
     1
102
RTVSPost2010Prop29
280
     1
102
RTVSPost2010PropOp29
 70
     1
102
RTVSPost2010Prop30
280
     1
102
RTVSPost2010PropOp30
 70
     1
102
RTVSPost2010Prop31
280
     0
102
RTVSPost2010PropOp31
 70
     1
102
RTVSPost2010Prop32
280
     0
102
RTVSPost2010PropOp32
 70
     1
102
RTVSPost2010Prop33
280
     0
102
RTVSPost2010PropOp33
 70
     1
102
RTVSPost2010Prop34
280
     0
102
RTVSPost2010PropOp34
 70
     1
102
RTVSPost2010Prop35
280
     0
102
RTVSPost2010PropOp35
 70
     1
102
RTVSPost2010Prop36
280
     0
102
RTVSPost2010PropOp36
 70
     1
102
RTVSPost2010Prop37
 90
       50
102
RTVSPost2010PropOp37
 70
     1
102
RTVSPost2010Prop38
140
0.0
102
RTVSPost2010PropOp38
 70
     1
102
RTVSPost2010Prop39
140
1.0
102
RTVSPost2010PropOp39
 70
     1
102
RTVSPost2010Prop40
 90
        0
102
RTVSPost2010PropOp40
 70
     1
102
RTVSPost2010Prop41ColorIndex
 90
       18
102
RTVSPost2010Prop41ColorRGB
 90
        0
102
RTVSPost2010PropOp41
 70
     1
102
RTVSPost2010Prop42
 90
       50
102
RTVSPost2010PropOp42
 70
     1
102
RTVSPost2010Prop43
 90
        3
102
RTVSPost2010PropOp43
 70
     1
102
RTVSPost2010Prop44ColorIndex
 90
        5
102
RTVSPost2010Prop44ColorRGB
 90
      255
102
RTVSPost2010PropOp44
 70
     1
102
RTVSPost2010Prop45
280
     0
102
RTVSPost2010PropOp45
 70
     1
102
RTVSPost2010Prop46
 90
       50
102
RTVSPost2010PropOp46
 70
     1
102
RTVSPost2010Prop47
 90
       50
102
RTVSPost2010PropOp47
 70
     1
102
RTVSPost2010Prop48
 90
       50
102
RTVSPost2010PropOp48
 70
     1
102
RTVSPost2010Prop49
280
     0
102
RTVSPost2010PropOp49
 70
     1
102
RTVSPost2010Prop50
 90
       50
102
RTVSPost2010PropOp50
 70
     1
102
RTVSPost2010Prop51ColorIndex
 90
      256
102
RTVSPost2010Prop51ColorRGB
 90
-16777216
102
RTVSPost2010PropOp51
 70
     0
102
RTVSPost2010Prop52
140
1.0
102
RTVSPost2010PropOp52
 70
     0
102
RTVSPost2010Prop53
 90
        2
102
RTVSPost2010PropOp53
 70
     1
102
RTVSPost2010Prop54
  1
strokes_ogs.tif
102
RTVSPost2010PropOp54
 70
     1
102
RTVSPost2010Prop55
280
     0
102
RTVSPost2010PropOp55
 70
     1
102
RTVSPost2010Prop56
140
1.0
102
RTVSPost2010PropOp56
 70
     1
102
RTVSPost2010Prop57
140
1.0
102
RTVSPost2010PropOp57
 70
     1
  0
XRECORD
  5
615
102
{ACAD_REACTORS
330
614
102
}
330
614
100
AcDbXrecord
280
     1
102
RTVSPropertyOp0
 70
     1
102
RTVSPropertyOp1
 70
     1
102
RTVSPropertyOp2
 70
     1
102
RTVSPropertyOp3
 70
     1
102
RTVSPropertyOp4
 70
     1
102
RTVSPropertyOp5
 70
     1
102
RTVSPropertyOp6
 70
     1
102
RTVSPropertyOp7
 70
     1
102
RTVSPropertyOp8
 70
     1
102
RTVSPropertyOp9
 70
     1
102
RTVSPropertyOp10
 70
     1
102
RTVSPropertyOp11
 70
     1
102
RTVSPropertyOp12
 70
     1
102
RTVSPropertyOp13
 70
     1
102
RTVSPropertyOp14
 70
     1
102
RTVSPropertyOp15
 70
     1
102
RTVSPropertyOp16
 70
     1
102
RTVSPropertyOp17
 70
     1
102
RTVSPropertyOp18
 70
     1
102
RTVSPropertyOp19
 70
     1
102
RTVSPropertyOp20
 70
     1
102
RTVSPropertyOp21
 70
     1
102
RTVSPropertyOp22
 70
     1
102
RTVSPropertyOp23
 70
     1
102
RTVSPropertyOp24
 70
     1
102
RTVSPropertyOp25
 70
     1
102
RTVSPropertyOp26
 70
     1
102
RTVSPropertyOp27
 70
     1
102
RTVSPropertyOp28
 70
     1
102
RTVSPropertyOp29
 70
     1
102
RTVSPropertyOp30
 70
     1
102
RTVSPropertyOp31
 70
     1
102
RTVSPropertyOp32
 70
     1
102
RTVSPropertyOp33
 70
     1
102
RTVSPropertyOp34
 70
     1
102
RTVSPropertyOp35
 70
     1
102
RTVSPropertyOp36
 70
     1
102
RTVSPropertyOp37
 70
     1
102
RTVSPropertyOp38
 70
     1
102
RTVSPropertyOp39
 70
     1
102
RTVSPropertyOp40
 70
     1
102
RTVSPropertyOp41
 70
     1
102
RTVSPropertyOp42
 70
     1
102
RTVSPropertyOp43
 70
     1
102
RTVSPropertyOp44
 70
     1
102
RTVSPropertyOp45
 70
     1
102
RTVSPropertyOp46
 70
     1
102
RTVSPropertyOp47
 70
     1
102
RTVSPropertyOp48
 70
     1
102
RTVSPropertyOp49
 70
     1
102
RTVSPropertyOp50
 70
     1
102
RTVSPropertyOp51
 70
     0
102
RTVSPropertyOp52
 70
     0
102
RTVSPropertyOp53
 70
     1
102
RTVSPropertyOp54
 70
     1
102
RTVSPropertyOp55
 70
     1
102
RTVSPropertyOp56
 70
     1
102
RTVSPropertyOp57
 70
     1
102
RTVSPost2010Prop28
280
     0
102
RTVSPost2010PropOp28
 70
     1
102
RTVSPost2010Prop29
280
     1
102
RTVSPost2010PropOp29
 70
     1
102
RTVSPost2010Prop30
280
     1
102
RTVSPost2010PropOp30
 70
     1
102
RTVSPost2010Prop31
280
     0
102
RTVSPost2010PropOp31
 70
     1
102
RTVSPost2010Prop32
280
     0
102
RTVSPost2010PropOp32
 70
     1
102
RTVSPost2010Prop33
280
     0
102
RTVSPost2010PropOp33
 70
     1
102
RTVSPost2010Prop34
280
     0
102
RTVSPost2010PropOp34
 70
     1
102
RTVSPost2010Prop35
280
     0
102
RTVSPost2010PropOp35
 70
     1
102
RTVSPost2010Prop36
280
     0
102
RTVSPost2010PropOp36
 70
     1
102
RTVSPost2010Prop37
 90
       50
102
RTVSPost2010PropOp37
 70
     1
102
RTVSPost2010Prop38
140
0.0
102
RTVSPost2010PropOp38
 70
     1
102
RTVSPost2010Prop39
140
1.0
102
RTVSPost2010PropOp39
 70
     1
102
RTVSPost2010Prop40
 90
        0
102
RTVSPost2010PropOp40
 70
     1
102
RTVSPost2010Prop41ColorIndex
 90
       18
102
RTVSPost2010Prop41ColorRGB
 90
        0
102
RTVSPost2010PropOp41
 70
     1
102
RTVSPost2010Prop42
 90
       50
102
RTVSPost2010PropOp42
 70
     1
102
RTVSPost2010Prop43
 90
        3
102
RTVSPost2010PropOp43
 70
     1
102
RTVSPost2010Prop44ColorIndex
 90
        5
102
RTVSPost2010Prop44ColorRGB
 90
      255
102
RTVSPost2010PropOp44
 70
     1
102
RTVSPost2010Prop45
280
     0
102
RTVSPost2010PropOp45
 70
     1
102
RTVSPost2010Prop46
 90
       50
102
RTVSPost2010PropOp46
 70
     1
102
RTVSPost2010Prop47
 90
       50
102
RTVSPost2010PropOp47
 70
     1
102
RTVSPost2010Prop48
 90
       50
102
RTVSPost2010PropOp48
 70
     1
102
RTVSPost2010Prop49
280
     0
102
RTVSPost2010PropOp49
 70
     1
102
RTVSPost2010Prop50
 90
       50
102
RTVSPost2010PropOp50
 70
     1
102
RTVSPost2010Prop51ColorIndex
 90
      256
102
RTVSPost2010Prop51ColorRGB
 90
-16777216
102
RTVSPost2010PropOp51
 70
     0
102
RTVSPost2010Prop52
140
1.0
102
RTVSPost2010PropOp52
 70
     0
102
RTVSPost2010Prop53
 90
        2
102
RTVSPost2010PropOp53
 70
     1
102
RTVSPost2010Prop54
  1
strokes_ogs.tif
102
RTVSPost2010PropOp54
 70
     1
102
RTVSPost2010Prop55
280
     0
102
RTVSPost2010PropOp55
 70
     1
102
RTVSPost2010Prop56
140
1.0
102
RTVSPost2010PropOp56
 70
     1
102
RTVSPost2010Prop57
140
1.0
102
RTVSPost2010PropOp57
 70
     1
  0
XRECORD
  5
609
102
{ACAD_REACTORS
330
608
102
}
330
608
100
AcDbXrecord
280
     1
102
RTVSPropertyOp0
 70
     1
102
RTVSPropertyOp1
 70
     1
102
RTVSPropertyOp2
 70
     1
102
RTVSPropertyOp3
 70
     1
102
RTVSPropertyOp4
 70
     1
102
RTVSPropertyOp5
 70
     1
102
RTVSPropertyOp6
 70
     1
102
RTVSPropertyOp7
 70
     1
102
RTVSPropertyOp8
 70
     1
102
RTVSPropertyOp9
 70
     1
102
RTVSPropertyOp10
 70
     1
102
RTVSPropertyOp11
 70
     1
102
RTVSPropertyOp12
 70
     1
102
RTVSPropertyOp13
 70
     1
102
RTVSPropertyOp14
 70
     1
102
RTVSPropertyOp15
 70
     1
102
RTVSPropertyOp16
 70
     1
102
RTVSPropertyOp17
 70
     1
102
RTVSPropertyOp18
 70
     1
102
RTVSPropertyOp19
 70
     1
102
RTVSPropertyOp20
 70
     1
102
RTVSPropertyOp21
 70
     1
102
RTVSPropertyOp22
 70
     1
102
RTVSPropertyOp23
 70
     1
102
RTVSPropertyOp24
 70
     1
102
RTVSPropertyOp25
 70
     1
102
RTVSPropertyOp26
 70
     1
102
RTVSPropertyOp27
 70
     1
102
RTVSPropertyOp28
 70
     1
102
RTVSPropertyOp29
 70
     1
102
RTVSPropertyOp30
 70
     1
102
RTVSPropertyOp31
 70
     1
102
RTVSPropertyOp32
 70
     1
102
RTVSPropertyOp33
 70
     1
102
RTVSPropertyOp34
 70
     1
102
RTVSPropertyOp35
 70
     1
102
RTVSPropertyOp36
 70
     1
102
RTVSPropertyOp37
 70
     1
102
RTVSPropertyOp38
 70
     1
102
RTVSPropertyOp39
 70
     1
102
RTVSPropertyOp40
 70
     1
102
RTVSPropertyOp41
 70
     1
102
RTVSPropertyOp42
 70
     1
102
RTVSPropertyOp43
 70
     1
102
RTVSPropertyOp44
 70
     1
102
RTVSPropertyOp45
 70
     1
102
RTVSPropertyOp46
 70
     1
102
RTVSPropertyOp47
 70
     1
102
RTVSPropertyOp48
 70
     1
102
RTVSPropertyOp49
 70
     1
102
RTVSPropertyOp50
 70
     1
102
RTVSPropertyOp51
 70
     0
102
RTVSPropertyOp52
 70
     0
102
RTVSPropertyOp53
 70
     1
102
RTVSPropertyOp54
 70
     1
102
RTVSPropertyOp55
 70
     1
102
RTVSPropertyOp56
 70
     1
102
RTVSPropertyOp57
 70
     1
102
RTVSPost2010Prop28
280
     0
102
RTVSPost2010PropOp28
 70
     1
102
RTVSPost2010Prop29
280
     1
102
RTVSPost2010PropOp29
 70
     1
102
RTVSPost2010Prop30
280
     1
102
RTVSPost2010PropOp30
 70
     1
102
RTVSPost2010Prop31
280
     0
102
RTVSPost2010PropOp31
 70
     1
102
RTVSPost2010Prop32
280
     0
102
RTVSPost2010PropOp32
 70
     1
102
RTVSPost2010Prop33
280
     0
102
RTVSPost2010PropOp33
 70
     1
102
RTVSPost2010Prop34
280
     0
102
RTVSPost2010PropOp34
 70
     1
102
RTVSPost2010Prop35
280
     0
102
RTVSPost2010PropOp35
 70
     1
102
RTVSPost2010Prop36
280
     0
102
RTVSPost2010PropOp36
 70
     1
102
RTVSPost2010Prop37
 90
       50
102
RTVSPost2010PropOp37
 70
     1
102
RTVSPost2010Prop38
140
0.0
102
RTVSPost2010PropOp38
 70
     1
102
RTVSPost2010Prop39
140
1.0
102
RTVSPost2010PropOp39
 70
     1
102
RTVSPost2010Prop40
 90
        0
102
RTVSPost2010PropOp40
 70
     1
102
RTVSPost2010Prop41ColorIndex
 90
       18
102
RTVSPost2010Prop41ColorRGB
 90
        0
102
RTVSPost2010PropOp41
 70
     1
102
RTVSPost2010Prop42
 90
       50
102
RTVSPost2010PropOp42
 70
     1
102
RTVSPost2010Prop43
 90
        3
102
RTVSPost2010PropOp43
 70
     1
102
RTVSPost2010Prop44ColorIndex
 90
        5
102
RTVSPost2010Prop44ColorRGB
 90
      255
102
RTVSPost2010PropOp44
 70
     1
102
RTVSPost2010Prop45
280
     0
102
RTVSPost2010PropOp45
 70
     1
102
RTVSPost2010Prop46
 90
       50
102
RTVSPost2010PropOp46
 70
     1
102
RTVSPost2010Prop47
 90
       50
102
RTVSPost2010PropOp47
 70
     1
102
RTVSPost2010Prop48
 90
       50
102
RTVSPost2010PropOp48
 70
     1
102
RTVSPost2010Prop49
280
     0
102
RTVSPost2010PropOp49
 70
     1
102
RTVSPost2010Prop50
 90
       50
102
RTVSPost2010PropOp50
 70
     1
102
RTVSPost2010Prop51ColorIndex
 90
      256
102
RTVSPost2010Prop51ColorRGB
 90
-16777216
102
RTVSPost2010PropOp51
 70
     0
102
RTVSPost2010Prop52
140
1.0
102
RTVSPost2010PropOp52
 70
     0
102
RTVSPost2010Prop53
 90
        2
102
RTVSPost2010PropOp53
 70
     1
102
RTVSPost2010Prop54
  1
strokes_ogs.tif
102
RTVSPost2010PropOp54
 70
     1
102
RTVSPost2010Prop55
280
     0
102
RTVSPost2010PropOp55
 70
     1
102
RTVSPost2010Prop56
140
1.0
102
RTVSPost2010PropOp56
 70
     1
102
RTVSPost2010Prop57
140
1.0
102
RTVSPost2010PropOp57
 70
     1
  0
XRECORD
  5
60B
102
{ACAD_REACTORS
330
60A
102
}
330
60A
100
AcDbXrecord
280
     1
102
RTVSPropertyOp0
 70
     1
102
RTVSPropertyOp1
 70
     1
102
RTVSPropertyOp2
 70
     1
102
RTVSPropertyOp3
 70
     1
102
RTVSPropertyOp4
 70
     1
102
RTVSPropertyOp5
 70
     1
102
RTVSPropertyOp6
 70
     1
102
RTVSPropertyOp7
 70
     1
102
RTVSPropertyOp8
 70
     1
102
RTVSPropertyOp9
 70
     1
102
RTVSPropertyOp10
 70
     1
102
RTVSPropertyOp11
 70
     1
102
RTVSPropertyOp12
 70
     1
102
RTVSPropertyOp13
 70
     1
102
RTVSPropertyOp14
 70
     1
102
RTVSPropertyOp15
 70
     1
102
RTVSPropertyOp16
 70
     1
102
RTVSPropertyOp17
 70
     1
102
RTVSPropertyOp18
 70
     1
102
RTVSPropertyOp19
 70
     1
102
RTVSPropertyOp20
 70
     1
102
RTVSPropertyOp21
 70
     1
102
RTVSPropertyOp22
 70
     1
102
RTVSPropertyOp23
 70
     1
102
RTVSPropertyOp24
 70
     1
102
RTVSPropertyOp25
 70
     1
102
RTVSPropertyOp26
 70
     1
102
RTVSPropertyOp27
 70
     1
102
RTVSPropertyOp28
 70
     1
102
RTVSPropertyOp29
 70
     1
102
RTVSPropertyOp30
 70
     1
102
RTVSPropertyOp31
 70
     1
102
RTVSPropertyOp32
 70
     1
102
RTVSPropertyOp33
 70
     1
102
RTVSPropertyOp34
 70
     1
102
RTVSPropertyOp35
 70
     1
102
RTVSPropertyOp36
 70
     1
102
RTVSPropertyOp37
 70
     1
102
RTVSPropertyOp38
 70
     1
102
RTVSPropertyOp39
 70
     1
102
RTVSPropertyOp40
 70
     1
102
RTVSPropertyOp41
 70
     1
102
RTVSPropertyOp42
 70
     1
102
RTVSPropertyOp43
 70
     1
102
RTVSPropertyOp44
 70
     1
102
RTVSPropertyOp45
 70
     1
102
RTVSPropertyOp46
 70
     1
102
RTVSPropertyOp47
 70
     1
102
RTVSPropertyOp48
 70
     1
102
RTVSPropertyOp49
 70
     1
102
RTVSPropertyOp50
 70
     1
102
RTVSPropertyOp51
 70
     0
102
RTVSPropertyOp52
 70
     0
102
RTVSPropertyOp53
 70
     1
102
RTVSPropertyOp54
 70
     1
102
RTVSPropertyOp55
 70
     1
102
RTVSPropertyOp56
 70
     1
102
RTVSPropertyOp57
 70
     1
102
RTVSPost2010Prop28
280
     0
102
RTVSPost2010PropOp28
 70
     1
102
RTVSPost2010Prop29
280
     1
102
RTVSPost2010PropOp29
 70
     1
102
RTVSPost2010Prop30
280
     1
102
RTVSPost2010PropOp30
 70
     1
102
RTVSPost2010Prop31
280
     0
102
RTVSPost2010PropOp31
 70
     1
102
RTVSPost2010Prop32
280
     0
102
RTVSPost2010PropOp32
 70
     1
102
RTVSPost2010Prop33
280
     0
102
RTVSPost2010PropOp33
 70
     1
102
RTVSPost2010Prop34
280
     0
102
RTVSPost2010PropOp34
 70
     1
102
RTVSPost2010Prop35
280
     0
102
RTVSPost2010PropOp35
 70
     1
102
RTVSPost2010Prop36
280
     0
102
RTVSPost2010PropOp36
 70
     1
102
RTVSPost2010Prop37
 90
       50
102
RTVSPost2010PropOp37
 70
     1
102
RTVSPost2010Prop38
140
0.0
102
RTVSPost2010PropOp38
 70
     1
102
RTVSPost2010Prop39
140
1.0
102
RTVSPost2010PropOp39
 70
     1
102
RTVSPost2010Prop40
 90
        0
102
RTVSPost2010PropOp40
 70
     1
102
RTVSPost2010Prop41ColorIndex
 90
       18
102
RTVSPost2010Prop41ColorRGB
 90
        0
102
RTVSPost2010PropOp41
 70
     1
102
RTVSPost2010Prop42
 90
       50
102
RTVSPost2010PropOp42
 70
     1
102
RTVSPost2010Prop43
 90
        3
102
RTVSPost2010PropOp43
 70
     1
102
RTVSPost2010Prop44ColorIndex
 90
        5
102
RTVSPost2010Prop44ColorRGB
 90
      255
102
RTVSPost2010PropOp44
 70
     1
102
RTVSPost2010Prop45
280
     0
102
RTVSPost2010PropOp45
 70
     1
102
RTVSPost2010Prop46
 90
       50
102
RTVSPost2010PropOp46
 70
     1
102
RTVSPost2010Prop47
 90
       50
102
RTVSPost2010PropOp47
 70
     1
102
RTVSPost2010Prop48
 90
       50
102
RTVSPost2010PropOp48
 70
     1
102
RTVSPost2010Prop49
280
     0
102
RTVSPost2010PropOp49
 70
     1
102
RTVSPost2010Prop50
 90
       50
102
RTVSPost2010PropOp50
 70
     1
102
RTVSPost2010Prop51ColorIndex
 90
      256
102
RTVSPost2010Prop51ColorRGB
 90
-16777216
102
RTVSPost2010PropOp51
 70
     0
102
RTVSPost2010Prop52
140
1.0
102
RTVSPost2010PropOp52
 70
     0
102
RTVSPost2010Prop53
 90
        2
102
RTVSPost2010PropOp53
 70
     1
102
RTVSPost2010Prop54
  1
strokes_ogs.tif
102
RTVSPost2010PropOp54
 70
     1
102
RTVSPost2010Prop55
280
     0
102
RTVSPost2010PropOp55
 70
     1
102
RTVSPost2010Prop56
140
1.0
102
RTVSPost2010PropOp56
 70
     1
102
RTVSPost2010Prop57
140
1.0
102
RTVSPost2010PropOp57
 70
     1
  0
XRECORD
  5
61B
102
{ACAD_REACTORS
330
61A
102
}
330
61A
100
AcDbXrecord
280
     1
102
RTVSPropertyOp0
 70
     0
102
RTVSPropertyOp1
 70
     0
102
RTVSPropertyOp2
 70
     0
102
RTVSPropertyOp3
 70
     0
102
RTVSPropertyOp4
 70
     0
102
RTVSPropertyOp5
 70
     0
102
RTVSPropertyOp6
 70
     0
102
RTVSPropertyOp7
 70
     0
102
RTVSPropertyOp8
 70
     0
102
RTVSPropertyOp9
 70
     0
102
RTVSPropertyOp10
 70
     0
102
RTVSPropertyOp11
 70
     0
102
RTVSPropertyOp12
 70
     0
102
RTVSPropertyOp13
 70
     0
102
RTVSPropertyOp14
 70
     0
102
RTVSPropertyOp15
 70
     0
102
RTVSPropertyOp16
 70
     0
102
RTVSPropertyOp17
 70
     0
102
RTVSPropertyOp18
 70
     0
102
RTVSPropertyOp19
 70
     0
102
RTVSPropertyOp20
 70
     0
102
RTVSPropertyOp21
 70
     0
102
RTVSPropertyOp22
 70
     0
102
RTVSPropertyOp23
 70
     0
102
RTVSPropertyOp24
 70
     0
102
RTVSPropertyOp25
 70
     0
102
RTVSPropertyOp26
 70
     0
102
RTVSPropertyOp27
 70
     0
102
RTVSPropertyOp28
 70
     1
102
RTVSPropertyOp29
 70
     1
102
RTVSPropertyOp30
 70
     1
102
RTVSPropertyOp31
 70
     1
102
RTVSPropertyOp32
 70
     1
102
RTVSPropertyOp33
 70
     1
102
RTVSPropertyOp34
 70
     1
102
RTVSPropertyOp35
 70
     1
102
RTVSPropertyOp36
 70
     1
102
RTVSPropertyOp37
 70
     1
102
RTVSPropertyOp38
 70
     1
102
RTVSPropertyOp39
 70
     1
102
RTVSPropertyOp40
 70
     1
102
RTVSPropertyOp41
 70
     1
102
RTVSPropertyOp42
 70
     1
102
RTVSPropertyOp43
 70
     1
102
RTVSPropertyOp44
 70
     1
102
RTVSPropertyOp45
 70
     1
102
RTVSPropertyOp46
 70
     1
102
RTVSPropertyOp47
 70
     1
102
RTVSPropertyOp48
 70
     1
102
RTVSPropertyOp49
 70
     1
102
RTVSPropertyOp50
 70
     1
102
RTVSPropertyOp51
 70
     0
102
RTVSPropertyOp52
 70
     0
102
RTVSPropertyOp53
 70
     1
102
RTVSPropertyOp54
 70
     1
102
RTVSPropertyOp55
 70
     1
102
RTVSPropertyOp56
 70
     1
102
RTVSPropertyOp57
 70
     1
102
RTVSPost2010Prop28
280
     0
102
RTVSPost2010PropOp28
 70
     1
102
RTVSPost2010Prop29
280
     1
102
RTVSPost2010PropOp29
 70
     1
102
RTVSPost2010Prop30
280
     1
102
RTVSPost2010PropOp30
 70
     1
102
RTVSPost2010Prop31
280
     0
102
RTVSPost2010PropOp31
 70
     1
102
RTVSPost2010Prop32
280
     0
102
RTVSPost2010PropOp32
 70
     1
102
RTVSPost2010Prop33
280
     0
102
RTVSPost2010PropOp33
 70
     1
102
RTVSPost2010Prop34
280
     0
102
RTVSPost2010PropOp34
 70
     1
102
RTVSPost2010Prop35
280
     0
102
RTVSPost2010PropOp35
 70
     1
102
RTVSPost2010Prop36
280
     0
102
RTVSPost2010PropOp36
 70
     1
102
RTVSPost2010Prop37
 90
       50
102
RTVSPost2010PropOp37
 70
     1
102
RTVSPost2010Prop38
140
0.0
102
RTVSPost2010PropOp38
 70
     1
102
RTVSPost2010Prop39
140
1.0
102
RTVSPost2010PropOp39
 70
     1
102
RTVSPost2010Prop40
 90
        0
102
RTVSPost2010PropOp40
 70
     1
102
RTVSPost2010Prop41ColorIndex
 90
       18
102
RTVSPost2010Prop41ColorRGB
 90
        0
102
RTVSPost2010PropOp41
 70
     1
102
RTVSPost2010Prop42
 90
       50
102
RTVSPost2010PropOp42
 70
     1
102
RTVSPost2010Prop43
 90
        3
102
RTVSPost2010PropOp43
 70
     1
102
RTVSPost2010Prop44ColorIndex
 90
        5
102
RTVSPost2010Prop44ColorRGB
 90
      255
102
RTVSPost2010PropOp44
 70
     1
102
RTVSPost2010Prop45
280
     0
102
RTVSPost2010PropOp45
 70
     1
102
RTVSPost2010Prop46
 90
       50
102
RTVSPost2010PropOp46
 70
     1
102
RTVSPost2010Prop47
 90
       50
102
RTVSPost2010PropOp47
 70
     1
102
RTVSPost2010Prop48
 90
       50
102
RTVSPost2010PropOp48
 70
     1
102
RTVSPost2010Prop49
280
     0
102
RTVSPost2010PropOp49
 70
     1
102
RTVSPost2010Prop50
 90
       50
102
RTVSPost2010PropOp50
 70
     1
102
RTVSPost2010Prop51ColorIndex
 90
      256
102
RTVSPost2010Prop51ColorRGB
 90
-16777216
102
RTVSPost2010PropOp51
 70
     0
102
RTVSPost2010Prop52
140
1.0
102
RTVSPost2010PropOp52
 70
     0
102
RTVSPost2010Prop53
 90
        2
102
RTVSPost2010PropOp53
 70
     1
102
RTVSPost2010Prop54
  1
strokes_ogs.tif
102
RTVSPost2010PropOp54
 70
     1
102
RTVSPost2010Prop55
280
     0
102
RTVSPost2010PropOp55
 70
     1
102
RTVSPost2010Prop56
140
1.0
102
RTVSPost2010PropOp56
 70
     1
102
RTVSPost2010Prop57
140
1.0
102
RTVSPost2010PropOp57
 70
     1
  0
XRECORD
  5
613
102
{ACAD_REACTORS
330
612
102
}
330
612
100
AcDbXrecord
280
     1
102
RTVSPropertyOp0
 70
     1
102
RTVSPropertyOp1
 70
     1
102
RTVSPropertyOp2
 70
     1
102
RTVSPropertyOp3
 70
     1
102
RTVSPropertyOp4
 70
     1
102
RTVSPropertyOp5
 70
     1
102
RTVSPropertyOp6
 70
     1
102
RTVSPropertyOp7
 70
     1
102
RTVSPropertyOp8
 70
     1
102
RTVSPropertyOp9
 70
     1
102
RTVSPropertyOp10
 70
     1
102
RTVSPropertyOp11
 70
     1
102
RTVSPropertyOp12
 70
     1
102
RTVSPropertyOp13
 70
     1
102
RTVSPropertyOp14
 70
     1
102
RTVSPropertyOp15
 70
     1
102
RTVSPropertyOp16
 70
     1
102
RTVSPropertyOp17
 70
     1
102
RTVSPropertyOp18
 70
     1
102
RTVSPropertyOp19
 70
     1
102
RTVSPropertyOp20
 70
     1
102
RTVSPropertyOp21
 70
     1
102
RTVSPropertyOp22
 70
     1
102
RTVSPropertyOp23
 70
     1
102
RTVSPropertyOp24
 70
     1
102
RTVSPropertyOp25
 70
     1
102
RTVSPropertyOp26
 70
     1
102
RTVSPropertyOp27
 70
     1
102
RTVSPropertyOp28
 70
     1
102
RTVSPropertyOp29
 70
     1
102
RTVSPropertyOp30
 70
     1
102
RTVSPropertyOp31
 70
     1
102
RTVSPropertyOp32
 70
     1
102
RTVSPropertyOp33
 70
     1
102
RTVSPropertyOp34
 70
     1
102
RTVSPropertyOp35
 70
     1
102
RTVSPropertyOp36
 70
     1
102
RTVSPropertyOp37
 70
     1
102
RTVSPropertyOp38
 70
     1
102
RTVSPropertyOp39
 70
     1
102
RTVSPropertyOp40
 70
     1
102
RTVSPropertyOp41
 70
     1
102
RTVSPropertyOp42
 70
     1
102
RTVSPropertyOp43
 70
     1
102
RTVSPropertyOp44
 70
     1
102
RTVSPropertyOp45
 70
     1
102
RTVSPropertyOp46
 70
     1
102
RTVSPropertyOp47
 70
     1
102
RTVSPropertyOp48
 70
     1
102
RTVSPropertyOp49
 70
     1
102
RTVSPropertyOp50
 70
     1
102
RTVSPropertyOp51
 70
     0
102
RTVSPropertyOp52
 70
     0
102
RTVSPropertyOp53
 70
     1
102
RTVSPropertyOp54
 70
     1
102
RTVSPropertyOp55
 70
     1
102
RTVSPropertyOp56
 70
     1
102
RTVSPropertyOp57
 70
     1
102
RTVSPost2010Prop28
280
     0
102
RTVSPost2010PropOp28
 70
     1
102
RTVSPost2010Prop29
280
     1
102
RTVSPost2010PropOp29
 70
     1
102
RTVSPost2010Prop30
280
     1
102
RTVSPost2010PropOp30
 70
     1
102
RTVSPost2010Prop31
280
     0
102
RTVSPost2010PropOp31
 70
     1
102
RTVSPost2010Prop32
280
     0
102
RTVSPost2010PropOp32
 70
     1
102
RTVSPost2010Prop33
280
     0
102
RTVSPost2010PropOp33
 70
     1
102
RTVSPost2010Prop34
280
     0
102
RTVSPost2010PropOp34
 70
     1
102
RTVSPost2010Prop35
280
     0
102
RTVSPost2010PropOp35
 70
     1
102
RTVSPost2010Prop36
280
     0
102
RTVSPost2010PropOp36
 70
     1
102
RTVSPost2010Prop37
 90
       50
102
RTVSPost2010PropOp37
 70
     1
102
RTVSPost2010Prop38
140
0.0
102
RTVSPost2010PropOp38
 70
     1
102
RTVSPost2010Prop39
140
1.0
102
RTVSPost2010PropOp39
 70
     1
102
RTVSPost2010Prop40
 90
        0
102
RTVSPost2010PropOp40
 70
     1
102
RTVSPost2010Prop41ColorIndex
 90
       18
102
RTVSPost2010Prop41ColorRGB
 90
        0
102
RTVSPost2010PropOp41
 70
     1
102
RTVSPost2010Prop42
 90
       50
102
RTVSPost2010PropOp42
 70
     1
102
RTVSPost2010Prop43
 90
        3
102
RTVSPost2010PropOp43
 70
     1
102
RTVSPost2010Prop44ColorIndex
 90
        5
102
RTVSPost2010Prop44ColorRGB
 90
      255
102
RTVSPost2010PropOp44
 70
     1
102
RTVSPost2010Prop45
280
     0
102
RTVSPost2010PropOp45
 70
     1
102
RTVSPost2010Prop46
 90
       50
102
RTVSPost2010PropOp46
 70
     1
102
RTVSPost2010Prop47
 90
       50
102
RTVSPost2010PropOp47
 70
     1
102
RTVSPost2010Prop48
 90
       50
102
RTVSPost2010PropOp48
 70
     1
102
RTVSPost2010Prop49
280
     0
102
RTVSPost2010PropOp49
 70
     1
102
RTVSPost2010Prop50
 90
       50
102
RTVSPost2010PropOp50
 70
     1
102
RTVSPost2010Prop51ColorIndex
 90
      256
102
RTVSPost2010Prop51ColorRGB
 90
-16777216
102
RTVSPost2010PropOp51
 70
     0
102
RTVSPost2010Prop52
140
1.0
102
RTVSPost2010PropOp52
 70
     0
102
RTVSPost2010Prop53
 90
        2
102
RTVSPost2010PropOp53
 70
     1
102
RTVSPost2010Prop54
  1
strokes_ogs.tif
102
RTVSPost2010PropOp54
 70
     1
102
RTVSPost2010Prop55
280
     0
102
RTVSPost2010PropOp55
 70
     1
102
RTVSPost2010Prop56
140
1.0
102
RTVSPost2010PropOp56
 70
     1
102
RTVSPost2010Prop57
140
1.0
102
RTVSPost2010PropOp57
 70
     1
  0
XRECORD
  5
5F7
102
{ACAD_REACTORS
330
5F6
102
}
330
5F6
100
AcDbXrecord
280
     1
102
RTVSPropertyOp0
 70
     1
102
RTVSPropertyOp1
 70
     1
102
RTVSPropertyOp2
 70
     1
102
RTVSPropertyOp3
 70
     1
102
RTVSPropertyOp4
 70
     1
102
RTVSPropertyOp5
 70
     1
102
RTVSPropertyOp6
 70
     1
102
RTVSPropertyOp7
 70
     1
102
RTVSPropertyOp8
 70
     1
102
RTVSPropertyOp9
 70
     1
102
RTVSPropertyOp10
 70
     1
102
RTVSPropertyOp11
 70
     1
102
RTVSPropertyOp12
 70
     1
102
RTVSPropertyOp13
 70
     1
102
RTVSPropertyOp14
 70
     1
102
RTVSPropertyOp15
 70
     1
102
RTVSPropertyOp16
 70
     1
102
RTVSPropertyOp17
 70
     1
102
RTVSPropertyOp18
 70
     1
102
RTVSPropertyOp19
 70
     1
102
RTVSPropertyOp20
 70
     1
102
RTVSPropertyOp21
 70
     1
102
RTVSPropertyOp22
 70
     1
102
RTVSPropertyOp23
 70
     1
102
RTVSPropertyOp24
 70
     1
102
RTVSPropertyOp25
 70
     1
102
RTVSPropertyOp26
 70
     1
102
RTVSPropertyOp27
 70
     1
102
RTVSPropertyOp28
 70
     1
102
RTVSPropertyOp29
 70
     1
102
RTVSPropertyOp30
 70
     1
102
RTVSPropertyOp31
 70
     1
102
RTVSPropertyOp32
 70
     1
102
RTVSPropertyOp33
 70
     1
102
RTVSPropertyOp34
 70
     1
102
RTVSPropertyOp35
 70
     1
102
RTVSPropertyOp36
 70
     1
102
RTVSPropertyOp37
 70
     1
102
RTVSPropertyOp38
 70
     1
102
RTVSPropertyOp39
 70
     1
102
RTVSPropertyOp40
 70
     1
102
RTVSPropertyOp41
 70
     1
102
RTVSPropertyOp42
 70
     1
102
RTVSPropertyOp43
 70
     1
102
RTVSPropertyOp44
 70
     1
102
RTVSPropertyOp45
 70
     1
102
RTVSPropertyOp46
 70
     1
102
RTVSPropertyOp47
 70
     1
102
RTVSPropertyOp48
 70
     1
102
RTVSPropertyOp49
 70
     1
102
RTVSPropertyOp50
 70
     1
102
RTVSPropertyOp51
 70
     0
102
RTVSPropertyOp52
 70
     0
102
RTVSPropertyOp53
 70
     1
102
RTVSPropertyOp54
 70
     1
102
RTVSPropertyOp55
 70
     1
102
RTVSPropertyOp56
 70
     1
102
RTVSPropertyOp57
 70
     1
102
RTVSPost2010Prop28
280
     0
102
RTVSPost2010PropOp28
 70
     1
102
RTVSPost2010Prop29
280
     1
102
RTVSPost2010PropOp29
 70
     1
102
RTVSPost2010Prop30
280
     1
102
RTVSPost2010PropOp30
 70
     1
102
RTVSPost2010Prop31
280
     0
102
RTVSPost2010PropOp31
 70
     1
102
RTVSPost2010Prop32
280
     0
102
RTVSPost2010PropOp32
 70
     1
102
RTVSPost2010Prop33
280
     0
102
RTVSPost2010PropOp33
 70
     1
102
RTVSPost2010Prop34
280
     0
102
RTVSPost2010PropOp34
 70
     1
102
RTVSPost2010Prop35
280
     0
102
RTVSPost2010PropOp35
 70
     1
102
RTVSPost2010Prop36
280
     0
102
RTVSPost2010PropOp36
 70
     1
102
RTVSPost2010Prop37
 90
       50
102
RTVSPost2010PropOp37
 70
     1
102
RTVSPost2010Prop38
140
0.0
102
RTVSPost2010PropOp38
 70
     1
102
RTVSPost2010Prop39
140
1.0
102
RTVSPost2010PropOp39
 70
     1
102
RTVSPost2010Prop40
 90
        0
102
RTVSPost2010PropOp40
 70
     1
102
RTVSPost2010Prop41ColorIndex
 90
       18
102
RTVSPost2010Prop41ColorRGB
 90
        0
102
RTVSPost2010PropOp41
 70
     1
102
RTVSPost2010Prop42
 90
       50
102
RTVSPost2010PropOp42
 70
     1
102
RTVSPost2010Prop43
 90
        3
102
RTVSPost2010PropOp43
 70
     1
102
RTVSPost2010Prop44ColorIndex
 90
        5
102
RTVSPost2010Prop44ColorRGB
 90
      255
102
RTVSPost2010PropOp44
 70
     1
102
RTVSPost2010Prop45
280
     0
102
RTVSPost2010PropOp45
 70
     1
102
RTVSPost2010Prop46
 90
       50
102
RTVSPost2010PropOp46
 70
     1
102
RTVSPost2010Prop47
 90
       50
102
RTVSPost2010PropOp47
 70
     1
102
RTVSPost2010Prop48
 90
       50
102
RTVSPost2010PropOp48
 70
     1
102
RTVSPost2010Prop49
280
     0
102
RTVSPost2010PropOp49
 70
     1
102
RTVSPost2010Prop50
 90
       50
102
RTVSPost2010PropOp50
 70
     1
102
RTVSPost2010Prop51ColorIndex
 90
      256
102
RTVSPost2010Prop51ColorRGB
 90
-16777216
102
RTVSPost2010PropOp51
 70
     0
102
RTVSPost2010Prop52
140
1.0
102
RTVSPost2010PropOp52
 70
     0
102
RTVSPost2010Prop53
 90
        2
102
RTVSPost2010PropOp53
 70
     1
102
RTVSPost2010Prop54
  1
strokes_ogs.tif
102
RTVSPost2010PropOp54
 70
     1
102
RTVSPost2010Prop55
280
     0
102
RTVSPost2010PropOp55
 70
     1
102
RTVSPost2010Prop56
140
1.0
102
RTVSPost2010PropOp56
 70
     1
102
RTVSPost2010Prop57
140
1.0
102
RTVSPost2010PropOp57
 70
     1
  0
XRECORD
  5
5F9
102
{ACAD_REACTORS
330
5F8
102
}
330
5F8
100
AcDbXrecord
280
     1
102
RTVSPropertyOp0
 70
     1
102
RTVSPropertyOp1
 70
     1
102
RTVSPropertyOp2
 70
     1
102
RTVSPropertyOp3
 70
     1
102
RTVSPropertyOp4
 70
     1
102
RTVSPropertyOp5
 70
     1
102
RTVSPropertyOp6
 70
     1
102
RTVSPropertyOp7
 70
     1
102
RTVSPropertyOp8
 70
     1
102
RTVSPropertyOp9
 70
     1
102
RTVSPropertyOp10
 70
     1
102
RTVSPropertyOp11
 70
     1
102
RTVSPropertyOp12
 70
     1
102
RTVSPropertyOp13
 70
     1
102
RTVSPropertyOp14
 70
     1
102
RTVSPropertyOp15
 70
     1
102
RTVSPropertyOp16
 70
     1
102
RTVSPropertyOp17
 70
     1
102
RTVSPropertyOp18
 70
     1
102
RTVSPropertyOp19
 70
     1
102
RTVSPropertyOp20
 70
     1
102
RTVSPropertyOp21
 70
     1
102
RTVSPropertyOp22
 70
     1
102
RTVSPropertyOp23
 70
     1
102
RTVSPropertyOp24
 70
     1
102
RTVSPropertyOp25
 70
     1
102
RTVSPropertyOp26
 70
     1
102
RTVSPropertyOp27
 70
     1
102
RTVSPropertyOp28
 70
     1
102
RTVSPropertyOp29
 70
     1
102
RTVSPropertyOp30
 70
     1
102
RTVSPropertyOp31
 70
     1
102
RTVSPropertyOp32
 70
     1
102
RTVSPropertyOp33
 70
     1
102
RTVSPropertyOp34
 70
     1
102
RTVSPropertyOp35
 70
     1
102
RTVSPropertyOp36
 70
     1
102
RTVSPropertyOp37
 70
     1
102
RTVSPropertyOp38
 70
     1
102
RTVSPropertyOp39
 70
     1
102
RTVSPropertyOp40
 70
     1
102
RTVSPropertyOp41
 70
     1
102
RTVSPropertyOp42
 70
     1
102
RTVSPropertyOp43
 70
     1
102
RTVSPropertyOp44
 70
     1
102
RTVSPropertyOp45
 70
     1
102
RTVSPropertyOp46
 70
     1
102
RTVSPropertyOp47
 70
     1
102
RTVSPropertyOp48
 70
     1
102
RTVSPropertyOp49
 70
     1
102
RTVSPropertyOp50
 70
     1
102
RTVSPropertyOp51
 70
     0
102
RTVSPropertyOp52
 70
     0
102
RTVSPropertyOp53
 70
     1
102
RTVSPropertyOp54
 70
     1
102
RTVSPropertyOp55
 70
     1
102
RTVSPropertyOp56
 70
     1
102
RTVSPropertyOp57
 70
     1
102
RTVSPost2010Prop28
280
     0
102
RTVSPost2010PropOp28
 70
     1
102
RTVSPost2010Prop29
280
     1
102
RTVSPost2010PropOp29
 70
     1
102
RTVSPost2010Prop30
280
     1
102
RTVSPost2010PropOp30
 70
     1
102
RTVSPost2010Prop31
280
     0
102
RTVSPost2010PropOp31
 70
     1
102
RTVSPost2010Prop32
280
     0
102
RTVSPost2010PropOp32
 70
     1
102
RTVSPost2010Prop33
280
     0
102
RTVSPost2010PropOp33
 70
     1
102
RTVSPost2010Prop34
280
     0
102
RTVSPost2010PropOp34
 70
     1
102
RTVSPost2010Prop35
280
     0
102
RTVSPost2010PropOp35
 70
     1
102
RTVSPost2010Prop36
280
     0
102
RTVSPost2010PropOp36
 70
     1
102
RTVSPost2010Prop37
 90
       50
102
RTVSPost2010PropOp37
 70
     1
102
RTVSPost2010Prop38
140
0.0
102
RTVSPost2010PropOp38
 70
     1
102
RTVSPost2010Prop39
140
1.0
102
RTVSPost2010PropOp39
 70
     1
102
RTVSPost2010Prop40
 90
        0
102
RTVSPost2010PropOp40
 70
     1
102
RTVSPost2010Prop41ColorIndex
 90
       18
102
RTVSPost2010Prop41ColorRGB
 90
        0
102
RTVSPost2010PropOp41
 70
     1
102
RTVSPost2010Prop42
 90
       50
102
RTVSPost2010PropOp42
 70
     1
102
RTVSPost2010Prop43
 90
        3
102
RTVSPost2010PropOp43
 70
     1
102
RTVSPost2010Prop44ColorIndex
 90
        5
102
RTVSPost2010Prop44ColorRGB
 90
      255
102
RTVSPost2010PropOp44
 70
     1
102
RTVSPost2010Prop45
280
     0
102
RTVSPost2010PropOp45
 70
     1
102
RTVSPost2010Prop46
 90
       50
102
RTVSPost2010PropOp46
 70
     1
102
RTVSPost2010Prop47
 90
       50
102
RTVSPost2010PropOp47
 70
     1
102
RTVSPost2010Prop48
 90
       50
102
RTVSPost2010PropOp48
 70
     1
102
RTVSPost2010Prop49
280
     0
102
RTVSPost2010PropOp49
 70
     1
102
RTVSPost2010Prop50
 90
       50
102
RTVSPost2010PropOp50
 70
     1
102
RTVSPost2010Prop51ColorIndex
 90
      256
102
RTVSPost2010Prop51ColorRGB
 90
-16777216
102
RTVSPost2010PropOp51
 70
     0
102
RTVSPost2010Prop52
140
1.0
102
RTVSPost2010PropOp52
 70
     0
102
RTVSPost2010Prop53
 90
        2
102
RTVSPost2010PropOp53
 70
     1
102
RTVSPost2010Prop54
  1
strokes_ogs.tif
102
RTVSPost2010PropOp54
 70
     1
102
RTVSPost2010Prop55
280
     0
102
RTVSPost2010PropOp55
 70
     1
102
RTVSPost2010Prop56
140
1.0
102
RTVSPost2010PropOp56
 70
     1
102
RTVSPost2010Prop57
140
1.0
102
RTVSPost2010PropOp57
 70
     1
  0
XRECORD
  5
5FB
102
{ACAD_REACTORS
330
5FA
102
}
330
5FA
100
AcDbXrecord
280
     1
102
RTVSPropertyOp0
 70
     1
102
RTVSPropertyOp1
 70
     1
102
RTVSPropertyOp2
 70
     1
102
RTVSPropertyOp3
 70
     1
102
RTVSPropertyOp4
 70
     1
102
RTVSPropertyOp5
 70
     1
102
RTVSPropertyOp6
 70
     1
102
RTVSPropertyOp7
 70
     1
102
RTVSPropertyOp8
 70
     1
102
RTVSPropertyOp9
 70
     1
102
RTVSPropertyOp10
 70
     1
102
RTVSPropertyOp11
 70
     1
102
RTVSPropertyOp12
 70
     1
102
RTVSPropertyOp13
 70
     1
102
RTVSPropertyOp14
 70
     1
102
RTVSPropertyOp15
 70
     1
102
RTVSPropertyOp16
 70
     1
102
RTVSPropertyOp17
 70
     1
102
RTVSPropertyOp18
 70
     1
102
RTVSPropertyOp19
 70
     1
102
RTVSPropertyOp20
 70
     1
102
RTVSPropertyOp21
 70
     1
102
RTVSPropertyOp22
 70
     1
102
RTVSPropertyOp23
 70
     1
102
RTVSPropertyOp24
 70
     1
102
RTVSPropertyOp25
 70
     1
102
RTVSPropertyOp26
 70
     1
102
RTVSPropertyOp27
 70
     1
102
RTVSPropertyOp28
 70
     1
102
RTVSPropertyOp29
 70
     1
102
RTVSPropertyOp30
 70
     1
102
RTVSPropertyOp31
 70
     1
102
RTVSPropertyOp32
 70
     1
102
RTVSPropertyOp33
 70
     1
102
RTVSPropertyOp34
 70
     1
102
RTVSPropertyOp35
 70
     1
102
RTVSPropertyOp36
 70
     1
102
RTVSPropertyOp37
 70
     1
102
RTVSPropertyOp38
 70
     1
102
RTVSPropertyOp39
 70
     1
102
RTVSPropertyOp40
 70
     1
102
RTVSPropertyOp41
 70
     1
102
RTVSPropertyOp42
 70
     1
102
RTVSPropertyOp43
 70
     1
102
RTVSPropertyOp44
 70
     1
102
RTVSPropertyOp45
 70
     1
102
RTVSPropertyOp46
 70
     1
102
RTVSPropertyOp47
 70
     1
102
RTVSPropertyOp48
 70
     1
102
RTVSPropertyOp49
 70
     1
102
RTVSPropertyOp50
 70
     1
102
RTVSPropertyOp51
 70
     0
102
RTVSPropertyOp52
 70
     0
102
RTVSPropertyOp53
 70
     1
102
RTVSPropertyOp54
 70
     1
102
RTVSPropertyOp55
 70
     1
102
RTVSPropertyOp56
 70
     1
102
RTVSPropertyOp57
 70
     1
102
RTVSPost2010Prop28
280
     0
102
RTVSPost2010PropOp28
 70
     1
102
RTVSPost2010Prop29
280
     1
102
RTVSPost2010PropOp29
 70
     1
102
RTVSPost2010Prop30
280
     1
102
RTVSPost2010PropOp30
 70
     1
102
RTVSPost2010Prop31
280
     0
102
RTVSPost2010PropOp31
 70
     1
102
RTVSPost2010Prop32
280
     0
102
RTVSPost2010PropOp32
 70
     1
102
RTVSPost2010Prop33
280
     0
102
RTVSPost2010PropOp33
 70
     1
102
RTVSPost2010Prop34
280
     0
102
RTVSPost2010PropOp34
 70
     1
102
RTVSPost2010Prop35
280
     0
102
RTVSPost2010PropOp35
 70
     1
102
RTVSPost2010Prop36
280
     0
102
RTVSPost2010PropOp36
 70
     1
102
RTVSPost2010Prop37
 90
       50
102
RTVSPost2010PropOp37
 70
     1
102
RTVSPost2010Prop38
140
0.0
102
RTVSPost2010PropOp38
 70
     1
102
RTVSPost2010Prop39
140
1.0
102
RTVSPost2010PropOp39
 70
     1
102
RTVSPost2010Prop40
 90
        0
102
RTVSPost2010PropOp40
 70
     1
102
RTVSPost2010Prop41ColorIndex
 90
       18
102
RTVSPost2010Prop41ColorRGB
 90
        0
102
RTVSPost2010PropOp41
 70
     1
102
RTVSPost2010Prop42
 90
       50
102
RTVSPost2010PropOp42
 70
     1
102
RTVSPost2010Prop43
 90
        3
102
RTVSPost2010PropOp43
 70
     1
102
RTVSPost2010Prop44ColorIndex
 90
        5
102
RTVSPost2010Prop44ColorRGB
 90
      255
102
RTVSPost2010PropOp44
 70
     1
102
RTVSPost2010Prop45
280
     0
102
RTVSPost2010PropOp45
 70
     1
102
RTVSPost2010Prop46
 90
       50
102
RTVSPost2010PropOp46
 70
     1
102
RTVSPost2010Prop47
 90
       50
102
RTVSPost2010PropOp47
 70
     1
102
RTVSPost2010Prop48
 90
       50
102
RTVSPost2010PropOp48
 70
     1
102
RTVSPost2010Prop49
280
     0
102
RTVSPost2010PropOp49
 70
     1
102
RTVSPost2010Prop50
 90
       50
102
RTVSPost2010PropOp50
 70
     1
102
RTVSPost2010Prop51ColorIndex
 90
      256
102
RTVSPost2010Prop51ColorRGB
 90
-16777216
102
RTVSPost2010PropOp51
 70
     0
102
RTVSPost2010Prop52
140
1.0
102
RTVSPost2010PropOp52
 70
     0
102
RTVSPost2010Prop53
 90
        2
102
RTVSPost2010PropOp53
 70
     1
102
RTVSPost2010Prop54
  1
strokes_ogs.tif
102
RTVSPost2010PropOp54
 70
     1
102
RTVSPost2010Prop55
280
     0
102
RTVSPost2010PropOp55
 70
     1
102
RTVSPost2010Prop56
140
1.0
102
RTVSPost2010PropOp56
 70
     1
102
RTVSPost2010Prop57
140
1.0
102
RTVSPost2010PropOp57
 70
     1
  0
XRECORD
  5
5FD
102
{ACAD_REACTORS
330
5FC
102
}
330
5FC
100
AcDbXrecord
280
     1
102
RTVSPropertyOp0
 70
     1
102
RTVSPropertyOp1
 70
     1
102
RTVSPropertyOp2
 70
     1
102
RTVSPropertyOp3
 70
     1
102
RTVSPropertyOp4
 70
     1
102
RTVSPropertyOp5
 70
     1
102
RTVSPropertyOp6
 70
     1
102
RTVSPropertyOp7
 70
     1
102
RTVSPropertyOp8
 70
     1
102
RTVSPropertyOp9
 70
     1
102
RTVSPropertyOp10
 70
     1
102
RTVSPropertyOp11
 70
     1
102
RTVSPropertyOp12
 70
     1
102
RTVSPropertyOp13
 70
     1
102
RTVSPropertyOp14
 70
     1
102
RTVSPropertyOp15
 70
     1
102
RTVSPropertyOp16
 70
     1
102
RTVSPropertyOp17
 70
     1
102
RTVSPropertyOp18
 70
     1
102
RTVSPropertyOp19
 70
     1
102
RTVSPropertyOp20
 70
     1
102
RTVSPropertyOp21
 70
     1
102
RTVSPropertyOp22
 70
     1
102
RTVSPropertyOp23
 70
     1
102
RTVSPropertyOp24
 70
     1
102
RTVSPropertyOp25
 70
     1
102
RTVSPropertyOp26
 70
     1
102
RTVSPropertyOp27
 70
     1
102
RTVSPropertyOp28
 70
     1
102
RTVSPropertyOp29
 70
     1
102
RTVSPropertyOp30
 70
     1
102
RTVSPropertyOp31
 70
     1
102
RTVSPropertyOp32
 70
     1
102
RTVSPropertyOp33
 70
     1
102
RTVSPropertyOp34
 70
     1
102
RTVSPropertyOp35
 70
     1
102
RTVSPropertyOp36
 70
     1
102
RTVSPropertyOp37
 70
     1
102
RTVSPropertyOp38
 70
     1
102
RTVSPropertyOp39
 70
     1
102
RTVSPropertyOp40
 70
     1
102
RTVSPropertyOp41
 70
     1
102
RTVSPropertyOp42
 70
     1
102
RTVSPropertyOp43
 70
     1
102
RTVSPropertyOp44
 70
     1
102
RTVSPropertyOp45
 70
     1
102
RTVSPropertyOp46
 70
     1
102
RTVSPropertyOp47
 70
     1
102
RTVSPropertyOp48
 70
     1
102
RTVSPropertyOp49
 70
     1
102
RTVSPropertyOp50
 70
     1
102
RTVSPropertyOp51
 70
     0
102
RTVSPropertyOp52
 70
     0
102
RTVSPropertyOp53
 70
     1
102
RTVSPropertyOp54
 70
     1
102
RTVSPropertyOp55
 70
     1
102
RTVSPropertyOp56
 70
     1
102
RTVSPropertyOp57
 70
     1
102
RTVSPost2010Prop28
280
     0
102
RTVSPost2010PropOp28
 70
     1
102
RTVSPost2010Prop29
280
     1
102
RTVSPost2010PropOp29
 70
     1
102
RTVSPost2010Prop30
280
     1
102
RTVSPost2010PropOp30
 70
     1
102
RTVSPost2010Prop31
280
     0
102
RTVSPost2010PropOp31
 70
     1
102
RTVSPost2010Prop32
280
     0
102
RTVSPost2010PropOp32
 70
     1
102
RTVSPost2010Prop33
280
     0
102
RTVSPost2010PropOp33
 70
     1
102
RTVSPost2010Prop34
280
     0
102
RTVSPost2010PropOp34
 70
     1
102
RTVSPost2010Prop35
280
     0
102
RTVSPost2010PropOp35
 70
     1
102
RTVSPost2010Prop36
280
     0
102
RTVSPost2010PropOp36
 70
     1
102
RTVSPost2010Prop37
 90
       50
102
RTVSPost2010PropOp37
 70
     1
102
RTVSPost2010Prop38
140
0.0
102
RTVSPost2010PropOp38
 70
     1
102
RTVSPost2010Prop39
140
1.0
102
RTVSPost2010PropOp39
 70
     1
102
RTVSPost2010Prop40
 90
        0
102
RTVSPost2010PropOp40
 70
     1
102
RTVSPost2010Prop41ColorIndex
 90
       18
102
RTVSPost2010Prop41ColorRGB
 90
        0
102
RTVSPost2010PropOp41
 70
     1
102
RTVSPost2010Prop42
 90
       50
102
RTVSPost2010PropOp42
 70
     1
102
RTVSPost2010Prop43
 90
        3
102
RTVSPost2010PropOp43
 70
     1
102
RTVSPost2010Prop44ColorIndex
 90
        5
102
RTVSPost2010Prop44ColorRGB
 90
      255
102
RTVSPost2010PropOp44
 70
     1
102
RTVSPost2010Prop45
280
     0
102
RTVSPost2010PropOp45
 70
     1
102
RTVSPost2010Prop46
 90
       50
102
RTVSPost2010PropOp46
 70
     1
102
RTVSPost2010Prop47
 90
       50
102
RTVSPost2010PropOp47
 70
     1
102
RTVSPost2010Prop48
 90
       50
102
RTVSPost2010PropOp48
 70
     1
102
RTVSPost2010Prop49
280
     0
102
RTVSPost2010PropOp49
 70
     1
102
RTVSPost2010Prop50
 90
       50
102
RTVSPost2010PropOp50
 70
     1
102
RTVSPost2010Prop51ColorIndex
 90
      256
102
RTVSPost2010Prop51ColorRGB
 90
-16777216
102
RTVSPost2010PropOp51
 70
     0
102
RTVSPost2010Prop52
140
1.0
102
RTVSPost2010PropOp52
 70
     0
102
RTVSPost2010Prop53
 90
        2
102
RTVSPost2010PropOp53
 70
     1
102
RTVSPost2010Prop54
  1
strokes_ogs.tif
102
RTVSPost2010PropOp54
 70
     1
102
RTVSPost2010Prop55
280
     0
102
RTVSPost2010PropOp55
 70
     1
102
RTVSPost2010Prop56
140
1.0
102
RTVSPost2010PropOp56
 70
     1
102
RTVSPost2010Prop57
140
1.0
102
RTVSPost2010PropOp57
 70
     1
  0
XRECORD
  5
603
102
{ACAD_REACTORS
330
602
102
}
330
602
100
AcDbXrecord
280
     1
102
RTVSPropertyOp0
 70
     1
102
RTVSPropertyOp1
 70
     1
102
RTVSPropertyOp2
 70
     1
102
RTVSPropertyOp3
 70
     1
102
RTVSPropertyOp4
 70
     1
102
RTVSPropertyOp5
 70
     1
102
RTVSPropertyOp6
 70
     1
102
RTVSPropertyOp7
 70
     1
102
RTVSPropertyOp8
 70
     1
102
RTVSPropertyOp9
 70
     1
102
RTVSPropertyOp10
 70
     1
102
RTVSPropertyOp11
 70
     1
102
RTVSPropertyOp12
 70
     1
102
RTVSPropertyOp13
 70
     1
102
RTVSPropertyOp14
 70
     1
102
RTVSPropertyOp15
 70
     1
102
RTVSPropertyOp16
 70
     1
102
RTVSPropertyOp17
 70
     1
102
RTVSPropertyOp18
 70
     1
102
RTVSPropertyOp19
 70
     1
102
RTVSPropertyOp20
 70
     1
102
RTVSPropertyOp21
 70
     1
102
RTVSPropertyOp22
 70
     1
102
RTVSPropertyOp23
 70
     1
102
RTVSPropertyOp24
 70
     1
102
RTVSPropertyOp25
 70
     1
102
RTVSPropertyOp26
 70
     1
102
RTVSPropertyOp27
 70
     1
102
RTVSPropertyOp28
 70
     1
102
RTVSPropertyOp29
 70
     1
102
RTVSPropertyOp30
 70
     1
102
RTVSPropertyOp31
 70
     1
102
RTVSPropertyOp32
 70
     1
102
RTVSPropertyOp33
 70
     1
102
RTVSPropertyOp34
 70
     1
102
RTVSPropertyOp35
 70
     1
102
RTVSPropertyOp36
 70
     1
102
RTVSPropertyOp37
 70
     1
102
RTVSPropertyOp38
 70
     1
102
RTVSPropertyOp39
 70
     1
102
RTVSPropertyOp40
 70
     1
102
RTVSPropertyOp41
 70
     1
102
RTVSPropertyOp42
 70
     1
102
RTVSPropertyOp43
 70
     1
102
RTVSPropertyOp44
 70
     1
102
RTVSPropertyOp45
 70
     1
102
RTVSPropertyOp46
 70
     1
102
RTVSPropertyOp47
 70
     1
102
RTVSPropertyOp48
 70
     1
102
RTVSPropertyOp49
 70
     1
102
RTVSPropertyOp50
 70
     1
102
RTVSPropertyOp51
 70
     0
102
RTVSPropertyOp52
 70
     0
102
RTVSPropertyOp53
 70
     1
102
RTVSPropertyOp54
 70
     1
102
RTVSPropertyOp55
 70
     1
102
RTVSPropertyOp56
 70
     1
102
RTVSPropertyOp57
 70
     1
102
RTVSPost2010Prop28
280
     0
102
RTVSPost2010PropOp28
 70
     1
102
RTVSPost2010Prop29
280
     1
102
RTVSPost2010PropOp29
 70
     1
102
RTVSPost2010Prop30
280
     1
102
RTVSPost2010PropOp30
 70
     1
102
RTVSPost2010Prop31
280
     0
102
RTVSPost2010PropOp31
 70
     1
102
RTVSPost2010Prop32
280
     0
102
RTVSPost2010PropOp32
 70
     1
102
RTVSPost2010Prop33
280
     0
102
RTVSPost2010PropOp33
 70
     1
102
RTVSPost2010Prop34
280
     0
102
RTVSPost2010PropOp34
 70
     1
102
RTVSPost2010Prop35
280
     0
102
RTVSPost2010PropOp35
 70
     1
102
RTVSPost2010Prop36
280
     0
102
RTVSPost2010PropOp36
 70
     1
102
RTVSPost2010Prop37
 90
       50
102
RTVSPost2010PropOp37
 70
     1
102
RTVSPost2010Prop38
140
0.0
102
RTVSPost2010PropOp38
 70
     1
102
RTVSPost2010Prop39
140
1.0
102
RTVSPost2010PropOp39
 70
     1
102
RTVSPost2010Prop40
 90
        0
102
RTVSPost2010PropOp40
 70
     1
102
RTVSPost2010Prop41ColorIndex
 90
       18
102
RTVSPost2010Prop41ColorRGB
 90
        0
102
RTVSPost2010PropOp41
 70
     1
102
RTVSPost2010Prop42
 90
       50
102
RTVSPost2010PropOp42
 70
     1
102
RTVSPost2010Prop43
 90
        3
102
RTVSPost2010PropOp43
 70
     1
102
RTVSPost2010Prop44ColorIndex
 90
        5
102
RTVSPost2010Prop44ColorRGB
 90
      255
102
RTVSPost2010PropOp44
 70
     1
102
RTVSPost2010Prop45
280
     0
102
RTVSPost2010PropOp45
 70
     1
102
RTVSPost2010Prop46
 90
       50
102
RTVSPost2010PropOp46
 70
     1
102
RTVSPost2010Prop47
 90
       50
102
RTVSPost2010PropOp47
 70
     1
102
RTVSPost2010Prop48
 90
       50
102
RTVSPost2010PropOp48
 70
     1
102
RTVSPost2010Prop49
280
     0
102
RTVSPost2010PropOp49
 70
     1
102
RTVSPost2010Prop50
 90
       50
102
RTVSPost2010PropOp50
 70
     1
102
RTVSPost2010Prop51ColorIndex
 90
      256
102
RTVSPost2010Prop51ColorRGB
 90
-16777216
102
RTVSPost2010PropOp51
 70
     0
102
RTVSPost2010Prop52
140
1.0
102
RTVSPost2010PropOp52
 70
     0
102
RTVSPost2010Prop53
 90
        2
102
RTVSPost2010PropOp53
 70
     1
102
RTVSPost2010Prop54
  1
strokes_ogs.tif
102
RTVSPost2010PropOp54
 70
     1
102
RTVSPost2010Prop55
280
     0
102
RTVSPost2010PropOp55
 70
     1
102
RTVSPost2010Prop56
140
1.0
102
RTVSPost2010PropOp56
 70
     1
102
RTVSPost2010Prop57
140
1.0
102
RTVSPost2010PropOp57
 70
     1
  0
XRECORD
  5
617
102
{ACAD_REACTORS
330
616
102
}
330
616
100
AcDbXrecord
280
     1
102
RTVSPropertyOp0
 70
     0
102
RTVSPropertyOp1
 70
     0
102
RTVSPropertyOp2
 70
     0
102
RTVSPropertyOp3
 70
     0
102
RTVSPropertyOp4
 70
     0
102
RTVSPropertyOp5
 70
     0
102
RTVSPropertyOp6
 70
     0
102
RTVSPropertyOp7
 70
     0
102
RTVSPropertyOp8
 70
     0
102
RTVSPropertyOp9
 70
     0
102
RTVSPropertyOp10
 70
     0
102
RTVSPropertyOp11
 70
     0
102
RTVSPropertyOp12
 70
     0
102
RTVSPropertyOp13
 70
     0
102
RTVSPropertyOp14
 70
     0
102
RTVSPropertyOp15
 70
     0
102
RTVSPropertyOp16
 70
     0
102
RTVSPropertyOp17
 70
     0
102
RTVSPropertyOp18
 70
     0
102
RTVSPropertyOp19
 70
     0
102
RTVSPropertyOp20
 70
     0
102
RTVSPropertyOp21
 70
     0
102
RTVSPropertyOp22
 70
     0
102
RTVSPropertyOp23
 70
     0
102
RTVSPropertyOp24
 70
     0
102
RTVSPropertyOp25
 70
     0
102
RTVSPropertyOp26
 70
     0
102
RTVSPropertyOp27
 70
     0
102
RTVSPropertyOp28
 70
     1
102
RTVSPropertyOp29
 70
     1
102
RTVSPropertyOp30
 70
     1
102
RTVSPropertyOp31
 70
     1
102
RTVSPropertyOp32
 70
     1
102
RTVSPropertyOp33
 70
     1
102
RTVSPropertyOp34
 70
     1
102
RTVSPropertyOp35
 70
     1
102
RTVSPropertyOp36
 70
     1
102
RTVSPropertyOp37
 70
     1
102
RTVSPropertyOp38
 70
     1
102
RTVSPropertyOp39
 70
     1
102
RTVSPropertyOp40
 70
     1
102
RTVSPropertyOp41
 70
     1
102
RTVSPropertyOp42
 70
     1
102
RTVSPropertyOp43
 70
     1
102
RTVSPropertyOp44
 70
     1
102
RTVSPropertyOp45
 70
     1
102
RTVSPropertyOp46
 70
     1
102
RTVSPropertyOp47
 70
     1
102
RTVSPropertyOp48
 70
     1
102
RTVSPropertyOp49
 70
     1
102
RTVSPropertyOp50
 70
     1
102
RTVSPropertyOp51
 70
     0
102
RTVSPropertyOp52
 70
     0
102
RTVSPropertyOp53
 70
     1
102
RTVSPropertyOp54
 70
     1
102
RTVSPropertyOp55
 70
     1
102
RTVSPropertyOp56
 70
     1
102
RTVSPropertyOp57
 70
     1
102
RTVSPost2010Prop28
280
     0
102
RTVSPost2010PropOp28
 70
     1
102
RTVSPost2010Prop29
280
     1
102
RTVSPost2010PropOp29
 70
     1
102
RTVSPost2010Prop30
280
     1
102
RTVSPost2010PropOp30
 70
     1
102
RTVSPost2010Prop31
280
     0
102
RTVSPost2010PropOp31
 70
     1
102
RTVSPost2010Prop32
280
     0
102
RTVSPost2010PropOp32
 70
     1
102
RTVSPost2010Prop33
280
     0
102
RTVSPost2010PropOp33
 70
     1
102
RTVSPost2010Prop34
280
     0
102
RTVSPost2010PropOp34
 70
     1
102
RTVSPost2010Prop35
280
     0
102
RTVSPost2010PropOp35
 70
     1
102
RTVSPost2010Prop36
280
     0
102
RTVSPost2010PropOp36
 70
     1
102
RTVSPost2010Prop37
 90
       50
102
RTVSPost2010PropOp37
 70
     1
102
RTVSPost2010Prop38
140
0.0
102
RTVSPost2010PropOp38
 70
     1
102
RTVSPost2010Prop39
140
1.0
102
RTVSPost2010PropOp39
 70
     1
102
RTVSPost2010Prop40
 90
        0
102
RTVSPost2010PropOp40
 70
     1
102
RTVSPost2010Prop41ColorIndex
 90
       18
102
RTVSPost2010Prop41ColorRGB
 90
        0
102
RTVSPost2010PropOp41
 70
     1
102
RTVSPost2010Prop42
 90
       50
102
RTVSPost2010PropOp42
 70
     1
102
RTVSPost2010Prop43
 90
        3
102
RTVSPost2010PropOp43
 70
     1
102
RTVSPost2010Prop44ColorIndex
 90
        5
102
RTVSPost2010Prop44ColorRGB
 90
      255
102
RTVSPost2010PropOp44
 70
     1
102
RTVSPost2010Prop45
280
     0
102
RTVSPost2010PropOp45
 70
     1
102
RTVSPost2010Prop46
 90
       50
102
RTVSPost2010PropOp46
 70
     1
102
RTVSPost2010Prop47
 90
       50
102
RTVSPost2010PropOp47
 70
     1
102
RTVSPost2010Prop48
 90
       50
102
RTVSPost2010PropOp48
 70
     1
102
RTVSPost2010Prop49
280
     0
102
RTVSPost2010PropOp49
 70
     1
102
RTVSPost2010Prop50
 90
       50
102
RTVSPost2010PropOp50
 70
     1
102
RTVSPost2010Prop51ColorIndex
 90
      256
102
RTVSPost2010Prop51ColorRGB
 90
-16777216
102
RTVSPost2010PropOp51
 70
     0
102
RTVSPost2010Prop52
140
1.0
102
RTVSPost2010PropOp52
 70
     0
102
RTVSPost2010Prop53
 90
        2
102
RTVSPost2010PropOp53
 70
     1
102
RTVSPost2010Prop54
  1
strokes_ogs.tif
102
RTVSPost2010PropOp54
 70
     1
102
RTVSPost2010Prop55
280
     0
102
RTVSPost2010PropOp55
 70
     1
102
RTVSPost2010Prop56
140
1.0
102
RTVSPost2010PropOp56
 70
     1
102
RTVSPost2010Prop57
140
1.0
102
RTVSPost2010PropOp57
 70
     1
  0
XRECORD
  5
611
102
{ACAD_REACTORS
330
610
102
}
330
610
100
AcDbXrecord
280
     1
102
RTVSPropertyOp0
 70
     1
102
RTVSPropertyOp1
 70
     1
102
RTVSPropertyOp2
 70
     1
102
RTVSPropertyOp3
 70
     1
102
RTVSPropertyOp4
 70
     1
102
RTVSPropertyOp5
 70
     1
102
RTVSPropertyOp6
 70
     1
102
RTVSPropertyOp7
 70
     1
102
RTVSPropertyOp8
 70
     1
102
RTVSPropertyOp9
 70
     1
102
RTVSPropertyOp10
 70
     1
102
RTVSPropertyOp11
 70
     1
102
RTVSPropertyOp12
 70
     1
102
RTVSPropertyOp13
 70
     1
102
RTVSPropertyOp14
 70
     1
102
RTVSPropertyOp15
 70
     1
102
RTVSPropertyOp16
 70
     1
102
RTVSPropertyOp17
 70
     1
102
RTVSPropertyOp18
 70
     1
102
RTVSPropertyOp19
 70
     1
102
RTVSPropertyOp20
 70
     1
102
RTVSPropertyOp21
 70
     1
102
RTVSPropertyOp22
 70
     1
102
RTVSPropertyOp23
 70
     1
102
RTVSPropertyOp24
 70
     1
102
RTVSPropertyOp25
 70
     1
102
RTVSPropertyOp26
 70
     1
102
RTVSPropertyOp27
 70
     1
102
RTVSPropertyOp28
 70
     1
102
RTVSPropertyOp29
 70
     1
102
RTVSPropertyOp30
 70
     1
102
RTVSPropertyOp31
 70
     1
102
RTVSPropertyOp32
 70
     1
102
RTVSPropertyOp33
 70
     1
102
RTVSPropertyOp34
 70
     1
102
RTVSPropertyOp35
 70
     1
102
RTVSPropertyOp36
 70
     1
102
RTVSPropertyOp37
 70
     1
102
RTVSPropertyOp38
 70
     1
102
RTVSPropertyOp39
 70
     1
102
RTVSPropertyOp40
 70
     1
102
RTVSPropertyOp41
 70
     1
102
RTVSPropertyOp42
 70
     1
102
RTVSPropertyOp43
 70
     1
102
RTVSPropertyOp44
 70
     1
102
RTVSPropertyOp45
 70
     1
102
RTVSPropertyOp46
 70
     1
102
RTVSPropertyOp47
 70
     1
102
RTVSPropertyOp48
 70
     1
102
RTVSPropertyOp49
 70
     1
102
RTVSPropertyOp50
 70
     1
102
RTVSPropertyOp51
 70
     0
102
RTVSPropertyOp52
 70
     0
102
RTVSPropertyOp53
 70
     1
102
RTVSPropertyOp54
 70
     1
102
RTVSPropertyOp55
 70
     1
102
RTVSPropertyOp56
 70
     1
102
RTVSPropertyOp57
 70
     1
102
RTVSPost2010Prop28
280
     0
102
RTVSPost2010PropOp28
 70
     1
102
RTVSPost2010Prop29
280
     1
102
RTVSPost2010PropOp29
 70
     1
102
RTVSPost2010Prop30
280
     1
102
RTVSPost2010PropOp30
 70
     1
102
RTVSPost2010Prop31
280
     0
102
RTVSPost2010PropOp31
 70
     1
102
RTVSPost2010Prop32
280
     0
102
RTVSPost2010PropOp32
 70
     1
102
RTVSPost2010Prop33
280
     0
102
RTVSPost2010PropOp33
 70
     1
102
RTVSPost2010Prop34
280
     0
102
RTVSPost2010PropOp34
 70
     1
102
RTVSPost2010Prop35
280
     0
102
RTVSPost2010PropOp35
 70
     1
102
RTVSPost2010Prop36
280
     0
102
RTVSPost2010PropOp36
 70
     1
102
RTVSPost2010Prop37
 90
       50
102
RTVSPost2010PropOp37
 70
     1
102
RTVSPost2010Prop38
140
0.0
102
RTVSPost2010PropOp38
 70
     1
102
RTVSPost2010Prop39
140
1.0
102
RTVSPost2010PropOp39
 70
     1
102
RTVSPost2010Prop40
 90
        0
102
RTVSPost2010PropOp40
 70
     1
102
RTVSPost2010Prop41ColorIndex
 90
       18
102
RTVSPost2010Prop41ColorRGB
 90
        0
102
RTVSPost2010PropOp41
 70
     1
102
RTVSPost2010Prop42
 90
       50
102
RTVSPost2010PropOp42
 70
     1
102
RTVSPost2010Prop43
 90
        3
102
RTVSPost2010PropOp43
 70
     1
102
RTVSPost2010Prop44ColorIndex
 90
        5
102
RTVSPost2010Prop44ColorRGB
 90
      255
102
RTVSPost2010PropOp44
 70
     1
102
RTVSPost2010Prop45
280
     0
102
RTVSPost2010PropOp45
 70
     1
102
RTVSPost2010Prop46
 90
       50
102
RTVSPost2010PropOp46
 70
     1
102
RTVSPost2010Prop47
 90
       50
102
RTVSPost2010PropOp47
 70
     1
102
RTVSPost2010Prop48
 90
       50
102
RTVSPost2010PropOp48
 70
     1
102
RTVSPost2010Prop49
280
     0
102
RTVSPost2010PropOp49
 70
     1
102
RTVSPost2010Prop50
 90
       50
102
RTVSPost2010PropOp50
 70
     1
102
RTVSPost2010Prop51ColorIndex
 90
      256
102
RTVSPost2010Prop51ColorRGB
 90
-16777216
102
RTVSPost2010PropOp51
 70
     0
102
RTVSPost2010Prop52
140
1.0
102
RTVSPost2010PropOp52
 70
     0
102
RTVSPost2010Prop53
 90
        2
102
RTVSPost2010PropOp53
 70
     1
102
RTVSPost2010Prop54
  1
strokes_ogs.tif
102
RTVSPost2010PropOp54
 70
     1
102
RTVSPost2010Prop55
280
     0
102
RTVSPost2010PropOp55
 70
     1
102
RTVSPost2010Prop56
140
1.0
102
RTVSPost2010PropOp56
 70
     1
102
RTVSPost2010Prop57
140
1.0
102
RTVSPost2010PropOp57
 70
     1
  0
XRECORD
  5
619
102
{ACAD_REACTORS
330
618
102
}
330
618
100
AcDbXrecord
280
     1
102
RTVSPropertyOp0
 70
     0
102
RTVSPropertyOp1
 70
     0
102
RTVSPropertyOp2
 70
     0
102
RTVSPropertyOp3
 70
     0
102
RTVSPropertyOp4
 70
     0
102
RTVSPropertyOp5
 70
     0
102
RTVSPropertyOp6
 70
     0
102
RTVSPropertyOp7
 70
     0
102
RTVSPropertyOp8
 70
     0
102
RTVSPropertyOp9
 70
     0
102
RTVSPropertyOp10
 70
     0
102
RTVSPropertyOp11
 70
     0
102
RTVSPropertyOp12
 70
     0
102
RTVSPropertyOp13
 70
     0
102
RTVSPropertyOp14
 70
     0
102
RTVSPropertyOp15
 70
     0
102
RTVSPropertyOp16
 70
     0
102
RTVSPropertyOp17
 70
     0
102
RTVSPropertyOp18
 70
     0
102
RTVSPropertyOp19
 70
     0
102
RTVSPropertyOp20
 70
     0
102
RTVSPropertyOp21
 70
     0
102
RTVSPropertyOp22
 70
     0
102
RTVSPropertyOp23
 70
     0
102
RTVSPropertyOp24
 70
     0
102
RTVSPropertyOp25
 70
     0
102
RTVSPropertyOp26
 70
     0
102
RTVSPropertyOp27
 70
     0
102
RTVSPropertyOp28
 70
     1
102
RTVSPropertyOp29
 70
     1
102
RTVSPropertyOp30
 70
     1
102
RTVSPropertyOp31
 70
     1
102
RTVSPropertyOp32
 70
     1
102
RTVSPropertyOp33
 70
     1
102
RTVSPropertyOp34
 70
     1
102
RTVSPropertyOp35
 70
     1
102
RTVSPropertyOp36
 70
     1
102
RTVSPropertyOp37
 70
     1
102
RTVSPropertyOp38
 70
     1
102
RTVSPropertyOp39
 70
     1
102
RTVSPropertyOp40
 70
     1
102
RTVSPropertyOp41
 70
     1
102
RTVSPropertyOp42
 70
     1
102
RTVSPropertyOp43
 70
     1
102
RTVSPropertyOp44
 70
     1
102
RTVSPropertyOp45
 70
     1
102
RTVSPropertyOp46
 70
     1
102
RTVSPropertyOp47
 70
     1
102
RTVSPropertyOp48
 70
     1
102
RTVSPropertyOp49
 70
     1
102
RTVSPropertyOp50
 70
     1
102
RTVSPropertyOp51
 70
     0
102
RTVSPropertyOp52
 70
     0
102
RTVSPropertyOp53
 70
     1
102
RTVSPropertyOp54
 70
     1
102
RTVSPropertyOp55
 70
     1
102
RTVSPropertyOp56
 70
     1
102
RTVSPropertyOp57
 70
     1
102
RTVSPost2010Prop28
280
     0
102
RTVSPost2010PropOp28
 70
     1
102
RTVSPost2010Prop29
280
     1
102
RTVSPost2010PropOp29
 70
     1
102
RTVSPost2010Prop30
280
     1
102
RTVSPost2010PropOp30
 70
     1
102
RTVSPost2010Prop31
280
     0
102
RTVSPost2010PropOp31
 70
     1
102
RTVSPost2010Prop32
280
     0
102
RTVSPost2010PropOp32
 70
     1
102
RTVSPost2010Prop33
280
     0
102
RTVSPost2010PropOp33
 70
     1
102
RTVSPost2010Prop34
280
     0
102
RTVSPost2010PropOp34
 70
     1
102
RTVSPost2010Prop35
280
     0
102
RTVSPost2010PropOp35
 70
     1
102
RTVSPost2010Prop36
280
     0
102
RTVSPost2010PropOp36
 70
     1
102
RTVSPost2010Prop37
 90
       50
102
RTVSPost2010PropOp37
 70
     1
102
RTVSPost2010Prop38
140
0.0
102
RTVSPost2010PropOp38
 70
     1
102
RTVSPost2010Prop39
140
1.0
102
RTVSPost2010PropOp39
 70
     1
102
RTVSPost2010Prop40
 90
        0
102
RTVSPost2010PropOp40
 70
     1
102
RTVSPost2010Prop41ColorIndex
 90
       18
102
RTVSPost2010Prop41ColorRGB
 90
        0
102
RTVSPost2010PropOp41
 70
     1
102
RTVSPost2010Prop42
 90
       50
102
RTVSPost2010PropOp42
 70
     1
102
RTVSPost2010Prop43
 90
        3
102
RTVSPost2010PropOp43
 70
     1
102
RTVSPost2010Prop44ColorIndex
 90
        5
102
RTVSPost2010Prop44ColorRGB
 90
      255
102
RTVSPost2010PropOp44
 70
     1
102
RTVSPost2010Prop45
280
     0
102
RTVSPost2010PropOp45
 70
     1
102
RTVSPost2010Prop46
 90
       50
102
RTVSPost2010PropOp46
 70
     1
102
RTVSPost2010Prop47
 90
       50
102
RTVSPost2010PropOp47
 70
     1
102
RTVSPost2010Prop48
 90
       50
102
RTVSPost2010PropOp48
 70
     1
102
RTVSPost2010Prop49
280
     0
102
RTVSPost2010PropOp49
 70
     1
102
RTVSPost2010Prop50
 90
       50
102
RTVSPost2010PropOp50
 70
     1
102
RTVSPost2010Prop51ColorIndex
 90
      256
102
RTVSPost2010Prop51ColorRGB
 90
-16777216
102
RTVSPost2010PropOp51
 70
     0
102
RTVSPost2010Prop52
140
1.0
102
RTVSPost2010PropOp52
 70
     0
102
RTVSPost2010Prop53
 90
        2
102
RTVSPost2010PropOp53
 70
     1
102
RTVSPost2010Prop54
  1
strokes_ogs.tif
102
RTVSPost2010PropOp54
 70
     1
102
RTVSPost2010Prop55
280
     0
102
RTVSPost2010PropOp55
 70
     1
102
RTVSPost2010Prop56
140
1.0
102
RTVSPost2010PropOp56
 70
     1
102
RTVSPost2010Prop57
140
1.0
102
RTVSPost2010PropOp57
 70
     1
  0
XRECORD
  5
607
102
{ACAD_REACTORS
330
606
102
}
330
606
100
AcDbXrecord
280
     1
102
RTVSPropertyOp0
 70
     1
102
RTVSPropertyOp1
 70
     1
102
RTVSPropertyOp2
 70
     1
102
RTVSPropertyOp3
 70
     1
102
RTVSPropertyOp4
 70
     1
102
RTVSPropertyOp5
 70
     1
102
RTVSPropertyOp6
 70
     1
102
RTVSPropertyOp7
 70
     1
102
RTVSPropertyOp8
 70
     1
102
RTVSPropertyOp9
 70
     1
102
RTVSPropertyOp10
 70
     1
102
RTVSPropertyOp11
 70
     1
102
RTVSPropertyOp12
 70
     1
102
RTVSPropertyOp13
 70
     1
102
RTVSPropertyOp14
 70
     1
102
RTVSPropertyOp15
 70
     1
102
RTVSPropertyOp16
 70
     1
102
RTVSPropertyOp17
 70
     1
102
RTVSPropertyOp18
 70
     1
102
RTVSPropertyOp19
 70
     1
102
RTVSPropertyOp20
 70
     1
102
RTVSPropertyOp21
 70
     1
102
RTVSPropertyOp22
 70
     1
102
RTVSPropertyOp23
 70
     1
102
RTVSPropertyOp24
 70
     1
102
RTVSPropertyOp25
 70
     1
102
RTVSPropertyOp26
 70
     1
102
RTVSPropertyOp27
 70
     1
102
RTVSPropertyOp28
 70
     1
102
RTVSPropertyOp29
 70
     1
102
RTVSPropertyOp30
 70
     1
102
RTVSPropertyOp31
 70
     1
102
RTVSPropertyOp32
 70
     1
102
RTVSPropertyOp33
 70
     1
102
RTVSPropertyOp34
 70
     1
102
RTVSPropertyOp35
 70
     1
102
RTVSPropertyOp36
 70
     1
102
RTVSPropertyOp37
 70
     1
102
RTVSPropertyOp38
 70
     1
102
RTVSPropertyOp39
 70
     1
102
RTVSPropertyOp40
 70
     1
102
RTVSPropertyOp41
 70
     1
102
RTVSPropertyOp42
 70
     1
102
RTVSPropertyOp43
 70
     1
102
RTVSPropertyOp44
 70
     1
102
RTVSPropertyOp45
 70
     1
102
RTVSPropertyOp46
 70
     1
102
RTVSPropertyOp47
 70
     1
102
RTVSPropertyOp48
 70
     1
102
RTVSPropertyOp49
 70
     1
102
RTVSPropertyOp50
 70
     1
102
RTVSPropertyOp51
 70
     0
102
RTVSPropertyOp52
 70
     0
102
RTVSPropertyOp53
 70
     1
102
RTVSPropertyOp54
 70
     1
102
RTVSPropertyOp55
 70
     1
102
RTVSPropertyOp56
 70
     1
102
RTVSPropertyOp57
 70
     1
102
RTVSPost2010Prop28
280
     0
102
RTVSPost2010PropOp28
 70
     1
102
RTVSPost2010Prop29
280
     1
102
RTVSPost2010PropOp29
 70
     1
102
RTVSPost2010Prop30
280
     1
102
RTVSPost2010PropOp30
 70
     1
102
RTVSPost2010Prop31
280
     0
102
RTVSPost2010PropOp31
 70
     1
102
RTVSPost2010Prop32
280
     0
102
RTVSPost2010PropOp32
 70
     1
102
RTVSPost2010Prop33
280
     0
102
RTVSPost2010PropOp33
 70
     1
102
RTVSPost2010Prop34
280
     0
102
RTVSPost2010PropOp34
 70
     1
102
RTVSPost2010Prop35
280
     0
102
RTVSPost2010PropOp35
 70
     1
102
RTVSPost2010Prop36
280
     0
102
RTVSPost2010PropOp36
 70
     1
102
RTVSPost2010Prop37
 90
       50
102
RTVSPost2010PropOp37
 70
     1
102
RTVSPost2010Prop38
140
0.0
102
RTVSPost2010PropOp38
 70
     1
102
RTVSPost2010Prop39
140
1.0
102
RTVSPost2010PropOp39
 70
     1
102
RTVSPost2010Prop40
 90
        0
102
RTVSPost2010PropOp40
 70
     1
102
RTVSPost2010Prop41ColorIndex
 90
       18
102
RTVSPost2010Prop41ColorRGB
 90
        0
102
RTVSPost2010PropOp41
 70
     1
102
RTVSPost2010Prop42
 90
       50
102
RTVSPost2010PropOp42
 70
     1
102
RTVSPost2010Prop43
 90
        3
102
RTVSPost2010PropOp43
 70
     1
102
RTVSPost2010Prop44ColorIndex
 90
        5
102
RTVSPost2010Prop44ColorRGB
 90
      255
102
RTVSPost2010PropOp44
 70
     1
102
RTVSPost2010Prop45
280
     0
102
RTVSPost2010PropOp45
 70
     1
102
RTVSPost2010Prop46
 90
       50
102
RTVSPost2010PropOp46
 70
     1
102
RTVSPost2010Prop47
 90
       50
102
RTVSPost2010PropOp47
 70
     1
102
RTVSPost2010Prop48
 90
       50
102
RTVSPost2010PropOp48
 70
     1
102
RTVSPost2010Prop49
280
     0
102
RTVSPost2010PropOp49
 70
     1
102
RTVSPost2010Prop50
 90
       50
102
RTVSPost2010PropOp50
 70
     1
102
RTVSPost2010Prop51ColorIndex
 90
      256
102
RTVSPost2010Prop51ColorRGB
 90
-16777216
102
RTVSPost2010PropOp51
 70
     0
102
RTVSPost2010Prop52
140
1.0
102
RTVSPost2010PropOp52
 70
     0
102
RTVSPost2010Prop53
 90
        2
102
RTVSPost2010PropOp53
 70
     1
102
RTVSPost2010Prop54
  1
strokes_ogs.tif
102
RTVSPost2010PropOp54
 70
     1
102
RTVSPost2010Prop55
280
     0
102
RTVSPost2010PropOp55
 70
     1
102
RTVSPost2010Prop56
140
1.0
102
RTVSPost2010PropOp56
 70
     1
102
RTVSPost2010Prop57
140
1.0
102
RTVSPost2010PropOp57
 70
     1
  0
XRECORD
  5
625
102
{ACAD_REACTORS
330
624
102
}
330
624
100
AcDbXrecord
280
     1
102
RTVSPropertyOp0
 70
     1
102
RTVSPropertyOp1
 70
     1
102
RTVSPropertyOp2
 70
     1
102
RTVSPropertyOp3
 70
     1
102
RTVSPropertyOp4
 70
     1
102
RTVSPropertyOp5
 70
     1
102
RTVSPropertyOp6
 70
     1
102
RTVSPropertyOp7
 70
     1
102
RTVSPropertyOp8
 70
     1
102
RTVSPropertyOp9
 70
     1
102
RTVSPropertyOp10
 70
     1
102
RTVSPropertyOp11
 70
     1
102
RTVSPropertyOp12
 70
     1
102
RTVSPropertyOp13
 70
     1
102
RTVSPropertyOp14
 70
     1
102
RTVSPropertyOp15
 70
     1
102
RTVSPropertyOp16
 70
     1
102
RTVSPropertyOp17
 70
     1
102
RTVSPropertyOp18
 70
     1
102
RTVSPropertyOp19
 70
     1
102
RTVSPropertyOp20
 70
     1
102
RTVSPropertyOp21
 70
     1
102
RTVSPropertyOp22
 70
     1
102
RTVSPropertyOp23
 70
     1
102
RTVSPropertyOp24
 70
     1
102
RTVSPropertyOp25
 70
     1
102
RTVSPropertyOp26
 70
     1
102
RTVSPropertyOp27
 70
     1
102
RTVSPropertyOp28
 70
     1
102
RTVSPropertyOp29
 70
     1
102
RTVSPropertyOp30
 70
     1
102
RTVSPropertyOp31
 70
     1
102
RTVSPropertyOp32
 70
     1
102
RTVSPropertyOp33
 70
     1
102
RTVSPropertyOp34
 70
     1
102
RTVSPropertyOp35
 70
     1
102
RTVSPropertyOp36
 70
     1
102
RTVSPropertyOp37
 70
     1
102
RTVSPropertyOp38
 70
     1
102
RTVSPropertyOp39
 70
     1
102
RTVSPropertyOp40
 70
     1
102
RTVSPropertyOp41
 70
     1
102
RTVSPropertyOp42
 70
     1
102
RTVSPropertyOp43
 70
     1
102
RTVSPropertyOp44
 70
     1
102
RTVSPropertyOp45
 70
     1
102
RTVSPropertyOp46
 70
     1
102
RTVSPropertyOp47
 70
     1
102
RTVSPropertyOp48
 70
     1
102
RTVSPropertyOp49
 70
     1
102
RTVSPropertyOp50
 70
     1
102
RTVSPropertyOp51
 70
     0
102
RTVSPropertyOp52
 70
     0
102
RTVSPropertyOp53
 70
     1
102
RTVSPropertyOp54
 70
     1
102
RTVSPropertyOp55
 70
     1
102
RTVSPropertyOp56
 70
     1
102
RTVSPropertyOp57
 70
     1
102
RTVSPost2010Prop28
280
     0
102
RTVSPost2010PropOp28
 70
     1
102
RTVSPost2010Prop29
280
     1
102
RTVSPost2010PropOp29
 70
     1
102
RTVSPost2010Prop30
280
     1
102
RTVSPost2010PropOp30
 70
     1
102
RTVSPost2010Prop31
280
     0
102
RTVSPost2010PropOp31
 70
     1
102
RTVSPost2010Prop32
280
     0
102
RTVSPost2010PropOp32
 70
     1
102
RTVSPost2010Prop33
280
     0
102
RTVSPost2010PropOp33
 70
     1
102
RTVSPost2010Prop34
280
     0
102
RTVSPost2010PropOp34
 70
     1
102
RTVSPost2010Prop35
280
     0
102
RTVSPost2010PropOp35
 70
     1
102
RTVSPost2010Prop36
280
     0
102
RTVSPost2010PropOp36
 70
     1
102
RTVSPost2010Prop37
 90
       50
102
RTVSPost2010PropOp37
 70
     1
102
RTVSPost2010Prop38
140
0.0
102
RTVSPost2010PropOp38
 70
     1
102
RTVSPost2010Prop39
140
1.0
102
RTVSPost2010PropOp39
 70
     1
102
RTVSPost2010Prop40
 90
        0
102
RTVSPost2010PropOp40
 70
     1
102
RTVSPost2010Prop41ColorIndex
 90
       18
102
RTVSPost2010Prop41ColorRGB
 90
        0
102
RTVSPost2010PropOp41
 70
     1
102
RTVSPost2010Prop42
 90
       50
102
RTVSPost2010PropOp42
 70
     1
102
RTVSPost2010Prop43
 90
        3
102
RTVSPost2010PropOp43
 70
     1
102
RTVSPost2010Prop44ColorIndex
 90
        5
102
RTVSPost2010Prop44ColorRGB
 90
      255
102
RTVSPost2010PropOp44
 70
     1
102
RTVSPost2010Prop45
280
     0
102
RTVSPost2010PropOp45
 70
     1
102
RTVSPost2010Prop46
 90
       50
102
RTVSPost2010PropOp46
 70
     1
102
RTVSPost2010Prop47
 90
       50
102
RTVSPost2010PropOp47
 70
     1
102
RTVSPost2010Prop48
 90
       50
102
RTVSPost2010PropOp48
 70
     1
102
RTVSPost2010Prop49
280
     0
102
RTVSPost2010PropOp49
 70
     1
102
RTVSPost2010Prop50
 90
       50
102
RTVSPost2010PropOp50
 70
     1
102
RTVSPost2010Prop51ColorIndex
 90
      256
102
RTVSPost2010Prop51ColorRGB
 90
-16777216
102
RTVSPost2010PropOp51
 70
     0
102
RTVSPost2010Prop52
140
1.0
102
RTVSPost2010PropOp52
 70
     0
102
RTVSPost2010Prop53
 90
        2
102
RTVSPost2010PropOp53
 70
     1
102
RTVSPost2010Prop54
  1
strokes_ogs.tif
102
RTVSPost2010PropOp54
 70
     1
102
RTVSPost2010Prop55
280
     0
102
RTVSPost2010PropOp55
 70
     1
102
RTVSPost2010Prop56
140
1.0
102
RTVSPost2010PropOp56
 70
     1
102
RTVSPost2010Prop57
140
1.0
102
RTVSPost2010PropOp57
 70
     1
  0
XRECORD
  5
623
102
{ACAD_REACTORS
330
622
102
}
330
622
100
AcDbXrecord
280
     1
102
RTVSPropertyOp0
 70
     1
102
RTVSPropertyOp1
 70
     1
102
RTVSPropertyOp2
 70
     1
102
RTVSPropertyOp3
 70
     1
102
RTVSPropertyOp4
 70
     1
102
RTVSPropertyOp5
 70
     1
102
RTVSPropertyOp6
 70
     1
102
RTVSPropertyOp7
 70
     1
102
RTVSPropertyOp8
 70
     1
102
RTVSPropertyOp9
 70
     1
102
RTVSPropertyOp10
 70
     1
102
RTVSPropertyOp11
 70
     1
102
RTVSPropertyOp12
 70
     1
102
RTVSPropertyOp13
 70
     1
102
RTVSPropertyOp14
 70
     1
102
RTVSPropertyOp15
 70
     1
102
RTVSPropertyOp16
 70
     1
102
RTVSPropertyOp17
 70
     1
102
RTVSPropertyOp18
 70
     1
102
RTVSPropertyOp19
 70
     1
102
RTVSPropertyOp20
 70
     1
102
RTVSPropertyOp21
 70
     1
102
RTVSPropertyOp22
 70
     1
102
RTVSPropertyOp23
 70
     1
102
RTVSPropertyOp24
 70
     1
102
RTVSPropertyOp25
 70
     1
102
RTVSPropertyOp26
 70
     1
102
RTVSPropertyOp27
 70
     1
102
RTVSPropertyOp28
 70
     1
102
RTVSPropertyOp29
 70
     1
102
RTVSPropertyOp30
 70
     1
102
RTVSPropertyOp31
 70
     1
102
RTVSPropertyOp32
 70
     1
102
RTVSPropertyOp33
 70
     1
102
RTVSPropertyOp34
 70
     1
102
RTVSPropertyOp35
 70
     1
102
RTVSPropertyOp36
 70
     1
102
RTVSPropertyOp37
 70
     1
102
RTVSPropertyOp38
 70
     1
102
RTVSPropertyOp39
 70
     1
102
RTVSPropertyOp40
 70
     1
102
RTVSPropertyOp41
 70
     1
102
RTVSPropertyOp42
 70
     1
102
RTVSPropertyOp43
 70
     1
102
RTVSPropertyOp44
 70
     1
102
RTVSPropertyOp45
 70
     1
102
RTVSPropertyOp46
 70
     1
102
RTVSPropertyOp47
 70
     1
102
RTVSPropertyOp48
 70
     1
102
RTVSPropertyOp49
 70
     1
102
RTVSPropertyOp50
 70
     1
102
RTVSPropertyOp51
 70
     0
102
RTVSPropertyOp52
 70
     0
102
RTVSPropertyOp53
 70
     1
102
RTVSPropertyOp54
 70
     1
102
RTVSPropertyOp55
 70
     1
102
RTVSPropertyOp56
 70
     1
102
RTVSPropertyOp57
 70
     1
102
RTVSPost2010Prop28
280
     0
102
RTVSPost2010PropOp28
 70
     1
102
RTVSPost2010Prop29
280
     1
102
RTVSPost2010PropOp29
 70
     1
102
RTVSPost2010Prop30
280
     1
102
RTVSPost2010PropOp30
 70
     1
102
RTVSPost2010Prop31
280
     0
102
RTVSPost2010PropOp31
 70
     1
102
RTVSPost2010Prop32
280
     0
102
RTVSPost2010PropOp32
 70
     1
102
RTVSPost2010Prop33
280
     0
102
RTVSPost2010PropOp33
 70
     1
102
RTVSPost2010Prop34
280
     0
102
RTVSPost2010PropOp34
 70
     1
102
RTVSPost2010Prop35
280
     0
102
RTVSPost2010PropOp35
 70
     1
102
RTVSPost2010Prop36
280
     0
102
RTVSPost2010PropOp36
 70
     1
102
RTVSPost2010Prop37
 90
       50
102
RTVSPost2010PropOp37
 70
     1
102
RTVSPost2010Prop38
140
0.0
102
RTVSPost2010PropOp38
 70
     1
102
RTVSPost2010Prop39
140
1.0
102
RTVSPost2010PropOp39
 70
     1
102
RTVSPost2010Prop40
 90
        0
102
RTVSPost2010PropOp40
 70
     1
102
RTVSPost2010Prop41ColorIndex
 90
       18
102
RTVSPost2010Prop41ColorRGB
 90
        0
102
RTVSPost2010PropOp41
 70
     1
102
RTVSPost2010Prop42
 90
       50
102
RTVSPost2010PropOp42
 70
     1
102
RTVSPost2010Prop43
 90
        3
102
RTVSPost2010PropOp43
 70
     1
102
RTVSPost2010Prop44ColorIndex
 90
        5
102
RTVSPost2010Prop44ColorRGB
 90
      255
102
RTVSPost2010PropOp44
 70
     1
102
RTVSPost2010Prop45
280
     0
102
RTVSPost2010PropOp45
 70
     1
102
RTVSPost2010Prop46
 90
       50
102
RTVSPost2010PropOp46
 70
     1
102
RTVSPost2010Prop47
 90
       50
102
RTVSPost2010PropOp47
 70
     1
102
RTVSPost2010Prop48
 90
       50
102
RTVSPost2010PropOp48
 70
     1
102
RTVSPost2010Prop49
280
     0
102
RTVSPost2010PropOp49
 70
     1
102
RTVSPost2010Prop50
 90
       50
102
RTVSPost2010PropOp50
 70
     1
102
RTVSPost2010Prop51ColorIndex
 90
      256
102
RTVSPost2010Prop51ColorRGB
 90
-16777216
102
RTVSPost2010PropOp51
 70
     0
102
RTVSPost2010Prop52
140
1.0
102
RTVSPost2010PropOp52
 70
     0
102
RTVSPost2010Prop53
 90
        2
102
RTVSPost2010PropOp53
 70
     1
102
RTVSPost2010Prop54
  1
strokes_ogs.tif
102
RTVSPost2010PropOp54
 70
     1
102
RTVSPost2010Prop55
280
     0
102
RTVSPost2010PropOp55
 70
     1
102
RTVSPost2010Prop56
140
1.0
102
RTVSPost2010PropOp56
 70
     1
102
RTVSPost2010Prop57
140
1.0
102
RTVSPost2010PropOp57
 70
     1
  0
XRECORD
  5
61D
102
{ACAD_REACTORS
330
61C
102
}
330
61C
100
AcDbXrecord
280
     1
102
RTVSPropertyOp0
 70
     1
102
RTVSPropertyOp1
 70
     1
102
RTVSPropertyOp2
 70
     1
102
RTVSPropertyOp3
 70
     1
102
RTVSPropertyOp4
 70
     1
102
RTVSPropertyOp5
 70
     1
102
RTVSPropertyOp6
 70
     1
102
RTVSPropertyOp7
 70
     1
102
RTVSPropertyOp8
 70
     1
102
RTVSPropertyOp9
 70
     1
102
RTVSPropertyOp10
 70
     1
102
RTVSPropertyOp11
 70
     1
102
RTVSPropertyOp12
 70
     1
102
RTVSPropertyOp13
 70
     1
102
RTVSPropertyOp14
 70
     1
102
RTVSPropertyOp15
 70
     1
102
RTVSPropertyOp16
 70
     1
102
RTVSPropertyOp17
 70
     1
102
RTVSPropertyOp18
 70
     1
102
RTVSPropertyOp19
 70
     1
102
RTVSPropertyOp20
 70
     1
102
RTVSPropertyOp21
 70
     1
102
RTVSPropertyOp22
 70
     1
102
RTVSPropertyOp23
 70
     1
102
RTVSPropertyOp24
 70
     1
102
RTVSPropertyOp25
 70
     1
102
RTVSPropertyOp26
 70
     1
102
RTVSPropertyOp27
 70
     1
102
RTVSPropertyOp28
 70
     1
102
RTVSPropertyOp29
 70
     1
102
RTVSPropertyOp30
 70
     1
102
RTVSPropertyOp31
 70
     1
102
RTVSPropertyOp32
 70
     1
102
RTVSPropertyOp33
 70
     1
102
RTVSPropertyOp34
 70
     1
102
RTVSPropertyOp35
 70
     1
102
RTVSPropertyOp36
 70
     1
102
RTVSPropertyOp37
 70
     1
102
RTVSPropertyOp38
 70
     1
102
RTVSPropertyOp39
 70
     1
102
RTVSPropertyOp40
 70
     1
102
RTVSPropertyOp41
 70
     1
102
RTVSPropertyOp42
 70
     1
102
RTVSPropertyOp43
 70
     1
102
RTVSPropertyOp44
 70
     1
102
RTVSPropertyOp45
 70
     1
102
RTVSPropertyOp46
 70
     1
102
RTVSPropertyOp47
 70
     1
102
RTVSPropertyOp48
 70
     1
102
RTVSPropertyOp49
 70
     1
102
RTVSPropertyOp50
 70
     1
102
RTVSPropertyOp51
 70
     0
102
RTVSPropertyOp52
 70
     0
102
RTVSPropertyOp53
 70
     1
102
RTVSPropertyOp54
 70
     1
102
RTVSPropertyOp55
 70
     1
102
RTVSPropertyOp56
 70
     1
102
RTVSPropertyOp57
 70
     1
102
RTVSPost2010Prop28
280
     0
102
RTVSPost2010PropOp28
 70
     1
102
RTVSPost2010Prop29
280
     1
102
RTVSPost2010PropOp29
 70
     1
102
RTVSPost2010Prop30
280
     1
102
RTVSPost2010PropOp30
 70
     1
102
RTVSPost2010Prop31
280
     0
102
RTVSPost2010PropOp31
 70
     1
102
RTVSPost2010Prop32
280
     0
102
RTVSPost2010PropOp32
 70
     1
102
RTVSPost2010Prop33
280
     0
102
RTVSPost2010PropOp33
 70
     1
102
RTVSPost2010Prop34
280
     0
102
RTVSPost2010PropOp34
 70
     1
102
RTVSPost2010Prop35
280
     0
102
RTVSPost2010PropOp35
 70
     1
102
RTVSPost2010Prop36
280
     0
102
RTVSPost2010PropOp36
 70
     1
102
RTVSPost2010Prop37
 90
       50
102
RTVSPost2010PropOp37
 70
     1
102
RTVSPost2010Prop38
140
0.0
102
RTVSPost2010PropOp38
 70
     1
102
RTVSPost2010Prop39
140
1.0
102
RTVSPost2010PropOp39
 70
     1
102
RTVSPost2010Prop40
 90
        0
102
RTVSPost2010PropOp40
 70
     1
102
RTVSPost2010Prop41ColorIndex
 90
       18
102
RTVSPost2010Prop41ColorRGB
 90
        0
102
RTVSPost2010PropOp41
 70
     1
102
RTVSPost2010Prop42
 90
       50
102
RTVSPost2010PropOp42
 70
     1
102
RTVSPost2010Prop43
 90
        3
102
RTVSPost2010PropOp43
 70
     1
102
RTVSPost2010Prop44ColorIndex
 90
        5
102
RTVSPost2010Prop44ColorRGB
 90
      255
102
RTVSPost2010PropOp44
 70
     1
102
RTVSPost2010Prop45
280
     0
102
RTVSPost2010PropOp45
 70
     1
102
RTVSPost2010Prop46
 90
       50
102
RTVSPost2010PropOp46
 70
     1
102
RTVSPost2010Prop47
 90
       50
102
RTVSPost2010PropOp47
 70
     1
102
RTVSPost2010Prop48
 90
       50
102
RTVSPost2010PropOp48
 70
     1
102
RTVSPost2010Prop49
280
     0
102
RTVSPost2010PropOp49
 70
     1
102
RTVSPost2010Prop50
 90
       50
102
RTVSPost2010PropOp50
 70
     1
102
RTVSPost2010Prop51ColorIndex
 90
      256
102
RTVSPost2010Prop51ColorRGB
 90
-16777216
102
RTVSPost2010PropOp51
 70
     0
102
RTVSPost2010Prop52
140
1.0
102
RTVSPost2010PropOp52
 70
     0
102
RTVSPost2010Prop53
 90
        2
102
RTVSPost2010PropOp53
 70
     1
102
RTVSPost2010Prop54
  1
strokes_ogs.tif
102
RTVSPost2010PropOp54
 70
     1
102
RTVSPost2010Prop55
280
     0
102
RTVSPost2010PropOp55
 70
     1
102
RTVSPost2010Prop56
140
1.0
102
RTVSPost2010PropOp56
 70
     1
102
RTVSPost2010Prop57
140
1.0
102
RTVSPost2010PropOp57
 70
     1
  0
XRECORD
  5
61F
102
{ACAD_REACTORS
330
61E
102
}
330
61E
100
AcDbXrecord
280
     1
102
RTVSPropertyOp0
 70
     1
102
RTVSPropertyOp1
 70
     1
102
RTVSPropertyOp2
 70
     1
102
RTVSPropertyOp3
 70
     1
102
RTVSPropertyOp4
 70
     1
102
RTVSPropertyOp5
 70
     1
102
RTVSPropertyOp6
 70
     1
102
RTVSPropertyOp7
 70
     1
102
RTVSPropertyOp8
 70
     1
102
RTVSPropertyOp9
 70
     1
102
RTVSPropertyOp10
 70
     1
102
RTVSPropertyOp11
 70
     1
102
RTVSPropertyOp12
 70
     1
102
RTVSPropertyOp13
 70
     1
102
RTVSPropertyOp14
 70
     1
102
RTVSPropertyOp15
 70
     1
102
RTVSPropertyOp16
 70
     1
102
RTVSPropertyOp17
 70
     1
102
RTVSPropertyOp18
 70
     1
102
RTVSPropertyOp19
 70
     1
102
RTVSPropertyOp20
 70
     1
102
RTVSPropertyOp21
 70
     1
102
RTVSPropertyOp22
 70
     1
102
RTVSPropertyOp23
 70
     1
102
RTVSPropertyOp24
 70
     1
102
RTVSPropertyOp25
 70
     1
102
RTVSPropertyOp26
 70
     1
102
RTVSPropertyOp27
 70
     1
102
RTVSPropertyOp28
 70
     1
102
RTVSPropertyOp29
 70
     1
102
RTVSPropertyOp30
 70
     1
102
RTVSPropertyOp31
 70
     1
102
RTVSPropertyOp32
 70
     1
102
RTVSPropertyOp33
 70
     1
102
RTVSPropertyOp34
 70
     1
102
RTVSPropertyOp35
 70
     1
102
RTVSPropertyOp36
 70
     1
102
RTVSPropertyOp37
 70
     1
102
RTVSPropertyOp38
 70
     1
102
RTVSPropertyOp39
 70
     1
102
RTVSPropertyOp40
 70
     1
102
RTVSPropertyOp41
 70
     1
102
RTVSPropertyOp42
 70
     1
102
RTVSPropertyOp43
 70
     1
102
RTVSPropertyOp44
 70
     1
102
RTVSPropertyOp45
 70
     1
102
RTVSPropertyOp46
 70
     1
102
RTVSPropertyOp47
 70
     1
102
RTVSPropertyOp48
 70
     1
102
RTVSPropertyOp49
 70
     1
102
RTVSPropertyOp50
 70
     1
102
RTVSPropertyOp51
 70
     0
102
RTVSPropertyOp52
 70
     0
102
RTVSPropertyOp53
 70
     1
102
RTVSPropertyOp54
 70
     1
102
RTVSPropertyOp55
 70
     1
102
RTVSPropertyOp56
 70
     1
102
RTVSPropertyOp57
 70
     1
102
RTVSPost2010Prop28
280
     0
102
RTVSPost2010PropOp28
 70
     1
102
RTVSPost2010Prop29
280
     1
102
RTVSPost2010PropOp29
 70
     1
102
RTVSPost2010Prop30
280
     1
102
RTVSPost2010PropOp30
 70
     1
102
RTVSPost2010Prop31
280
     0
102
RTVSPost2010PropOp31
 70
     1
102
RTVSPost2010Prop32
280
     0
102
RTVSPost2010PropOp32
 70
     1
102
RTVSPost2010Prop33
280
     0
102
RTVSPost2010PropOp33
 70
     1
102
RTVSPost2010Prop34
280
     0
102
RTVSPost2010PropOp34
 70
     1
102
RTVSPost2010Prop35
280
     0
102
RTVSPost2010PropOp35
 70
     1
102
RTVSPost2010Prop36
280
     0
102
RTVSPost2010PropOp36
 70
     1
102
RTVSPost2010Prop37
 90
       50
102
RTVSPost2010PropOp37
 70
     1
102
RTVSPost2010Prop38
140
0.0
102
RTVSPost2010PropOp38
 70
     1
102
RTVSPost2010Prop39
140
1.0
102
RTVSPost2010PropOp39
 70
     1
102
RTVSPost2010Prop40
 90
        0
102
RTVSPost2010PropOp40
 70
     1
102
RTVSPost2010Prop41ColorIndex
 90
       18
102
RTVSPost2010Prop41ColorRGB
 90
        0
102
RTVSPost2010PropOp41
 70
     1
102
RTVSPost2010Prop42
 90
       50
102
RTVSPost2010PropOp42
 70
     1
102
RTVSPost2010Prop43
 90
        3
102
RTVSPost2010PropOp43
 70
     1
102
RTVSPost2010Prop44ColorIndex
 90
        5
102
RTVSPost2010Prop44ColorRGB
 90
      255
102
RTVSPost2010PropOp44
 70
     1
102
RTVSPost2010Prop45
280
     0
102
RTVSPost2010PropOp45
 70
     1
102
RTVSPost2010Prop46
 90
       50
102
RTVSPost2010PropOp46
 70
     1
102
RTVSPost2010Prop47
 90
       50
102
RTVSPost2010PropOp47
 70
     1
102
RTVSPost2010Prop48
 90
       50
102
RTVSPost2010PropOp48
 70
     1
102
RTVSPost2010Prop49
280
     0
102
RTVSPost2010PropOp49
 70
     1
102
RTVSPost2010Prop50
 90
       50
102
RTVSPost2010PropOp50
 70
     1
102
RTVSPost2010Prop51ColorIndex
 90
      256
102
RTVSPost2010Prop51ColorRGB
 90
-16777216
102
RTVSPost2010PropOp51
 70
     0
102
RTVSPost2010Prop52
140
1.0
102
RTVSPost2010PropOp52
 70
     0
102
RTVSPost2010Prop53
 90
        2
102
RTVSPost2010PropOp53
 70
     1
102
RTVSPost2010Prop54
  1
strokes_ogs.tif
102
RTVSPost2010PropOp54
 70
     1
102
RTVSPost2010Prop55
280
     0
102
RTVSPost2010PropOp55
 70
     1
102
RTVSPost2010Prop56
140
1.0
102
RTVSPost2010PropOp56
 70
     1
102
RTVSPost2010Prop57
140
1.0
102
RTVSPost2010PropOp57
 70
     1
  0
XRECORD
  5
60F
102
{ACAD_REACTORS
330
60E
102
}
330
60E
100
AcDbXrecord
280
     1
102
RTVSPropertyOp0
 70
     1
102
RTVSPropertyOp1
 70
     1
102
RTVSPropertyOp2
 70
     1
102
RTVSPropertyOp3
 70
     1
102
RTVSPropertyOp4
 70
     1
102
RTVSPropertyOp5
 70
     1
102
RTVSPropertyOp6
 70
     1
102
RTVSPropertyOp7
 70
     1
102
RTVSPropertyOp8
 70
     1
102
RTVSPropertyOp9
 70
     1
102
RTVSPropertyOp10
 70
     1
102
RTVSPropertyOp11
 70
     1
102
RTVSPropertyOp12
 70
     1
102
RTVSPropertyOp13
 70
     1
102
RTVSPropertyOp14
 70
     1
102
RTVSPropertyOp15
 70
     1
102
RTVSPropertyOp16
 70
     1
102
RTVSPropertyOp17
 70
     1
102
RTVSPropertyOp18
 70
     1
102
RTVSPropertyOp19
 70
     1
102
RTVSPropertyOp20
 70
     1
102
RTVSPropertyOp21
 70
     1
102
RTVSPropertyOp22
 70
     1
102
RTVSPropertyOp23
 70
     1
102
RTVSPropertyOp24
 70
     1
102
RTVSPropertyOp25
 70
     1
102
RTVSPropertyOp26
 70
     1
102
RTVSPropertyOp27
 70
     1
102
RTVSPropertyOp28
 70
     1
102
RTVSPropertyOp29
 70
     1
102
RTVSPropertyOp30
 70
     1
102
RTVSPropertyOp31
 70
     1
102
RTVSPropertyOp32
 70
     1
102
RTVSPropertyOp33
 70
     1
102
RTVSPropertyOp34
 70
     1
102
RTVSPropertyOp35
 70
     1
102
RTVSPropertyOp36
 70
     1
102
RTVSPropertyOp37
 70
     1
102
RTVSPropertyOp38
 70
     1
102
RTVSPropertyOp39
 70
     1
102
RTVSPropertyOp40
 70
     1
102
RTVSPropertyOp41
 70
     1
102
RTVSPropertyOp42
 70
     1
102
RTVSPropertyOp43
 70
     1
102
RTVSPropertyOp44
 70
     1
102
RTVSPropertyOp45
 70
     1
102
RTVSPropertyOp46
 70
     1
102
RTVSPropertyOp47
 70
     1
102
RTVSPropertyOp48
 70
     1
102
RTVSPropertyOp49
 70
     1
102
RTVSPropertyOp50
 70
     1
102
RTVSPropertyOp51
 70
     0
102
RTVSPropertyOp52
 70
     0
102
RTVSPropertyOp53
 70
     1
102
RTVSPropertyOp54
 70
     1
102
RTVSPropertyOp55
 70
     1
102
RTVSPropertyOp56
 70
     1
102
RTVSPropertyOp57
 70
     1
102
RTVSPost2010Prop28
280
     0
102
RTVSPost2010PropOp28
 70
     1
102
RTVSPost2010Prop29
280
     1
102
RTVSPost2010PropOp29
 70
     1
102
RTVSPost2010Prop30
280
     1
102
RTVSPost2010PropOp30
 70
     1
102
RTVSPost2010Prop31
280
     0
102
RTVSPost2010PropOp31
 70
     1
102
RTVSPost2010Prop32
280
     0
102
RTVSPost2010PropOp32
 70
     1
102
RTVSPost2010Prop33
280
     0
102
RTVSPost2010PropOp33
 70
     1
102
RTVSPost2010Prop34
280
     0
102
RTVSPost2010PropOp34
 70
     1
102
RTVSPost2010Prop35
280
     0
102
RTVSPost2010PropOp35
 70
     1
102
RTVSPost2010Prop36
280
     0
102
RTVSPost2010PropOp36
 70
     1
102
RTVSPost2010Prop37
 90
       50
102
RTVSPost2010PropOp37
 70
     1
102
RTVSPost2010Prop38
140
0.0
102
RTVSPost2010PropOp38
 70
     1
102
RTVSPost2010Prop39
140
1.0
102
RTVSPost2010PropOp39
 70
     1
102
RTVSPost2010Prop40
 90
        0
102
RTVSPost2010PropOp40
 70
     1
102
RTVSPost2010Prop41ColorIndex
 90
       18
102
RTVSPost2010Prop41ColorRGB
 90
        0
102
RTVSPost2010PropOp41
 70
     1
102
RTVSPost2010Prop42
 90
       50
102
RTVSPost2010PropOp42
 70
     1
102
RTVSPost2010Prop43
 90
        3
102
RTVSPost2010PropOp43
 70
     1
102
RTVSPost2010Prop44ColorIndex
 90
        5
102
RTVSPost2010Prop44ColorRGB
 90
      255
102
RTVSPost2010PropOp44
 70
     1
102
RTVSPost2010Prop45
280
     0
102
RTVSPost2010PropOp45
 70
     1
102
RTVSPost2010Prop46
 90
       50
102
RTVSPost2010PropOp46
 70
     1
102
RTVSPost2010Prop47
 90
       50
102
RTVSPost2010PropOp47
 70
     1
102
RTVSPost2010Prop48
 90
       50
102
RTVSPost2010PropOp48
 70
     1
102
RTVSPost2010Prop49
280
     0
102
RTVSPost2010PropOp49
 70
     1
102
RTVSPost2010Prop50
 90
       50
102
RTVSPost2010PropOp50
 70
     1
102
RTVSPost2010Prop51ColorIndex
 90
      256
102
RTVSPost2010Prop51ColorRGB
 90
-16777216
102
RTVSPost2010PropOp51
 70
     0
102
RTVSPost2010Prop52
140
1.0
102
RTVSPost2010PropOp52
 70
     0
102
RTVSPost2010Prop53
 90
        2
102
RTVSPost2010PropOp53
 70
     1
102
RTVSPost2010Prop54
  1
strokes_ogs.tif
102
RTVSPost2010PropOp54
 70
     1
102
RTVSPost2010Prop55
280
     0
102
RTVSPost2010PropOp55
 70
     1
102
RTVSPost2010Prop56
140
1.0
102
RTVSPost2010PropOp56
 70
     1
102
RTVSPost2010Prop57
140
1.0
102
RTVSPost2010PropOp57
 70
     1
  0
XRECORD
  5
601
102
{ACAD_REACTORS
330
600
102
}
330
600
100
AcDbXrecord
280
     1
102
RTVSPropertyOp0
 70
     1
102
RTVSPropertyOp1
 70
     1
102
RTVSPropertyOp2
 70
     1
102
RTVSPropertyOp3
 70
     1
102
RTVSPropertyOp4
 70
     1
102
RTVSPropertyOp5
 70
     1
102
RTVSPropertyOp6
 70
     1
102
RTVSPropertyOp7
 70
     1
102
RTVSPropertyOp8
 70
     1
102
RTVSPropertyOp9
 70
     1
102
RTVSPropertyOp10
 70
     1
102
RTVSPropertyOp11
 70
     1
102
RTVSPropertyOp12
 70
     1
102
RTVSPropertyOp13
 70
     1
102
RTVSPropertyOp14
 70
     1
102
RTVSPropertyOp15
 70
     1
102
RTVSPropertyOp16
 70
     1
102
RTVSPropertyOp17
 70
     1
102
RTVSPropertyOp18
 70
     1
102
RTVSPropertyOp19
 70
     1
102
RTVSPropertyOp20
 70
     1
102
RTVSPropertyOp21
 70
     1
102
RTVSPropertyOp22
 70
     1
102
RTVSPropertyOp23
 70
     1
102
RTVSPropertyOp24
 70
     1
102
RTVSPropertyOp25
 70
     1
102
RTVSPropertyOp26
 70
     1
102
RTVSPropertyOp27
 70
     1
102
RTVSPropertyOp28
 70
     1
102
RTVSPropertyOp29
 70
     1
102
RTVSPropertyOp30
 70
     1
102
RTVSPropertyOp31
 70
     1
102
RTVSPropertyOp32
 70
     1
102
RTVSPropertyOp33
 70
     1
102
RTVSPropertyOp34
 70
     1
102
RTVSPropertyOp35
 70
     1
102
RTVSPropertyOp36
 70
     1
102
RTVSPropertyOp37
 70
     1
102
RTVSPropertyOp38
 70
     1
102
RTVSPropertyOp39
 70
     1
102
RTVSPropertyOp40
 70
     1
102
RTVSPropertyOp41
 70
     1
102
RTVSPropertyOp42
 70
     1
102
RTVSPropertyOp43
 70
     1
102
RTVSPropertyOp44
 70
     1
102
RTVSPropertyOp45
 70
     1
102
RTVSPropertyOp46
 70
     1
102
RTVSPropertyOp47
 70
     1
102
RTVSPropertyOp48
 70
     1
102
RTVSPropertyOp49
 70
     1
102
RTVSPropertyOp50
 70
     1
102
RTVSPropertyOp51
 70
     0
102
RTVSPropertyOp52
 70
     0
102
RTVSPropertyOp53
 70
     1
102
RTVSPropertyOp54
 70
     1
102
RTVSPropertyOp55
 70
     1
102
RTVSPropertyOp56
 70
     1
102
RTVSPropertyOp57
 70
     1
102
RTVSPost2010Prop28
280
     0
102
RTVSPost2010PropOp28
 70
     1
102
RTVSPost2010Prop29
280
     1
102
RTVSPost2010PropOp29
 70
     1
102
RTVSPost2010Prop30
280
     1
102
RTVSPost2010PropOp30
 70
     1
102
RTVSPost2010Prop31
280
     0
102
RTVSPost2010PropOp31
 70
     1
102
RTVSPost2010Prop32
280
     0
102
RTVSPost2010PropOp32
 70
     1
102
RTVSPost2010Prop33
280
     0
102
RTVSPost2010PropOp33
 70
     1
102
RTVSPost2010Prop34
280
     0
102
RTVSPost2010PropOp34
 70
     1
102
RTVSPost2010Prop35
280
     0
102
RTVSPost2010PropOp35
 70
     1
102
RTVSPost2010Prop36
280
     0
102
RTVSPost2010PropOp36
 70
     1
102
RTVSPost2010Prop37
 90
       50
102
RTVSPost2010PropOp37
 70
     1
102
RTVSPost2010Prop38
140
0.0
102
RTVSPost2010PropOp38
 70
     1
102
RTVSPost2010Prop39
140
1.0
102
RTVSPost2010PropOp39
 70
     1
102
RTVSPost2010Prop40
 90
        0
102
RTVSPost2010PropOp40
 70
     1
102
RTVSPost2010Prop41ColorIndex
 90
       18
102
RTVSPost2010Prop41ColorRGB
 90
        0
102
RTVSPost2010PropOp41
 70
     1
102
RTVSPost2010Prop42
 90
       50
102
RTVSPost2010PropOp42
 70
     1
102
RTVSPost2010Prop43
 90
        3
102
RTVSPost2010PropOp43
 70
     1
102
RTVSPost2010Prop44ColorIndex
 90
        5
102
RTVSPost2010Prop44ColorRGB
 90
      255
102
RTVSPost2010PropOp44
 70
     1
102
RTVSPost2010Prop45
280
     0
102
RTVSPost2010PropOp45
 70
     1
102
RTVSPost2010Prop46
 90
       50
102
RTVSPost2010PropOp46
 70
     1
102
RTVSPost2010Prop47
 90
       50
102
RTVSPost2010PropOp47
 70
     1
102
RTVSPost2010Prop48
 90
       50
102
RTVSPost2010PropOp48
 70
     1
102
RTVSPost2010Prop49
280
     0
102
RTVSPost2010PropOp49
 70
     1
102
RTVSPost2010Prop50
 90
       50
102
RTVSPost2010PropOp50
 70
     1
102
RTVSPost2010Prop51ColorIndex
 90
      256
102
RTVSPost2010Prop51ColorRGB
 90
-16777216
102
RTVSPost2010PropOp51
 70
     0
102
RTVSPost2010Prop52
140
1.0
102
RTVSPost2010PropOp52
 70
     0
102
RTVSPost2010Prop53
 90
        2
102
RTVSPost2010PropOp53
 70
     1
102
RTVSPost2010Prop54
  1
strokes_ogs.tif
102
RTVSPost2010PropOp54
 70
     1
102
RTVSPost2010Prop55
280
     0
102
RTVSPost2010PropOp55
 70
     1
102
RTVSPost2010Prop56
140
1.0
102
RTVSPost2010PropOp56
 70
     1
102
RTVSPost2010Prop57
140
1.0
102
RTVSPost2010PropOp57
 70
     1
  0
XRECORD
  5
621
102
{ACAD_REACTORS
330
620
102
}
330
620
100
AcDbXrecord
280
     1
102
RTVSPropertyOp0
 70
     1
102
RTVSPropertyOp1
 70
     1
102
RTVSPropertyOp2
 70
     1
102
RTVSPropertyOp3
 70
     1
102
RTVSPropertyOp4
 70
     1
102
RTVSPropertyOp5
 70
     1
102
RTVSPropertyOp6
 70
     1
102
RTVSPropertyOp7
 70
     1
102
RTVSPropertyOp8
 70
     1
102
RTVSPropertyOp9
 70
     1
102
RTVSPropertyOp10
 70
     1
102
RTVSPropertyOp11
 70
     1
102
RTVSPropertyOp12
 70
     1
102
RTVSPropertyOp13
 70
     1
102
RTVSPropertyOp14
 70
     1
102
RTVSPropertyOp15
 70
     1
102
RTVSPropertyOp16
 70
     1
102
RTVSPropertyOp17
 70
     1
102
RTVSPropertyOp18
 70
     1
102
RTVSPropertyOp19
 70
     1
102
RTVSPropertyOp20
 70
     1
102
RTVSPropertyOp21
 70
     1
102
RTVSPropertyOp22
 70
     1
102
RTVSPropertyOp23
 70
     1
102
RTVSPropertyOp24
 70
     1
102
RTVSPropertyOp25
 70
     1
102
RTVSPropertyOp26
 70
     1
102
RTVSPropertyOp27
 70
     1
102
RTVSPropertyOp28
 70
     1
102
RTVSPropertyOp29
 70
     1
102
RTVSPropertyOp30
 70
     1
102
RTVSPropertyOp31
 70
     1
102
RTVSPropertyOp32
 70
     1
102
RTVSPropertyOp33
 70
     1
102
RTVSPropertyOp34
 70
     1
102
RTVSPropertyOp35
 70
     1
102
RTVSPropertyOp36
 70
     1
102
RTVSPropertyOp37
 70
     1
102
RTVSPropertyOp38
 70
     1
102
RTVSPropertyOp39
 70
     1
102
RTVSPropertyOp40
 70
     1
102
RTVSPropertyOp41
 70
     1
102
RTVSPropertyOp42
 70
     1
102
RTVSPropertyOp43
 70
     1
102
RTVSPropertyOp44
 70
     1
102
RTVSPropertyOp45
 70
     1
102
RTVSPropertyOp46
 70
     1
102
RTVSPropertyOp47
 70
     1
102
RTVSPropertyOp48
 70
     1
102
RTVSPropertyOp49
 70
     1
102
RTVSPropertyOp50
 70
     1
102
RTVSPropertyOp51
 70
     0
102
RTVSPropertyOp52
 70
     0
102
RTVSPropertyOp53
 70
     1
102
RTVSPropertyOp54
 70
     1
102
RTVSPropertyOp55
 70
     1
102
RTVSPropertyOp56
 70
     1
102
RTVSPropertyOp57
 70
     1
102
RTVSPost2010Prop28
280
     0
102
RTVSPost2010PropOp28
 70
     1
102
RTVSPost2010Prop29
280
     1
102
RTVSPost2010PropOp29
 70
     1
102
RTVSPost2010Prop30
280
     1
102
RTVSPost2010PropOp30
 70
     1
102
RTVSPost2010Prop31
280
     0
102
RTVSPost2010PropOp31
 70
     1
102
RTVSPost2010Prop32
280
     0
102
RTVSPost2010PropOp32
 70
     1
102
RTVSPost2010Prop33
280
     0
102
RTVSPost2010PropOp33
 70
     1
102
RTVSPost2010Prop34
280
     0
102
RTVSPost2010PropOp34
 70
     1
102
RTVSPost2010Prop35
280
     0
102
RTVSPost2010PropOp35
 70
     1
102
RTVSPost2010Prop36
280
     0
102
RTVSPost2010PropOp36
 70
     1
102
RTVSPost2010Prop37
 90
       50
102
RTVSPost2010PropOp37
 70
     1
102
RTVSPost2010Prop38
140
0.0
102
RTVSPost2010PropOp38
 70
     1
102
RTVSPost2010Prop39
140
1.0
102
RTVSPost2010PropOp39
 70
     1
102
RTVSPost2010Prop40
 90
        0
102
RTVSPost2010PropOp40
 70
     1
102
RTVSPost2010Prop41ColorIndex
 90
       18
102
RTVSPost2010Prop41ColorRGB
 90
        0
102
RTVSPost2010PropOp41
 70
     1
102
RTVSPost2010Prop42
 90
       50
102
RTVSPost2010PropOp42
 70
     1
102
RTVSPost2010Prop43
 90
        3
102
RTVSPost2010PropOp43
 70
     1
102
RTVSPost2010Prop44ColorIndex
 90
        5
102
RTVSPost2010Prop44ColorRGB
 90
      255
102
RTVSPost2010PropOp44
 70
     1
102
RTVSPost2010Prop45
280
     0
102
RTVSPost2010PropOp45
 70
     1
102
RTVSPost2010Prop46
 90
       50
102
RTVSPost2010PropOp46
 70
     1
102
RTVSPost2010Prop47
 90
       50
102
RTVSPost2010PropOp47
 70
     1
102
RTVSPost2010Prop48
 90
       50
102
RTVSPost2010PropOp48
 70
     1
102
RTVSPost2010Prop49
280
     0
102
RTVSPost2010PropOp49
 70
     1
102
RTVSPost2010Prop50
 90
       50
102
RTVSPost2010PropOp50
 70
     1
102
RTVSPost2010Prop51ColorIndex
 90
      256
102
RTVSPost2010Prop51ColorRGB
 90
-16777216
102
RTVSPost2010PropOp51
 70
     0
102
RTVSPost2010Prop52
140
1.0
102
RTVSPost2010PropOp52
 70
     0
102
RTVSPost2010Prop53
 90
        2
102
RTVSPost2010PropOp53
 70
     1
102
RTVSPost2010Prop54
  1
strokes_ogs.tif
102
RTVSPost2010PropOp54
 70
     1
102
RTVSPost2010Prop55
280
     0
102
RTVSPost2010PropOp55
 70
     1
102
RTVSPost2010Prop56
140
1.0
102
RTVSPost2010PropOp56
 70
     1
102
RTVSPost2010Prop57
140
1.0
102
RTVSPost2010PropOp57
 70
     1
  0
ENDSEC
  0
EOF
