  0
SECTION
  2
HEADER
  9
$ACADVER
  1
AC1015
  9
$ACADMAINTVER
 70
     6
  9
$DWGCODEPAGE
  3
ANSI_932
  9
$INSBASE
 10
912.2072204287078
 20
636.8954647023897
 30
0.0
  9
$EXTMIN
 10
62.81584612684179
 20
4.886944025447576
 30
0.0
  9
$EXTMAX
 10
531.8485408788175
 20
461.4216604314533
 30
0.0
  9
$LIMMIN
 10
-210.0
 20
-148.5
  9
$LIMMAX
 10
210.0
 20
148.5
  9
$ORTHOMODE
 70
     1
  9
$REGENMODE
 70
     1
  9
$FILLMODE
 70
     1
  9
$QTEXTMODE
 70
     0
  9
$MIRRTEXT
 70
     1
  9
$LTSCALE
 40
3.0
  9
$ATTMODE
 70
     1
  9
$TEXTSIZE
 40
4.5
  9
$TRACEWID
 40
0.05
  9
$TEXTSTYLE
  7
KANJI
  9
$CLAYER
  8
2
  9
$CELTYPE
  6
CONTINUOUS
  9
$CECOLOR
 62
   256
  9
$CELTSCALE
 40
1.0
  9
$DISPSILH
 70
     0
  9
$DIMSCALE
 40
1.5
  9
$DIMASZ
 40
2.0
  9
$DIMEXO
 40
0.5
  9
$DIMDLI
 40
10.0
  9
$DIMRND
 40
0.0
  9
$DIMDLE
 40
0.0
  9
$DIMEXE
 40
1.0
  9
$DIMTP
 40
0.0
  9
$DIMTM
 40
0.0
  9
$DIMTXT
 40
3.0
  9
$DIMCEN
 40
0.09
  9
$DIMTSZ
 40
0.0
  9
$DIMTOL
 70
     0
  9
$DIMLIM
 70
     0
  9
$DIMTIH
 70
     0
  9
$DIMTOH
 70
     0
  9
$DIMSE1
 70
     0
  9
$DIMSE2
 70
     0
  9
$DIMTAD
 70
     0
  9
$DIMZIN
 70
     8
  9
$DIMBLK
  1

  9
$DIMASO
 70
     0
  9
$DIMSHO
 70
     0
  9
$DIMPOST
  1

  9
$DIMAPOST
  1

  9
$DIMALT
 70
     0
  9
$DIMALTD
 70
     2
  9
$DIMALTF
 40
25.4
  9
$DIMLFAC
 40
1.0
  9
$DIMTOFL
 70
     1
  9
$DIMTVP
 40
1.0
  9
$DIMTIX
 70
     1
  9
$DIMSOXD
 70
     1
  9
$DIMSAH
 70
     0
  9
$DIMBLK1
  1

  9
$DIMBLK2
  1

  9
$DIMSTYLE
  2
STANDARD
  9
$DIMCLRD
 70
   256
  9
$DIMCLRE
 70
   256
  9
$DIMCLRT
 70
   256
  9
$DIMTFAC
 40
1.0
  9
$DIMGAP
 40
0.09
  9
$DIMJUST
 70
     0
  9
$DIMSD1
 70
     0
  9
$DIMSD2
 70
     0
  9
$DIMTOLJ
 70
     1
  9
$DIMTZIN
 70
     0
  9
$DIMALTZ
 70
     0
  9
$DIMALTTZ
 70
     0
  9
$DIMUPT
 70
     0
  9
$DIMDEC
 70
     1
  9
$DIMTDEC
 70
     4
  9
$DIMALTU
 70
     2
  9
$DIMALTTD
 70
     2
  9
$DIMTXSTY
  7
STANDARD
  9
$DIMAUNIT
 70
     0
  9
$DIMADEC
 70
     0
  9
$DIMALTRND
 40
0.0
  9
$DIMAZIN
 70
     0
  9
$DIMDSEP
 70
    46
  9
$DIMATFIT
 70
     3
  9
$DIMFRAC
 70
     0
  9
$DIMLDRBLK
  1

  9
$DIMLUNIT
 70
     2
  9
$DIMLWD
 70
    -2
  9
$DIMLWE
 70
    -2
  9
$DIMTMOVE
 70
     0
  9
$LUNITS
 70
     2
  9
$LUPREC
 70
     4
  9
$SKETCHINC
 40
0.1
  9
$FILLETRAD
 40
11.0
  9
$AUNITS
 70
     0
  9
$AUPREC
 70
     0
  9
$MENU
  1
.
  9
$ELEVATION
 40
0.0
  9
$PELEVATION
 40
0.0
  9
$THICKNESS
 40
0.0
  9
$LIMCHECK
 70
     0
  9
$CHAMFERA
 40
0.0
  9
$CHAMFERB
 40
0.0
  9
$CHAMFERC
 40
0.0
  9
$CHAMFERD
 40
0.0
  9
$SKPOLY
 70
     0
  9
$TDCREATE
 40
2457647.632966146
  9
$TDUCREATE
 40
2457647.257966146
  9
$TDUPDATE
 40
2457870.591876528
  9
$TDUUPDATE
 40
2457870.216876528
  9
$TDINDWG
 40
0.0110920139
  9
$TDUSRTIMER
 40
0.0110915046
  9
$USRTIMER
 70
     1
  9
$ANGBASE
 50
0.0
  9
$ANGDIR
 70
     0
  9
$PDMODE
 70
     0
  9
$PDSIZE
 40
0.0
  9
$PLINEWID
 40
0.0
  9
$SPLFRAME
 70
     0
  9
$SPLINETYPE
 70
     6
  9
$SPLINESEGS
 70
     8
  9
$HANDSEED
  5
C5E
  9
$SURFTAB1
 70
     6
  9
$SURFTAB2
 70
     6
  9
$SURFTYPE
 70
     6
  9
$SURFU
 70
     6
  9
$SURFV
 70
     6
  9
$UCSBASE
  2

  9
$UCSNAME
  2

  9
$UCSORG
 10
0.0
 20
0.0
 30
0.0
  9
$UCSXDIR
 10
1.0
 20
0.0
 30
0.0
  9
$UCSYDIR
 10
0.0
 20
1.0
 30
0.0
  9
$UCSORTHOREF
  2

  9
$UCSORTHOVIEW
 70
     0
  9
$UCSORGTOP
 10
0.0
 20
0.0
 30
0.0
  9
$UCSORGBOTTOM
 10
0.0
 20
0.0
 30
0.0
  9
$UCSORGLEFT
 10
0.0
 20
0.0
 30
0.0
  9
$UCSORGRIGHT
 10
0.0
 20
0.0
 30
0.0
  9
$UCSORGFRONT
 10
0.0
 20
0.0
 30
0.0
  9
$UCSORGBACK
 10
0.0
 20
0.0
 30
0.0
  9
$PUCSBASE
  2

  9
$PUCSNAME
  2

  9
$PUCSORG
 10
0.0
 20
0.0
 30
0.0
  9
$PUCSXDIR
 10
1.0
 20
0.0
 30
0.0
  9
$PUCSYDIR
 10
0.0
 20
1.0
 30
0.0
  9
$PUCSORTHOREF
  2

  9
$PUCSORTHOVIEW
 70
     0
  9
$PUCSORGTOP
 10
0.0
 20
0.0
 30
0.0
  9
$PUCSORGBOTTOM
 10
0.0
 20
0.0
 30
0.0
  9
$PUCSORGLEFT
 10
0.0
 20
0.0
 30
0.0
  9
$PUCSORGRIGHT
 10
0.0
 20
0.0
 30
0.0
  9
$PUCSORGFRONT
 10
0.0
 20
0.0
 30
0.0
  9
$PUCSORGBACK
 10
0.0
 20
0.0
 30
0.0
  9
$USERI1
 70
     0
  9
$USERI2
 70
     0
  9
$USERI3
 70
     0
  9
$USERI4
 70
     0
  9
$USERI5
 70
     0
  9
$USERR1
 40
0.0
  9
$USERR2
 40
0.0
  9
$USERR3
 40
0.0
  9
$USERR4
 40
0.0
  9
$USERR5
 40
0.0
  9
$WORLDVIEW
 70
     1
  9
$SHADEDGE
 70
     3
  9
$SHADEDIF
 70
    70
  9
$TILEMODE
 70
     1
  9
$MAXACTVP
 70
    16
  9
$PINSBASE
 10
0.0
 20
0.0
 30
0.0
  9
$PLIMCHECK
 70
     0
  9
$PEXTMIN
 10
1.000000000000000E+20
 20
1.000000000000000E+20
 30
1.000000000000000E+20
  9
$PEXTMAX
 10
-1.000000000000000E+20
 20
-1.000000000000000E+20
 30
-1.000000000000000E+20
  9
$PLIMMIN
 10
0.0
 20
0.0
  9
$PLIMMAX
 10
12.0
 20
9.0
  9
$UNITMODE
 70
     0
  9
$VISRETAIN
 70
     0
  9
$PLINEGEN
 70
     0
  9
$PSLTSCALE
 70
     1
  9
$TREEDEPTH
 70
  3020
  9
$CMLSTYLE
  2
STANDARD
  9
$CMLJUST
 70
     0
  9
$CMLSCALE
 40
1.0
  9
$PROXYGRAPHICS
 70
     1
  9
$MEASUREMENT
 70
     0
  9
$CELWEIGHT
370
    -1
  9
$ENDCAPS
280
     0
  9
$JOINSTYLE
280
     0
  9
$LWDISPLAY
290
     0
  9
$INSUNITS
 70
     0
  9
$HYPERLINKBASE
  1

  9
$STYLESHEET
  1
monochrome.ctb
  9
$XEDIT
290
     1
  9
$CEPSNTYPE
380
     0
  9
$PSTYLEMODE
290
     1
  9
$FINGERPRINTGUID
  2
{1F7425F6-DCE5-47E0-B935-A532DABB8718}
  9
$VERSIONGUID
  2
{102D7C25-A6F2-4035-A569-CD92218C28CD}
  9
$EXTNAMES
290
     1
  9
$PSVPSCALE
 40
0.0
  9
$OLESTARTUP
290
     0
  0
ENDSEC
  0
SECTION
  2
CLASSES
  0
CLASS
  1
ACDBDICTIONARYWDFLT
  2
AcDbDictionaryWithDefault
  3
ObjectDBX Classes
 90
        0
280
     0
281
     0
  0
CLASS
  1
MATERIAL
  2
AcDbMaterial
  3
ObjectDBX Classes
 90
     1153
280
     0
281
     0
  0
CLASS
  1
SCALE
  2
AcDbScale
  3
ObjectDBX Classes
 90
     1153
280
     0
281
     0
  0
CLASS
  1
DICTIONARYVAR
  2
AcDbDictionaryVar
  3
ObjectDBX Classes
 90
        0
280
     0
281
     0
  0
CLASS
  1
VISUALSTYLE
  2
AcDbVisualStyle
  3
ObjectDBX Classes
 90
     4095
280
     0
281
     0
  0
CLASS
  1
TABLESTYLE
  2
AcDbTableStyle
  3
ObjectDBX Classes
 90
     4095
280
     0
281
     0
  0
CLASS
  1
MLEADERSTYLE
  2
AcDbMLeaderStyle
  3
ACDB_MLEADERSTYLE_CLASS
 90
     4095
280
     0
281
     0
  0
CLASS
  1
SORTENTSTABLE
  2
AcDbSortentsTable
  3
ObjectDBX Classes
 90
        0
280
     0
281
     0
  0
CLASS
  1
ACDBPLACEHOLDER
  2
AcDbPlaceHolder
  3
ObjectDBX Classes
 90
        0
280
     0
281
     0
  0
CLASS
  1
LAYOUT
  2
AcDbLayout
  3
ObjectDBX Classes
 90
        0
280
     0
281
     0
  0
ENDSEC
  0
SECTION
  2
TABLES
  0
TABLE
  2
VPORT
  5
24
102
{ACAD_XDICTIONARY
360
C23
102
}
330
0
100
AcDbSymbolTable
 70
     1
  0
VPORT
  5
29
330
24
100
AcDbSymbolTableRecord
100
AcDbViewportTableRecord
  2
*ACTIVE
 70
     0
 10
0.0
 20
0.0
 11
1.0
 21
1.0
 12
419.8678931504031
 22
235.2170674044846
 13
0.0
 23
0.0
 14
1.0
 24
1.0
 15
0.0
 25
0.0
 16
0.0
 26
0.0
 36
1.0
 17
0.0
 27
0.0
 37
0.0
 40
531.5666031506664
 41
2.171641791044776
 42
50.0
 43
0.0
 44
0.0
 50
0.0
 51
0.0
 71
     0
 72
 20000
 73
     1
 74
     0
 75
     0
 76
     0
 77
     0
 78
     0
281
     0
 65
     1
110
0.0
120
0.0
130
0.0
111
1.0
121
0.0
131
0.0
112
0.0
122
1.0
132
0.0
 79
     0
146
0.0
1001
ACAD_NAV_VCDISPLAY
1070
     3
  0
ENDTAB
  0
TABLE
  2
LTYPE
  5
B
330
0
100
AcDbSymbolTable
 70
     3
  0
LTYPE
  5
C
330
B
100
AcDbSymbolTableRecord
100
AcDbLinetypeTableRecord
  2
BYBLOCK
 70
     0
  3

 72
    65
 73
     0
 40
0.0
  0
LTYPE
  5
D
330
B
100
AcDbSymbolTableRecord
100
AcDbLinetypeTableRecord
  2
BYLAYER
 70
     0
  3

 72
    65
 73
     0
 40
0.0
  0
LTYPE
  5
A
330
B
100
AcDbSymbolTableRecord
100
AcDbLinetypeTableRecord
  2
CONTINUOUS
 70
     0
  3
Solid line
 72
    65
 73
     0
 40
0.0
  0
LTYPE
  5
2F1
330
B
100
AcDbSymbolTableRecord
100
AcDbLinetypeTableRecord
  2
DASHDOT
 70
     0
  3
__ . __ . __ . __ . __ . __ . __ . __ . __ . __
 72
    65
 73
     4
 40
8.0
 49
5.0
 74
     0
 49
-1.0
 74
     0
 49
1.0
 74
     0
 49
-1.0
 74
     0
  0
LTYPE
  5
52
330
B
100
AcDbSymbolTableRecord
100
AcDbLinetypeTableRecord
  2
CENTER
 70
     0
  3
____ _ ____ _ ____ _ ____ _ ____ _ ____ _ ____
 72
    65
 73
     4
 40
12.0
 49
9.0
 74
     0
 49
-1.0
 74
     0
 49
1.0
 74
     0
 49
-1.0
 74
     0
  0
ENDTAB
  0
TABLE
  2
LAYER
  5
2
330
0
100
AcDbSymbolTable
 70
    10
  0
LAYER
  5
19
330
2
100
AcDbSymbolTableRecord
100
AcDbLayerTableRecord
  2
0
 70
     0
 62
     7
  6
CONTINUOUS
370
    -3
390
3
  0
LAYER
  5
2C5
330
2
100
AcDbSymbolTableRecord
100
AcDbLayerTableRecord
  2
1
 70
     0
 62
     7
  6
CONTINUOUS
370
    -3
390
3
  0
LAYER
  5
1
330
2
100
AcDbSymbolTableRecord
100
AcDbLayerTableRecord
  2
2
 70
     0
 62
     4
  6
CONTINUOUS
370
    -3
390
3
  0
LAYER
  5
57
330
2
100
AcDbSymbolTableRecord
100
AcDbLayerTableRecord
  2
4
 70
     0
 62
     3
  6
CONTINUOUS
370
    -3
390
3
  0
LAYER
  5
51
330
2
100
AcDbSymbolTableRecord
100
AcDbLayerTableRecord
  2
L-CENTER
 70
     0
 62
     1
  6
CENTER
370
    -3
390
3
  0
LAYER
  5
5E
330
2
100
AcDbSymbolTableRecord
100
AcDbLayerTableRecord
  2
3
 70
     0
 62
     2
  6
CONTINUOUS
370
    -3
390
3
  0
LAYER
  5
43A
330
2
100
AcDbSymbolTableRecord
100
AcDbLayerTableRecord
  2
5
 70
     0
 62
     6
  6
CONTINUOUS
370
    -3
390
3
  0
LAYER
  5
BB6
330
2
100
AcDbSymbolTableRecord
100
AcDbLayerTableRecord
  2
Defpoints
 70
     0
 62
     7
  6
CONTINUOUS
290
     0
370
    -3
390
3
  0
ENDTAB
  0
TABLE
  2
STYLE
  5
F
330
0
100
AcDbSymbolTable
 70
     2
  0
STYLE
  5
13
330
F
100
AcDbSymbolTableRecord
100
AcDbTextStyleTableRecord
  2
STANDARD
 70
     0
 40
0.0
 41
1.0
 50
0.0
 71
     0
 42
2.7
  3
txt
  4

  0
STYLE
  5
E
330
F
100
AcDbSymbolTableRecord
100
AcDbTextStyleTableRecord
  2
KANJI
 70
     0
 40
0.0
 41
1.0
 50
0.0
 71
     0
 42
4.5
  3
TXT
  4
BIGFONT
  0
ENDTAB
  0
TABLE
  2
VIEW
  5
22
330
0
100
AcDbSymbolTable
 70
     0
  0
ENDTAB
  0
TABLE
  2
UCS
  5
23
330
0
100
AcDbSymbolTable
 70
     0
  0
ENDTAB
  0
TABLE
  2
APPID
  5
9
330
0
100
AcDbSymbolTable
 70
     7
  0
APPID
  5
8
330
9
100
AcDbSymbolTableRecord
100
AcDbRegAppTableRecord
  2
ACAD
 70
     0
  0
APPID
  5
1D
330
9
100
AcDbSymbolTableRecord
100
AcDbRegAppTableRecord
  2
ACAD_PSEXT
 70
     0
  0
APPID
  5
2A
330
9
100
AcDbSymbolTableRecord
100
AcDbRegAppTableRecord
  2
ACAD_NAV_VCDISPLAY
 70
     0
  0
APPID
  5
43E
330
9
100
AcDbSymbolTableRecord
100
AcDbRegAppTableRecord
  2
ACAD_EXEMPT_FROM_CAD_STANDARDS
 70
     0
  0
APPID
  5
43F
330
9
100
AcDbSymbolTableRecord
100
AcDbRegAppTableRecord
  2
ACAD_MLEADERVER
 70
     0
  0
ENDTAB
  0
TABLE
  2
DIMSTYLE
  5
12
330
0
100
AcDbSymbolTable
 70
     1
100
AcDbDimStyleTable
  0
DIMSTYLE
105
11
330
12
100
AcDbSymbolTableRecord
100
AcDbDimStyleTableRecord
  2
STANDARD
 70
     0
178
     0
340
13
  0
ENDTAB
  0
TABLE
  2
BLOCK_RECORD
  5
16
330
0
100
AcDbSymbolTable
 70
     0
  0
BLOCK_RECORD
  5
17
102
{ACAD_XDICTIONARY
360
B9E
102
}
330
16
100
AcDbSymbolTableRecord
100
AcDbBlockTableRecord
  2
*MODEL_SPACE
340
1B
  0
BLOCK_RECORD
  5
1E
330
16
100
AcDbSymbolTableRecord
100
AcDbBlockTableRecord
  2
*PAPER_SPACE
340
21
  0
ENDTAB
  0
ENDSEC
  0
SECTION
  2
BLOCKS
  0
BLOCK
  5
18
330
17
100
AcDbEntity
  8
0
100
AcDbBlockBegin
  2
*MODEL_SPACE
 70
     0
 10
0.0
 20
0.0
 30
0.0
  3
*MODEL_SPACE
  1

  0
ENDBLK
  5
1A
330
17
100
AcDbEntity
  8
0
100
AcDbBlockEnd
  0
BLOCK
  5
1F
330
1E
100
AcDbEntity
 67
     1
  8
0
100
AcDbBlockBegin
  2
*PAPER_SPACE
 70
     0
 10
0.0
 20
0.0
 30
0.0
  3
*PAPER_SPACE
  1

  0
ENDBLK
  5
20
330
1E
100
AcDbEntity
 67
     1
  8
0
100
AcDbBlockEnd
  0
ENDSEC
  0
SECTION
  2
ENTITIES
  0
CIRCLE
  5
56
330
17
100
AcDbEntity
  8
4
100
AcDbCircle
 10
407.3397501826136
 20
145.75016639246
 30
0.0
 40
20.0
  0
LINE
  5
70
330
17
100
AcDbEntity
  8
4
100
AcDbLine
 10
468.8397501826136
 20
45.75019539245989
 30
0.0
 11
469.8397506826135
 21
46.75019589246006
 31
0.0
  0
LINE
  5
71
330
17
100
AcDbEntity
  8
4
100
AcDbLine
 10
469.8397506826135
 20
75.75016739246007
 30
0.0
 11
469.8397506826135
 21
46.75019589246006
 31
0.0
  0
LINE
  5
72
330
17
100
AcDbEntity
  8
4
100
AcDbLine
 10
450.8397501826136
 20
72.74996739246001
 30
0.0
 11
448.8397506826135
 21
72.74996739246001
 31
0.0
  0
LINE
  5
73
330
17
100
AcDbEntity
  8
4
100
AcDbLine
 10
450.8397501826136
 20
46.75019589246006
 30
0.0
 11
451.8397506826135
 21
45.75019539245989
 31
0.0
  0
LINE
  5
74
330
17
100
AcDbEntity
  8
4
100
AcDbLine
 10
448.8397506826135
 20
45.75019539245989
 30
0.0
 11
448.8397506826135
 21
72.74996739246001
 31
0.0
  0
LINE
  5
75
330
17
100
AcDbEntity
  8
4
100
AcDbLine
 10
450.8397501826136
 20
75.75016739246007
 30
0.0
 11
450.8397501826136
 21
46.75039589246012
 31
0.0
  0
LINE
  5
76
330
17
100
AcDbEntity
  8
4
100
AcDbLine
 10
450.3397506826135
 20
75.75016739246007
 30
0.0
 11
470.3397501826136
 21
75.75016739246007
 31
0.0
  0
LINE
  5
77
330
17
100
AcDbEntity
  8
4
100
AcDbLine
 10
450.8397501826136
 20
46.75019589246006
 30
0.0
 11
469.8397506826135
 21
46.75019589246006
 31
0.0
  0
LINE
  5
78
330
17
100
AcDbEntity
  8
4
100
AcDbLine
 10
468.8397501826136
 20
45.75019539245989
 30
0.0
 11
448.8397506826135
 21
45.75019539245989
 31
0.0
  0
LINE
  5
79
330
17
100
AcDbEntity
  8
4
100
AcDbLine
 10
450.3397506826135
 20
90.7501658924599
 30
0.0
 11
450.3397506826135
 21
75.75016739246007
 31
0.0
  0
LINE
  5
7A
330
17
100
AcDbEntity
  8
4
100
AcDbLine
 10
470.3397501826136
 20
90.7501658924599
 30
0.0
 11
470.3397501826136
 21
75.75016739246007
 31
0.0
  0
LINE
  5
7D
330
17
100
AcDbEntity
  8
4
100
AcDbLine
 10
194.7802597814208
 20
96.65016589245988
 30
0.0
 11
194.7802597814208
 21
95.75014489246007
 31
0.0
  0
ARC
  5
7E
330
17
100
AcDbEntity
  8
4
100
AcDbCircle
 10
174.7802587814207
 20
70.24996689245984
 30
0.0
 40
2.5000005
100
AcDbArc
 50
0.0
 51
179.9996560012586
  0
LINE
  5
7F
330
17
100
AcDbEntity
  8
4
100
AcDbLine
 10
164.7802597814208
 20
75.75016739246007
 30
0.0
 11
184.7802592814207
 21
75.75016739246007
 31
0.0
  0
LINE
  5
80
330
17
100
AcDbEntity
  8
4
100
AcDbLine
 10
183.2802592814207
 20
45.75019539245989
 30
0.0
 11
184.2802597814208
 21
46.75019589246006
 31
0.0
  0
LINE
  5
83
330
17
100
AcDbEntity
  8
4
100
AcDbLine
 10
165.2802592814207
 20
46.75019589246006
 30
0.0
 11
166.2802597814208
 21
45.75019539245989
 31
0.0
  0
LINE
  5
84
330
17
100
AcDbEntity
  8
4
100
AcDbLine
 10
165.2802592814207
 20
46.75019589246006
 30
0.0
 11
172.2802597814208
 21
46.75019589246006
 31
0.0
  0
LINE
  5
85
330
17
100
AcDbEntity
  8
4
100
AcDbLine
 10
177.2802592814207
 20
46.75019589246006
 30
0.0
 11
184.2802597814208
 21
46.75019589246006
 31
0.0
  0
LINE
  5
86
330
17
100
AcDbEntity
  8
4
100
AcDbLine
 10
183.2802592814207
 20
45.75019539245989
 30
0.0
 11
166.2802597814208
 21
45.75019539245989
 31
0.0
  0
LINE
  5
87
330
17
100
AcDbEntity
  8
4
100
AcDbLine
 10
177.2802592814207
 20
70.24996689245984
 30
0.0
 11
177.2802592814207
 21
45.75019539245989
 31
0.0
  0
LINE
  5
88
330
17
100
AcDbEntity
  8
4
100
AcDbLine
 10
172.2802597814208
 20
70.24996689245984
 30
0.0
 11
172.2802597814208
 21
45.75019539245989
 31
0.0
  0
LINE
  5
89
330
17
100
AcDbEntity
  8
4
100
AcDbLine
 10
184.2802597814208
 20
75.75016739246007
 30
0.0
 11
184.2802597814208
 21
46.75019589246006
 31
0.0
  0
LINE
  5
8A
330
17
100
AcDbEntity
  8
4
100
AcDbLine
 10
165.2802592814207
 20
75.75016739246007
 30
0.0
 11
165.2802592814207
 21
46.75019589246006
 31
0.0
  0
LINE
  5
8B
330
17
100
AcDbEntity
  8
4
100
AcDbLine
 10
184.7802592814207
 20
95.75014489245996
 30
0.0
 11
184.7802592814207
 21
75.75016739246007
 31
0.0
  0
LINE
  5
8C
330
17
100
AcDbEntity
  8
4
100
AcDbLine
 10
164.7802597814208
 20
95.75014489245996
 30
0.0
 11
164.7802597814208
 21
75.75016739246007
 31
0.0
  0
LINE
  5
8D
330
17
100
AcDbEntity
  8
4
100
AcDbLine
 10
154.7804107814208
 20
96.65016589245988
 30
0.0
 11
154.7804107814208
 21
95.75014489246007
 31
0.0
  0
LINE
  5
8E
330
17
100
AcDbEntity
  8
4
100
AcDbLine
 10
154.7804107814208
 20
95.75014489246007
 30
0.0
 11
194.7802597814208
 21
95.75014489246007
 31
0.0
  0
LINE
  5
8F
330
17
100
AcDbEntity
  8
2
100
AcDbLine
 10
139.6571527691269
 20
351.7444648807805
 30
0.0
 11
139.6571527691269
 21
354.0538659575391
 31
0.0
  0
LINE
  5
90
330
17
100
AcDbEntity
  8
2
100
AcDbLine
 10
137.6571527691269
 20
355.2085664959184
 30
0.0
 11
135.6571527691269
 21
354.0538659575391
 31
0.0
  0
LINE
  5
91
330
17
100
AcDbEntity
  8
2
100
AcDbLine
 10
135.6571527691269
 20
351.7444648807805
 30
0.0
 11
137.6571527691269
 21
350.5897643424012
 31
0.0
  0
LINE
  5
92
330
17
100
AcDbEntity
  8
2
100
AcDbLine
 10
135.6571527691269
 20
354.0538659575391
 30
0.0
 11
135.6571527691269
 21
351.7444648807805
 31
0.0
  0
CIRCLE
  5
93
330
17
100
AcDbEntity
  8
4
100
AcDbCircle
 10
137.6571527691269
 20
352.8991654191598
 30
0.0
 40
4.25
  0
LINE
  5
95
330
17
100
AcDbEntity
  8
2
100
AcDbLine
 10
139.6571527691269
 20
354.0538659575391
 30
0.0
 11
137.6571527691269
 21
355.2085664959184
 31
0.0
  0
LINE
  5
96
330
17
100
AcDbEntity
  8
2
100
AcDbLine
 10
137.6571527691269
 20
350.5897643424012
 30
0.0
 11
139.6571527691269
 21
351.7444648807805
 31
0.0
  0
LINE
  5
97
330
17
100
AcDbEntity
  8
2
100
AcDbLine
 10
213.9033647937146
 20
351.7444648807805
 30
0.0
 11
213.9033647937146
 21
354.0538659575391
 31
0.0
  0
LINE
  5
98
330
17
100
AcDbEntity
  8
2
100
AcDbLine
 10
211.9033647937146
 20
355.2085664959184
 30
0.0
 11
209.9033647937146
 21
354.0538659575391
 31
0.0
  0
LINE
  5
99
330
17
100
AcDbEntity
  8
2
100
AcDbLine
 10
209.9033647937146
 20
351.7444648807805
 30
0.0
 11
211.9033647937146
 21
350.5897643424012
 31
0.0
  0
LINE
  5
9A
330
17
100
AcDbEntity
  8
2
100
AcDbLine
 10
209.9033647937146
 20
354.0538659575391
 30
0.0
 11
209.9033647937146
 21
351.7444648807805
 31
0.0
  0
CIRCLE
  5
9B
330
17
100
AcDbEntity
  8
4
100
AcDbCircle
 10
211.9033647937146
 20
352.8991654191598
 30
0.0
 40
4.25
  0
LINE
  5
9D
330
17
100
AcDbEntity
  8
2
100
AcDbLine
 10
213.9033647937146
 20
354.0538659575391
 30
0.0
 11
211.9033647937146
 21
355.2085664959184
 31
0.0
  0
LINE
  5
9E
330
17
100
AcDbEntity
  8
2
100
AcDbLine
 10
211.9033647937146
 20
350.5897643424012
 30
0.0
 11
213.9033647937146
 21
351.7444648807805
 31
0.0
  0
LINE
  5
9F
330
17
100
AcDbEntity
  8
2
100
AcDbLine
 10
213.9033647937146
 20
425.9906769053678
 30
0.0
 11
213.9033647937146
 21
428.3000779821264
 31
0.0
  0
LINE
  5
A0
330
17
100
AcDbEntity
  8
2
100
AcDbLine
 10
211.9033647937146
 20
429.4547785205057
 30
0.0
 11
209.9033647937146
 21
428.3000779821264
 31
0.0
  0
LINE
  5
A1
330
17
100
AcDbEntity
  8
2
100
AcDbLine
 10
209.9033647937146
 20
425.9906769053678
 30
0.0
 11
211.9033647937146
 21
424.8359763669885
 31
0.0
  0
LINE
  5
A2
330
17
100
AcDbEntity
  8
2
100
AcDbLine
 10
209.9033647937146
 20
428.3000779821264
 30
0.0
 11
209.9033647937146
 21
425.9906769053678
 31
0.0
  0
CIRCLE
  5
A3
330
17
100
AcDbEntity
  8
4
100
AcDbCircle
 10
211.9033647937146
 20
427.1453774437471
 30
0.0
 40
4.25
  0
LINE
  5
A5
330
17
100
AcDbEntity
  8
2
100
AcDbLine
 10
213.9033647937146
 20
428.3000779821264
 30
0.0
 11
211.9033647937146
 21
429.4547785205057
 31
0.0
  0
LINE
  5
A6
330
17
100
AcDbEntity
  8
2
100
AcDbLine
 10
211.9033647937146
 20
424.8359763669885
 30
0.0
 11
213.9033647937146
 21
425.9906769053678
 31
0.0
  0
LINE
  5
A7
330
17
100
AcDbEntity
  8
2
100
AcDbLine
 10
139.6571527691269
 20
425.9906769053678
 30
0.0
 11
139.6571527691269
 21
428.3000779821264
 31
0.0
  0
LINE
  5
A8
330
17
100
AcDbEntity
  8
2
100
AcDbLine
 10
137.6571527691269
 20
429.4547785205059
 30
0.0
 11
135.6571527691269
 21
428.3000779821264
 31
0.0
  0
LINE
  5
A9
330
17
100
AcDbEntity
  8
2
100
AcDbLine
 10
135.6571527691269
 20
425.9906769053678
 30
0.0
 11
137.6571527691269
 21
424.8359763669887
 31
0.0
  0
LINE
  5
AA
330
17
100
AcDbEntity
  8
2
100
AcDbLine
 10
135.6571527691269
 20
428.3000779821264
 30
0.0
 11
135.6571527691269
 21
425.9906769053678
 31
0.0
  0
CIRCLE
  5
AB
330
17
100
AcDbEntity
  8
4
100
AcDbCircle
 10
137.6571527691269
 20
427.1453774437473
 30
0.0
 40
4.25
  0
LINE
  5
AD
330
17
100
AcDbEntity
  8
2
100
AcDbLine
 10
139.6571527691269
 20
428.3000779821264
 30
0.0
 11
137.6571527691269
 21
429.4547785205059
 31
0.0
  0
LINE
  5
AE
330
17
100
AcDbEntity
  8
2
100
AcDbLine
 10
137.6571527691269
 20
424.8359763669887
 30
0.0
 11
139.6571527691269
 21
425.9906769053678
 31
0.0
  0
LINE
  5
AF
330
17
100
AcDbEntity
  8
4
100
AcDbLine
 10
141.9071527691269
 20
187.9500348924598
 30
0.0
 11
141.9071527691269
 21
186.6500348924599
 31
0.0
  0
LINE
  5
B0
330
17
100
AcDbEntity
  8
4
100
AcDbLine
 10
141.9071527691269
 20
187.9500348924598
 30
0.0
 11
141.9071527691269
 21
192.9500348924597
 31
0.0
  0
LINE
  5
B1
330
17
100
AcDbEntity
  8
4
100
AcDbLine
 10
133.4071527691269
 20
187.9500348924598
 30
0.0
 11
133.4071527691269
 21
186.6500348924599
 31
0.0
  0
LINE
  5
B2
330
17
100
AcDbEntity
  8
4
100
AcDbLine
 10
133.4071527691269
 20
192.9500348924597
 30
0.0
 11
133.4071527691269
 21
187.9500348924598
 31
0.0
  0
LINE
  5
B3
330
17
100
AcDbEntity
  8
4
100
AcDbLine
 10
141.9071527691269
 20
192.9500348924597
 30
0.0
 11
133.4071527691269
 21
192.9500348924597
 31
0.0
  0
LINE
  5
B4
330
17
100
AcDbEntity
  8
4
100
AcDbLine
 10
133.4071527691269
 20
187.9500348924598
 30
0.0
 11
141.9071527691269
 21
187.9500348924598
 31
0.0
  0
LINE
  5
B5
330
17
100
AcDbEntity
  8
4
100
AcDbLine
 10
133.4071527691269
 20
186.6500348924599
 30
0.0
 11
141.9071527691269
 21
186.6500348924599
 31
0.0
  0
LINE
  5
B6
330
17
100
AcDbEntity
  8
4
100
AcDbLine
 10
216.1533647937146
 20
187.9500348924598
 30
0.0
 11
216.1533647937146
 21
186.6500348924599
 31
0.0
  0
LINE
  5
B7
330
17
100
AcDbEntity
  8
4
100
AcDbLine
 10
216.1533647937146
 20
187.9500348924598
 30
0.0
 11
216.1533647937146
 21
192.9500348924597
 31
0.0
  0
LINE
  5
B8
330
17
100
AcDbEntity
  8
4
100
AcDbLine
 10
207.6533647937146
 20
187.9500348924598
 30
0.0
 11
207.6533647937146
 21
186.6500348924599
 31
0.0
  0
LINE
  5
B9
330
17
100
AcDbEntity
  8
4
100
AcDbLine
 10
207.6533647937146
 20
192.9500348924597
 30
0.0
 11
207.6533647937146
 21
187.9500348924598
 31
0.0
  0
LINE
  5
BA
330
17
100
AcDbEntity
  8
4
100
AcDbLine
 10
216.1533647937146
 20
192.9500348924597
 30
0.0
 11
207.6533647937146
 21
192.9500348924597
 31
0.0
  0
LINE
  5
BB
330
17
100
AcDbEntity
  8
4
100
AcDbLine
 10
207.6533647937146
 20
187.9500348924598
 30
0.0
 11
216.1533647937146
 21
187.9500348924598
 31
0.0
  0
LINE
  5
BC
330
17
100
AcDbEntity
  8
4
100
AcDbLine
 10
207.6533647937146
 20
186.6500348924599
 30
0.0
 11
216.1533647937146
 21
186.6500348924599
 31
0.0
  0
LINE
  5
BD
330
17
100
AcDbEntity
  8
4
100
AcDbLine
 10
501.7123136826134
 20
187.9500348924598
 30
0.0
 11
501.7123136826134
 21
186.6500348924599
 31
0.0
  0
LINE
  5
BE
330
17
100
AcDbEntity
  8
4
100
AcDbLine
 10
501.7123136826134
 20
187.9500348924598
 30
0.0
 11
501.7123136826134
 21
192.9500348924597
 31
0.0
  0
LINE
  5
BF
330
17
100
AcDbEntity
  8
4
100
AcDbLine
 10
493.2123136826134
 20
187.9500348924598
 30
0.0
 11
493.2123136826134
 21
186.6500348924599
 31
0.0
  0
LINE
  5
C0
330
17
100
AcDbEntity
  8
4
100
AcDbLine
 10
497.0411109735145
 20
187.9500348924598
 30
0.0
 11
496.4623136826134
 21
186.6500348924599
 31
0.0
  0
LINE
  5
C1
330
17
100
AcDbEntity
  8
4
100
AcDbLine
 10
493.2123136826134
 20
192.9500348924597
 30
0.0
 11
493.2123136826134
 21
187.9500348924598
 31
0.0
  0
LINE
  5
C2
330
17
100
AcDbEntity
  8
4
100
AcDbLine
 10
498.0411109735145
 20
187.9500348924598
 30
0.0
 11
497.4623136826134
 21
186.6500348924599
 31
0.0
  0
LINE
  5
C3
330
17
100
AcDbEntity
  8
4
100
AcDbLine
 10
501.7123136826134
 20
192.9500348924597
 30
0.0
 11
493.2123136826134
 21
192.9500348924597
 31
0.0
  0
LINE
  5
C4
330
17
100
AcDbEntity
  8
4
100
AcDbLine
 10
493.2123136826134
 20
187.9500348924598
 30
0.0
 11
501.7123136826134
 21
187.9500348924598
 31
0.0
  0
LINE
  5
C5
330
17
100
AcDbEntity
  8
4
100
AcDbLine
 10
493.2123136826134
 20
186.6500348924599
 30
0.0
 11
501.7123136826134
 21
186.6500348924599
 31
0.0
  0
LINE
  5
C6
330
17
100
AcDbEntity
  8
4
100
AcDbLine
 10
427.4669441826135
 20
187.9500348924598
 30
0.0
 11
427.4669441826135
 21
186.6500348924599
 31
0.0
  0
LINE
  5
C7
330
17
100
AcDbEntity
  8
4
100
AcDbLine
 10
427.4669441826135
 20
187.9500348924598
 30
0.0
 11
427.4669441826135
 21
192.9500348924597
 31
0.0
  0
LINE
  5
C8
330
17
100
AcDbEntity
  8
4
100
AcDbLine
 10
418.9669441826135
 20
187.9500348924598
 30
0.0
 11
418.9669441826135
 21
186.6500348924599
 31
0.0
  0
LINE
  5
C9
330
17
100
AcDbEntity
  8
4
100
AcDbLine
 10
422.7957414735146
 20
187.9500348924598
 30
0.0
 11
422.2169441826135
 21
186.6500348924599
 31
0.0
  0
LINE
  5
CA
330
17
100
AcDbEntity
  8
4
100
AcDbLine
 10
418.9669441826135
 20
192.9500348924597
 30
0.0
 11
418.9669441826135
 21
187.9500348924598
 31
0.0
  0
LINE
  5
CB
330
17
100
AcDbEntity
  8
4
100
AcDbLine
 10
423.7957414735146
 20
187.9500348924598
 30
0.0
 11
423.2169441826135
 21
186.6500348924599
 31
0.0
  0
LINE
  5
CC
330
17
100
AcDbEntity
  8
4
100
AcDbLine
 10
427.4669441826135
 20
192.9500348924597
 30
0.0
 11
418.9669441826135
 21
192.9500348924597
 31
0.0
  0
LINE
  5
CD
330
17
100
AcDbEntity
  8
4
100
AcDbLine
 10
418.9669441826135
 20
187.9500348924598
 30
0.0
 11
427.4669441826135
 21
187.9500348924598
 31
0.0
  0
LINE
  5
CE
330
17
100
AcDbEntity
  8
4
100
AcDbLine
 10
418.9669441826135
 20
186.6500348924599
 30
0.0
 11
427.4669441826135
 21
186.6500348924599
 31
0.0
  0
LINE
  5
CF
330
17
100
AcDbEntity
  8
4
100
AcDbLine
 10
404.8397511826134
 20
154.75016639246
 30
0.0
 11
409.8397506826135
 21
154.75016639246
 31
0.0
  0
LINE
  5
D0
330
17
100
AcDbEntity
  8
4
100
AcDbLine
 10
409.8397506826135
 20
149.7501653924598
 30
0.0
 11
404.8397511826134
 21
149.7501653924598
 31
0.0
  0
ARC
  5
D1
330
17
100
AcDbEntity
  8
4
100
AcDbCircle
 10
407.3397501826136
 20
145.75016639246
 30
0.0
 40
6.99999
100
AcDbArc
 50
110.9248859999994
 51
69.07515800000034
  0
LINE
  5
D2
330
17
100
AcDbEntity
  8
4
100
AcDbLine
 10
404.8397511826134
 20
149.7501653924598
 30
0.0
 11
404.8397511826134
 21
154.75016639246
 31
0.0
  0
LINE
  5
D3
330
17
100
AcDbEntity
  8
4
100
AcDbLine
 10
409.8397506826135
 20
149.7501653924598
 30
0.0
 11
409.8397506826135
 21
154.75016639246
 31
0.0
  0
LINE
  5
ED
330
17
100
AcDbEntity
  8
4
100
AcDbLine
 10
284.7802597814206
 20
151.75016639246
 30
0.0
 11
283.7802592814209
 21
152.7501653924598
 31
0.0
  0
LINE
  5
EF
330
17
100
AcDbEntity
  8
4
100
AcDbLine
 10
257.7802597814208
 20
152.7501653924598
 30
0.0
 11
257.7802597814208
 21
154.75016639246
 31
0.0
  0
LINE
  5
F0
330
17
100
AcDbEntity
  8
4
100
AcDbLine
 10
284.7802597814206
 20
154.75016639246
 30
0.0
 11
257.7802597814208
 21
154.75016639246
 31
0.0
  0
LINE
  5
F3
330
17
100
AcDbEntity
  8
4
100
AcDbLine
 10
238.7801677814208
 20
154.2501653924598
 30
0.0
 11
254.7802597814208
 21
154.2501653924598
 31
0.0
  0
LINE
  5
F4
330
17
100
AcDbEntity
  8
4
100
AcDbLine
 10
254.7802597814208
 20
152.7501653924598
 30
0.0
 11
283.7802592814209
 21
152.7501653924598
 31
0.0
  0
LINE
  5
F5
330
17
100
AcDbEntity
  8
4
100
AcDbLine
 10
283.7802592814209
 20
138.7501658924599
 30
0.0
 11
284.7802597814206
 21
139.7501663924598
 31
0.0
  0
LINE
  5
F6
330
17
100
AcDbEntity
  8
4
100
AcDbLine
 10
238.7801677814208
 20
137.2501658924599
 30
0.0
 11
254.7802597814208
 21
137.2501658924599
 31
0.0
  0
LINE
  5
F7
330
17
100
AcDbEntity
  8
4
100
AcDbLine
 10
254.7802597814208
 20
138.7501658924599
 30
0.0
 11
283.7802592814209
 21
138.7501658924599
 31
0.0
  0
LINE
  5
F8
330
17
100
AcDbEntity
  8
4
100
AcDbLine
 10
254.7802597814208
 20
137.2501658924599
 30
0.0
 11
254.7802597814208
 21
154.2501653924598
 31
0.0
  0
LINE
  5
F9
330
17
100
AcDbEntity
  8
4
100
AcDbLine
 10
284.7802597814206
 20
154.75016639246
 30
0.0
 11
284.7802597814206
 21
139.7501663924598
 31
0.0
  0
LINE
  5
FA
330
17
100
AcDbEntity
  8
4
100
AcDbLine
 10
283.7802592814209
 20
152.7501653924598
 30
0.0
 11
283.7802592814209
 21
138.7501658924599
 31
0.0
  0
LINE
  5
FB
330
17
100
AcDbEntity
  8
L-CENTER
  6
CENTER
 62
     1
 48
0.5
100
AcDbLine
 10
286.7271127814207
 20
145.75016639246
 30
0.0
 11
62.83340478142073
 21
145.75016639246
 31
0.0
  0
LINE
  5
FC
330
17
100
AcDbEntity
  8
L-CENTER
 48
0.5
100
AcDbLine
 10
137.6571527691269
 20
194.0615330424392
 30
0.0
 11
137.6571527691269
 21
172.368642837615
 31
0.0
  0
LINE
  5
FD
330
17
100
AcDbEntity
  8
L-CENTER
 48
0.5
100
AcDbLine
 10
211.9033647937146
 20
194.0615330424392
 30
0.0
 11
211.9033647937146
 21
172.368642837615
 31
0.0
  0
LINE
  5
114
330
17
100
AcDbEntity
  8
4
100
AcDbLine
 10
521.3397501826136
 20
160.75016639246
 30
0.0
 11
520.3397511826134
 21
160.75016639246
 31
0.0
  0
LINE
  5
115
330
17
100
AcDbEntity
  8
4
100
AcDbLine
 10
521.3397501826136
 20
157.2499373924599
 30
0.0
 11
522.8397501826136
 21
157.2499373924599
 31
0.0
  0
LINE
  5
116
330
17
100
AcDbEntity
  8
4
100
AcDbLine
 10
524.8397511826134
 20
151.9999373924599
 30
0.0
 11
529.8397506826135
 21
151.9999373924599
 31
0.0
  0
LINE
  5
117
330
17
100
AcDbEntity
  8
4
100
AcDbLine
 10
529.8397506826135
 20
158.2499363924599
 30
0.0
 11
522.8397501826136
 21
158.2499363924599
 31
0.0
  0
LINE
  5
11A
330
17
100
AcDbEntity
  8
4
100
AcDbLine
 10
521.3397501826136
 20
134.2499363924599
 30
0.0
 11
522.8397501826136
 21
134.2499363924599
 31
0.0
  0
LINE
  5
11B
330
17
100
AcDbEntity
  8
4
100
AcDbLine
 10
524.8397511826134
 20
139.4999363924599
 30
0.0
 11
529.8397506826135
 21
139.4999363924599
 31
0.0
  0
LINE
  5
11C
330
17
100
AcDbEntity
  8
4
100
AcDbLine
 10
522.8397501826136
 20
133.2499373924599
 30
0.0
 11
529.8397506826135
 21
133.2499373924599
 31
0.0
  0
LINE
  5
11F
330
17
100
AcDbEntity
  8
4
100
AcDbLine
 10
521.3397501826136
 20
157.2499373924599
 30
0.0
 11
521.3397501826136
 21
134.2499363924599
 31
0.0
  0
LINE
  5
120
330
17
100
AcDbEntity
  8
4
100
AcDbLine
 10
522.8397501826136
 20
158.2499363924599
 30
0.0
 11
522.8397501826136
 21
133.2499373924599
 31
0.0
  0
LINE
  5
121
330
17
100
AcDbEntity
  8
4
100
AcDbLine
 10
524.8397511826134
 20
158.2499363924599
 30
0.0
 11
524.8397511826134
 21
133.2499373924599
 31
0.0
  0
LINE
  5
122
330
17
100
AcDbEntity
  8
4
100
AcDbLine
 10
529.8397506826135
 20
158.2499363924599
 30
0.0
 11
529.8397506826135
 21
133.2499373924599
 31
0.0
  0
LINE
  5
123
330
17
100
AcDbEntity
  8
4
100
AcDbLine
 10
520.3397511826134
 20
175.75016639246
 30
0.0
 11
520.3397511826134
 21
160.75016639246
 31
0.0
  0
ARC
  5
124
330
17
100
AcDbEntity
  8
4
100
AcDbCircle
 10
517.3397511826134
 20
185.6500343924599
 30
0.0
 40
1.0000005
100
AcDbArc
 50
0.0
 51
90.0
  0
LINE
  5
125
330
17
100
AcDbEntity
  8
4
100
AcDbLine
 10
518.3397501826136
 20
175.75016639246
 30
0.0
 11
518.3397501826136
 21
178.7501633924599
 31
0.0
  0
LINE
  5
126
330
17
100
AcDbEntity
  8
4
100
AcDbLine
 10
518.3397501826136
 20
178.7501333924599
 30
0.0
 11
518.3397501826136
 21
185.6500343924599
 31
0.0
  0
LINE
  5
128
330
17
100
AcDbEntity
  8
4
100
AcDbLine
 10
486.3397506826135
 20
194.6498873924598
 30
0.0
 11
487.3397511826134
 21
189.6498878924598
 31
0.0
  0
LINE
  5
129
330
17
100
AcDbEntity
  8
4
100
AcDbLine
 10
480.3397506826135
 20
194.6498873924598
 30
0.0
 11
480.3397506826135
 21
195.6498878924598
 31
0.0
  0
LINE
  5
12B
330
17
100
AcDbEntity
  8
4
100
AcDbLine
 10
487.3397511826134
 20
189.6498878924598
 30
0.0
 11
492.8621106826134
 21
188.5454558924599
 31
0.0
  0
LINE
  5
12C
330
17
100
AcDbEntity
  8
L-CENTER
  6
CENTER
 62
     1
 48
0.5
100
AcDbLine
 10
497.4623136826134
 20
172.368642837615
 30
0.0
 11
497.4623136826134
 21
194.0615330424392
 31
0.0
  0
LINE
  5
12E
330
17
100
AcDbEntity
  8
4
100
AcDbLine
 10
522.3397806826134
 20
128.6410508924599
 30
0.0
 11
522.3397806826134
 21
123.7499363924599
 31
0.0
  0
LINE
  5
12F
330
17
100
AcDbEntity
  8
4
100
AcDbLine
 10
522.3397806826134
 20
128.6410508924599
 30
0.0
 11
521.3397501826136
 21
128.5004258924599
 31
0.0
  0
LINE
  5
130
330
17
100
AcDbEntity
  8
4
100
AcDbLine
 10
522.3397806826134
 20
118.85882339246
 30
0.0
 11
521.3397501826136
 21
118.9996928924598
 31
0.0
  0
LINE
  5
131
330
17
100
AcDbEntity
  8
4
100
AcDbLine
 10
522.3397806826134
 20
118.85882339246
 30
0.0
 11
522.3397806826134
 21
123.7499363924599
 31
0.0
  0
LINE
  5
132
330
17
100
AcDbEntity
  8
4
100
AcDbLine
 10
521.3397501826136
 20
113.7501653924598
 30
0.0
 11
520.3397511826134
 21
113.7501653924598
 31
0.0
  0
LINE
  5
136
330
17
100
AcDbEntity
  8
4
100
AcDbLine
 10
518.3397501826136
 20
110.7501653924598
 30
0.0
 11
507.3397506826135
 21
110.7501653924598
 31
0.0
  0
ARC
  5
137
330
17
100
AcDbEntity
  8
4
100
AcDbCircle
 10
501.3397506826135
 20
99.7501658924599
 30
0.0
 40
1.0000005
100
AcDbArc
 50
0.0
 51
90.0
  0
ARC
  5
138
330
17
100
AcDbEntity
  8
4
100
AcDbCircle
 10
507.3397506826135
 20
105.7501658924599
 30
0.0
 40
4.9999995
100
AcDbArc
 50
90.0
 51
180.0
  0
ARC
  5
139
330
17
100
AcDbEntity
  8
4
100
AcDbCircle
 10
481.3397511826134
 20
99.7501658924599
 30
0.0
 40
1.0000005
100
AcDbArc
 50
90.0
 51
180.0008589993967
  0
ARC
  5
13A
330
17
100
AcDbEntity
  8
4
100
AcDbCircle
 10
477.3397506826135
 20
87.7501658924599
 30
0.0
 40
3.0
100
AcDbArc
 50
0.0
 51
90.0
  0
LINE
  5
13B
330
17
100
AcDbEntity
  8
4
100
AcDbLine
 10
481.3397511826134
 20
100.7501663924598
 30
0.0
 11
501.3397506826135
 21
100.7501663924598
 31
0.0
  0
LINE
  5
13F
330
17
100
AcDbEntity
  8
4
100
AcDbLine
 10
480.3397506826135
 20
85.75016639245985
 30
0.0
 11
502.3397511826134
 21
85.75016639245985
 31
0.0
  0
LINE
  5
140
330
17
100
AcDbEntity
  8
4
100
AcDbLine
 10
502.3397511826134
 20
105.7501658924599
 30
0.0
 11
502.3397511826134
 21
85.75016639245985
 31
0.0
  0
LINE
  5
141
330
17
100
AcDbEntity
  8
4
100
AcDbLine
 10
480.3397506826135
 20
99.7501658924599
 30
0.0
 11
480.3397506826135
 21
85.75016639245985
 31
0.0
  0
LINE
  5
142
330
17
100
AcDbEntity
  8
L-CENTER
  6
CENTER
 62
     1
 48
0.5
100
AcDbLine
 10
491.3397501826136
 20
80.78141639245985
 30
0.0
 11
491.3397501826136
 21
105.7501663924598
 31
0.0
  0
ARC
  5
144
330
17
100
AcDbEntity
  8
4
100
AcDbCircle
 10
518.3397501826136
 20
112.7501663924598
 30
0.0
 40
1.9999995
100
AcDbArc
 50
270.0
 51
0.0
  0
LINE
  5
145
330
17
100
AcDbEntity
  8
L-CENTER
  6
CENTER
 62
     1
 48
0.5
100
AcDbLine
 10
523.7537586826135
 20
123.7501658924599
 30
0.0
 11
513.9756708417482
 21
123.7501658924599
 31
0.0
  0
LINE
  5
147
330
17
100
AcDbEntity
  8
4
100
AcDbLine
 10
520.3397511826134
 20
112.7501663924598
 30
0.0
 11
520.3397511826134
 21
160.75016639246
 31
0.0
  0
LINE
  5
148
330
17
100
AcDbEntity
  8
4
100
AcDbLine
 10
521.3397501826136
 20
113.7501653924598
 30
0.0
 11
521.3397501826136
 21
160.75016639246
 31
0.0
  0
LINE
  5
14F
330
17
100
AcDbEntity
  8
L-CENTER
  6
CENTER
 62
     1
 48
0.5
100
AcDbLine
 10
460.3397511826134
 20
43.78977070736724
 30
0.0
 11
460.3397511826134
 21
203.0634180562599
 31
0.0
  0
LINE
  5
15D
330
17
100
AcDbEntity
  8
4
100
AcDbLine
 10
433.3397511826134
 20
189.6498878924598
 30
0.0
 11
427.8166926826135
 21
188.5453163924599
 31
0.0
  0
LINE
  5
15E
330
17
100
AcDbEntity
  8
4
100
AcDbLine
 10
434.3201421826135
 20
194.6498873924598
 30
0.0
 11
433.3397511826134
 21
189.6498878924598
 31
0.0
  0
LINE
  5
15F
330
17
100
AcDbEntity
  8
4
100
AcDbLine
 10
440.3397501826136
 20
194.6498873924598
 30
0.0
 11
440.3397501826136
 21
195.6498878924598
 31
0.0
  0
ARC
  5
160
330
17
100
AcDbEntity
  8
4
100
AcDbCircle
 10
403.3397511826134
 20
185.6500343924599
 30
0.0
 40
1.0000005
100
AcDbArc
 50
90.0
 51
180.0008589993967
  0
LINE
  5
161
330
17
100
AcDbEntity
  8
4
100
AcDbLine
 10
402.3397506826135
 20
175.75016639246
 30
0.0
 11
402.3397506826135
 21
178.7501633924599
 31
0.0
  0
LINE
  5
162
330
17
100
AcDbEntity
  8
4
100
AcDbLine
 10
400.3397511826134
 20
174.6687608924599
 30
0.0
 11
400.3397511826134
 21
175.75016639246
 31
0.0
  0
LINE
  5
163
330
17
100
AcDbEntity
  8
4
100
AcDbLine
 10
402.3397506826135
 20
178.7501333924599
 30
0.0
 11
402.3397506826135
 21
185.6500343924599
 31
0.0
  0
LINE
  5
164
330
17
100
AcDbEntity
  8
4
100
AcDbLine
 10
407.3395071826136
 20
174.7504253924599
 30
0.0
 11
436.0342506826133
 21
174.7504253924599
 31
0.0
  0
LINE
  5
165
330
17
100
AcDbEntity
  8
L-CENTER
  6
CENTER
 62
     1
 48
0.5
100
AcDbLine
 10
423.2169441826135
 20
172.368642837615
 30
0.0
 11
423.2169441826135
 21
194.0615330424392
 31
0.0
  0
ARC
  5
166
330
17
100
AcDbEntity
  8
4
100
AcDbCircle
 10
380.4456846826134
 20
171.5343908924599
 30
0.0
 40
1.9999995
100
AcDbArc
 50
95.17785900000155
 51
175.0858700000005
  0
ARC
  5
167
330
17
100
AcDbEntity
  8
4
100
AcDbCircle
 10
407.3395071826136
 20
-125.2495746075401
 30
0.0
 40
300.0
100
AcDbArc
 50
89.99990700000004
 51
95.177859
  0
ARC
  5
168
330
17
100
AcDbEntity
  8
4
100
AcDbCircle
 10
439.3397511826134
 20
99.7501658924599
 30
0.0
 40
1.0000005
100
AcDbArc
 50
0.0
 51
90.0
  0
ARC
  5
169
330
17
100
AcDbEntity
  8
4
100
AcDbCircle
 10
443.3397501826136
 20
87.7501658924599
 30
0.0
 40
3.0
100
AcDbArc
 50
90.0
 51
180.0005730004366
  0
ARC
  5
16A
330
17
100
AcDbEntity
  8
4
100
AcDbCircle
 10
413.3397501826136
 20
111.7501658924599
 30
0.0
 40
4.9999995
100
AcDbArc
 50
0.0
 51
90.0
  0
LINE
  5
16B
330
17
100
AcDbEntity
  8
4
100
AcDbLine
 10
407.3397501826136
 20
116.7501653924598
 30
0.0
 11
413.3397501826136
 21
116.7501653924598
 31
0.0
  0
ARC
  5
16C
330
17
100
AcDbEntity
  8
4
100
AcDbCircle
 10
419.3397501826136
 20
99.7501658924599
 30
0.0
 40
1.0000005
100
AcDbArc
 50
90.0
 51
180.0008589993967
  0
LINE
  5
16D
330
17
100
AcDbEntity
  8
4
100
AcDbLine
 10
439.3397511826134
 20
100.7501663924598
 30
0.0
 11
419.3397501826136
 21
100.7501663924598
 31
0.0
  0
LINE
  5
171
330
17
100
AcDbEntity
  8
4
100
AcDbLine
 10
440.3397501826136
 20
85.75016639245985
 30
0.0
 11
418.3397511826134
 21
85.75016639245985
 31
0.0
  0
LINE
  5
172
330
17
100
AcDbEntity
  8
4
100
AcDbLine
 10
440.3397501826136
 20
99.7501658924599
 30
0.0
 11
440.3397501826136
 21
85.75016639245985
 31
0.0
  0
LINE
  5
173
330
17
100
AcDbEntity
  8
4
100
AcDbLine
 10
418.3397511826134
 20
111.7501658924599
 30
0.0
 11
418.3397511826134
 21
85.75016639245985
 31
0.0
  0
LINE
  5
174
330
17
100
AcDbEntity
  8
L-CENTER
  6
CENTER
 62
     1
 48
0.5
100
AcDbLine
 10
429.3397506826135
 20
80.75016639245985
 30
0.0
 11
429.3397506826135
 21
105.7501663924598
 31
0.0
  0
ARC
  5
175
330
17
100
AcDbEntity
  8
4
100
AcDbCircle
 10
380.4456201826134
 20
119.9662283924599
 30
0.0
 40
1.9999995
100
AcDbArc
 50
184.9139879999998
 51
264.8220819999996
  0
ARC
  5
176
330
17
100
AcDbEntity
  8
4
100
AcDbCircle
 10
407.3397501826136
 20
416.75016539246
 30
0.0
 40
300.0
100
AcDbArc
 50
264.822082
 51
270.0
  0
CIRCLE
  5
177
330
17
100
AcDbEntity
  8
4
100
AcDbCircle
 10
407.3397501826136
 20
145.75016639246
 30
0.0
 40
28.9999995
  0
ARC
  5
178
330
17
100
AcDbEntity
  8
4
100
AcDbCircle
 10
680.3392626826134
 20
145.7499368924599
 30
0.0
 40
302.999994
100
AcDbArc
 50
175.08587
 51
184.9139879999999
  0
LINE
  5
179
330
17
100
AcDbEntity
  8
L-CENTER
  6
CENTER
 62
     1
 48
0.5
100
AcDbLine
 10
407.3397501826136
 20
178.0914593924599
 30
0.0
 11
407.3397501826136
 21
113.40887339246
 31
0.0
  0
ARC
  5
17A
330
17
100
AcDbEntity
  8
4
100
AcDbCircle
 10
231.7801672814206
 20
185.6500343924599
 30
0.0
 40
1.0000005
100
AcDbArc
 50
0.0
 51
90.0
  0
LINE
  5
17B
330
17
100
AcDbEntity
  8
4
100
AcDbLine
 10
234.7801672814206
 20
175.75016639246
 30
0.0
 11
234.7801672814206
 21
174.7501658924599
 31
0.0
  0
LINE
  5
17C
330
17
100
AcDbEntity
  8
4
100
AcDbLine
 10
232.7801677814208
 20
178.7501633924599
 30
0.0
 11
232.7801677814208
 21
175.75016639246
 31
0.0
  0
LINE
  5
17D
330
17
100
AcDbEntity
  8
4
100
AcDbLine
 10
232.7801677814208
 20
178.7501333924599
 30
0.0
 11
232.7801677814208
 21
185.6500343924599
 31
0.0
  0
LINE
  5
17E
330
17
100
AcDbEntity
  8
4
100
AcDbLine
 10
201.4262587814206
 20
189.6498878924598
 30
0.0
 11
207.2845626401976
 21
188.4782707538396
 31
0.0
  0
LINE
  5
17F
330
17
100
AcDbEntity
  8
4
100
AcDbLine
 10
200.4262597814208
 20
194.6498873924598
 30
0.0
 11
201.4262587814206
 21
189.6498878924598
 31
0.0
  0
LINE
  5
180
330
17
100
AcDbEntity
  8
4
100
AcDbLine
 10
194.7802597814208
 20
194.6498873924598
 30
0.0
 11
194.7802597814208
 21
195.6498878924598
 31
0.0
  0
LINE
  5
181
330
17
100
AcDbEntity
  8
4
100
AcDbLine
 10
238.7801677814208
 20
165.7501653924598
 30
0.0
 11
237.7801672814206
 21
165.7501653924598
 31
0.0
  0
ARC
  5
184
330
17
100
AcDbEntity
  8
4
100
AcDbCircle
 10
263.7801667814207
 20
99.7501658924599
 30
0.0
 40
1.0000005
100
AcDbArc
 50
0.0
 51
90.0
  0
TEXT
  5
188
330
17
100
AcDbEntity
  8
3
  6
Continuous
100
AcDbText
 10
305.23586965394
 20
73.6481725910769
 30
0.0
 40
4.5
  1
LC1-08
  7
KANJI
 72
     1
 11
316.86086965394
 21
73.6481725910769
 31
0.0
100
AcDbText
  0
LINE
  5
18C
330
17
100
AcDbEntity
  8
4
100
AcDbLine
 10
257.2801672814206
 20
100.7501663924598
 30
0.0
 11
257.2801672814206
 21
85.75016639245985
 31
0.0
  0
LINE
  5
18D
330
17
100
AcDbEntity
  8
4
100
AcDbLine
 10
264.7801672814206
 20
85.75016639245985
 30
0.0
 11
264.7801672814206
 21
99.7501658924599
 31
0.0
  0
LINE
  5
18E
330
17
100
AcDbEntity
  8
4
100
AcDbLine
 10
238.7801677814208
 20
125.7501658924599
 30
0.0
 11
237.7801672814206
 21
125.7501658924599
 31
0.0
  0
ARC
  5
18F
330
17
100
AcDbEntity
  8
4
100
AcDbCircle
 10
240.4027267814207
 20
99.47294339245991
 30
0.0
 40
1.9140465
100
AcDbArc
 50
295.833549000001
 51
41.85810199999935
  0
ARC
  5
190
330
17
100
AcDbEntity
  8
4
100
AcDbCircle
 10
240.4027267814207
 20
99.47294339245991
 30
0.0
 40
1.9140465
100
AcDbArc
 50
295.833549000001
 51
41.85810199999935
  0
ARC
  5
191
330
17
100
AcDbEntity
  8
4
100
AcDbCircle
 10
237.7801672814206
 20
103.7501663924598
 30
0.0
 40
3.0
100
AcDbArc
 50
180.0005730004366
 51
270.0014709999997
  0
ARC
  5
192
330
17
100
AcDbEntity
  8
4
100
AcDbCircle
 10
230.0299237814207
 20
103.7501663924598
 30
0.0
 40
3.0
100
AcDbArc
 50
180.0005730004366
 51
270.0014509999999
  0
ARC
  5
193
330
17
100
AcDbEntity
  8
4
100
AcDbCircle
 10
240.8875897814208
 20
90.02738789245984
 30
0.0
 40
1.9140555
100
AcDbArc
 50
115.8329219999999
 51
221.8584369999988
  0
ARC
  5
194
330
17
100
AcDbEntity
  8
4
100
AcDbCircle
 10
240.8875897814208
 20
90.02738789245984
 30
0.0
 40
1.9140555
100
AcDbArc
 50
115.8329219999999
 51
221.8584369999988
  0
ARC
  5
195
330
17
100
AcDbEntity
  8
4
100
AcDbCircle
 10
242.0709397814206
 20
96.02738789245984
 30
0.0
 40
1.9140555
100
AcDbArc
 50
115.8329490000031
 51
221.8584369999988
  0
ARC
  5
196
330
17
100
AcDbEntity
  8
4
100
AcDbCircle
 10
239.2196197814209
 20
93.47294339245991
 30
0.0
 40
1.9140465
100
AcDbArc
 50
295.833549000001
 51
41.85810199999935
  0
ARC
  5
197
330
17
100
AcDbEntity
  8
4
100
AcDbCircle
 10
239.2196197814209
 20
93.47294339245991
 30
0.0
 40
1.9140465
100
AcDbArc
 50
295.833549000001
 51
41.85810199999935
  0
ARC
  5
198
330
17
100
AcDbEntity
  8
4
100
AcDbCircle
 10
242.0709397814206
 20
96.02738789245984
 30
0.0
 40
1.9140555
100
AcDbArc
 50
115.8329490000031
 51
221.8584369999988
  0
LINE
  5
199
330
17
100
AcDbEntity
  8
4
100
AcDbLine
 10
227.0298007814207
 20
103.7501663924598
 30
0.0
 11
227.0298007814207
 21
116.7501653924598
 31
0.0
  0
LINE
  5
19A
330
17
100
AcDbEntity
  8
4
100
AcDbLine
 10
234.7801672814206
 20
103.7501663924598
 30
0.0
 11
234.7801672814206
 21
116.7501653924598
 31
0.0
  0
LINE
  5
19B
330
17
100
AcDbEntity
  8
4
100
AcDbLine
 10
199.7802592814207
 20
96.7501658924599
 30
0.0
 11
201.4945447814207
 21
100.7501663924598
 31
0.0
  0
ARC
  5
19C
330
17
100
AcDbEntity
  8
4
100
AcDbCircle
 10
207.5726632814207
 20
90.7501658924599
 30
0.0
 40
9.9999975
100
AcDbArc
 50
18.43486500000042
 51
90.0
  0
LINE
  5
1A0
330
17
100
AcDbEntity
  8
L-CENTER
  6
CENTER
 62
     1
 48
0.5
100
AcDbLine
 10
252.2801677814208
 20
80.75016639245985
 30
0.0
 11
252.2801677814208
 21
105.7501663924598
 31
0.0
  0
ARC
  5
1A1
330
17
100
AcDbEntity
  8
4
100
AcDbCircle
 10
238.0365157814207
 20
87.47294339245991
 30
0.0
 40
1.9140465
100
AcDbArc
 50
295.833549000001
 51
41.85810199999935
  0
ARC
  5
1A2
330
17
100
AcDbEntity
  8
4
100
AcDbCircle
 10
238.0365157814207
 20
87.47294339245991
 30
0.0
 40
1.9140465
100
AcDbArc
 50
295.833549000001
 51
41.85810199999935
  0
LINE
  5
1A3
330
17
100
AcDbEntity
  8
4
100
AcDbLine
 10
247.2801667814207
 20
100.7501663924598
 30
0.0
 11
247.2801667814207
 21
85.75016639245985
 31
0.0
  0
LINE
  5
1A4
330
17
100
AcDbEntity
  8
4
100
AcDbLine
 10
217.0594927814208
 20
93.91244789245991
 30
0.0
 11
219.7802587814207
 21
85.75016639245985
 31
0.0
  0
LINE
  5
1A6
330
17
100
AcDbEntity
  8
4
100
AcDbLine
 10
219.7802587814207
 20
85.75016639245985
 30
0.0
 11
264.7801672814206
 21
85.75016639245985
 31
0.0
  0
LINE
  5
1A7
330
17
100
AcDbEntity
  8
4
100
AcDbLine
 10
230.0299237814207
 20
100.7501663924598
 30
0.0
 11
263.7801667814207
 21
100.7501663924598
 31
0.0
  0
LINE
  5
1A8
330
17
100
AcDbEntity
  8
4
100
AcDbLine
 10
238.7801677814208
 20
125.7501658924599
 30
0.0
 11
238.7801677814208
 21
165.7501653924598
 31
0.0
  0
LINE
  5
1A9
330
17
100
AcDbEntity
  8
4
100
AcDbLine
 10
232.7801677814208
 20
116.7501653924598
 30
0.0
 11
232.7801677814208
 21
174.7501658924599
 31
0.0
  0
LINE
  5
1AA
330
17
100
AcDbEntity
  8
4
100
AcDbLine
 10
237.7801672814206
 20
174.7501658924599
 30
0.0
 11
237.7801672814206
 21
116.7501653924598
 31
0.0
  0
LINE
  5
1B6
330
17
100
AcDbEntity
  8
4
100
AcDbLine
 10
433.3397511826134
 20
189.6498878924598
 30
0.0
 11
487.3397511826134
 21
189.6498878924598
 31
0.0
  0
LINE
  5
1B7
330
17
100
AcDbEntity
  8
L-CENTER
  6
CENTER
 62
     1
 48
0.5
100
AcDbLine
 10
374.9984571826136
 20
145.75016639246
 30
0.0
 11
531.8485408788175
 21
145.75016639246
 31
0.0
  0
LINE
  5
1BB
330
17
100
AcDbEntity
  8
4
100
AcDbLine
 10
477.3397506826135
 20
90.7501658924599
 30
0.0
 11
443.3397501826136
 21
90.7501658924599
 31
0.0
  0
LINE
  5
1BC
330
17
100
AcDbEntity
  8
4
100
AcDbLine
 10
402.3397506826135
 20
178.7501633924599
 30
0.0
 11
518.3397501826136
 21
178.7501633924599
 31
0.0
  0
LINE
  5
1BD
330
17
100
AcDbEntity
  8
4
100
AcDbLine
 10
400.3397511826134
 20
175.75016639246
 30
0.0
 11
520.3397511826134
 21
175.75016639246
 31
0.0
  0
LINE
  5
1BE
330
17
100
AcDbEntity
  8
4
100
AcDbLine
 10
440.3397501826136
 20
195.6498878924598
 30
0.0
 11
480.3397506826135
 21
195.6498878924598
 31
0.0
  0
LINE
  5
1BF
330
17
100
AcDbEntity
  8
4
100
AcDbLine
 10
434.3397501826136
 20
194.6498873924598
 30
0.0
 11
486.3397506826135
 21
194.6498873924598
 31
0.0
  0
LINE
  5
1C0
330
17
100
AcDbEntity
  8
4
100
AcDbLine
 10
517.3397511826134
 20
186.6500348924599
 30
0.0
 11
403.3397511826134
 21
186.6500348924599
 31
0.0
  0
LINE
  5
1D4
330
17
100
AcDbEntity
  8
4
100
AcDbLine
 10
139.0802617814207
 20
199.64988839246
 30
0.0
 11
139.0802617814207
 21
201.14988839246
 31
0.0
  0
LINE
  5
1D5
330
17
100
AcDbEntity
  8
4
100
AcDbLine
 10
137.4802567814207
 20
199.64988839246
 30
0.0
 11
137.4802567814207
 21
201.14988839246
 31
0.0
  0
ARC
  5
1D6
330
17
100
AcDbEntity
  8
4
100
AcDbCircle
 10
138.2802592814207
 20
201.14988839246
 30
0.0
 40
0.8000025
100
AcDbArc
 50
0.0
 51
180.0
  0
LINE
  5
1D7
330
17
100
AcDbEntity
  8
4
100
AcDbLine
 10
148.4066512814207
 20
194.6498873924598
 30
0.0
 11
147.4262587814208
 21
189.6498878924598
 31
0.0
  0
LINE
  5
1D8
330
17
100
AcDbEntity
  8
4
100
AcDbLine
 10
147.4262587814208
 20
189.6498878924598
 30
0.0
 11
142.2759549226439
 21
188.6198654767908
 31
0.0
  0
LINE
  5
1D9
330
17
100
AcDbEntity
  8
L-CENTER
  6
CENTER
 62
     1
 48
0.5
100
AcDbLine
 10
138.2802592814207
 20
202.7996123924598
 30
0.0
 11
138.2802592814207
 21
192.5687318924601
 31
0.0
  0
LINE
  5
1DA
330
17
100
AcDbEntity
  8
4
100
AcDbLine
 10
146.2802587814207
 20
199.64988839246
 30
0.0
 11
146.2802587814207
 21
194.6498873924598
 31
0.0
  0
LINE
  5
1DC
330
17
100
AcDbEntity
  8
4
100
AcDbLine
 10
124.7802592814207
 20
194.6498873924598
 30
0.0
 11
124.7802592814207
 21
186.6500348924599
 31
0.0
  0
ARC
  5
1DD
330
17
100
AcDbEntity
  8
4
100
AcDbCircle
 10
117.7804117814208
 20
185.6500343924599
 30
0.0
 40
1.0000005
100
AcDbArc
 50
90.0
 51
180.0008589993967
  0
LINE
  5
1DE
330
17
100
AcDbEntity
  8
4
100
AcDbLine
 10
116.7804112814207
 20
178.7501633924599
 30
0.0
 11
116.7804112814207
 21
175.75016639246
 31
0.0
  0
LINE
  5
1DF
330
17
100
AcDbEntity
  8
4
100
AcDbLine
 10
116.7804112814207
 20
178.7501333924599
 30
0.0
 11
116.7804112814207
 21
185.6500343924599
 31
0.0
  0
LINE
  5
1E0
330
17
100
AcDbEntity
  8
4
100
AcDbLine
 10
114.7804117814208
 20
175.75016639246
 30
0.0
 11
114.7804117814208
 21
174.7501658924599
 31
0.0
  0
LINE
  5
1E1
330
17
100
AcDbEntity
  8
4
100
AcDbLine
 10
130.2802597814207
 20
199.64988839246
 30
0.0
 11
130.2802597814207
 21
194.6498873924598
 31
0.0
  0
LINE
  5
1E2
330
17
100
AcDbEntity
  8
4
100
AcDbLine
 10
110.7804112814207
 20
165.7501653924598
 30
0.0
 11
111.7804117814208
 21
165.7501653924598
 31
0.0
  0
LINE
  5
1E3
330
17
100
AcDbEntity
  8
4
100
AcDbLine
 10
130.2802597814207
 20
199.64988839246
 30
0.0
 11
146.2802587814207
 21
199.64988839246
 31
0.0
  0
LINE
  5
1E4
330
17
100
AcDbEntity
  8
4
100
AcDbLine
 10
149.7802597814208
 20
96.7501658924599
 30
0.0
 11
148.0659742814207
 21
100.7501663924598
 31
0.0
  0
ARC
  5
1E5
330
17
100
AcDbEntity
  8
4
100
AcDbCircle
 10
141.9879307814207
 20
90.7501658924599
 30
0.0
 40
10.000002
100
AcDbArc
 50
90.0
 51
161.566348
  0
LINE
  5
1E8
330
17
100
AcDbEntity
  8
4
100
AcDbLine
 10
110.7804112814207
 20
125.7501658924599
 30
0.0
 11
111.7804117814208
 21
125.7501658924599
 31
0.0
  0
ARC
  5
1E9
330
17
100
AcDbEntity
  8
4
100
AcDbCircle
 10
119.5306567814207
 20
103.7501663924598
 30
0.0
 40
3.0
100
AcDbArc
 50
270.0008590000004
 51
0.0
  0
ARC
  5
1EA
330
17
100
AcDbEntity
  8
4
100
AcDbCircle
 10
111.7804117814208
 20
103.7501663924598
 30
0.0
 40
3.0
100
AcDbArc
 50
270.0008790000003
 51
0.0
  0
LINE
  5
1EB
330
17
100
AcDbEntity
  8
4
100
AcDbLine
 10
114.7804117814208
 20
103.7501663924598
 30
0.0
 11
114.7804117814208
 21
116.7501653924598
 31
0.0
  0
LINE
  5
1EC
330
17
100
AcDbEntity
  8
4
100
AcDbLine
 10
122.5308997814208
 20
103.7501663924598
 30
0.0
 11
122.5308997814208
 21
116.7501653924598
 31
0.0
  0
ARC
  5
1ED
330
17
100
AcDbEntity
  8
4
100
AcDbCircle
 10
85.78041078142076
 20
99.7501658924599
 30
0.0
 40
1.0000005
100
AcDbArc
 50
90.0
 51
180.0008589993967
  0
LINE
  5
1EE
330
17
100
AcDbEntity
  8
4
100
AcDbLine
 10
119.5306567814207
 20
100.7501663924598
 30
0.0
 11
85.78041078142076
 21
100.7501663924598
 31
0.0
  0
LINE
  5
1F2
330
17
100
AcDbEntity
  8
4
100
AcDbLine
 10
129.7804117814208
 20
85.75016639245985
 30
0.0
 11
84.78041178142075
 21
85.75016639245985
 31
0.0
  0
LINE
  5
1F3
330
17
100
AcDbEntity
  8
L-CENTER
  6
CENTER
 62
     1
 48
0.5
100
AcDbLine
 10
97.2804112814207
 20
105.7501663924598
 30
0.0
 11
97.2804112814207
 21
80.75016639245985
 31
0.0
  0
LINE
  5
1F4
330
17
100
AcDbEntity
  8
4
100
AcDbLine
 10
84.78041178142075
 20
85.75016639245985
 30
0.0
 11
84.78041178142075
 21
99.7501658924599
 31
0.0
  0
LINE
  5
1F5
330
17
100
AcDbEntity
  8
4
100
AcDbLine
 10
132.5011147814207
 20
93.91244339245986
 30
0.0
 11
129.7804117814208
 21
85.75016639245985
 31
0.0
  0
LINE
  5
1F6
330
17
100
AcDbEntity
  8
4
100
AcDbLine
 10
110.7804112814207
 20
125.7501658924599
 30
0.0
 11
110.7804112814207
 21
165.7501653924598
 31
0.0
  0
LINE
  5
1F7
330
17
100
AcDbEntity
  8
4
100
AcDbLine
 10
111.7804117814208
 20
174.7501658924599
 30
0.0
 11
111.7804117814208
 21
116.7501653924598
 31
0.0
  0
LINE
  5
1F8
330
17
100
AcDbEntity
  8
4
100
AcDbLine
 10
116.7804112814207
 20
116.7501653924598
 30
0.0
 11
116.7804112814207
 21
174.7501658924599
 31
0.0
  0
LINE
  5
1F9
330
17
100
AcDbEntity
  8
L-CENTER
  6
CENTER
 62
     1
 48
0.5
100
AcDbLine
 10
174.7802587814207
 20
198.2302560634389
 30
0.0
 11
174.7802587814207
 21
43.78977070736724
 31
0.0
  0
LINE
  5
1FF
330
17
100
AcDbEntity
  8
4
100
AcDbLine
 10
147.4262587814208
 20
189.6498878924598
 30
0.0
 11
201.4262587814206
 21
189.6498878924598
 31
0.0
  0
LINE
  5
200
330
17
100
AcDbEntity
  8
4
100
AcDbLine
 10
234.7801672814206
 20
175.75016639246
 30
0.0
 11
114.7804117814208
 21
175.75016639246
 31
0.0
  0
LINE
  5
201
330
17
100
AcDbEntity
  8
4
100
AcDbLine
 10
111.7804117814208
 20
174.7501658924599
 30
0.0
 11
237.7801672814206
 21
174.7501658924599
 31
0.0
  0
LINE
  5
202
330
17
100
AcDbEntity
  8
4
100
AcDbLine
 10
116.7804112814207
 20
178.7501633924599
 30
0.0
 11
232.7801677814208
 21
178.7501633924599
 31
0.0
  0
LINE
  5
203
330
17
100
AcDbEntity
  8
4
100
AcDbLine
 10
141.9879307814207
 20
100.7501663924598
 30
0.0
 11
207.5726632814207
 21
100.7501663924598
 31
0.0
  0
LINE
  5
204
330
17
100
AcDbEntity
  8
4
100
AcDbLine
 10
154.7802577814206
 20
195.6498878924598
 30
0.0
 11
194.7802597814208
 21
195.6498878924598
 31
0.0
  0
LINE
  5
205
330
17
100
AcDbEntity
  8
4
100
AcDbLine
 10
117.7804117814208
 20
186.6500348924599
 30
0.0
 11
231.7801672814206
 21
186.6500348924599
 31
0.0
  0
LINE
  5
206
330
17
100
AcDbEntity
  8
4
100
AcDbLine
 10
200.4262597814208
 20
194.6498873924598
 30
0.0
 11
124.7802592814207
 21
194.6498873924598
 31
0.0
  0
LINE
  5
207
330
17
100
AcDbEntity
  8
4
100
AcDbLine
 10
199.7802592814207
 20
96.7501658924599
 30
0.0
 11
149.7802597814208
 21
96.7501658924599
 31
0.0
  0
LINE
  5
208
330
17
100
AcDbEntity
  8
4
100
AcDbLine
 10
237.7801672814206
 20
116.7501653924598
 30
0.0
 11
111.7804117814208
 21
116.7501653924598
 31
0.0
  0
LINE
  5
209
330
17
100
AcDbEntity
  8
4
100
AcDbLine
 10
163.9549587814207
 20
459.5222719314534
 30
0.0
 11
163.9549587814207
 21
454.5222724314531
 31
0.0
  0
LINE
  5
20A
330
17
100
AcDbEntity
  8
4
100
AcDbLine
 10
185.6055587814207
 20
459.5222719314534
 30
0.0
 11
185.6055587814207
 21
454.5222724314531
 31
0.0
  0
LINE
  5
20B
330
17
100
AcDbEntity
  8
4
100
AcDbLine
 10
186.2804887814208
 20
451.0222714314534
 30
0.0
 11
186.2804887814208
 21
452.5222714314534
 31
0.0
  0
LINE
  5
20C
330
17
100
AcDbEntity
  8
4
100
AcDbLine
 10
187.2804877814208
 20
452.5222714314534
 30
0.0
 11
187.2804877814208
 21
454.5222724314533
 31
0.0
  0
LINE
  5
20D
330
17
100
AcDbEntity
  8
4
100
AcDbLine
 10
163.2804877814208
 20
451.0222714314534
 30
0.0
 11
163.2804877814208
 21
452.5222714314534
 31
0.0
  0
LINE
  5
20E
330
17
100
AcDbEntity
  8
4
100
AcDbLine
 10
162.2804887814208
 20
454.5222724314533
 30
0.0
 11
162.2804887814208
 21
452.5222714314534
 31
0.0
  0
LINE
  5
20F
330
17
100
AcDbEntity
  8
4
100
AcDbLine
 10
163.9549587814207
 20
459.5222719314534
 30
0.0
 11
185.6055587814207
 21
459.5222719314534
 31
0.0
  0
LINE
  5
210
330
17
100
AcDbEntity
  8
4
100
AcDbLine
 10
162.2804887814208
 20
454.5222724314533
 30
0.0
 11
187.2804877814208
 21
454.5222724314533
 31
0.0
  0
LINE
  5
211
330
17
100
AcDbEntity
  8
4
100
AcDbLine
 10
162.2804887814208
 20
452.5222714314534
 30
0.0
 11
187.2804877814208
 21
452.5222714314534
 31
0.0
  0
LINE
  5
212
330
17
100
AcDbEntity
  8
4
100
AcDbLine
 10
163.2804877814208
 20
451.0222714314534
 30
0.0
 11
186.2804887814208
 21
451.0222714314534
 31
0.0
  0
CIRCLE
  5
213
330
17
100
AcDbEntity
  8
4
100
AcDbCircle
 10
138.2802587814207
 20
390.0222714314534
 30
0.0
 40
0.8
  0
CIRCLE
  5
214
330
17
100
AcDbEntity
  8
4
100
AcDbCircle
 10
138.2802587814207
 20
390.0222714314534
 30
0.0
 40
8.0
  0
LINE
  5
21A
330
17
100
AcDbEntity
  8
4
100
AcDbLine
 10
238.7801677814208
 20
345.5222714314534
 30
0.0
 11
254.7802587814207
 21
345.5222714314534
 31
0.0
  0
LINE
  5
21B
330
17
100
AcDbEntity
  8
4
100
AcDbLine
 10
238.7801677814208
 20
328.5222714314536
 30
0.0
 11
254.7802587814207
 21
328.5222714314534
 31
0.0
  0
ARC
  5
21C
330
17
100
AcDbEntity
  8
4
100
AcDbCircle
 10
255.2802587814207
 20
329.5222714314534
 30
0.0
 40
0.5
100
AcDbArc
 50
90.0
 51
180.0
  0
ARC
  5
21D
330
17
100
AcDbEntity
  8
4
100
AcDbCircle
 10
260.2802587814207
 20
337.0222714314534
 30
0.0
 40
2.5
100
AcDbArc
 50
90.0
 51
270.0
  0
LINE
  5
21E
330
17
100
AcDbEntity
  8
4
100
AcDbLine
 10
254.7802587814207
 20
345.5222714314534
 30
0.0
 11
254.7802587814207
 21
328.5222714314534
 31
0.0
  0
ARC
  5
21F
330
17
100
AcDbEntity
  8
4
100
AcDbCircle
 10
255.2802587814207
 20
344.5222714314534
 30
0.0
 40
0.5
100
AcDbArc
 50
180.0
 51
270.0
  0
LINE
  5
220
330
17
100
AcDbEntity
  8
4
100
AcDbLine
 10
255.2802587814207
 20
344.0222714314534
 30
0.0
 11
284.2802587814207
 21
344.0222714314534
 31
0.0
  0
LINE
  5
221
330
17
100
AcDbEntity
  8
4
100
AcDbLine
 10
284.7802587814207
 20
330.5222714314534
 30
0.0
 11
284.2802587814207
 21
330.0222714314534
 31
0.0
  0
LINE
  5
222
330
17
100
AcDbEntity
  8
4
100
AcDbLine
 10
284.2802587814207
 20
334.5222714314536
 30
0.0
 11
284.2802587814207
 21
330.0222714314534
 31
0.0
  0
LINE
  5
223
330
17
100
AcDbEntity
  8
4
100
AcDbLine
 10
284.7802587814207
 20
343.5222714314534
 30
0.0
 11
284.7802587814207
 21
330.5222714314534
 31
0.0
  0
LINE
  5
224
330
17
100
AcDbEntity
  8
4
100
AcDbLine
 10
284.2802587814207
 20
344.0222714314534
 30
0.0
 11
284.2802587814207
 21
339.5222714314534
 31
0.0
  0
LINE
  5
225
330
17
100
AcDbEntity
  8
4
100
AcDbLine
 10
284.7802587814207
 20
343.5222714314534
 30
0.0
 11
284.2802587814207
 21
344.0222714314534
 31
0.0
  0
LINE
  5
226
330
17
100
AcDbEntity
  8
4
100
AcDbLine
 10
260.2802587814207
 20
339.5222714314534
 30
0.0
 11
284.7802587814207
 21
339.5222714314534
 31
0.0
  0
LINE
  5
227
330
17
100
AcDbEntity
  8
4
100
AcDbLine
 10
260.2802587814207
 20
334.5222714314536
 30
0.0
 11
284.7802587814207
 21
334.5222714314536
 31
0.0
  0
LINE
  5
228
330
17
100
AcDbEntity
  8
4
100
AcDbLine
 10
255.2802587814207
 20
330.0222714314534
 30
0.0
 11
284.2802587814207
 21
330.0222714314534
 31
0.0
  0
LINE
  5
229
330
17
100
AcDbEntity
  8
4
100
AcDbLine
 10
238.7801677814208
 20
357.0222704314533
 30
0.0
 11
237.7801672814207
 21
357.0222704314533
 31
0.0
  0
LINE
  5
22A
330
17
100
AcDbEntity
  8
4
100
AcDbLine
 10
238.7801677814208
 20
317.0222709314532
 30
0.0
 11
237.7801672814207
 21
317.0222709314532
 31
0.0
  0
LINE
  5
22B
330
17
100
AcDbEntity
  8
4
100
AcDbLine
 10
238.7801677814208
 20
317.0222709314532
 30
0.0
 11
238.7801677814208
 21
357.0222704314533
 31
0.0
  0
LINE
  5
22C
330
17
100
AcDbEntity
  8
4
100
AcDbLine
 10
110.7804112814207
 20
357.0222704314533
 30
0.0
 11
111.7804117814208
 21
357.0222704314533
 31
0.0
  0
LINE
  5
22D
330
17
100
AcDbEntity
  8
4
100
AcDbLine
 10
110.7804112814207
 20
317.0222709314532
 30
0.0
 11
111.7804117814208
 21
317.0222709314532
 31
0.0
  0
LINE
  5
22E
330
17
100
AcDbEntity
  8
4
100
AcDbLine
 10
110.7804112814207
 20
317.0222709314532
 30
0.0
 11
110.7804112814207
 21
357.0222704314533
 31
0.0
  0
ARC
  5
22F
330
17
100
AcDbEntity
  8
4
 62
     3
100
AcDbCircle
 10
177.2803447814209
 20
316.0222714314534
 30
0.0
 40
1.0
100
AcDbArc
 50
323.1301019999922
 51
90.0
  0
ARC
  5
230
330
17
100
AcDbEntity
  8
4
 62
     3
100
AcDbCircle
 10
175.2803447814209
 20
317.5222714314534
 30
0.0
 40
3.5
100
AcDbArc
 50
270.0
 51
323.1301019999992
  0
LINE
  5
231
330
17
100
AcDbEntity
  8
4
 62
     3
100
AcDbLine
 10
174.7803437814208
 20
314.0222714314534
 30
0.0
 11
175.2803447814209
 21
314.0222714314534
 31
0.0
  0
LINE
  5
232
330
17
100
AcDbEntity
  8
4
 62
     3
100
AcDbLine
 10
182.7803497814208
 20
320.2722714314534
 30
0.0
 11
181.2803497814208
 21
320.2722714314534
 31
0.0
  0
ARC
  5
233
330
17
100
AcDbEntity
  8
4
 62
     3
100
AcDbCircle
 10
181.2803497814208
 20
319.7722714314534
 30
0.0
 40
0.5
100
AcDbArc
 50
90.0
 51
180.0
  0
ARC
  5
234
330
17
100
AcDbEntity
  8
4
 62
     3
100
AcDbCircle
 10
182.7803497814208
 20
319.7722714314534
 30
0.0
 40
0.5
100
AcDbArc
 50
0.0
 51
90.0
  0
LINE
  5
235
330
17
100
AcDbEntity
  8
4
 62
     3
100
AcDbLine
 10
182.7803497814208
 20
317.7722714314534
 30
0.0
 11
181.2803497814208
 21
317.7722714314534
 31
0.0
  0
ARC
  5
236
330
17
100
AcDbEntity
  8
4
 62
     3
100
AcDbCircle
 10
182.7803497814208
 20
318.2722714314534
 30
0.0
 40
0.5
100
AcDbArc
 50
270.0
 51
0.0
  0
ARC
  5
237
330
17
100
AcDbEntity
  8
4
 62
     3
100
AcDbCircle
 10
181.2803497814208
 20
318.2722714314534
 30
0.0
 40
0.5
100
AcDbArc
 50
180.0
 51
270.0
  0
LINE
  5
238
330
17
100
AcDbEntity
  8
4
 62
     3
100
AcDbLine
 10
183.2803497814208
 20
318.2722714314534
 30
0.0
 11
183.2803497814208
 21
319.7722714314534
 31
0.0
  0
LINE
  5
239
330
17
100
AcDbEntity
  8
4
 62
     3
100
AcDbLine
 10
180.7803497814208
 20
318.2722714314534
 30
0.0
 11
180.7803497814208
 21
319.7722714314534
 31
0.0
  0
ARC
  5
23A
330
17
100
AcDbEntity
  8
4
 62
     3
100
AcDbCircle
 10
175.2802907814208
 20
320.5222714314534
 30
0.0
 40
3.5
100
AcDbArc
 50
36.86989800000082
 51
90.0
  0
LINE
  5
23B
330
17
100
AcDbEntity
  8
4
 62
     3
100
AcDbLine
 10
174.7803437814208
 20
324.0222714314534
 30
0.0
 11
175.2802907814208
 21
324.0222714314534
 31
0.0
  0
LINE
  5
23C
330
17
100
AcDbEntity
  8
4
 62
     3
100
AcDbLine
 10
175.2803437814208
 20
319.0222714314534
 30
0.0
 11
175.2803437814208
 21
319.0222714314534
 31
0.0
  0
ARC
  5
23D
330
17
100
AcDbEntity
  8
4
 62
     3
100
AcDbCircle
 10
177.2802907814208
 20
322.0222714314534
 30
0.0
 40
1.0
100
AcDbArc
 50
270.0
 51
36.86989800000779
  0
ARC
  5
23E
330
17
100
AcDbEntity
  8
4
 62
     3
100
AcDbCircle
 10
177.2803437814208
 20
319.0222714314534
 30
0.0
 40
2.0
100
AcDbArc
 50
90.0
 51
270.0
  0
LINE
  5
23F
330
17
100
AcDbEntity
  8
4
 62
     3
100
AcDbLine
 10
187.7803497814208
 20
323.5222664314535
 30
0.0
 11
187.7803497814208
 21
314.5222694314534
 31
0.0
  0
LINE
  5
240
330
17
100
AcDbEntity
  8
4
 62
     3
100
AcDbLine
 10
185.2803497814208
 20
323.5222664314535
 30
0.0
 11
185.2803497814208
 21
314.5222694314534
 31
0.0
  0
LINE
  5
241
330
17
100
AcDbEntity
  8
4
 62
     3
100
AcDbLine
 10
187.2803497814208
 20
314.0222694314534
 30
0.0
 11
185.7803497814208
 21
314.0222694314534
 31
0.0
  0
ARC
  5
242
330
17
100
AcDbEntity
  8
4
 62
     3
100
AcDbCircle
 10
187.2803497814208
 20
314.5222694314534
 30
0.0
 40
0.5
100
AcDbArc
 50
270.0
 51
0.0
  0
ARC
  5
243
330
17
100
AcDbEntity
  8
4
 62
     3
100
AcDbCircle
 10
185.7803497814208
 20
314.5222694314534
 30
0.0
 40
0.5
100
AcDbArc
 50
180.0
 51
270.0
  0
LINE
  5
244
330
17
100
AcDbEntity
  8
4
 62
     3
100
AcDbLine
 10
187.2803497814208
 20
324.0222664314535
 30
0.0
 11
185.7803497814208
 21
324.0222664314535
 31
0.0
  0
ARC
  5
245
330
17
100
AcDbEntity
  8
4
 62
     3
100
AcDbCircle
 10
185.7803497814208
 20
323.5222664314535
 30
0.0
 40
0.5
100
AcDbArc
 50
90.0
 51
180.0
  0
ARC
  5
246
330
17
100
AcDbEntity
  8
4
 62
     3
100
AcDbCircle
 10
187.2803497814208
 20
323.5222664314535
 30
0.0
 40
0.5
100
AcDbArc
 50
0.0
 51
90.0
  0
LINE
  5
247
330
17
100
AcDbEntity
  8
4
 62
     3
100
AcDbLine
 10
171.2803437814208
 20
317.5222714314534
 30
0.0
 11
171.2803437814208
 21
320.5222714314534
 31
0.0
  0
ARC
  5
248
330
17
100
AcDbEntity
  8
4
 62
     3
100
AcDbCircle
 10
174.7803437814208
 20
317.5222714314534
 30
0.0
 40
3.5
100
AcDbArc
 50
180.0
 51
270.0
  0
ARC
  5
249
330
17
100
AcDbEntity
  8
4
 62
     3
100
AcDbCircle
 10
174.7803437814208
 20
320.5222714314534
 30
0.0
 40
3.5
100
AcDbArc
 50
90.0
 51
180.0
  0
ARC
  5
24A
330
17
100
AcDbEntity
  8
4
100
AcDbCircle
 10
51.78025878142068
 20
390.0222714314534
 30
0.0
 40
150.0
100
AcDbArc
 50
7.585911816113834
 51
8.72504930904577
  0
ARC
  5
24B
330
17
100
AcDbEntity
  8
4
100
AcDbCircle
 10
174.7802587814207
 20
267.0222714314534
 30
0.0
 40
150.0
100
AcDbArc
 50
81.27495069095417
 51
82.41408818388615
  0
ARC
  5
24C
330
17
100
AcDbEntity
  8
4
100
AcDbCircle
 10
196.2004010871357
 20
411.4424137371684
 30
0.0
 40
3.0
100
AcDbArc
 50
8.436505410997952
 51
81.56349458900651
  0
ARC
  5
24D
330
17
100
AcDbEntity
  8
4
100
AcDbCircle
 10
197.0791251222014
 20
412.3211377722341
 30
0.0
 40
3.0
100
AcDbArc
 50
8.72504930904342
 51
81.27495069095653
  0
LINE
  5
24E
330
17
100
AcDbEntity
  8
L-CENTER
 48
0.5
100
AcDbLine
 10
206.1748317123205
 20
421.4168443623529
 30
0.0
 11
217.6318978751086
 21
432.8739105251412
 31
0.0
  0
ARC
  5
24F
330
17
100
AcDbEntity
  8
4
100
AcDbCircle
 10
51.78025878142068
 20
390.0222714314534
 30
0.0
 40
150.0
100
AcDbArc
 50
351.2749506909541
 51
352.4140881838862
  0
ARC
  5
250
330
17
100
AcDbEntity
  8
4
100
AcDbCircle
 10
196.2004010871356
 20
368.6021291257387
 30
0.0
 40
3.0
100
AcDbArc
 50
278.4365054109958
 51
351.5634945890064
  0
ARC
  5
251
330
17
100
AcDbEntity
  8
4
100
AcDbCircle
 10
197.0791251222013
 20
367.7234050906729
 30
0.0
 40
3.0
100
AcDbArc
 50
278.7250493090456
 51
351.2749506909523
  0
ARC
  5
252
330
17
100
AcDbEntity
  8
4
100
AcDbCircle
 10
174.7802587814207
 20
513.0222714314534
 30
0.0
 40
150.0
100
AcDbArc
 50
277.5859118161139
 51
278.7250493090459
  0
LINE
  5
253
330
17
100
AcDbEntity
  8
L-CENTER
 48
0.5
100
AcDbLine
 10
109.0805834056767
 20
390.0222714314534
 30
0.0
 11
240.8122108766137
 21
390.0222714314534
 31
0.0
  0
ARC
  5
254
330
17
100
AcDbEntity
  8
4
100
AcDbCircle
 10
51.78025878142068
 20
390.0222714314534
 30
0.0
 40
150.0
100
AcDbArc
 50
351.5634945890041
 51
8.436505410995828
  0
ARC
  5
255
330
17
100
AcDbEntity
  8
4
100
AcDbCircle
 10
51.78025878142068
 20
390.0222714314534
 30
0.0
 40
149.0
100
AcDbArc
 50
351.5634945890041
 51
8.436505410995872
  0
LINE
  5
256
330
17
100
AcDbEntity
  8
L-CENTER
 48
0.5
100
AcDbLine
 10
217.6318978751087
 20
347.1706323377656
 30
0.0
 11
206.1748317123204
 21
358.6276985005537
 31
0.0
  0
ARC
  5
257
330
17
100
AcDbEntity
  8
4
100
AcDbCircle
 10
297.7802587814207
 20
390.0222714314534
 30
0.0
 40
149.0
100
AcDbArc
 50
171.5634945890041
 51
175.2133159593719
  0
ARC
  5
258
330
17
100
AcDbEntity
  8
4
100
AcDbCircle
 10
297.7802587814207
 20
390.0222714314534
 30
0.0
 40
150.0
100
AcDbArc
 50
172.6095528099985
 51
175.3218994712215
  0
ARC
  5
259
330
17
100
AcDbEntity
  8
4
100
AcDbCircle
 10
297.7802587814207
 20
390.0222714314534
 30
0.0
 40
150.0
100
AcDbArc
 50
171.2749506909541
 51
172.4140881838862
  0
ARC
  5
25A
330
17
100
AcDbEntity
  8
4
100
AcDbCircle
 10
146.7849609757781
 20
402.3782432906514
 30
0.0
 40
1.5
100
AcDbArc
 50
235.4600905051209
 51
355.3218994712191
  0
ARC
  5
25B
330
17
100
AcDbEntity
  8
4
100
AcDbCircle
 10
147.3069045494459
 20
402.6226550041306
 30
0.0
 40
2.0
100
AcDbArc
 50
234.3829967074362
 51
355.2133159593718
  0
ARC
  5
25C
330
17
100
AcDbEntity
  8
4
100
AcDbCircle
 10
174.7802587814207
 20
267.0492320269129
 30
0.0
 40
150.0
100
AcDbArc
 50
97.58373565509116
 51
98.72504930904577
  0
ARC
  5
25D
330
17
100
AcDbEntity
  8
4
100
AcDbCircle
 10
152.4813924406402
 20
412.3211377722341
 30
0.0
 40
3.0
100
AcDbArc
 50
98.72504930904563
 51
171.2749506909566
  0
ARC
  5
25E
330
17
100
AcDbEntity
  8
4
100
AcDbCircle
 10
153.3601164757059
 20
411.4424137371684
 30
0.0
 40
3.0
100
AcDbArc
 50
98.43650541099811
 51
171.5634945890021
  0
LINE
  5
25F
330
17
100
AcDbEntity
  8
L-CENTER
 48
0.5
100
AcDbLine
 10
143.3856858505211
 20
421.416844362353
 30
0.0
 11
131.9286196877328
 21
432.8739105251411
 31
0.0
  0
ARC
  5
260
330
17
100
AcDbEntity
  8
4
100
AcDbCircle
 10
130.424094397859
 20
402.2095878373921
 30
0.0
 40
1.0
100
AcDbArc
 50
164.6365136852704
 51
302.8065595922242
  0
ARC
  5
261
330
17
100
AcDbEntity
  8
4
100
AcDbCircle
 10
174.7802587814207
 20
513.0222714314534
 30
0.0
 40
150.0
100
AcDbArc
 50
261.2749506909541
 51
262.4140881838861
  0
ARC
  5
262
330
17
100
AcDbEntity
  8
4
100
AcDbCircle
 10
297.7802587814207
 20
390.0222714314534
 30
0.0
 40
150.0
100
AcDbArc
 50
187.5859118161138
 51
188.7250493090458
  0
ARC
  5
263
330
17
100
AcDbEntity
  8
4
100
AcDbCircle
 10
153.3601164757058
 20
368.6021291257387
 30
0.0
 40
3.0
100
AcDbArc
 50
188.4365054109936
 51
261.5634945890042
  0
ARC
  5
264
330
17
100
AcDbEntity
  8
4
100
AcDbCircle
 10
152.4813924406401
 20
367.7234050906729
 30
0.0
 40
3.0
100
AcDbArc
 50
188.7250493090477
 51
261.2749506909544
  0
ARC
  5
265
330
17
100
AcDbEntity
  8
4
100
AcDbCircle
 10
146.7849609757781
 20
377.6662995722554
 30
0.0
 40
1.5
100
AcDbArc
 50
4.678100528780901
 51
124.5399094948792
  0
ARC
  5
266
330
17
100
AcDbEntity
  8
4
100
AcDbCircle
 10
147.3069045494458
 20
377.4218878587762
 30
0.0
 40
2.0
100
AcDbArc
 50
4.786684040628203
 51
125.6170032925638
  0
ARC
  5
267
330
17
100
AcDbEntity
  8
4
100
AcDbCircle
 10
297.7802587814207
 20
390.0222714314534
 30
0.0
 40
150.0
100
AcDbArc
 50
184.6781005287785
 51
187.7887975629276
  0
ARC
  5
268
330
17
100
AcDbEntity
  8
4
100
AcDbCircle
 10
297.7802587814207
 20
390.0222714314534
 30
0.0
 40
149.0
100
AcDbArc
 50
184.7866840406281
 51
188.4365054109958
  0
ARC
  5
269
330
17
100
AcDbEntity
  8
4
100
AcDbCircle
 10
130.4240943978591
 20
377.834955025515
 30
0.0
 40
1.0
100
AcDbArc
 50
57.19344040777578
 51
195.3634863147296
  0
LINE
  5
26A
330
17
100
AcDbEntity
  8
L-CENTER
 48
0.5
100
AcDbLine
 10
138.2802587814207
 20
406.0743518863103
 30
0.0
 11
138.2802587814207
 21
373.9701909765965
 31
0.0
  0
ARC
  5
26B
330
17
100
AcDbEntity
  8
4
100
AcDbCircle
 10
138.2802587814207
 20
390.0222714314534
 30
0.0
 40
13.5
100
AcDbArc
 50
54.38299670743815
 51
304.5399094948849
  0
LINE
  5
26C
330
17
100
AcDbEntity
  8
L-CENTER
 48
0.5
100
AcDbLine
 10
131.9286196877328
 20
347.1706323377657
 30
0.0
 11
143.3856858505211
 21
358.6276985005538
 31
0.0
  0
CIRCLE
  5
26F
330
17
100
AcDbEntity
  8
4
100
AcDbCircle
 10
174.7802587814207
 20
390.0222714314534
 30
0.0
 40
58.0
  0
ARC
  5
270
330
17
100
AcDbEntity
  8
4
100
AcDbCircle
 10
174.7802587814207
 20
390.0222714314534
 30
0.0
 40
47.0
100
AcDbArc
 50
195.3634863147331
 51
164.6365136852669
  0
CIRCLE
  5
271
330
17
100
AcDbEntity
  8
L-CENTER
 48
0.5
100
AcDbCircle
 10
174.7802587814207
 20
390.0222714314534
 30
0.0
 40
52.5
  0
ARC
  5
272
330
17
100
AcDbEntity
  8
4
100
AcDbCircle
 10
174.7802587814207
 20
267.0222714314534
 30
0.0
 40
150.0
100
AcDbArc
 50
81.5634945890041
 51
98.43650541099586
  0
ARC
  5
273
330
17
100
AcDbEntity
  8
4
100
AcDbCircle
 10
174.7802587814207
 20
267.0222714314534
 30
0.0
 40
149.0
100
AcDbArc
 50
81.5634945890041
 51
98.43650541099589
  0
ARC
  5
274
330
17
100
AcDbEntity
  8
4
100
AcDbCircle
 10
174.7802587814207
 20
513.0222714314534
 30
0.0
 40
150.0
100
AcDbArc
 50
261.5634945890042
 51
278.4365054109958
  0
ARC
  5
275
330
17
100
AcDbEntity
  8
4
100
AcDbCircle
 10
174.7802587814207
 20
513.0222714314534
 30
0.0
 40
149.0
100
AcDbArc
 50
261.5634945890042
 51
278.4365054109958
  0
LINE
  5
276
330
17
100
AcDbEntity
  8
4
 62
     3
100
AcDbLine
 10
232.7802587814207
 20
363.2640944314535
 30
0.0
 11
232.7802587814207
 21
308.0222714314534
 31
0.0
  0
ARC
  5
277
330
17
100
AcDbEntity
  8
4
 62
     3
100
AcDbCircle
 10
225.4238307814161
 20
339.3786994314507
 30
0.0
 40
2.0
100
AcDbArc
 50
286.5298269999962
 51
343.4701729999986
  0
ARC
  5
278
330
17
100
AcDbEntity
  8
4
 62
     3
100
AcDbCircle
 10
54.78025878141875
 20
390.0222714314596
 30
0.0
 40
180.0
100
AcDbArc
 50
343.470172999997
 51
16.52982699999714
  0
ARC
  5
279
330
17
100
AcDbEntity
  8
4
 62
     3
100
AcDbCircle
 10
225.4238307814213
 20
440.6658424314508
 30
0.0
 40
2.0
100
AcDbArc
 50
16.52982700000139
 51
73.47017299999862
  0
ARC
  5
27A
330
17
100
AcDbEntity
  8
4
 62
     3
100
AcDbCircle
 10
262.7802587814207
 20
430.0222714314534
 30
0.0
 40
2.0
100
AcDbArc
 50
0.0
 51
90.0
  0
ARC
  5
27B
330
17
100
AcDbEntity
  8
4
 62
     3
100
AcDbCircle
 10
262.7802587814207
 20
411.6676314314534
 30
0.0
 40
2.0
100
AcDbArc
 50
281.1131059999989
 51
0.0
  0
LINE
  5
27C
330
17
100
AcDbEntity
  8
L-CENTER
 48
0.5
100
AcDbLine
 10
241.0863571025026
 20
421.0222714314534
 30
0.0
 11
263.4741604603388
 21
421.0222714314534
 31
0.0
  0
CIRCLE
  5
27D
330
17
100
AcDbEntity
  8
4
 62
     3
100
AcDbCircle
 10
252.2802587814207
 20
421.0222714314534
 30
0.0
 40
5.0
  0
LINE
  5
27E
330
17
100
AcDbEntity
  8
L-CENTER
 48
0.5
100
AcDbLine
 10
252.2802587814207
 20
409.8283697525353
 30
0.0
 11
252.2802587814207
 21
432.2161731103715
 31
0.0
  0
LINE
  5
27F
330
17
100
AcDbEntity
  8
4
 62
     3
100
AcDbLine
 10
264.7802587814207
 20
411.6676314314534
 30
0.0
 11
264.7802587814207
 21
430.0222714314534
 31
0.0
  0
ARC
  5
280
330
17
100
AcDbEntity
  8
4
 62
     3
100
AcDbCircle
 10
236.3587857814207
 20
402.4012284314533
 30
0.0
 40
2.0
100
AcDbArc
 50
101.1131059999973
 51
183.9000550000013
  0
LINE
  5
281
330
17
100
AcDbEntity
  8
4
 62
     3
100
AcDbLine
 10
262.7802587814207
 20
432.0222714314534
 30
0.0
 11
229.8116847814207
 21
432.0222714314534
 31
0.0
  0
LINE
  5
282
330
17
100
AcDbEntity
  8
4
 62
     3
100
AcDbLine
 10
263.1657517814207
 20
409.7051334314533
 30
0.0
 11
235.9732927814207
 21
404.3637254314533
 31
0.0
  0
ARC
  5
283
330
17
100
AcDbEntity
  8
4
 62
     3
100
AcDbCircle
 10
262.7802587814207
 20
368.3769114314532
 30
0.0
 40
2.0
100
AcDbArc
 50
0.0
 51
78.88689400000108
  0
LINE
  5
284
330
17
100
AcDbEntity
  8
L-CENTER
 48
0.5
100
AcDbLine
 10
241.0863571025026
 20
359.0222714314534
 30
0.0
 11
263.4741604603388
 21
359.0222714314534
 31
0.0
  0
ARC
  5
285
330
17
100
AcDbEntity
  8
4
 62
     3
100
AcDbCircle
 10
236.3587857814207
 20
377.6433134314534
 30
0.0
 40
2.0
100
AcDbArc
 50
176.0999449999987
 51
258.8868940000029
  0
LINE
  5
286
330
17
100
AcDbEntity
  8
4
 62
     3
100
AcDbLine
 10
235.4456957814207
 20
366.0222714314534
 30
0.0
 11
237.7802587814207
 21
366.0222714314534
 31
0.0
  0
ARC
  5
287
330
17
100
AcDbEntity
  8
4
 62
     3
100
AcDbCircle
 10
235.4456957814207
 20
368.0222714314534
 30
0.0
 40
2.0
100
AcDbArc
 50
173.0571579999982
 51
270.0
  0
LINE
  5
288
330
17
100
AcDbEntity
  8
4
 62
     3
100
AcDbLine
 10
235.9732927814207
 20
375.6808164314534
 30
0.0
 11
263.1657517814207
 21
370.3394084314534
 31
0.0
  0
ARC
  5
289
330
17
100
AcDbEntity
  8
4
 62
     3
100
AcDbCircle
 10
262.7802587814207
 20
350.0222714314534
 30
0.0
 40
2.0
100
AcDbArc
 50
270.0
 51
0.0
  0
LINE
  5
28A
330
17
100
AcDbEntity
  8
4
 62
     3
100
AcDbLine
 10
262.7802587814207
 20
348.0222714314534
 30
0.0
 11
238.7801677814208
 21
348.0222714314534
 31
0.0
  0
CIRCLE
  5
28B
330
17
100
AcDbEntity
  8
4
 62
     3
100
AcDbCircle
 10
252.2802587814207
 20
359.0222714314534
 30
0.0
 40
5.0
  0
LINE
  5
28C
330
17
100
AcDbEntity
  8
L-CENTER
 48
0.5
100
AcDbLine
 10
252.2802587814207
 20
370.2161731103715
 30
0.0
 11
252.2802587814207
 21
347.8283697525353
 31
0.0
  0
LINE
  5
28D
330
17
100
AcDbEntity
  8
4
 62
     3
100
AcDbLine
 10
264.7802587814207
 20
368.3769114314532
 30
0.0
 11
264.7802587814207
 21
350.0222714314534
 31
0.0
  0
ARC
  5
28E
330
17
100
AcDbEntity
  8
4
 62
     3
100
AcDbCircle
 10
190.7802587814207
 20
450.3137014314534
 30
0.0
 40
1.0
100
AcDbArc
 50
180.0
 51
264.9285600000036
  0
LINE
  5
28F
330
17
100
AcDbEntity
  8
4
 62
     3
100
AcDbLine
 10
189.7802587814207
 20
451.0222714314534
 30
0.0
 11
189.7802587814207
 21
450.3137014314534
 31
0.0
  0
LINE
  5
290
330
17
100
AcDbEntity
  8
4
 62
     3
100
AcDbLine
 10
159.7802587814207
 20
451.0222714314534
 30
0.0
 11
159.7802587814207
 21
450.3137014314534
 31
0.0
  0
ARC
  5
291
330
17
100
AcDbEntity
  8
4
 62
     3
100
AcDbCircle
 10
158.7802587814207
 20
450.3137014314534
 30
0.0
 40
1.0
100
AcDbArc
 50
275.0714399999964
 51
0.0
  0
LINE
  5
292
330
17
100
AcDbEntity
  8
4
 62
     3
100
AcDbLine
 10
189.7802587814207
 20
451.0222714314534
 30
0.0
 11
159.7802587814207
 21
451.0222714314534
 31
0.0
  0
ARC
  5
293
330
17
100
AcDbEntity
  8
4
 62
     3
100
AcDbCircle
 10
124.1366867814207
 20
440.6658424314533
 30
0.0
 40
2.0
100
AcDbArc
 50
106.5298270000022
 51
163.4701729999985
  0
ARC
  5
294
330
17
100
AcDbEntity
  8
4
 62
     3
100
AcDbCircle
 10
113.2017317814207
 20
402.4012284314533
 30
0.0
 40
2.0
100
AcDbArc
 50
356.0999449999987
 51
78.88689400000187
  0
LINE
  5
295
330
17
100
AcDbEntity
  8
4
 62
     3
100
AcDbLine
 10
86.39476578142069
 20
409.7051334314533
 30
0.0
 11
113.5872247814207
 21
404.3637254314533
 31
0.0
  0
LINE
  5
296
330
17
100
AcDbEntity
  8
L-CENTER
 48
0.5
100
AcDbLine
 10
108.4741604603388
 20
421.0222714314534
 30
0.0
 11
86.08635710250256
 21
421.0222714314534
 31
0.0
  0
CIRCLE
  5
297
330
17
100
AcDbEntity
  8
4
 62
     3
100
AcDbCircle
 10
97.28025878142068
 20
421.0222714314534
 30
0.0
 40
5.0
  0
LINE
  5
298
330
17
100
AcDbEntity
  8
L-CENTER
 48
0.5
100
AcDbLine
 10
97.28025878142068
 20
409.8283697525353
 30
0.0
 11
97.28025878142068
 21
432.2161731103715
 31
0.0
  0
LINE
  5
299
330
17
100
AcDbEntity
  8
4
 62
     3
100
AcDbLine
 10
86.78025878142068
 20
432.0222714314534
 30
0.0
 11
119.7488327814207
 21
432.0222714314534
 31
0.0
  0
ARC
  5
29A
330
17
100
AcDbEntity
  8
4
 62
     3
100
AcDbCircle
 10
174.7802587814207
 20
270.0222714314534
 30
0.0
 40
180.0
100
AcDbArc
 50
73.47017283511825
 51
106.529827
  0
LINE
  5
29B
330
17
100
AcDbEntity
  8
4
 62
     3
100
AcDbLine
 10
164.7803437814207
 20
316.5222714314534
 30
0.0
 11
168.7803417814207
 21
316.5222714314534
 31
0.0
  0
ARC
  5
29C
330
17
100
AcDbEntity
  8
4
 62
     3
100
AcDbCircle
 10
168.7803417814207
 20
316.0222714314534
 30
0.0
 40
0.5
100
AcDbArc
 50
0.0
 51
90.0
  0
ARC
  5
29D
330
17
100
AcDbEntity
  8
4
 62
     3
100
AcDbCircle
 10
163.7803607814207
 20
323.5222704314533
 30
0.0
 40
0.5
100
AcDbArc
 50
359.9998460009114
 51
89.99984600000535
  0
ARC
  5
29E
330
17
100
AcDbEntity
  8
4
 62
     3
100
AcDbCircle
 10
162.2803617814207
 20
323.5222714314534
 30
0.0
 40
0.5
100
AcDbArc
 50
89.99988400000656
 51
179.9998839998386
  0
LINE
  5
29F
330
17
100
AcDbEntity
  8
4
 62
     3
100
AcDbLine
 10
162.2803627814206
 20
324.0222704314533
 30
0.0
 11
163.7803627814206
 21
324.0222724314533
 31
0.0
  0
LINE
  5
2A0
330
17
100
AcDbEntity
  8
4
 62
     3
100
AcDbLine
 10
164.2803417814207
 20
317.0222714314534
 30
0.0
 11
164.2803607814207
 21
323.5222694314532
 31
0.0
  0
ARC
  5
2A1
330
17
100
AcDbEntity
  8
4
 62
     3
100
AcDbCircle
 10
164.7803437814207
 20
317.0222714314534
 30
0.0
 40
0.5
100
AcDbArc
 50
180.0
 51
270.0
  0
ARC
  5
2A2
330
17
100
AcDbEntity
  8
4
 62
     3
100
AcDbCircle
 10
113.2017317814207
 20
377.6433134314534
 30
0.0
 40
2.0
100
AcDbArc
 50
281.1131059999978
 51
3.900055000001342
  0
LINE
  5
2A3
330
17
100
AcDbEntity
  8
4
 62
     3
100
AcDbLine
 10
111.7802587814207
 20
366.0222714314534
 30
0.0
 11
114.1148217814207
 21
366.0222714314534
 31
0.0
  0
ARC
  5
2A4
330
17
100
AcDbEntity
  8
4
 62
     3
100
AcDbCircle
 10
114.1148217814207
 20
368.0222714314534
 30
0.0
 40
2.0
100
AcDbArc
 50
270.0
 51
6.942842000001773
  0
LINE
  5
2A5
330
17
100
AcDbEntity
  8
4
 62
     3
100
AcDbLine
 10
113.5872247814207
 20
375.6808164314534
 30
0.0
 11
86.39476578142069
 21
370.3394084314534
 31
0.0
  0
LINE
  5
2A6
330
17
100
AcDbEntity
  8
L-CENTER
 48
0.5
100
AcDbLine
 10
108.4741604603388
 20
359.0222714314534
 30
0.0
 11
86.08635710250256
 21
359.0222714314534
 31
0.0
  0
ARC
  5
2A7
330
17
100
AcDbEntity
  8
4
 62
     3
100
AcDbCircle
 10
124.1366867814207
 20
339.3786994314532
 30
0.0
 40
2.0
100
AcDbArc
 50
196.5298270000015
 51
253.4701729999978
  0
LINE
  5
2A8
330
17
100
AcDbEntity
  8
4
 62
     3
100
AcDbLine
 10
86.78025878142068
 20
348.0222714314534
 30
0.0
 11
110.7804112814207
 21
348.0222714314534
 31
0.0
  0
CIRCLE
  5
2A9
330
17
100
AcDbEntity
  8
4
 62
     3
100
AcDbCircle
 10
97.28025878142068
 20
359.0222714314534
 30
0.0
 40
5.0
  0
LINE
  5
2AA
330
17
100
AcDbEntity
  8
L-CENTER
 48
0.5
100
AcDbLine
 10
97.28025878142068
 20
370.2161731103715
 30
0.0
 11
97.28025878142068
 21
347.8283697525353
 31
0.0
  0
ARC
  5
2AB
330
17
100
AcDbEntity
  8
4
 62
     3
100
AcDbCircle
 10
174.7802587814207
 20
510.0222714314534
 30
0.0
 40
180.0
100
AcDbArc
 50
253.470173
 51
286.5300666080503
  0
ARC
  5
2AC
330
17
100
AcDbEntity
  8
4
 62
     3
100
AcDbCircle
 10
294.7802587814207
 20
390.0222714314534
 30
0.0
 40
180.0
100
AcDbArc
 50
163.470173
 51
196.529827
  0
LINE
  5
2AD
330
17
100
AcDbEntity
  8
4
 62
     3
100
AcDbLine
 10
84.78025878142068
 20
411.6676314314534
 30
0.0
 11
84.78025878142068
 21
430.0222714314534
 31
0.0
  0
LINE
  5
2AE
330
17
100
AcDbEntity
  8
4
 62
     3
100
AcDbLine
 10
84.78025878142068
 20
368.3769114314532
 30
0.0
 11
84.78025878142068
 21
350.0222714314534
 31
0.0
  0
ARC
  5
2AF
330
17
100
AcDbEntity
  8
4
 62
     3
100
AcDbCircle
 10
86.78025878142068
 20
368.3769114314532
 30
0.0
 40
2.0
100
AcDbArc
 50
101.1131059999978
 51
180.0
  0
ARC
  5
2B0
330
17
100
AcDbEntity
  8
4
 62
     3
100
AcDbCircle
 10
86.78025878142068
 20
350.0222714314534
 30
0.0
 40
2.0
100
AcDbArc
 50
180.0
 51
270.0
  0
ARC
  5
2B1
330
17
100
AcDbEntity
  8
4
 62
     3
100
AcDbCircle
 10
86.78025878142068
 20
430.0222714314534
 30
0.0
 40
2.0
100
AcDbArc
 50
90.0
 51
180.0
  0
ARC
  5
2B2
330
17
100
AcDbEntity
  8
4
 62
     3
100
AcDbCircle
 10
86.78025878142068
 20
411.6676314314534
 30
0.0
 40
2.0
100
AcDbArc
 50
180.0
 51
258.8868940000011
  0
LINE
  5
2B3
330
17
100
AcDbEntity
  8
L-CENTER
 48
0.5
100
AcDbLine
 10
62.81584612684179
 20
337.0222714314534
 30
0.0
 11
286.7446714359996
 21
337.0222714314534
 31
0.0
  0
ARC
  5
2B4
330
17
100
AcDbEntity
  8
4
 62
     3
100
AcDbCircle
 10
231.7802587814207
 20
308.0222714314534
 30
0.0
 40
1.0
100
AcDbArc
 50
270.0
 51
329.9999999999995
  0
ARC
  5
2B5
330
17
100
AcDbEntity
  8
4
 62
     3
100
AcDbCircle
 10
233.5123097814206
 20
307.0222714314534
 30
0.0
 40
1.0
100
AcDbArc
 50
90.0
 51
150.0000000000003
  0
LINE
  5
2B6
330
17
100
AcDbEntity
  8
4
 62
     3
100
AcDbLine
 10
233.5123097814206
 20
308.0222714314534
 30
0.0
 11
237.7802587814207
 21
308.0222714314534
 31
0.0
  0
ARC
  5
2B7
330
17
100
AcDbEntity
  8
4
 62
     3
100
AcDbCircle
 10
168.7803417814207
 20
314.5222714314534
 30
0.0
 40
0.5
100
AcDbArc
 50
270.0
 51
0.0
  0
ARC
  5
2B8
330
17
100
AcDbEntity
  8
4
 62
     3
100
AcDbCircle
 10
162.2803427814207
 20
314.5222714314534
 30
0.0
 40
0.5
100
AcDbArc
 50
180.0
 51
270.0
  0
LINE
  5
2B9
330
17
100
AcDbEntity
  8
4
 62
     3
100
AcDbLine
 10
162.2803427814207
 20
314.0222714314534
 30
0.0
 11
168.7803417814207
 21
314.0222714314534
 31
0.0
  0
LINE
  5
2BA
330
17
100
AcDbEntity
  8
4
 62
     3
100
AcDbLine
 10
111.7802587814207
 20
308.0222714314534
 30
0.0
 11
116.0482077814207
 21
308.0222714314534
 31
0.0
  0
ARC
  5
2BB
330
17
100
AcDbEntity
  8
4
 62
     3
100
AcDbCircle
 10
116.0482077814207
 20
307.0222714314534
 30
0.0
 40
1.0
100
AcDbArc
 50
30.00000000000014
 51
90.0
  0
ARC
  5
2BC
330
17
100
AcDbEntity
  8
4
 62
     3
100
AcDbCircle
 10
117.7802587814207
 20
308.0222714314534
 30
0.0
 40
1.0
100
AcDbArc
 50
180.0
 51
270.0
  0
LINE
  5
2BD
330
17
100
AcDbEntity
  8
4
 62
     3
100
AcDbLine
 10
231.7802587814207
 20
307.0222714314534
 30
0.0
 11
117.7802587814207
 21
307.0222714314534
 31
0.0
  0
LINE
  5
2BE
330
17
100
AcDbEntity
  8
L-CENTER
 48
0.5
100
AcDbLine
 10
174.7802587814207
 20
461.4216604314533
 30
0.0
 11
174.7802587814207
 21
301.3078694314534
 31
0.0
  0
LINE
  5
2BF
330
17
100
AcDbEntity
  8
4
 62
     3
100
AcDbLine
 10
111.7802587814207
 20
366.0222714314534
 30
0.0
 11
111.7802587814207
 21
308.0222714314534
 31
0.0
  0
LINE
  5
2C0
330
17
100
AcDbEntity
  8
4
 62
     3
100
AcDbLine
 10
116.7802587814207
 20
363.2640944314535
 30
0.0
 11
116.7802587814207
 21
308.0222714314534
 31
0.0
  0
LINE
  5
2C1
330
17
100
AcDbEntity
  8
4
 62
     3
100
AcDbLine
 10
161.7803417814207
 20
314.5222714314534
 30
0.0
 11
161.7803617814207
 21
323.5222724314533
 31
0.0
  0
LINE
  5
2C2
330
17
100
AcDbEntity
  8
4
 62
     3
100
AcDbLine
 10
169.2803417814207
 20
314.5222714314534
 30
0.0
 11
169.2803417814207
 21
316.0222714314534
 31
0.0
  0
LINE
  5
2C3
330
17
100
AcDbEntity
  8
4
 62
     3
100
AcDbLine
 10
237.7802587814207
 20
366.0222714314534
 30
0.0
 11
237.7802587814207
 21
308.0222714314534
 31
0.0
  0
ARC
  5
B3E
330
17
100
AcDbEntity
  8
4
100
AcDbCircle
 10
174.7802587814207
 20
18.40843002544753
 30
0.0
 40
9.499998000000001
100
AcDbArc
 50
105.2575297064529
 51
74.74246799999966
  0
LINE
  5
B47
330
17
100
AcDbEntity
  8
4
100
AcDbLine
 10
177.2802577814206
 20
29.90843052544747
 30
0.0
 11
177.2802577814206
 21
24.90843102544741
 31
0.0
  0
LINE
  5
B4C
330
17
100
AcDbEntity
  8
L-CENTER
  6
CENTER
 62
     1
 48
0.5
100
AcDbLine
 10
174.7802587814207
 20
4.886944025447548
 30
0.0
 11
174.7802587814207
 21
31.92991602544751
 31
0.0
  0
LINE
  5
B4E
330
17
100
AcDbEntity
  8
4
100
AcDbLine
 10
172.2802582814206
 20
29.90843052544747
 30
0.0
 11
172.2802582814206
 21
24.90843102544741
 31
0.0
  0
LINE
  5
B59
330
17
100
AcDbEntity
  8
L-CENTER
  6
CENTER
 62
     1
 48
0.5
100
AcDbLine
 10
188.3017447814206
 20
18.40843002544753
 30
0.0
 11
161.2587727814206
 21
18.40843002544753
 31
0.0
  0
LINE
  5
B5A
330
17
100
AcDbEntity
  8
4
100
AcDbLine
 10
172.2802582814206
 20
29.90843052544747
 30
0.0
 11
177.2802577814206
 21
29.90843052544747
 31
0.0
  0
LINE
  5
B5B
330
17
100
AcDbEntity
  8
4
100
AcDbLine
 10
177.2802577814206
 20
24.90843102544741
 30
0.0
 11
172.2802582814206
 21
24.90843102544741
 31
0.0
  0
LINE
  5
BB2
330
17
100
AcDbEntity
  8
4
100
AcDbLine
 10
154.7802577814206
 20
194.6498873924598
 30
0.0
 11
154.7802577814206
 21
195.6498878924598
 31
0.0
  0
CIRCLE
  5
BB4
330
17
100
AcDbEntity
  8
4
  6
Continuous
100
AcDbCircle
 10
174.7802587814207
 20
390.0222714314534
 30
0.0
 40
20.00000100000011
  0
LINE
  5
BB7
330
17
100
AcDbEntity
  8
4
100
AcDbLine
 10
461.1397536826134
 20
199.64988839246
 30
0.0
 11
461.1397536826134
 21
201.14988839246
 31
0.0
  0
LINE
  5
BB8
330
17
100
AcDbEntity
  8
4
100
AcDbLine
 10
459.5397486826134
 20
199.64988839246
 30
0.0
 11
459.5397486826134
 21
201.14988839246
 31
0.0
  0
ARC
  5
BB9
330
17
100
AcDbEntity
  8
4
100
AcDbCircle
 10
460.3397511826134
 20
201.14988839246
 30
0.0
 40
0.8000025
100
AcDbArc
 50
0.0
 51
180.0
  0
LINE
  5
BBA
330
17
100
AcDbEntity
  8
4
100
AcDbLine
 10
468.3397506826134
 20
199.64988839246
 30
0.0
 11
468.3397506826134
 21
195.6498878924598
 31
0.0
  0
LINE
  5
BBB
330
17
100
AcDbEntity
  8
4
100
AcDbLine
 10
452.3397516826134
 20
199.64988839246
 30
0.0
 11
452.3397516826134
 21
195.6498878924598
 31
0.0
  0
LINE
  5
BBC
330
17
100
AcDbEntity
  8
4
100
AcDbLine
 10
452.3397516826134
 20
199.64988839246
 30
0.0
 11
468.3397506826134
 21
199.64988839246
 31
0.0
  0
LINE
  5
BE0
330
17
100
AcDbEntity
  8
4
100
AcDbLine
 10
64.78025778142091
 20
151.7501663924602
 30
0.0
 11
65.78025828142063
 21
152.7501653924601
 31
0.0
  0
LINE
  5
BE1
330
17
100
AcDbEntity
  8
4
100
AcDbLine
 10
91.78025778142069
 20
152.75016539246
 30
0.0
 11
91.78025778142069
 21
154.7501663924601
 31
0.0
  0
LINE
  5
BE2
330
17
100
AcDbEntity
  8
4
100
AcDbLine
 10
64.78025778142091
 20
154.7501663924602
 30
0.0
 11
91.78025778142069
 21
154.7501663924601
 31
0.0
  0
LINE
  5
BE3
330
17
100
AcDbEntity
  8
4
100
AcDbLine
 10
110.7803497814207
 20
154.25016539246
 30
0.0
 11
94.78025778142069
 21
154.25016539246
 31
0.0
  0
LINE
  5
BE4
330
17
100
AcDbEntity
  8
4
100
AcDbLine
 10
94.78025778142069
 20
152.75016539246
 30
0.0
 11
65.78025828142063
 21
152.7501653924601
 31
0.0
  0
LINE
  5
BE5
330
17
100
AcDbEntity
  8
4
100
AcDbLine
 10
65.78025828142057
 20
138.7501658924601
 30
0.0
 11
64.78025778142086
 21
139.7501663924601
 31
0.0
  0
LINE
  5
BE6
330
17
100
AcDbEntity
  8
4
100
AcDbLine
 10
110.7803497814207
 20
137.25016589246
 30
0.0
 11
94.78025778142066
 21
137.2501658924601
 31
0.0
  0
LINE
  5
BE7
330
17
100
AcDbEntity
  8
4
100
AcDbLine
 10
94.78025778142066
 20
138.7501658924601
 30
0.0
 11
65.78025828142057
 21
138.7501658924601
 31
0.0
  0
LINE
  5
BE8
330
17
100
AcDbEntity
  8
4
100
AcDbLine
 10
94.78025778142066
 20
137.2501658924601
 30
0.0
 11
94.78025778142069
 21
154.25016539246
 31
0.0
  0
LINE
  5
BE9
330
17
100
AcDbEntity
  8
4
100
AcDbLine
 10
64.78025778142091
 20
154.7501663924602
 30
0.0
 11
64.78025778142086
 21
139.7501663924601
 31
0.0
  0
LINE
  5
BEA
330
17
100
AcDbEntity
  8
4
100
AcDbLine
 10
65.78025828142063
 20
152.7501653924601
 30
0.0
 11
65.78025828142057
 21
138.7501658924601
 31
0.0
  0
LINE
  5
BFE
330
17
100
AcDbEntity
  8
4
100
AcDbLine
 10
110.7803497814206
 20
345.5222714314534
 30
0.0
 11
94.78025878142068
 21
345.5222714314534
 31
0.0
  0
LINE
  5
BFF
330
17
100
AcDbEntity
  8
4
100
AcDbLine
 10
110.7803497814206
 20
328.5222714314536
 30
0.0
 11
94.78025878142068
 21
328.5222714314534
 31
0.0
  0
ARC
  5
C00
330
17
100
AcDbEntity
  8
4
100
AcDbCircle
 10
94.28025878142068
 20
329.5222714314534
 30
0.0
 40
0.5
100
AcDbArc
 50
0.0
 51
90.0
  0
ARC
  5
C01
330
17
100
AcDbEntity
  8
4
100
AcDbCircle
 10
89.28025878142068
 20
337.0222714314534
 30
0.0
 40
2.5
100
AcDbArc
 50
270.0
 51
90.0
  0
LINE
  5
C02
330
17
100
AcDbEntity
  8
4
100
AcDbLine
 10
94.78025878142068
 20
345.5222714314534
 30
0.0
 11
94.78025878142068
 21
328.5222714314534
 31
0.0
  0
ARC
  5
C03
330
17
100
AcDbEntity
  8
4
100
AcDbCircle
 10
94.28025878142068
 20
344.5222714314534
 30
0.0
 40
0.5
100
AcDbArc
 50
270.0
 51
0.0
  0
LINE
  5
C04
330
17
100
AcDbEntity
  8
4
100
AcDbLine
 10
94.28025878142068
 20
344.0222714314534
 30
0.0
 11
65.28025878142068
 21
344.0222714314534
 31
0.0
  0
LINE
  5
C05
330
17
100
AcDbEntity
  8
4
100
AcDbLine
 10
64.78025878142068
 20
330.5222714314534
 30
0.0
 11
65.28025878142068
 21
330.0222714314534
 31
0.0
  0
LINE
  5
C06
330
17
100
AcDbEntity
  8
4
100
AcDbLine
 10
65.28025878142068
 20
334.5222714314536
 30
0.0
 11
65.28025878142068
 21
330.0222714314534
 31
0.0
  0
LINE
  5
C07
330
17
100
AcDbEntity
  8
4
100
AcDbLine
 10
64.78025878142068
 20
343.5222714314534
 30
0.0
 11
64.78025878142068
 21
330.5222714314534
 31
0.0
  0
LINE
  5
C08
330
17
100
AcDbEntity
  8
4
100
AcDbLine
 10
65.28025878142068
 20
344.0222714314534
 30
0.0
 11
65.28025878142068
 21
339.5222714314534
 31
0.0
  0
LINE
  5
C09
330
17
100
AcDbEntity
  8
4
100
AcDbLine
 10
64.78025878142068
 20
343.5222714314534
 30
0.0
 11
65.28025878142068
 21
344.0222714314534
 31
0.0
  0
LINE
  5
C0A
330
17
100
AcDbEntity
  8
4
100
AcDbLine
 10
89.28025878142068
 20
339.5222714314534
 30
0.0
 11
64.78025878142068
 21
339.5222714314534
 31
0.0
  0
LINE
  5
C0B
330
17
100
AcDbEntity
  8
4
100
AcDbLine
 10
89.28025878142068
 20
334.5222714314536
 30
0.0
 11
64.78025878142068
 21
334.5222714314536
 31
0.0
  0
LINE
  5
C0C
330
17
100
AcDbEntity
  8
4
100
AcDbLine
 10
94.28025878142068
 20
330.0222714314534
 30
0.0
 11
65.28025878142068
 21
330.0222714314534
 31
0.0
  0
ENDSEC
  0
SECTION
  2
OBJECTS
  0
DICTIONARY
  5
5
330
0
100
AcDbDictionary
281
     1
  3
ACAD_COLOR
350
27
  3
ACAD_GROUP
350
25
  3
ACAD_LAYOUT
350
1C
  3
ACAD_MATERIAL
350
7
  3
ACAD_MLEADERSTYLE
350
40B
  3
ACAD_MLINESTYLE
350
15
  3
ACAD_PLOTSETTINGS
350
26
  3
ACAD_PLOTSTYLENAME
350
4
  3
ACAD_SCALELIST
350
2C
  3
ACAD_TABLESTYLE
350
40A
  3
ACAD_VISUALSTYLE
350
28
  3
ACDBHEADERROUNDTRIPXREC
350
C1F
  3
AcDbVariableDictionary
350
408
  3
DWGPROPS
350
C22
  0
DICTIONARY
  5
C23
330
24
100
AcDbDictionary
280
     1
281
     1
  3
ACAD_XREC_ROUNDTRIP
360
C24
  0
DICTIONARY
  5
B9E
330
17
100
AcDbDictionary
280
     1
281
     1
  3
ACAD_SORTENTS
360
B9F
  0
DICTIONARY
  5
27
102
{ACAD_REACTORS
330
5
102
}
330
5
100
AcDbDictionary
281
     1
  0
DICTIONARY
  5
25
102
{ACAD_REACTORS
330
5
102
}
330
5
100
AcDbDictionary
281
     1
  0
DICTIONARY
  5
1C
102
{ACAD_REACTORS
330
5
102
}
330
5
100
AcDbDictionary
281
     1
  3
Model
350
1B
  3
ﾚｲｱｳﾄ1
350
21
  0
DICTIONARY
  5
7
102
{ACAD_REACTORS
330
5
102
}
330
5
100
AcDbDictionary
281
     1
  3
ByBlock
350
4F
  3
ByLayer
350
10
  3
Global
350
6
  0
DICTIONARY
  5
40B
102
{ACAD_REACTORS
330
5
102
}
330
5
100
AcDbDictionary
281
     1
  3
Standard
350
445
  0
DICTIONARY
  5
15
102
{ACAD_REACTORS
330
5
102
}
330
5
100
AcDbDictionary
281
     1
  3
STANDARD
350
14
  0
DICTIONARY
  5
26
102
{ACAD_REACTORS
330
5
102
}
330
5
100
AcDbDictionary
281
     1
  0
ACDBDICTIONARYWDFLT
  5
4
102
{ACAD_REACTORS
330
5
102
}
330
5
100
AcDbDictionary
281
     1
  3
Normal
350
3
100
AcDbDictionaryWithDefault
340
3
  0
DICTIONARY
  5
2C
102
{ACAD_REACTORS
330
5
102
}
330
5
100
AcDbDictionary
281
     1
  3
*A1
350
4E
  3
*A10
350
44F
  3
*A11
350
450
  3
*A12
350
451
  3
*A13
350
452
  3
*A14
350
453
  3
*A15
350
454
  3
*A16
350
455
  3
*A17
350
456
  3
*A2
350
447
  3
*A3
350
448
  3
*A4
350
449
  3
*A5
350
44A
  3
*A6
350
44B
  3
*A7
350
44C
  3
*A8
350
44D
  3
*A9
350
44E
  0
DICTIONARY
  5
40A
102
{ACAD_REACTORS
330
5
102
}
330
5
100
AcDbDictionary
281
     1
  3
Standard
350
444
  0
DICTIONARY
  5
28
102
{ACAD_REACTORS
330
5
102
}
330
5
100
AcDbDictionary
281
     1
  3
2dWireframe
350
413
  3
Basic
350
416
  3
Brighten
350
41A
  3
ColorChange
350
41E
  3
Conceptual
350
418
  3
Dim
350
419
  3
EdgeColorOff
350
421
  3
Facepattern
350
41D
  3
Flat
350
40F
  3
FlatWithEdges
350
410
  3
Gouraud
350
411
  3
GouraudWithEdges
350
412
  3
Hidden
350
415
  3
JitterOff
350
41F
  3
Linepattern
350
41C
  3
OverhangOff
350
420
  3
Realistic
350
417
  3
Shaded
350
426
  3
Shaded with edges
350
425
  3
Shades of Gray
350
422
  3
Sketchy
350
423
  3
Thicken
350
41B
  3
Wireframe
350
414
  3
X-Ray
350
424
  0
DICTIONARY
  5
C1F
102
{ACAD_REACTORS
330
5
102
}
330
5
100
AcDbDictionary
281
     1
  3
COLORDICT
350
C20
  3
MATERIALDICT
350
C21
  0
DICTIONARY
  5
408
102
{ACAD_REACTORS
330
5
102
}
330
5
100
AcDbDictionary
281
     1
  3
CANNOSCALE
350
409
  3
CTABLESTYLE
350
C1C
  3
DIMASSOC
350
C1D
  3
HIDETEXT
350
C1E
  3
MSLTSCALE
350
C25
  3
XCLIPFRAME
350
40C
  0
XRECORD
  5
C22
102
{ACAD_REACTORS
330
5
102
}
330
5
100
AcDbXrecord
280
     1
  1
DWGPROPS COOKIE
  2

  3

  4

  6

  7

  8
sg-d04
  9

300
=
301
=
302
=
303
=
304
=
305
=
306
=
307
=
308
=
309
=
 40
0.0
 41
2457647.257966146
 42
2457870.216876528
  1

 90
        0
  0
XRECORD
  5
C24
102
{ACAD_REACTORS
330
C23
102
}
330
C23
100
AcDbXrecord
280
     1
102
VTR_0.000_0.000_1.000_1.000_VISUALSTYLE
340
413
102
VTR_0.000_0.000_1.000_1.000_GRIDDISPLAY
 70
     3
102
VTR_0.000_0.000_1.000_1.000_GRIDMAJOR
 70
     5
102
VTR_0.000_0.000_1.000_1.000_DEFAULTLIGHTING
280
     1
102
VTR_0.000_0.000_1.000_1.000_DEFAULTLIGHTINGTYPE
 70
     1
102
VTR_0.000_0.000_1.000_1.000_BRIGHTNESS
141
0.0
102
VTR_0.000_0.000_1.000_1.000_CONTRAST
142
0.0
  0
SORTENTSTABLE
  5
B9F
102
{ACAD_REACTORS
330
B9E
102
}
330
B9E
100
AcDbSortentsTable
330
17
331
0
  5
104
331
79
  5
7C
331
7A
  5
7D
331
7D
  5
80
331
7E
  5
81
331
7F
  5
82
331
80
  5
83
331
83
  5
86
331
84
  5
87
331
85
  5
88
331
86
  5
89
331
87
  5
8A
331
88
  5
8B
331
89
  5
8C
331
8A
  5
8D
331
8B
  5
8E
331
8C
  5
8F
331
8D
  5
90
331
8E
  5
91
331
8F
  5
92
331
90
  5
93
331
91
  5
95
331
92
  5
96
331
93
  5
97
331
95
  5
98
331
96
  5
99
331
97
  5
9A
331
98
  5
9B
331
99
  5
9D
331
9A
  5
9E
331
9B
  5
9F
331
9D
  5
A0
331
9E
  5
A1
331
9F
  5
A2
331
A0
  5
A3
331
A1
  5
A5
331
A2
  5
A6
331
A3
  5
A7
331
A5
  5
A8
331
A6
  5
A9
331
A7
  5
AA
331
A8
  5
AB
331
A9
  5
AD
331
AA
  5
AE
331
AB
  5
AF
331
AD
  5
B0
331
AE
  5
B1
331
AF
  5
B2
331
B0
  5
B3
331
B1
  5
B4
331
B2
  5
B5
331
B3
  5
B6
331
B4
  5
B7
331
B5
  5
B8
331
B6
  5
B9
331
B7
  5
BA
331
B8
  5
BB
331
B9
  5
BC
331
BA
  5
BD
331
BB
  5
BE
331
BC
  5
BF
331
BD
  5
C0
331
BE
  5
C1
331
BF
  5
C2
331
C0
  5
C3
331
C1
  5
C4
331
C2
  5
C5
331
C3
  5
C6
331
C4
  5
C7
331
C5
  5
C8
331
C6
  5
C9
331
C7
  5
CA
331
C8
  5
CB
331
C9
  5
CC
331
CA
  5
CD
331
CB
  5
CE
331
CC
  5
CF
331
CD
  5
D0
331
CE
  5
D1
331
CF
  5
D2
331
D0
  5
D3
331
D1
  5
D4
331
D2
  5
D5
331
D3
  5
D6
331
ED
  5
F0
331
EF
  5
F2
331
F0
  5
F3
331
F3
  5
F6
331
F4
  5
F7
331
F5
  5
F8
331
F6
  5
F9
331
F7
  5
FA
331
F8
  5
FB
331
F9
  5
FC
331
FA
  5
FD
331
FB
  5
FE
331
FC
  5
FF
331
FD
  5
100
331
114
  5
117
331
115
  5
118
331
116
  5
119
331
117
  5
11A
331
11A
  5
11D
331
11B
  5
11E
331
11C
  5
11F
331
11F
  5
122
331
120
  5
123
331
121
  5
124
331
122
  5
125
331
123
  5
126
331
124
  5
127
331
125
  5
128
331
126
  5
129
331
128
  5
12B
331
129
  5
12C
331
12B
  5
12E
331
12C
  5
12F
331
12E
  5
131
331
12F
  5
132
331
130
  5
133
331
131
  5
134
331
132
  5
135
331
136
  5
139
331
137
  5
13A
331
138
  5
13B
331
139
  5
13C
331
13A
  5
13D
331
13B
  5
13E
331
13F
  5
142
331
140
  5
143
331
141
  5
144
331
142
  5
145
331
144
  5
147
331
145
  5
148
331
147
  5
14A
331
148
  5
14B
331
14F
  5
152
331
15D
  5
164
331
15E
  5
165
331
15F
  5
166
331
160
  5
167
331
161
  5
168
331
162
  5
169
331
163
  5
16A
331
164
  5
16B
331
165
  5
16C
331
166
  5
16D
331
167
  5
16E
331
168
  5
16F
331
169
  5
170
331
16A
  5
171
331
16B
  5
172
331
16C
  5
173
331
16D
  5
174
331
171
  5
178
331
172
  5
179
331
173
  5
17A
331
174
  5
17B
331
175
  5
17C
331
176
  5
17D
331
177
  5
17E
331
178
  5
17F
331
179
  5
180
331
17A
  5
181
331
17B
  5
182
331
17C
  5
183
331
17D
  5
184
331
17E
  5
185
331
17F
  5
186
331
180
  5
187
331
181
  5
188
331
184
  5
18B
331
188
  5
18F
331
18C
  5
193
331
18D
  5
194
331
18E
  5
195
331
18F
  5
196
331
190
  5
197
331
191
  5
198
331
192
  5
199
331
193
  5
19A
331
194
  5
19B
331
195
  5
19C
331
196
  5
19D
331
197
  5
19E
331
198
  5
19F
331
199
  5
1A0
331
19A
  5
1A1
331
19B
  5
1A2
331
19C
  5
1A3
331
1A0
  5
1A7
331
1A1
  5
1A8
331
1A2
  5
1A9
331
1A3
  5
1AA
331
1A4
  5
1AB
331
1A6
  5
1AD
331
1A7
  5
1AE
331
1A8
  5
1AF
331
1A9
  5
1B0
331
1AA
  5
1B1
331
1B6
  5
1BD
331
1B7
  5
1BE
331
1BB
  5
1C3
331
1BC
  5
1C5
331
1BD
  5
1C6
331
1BE
  5
1C7
331
1BF
  5
1C8
331
1C0
  5
1C9
331
1D4
  5
1DB
331
1D5
  5
1DC
331
1D6
  5
1DD
331
1D7
  5
1DE
331
1D8
  5
1DF
331
1D9
  5
1E0
331
1DA
  5
1E1
331
1DC
  5
1E3
331
1DD
  5
1E4
331
1DE
  5
1E5
331
1DF
  5
1E6
331
1E0
  5
1E7
331
1E1
  5
1E8
331
1E2
  5
1E9
331
1E3
  5
1EA
331
1E4
  5
1EB
331
1E5
  5
1EC
331
1E8
  5
1F1
331
1E9
  5
1F2
331
1EA
  5
1F3
331
1EB
  5
1F4
331
1EC
  5
1F6
331
1ED
  5
1F7
331
1EE
  5
1F8
331
1F2
  5
1FC
331
1F3
  5
1FD
331
1F4
  5
1FE
331
1F5
  5
1FF
331
1F6
  5
200
331
1F7
  5
201
331
1F8
  5
202
331
1F9
  5
203
331
1FF
  5
209
331
200
  5
20A
331
201
  5
20B
331
202
  5
20C
331
203
  5
20D
331
204
  5
20E
331
205
  5
20F
331
206
  5
210
331
207
  5
211
331
208
  5
212
331
209
  5
213
331
20A
  5
214
331
20B
  5
215
331
20C
  5
216
331
20D
  5
217
331
20E
  5
218
331
20F
  5
219
331
210
  5
21A
331
211
  5
21B
331
212
  5
21C
331
213
  5
21D
331
214
  5
21E
331
21A
  5
224
331
21B
  5
225
331
21C
  5
226
331
21D
  5
227
331
21E
  5
228
331
21F
  5
229
331
220
  5
22A
331
221
  5
22B
331
222
  5
22C
331
223
  5
22D
331
224
  5
22E
331
225
  5
22F
331
226
  5
230
331
227
  5
231
331
228
  5
232
331
229
  5
233
331
22A
  5
234
331
22B
  5
235
331
22C
  5
236
331
22D
  5
237
331
22E
  5
238
331
22F
  5
239
331
230
  5
23A
331
231
  5
23B
331
232
  5
23C
331
233
  5
23D
331
234
  5
23E
331
235
  5
23F
331
236
  5
240
331
237
  5
241
331
238
  5
242
331
239
  5
243
331
23A
  5
244
331
23B
  5
245
331
23C
  5
246
331
23D
  5
247
331
23E
  5
248
331
23F
  5
249
331
240
  5
24A
331
241
  5
24B
331
242
  5
24C
331
243
  5
24D
331
244
  5
24E
331
245
  5
24F
331
246
  5
250
331
247
  5
251
331
248
  5
252
331
249
  5
253
331
24A
  5
254
331
24B
  5
255
331
24C
  5
256
331
24D
  5
257
331
24E
  5
258
331
24F
  5
259
331
250
  5
25A
331
251
  5
25B
331
252
  5
25C
331
253
  5
25D
331
254
  5
25E
331
255
  5
25F
331
256
  5
260
331
257
  5
261
331
258
  5
262
331
259
  5
263
331
25A
  5
264
331
25B
  5
265
331
25C
  5
266
331
25D
  5
267
331
25E
  5
268
331
25F
  5
269
331
260
  5
26A
331
261
  5
26B
331
262
  5
26C
331
263
  5
26D
331
264
  5
26E
331
265
  5
26F
331
266
  5
270
331
267
  5
271
331
268
  5
272
331
269
  5
273
331
26A
  5
274
331
26B
  5
275
331
26C
  5
276
331
26F
  5
279
331
270
  5
27A
331
271
  5
27B
331
272
  5
27C
331
273
  5
27D
331
274
  5
27E
331
275
  5
27F
331
276
  5
280
331
277
  5
281
331
278
  5
282
331
279
  5
283
331
27A
  5
284
331
27B
  5
285
331
27C
  5
286
331
27D
  5
287
331
27E
  5
288
331
27F
  5
289
331
280
  5
28A
331
281
  5
28B
331
282
  5
28C
331
283
  5
28D
331
284
  5
28E
331
285
  5
28F
331
286
  5
290
331
287
  5
291
331
288
  5
292
331
289
  5
293
331
28A
  5
294
331
28B
  5
295
331
28C
  5
296
331
28D
  5
297
331
28E
  5
298
331
28F
  5
299
331
290
  5
29A
331
291
  5
29B
331
292
  5
29C
331
293
  5
29D
331
294
  5
29E
331
295
  5
29F
331
296
  5
2A0
331
297
  5
2A1
331
298
  5
2A2
331
299
  5
2A3
331
29A
  5
2A4
331
29B
  5
2A5
331
29C
  5
2A6
331
29D
  5
2A7
331
29E
  5
2A8
331
29F
  5
2A9
331
2A0
  5
2AA
331
2A1
  5
2AB
331
2A2
  5
2AC
331
2A3
  5
2AD
331
2A4
  5
2AE
331
2A5
  5
2AF
331
2A6
  5
2B0
331
2A7
  5
2B1
331
2A8
  5
2B2
331
2A9
  5
2B3
331
2AA
  5
2B4
331
2AB
  5
2B5
331
2AC
  5
2B6
331
2AD
  5
2B7
331
2AE
  5
2B8
331
2AF
  5
2B9
331
2B0
  5
2BA
331
2B1
  5
2BB
331
2B2
  5
2BC
331
2B3
  5
2BD
331
2B4
  5
2BE
331
2B5
  5
2BF
331
2B6
  5
2C0
331
2B7
  5
2C1
331
2B8
  5
2C2
331
2B9
  5
2C3
331
2BA
  5
A07
331
2BB
  5
A08
331
2BC
  5
A09
331
2BD
  5
A0A
331
2BE
  5
A0B
331
2BF
  5
A0C
331
2C0
  5
A0D
331
2C1
  5
A0E
331
2C2
  5
A0F
331
2C3
  5
A10
331
B3E
  5
B48
331
B47
  5
B51
331
B4C
  5
B56
331
B4E
  5
B58
331
B59
  5
B63
331
B5A
  5
B64
331
B5B
  5
B65
331
BB2
  5
BBA
331
BB4
  5
BBC
331
BB7
  5
BBE
331
BB8
  5
BBF
331
BB9
  5
BC0
331
BBA
  5
BC1
331
BBB
  5
BC2
331
BBC
  5
BC3
  0
LAYOUT
  5
1B
102
{ACAD_REACTORS
330
1C
102
}
330
1C
100
AcDbPlotSettings
  1

  2
Bullzip PDF Printer.pc3
  4
A3
  6

 40
0.2
 41
0.0
 42
0.0
 43
0.0
 44
420.2
 45
297.1
 46
25.0
 47
12.0
 48
29.99999994049995
 49
0.0
140
602.9999986280001
141
408.7499990462499
142
1.0
143
1.5
 70
 11936
 72
     1
 73
     0
 74
     4
  7
monochrome.ctb
 75
     0
147
0.697684396150172
148
-29.99999994049995
149
0.0
100
AcDbLayout
  1
Model
 70
     1
 71
     0
 10
0.0
 20
0.0
 11
12.0
 21
9.0
 12
0.0
 22
0.0
 32
0.0
 14
62.81584612684179
 24
4.886944025447576
 34
0.0
 15
531.8485408788175
 25
461.4216604314533
 35
0.0
146
0.0
 13
0.0
 23
0.0
 33
0.0
 16
1.0
 26
0.0
 36
0.0
 17
0.0
 27
1.0
 37
0.0
 76
     0
330
17
331
29
1001
ACAD_PSEXT
1000
Bullzip PDF Printer.pc3
1000
Bullzip PDF Printer
1000
BULLZIP
1000
Bullzip PDF Printer 10.1.0.1871
1070
     0
  0
LAYOUT
  5
21
102
{ACAD_REACTORS
330
1C
102
}
330
1C
100
AcDbPlotSettings
  1

  2
SR-LP8300F
  4

  6

 40
0.0
 41
0.0
 42
0.0
 43
0.0
 44
0.0
 45
0.0
 46
0.0
 47
0.0
 48
0.0
 49
0.0
140
0.0
141
0.0
142
1.0
143
1.0
 70
   688
 72
     0
 73
     0
 74
     5
  7
monochrome.ctb
 75
    16
147
1.0
148
0.0
149
0.0
100
AcDbLayout
  1
ﾚｲｱｳﾄ1
 70
     1
 71
     1
 10
0.0
 20
0.0
 11
12.0
 21
9.0
 12
0.0
 22
0.0
 32
0.0
 14
1.000000000000000E+20
 24
1.000000000000000E+20
 34
1.000000000000000E+20
 15
-1.000000000000000E+20
 25
-1.000000000000000E+20
 35
-1.000000000000000E+20
146
0.0
 13
0.0
 23
0.0
 33
0.0
 16
1.0
 26
0.0
 36
0.0
 17
0.0
 27
1.0
 37
0.0
 76
     0
330
1E
  0
MATERIAL
  5
4F
102
{ACAD_REACTORS
330
7
102
}
102
{ACAD_XDICTIONARY
360
C2A
102
}
330
7
100
AcDbMaterial
  1
BYBLOCK
 72
     0
 73
     2
 43
0.0208333333333333
 43
0.0
 43
0.0
 43
0.0
 43
0.0
 43
0.0208333333333333
 43
0.0
 43
0.0
 43
0.0
 43
0.0
 43
1.0
 43
0.0
 43
0.0
 43
0.0
 43
0.0
 43
1.0
 77
     0
 78
     2
 47
0.0208333333333333
 47
0.0
 47
0.0
 47
0.0
 47
0.0
 47
0.0208333333333333
 47
0.0
 47
0.0
 47
0.0
 47
0.0
 47
1.0
 47
0.0
 47
0.0
 47
0.0
 47
0.0
 47
1.0
171
     0
172
     2
 49
0.0208333333333333
 49
0.0
 49
0.0
 49
0.0
 49
0.0
 49
0.0208333333333333
 49
0.0
 49
0.0
 49
0.0
 49
0.0
 49
1.0
 49
0.0
 49
0.0
 49
0.0
 49
0.0
 49
1.0
175
     0
176
     2
142
0.0208333333333333
142
0.0
142
0.0
142
0.0
142
0.0
142
0.0208333333333333
142
0.0
142
0.0
142
0.0
142
0.0
142
1.0
142
0.0
142
0.0
142
0.0
142
0.0
142
1.0
179
     0
270
     2
144
0.0208333333333333
144
0.0
144
0.0
144
0.0
144
0.0
144
0.0208333333333333
144
0.0
144
0.0
144
0.0
144
0.0
144
1.0
144
0.0
144
0.0
144
0.0
144
0.0
144
1.0
274
     2
147
0.0208333333333333
147
0.0
147
0.0
147
0.0
147
0.0
147
0.0208333333333333
147
0.0
147
0.0
147
0.0
147
0.0
147
1.0
147
0.0
147
0.0
147
0.0
147
0.0
147
1.0
  0
MATERIAL
  5
10
102
{ACAD_REACTORS
330
7
102
}
102
{ACAD_XDICTIONARY
360
C26
102
}
330
7
100
AcDbMaterial
  1
BYLAYER
 72
     0
 73
     2
 43
0.0208333333333333
 43
0.0
 43
0.0
 43
0.0
 43
0.0
 43
0.0208333333333333
 43
0.0
 43
0.0
 43
0.0
 43
0.0
 43
1.0
 43
0.0
 43
0.0
 43
0.0
 43
0.0
 43
1.0
 77
     0
 78
     2
 47
0.0208333333333333
 47
0.0
 47
0.0
 47
0.0
 47
0.0
 47
0.0208333333333333
 47
0.0
 47
0.0
 47
0.0
 47
0.0
 47
1.0
 47
0.0
 47
0.0
 47
0.0
 47
0.0
 47
1.0
171
     0
172
     2
 49
0.0208333333333333
 49
0.0
 49
0.0
 49
0.0
 49
0.0
 49
0.0208333333333333
 49
0.0
 49
0.0
 49
0.0
 49
0.0
 49
1.0
 49
0.0
 49
0.0
 49
0.0
 49
0.0
 49
1.0
175
     0
176
     2
142
0.0208333333333333
142
0.0
142
0.0
142
0.0
142
0.0
142
0.0208333333333333
142
0.0
142
0.0
142
0.0
142
0.0
142
1.0
142
0.0
142
0.0
142
0.0
142
0.0
142
1.0
179
     0
270
     2
144
0.0208333333333333
144
0.0
144
0.0
144
0.0
144
0.0
144
0.0208333333333333
144
0.0
144
0.0
144
0.0
144
0.0
144
1.0
144
0.0
144
0.0
144
0.0
144
0.0
144
1.0
274
     2
147
0.0208333333333333
147
0.0
147
0.0
147
0.0
147
0.0
147
0.0208333333333333
147
0.0
147
0.0
147
0.0
147
0.0
147
1.0
147
0.0
147
0.0
147
0.0
147
0.0
147
1.0
  0
MATERIAL
  5
6
102
{ACAD_REACTORS
330
7
102
}
102
{ACAD_XDICTIONARY
360
C28
102
}
330
7
100
AcDbMaterial
  1
GLOBAL
 72
     0
 73
     2
 43
0.0208333333333333
 43
0.0
 43
0.0
 43
0.0
 43
0.0
 43
0.0208333333333333
 43
0.0
 43
0.0
 43
0.0
 43
0.0
 43
1.0
 43
0.0
 43
0.0
 43
0.0
 43
0.0
 43
1.0
 77
     0
 78
     2
 47
0.0208333333333333
 47
0.0
 47
0.0
 47
0.0
 47
0.0
 47
0.0208333333333333
 47
0.0
 47
0.0
 47
0.0
 47
0.0
 47
1.0
 47
0.0
 47
0.0
 47
0.0
 47
0.0
 47
1.0
171
     0
172
     2
 49
0.0208333333333333
 49
0.0
 49
0.0
 49
0.0
 49
0.0
 49
0.0208333333333333
 49
0.0
 49
0.0
 49
0.0
 49
0.0
 49
1.0
 49
0.0
 49
0.0
 49
0.0
 49
0.0
 49
1.0
175
     0
176
     2
142
0.0208333333333333
142
0.0
142
0.0
142
0.0
142
0.0
142
0.0208333333333333
142
0.0
142
0.0
142
0.0
142
0.0
142
1.0
142
0.0
142
0.0
142
0.0
142
0.0
142
1.0
179
     0
270
     2
144
0.0208333333333333
144
0.0
144
0.0
144
0.0
144
0.0
144
0.0208333333333333
144
0.0
144
0.0
144
0.0
144
0.0
144
1.0
144
0.0
144
0.0
144
0.0
144
0.0
144
1.0
274
     2
147
0.0208333333333333
147
0.0
147
0.0
147
0.0
147
0.0
147
0.0208333333333333
147
0.0
147
0.0
147
0.0
147
0.0
147
1.0
147
0.0
147
0.0
147
0.0
147
0.0
147
1.0
1001
ACAD
1070
    -1
1070
     3
1070
     0
1000

1071
        0
  0
MLEADERSTYLE
  5
445
102
{ACAD_REACTORS
330
40B
102
}
102
{ACAD_XDICTIONARY
360
C5C
102
}
330
40B
100
AcDbMLeaderStyle
170
     2
171
     1
172
     0
 90
        2
 40
0.0
 41
0.0
173
     1
 91
-1056964608
340
C
 92
       -2
290
     1
 42
0.09
291
     1
 43
0.36
  3
Standard
341
0
 44
0.18
300

342
13
174
     1
178
     6
175
     1
176
     0
 93
-1056964608
 45
0.18
292
     0
297
     0
 46
0.18
343
0
 94
-1056964608
 47
1.0
 49
1.0
140
1.0
293
     1
141
0.0
294
     1
177
     0
142
1.0
295
     1
296
     0
143
0.125
1001
ACAD_MLEADERVER
1070
     2
  0
MLINESTYLE
  5
14
102
{ACAD_REACTORS
330
15
102
}
330
15
100
AcDbMlineStyle
  2
STANDARD
 70
     0
  3

 62
     0
 51
90.0
 52
90.0
 71
     2
 49
0.5
 62
   256
  6
BYLAYER
 49
-0.5
 62
   256
  6
BYLAYER
  0
ACDBPLACEHOLDER
  5
3
102
{ACAD_REACTORS
330
4
102
}
330
4
  0
SCALE
  5
4E
102
{ACAD_REACTORS
330
2C
102
}
330
2C
100
AcDbScale
 70
     0
300
1:1
140
1.0
141
1.0
290
     1
  0
SCALE
  5
44F
102
{ACAD_REACTORS
330
2C
102
}
330
2C
100
AcDbScale
 70
     0
300
3/8" = 1'-0"
140
0.375
141
12.0
290
     0
  0
SCALE
  5
450
102
{ACAD_REACTORS
330
2C
102
}
330
2C
100
AcDbScale
 70
     0
300
1/2" = 1'-0"
140
0.5
141
12.0
290
     0
  0
SCALE
  5
451
102
{ACAD_REACTORS
330
2C
102
}
330
2C
100
AcDbScale
 70
     0
300
3/4" = 1'-0"
140
0.75
141
12.0
290
     0
  0
SCALE
  5
452
102
{ACAD_REACTORS
330
2C
102
}
330
2C
100
AcDbScale
 70
     0
300
1" = 1'-0"
140
1.0
141
12.0
290
     0
  0
SCALE
  5
453
102
{ACAD_REACTORS
330
2C
102
}
330
2C
100
AcDbScale
 70
     0
300
1-1/2" = 1'-0"
140
1.5
141
12.0
290
     0
  0
SCALE
  5
454
102
{ACAD_REACTORS
330
2C
102
}
330
2C
100
AcDbScale
 70
     0
300
3" = 1'-0"
140
3.0
141
12.0
290
     0
  0
SCALE
  5
455
102
{ACAD_REACTORS
330
2C
102
}
330
2C
100
AcDbScale
 70
     0
300
6" = 1'-0"
140
6.0
141
12.0
290
     0
  0
SCALE
  5
456
102
{ACAD_REACTORS
330
2C
102
}
330
2C
100
AcDbScale
 70
     0
300
1'-0" = 1'-0"
140
12.0
141
12.0
290
     0
  0
SCALE
  5
447
102
{ACAD_REACTORS
330
2C
102
}
330
2C
100
AcDbScale
 70
     0
300
1/128" = 1'-0"
140
0.0078125
141
12.0
290
     0
  0
SCALE
  5
448
102
{ACAD_REACTORS
330
2C
102
}
330
2C
100
AcDbScale
 70
     0
300
1/64" = 1'-0"
140
0.015625
141
12.0
290
     0
  0
SCALE
  5
449
102
{ACAD_REACTORS
330
2C
102
}
330
2C
100
AcDbScale
 70
     0
300
1/32" = 1'-0"
140
0.03125
141
12.0
290
     0
  0
SCALE
  5
44A
102
{ACAD_REACTORS
330
2C
102
}
330
2C
100
AcDbScale
 70
     0
300
1/16" = 1'-0"
140
0.0625
141
12.0
290
     0
  0
SCALE
  5
44B
102
{ACAD_REACTORS
330
2C
102
}
330
2C
100
AcDbScale
 70
     0
300
3/32" = 1'-0"
140
0.09375
141
12.0
290
     0
  0
SCALE
  5
44C
102
{ACAD_REACTORS
330
2C
102
}
330
2C
100
AcDbScale
 70
     0
300
1/8" = 1'-0"
140
0.125
141
12.0
290
     0
  0
SCALE
  5
44D
102
{ACAD_REACTORS
330
2C
102
}
330
2C
100
AcDbScale
 70
     0
300
3/16" = 1'-0"
140
0.1875
141
12.0
290
     0
  0
SCALE
  5
44E
102
{ACAD_REACTORS
330
2C
102
}
330
2C
100
AcDbScale
 70
     0
300
1/4" = 1'-0"
140
0.25
141
12.0
290
     0
  0
TABLESTYLE
  5
444
102
{ACAD_REACTORS
330
40A
102
}
330
40A
100
AcDbTableStyle
  3
Standard
 70
     0
 71
     0
 40
0.06
 41
0.06
280
     0
281
     0
  7
STANDARD
140
0.18
170
     2
 62
     0
 63
   257
283
     0
274
    -2
284
     1
 64
     0
275
    -2
285
     1
 65
     0
276
    -2
286
     1
 66
     0
277
    -2
287
     1
 67
     0
278
    -2
288
     1
 68
     0
279
    -2
289
     1
 69
     0
  7
STANDARD
140
0.25
170
     5
 62
     0
 63
   257
283
     0
274
    -2
284
     1
 64
     0
275
    -2
285
     1
 65
     0
276
    -2
286
     1
 66
     0
277
    -2
287
     1
 67
     0
278
    -2
288
     1
 68
     0
279
    -2
289
     1
 69
     0
  7
STANDARD
140
0.18
170
     5
 62
     0
 63
   257
283
     0
274
    -2
284
     1
 64
     0
275
    -2
285
     1
 65
     0
276
    -2
286
     1
 66
     0
277
    -2
287
     1
 67
     0
278
    -2
288
     1
 68
     0
279
    -2
289
     1
 69
     0
  0
VISUALSTYLE
  5
413
102
{ACAD_REACTORS
330
28
102
}
102
{ACAD_XDICTIONARY
360
C34
102
}
330
28
100
AcDbVisualStyle
  2
2dWireframe
 70
     4
 71
     0
 72
     2
 73
     0
 90
        0
 40
0.6
 41
30.0
 62
     5
 63
     7
 74
     1
 91
        4
 64
     7
 65
   257
 75
     1
175
     1
 42
1.0
 92
        0
 66
   257
 43
1.0
 76
     1
 77
     6
 78
     2
 67
     7
 79
     5
170
     0
171
     0
290
     0
174
     0
 93
        1
 44
0.0
173
     0
291
     0
 45
0.0
1001
ACAD
1000
AcDbSavedByObjectVersion
1070
     0
  0
VISUALSTYLE
  5
416
102
{ACAD_REACTORS
330
28
102
}
102
{ACAD_XDICTIONARY
360
C3A
102
}
330
28
100
AcDbVisualStyle
  2
Basic
 70
     7
 71
     1
 72
     0
 73
     1
 90
        0
 40
0.6
 41
30.0
 62
     5
 63
     7
 74
     0
 91
        4
 64
     7
 65
   257
 75
     1
175
     1
 42
1.0
 92
        8
 66
     7
 43
1.0
 76
     1
 77
     6
 78
     2
 67
     7
 79
     5
170
     0
171
     0
290
     0
174
     0
 93
        1
 44
0.0
173
     0
291
     1
 45
0.0
1001
ACAD
1000
AcDbSavedByObjectVersion
1070
     0
  0
VISUALSTYLE
  5
41A
102
{ACAD_REACTORS
330
28
102
}
102
{ACAD_XDICTIONARY
360
C42
102
}
330
28
100
AcDbVisualStyle
  2
Brighten
 70
    12
 71
     2
 72
     2
 73
     0
 90
        0
 40
0.6
 41
30.0
 62
     5
 63
     7
 74
     1
 91
        4
 64
     7
 65
   257
 75
     1
175
     1
 42
1.0
 92
        8
 66
     7
 43
1.0
 76
     1
 77
     6
 78
     2
 67
     7
 79
     5
170
     0
171
     0
290
     0
174
     0
 93
        1
 44
50.0
173
     0
291
     1
 45
0.0
1001
ACAD
1000
AcDbSavedByObjectVersion
1070
     0
  0
VISUALSTYLE
  5
41E
102
{ACAD_REACTORS
330
28
102
}
102
{ACAD_XDICTIONARY
360
C4A
102
}
330
28
100
AcDbVisualStyle
  2
ColorChange
 70
    16
 71
     2
 72
     2
 73
     3
 90
        0
 40
0.6
 41
30.0
 62
     5
 63
     8
 74
     1
 91
        4
 64
     7
 65
   257
 75
     1
175
     1
 42
1.0
 92
        8
 66
     8
 43
1.0
 76
     1
 77
     6
 78
     2
 67
     7
 79
     5
170
     0
171
     0
290
     0
174
     0
 93
        1
 44
0.0
173
     0
291
     1
 45
0.0
1001
ACAD
1000
AcDbSavedByObjectVersion
1070
     0
  0
VISUALSTYLE
  5
418
102
{ACAD_REACTORS
330
28
102
}
102
{ACAD_XDICTIONARY
360
C3E
102
}
330
28
100
AcDbVisualStyle
  2
Conceptual
 70
     9
 71
     3
 72
     2
 73
     0
 90
        0
 40
0.6
 41
30.0
 62
     5
 63
     7
 74
     2
 91
        2
 64
     7
 65
   257
 75
     1
175
     1
 42
40.0
 92
        8
 66
     7
 43
1.0
 76
     1
 77
     6
 78
     2
 67
     7
 79
     3
170
     0
171
     0
290
     0
174
     0
 93
        1
 44
0.0
173
     0
291
     0
 45
0.0
1001
ACAD
1000
AcDbSavedByObjectVersion
1070
     0
  0
VISUALSTYLE
  5
419
102
{ACAD_REACTORS
330
28
102
}
102
{ACAD_XDICTIONARY
360
C40
102
}
330
28
100
AcDbVisualStyle
  2
Dim
 70
    11
 71
     2
 72
     2
 73
     0
 90
        0
 40
0.6
 41
30.0
 62
     5
 63
     7
 74
     1
 91
        4
 64
     7
 65
   257
 75
     1
175
     1
 42
1.0
 92
        8
 66
     7
 43
1.0
 76
     1
 77
     6
 78
     2
 67
     7
 79
     5
170
     0
171
     0
290
     0
174
     0
 93
        1
 44
-50.0
173
     0
291
     1
 45
0.0
1001
ACAD
1000
AcDbSavedByObjectVersion
1070
     0
  0
VISUALSTYLE
  5
421
102
{ACAD_REACTORS
330
28
102
}
102
{ACAD_XDICTIONARY
360
C50
102
}
330
28
100
AcDbVisualStyle
  2
EdgeColorOff
 70
    22
 71
     2
 72
     2
 73
     0
 90
        0
 40
0.6
 41
30.0
 62
     5
 63
     7
 74
     1
 91
        4
 64
     7
 65
   257
 75
     1
175
     1
 42
1.0
 92
        8
 66
     7
 43
1.0
 76
     1
 77
     6
 78
     2
 67
     7
 79
     5
170
     0
171
     0
290
     0
174
     0
 93
        1
 44
0.0
173
     0
291
     1
 45
0.0
1001
ACAD
1000
AcDbSavedByObjectVersion
1070
     0
  0
VISUALSTYLE
  5
41D
102
{ACAD_REACTORS
330
28
102
}
102
{ACAD_XDICTIONARY
360
C48
102
}
330
28
100
AcDbVisualStyle
  2
Facepattern
 70
    15
 71
     2
 72
     2
 73
     0
 90
        0
 40
0.6
 41
30.0
 62
     5
 63
     7
 74
     1
 91
        4
 64
     7
 65
   257
 75
     1
175
     1
 42
1.0
 92
        8
 66
     7
 43
1.0
 76
     1
 77
     6
 78
     2
 67
     7
 79
     5
170
     0
171
     0
290
     0
174
     0
 93
        1
 44
0.0
173
     0
291
     1
 45
0.0
1001
ACAD
1000
AcDbSavedByObjectVersion
1070
     0
  0
VISUALSTYLE
  5
40F
102
{ACAD_REACTORS
330
28
102
}
102
{ACAD_XDICTIONARY
360
C2C
102
}
330
28
100
AcDbVisualStyle
  2
Flat
 70
     0
 71
     2
 72
     1
 73
     1
 90
        2
 40
0.6
 41
30.0
 62
     5
 63
     7
 74
     0
 91
        4
 64
     7
 65
   257
 75
     1
175
     1
 42
1.0
 92
        8
 66
     7
 43
1.0
 76
     1
 77
     6
 78
     2
 67
     7
 79
     5
170
     0
171
     0
290
     0
174
     0
 93
       13
 44
0.0
173
     0
291
     1
 45
0.0
1001
ACAD
1000
AcDbSavedByObjectVersion
1070
     0
  0
VISUALSTYLE
  5
410
102
{ACAD_REACTORS
330
28
102
}
102
{ACAD_XDICTIONARY
360
C2E
102
}
330
28
100
AcDbVisualStyle
  2
FlatWithEdges
 70
     1
 71
     2
 72
     1
 73
     1
 90
        2
 40
0.6
 41
30.0
 62
     5
 63
     7
 74
     1
 91
        4
 64
     7
 65
   257
 75
     1
175
     1
 42
1.0
 92
        0
 66
   257
 43
1.0
 76
     1
 77
     6
 78
     2
 67
     7
 79
     5
170
     0
171
     0
290
     0
174
     0
 93
       13
 44
0.0
173
     0
291
     1
 45
0.0
1001
ACAD
1000
AcDbSavedByObjectVersion
1070
     0
  0
VISUALSTYLE
  5
411
102
{ACAD_REACTORS
330
28
102
}
102
{ACAD_XDICTIONARY
360
C30
102
}
330
28
100
AcDbVisualStyle
  2
Gouraud
 70
     2
 71
     2
 72
     2
 73
     1
 90
        2
 40
0.6
 41
30.0
 62
     5
 63
     7
 74
     0
 91
        4
 64
     7
 65
   257
 75
     1
175
     1
 42
1.0
 92
        0
 66
     7
 43
1.0
 76
     1
 77
     6
 78
     2
 67
     7
 79
     5
170
     0
171
     0
290
     0
174
     0
 93
       13
 44
0.0
173
     0
291
     1
 45
0.0
1001
ACAD
1000
AcDbSavedByObjectVersion
1070
     0
  0
VISUALSTYLE
  5
412
102
{ACAD_REACTORS
330
28
102
}
102
{ACAD_XDICTIONARY
360
C32
102
}
330
28
100
AcDbVisualStyle
  2
GouraudWithEdges
 70
     3
 71
     2
 72
     2
 73
     1
 90
        2
 40
0.6
 41
30.0
 62
     5
 63
     7
 74
     1
 91
        4
 64
     7
 65
   257
 75
     1
175
     1
 42
1.0
 92
        0
 66
   257
 43
1.0
 76
     1
 77
     6
 78
     2
 67
     7
 79
     5
170
     0
171
     0
290
     0
174
     0
 93
       13
 44
0.0
173
     0
291
     1
 45
0.0
1001
ACAD
1000
AcDbSavedByObjectVersion
1070
     0
  0
VISUALSTYLE
  5
415
102
{ACAD_REACTORS
330
28
102
}
102
{ACAD_XDICTIONARY
360
C38
102
}
330
28
100
AcDbVisualStyle
  2
Hidden
 70
     6
 71
     1
 72
     2
 73
     2
 90
        0
 40
0.6
 41
30.0
 62
     5
 63
     7
 74
     2
 91
        2
 64
     7
 65
   257
 75
     2
175
     1
 42
40.0
 92
        0
 66
   257
 43
1.0
 76
     1
 77
     6
 78
     2
 67
     7
 79
     3
170
     0
171
     0
290
     0
174
     0
 93
        1
 44
0.0
173
     0
291
     0
 45
0.0
1001
ACAD
1000
AcDbSavedByObjectVersion
1070
     0
  0
VISUALSTYLE
  5
41F
102
{ACAD_REACTORS
330
28
102
}
102
{ACAD_XDICTIONARY
360
C4C
102
}
330
28
100
AcDbVisualStyle
  2
JitterOff
 70
    20
 71
     2
 72
     2
 73
     0
 90
        0
 40
0.6
 41
30.0
 62
     5
 63
     7
 74
     1
 91
        4
 64
     7
 65
   257
 75
     1
175
     1
 42
1.0
 92
       10
 66
     7
 43
1.0
 76
     1
 77
     6
 78
     2
 67
     7
 79
     5
170
     0
171
     0
290
     0
174
     0
 93
        1
 44
0.0
173
     0
291
     1
 45
0.0
1001
ACAD
1000
AcDbSavedByObjectVersion
1070
     0
  0
VISUALSTYLE
  5
41C
102
{ACAD_REACTORS
330
28
102
}
102
{ACAD_XDICTIONARY
360
C46
102
}
330
28
100
AcDbVisualStyle
  2
Linepattern
 70
    14
 71
     2
 72
     2
 73
     0
 90
        0
 40
0.6
 41
30.0
 62
     5
 63
     7
 74
     1
 91
        4
 64
     7
 65
   257
 75
     7
175
     7
 42
1.0
 92
        8
 66
     7
 43
1.0
 76
     1
 77
     6
 78
     2
 67
     7
 79
     5
170
     0
171
     0
290
     0
174
     0
 93
        1
 44
0.0
173
     0
291
     1
 45
0.0
1001
ACAD
1000
AcDbSavedByObjectVersion
1070
     0
  0
VISUALSTYLE
  5
420
102
{ACAD_REACTORS
330
28
102
}
102
{ACAD_XDICTIONARY
360
C4E
102
}
330
28
100
AcDbVisualStyle
  2
OverhangOff
 70
    21
 71
     2
 72
     2
 73
     0
 90
        0
 40
0.6
 41
30.0
 62
     5
 63
     7
 74
     1
 91
        4
 64
     7
 65
   257
 75
     1
175
     1
 42
1.0
 92
        9
 66
     7
 43
1.0
 76
     1
 77
     6
 78
     2
 67
     7
 79
     5
170
     0
171
     0
290
     0
174
     0
 93
        1
 44
0.0
173
     0
291
     1
 45
0.0
1001
ACAD
1000
AcDbSavedByObjectVersion
1070
     0
  0
VISUALSTYLE
  5
417
102
{ACAD_REACTORS
330
28
102
}
102
{ACAD_XDICTIONARY
360
C3C
102
}
330
28
100
AcDbVisualStyle
  2
Realistic
 70
     8
 71
     2
 72
     3
 73
     0
 90
        2
 40
0.6
 41
30.0
 62
     5
 63
     7
 74
     0
 91
        0
 64
     7
 65
   257
 75
     1
175
     1
 42
1.0
 92
        8
 66
   257
 43
1.0
 76
     1
 77
     6
 78
     2
 67
     7
 79
     3
170
     0
171
     0
290
     0
174
     0
 93
       13
 44
0.0
173
     0
291
     0
 45
0.0
1001
ACAD
1000
AcDbSavedByObjectVersion
1070
     0
  0
VISUALSTYLE
  5
426
102
{ACAD_REACTORS
330
28
102
}
102
{ACAD_XDICTIONARY
360
C5A
102
}
330
28
100
AcDbVisualStyle
  2
Shaded
 70
    27
 71
     2
 72
     2
 73
     1
 90
        2
 40
0.6
 41
30.0
 62
     5
 63
     7
 74
     0
 91
        4
 64
     7
 65
   257
 75
     1
175
     1
 42
1.0
 92
        8
 66
   257
 43
1.0
 76
     1
 77
     6
 78
     2
 67
   251
 79
     3
170
     0
171
     0
290
     0
174
     0
 93
        5
 44
0.0
173
     0
291
     0
 45
0.0
1001
ACAD
1000
AcDbSavedByObjectVersion
1070
     0
  0
VISUALSTYLE
  5
425
102
{ACAD_REACTORS
330
28
102
}
102
{ACAD_XDICTIONARY
360
C58
102
}
330
28
100
AcDbVisualStyle
  2
Shaded with edges
 70
    26
 71
     2
 72
     2
 73
     1
 90
        2
 40
0.6
 41
30.0
 62
     5
 63
     7
 74
     1
 91
       10
 64
     7
 65
   257
 75
     2
175
     1
 42
1.0
 92
        8
 66
   257
 43
1.0
 76
     1
 77
     6
 78
     2
 67
     7
 79
     3
170
     0
171
     0
290
     0
174
     0
 93
        5
 44
0.0
173
     0
291
     0
 45
0.0
1001
ACAD
1000
AcDbSavedByObjectVersion
1070
     0
  0
VISUALSTYLE
  5
422
102
{ACAD_REACTORS
330
28
102
}
102
{ACAD_XDICTIONARY
360
C52
102
}
330
28
100
AcDbVisualStyle
  2
Shades of Gray
 70
    23
 71
     2
 72
     2
 73
     3
 90
        0
 40
0.6
 41
30.0
 62
     5
 63
     7
 74
     2
 91
        2
 64
     7
 65
     7
 75
     1
175
     1
 42
40.0
 92
        8
 66
     7
 43
1.0
 76
     1
 77
     6
 78
     2
 67
     7
 79
     3
170
     0
171
     0
290
     0
174
     0
 93
        1
 44
0.0
173
     0
291
     0
 45
0.0
1001
ACAD
1000
AcDbSavedByObjectVersion
1070
     0
  0
VISUALSTYLE
  5
423
102
{ACAD_REACTORS
330
28
102
}
102
{ACAD_XDICTIONARY
360
C54
102
}
330
28
100
AcDbVisualStyle
  2
Sketchy
 70
    24
 71
     1
 72
     2
 73
     2
 90
        0
 40
0.6
 41
30.0
 62
     5
 63
     7
 74
     2
 91
        2
 64
     7
 65
     7
 75
     1
175
     1
 42
40.0
 92
       11
 66
     7
 43
1.0
 76
     1
 77
     6
 78
     2
 67
     7
 79
     6
170
     0
171
     0
290
     0
174
     0
 93
        1
 44
0.0
173
     0
291
     0
 45
0.0
1001
ACAD
1000
AcDbSavedByObjectVersion
1070
     0
  0
VISUALSTYLE
  5
41B
102
{ACAD_REACTORS
330
28
102
}
102
{ACAD_XDICTIONARY
360
C44
102
}
330
28
100
AcDbVisualStyle
  2
Thicken
 70
    13
 71
     2
 72
     2
 73
     0
 90
        0
 40
0.6
 41
30.0
 62
     5
 63
     7
 74
     1
 91
        4
 64
     7
 65
   257
 75
     1
175
     1
 42
1.0
 92
       12
 66
     7
 43
1.0
 76
     1
 77
     6
 78
     2
 67
     7
 79
     5
170
     0
171
     0
290
     0
174
     0
 93
        1
 44
0.0
173
     0
291
     1
 45
0.0
1001
ACAD
1000
AcDbSavedByObjectVersion
1070
     0
  0
VISUALSTYLE
  5
414
102
{ACAD_REACTORS
330
28
102
}
102
{ACAD_XDICTIONARY
360
C36
102
}
330
28
100
AcDbVisualStyle
  2
Wireframe
 70
     5
 71
     0
 72
     2
 73
     0
 90
        0
 40
0.6
 41
30.0
 62
     5
 63
     7
 74
     1
 91
        4
 64
     7
 65
   257
 75
     1
175
     1
 42
1.0
 92
        0
 66
   257
 43
1.0
 76
     1
 77
     6
 78
     2
 67
     7
 79
     5
170
     0
171
     0
290
     0
174
     0
 93
        1
 44
0.0
173
     0
291
     0
 45
0.0
1001
ACAD
1000
AcDbSavedByObjectVersion
1070
     0
  0
VISUALSTYLE
  5
424
102
{ACAD_REACTORS
330
28
102
}
102
{ACAD_XDICTIONARY
360
C56
102
}
330
28
100
AcDbVisualStyle
  2
X-Ray
 70
    25
 71
     2
 72
     2
 73
     1
 90
        1
 40
0.5
 41
30.0
 62
     5
 63
     7
 74
     1
 91
        0
 64
     7
 65
   257
 75
     1
175
     1
 42
1.0
 92
        8
 66
     7
 43
1.0
 76
     1
 77
     6
 78
     2
 67
     7
 79
     3
170
     0
171
     0
290
     0
174
     0
 93
       13
 44
0.0
173
     0
291
     0
 45
0.0
1001
ACAD
1000
AcDbSavedByObjectVersion
1070
     0
  0
XRECORD
  5
C20
102
{ACAD_REACTORS
330
C1F
102
}
330
C1F
100
AcDbXrecord
280
     1
340
27
  0
XRECORD
  5
C21
102
{ACAD_REACTORS
330
C1F
102
}
330
C1F
100
AcDbXrecord
280
     1
340
7
  0
DICTIONARYVAR
  5
409
102
{ACAD_REACTORS
330
408
102
}
330
408
100
DictionaryVariables
280
     0
  1
1:1
  0
DICTIONARYVAR
  5
C1C
102
{ACAD_REACTORS
330
408
102
}
330
408
100
DictionaryVariables
280
     0
  1
Standard
  0
DICTIONARYVAR
  5
C1D
102
{ACAD_REACTORS
330
408
102
}
330
408
100
DictionaryVariables
280
     0
  1
0
  0
DICTIONARYVAR
  5
C1E
102
{ACAD_REACTORS
330
408
102
}
330
408
100
DictionaryVariables
280
     0
  1
1
  0
DICTIONARYVAR
  5
C25
102
{ACAD_REACTORS
330
408
102
}
330
408
100
DictionaryVariables
280
     0
  1
1
  0
DICTIONARYVAR
  5
40C
102
{ACAD_REACTORS
330
408
102
}
330
408
100
DictionaryVariables
280
     0
  1
0
  0
DICTIONARY
  5
C2A
330
4F
100
AcDbDictionary
280
     1
281
     1
  3
ACAD_XREC_ROUNDTRIP
360
C2B
  0
DICTIONARY
  5
C26
330
10
100
AcDbDictionary
280
     1
281
     1
  3
ACAD_XREC_ROUNDTRIP
360
C27
  0
DICTIONARY
  5
C28
330
6
100
AcDbDictionary
280
     1
281
     1
  3
ACAD_XREC_ROUNDTRIP
360
C29
  0
DICTIONARY
  5
C5C
330
445
100
AcDbDictionary
280
     1
281
     1
  3
ACAD_XREC_ROUNDTRIP
360
C5D
  0
DICTIONARY
  5
C34
330
413
100
AcDbDictionary
280
     1
281
     1
  3
ACAD_XREC_ROUNDTRIP
360
C35
  0
DICTIONARY
  5
C3A
330
416
100
AcDbDictionary
280
     1
281
     1
  3
ACAD_XREC_ROUNDTRIP
360
C3B
  0
DICTIONARY
  5
C42
330
41A
100
AcDbDictionary
280
     1
281
     1
  3
ACAD_XREC_ROUNDTRIP
360
C43
  0
DICTIONARY
  5
C4A
330
41E
100
AcDbDictionary
280
     1
281
     1
  3
ACAD_XREC_ROUNDTRIP
360
C4B
  0
DICTIONARY
  5
C3E
330
418
100
AcDbDictionary
280
     1
281
     1
  3
ACAD_XREC_ROUNDTRIP
360
C3F
  0
DICTIONARY
  5
C40
330
419
100
AcDbDictionary
280
     1
281
     1
  3
ACAD_XREC_ROUNDTRIP
360
C41
  0
DICTIONARY
  5
C50
330
421
100
AcDbDictionary
280
     1
281
     1
  3
ACAD_XREC_ROUNDTRIP
360
C51
  0
DICTIONARY
  5
C48
330
41D
100
AcDbDictionary
280
     1
281
     1
  3
ACAD_XREC_ROUNDTRIP
360
C49
  0
DICTIONARY
  5
C2C
330
40F
100
AcDbDictionary
280
     1
281
     1
  3
ACAD_XREC_ROUNDTRIP
360
C2D
  0
DICTIONARY
  5
C2E
330
410
100
AcDbDictionary
280
     1
281
     1
  3
ACAD_XREC_ROUNDTRIP
360
C2F
  0
DICTIONARY
  5
C30
330
411
100
AcDbDictionary
280
     1
281
     1
  3
ACAD_XREC_ROUNDTRIP
360
C31
  0
DICTIONARY
  5
C32
330
412
100
AcDbDictionary
280
     1
281
     1
  3
ACAD_XREC_ROUNDTRIP
360
C33
  0
DICTIONARY
  5
C38
330
415
100
AcDbDictionary
280
     1
281
     1
  3
ACAD_XREC_ROUNDTRIP
360
C39
  0
DICTIONARY
  5
C4C
330
41F
100
AcDbDictionary
280
     1
281
     1
  3
ACAD_XREC_ROUNDTRIP
360
C4D
  0
DICTIONARY
  5
C46
330
41C
100
AcDbDictionary
280
     1
281
     1
  3
ACAD_XREC_ROUNDTRIP
360
C47
  0
DICTIONARY
  5
C4E
330
420
100
AcDbDictionary
280
     1
281
     1
  3
ACAD_XREC_ROUNDTRIP
360
C4F
  0
DICTIONARY
  5
C3C
330
417
100
AcDbDictionary
280
     1
281
     1
  3
ACAD_XREC_ROUNDTRIP
360
C3D
  0
DICTIONARY
  5
C5A
330
426
100
AcDbDictionary
280
     1
281
     1
  3
ACAD_XREC_ROUNDTRIP
360
C5B
  0
DICTIONARY
  5
C58
330
425
100
AcDbDictionary
280
     1
281
     1
  3
ACAD_XREC_ROUNDTRIP
360
C59
  0
DICTIONARY
  5
C52
330
422
100
AcDbDictionary
280
     1
281
     1
  3
ACAD_XREC_ROUNDTRIP
360
C53
  0
DICTIONARY
  5
C54
330
423
100
AcDbDictionary
280
     1
281
     1
  3
ACAD_XREC_ROUNDTRIP
360
C55
  0
DICTIONARY
  5
C44
330
41B
100
AcDbDictionary
280
     1
281
     1
  3
ACAD_XREC_ROUNDTRIP
360
C45
  0
DICTIONARY
  5
C36
330
414
100
AcDbDictionary
280
     1
281
     1
  3
ACAD_XREC_ROUNDTRIP
360
C37
  0
DICTIONARY
  5
C56
330
424
100
AcDbDictionary
280
     1
281
     1
  3
ACAD_XREC_ROUNDTRIP
360
C57
  0
XRECORD
  5
C2B
102
{ACAD_REACTORS
330
C2A
102
}
330
C2A
100
AcDbXrecord
280
     1
102
MATERIAL
148
0.0
149
0.0
149
0.0
 93
        0
 94
      127
282
     0
 72
     0
 77
     0
171
     0
175
     0
179
     0
273
     0
  0
XRECORD
  5
C27
102
{ACAD_REACTORS
330
C26
102
}
330
C26
100
AcDbXrecord
280
     1
102
MATERIAL
148
0.0
149
0.0
149
0.0
 93
        0
 94
      127
282
     0
 72
     0
 77
     0
171
     0
175
     0
179
     0
273
     0
  0
XRECORD
  5
C29
102
{ACAD_REACTORS
330
C28
102
}
330
C28
100
AcDbXrecord
280
     1
102
MATERIAL
148
0.0
149
0.0
149
0.0
 93
        0
 94
      127
282
     0
 72
     0
 77
     0
171
     0
175
     0
179
     0
273
     0
  0
XRECORD
  5
C5D
102
{ACAD_REACTORS
330
C5C
102
}
330
C5C
100
AcDbXrecord
280
     1
102
ACAD_ROUNDTRIP_2012_MLEADER_STYLE
298
     1
  0
XRECORD
  5
C35
102
{ACAD_REACTORS
330
C34
102
}
330
C34
100
AcDbXrecord
280
     1
102
RTVSPropertyOp0
 70
     1
102
RTVSPropertyOp1
 70
     1
102
RTVSPropertyOp2
 70
     1
102
RTVSPropertyOp3
 70
     1
102
RTVSPropertyOp4
 70
     1
102
RTVSPropertyOp5
 70
     1
102
RTVSPropertyOp6
 70
     1
102
RTVSPropertyOp7
 70
     1
102
RTVSPropertyOp8
 70
     1
102
RTVSPropertyOp9
 70
     1
102
RTVSPropertyOp10
 70
     1
102
RTVSPropertyOp11
 70
     1
102
RTVSPropertyOp12
 70
     1
102
RTVSPropertyOp13
 70
     1
102
RTVSPropertyOp14
 70
     1
102
RTVSPropertyOp15
 70
     1
102
RTVSPropertyOp16
 70
     1
102
RTVSPropertyOp17
 70
     1
102
RTVSPropertyOp18
 70
     1
102
RTVSPropertyOp19
 70
     1
102
RTVSPropertyOp20
 70
     1
102
RTVSPropertyOp21
 70
     1
102
RTVSPropertyOp22
 70
     1
102
RTVSPropertyOp23
 70
     1
102
RTVSPropertyOp24
 70
     1
102
RTVSPropertyOp25
 70
     1
102
RTVSPropertyOp26
 70
     1
102
RTVSPropertyOp27
 70
     1
102
RTVSPropertyOp28
 70
     1
102
RTVSPropertyOp29
 70
     1
102
RTVSPropertyOp30
 70
     1
102
RTVSPropertyOp31
 70
     1
102
RTVSPropertyOp32
 70
     1
102
RTVSPropertyOp33
 70
     1
102
RTVSPropertyOp34
 70
     1
102
RTVSPropertyOp35
 70
     1
102
RTVSPropertyOp36
 70
     1
102
RTVSPropertyOp37
 70
     1
102
RTVSPropertyOp38
 70
     1
102
RTVSPropertyOp39
 70
     1
102
RTVSPropertyOp40
 70
     1
102
RTVSPropertyOp41
 70
     1
102
RTVSPropertyOp42
 70
     1
102
RTVSPropertyOp43
 70
     1
102
RTVSPropertyOp44
 70
     1
102
RTVSPropertyOp45
 70
     1
102
RTVSPropertyOp46
 70
     1
102
RTVSPropertyOp47
 70
     1
102
RTVSPropertyOp48
 70
     1
102
RTVSPropertyOp49
 70
     1
102
RTVSPropertyOp50
 70
     1
102
RTVSPropertyOp51
 70
     0
102
RTVSPropertyOp52
 70
     0
102
RTVSPropertyOp53
 70
     1
102
RTVSPropertyOp54
 70
     1
102
RTVSPropertyOp55
 70
     1
102
RTVSPropertyOp56
 70
     1
102
RTVSPropertyOp57
 70
     1
102
RTVSPost2010Prop28
280
     1
102
RTVSPost2010PropOp28
 70
     1
102
RTVSPost2010Prop29
280
     1
102
RTVSPost2010PropOp29
 70
     1
102
RTVSPost2010Prop30
280
     0
102
RTVSPost2010PropOp30
 70
     1
102
RTVSPost2010Prop31
280
     0
102
RTVSPost2010PropOp31
 70
     1
102
RTVSPost2010Prop32
280
     0
102
RTVSPost2010PropOp32
 70
     1
102
RTVSPost2010Prop33
280
     0
102
RTVSPost2010PropOp33
 70
     1
102
RTVSPost2010Prop34
280
     0
102
RTVSPost2010PropOp34
 70
     1
102
RTVSPost2010Prop35
280
     0
102
RTVSPost2010PropOp35
 70
     1
102
RTVSPost2010Prop36
280
     0
102
RTVSPost2010PropOp36
 70
     1
102
RTVSPost2010Prop37
 90
       50
102
RTVSPost2010PropOp37
 70
     1
102
RTVSPost2010Prop38
140
0.0
102
RTVSPost2010PropOp38
 70
     1
102
RTVSPost2010Prop39
140
1.0
102
RTVSPost2010PropOp39
 70
     1
102
RTVSPost2010Prop40
 90
        0
102
RTVSPost2010PropOp40
 70
     1
102
RTVSPost2010Prop41ColorIndex
 90
       18
102
RTVSPost2010Prop41ColorRGB
 90
        0
102
RTVSPost2010PropOp41
 70
     1
102
RTVSPost2010Prop42
 90
       50
102
RTVSPost2010PropOp42
 70
     1
102
RTVSPost2010Prop43
 90
        3
102
RTVSPost2010PropOp43
 70
     1
102
RTVSPost2010Prop44ColorIndex
 90
        5
102
RTVSPost2010Prop44ColorRGB
 90
      255
102
RTVSPost2010PropOp44
 70
     1
102
RTVSPost2010Prop45
280
     0
102
RTVSPost2010PropOp45
 70
     1
102
RTVSPost2010Prop46
 90
       50
102
RTVSPost2010PropOp46
 70
     1
102
RTVSPost2010Prop47
 90
       50
102
RTVSPost2010PropOp47
 70
     1
102
RTVSPost2010Prop48
 90
       50
102
RTVSPost2010PropOp48
 70
     1
102
RTVSPost2010Prop49
280
     0
102
RTVSPost2010PropOp49
 70
     1
102
RTVSPost2010Prop50
 90
       50
102
RTVSPost2010PropOp50
 70
     1
102
RTVSPost2010Prop51ColorIndex
 90
      256
102
RTVSPost2010Prop51ColorRGB
 90
-16777216
102
RTVSPost2010PropOp51
 70
     0
102
RTVSPost2010Prop52
140
1.0
102
RTVSPost2010PropOp52
 70
     0
102
RTVSPost2010Prop53
 90
        2
102
RTVSPost2010PropOp53
 70
     1
102
RTVSPost2010Prop54
  1
strokes_ogs.tif
102
RTVSPost2010PropOp54
 70
     1
102
RTVSPost2010Prop55
280
     0
102
RTVSPost2010PropOp55
 70
     1
102
RTVSPost2010Prop56
140
1.0
102
RTVSPost2010PropOp56
 70
     1
102
RTVSPost2010Prop57
140
1.0
102
RTVSPost2010PropOp57
 70
     1
  0
XRECORD
  5
C3B
102
{ACAD_REACTORS
330
C3A
102
}
330
C3A
100
AcDbXrecord
280
     1
102
RTVSPropertyOp0
 70
     1
102
RTVSPropertyOp1
 70
     1
102
RTVSPropertyOp2
 70
     1
102
RTVSPropertyOp3
 70
     1
102
RTVSPropertyOp4
 70
     1
102
RTVSPropertyOp5
 70
     1
102
RTVSPropertyOp6
 70
     1
102
RTVSPropertyOp7
 70
     1
102
RTVSPropertyOp8
 70
     1
102
RTVSPropertyOp9
 70
     1
102
RTVSPropertyOp10
 70
     1
102
RTVSPropertyOp11
 70
     1
102
RTVSPropertyOp12
 70
     1
102
RTVSPropertyOp13
 70
     1
102
RTVSPropertyOp14
 70
     1
102
RTVSPropertyOp15
 70
     1
102
RTVSPropertyOp16
 70
     1
102
RTVSPropertyOp17
 70
     1
102
RTVSPropertyOp18
 70
     1
102
RTVSPropertyOp19
 70
     1
102
RTVSPropertyOp20
 70
     1
102
RTVSPropertyOp21
 70
     1
102
RTVSPropertyOp22
 70
     1
102
RTVSPropertyOp23
 70
     1
102
RTVSPropertyOp24
 70
     1
102
RTVSPropertyOp25
 70
     1
102
RTVSPropertyOp26
 70
     1
102
RTVSPropertyOp27
 70
     1
102
RTVSPropertyOp28
 70
     1
102
RTVSPropertyOp29
 70
     1
102
RTVSPropertyOp30
 70
     1
102
RTVSPropertyOp31
 70
     1
102
RTVSPropertyOp32
 70
     1
102
RTVSPropertyOp33
 70
     1
102
RTVSPropertyOp34
 70
     1
102
RTVSPropertyOp35
 70
     1
102
RTVSPropertyOp36
 70
     1
102
RTVSPropertyOp37
 70
     1
102
RTVSPropertyOp38
 70
     1
102
RTVSPropertyOp39
 70
     1
102
RTVSPropertyOp40
 70
     1
102
RTVSPropertyOp41
 70
     1
102
RTVSPropertyOp42
 70
     1
102
RTVSPropertyOp43
 70
     1
102
RTVSPropertyOp44
 70
     1
102
RTVSPropertyOp45
 70
     1
102
RTVSPropertyOp46
 70
     1
102
RTVSPropertyOp47
 70
     1
102
RTVSPropertyOp48
 70
     1
102
RTVSPropertyOp49
 70
     1
102
RTVSPropertyOp50
 70
     1
102
RTVSPropertyOp51
 70
     0
102
RTVSPropertyOp52
 70
     0
102
RTVSPropertyOp53
 70
     1
102
RTVSPropertyOp54
 70
     1
102
RTVSPropertyOp55
 70
     1
102
RTVSPropertyOp56
 70
     1
102
RTVSPropertyOp57
 70
     1
102
RTVSPost2010Prop28
280
     0
102
RTVSPost2010PropOp28
 70
     1
102
RTVSPost2010Prop29
280
     1
102
RTVSPost2010PropOp29
 70
     1
102
RTVSPost2010Prop30
280
     1
102
RTVSPost2010PropOp30
 70
     1
102
RTVSPost2010Prop31
280
     0
102
RTVSPost2010PropOp31
 70
     1
102
RTVSPost2010Prop32
280
     0
102
RTVSPost2010PropOp32
 70
     1
102
RTVSPost2010Prop33
280
     0
102
RTVSPost2010PropOp33
 70
     1
102
RTVSPost2010Prop34
280
     0
102
RTVSPost2010PropOp34
 70
     1
102
RTVSPost2010Prop35
280
     0
102
RTVSPost2010PropOp35
 70
     1
102
RTVSPost2010Prop36
280
     0
102
RTVSPost2010PropOp36
 70
     1
102
RTVSPost2010Prop37
 90
       50
102
RTVSPost2010PropOp37
 70
     1
102
RTVSPost2010Prop38
140
0.0
102
RTVSPost2010PropOp38
 70
     1
102
RTVSPost2010Prop39
140
1.0
102
RTVSPost2010PropOp39
 70
     1
102
RTVSPost2010Prop40
 90
        0
102
RTVSPost2010PropOp40
 70
     1
102
RTVSPost2010Prop41ColorIndex
 90
       18
102
RTVSPost2010Prop41ColorRGB
 90
        0
102
RTVSPost2010PropOp41
 70
     1
102
RTVSPost2010Prop42
 90
       50
102
RTVSPost2010PropOp42
 70
     1
102
RTVSPost2010Prop43
 90
        3
102
RTVSPost2010PropOp43
 70
     1
102
RTVSPost2010Prop44ColorIndex
 90
        5
102
RTVSPost2010Prop44ColorRGB
 90
      255
102
RTVSPost2010PropOp44
 70
     1
102
RTVSPost2010Prop45
280
     0
102
RTVSPost2010PropOp45
 70
     1
102
RTVSPost2010Prop46
 90
       50
102
RTVSPost2010PropOp46
 70
     1
102
RTVSPost2010Prop47
 90
       50
102
RTVSPost2010PropOp47
 70
     1
102
RTVSPost2010Prop48
 90
       50
102
RTVSPost2010PropOp48
 70
     1
102
RTVSPost2010Prop49
280
     0
102
RTVSPost2010PropOp49
 70
     1
102
RTVSPost2010Prop50
 90
       50
102
RTVSPost2010PropOp50
 70
     1
102
RTVSPost2010Prop51ColorIndex
 90
      256
102
RTVSPost2010Prop51ColorRGB
 90
-16777216
102
RTVSPost2010PropOp51
 70
     0
102
RTVSPost2010Prop52
140
1.0
102
RTVSPost2010PropOp52
 70
     0
102
RTVSPost2010Prop53
 90
        2
102
RTVSPost2010PropOp53
 70
     1
102
RTVSPost2010Prop54
  1
strokes_ogs.tif
102
RTVSPost2010PropOp54
 70
     1
102
RTVSPost2010Prop55
280
     0
102
RTVSPost2010PropOp55
 70
     1
102
RTVSPost2010Prop56
140
1.0
102
RTVSPost2010PropOp56
 70
     1
102
RTVSPost2010Prop57
140
1.0
102
RTVSPost2010PropOp57
 70
     1
  0
XRECORD
  5
C43
102
{ACAD_REACTORS
330
C42
102
}
330
C42
100
AcDbXrecord
280
     1
102
RTVSPropertyOp0
 70
     1
102
RTVSPropertyOp1
 70
     1
102
RTVSPropertyOp2
 70
     1
102
RTVSPropertyOp3
 70
     1
102
RTVSPropertyOp4
 70
     1
102
RTVSPropertyOp5
 70
     1
102
RTVSPropertyOp6
 70
     1
102
RTVSPropertyOp7
 70
     1
102
RTVSPropertyOp8
 70
     1
102
RTVSPropertyOp9
 70
     1
102
RTVSPropertyOp10
 70
     1
102
RTVSPropertyOp11
 70
     1
102
RTVSPropertyOp12
 70
     1
102
RTVSPropertyOp13
 70
     1
102
RTVSPropertyOp14
 70
     1
102
RTVSPropertyOp15
 70
     1
102
RTVSPropertyOp16
 70
     1
102
RTVSPropertyOp17
 70
     1
102
RTVSPropertyOp18
 70
     1
102
RTVSPropertyOp19
 70
     1
102
RTVSPropertyOp20
 70
     1
102
RTVSPropertyOp21
 70
     1
102
RTVSPropertyOp22
 70
     1
102
RTVSPropertyOp23
 70
     1
102
RTVSPropertyOp24
 70
     1
102
RTVSPropertyOp25
 70
     1
102
RTVSPropertyOp26
 70
     1
102
RTVSPropertyOp27
 70
     1
102
RTVSPropertyOp28
 70
     1
102
RTVSPropertyOp29
 70
     1
102
RTVSPropertyOp30
 70
     1
102
RTVSPropertyOp31
 70
     1
102
RTVSPropertyOp32
 70
     1
102
RTVSPropertyOp33
 70
     1
102
RTVSPropertyOp34
 70
     1
102
RTVSPropertyOp35
 70
     1
102
RTVSPropertyOp36
 70
     1
102
RTVSPropertyOp37
 70
     1
102
RTVSPropertyOp38
 70
     1
102
RTVSPropertyOp39
 70
     1
102
RTVSPropertyOp40
 70
     1
102
RTVSPropertyOp41
 70
     1
102
RTVSPropertyOp42
 70
     1
102
RTVSPropertyOp43
 70
     1
102
RTVSPropertyOp44
 70
     1
102
RTVSPropertyOp45
 70
     1
102
RTVSPropertyOp46
 70
     1
102
RTVSPropertyOp47
 70
     1
102
RTVSPropertyOp48
 70
     1
102
RTVSPropertyOp49
 70
     1
102
RTVSPropertyOp50
 70
     1
102
RTVSPropertyOp51
 70
     0
102
RTVSPropertyOp52
 70
     0
102
RTVSPropertyOp53
 70
     1
102
RTVSPropertyOp54
 70
     1
102
RTVSPropertyOp55
 70
     1
102
RTVSPropertyOp56
 70
     1
102
RTVSPropertyOp57
 70
     1
102
RTVSPost2010Prop28
280
     0
102
RTVSPost2010PropOp28
 70
     1
102
RTVSPost2010Prop29
280
     1
102
RTVSPost2010PropOp29
 70
     1
102
RTVSPost2010Prop30
280
     1
102
RTVSPost2010PropOp30
 70
     1
102
RTVSPost2010Prop31
280
     0
102
RTVSPost2010PropOp31
 70
     1
102
RTVSPost2010Prop32
280
     0
102
RTVSPost2010PropOp32
 70
     1
102
RTVSPost2010Prop33
280
     0
102
RTVSPost2010PropOp33
 70
     1
102
RTVSPost2010Prop34
280
     0
102
RTVSPost2010PropOp34
 70
     1
102
RTVSPost2010Prop35
280
     0
102
RTVSPost2010PropOp35
 70
     1
102
RTVSPost2010Prop36
280
     0
102
RTVSPost2010PropOp36
 70
     1
102
RTVSPost2010Prop37
 90
       50
102
RTVSPost2010PropOp37
 70
     1
102
RTVSPost2010Prop38
140
0.0
102
RTVSPost2010PropOp38
 70
     1
102
RTVSPost2010Prop39
140
1.0
102
RTVSPost2010PropOp39
 70
     1
102
RTVSPost2010Prop40
 90
        0
102
RTVSPost2010PropOp40
 70
     1
102
RTVSPost2010Prop41ColorIndex
 90
       18
102
RTVSPost2010Prop41ColorRGB
 90
        0
102
RTVSPost2010PropOp41
 70
     1
102
RTVSPost2010Prop42
 90
       50
102
RTVSPost2010PropOp42
 70
     1
102
RTVSPost2010Prop43
 90
        3
102
RTVSPost2010PropOp43
 70
     1
102
RTVSPost2010Prop44ColorIndex
 90
        5
102
RTVSPost2010Prop44ColorRGB
 90
      255
102
RTVSPost2010PropOp44
 70
     1
102
RTVSPost2010Prop45
280
     0
102
RTVSPost2010PropOp45
 70
     1
102
RTVSPost2010Prop46
 90
       50
102
RTVSPost2010PropOp46
 70
     1
102
RTVSPost2010Prop47
 90
       50
102
RTVSPost2010PropOp47
 70
     1
102
RTVSPost2010Prop48
 90
       50
102
RTVSPost2010PropOp48
 70
     1
102
RTVSPost2010Prop49
280
     0
102
RTVSPost2010PropOp49
 70
     1
102
RTVSPost2010Prop50
 90
       50
102
RTVSPost2010PropOp50
 70
     1
102
RTVSPost2010Prop51ColorIndex
 90
      256
102
RTVSPost2010Prop51ColorRGB
 90
-16777216
102
RTVSPost2010PropOp51
 70
     0
102
RTVSPost2010Prop52
140
1.0
102
RTVSPost2010PropOp52
 70
     0
102
RTVSPost2010Prop53
 90
        2
102
RTVSPost2010PropOp53
 70
     1
102
RTVSPost2010Prop54
  1
strokes_ogs.tif
102
RTVSPost2010PropOp54
 70
     1
102
RTVSPost2010Prop55
280
     0
102
RTVSPost2010PropOp55
 70
     1
102
RTVSPost2010Prop56
140
1.0
102
RTVSPost2010PropOp56
 70
     1
102
RTVSPost2010Prop57
140
1.0
102
RTVSPost2010PropOp57
 70
     1
  0
XRECORD
  5
C4B
102
{ACAD_REACTORS
330
C4A
102
}
330
C4A
100
AcDbXrecord
280
     1
102
RTVSPropertyOp0
 70
     1
102
RTVSPropertyOp1
 70
     1
102
RTVSPropertyOp2
 70
     1
102
RTVSPropertyOp3
 70
     1
102
RTVSPropertyOp4
 70
     1
102
RTVSPropertyOp5
 70
     1
102
RTVSPropertyOp6
 70
     1
102
RTVSPropertyOp7
 70
     1
102
RTVSPropertyOp8
 70
     1
102
RTVSPropertyOp9
 70
     1
102
RTVSPropertyOp10
 70
     1
102
RTVSPropertyOp11
 70
     1
102
RTVSPropertyOp12
 70
     1
102
RTVSPropertyOp13
 70
     1
102
RTVSPropertyOp14
 70
     1
102
RTVSPropertyOp15
 70
     1
102
RTVSPropertyOp16
 70
     1
102
RTVSPropertyOp17
 70
     1
102
RTVSPropertyOp18
 70
     1
102
RTVSPropertyOp19
 70
     1
102
RTVSPropertyOp20
 70
     1
102
RTVSPropertyOp21
 70
     1
102
RTVSPropertyOp22
 70
     1
102
RTVSPropertyOp23
 70
     1
102
RTVSPropertyOp24
 70
     1
102
RTVSPropertyOp25
 70
     1
102
RTVSPropertyOp26
 70
     1
102
RTVSPropertyOp27
 70
     1
102
RTVSPropertyOp28
 70
     1
102
RTVSPropertyOp29
 70
     1
102
RTVSPropertyOp30
 70
     1
102
RTVSPropertyOp31
 70
     1
102
RTVSPropertyOp32
 70
     1
102
RTVSPropertyOp33
 70
     1
102
RTVSPropertyOp34
 70
     1
102
RTVSPropertyOp35
 70
     1
102
RTVSPropertyOp36
 70
     1
102
RTVSPropertyOp37
 70
     1
102
RTVSPropertyOp38
 70
     1
102
RTVSPropertyOp39
 70
     1
102
RTVSPropertyOp40
 70
     1
102
RTVSPropertyOp41
 70
     1
102
RTVSPropertyOp42
 70
     1
102
RTVSPropertyOp43
 70
     1
102
RTVSPropertyOp44
 70
     1
102
RTVSPropertyOp45
 70
     1
102
RTVSPropertyOp46
 70
     1
102
RTVSPropertyOp47
 70
     1
102
RTVSPropertyOp48
 70
     1
102
RTVSPropertyOp49
 70
     1
102
RTVSPropertyOp50
 70
     1
102
RTVSPropertyOp51
 70
     0
102
RTVSPropertyOp52
 70
     0
102
RTVSPropertyOp53
 70
     1
102
RTVSPropertyOp54
 70
     1
102
RTVSPropertyOp55
 70
     1
102
RTVSPropertyOp56
 70
     1
102
RTVSPropertyOp57
 70
     1
102
RTVSPost2010Prop28
280
     0
102
RTVSPost2010PropOp28
 70
     1
102
RTVSPost2010Prop29
280
     1
102
RTVSPost2010PropOp29
 70
     1
102
RTVSPost2010Prop30
280
     1
102
RTVSPost2010PropOp30
 70
     1
102
RTVSPost2010Prop31
280
     0
102
RTVSPost2010PropOp31
 70
     1
102
RTVSPost2010Prop32
280
     0
102
RTVSPost2010PropOp32
 70
     1
102
RTVSPost2010Prop33
280
     0
102
RTVSPost2010PropOp33
 70
     1
102
RTVSPost2010Prop34
280
     0
102
RTVSPost2010PropOp34
 70
     1
102
RTVSPost2010Prop35
280
     0
102
RTVSPost2010PropOp35
 70
     1
102
RTVSPost2010Prop36
280
     0
102
RTVSPost2010PropOp36
 70
     1
102
RTVSPost2010Prop37
 90
       50
102
RTVSPost2010PropOp37
 70
     1
102
RTVSPost2010Prop38
140
0.0
102
RTVSPost2010PropOp38
 70
     1
102
RTVSPost2010Prop39
140
1.0
102
RTVSPost2010PropOp39
 70
     1
102
RTVSPost2010Prop40
 90
        0
102
RTVSPost2010PropOp40
 70
     1
102
RTVSPost2010Prop41ColorIndex
 90
       18
102
RTVSPost2010Prop41ColorRGB
 90
        0
102
RTVSPost2010PropOp41
 70
     1
102
RTVSPost2010Prop42
 90
       50
102
RTVSPost2010PropOp42
 70
     1
102
RTVSPost2010Prop43
 90
        3
102
RTVSPost2010PropOp43
 70
     1
102
RTVSPost2010Prop44ColorIndex
 90
        5
102
RTVSPost2010Prop44ColorRGB
 90
      255
102
RTVSPost2010PropOp44
 70
     1
102
RTVSPost2010Prop45
280
     0
102
RTVSPost2010PropOp45
 70
     1
102
RTVSPost2010Prop46
 90
       50
102
RTVSPost2010PropOp46
 70
     1
102
RTVSPost2010Prop47
 90
       50
102
RTVSPost2010PropOp47
 70
     1
102
RTVSPost2010Prop48
 90
       50
102
RTVSPost2010PropOp48
 70
     1
102
RTVSPost2010Prop49
280
     0
102
RTVSPost2010PropOp49
 70
     1
102
RTVSPost2010Prop50
 90
       50
102
RTVSPost2010PropOp50
 70
     1
102
RTVSPost2010Prop51ColorIndex
 90
      256
102
RTVSPost2010Prop51ColorRGB
 90
-16777216
102
RTVSPost2010PropOp51
 70
     0
102
RTVSPost2010Prop52
140
1.0
102
RTVSPost2010PropOp52
 70
     0
102
RTVSPost2010Prop53
 90
        2
102
RTVSPost2010PropOp53
 70
     1
102
RTVSPost2010Prop54
  1
strokes_ogs.tif
102
RTVSPost2010PropOp54
 70
     1
102
RTVSPost2010Prop55
280
     0
102
RTVSPost2010PropOp55
 70
     1
102
RTVSPost2010Prop56
140
1.0
102
RTVSPost2010PropOp56
 70
     1
102
RTVSPost2010Prop57
140
1.0
102
RTVSPost2010PropOp57
 70
     1
  0
XRECORD
  5
C3F
102
{ACAD_REACTORS
330
C3E
102
}
330
C3E
100
AcDbXrecord
280
     1
102
RTVSPropertyOp0
 70
     1
102
RTVSPropertyOp1
 70
     1
102
RTVSPropertyOp2
 70
     1
102
RTVSPropertyOp3
 70
     1
102
RTVSPropertyOp4
 70
     1
102
RTVSPropertyOp5
 70
     1
102
RTVSPropertyOp6
 70
     1
102
RTVSPropertyOp7
 70
     1
102
RTVSPropertyOp8
 70
     1
102
RTVSPropertyOp9
 70
     1
102
RTVSPropertyOp10
 70
     1
102
RTVSPropertyOp11
 70
     1
102
RTVSPropertyOp12
 70
     1
102
RTVSPropertyOp13
 70
     1
102
RTVSPropertyOp14
 70
     1
102
RTVSPropertyOp15
 70
     1
102
RTVSPropertyOp16
 70
     1
102
RTVSPropertyOp17
 70
     1
102
RTVSPropertyOp18
 70
     1
102
RTVSPropertyOp19
 70
     1
102
RTVSPropertyOp20
 70
     1
102
RTVSPropertyOp21
 70
     1
102
RTVSPropertyOp22
 70
     1
102
RTVSPropertyOp23
 70
     1
102
RTVSPropertyOp24
 70
     1
102
RTVSPropertyOp25
 70
     1
102
RTVSPropertyOp26
 70
     1
102
RTVSPropertyOp27
 70
     1
102
RTVSPropertyOp28
 70
     1
102
RTVSPropertyOp29
 70
     1
102
RTVSPropertyOp30
 70
     1
102
RTVSPropertyOp31
 70
     1
102
RTVSPropertyOp32
 70
     1
102
RTVSPropertyOp33
 70
     1
102
RTVSPropertyOp34
 70
     1
102
RTVSPropertyOp35
 70
     1
102
RTVSPropertyOp36
 70
     1
102
RTVSPropertyOp37
 70
     1
102
RTVSPropertyOp38
 70
     1
102
RTVSPropertyOp39
 70
     1
102
RTVSPropertyOp40
 70
     1
102
RTVSPropertyOp41
 70
     1
102
RTVSPropertyOp42
 70
     1
102
RTVSPropertyOp43
 70
     1
102
RTVSPropertyOp44
 70
     1
102
RTVSPropertyOp45
 70
     1
102
RTVSPropertyOp46
 70
     1
102
RTVSPropertyOp47
 70
     1
102
RTVSPropertyOp48
 70
     1
102
RTVSPropertyOp49
 70
     1
102
RTVSPropertyOp50
 70
     1
102
RTVSPropertyOp51
 70
     0
102
RTVSPropertyOp52
 70
     0
102
RTVSPropertyOp53
 70
     1
102
RTVSPropertyOp54
 70
     1
102
RTVSPropertyOp55
 70
     1
102
RTVSPropertyOp56
 70
     1
102
RTVSPropertyOp57
 70
     1
102
RTVSPost2010Prop28
280
     0
102
RTVSPost2010PropOp28
 70
     1
102
RTVSPost2010Prop29
280
     1
102
RTVSPost2010PropOp29
 70
     1
102
RTVSPost2010Prop30
280
     1
102
RTVSPost2010PropOp30
 70
     1
102
RTVSPost2010Prop31
280
     0
102
RTVSPost2010PropOp31
 70
     1
102
RTVSPost2010Prop32
280
     0
102
RTVSPost2010PropOp32
 70
     1
102
RTVSPost2010Prop33
280
     0
102
RTVSPost2010PropOp33
 70
     1
102
RTVSPost2010Prop34
280
     0
102
RTVSPost2010PropOp34
 70
     1
102
RTVSPost2010Prop35
280
     0
102
RTVSPost2010PropOp35
 70
     1
102
RTVSPost2010Prop36
280
     0
102
RTVSPost2010PropOp36
 70
     1
102
RTVSPost2010Prop37
 90
       50
102
RTVSPost2010PropOp37
 70
     1
102
RTVSPost2010Prop38
140
0.0
102
RTVSPost2010PropOp38
 70
     1
102
RTVSPost2010Prop39
140
1.0
102
RTVSPost2010PropOp39
 70
     1
102
RTVSPost2010Prop40
 90
        0
102
RTVSPost2010PropOp40
 70
     1
102
RTVSPost2010Prop41ColorIndex
 90
       18
102
RTVSPost2010Prop41ColorRGB
 90
        0
102
RTVSPost2010PropOp41
 70
     1
102
RTVSPost2010Prop42
 90
       50
102
RTVSPost2010PropOp42
 70
     1
102
RTVSPost2010Prop43
 90
        3
102
RTVSPost2010PropOp43
 70
     1
102
RTVSPost2010Prop44ColorIndex
 90
        5
102
RTVSPost2010Prop44ColorRGB
 90
      255
102
RTVSPost2010PropOp44
 70
     1
102
RTVSPost2010Prop45
280
     0
102
RTVSPost2010PropOp45
 70
     1
102
RTVSPost2010Prop46
 90
       50
102
RTVSPost2010PropOp46
 70
     1
102
RTVSPost2010Prop47
 90
       50
102
RTVSPost2010PropOp47
 70
     1
102
RTVSPost2010Prop48
 90
       50
102
RTVSPost2010PropOp48
 70
     1
102
RTVSPost2010Prop49
280
     0
102
RTVSPost2010PropOp49
 70
     1
102
RTVSPost2010Prop50
 90
       50
102
RTVSPost2010PropOp50
 70
     1
102
RTVSPost2010Prop51ColorIndex
 90
      256
102
RTVSPost2010Prop51ColorRGB
 90
-16777216
102
RTVSPost2010PropOp51
 70
     0
102
RTVSPost2010Prop52
140
1.0
102
RTVSPost2010PropOp52
 70
     0
102
RTVSPost2010Prop53
 90
        2
102
RTVSPost2010PropOp53
 70
     1
102
RTVSPost2010Prop54
  1
strokes_ogs.tif
102
RTVSPost2010PropOp54
 70
     1
102
RTVSPost2010Prop55
280
     0
102
RTVSPost2010PropOp55
 70
     1
102
RTVSPost2010Prop56
140
1.0
102
RTVSPost2010PropOp56
 70
     1
102
RTVSPost2010Prop57
140
1.0
102
RTVSPost2010PropOp57
 70
     1
  0
XRECORD
  5
C41
102
{ACAD_REACTORS
330
C40
102
}
330
C40
100
AcDbXrecord
280
     1
102
RTVSPropertyOp0
 70
     1
102
RTVSPropertyOp1
 70
     1
102
RTVSPropertyOp2
 70
     1
102
RTVSPropertyOp3
 70
     1
102
RTVSPropertyOp4
 70
     1
102
RTVSPropertyOp5
 70
     1
102
RTVSPropertyOp6
 70
     1
102
RTVSPropertyOp7
 70
     1
102
RTVSPropertyOp8
 70
     1
102
RTVSPropertyOp9
 70
     1
102
RTVSPropertyOp10
 70
     1
102
RTVSPropertyOp11
 70
     1
102
RTVSPropertyOp12
 70
     1
102
RTVSPropertyOp13
 70
     1
102
RTVSPropertyOp14
 70
     1
102
RTVSPropertyOp15
 70
     1
102
RTVSPropertyOp16
 70
     1
102
RTVSPropertyOp17
 70
     1
102
RTVSPropertyOp18
 70
     1
102
RTVSPropertyOp19
 70
     1
102
RTVSPropertyOp20
 70
     1
102
RTVSPropertyOp21
 70
     1
102
RTVSPropertyOp22
 70
     1
102
RTVSPropertyOp23
 70
     1
102
RTVSPropertyOp24
 70
     1
102
RTVSPropertyOp25
 70
     1
102
RTVSPropertyOp26
 70
     1
102
RTVSPropertyOp27
 70
     1
102
RTVSPropertyOp28
 70
     1
102
RTVSPropertyOp29
 70
     1
102
RTVSPropertyOp30
 70
     1
102
RTVSPropertyOp31
 70
     1
102
RTVSPropertyOp32
 70
     1
102
RTVSPropertyOp33
 70
     1
102
RTVSPropertyOp34
 70
     1
102
RTVSPropertyOp35
 70
     1
102
RTVSPropertyOp36
 70
     1
102
RTVSPropertyOp37
 70
     1
102
RTVSPropertyOp38
 70
     1
102
RTVSPropertyOp39
 70
     1
102
RTVSPropertyOp40
 70
     1
102
RTVSPropertyOp41
 70
     1
102
RTVSPropertyOp42
 70
     1
102
RTVSPropertyOp43
 70
     1
102
RTVSPropertyOp44
 70
     1
102
RTVSPropertyOp45
 70
     1
102
RTVSPropertyOp46
 70
     1
102
RTVSPropertyOp47
 70
     1
102
RTVSPropertyOp48
 70
     1
102
RTVSPropertyOp49
 70
     1
102
RTVSPropertyOp50
 70
     1
102
RTVSPropertyOp51
 70
     0
102
RTVSPropertyOp52
 70
     0
102
RTVSPropertyOp53
 70
     1
102
RTVSPropertyOp54
 70
     1
102
RTVSPropertyOp55
 70
     1
102
RTVSPropertyOp56
 70
     1
102
RTVSPropertyOp57
 70
     1
102
RTVSPost2010Prop28
280
     0
102
RTVSPost2010PropOp28
 70
     1
102
RTVSPost2010Prop29
280
     1
102
RTVSPost2010PropOp29
 70
     1
102
RTVSPost2010Prop30
280
     1
102
RTVSPost2010PropOp30
 70
     1
102
RTVSPost2010Prop31
280
     0
102
RTVSPost2010PropOp31
 70
     1
102
RTVSPost2010Prop32
280
     0
102
RTVSPost2010PropOp32
 70
     1
102
RTVSPost2010Prop33
280
     0
102
RTVSPost2010PropOp33
 70
     1
102
RTVSPost2010Prop34
280
     0
102
RTVSPost2010PropOp34
 70
     1
102
RTVSPost2010Prop35
280
     0
102
RTVSPost2010PropOp35
 70
     1
102
RTVSPost2010Prop36
280
     0
102
RTVSPost2010PropOp36
 70
     1
102
RTVSPost2010Prop37
 90
       50
102
RTVSPost2010PropOp37
 70
     1
102
RTVSPost2010Prop38
140
0.0
102
RTVSPost2010PropOp38
 70
     1
102
RTVSPost2010Prop39
140
1.0
102
RTVSPost2010PropOp39
 70
     1
102
RTVSPost2010Prop40
 90
        0
102
RTVSPost2010PropOp40
 70
     1
102
RTVSPost2010Prop41ColorIndex
 90
       18
102
RTVSPost2010Prop41ColorRGB
 90
        0
102
RTVSPost2010PropOp41
 70
     1
102
RTVSPost2010Prop42
 90
       50
102
RTVSPost2010PropOp42
 70
     1
102
RTVSPost2010Prop43
 90
        3
102
RTVSPost2010PropOp43
 70
     1
102
RTVSPost2010Prop44ColorIndex
 90
        5
102
RTVSPost2010Prop44ColorRGB
 90
      255
102
RTVSPost2010PropOp44
 70
     1
102
RTVSPost2010Prop45
280
     0
102
RTVSPost2010PropOp45
 70
     1
102
RTVSPost2010Prop46
 90
       50
102
RTVSPost2010PropOp46
 70
     1
102
RTVSPost2010Prop47
 90
       50
102
RTVSPost2010PropOp47
 70
     1
102
RTVSPost2010Prop48
 90
       50
102
RTVSPost2010PropOp48
 70
     1
102
RTVSPost2010Prop49
280
     0
102
RTVSPost2010PropOp49
 70
     1
102
RTVSPost2010Prop50
 90
       50
102
RTVSPost2010PropOp50
 70
     1
102
RTVSPost2010Prop51ColorIndex
 90
      256
102
RTVSPost2010Prop51ColorRGB
 90
-16777216
102
RTVSPost2010PropOp51
 70
     0
102
RTVSPost2010Prop52
140
1.0
102
RTVSPost2010PropOp52
 70
     0
102
RTVSPost2010Prop53
 90
        2
102
RTVSPost2010PropOp53
 70
     1
102
RTVSPost2010Prop54
  1
strokes_ogs.tif
102
RTVSPost2010PropOp54
 70
     1
102
RTVSPost2010Prop55
280
     0
102
RTVSPost2010PropOp55
 70
     1
102
RTVSPost2010Prop56
140
1.0
102
RTVSPost2010PropOp56
 70
     1
102
RTVSPost2010Prop57
140
1.0
102
RTVSPost2010PropOp57
 70
     1
  0
XRECORD
  5
C51
102
{ACAD_REACTORS
330
C50
102
}
330
C50
100
AcDbXrecord
280
     1
102
RTVSPropertyOp0
 70
     0
102
RTVSPropertyOp1
 70
     0
102
RTVSPropertyOp2
 70
     0
102
RTVSPropertyOp3
 70
     0
102
RTVSPropertyOp4
 70
     0
102
RTVSPropertyOp5
 70
     0
102
RTVSPropertyOp6
 70
     0
102
RTVSPropertyOp7
 70
     0
102
RTVSPropertyOp8
 70
     0
102
RTVSPropertyOp9
 70
     0
102
RTVSPropertyOp10
 70
     0
102
RTVSPropertyOp11
 70
     0
102
RTVSPropertyOp12
 70
     0
102
RTVSPropertyOp13
 70
     0
102
RTVSPropertyOp14
 70
     0
102
RTVSPropertyOp15
 70
     0
102
RTVSPropertyOp16
 70
     0
102
RTVSPropertyOp17
 70
     0
102
RTVSPropertyOp18
 70
     0
102
RTVSPropertyOp19
 70
     0
102
RTVSPropertyOp20
 70
     0
102
RTVSPropertyOp21
 70
     0
102
RTVSPropertyOp22
 70
     0
102
RTVSPropertyOp23
 70
     0
102
RTVSPropertyOp24
 70
     0
102
RTVSPropertyOp25
 70
     0
102
RTVSPropertyOp26
 70
     0
102
RTVSPropertyOp27
 70
     0
102
RTVSPropertyOp28
 70
     1
102
RTVSPropertyOp29
 70
     1
102
RTVSPropertyOp30
 70
     1
102
RTVSPropertyOp31
 70
     1
102
RTVSPropertyOp32
 70
     1
102
RTVSPropertyOp33
 70
     1
102
RTVSPropertyOp34
 70
     1
102
RTVSPropertyOp35
 70
     1
102
RTVSPropertyOp36
 70
     1
102
RTVSPropertyOp37
 70
     1
102
RTVSPropertyOp38
 70
     1
102
RTVSPropertyOp39
 70
     1
102
RTVSPropertyOp40
 70
     1
102
RTVSPropertyOp41
 70
     1
102
RTVSPropertyOp42
 70
     1
102
RTVSPropertyOp43
 70
     1
102
RTVSPropertyOp44
 70
     1
102
RTVSPropertyOp45
 70
     1
102
RTVSPropertyOp46
 70
     1
102
RTVSPropertyOp47
 70
     1
102
RTVSPropertyOp48
 70
     1
102
RTVSPropertyOp49
 70
     1
102
RTVSPropertyOp50
 70
     1
102
RTVSPropertyOp51
 70
     0
102
RTVSPropertyOp52
 70
     0
102
RTVSPropertyOp53
 70
     1
102
RTVSPropertyOp54
 70
     1
102
RTVSPropertyOp55
 70
     1
102
RTVSPropertyOp56
 70
     1
102
RTVSPropertyOp57
 70
     1
102
RTVSPost2010Prop28
280
     0
102
RTVSPost2010PropOp28
 70
     1
102
RTVSPost2010Prop29
280
     1
102
RTVSPost2010PropOp29
 70
     1
102
RTVSPost2010Prop30
280
     1
102
RTVSPost2010PropOp30
 70
     1
102
RTVSPost2010Prop31
280
     0
102
RTVSPost2010PropOp31
 70
     1
102
RTVSPost2010Prop32
280
     0
102
RTVSPost2010PropOp32
 70
     1
102
RTVSPost2010Prop33
280
     0
102
RTVSPost2010PropOp33
 70
     1
102
RTVSPost2010Prop34
280
     0
102
RTVSPost2010PropOp34
 70
     1
102
RTVSPost2010Prop35
280
     0
102
RTVSPost2010PropOp35
 70
     1
102
RTVSPost2010Prop36
280
     0
102
RTVSPost2010PropOp36
 70
     1
102
RTVSPost2010Prop37
 90
       50
102
RTVSPost2010PropOp37
 70
     1
102
RTVSPost2010Prop38
140
0.0
102
RTVSPost2010PropOp38
 70
     1
102
RTVSPost2010Prop39
140
1.0
102
RTVSPost2010PropOp39
 70
     1
102
RTVSPost2010Prop40
 90
        0
102
RTVSPost2010PropOp40
 70
     1
102
RTVSPost2010Prop41ColorIndex
 90
       18
102
RTVSPost2010Prop41ColorRGB
 90
        0
102
RTVSPost2010PropOp41
 70
     1
102
RTVSPost2010Prop42
 90
       50
102
RTVSPost2010PropOp42
 70
     1
102
RTVSPost2010Prop43
 90
        3
102
RTVSPost2010PropOp43
 70
     1
102
RTVSPost2010Prop44ColorIndex
 90
        5
102
RTVSPost2010Prop44ColorRGB
 90
      255
102
RTVSPost2010PropOp44
 70
     1
102
RTVSPost2010Prop45
280
     0
102
RTVSPost2010PropOp45
 70
     1
102
RTVSPost2010Prop46
 90
       50
102
RTVSPost2010PropOp46
 70
     1
102
RTVSPost2010Prop47
 90
       50
102
RTVSPost2010PropOp47
 70
     1
102
RTVSPost2010Prop48
 90
       50
102
RTVSPost2010PropOp48
 70
     1
102
RTVSPost2010Prop49
280
     0
102
RTVSPost2010PropOp49
 70
     1
102
RTVSPost2010Prop50
 90
       50
102
RTVSPost2010PropOp50
 70
     1
102
RTVSPost2010Prop51ColorIndex
 90
      256
102
RTVSPost2010Prop51ColorRGB
 90
-16777216
102
RTVSPost2010PropOp51
 70
     0
102
RTVSPost2010Prop52
140
1.0
102
RTVSPost2010PropOp52
 70
     0
102
RTVSPost2010Prop53
 90
        2
102
RTVSPost2010PropOp53
 70
     1
102
RTVSPost2010Prop54
  1
strokes_ogs.tif
102
RTVSPost2010PropOp54
 70
     1
102
RTVSPost2010Prop55
280
     0
102
RTVSPost2010PropOp55
 70
     1
102
RTVSPost2010Prop56
140
1.0
102
RTVSPost2010PropOp56
 70
     1
102
RTVSPost2010Prop57
140
1.0
102
RTVSPost2010PropOp57
 70
     1
  0
XRECORD
  5
C49
102
{ACAD_REACTORS
330
C48
102
}
330
C48
100
AcDbXrecord
280
     1
102
RTVSPropertyOp0
 70
     1
102
RTVSPropertyOp1
 70
     1
102
RTVSPropertyOp2
 70
     1
102
RTVSPropertyOp3
 70
     1
102
RTVSPropertyOp4
 70
     1
102
RTVSPropertyOp5
 70
     1
102
RTVSPropertyOp6
 70
     1
102
RTVSPropertyOp7
 70
     1
102
RTVSPropertyOp8
 70
     1
102
RTVSPropertyOp9
 70
     1
102
RTVSPropertyOp10
 70
     1
102
RTVSPropertyOp11
 70
     1
102
RTVSPropertyOp12
 70
     1
102
RTVSPropertyOp13
 70
     1
102
RTVSPropertyOp14
 70
     1
102
RTVSPropertyOp15
 70
     1
102
RTVSPropertyOp16
 70
     1
102
RTVSPropertyOp17
 70
     1
102
RTVSPropertyOp18
 70
     1
102
RTVSPropertyOp19
 70
     1
102
RTVSPropertyOp20
 70
     1
102
RTVSPropertyOp21
 70
     1
102
RTVSPropertyOp22
 70
     1
102
RTVSPropertyOp23
 70
     1
102
RTVSPropertyOp24
 70
     1
102
RTVSPropertyOp25
 70
     1
102
RTVSPropertyOp26
 70
     1
102
RTVSPropertyOp27
 70
     1
102
RTVSPropertyOp28
 70
     1
102
RTVSPropertyOp29
 70
     1
102
RTVSPropertyOp30
 70
     1
102
RTVSPropertyOp31
 70
     1
102
RTVSPropertyOp32
 70
     1
102
RTVSPropertyOp33
 70
     1
102
RTVSPropertyOp34
 70
     1
102
RTVSPropertyOp35
 70
     1
102
RTVSPropertyOp36
 70
     1
102
RTVSPropertyOp37
 70
     1
102
RTVSPropertyOp38
 70
     1
102
RTVSPropertyOp39
 70
     1
102
RTVSPropertyOp40
 70
     1
102
RTVSPropertyOp41
 70
     1
102
RTVSPropertyOp42
 70
     1
102
RTVSPropertyOp43
 70
     1
102
RTVSPropertyOp44
 70
     1
102
RTVSPropertyOp45
 70
     1
102
RTVSPropertyOp46
 70
     1
102
RTVSPropertyOp47
 70
     1
102
RTVSPropertyOp48
 70
     1
102
RTVSPropertyOp49
 70
     1
102
RTVSPropertyOp50
 70
     1
102
RTVSPropertyOp51
 70
     0
102
RTVSPropertyOp52
 70
     0
102
RTVSPropertyOp53
 70
     1
102
RTVSPropertyOp54
 70
     1
102
RTVSPropertyOp55
 70
     1
102
RTVSPropertyOp56
 70
     1
102
RTVSPropertyOp57
 70
     1
102
RTVSPost2010Prop28
280
     0
102
RTVSPost2010PropOp28
 70
     1
102
RTVSPost2010Prop29
280
     1
102
RTVSPost2010PropOp29
 70
     1
102
RTVSPost2010Prop30
280
     1
102
RTVSPost2010PropOp30
 70
     1
102
RTVSPost2010Prop31
280
     0
102
RTVSPost2010PropOp31
 70
     1
102
RTVSPost2010Prop32
280
     0
102
RTVSPost2010PropOp32
 70
     1
102
RTVSPost2010Prop33
280
     0
102
RTVSPost2010PropOp33
 70
     1
102
RTVSPost2010Prop34
280
     0
102
RTVSPost2010PropOp34
 70
     1
102
RTVSPost2010Prop35
280
     0
102
RTVSPost2010PropOp35
 70
     1
102
RTVSPost2010Prop36
280
     0
102
RTVSPost2010PropOp36
 70
     1
102
RTVSPost2010Prop37
 90
       50
102
RTVSPost2010PropOp37
 70
     1
102
RTVSPost2010Prop38
140
0.0
102
RTVSPost2010PropOp38
 70
     1
102
RTVSPost2010Prop39
140
1.0
102
RTVSPost2010PropOp39
 70
     1
102
RTVSPost2010Prop40
 90
        0
102
RTVSPost2010PropOp40
 70
     1
102
RTVSPost2010Prop41ColorIndex
 90
       18
102
RTVSPost2010Prop41ColorRGB
 90
        0
102
RTVSPost2010PropOp41
 70
     1
102
RTVSPost2010Prop42
 90
       50
102
RTVSPost2010PropOp42
 70
     1
102
RTVSPost2010Prop43
 90
        3
102
RTVSPost2010PropOp43
 70
     1
102
RTVSPost2010Prop44ColorIndex
 90
        5
102
RTVSPost2010Prop44ColorRGB
 90
      255
102
RTVSPost2010PropOp44
 70
     1
102
RTVSPost2010Prop45
280
     0
102
RTVSPost2010PropOp45
 70
     1
102
RTVSPost2010Prop46
 90
       50
102
RTVSPost2010PropOp46
 70
     1
102
RTVSPost2010Prop47
 90
       50
102
RTVSPost2010PropOp47
 70
     1
102
RTVSPost2010Prop48
 90
       50
102
RTVSPost2010PropOp48
 70
     1
102
RTVSPost2010Prop49
280
     0
102
RTVSPost2010PropOp49
 70
     1
102
RTVSPost2010Prop50
 90
       50
102
RTVSPost2010PropOp50
 70
     1
102
RTVSPost2010Prop51ColorIndex
 90
      256
102
RTVSPost2010Prop51ColorRGB
 90
-16777216
102
RTVSPost2010PropOp51
 70
     0
102
RTVSPost2010Prop52
140
1.0
102
RTVSPost2010PropOp52
 70
     0
102
RTVSPost2010Prop53
 90
        2
102
RTVSPost2010PropOp53
 70
     1
102
RTVSPost2010Prop54
  1
strokes_ogs.tif
102
RTVSPost2010PropOp54
 70
     1
102
RTVSPost2010Prop55
280
     0
102
RTVSPost2010PropOp55
 70
     1
102
RTVSPost2010Prop56
140
1.0
102
RTVSPost2010PropOp56
 70
     1
102
RTVSPost2010Prop57
140
1.0
102
RTVSPost2010PropOp57
 70
     1
  0
XRECORD
  5
C2D
102
{ACAD_REACTORS
330
C2C
102
}
330
C2C
100
AcDbXrecord
280
     1
102
RTVSPropertyOp0
 70
     1
102
RTVSPropertyOp1
 70
     1
102
RTVSPropertyOp2
 70
     1
102
RTVSPropertyOp3
 70
     1
102
RTVSPropertyOp4
 70
     1
102
RTVSPropertyOp5
 70
     1
102
RTVSPropertyOp6
 70
     1
102
RTVSPropertyOp7
 70
     1
102
RTVSPropertyOp8
 70
     1
102
RTVSPropertyOp9
 70
     1
102
RTVSPropertyOp10
 70
     1
102
RTVSPropertyOp11
 70
     1
102
RTVSPropertyOp12
 70
     1
102
RTVSPropertyOp13
 70
     1
102
RTVSPropertyOp14
 70
     1
102
RTVSPropertyOp15
 70
     1
102
RTVSPropertyOp16
 70
     1
102
RTVSPropertyOp17
 70
     1
102
RTVSPropertyOp18
 70
     1
102
RTVSPropertyOp19
 70
     1
102
RTVSPropertyOp20
 70
     1
102
RTVSPropertyOp21
 70
     1
102
RTVSPropertyOp22
 70
     1
102
RTVSPropertyOp23
 70
     1
102
RTVSPropertyOp24
 70
     1
102
RTVSPropertyOp25
 70
     1
102
RTVSPropertyOp26
 70
     1
102
RTVSPropertyOp27
 70
     1
102
RTVSPropertyOp28
 70
     1
102
RTVSPropertyOp29
 70
     1
102
RTVSPropertyOp30
 70
     1
102
RTVSPropertyOp31
 70
     1
102
RTVSPropertyOp32
 70
     1
102
RTVSPropertyOp33
 70
     1
102
RTVSPropertyOp34
 70
     1
102
RTVSPropertyOp35
 70
     1
102
RTVSPropertyOp36
 70
     1
102
RTVSPropertyOp37
 70
     1
102
RTVSPropertyOp38
 70
     1
102
RTVSPropertyOp39
 70
     1
102
RTVSPropertyOp40
 70
     1
102
RTVSPropertyOp41
 70
     1
102
RTVSPropertyOp42
 70
     1
102
RTVSPropertyOp43
 70
     1
102
RTVSPropertyOp44
 70
     1
102
RTVSPropertyOp45
 70
     1
102
RTVSPropertyOp46
 70
     1
102
RTVSPropertyOp47
 70
     1
102
RTVSPropertyOp48
 70
     1
102
RTVSPropertyOp49
 70
     1
102
RTVSPropertyOp50
 70
     1
102
RTVSPropertyOp51
 70
     0
102
RTVSPropertyOp52
 70
     0
102
RTVSPropertyOp53
 70
     1
102
RTVSPropertyOp54
 70
     1
102
RTVSPropertyOp55
 70
     1
102
RTVSPropertyOp56
 70
     1
102
RTVSPropertyOp57
 70
     1
102
RTVSPost2010Prop28
280
     0
102
RTVSPost2010PropOp28
 70
     1
102
RTVSPost2010Prop29
280
     1
102
RTVSPost2010PropOp29
 70
     1
102
RTVSPost2010Prop30
280
     1
102
RTVSPost2010PropOp30
 70
     1
102
RTVSPost2010Prop31
280
     0
102
RTVSPost2010PropOp31
 70
     1
102
RTVSPost2010Prop32
280
     0
102
RTVSPost2010PropOp32
 70
     1
102
RTVSPost2010Prop33
280
     0
102
RTVSPost2010PropOp33
 70
     1
102
RTVSPost2010Prop34
280
     0
102
RTVSPost2010PropOp34
 70
     1
102
RTVSPost2010Prop35
280
     0
102
RTVSPost2010PropOp35
 70
     1
102
RTVSPost2010Prop36
280
     0
102
RTVSPost2010PropOp36
 70
     1
102
RTVSPost2010Prop37
 90
       50
102
RTVSPost2010PropOp37
 70
     1
102
RTVSPost2010Prop38
140
0.0
102
RTVSPost2010PropOp38
 70
     1
102
RTVSPost2010Prop39
140
1.0
102
RTVSPost2010PropOp39
 70
     1
102
RTVSPost2010Prop40
 90
        0
102
RTVSPost2010PropOp40
 70
     1
102
RTVSPost2010Prop41ColorIndex
 90
       18
102
RTVSPost2010Prop41ColorRGB
 90
        0
102
RTVSPost2010PropOp41
 70
     1
102
RTVSPost2010Prop42
 90
       50
102
RTVSPost2010PropOp42
 70
     1
102
RTVSPost2010Prop43
 90
        3
102
RTVSPost2010PropOp43
 70
     1
102
RTVSPost2010Prop44ColorIndex
 90
        5
102
RTVSPost2010Prop44ColorRGB
 90
      255
102
RTVSPost2010PropOp44
 70
     1
102
RTVSPost2010Prop45
280
     0
102
RTVSPost2010PropOp45
 70
     1
102
RTVSPost2010Prop46
 90
       50
102
RTVSPost2010PropOp46
 70
     1
102
RTVSPost2010Prop47
 90
       50
102
RTVSPost2010PropOp47
 70
     1
102
RTVSPost2010Prop48
 90
       50
102
RTVSPost2010PropOp48
 70
     1
102
RTVSPost2010Prop49
280
     0
102
RTVSPost2010PropOp49
 70
     1
102
RTVSPost2010Prop50
 90
       50
102
RTVSPost2010PropOp50
 70
     1
102
RTVSPost2010Prop51ColorIndex
 90
      256
102
RTVSPost2010Prop51ColorRGB
 90
-16777216
102
RTVSPost2010PropOp51
 70
     0
102
RTVSPost2010Prop52
140
1.0
102
RTVSPost2010PropOp52
 70
     0
102
RTVSPost2010Prop53
 90
        2
102
RTVSPost2010PropOp53
 70
     1
102
RTVSPost2010Prop54
  1
strokes_ogs.tif
102
RTVSPost2010PropOp54
 70
     1
102
RTVSPost2010Prop55
280
     0
102
RTVSPost2010PropOp55
 70
     1
102
RTVSPost2010Prop56
140
1.0
102
RTVSPost2010PropOp56
 70
     1
102
RTVSPost2010Prop57
140
1.0
102
RTVSPost2010PropOp57
 70
     1
  0
XRECORD
  5
C2F
102
{ACAD_REACTORS
330
C2E
102
}
330
C2E
100
AcDbXrecord
280
     1
102
RTVSPropertyOp0
 70
     1
102
RTVSPropertyOp1
 70
     1
102
RTVSPropertyOp2
 70
     1
102
RTVSPropertyOp3
 70
     1
102
RTVSPropertyOp4
 70
     1
102
RTVSPropertyOp5
 70
     1
102
RTVSPropertyOp6
 70
     1
102
RTVSPropertyOp7
 70
     1
102
RTVSPropertyOp8
 70
     1
102
RTVSPropertyOp9
 70
     1
102
RTVSPropertyOp10
 70
     1
102
RTVSPropertyOp11
 70
     1
102
RTVSPropertyOp12
 70
     1
102
RTVSPropertyOp13
 70
     1
102
RTVSPropertyOp14
 70
     1
102
RTVSPropertyOp15
 70
     1
102
RTVSPropertyOp16
 70
     1
102
RTVSPropertyOp17
 70
     1
102
RTVSPropertyOp18
 70
     1
102
RTVSPropertyOp19
 70
     1
102
RTVSPropertyOp20
 70
     1
102
RTVSPropertyOp21
 70
     1
102
RTVSPropertyOp22
 70
     1
102
RTVSPropertyOp23
 70
     1
102
RTVSPropertyOp24
 70
     1
102
RTVSPropertyOp25
 70
     1
102
RTVSPropertyOp26
 70
     1
102
RTVSPropertyOp27
 70
     1
102
RTVSPropertyOp28
 70
     1
102
RTVSPropertyOp29
 70
     1
102
RTVSPropertyOp30
 70
     1
102
RTVSPropertyOp31
 70
     1
102
RTVSPropertyOp32
 70
     1
102
RTVSPropertyOp33
 70
     1
102
RTVSPropertyOp34
 70
     1
102
RTVSPropertyOp35
 70
     1
102
RTVSPropertyOp36
 70
     1
102
RTVSPropertyOp37
 70
     1
102
RTVSPropertyOp38
 70
     1
102
RTVSPropertyOp39
 70
     1
102
RTVSPropertyOp40
 70
     1
102
RTVSPropertyOp41
 70
     1
102
RTVSPropertyOp42
 70
     1
102
RTVSPropertyOp43
 70
     1
102
RTVSPropertyOp44
 70
     1
102
RTVSPropertyOp45
 70
     1
102
RTVSPropertyOp46
 70
     1
102
RTVSPropertyOp47
 70
     1
102
RTVSPropertyOp48
 70
     1
102
RTVSPropertyOp49
 70
     1
102
RTVSPropertyOp50
 70
     1
102
RTVSPropertyOp51
 70
     0
102
RTVSPropertyOp52
 70
     0
102
RTVSPropertyOp53
 70
     1
102
RTVSPropertyOp54
 70
     1
102
RTVSPropertyOp55
 70
     1
102
RTVSPropertyOp56
 70
     1
102
RTVSPropertyOp57
 70
     1
102
RTVSPost2010Prop28
280
     0
102
RTVSPost2010PropOp28
 70
     1
102
RTVSPost2010Prop29
280
     1
102
RTVSPost2010PropOp29
 70
     1
102
RTVSPost2010Prop30
280
     1
102
RTVSPost2010PropOp30
 70
     1
102
RTVSPost2010Prop31
280
     0
102
RTVSPost2010PropOp31
 70
     1
102
RTVSPost2010Prop32
280
     0
102
RTVSPost2010PropOp32
 70
     1
102
RTVSPost2010Prop33
280
     0
102
RTVSPost2010PropOp33
 70
     1
102
RTVSPost2010Prop34
280
     0
102
RTVSPost2010PropOp34
 70
     1
102
RTVSPost2010Prop35
280
     0
102
RTVSPost2010PropOp35
 70
     1
102
RTVSPost2010Prop36
280
     0
102
RTVSPost2010PropOp36
 70
     1
102
RTVSPost2010Prop37
 90
       50
102
RTVSPost2010PropOp37
 70
     1
102
RTVSPost2010Prop38
140
0.0
102
RTVSPost2010PropOp38
 70
     1
102
RTVSPost2010Prop39
140
1.0
102
RTVSPost2010PropOp39
 70
     1
102
RTVSPost2010Prop40
 90
        0
102
RTVSPost2010PropOp40
 70
     1
102
RTVSPost2010Prop41ColorIndex
 90
       18
102
RTVSPost2010Prop41ColorRGB
 90
        0
102
RTVSPost2010PropOp41
 70
     1
102
RTVSPost2010Prop42
 90
       50
102
RTVSPost2010PropOp42
 70
     1
102
RTVSPost2010Prop43
 90
        3
102
RTVSPost2010PropOp43
 70
     1
102
RTVSPost2010Prop44ColorIndex
 90
        5
102
RTVSPost2010Prop44ColorRGB
 90
      255
102
RTVSPost2010PropOp44
 70
     1
102
RTVSPost2010Prop45
280
     0
102
RTVSPost2010PropOp45
 70
     1
102
RTVSPost2010Prop46
 90
       50
102
RTVSPost2010PropOp46
 70
     1
102
RTVSPost2010Prop47
 90
       50
102
RTVSPost2010PropOp47
 70
     1
102
RTVSPost2010Prop48
 90
       50
102
RTVSPost2010PropOp48
 70
     1
102
RTVSPost2010Prop49
280
     0
102
RTVSPost2010PropOp49
 70
     1
102
RTVSPost2010Prop50
 90
       50
102
RTVSPost2010PropOp50
 70
     1
102
RTVSPost2010Prop51ColorIndex
 90
      256
102
RTVSPost2010Prop51ColorRGB
 90
-16777216
102
RTVSPost2010PropOp51
 70
     0
102
RTVSPost2010Prop52
140
1.0
102
RTVSPost2010PropOp52
 70
     0
102
RTVSPost2010Prop53
 90
        2
102
RTVSPost2010PropOp53
 70
     1
102
RTVSPost2010Prop54
  1
strokes_ogs.tif
102
RTVSPost2010PropOp54
 70
     1
102
RTVSPost2010Prop55
280
     0
102
RTVSPost2010PropOp55
 70
     1
102
RTVSPost2010Prop56
140
1.0
102
RTVSPost2010PropOp56
 70
     1
102
RTVSPost2010Prop57
140
1.0
102
RTVSPost2010PropOp57
 70
     1
  0
XRECORD
  5
C31
102
{ACAD_REACTORS
330
C30
102
}
330
C30
100
AcDbXrecord
280
     1
102
RTVSPropertyOp0
 70
     1
102
RTVSPropertyOp1
 70
     1
102
RTVSPropertyOp2
 70
     1
102
RTVSPropertyOp3
 70
     1
102
RTVSPropertyOp4
 70
     1
102
RTVSPropertyOp5
 70
     1
102
RTVSPropertyOp6
 70
     1
102
RTVSPropertyOp7
 70
     1
102
RTVSPropertyOp8
 70
     1
102
RTVSPropertyOp9
 70
     1
102
RTVSPropertyOp10
 70
     1
102
RTVSPropertyOp11
 70
     1
102
RTVSPropertyOp12
 70
     1
102
RTVSPropertyOp13
 70
     1
102
RTVSPropertyOp14
 70
     1
102
RTVSPropertyOp15
 70
     1
102
RTVSPropertyOp16
 70
     1
102
RTVSPropertyOp17
 70
     1
102
RTVSPropertyOp18
 70
     1
102
RTVSPropertyOp19
 70
     1
102
RTVSPropertyOp20
 70
     1
102
RTVSPropertyOp21
 70
     1
102
RTVSPropertyOp22
 70
     1
102
RTVSPropertyOp23
 70
     1
102
RTVSPropertyOp24
 70
     1
102
RTVSPropertyOp25
 70
     1
102
RTVSPropertyOp26
 70
     1
102
RTVSPropertyOp27
 70
     1
102
RTVSPropertyOp28
 70
     1
102
RTVSPropertyOp29
 70
     1
102
RTVSPropertyOp30
 70
     1
102
RTVSPropertyOp31
 70
     1
102
RTVSPropertyOp32
 70
     1
102
RTVSPropertyOp33
 70
     1
102
RTVSPropertyOp34
 70
     1
102
RTVSPropertyOp35
 70
     1
102
RTVSPropertyOp36
 70
     1
102
RTVSPropertyOp37
 70
     1
102
RTVSPropertyOp38
 70
     1
102
RTVSPropertyOp39
 70
     1
102
RTVSPropertyOp40
 70
     1
102
RTVSPropertyOp41
 70
     1
102
RTVSPropertyOp42
 70
     1
102
RTVSPropertyOp43
 70
     1
102
RTVSPropertyOp44
 70
     1
102
RTVSPropertyOp45
 70
     1
102
RTVSPropertyOp46
 70
     1
102
RTVSPropertyOp47
 70
     1
102
RTVSPropertyOp48
 70
     1
102
RTVSPropertyOp49
 70
     1
102
RTVSPropertyOp50
 70
     1
102
RTVSPropertyOp51
 70
     0
102
RTVSPropertyOp52
 70
     0
102
RTVSPropertyOp53
 70
     1
102
RTVSPropertyOp54
 70
     1
102
RTVSPropertyOp55
 70
     1
102
RTVSPropertyOp56
 70
     1
102
RTVSPropertyOp57
 70
     1
102
RTVSPost2010Prop28
280
     0
102
RTVSPost2010PropOp28
 70
     1
102
RTVSPost2010Prop29
280
     1
102
RTVSPost2010PropOp29
 70
     1
102
RTVSPost2010Prop30
280
     1
102
RTVSPost2010PropOp30
 70
     1
102
RTVSPost2010Prop31
280
     0
102
RTVSPost2010PropOp31
 70
     1
102
RTVSPost2010Prop32
280
     0
102
RTVSPost2010PropOp32
 70
     1
102
RTVSPost2010Prop33
280
     0
102
RTVSPost2010PropOp33
 70
     1
102
RTVSPost2010Prop34
280
     0
102
RTVSPost2010PropOp34
 70
     1
102
RTVSPost2010Prop35
280
     0
102
RTVSPost2010PropOp35
 70
     1
102
RTVSPost2010Prop36
280
     0
102
RTVSPost2010PropOp36
 70
     1
102
RTVSPost2010Prop37
 90
       50
102
RTVSPost2010PropOp37
 70
     1
102
RTVSPost2010Prop38
140
0.0
102
RTVSPost2010PropOp38
 70
     1
102
RTVSPost2010Prop39
140
1.0
102
RTVSPost2010PropOp39
 70
     1
102
RTVSPost2010Prop40
 90
        0
102
RTVSPost2010PropOp40
 70
     1
102
RTVSPost2010Prop41ColorIndex
 90
       18
102
RTVSPost2010Prop41ColorRGB
 90
        0
102
RTVSPost2010PropOp41
 70
     1
102
RTVSPost2010Prop42
 90
       50
102
RTVSPost2010PropOp42
 70
     1
102
RTVSPost2010Prop43
 90
        3
102
RTVSPost2010PropOp43
 70
     1
102
RTVSPost2010Prop44ColorIndex
 90
        5
102
RTVSPost2010Prop44ColorRGB
 90
      255
102
RTVSPost2010PropOp44
 70
     1
102
RTVSPost2010Prop45
280
     0
102
RTVSPost2010PropOp45
 70
     1
102
RTVSPost2010Prop46
 90
       50
102
RTVSPost2010PropOp46
 70
     1
102
RTVSPost2010Prop47
 90
       50
102
RTVSPost2010PropOp47
 70
     1
102
RTVSPost2010Prop48
 90
       50
102
RTVSPost2010PropOp48
 70
     1
102
RTVSPost2010Prop49
280
     0
102
RTVSPost2010PropOp49
 70
     1
102
RTVSPost2010Prop50
 90
       50
102
RTVSPost2010PropOp50
 70
     1
102
RTVSPost2010Prop51ColorIndex
 90
      256
102
RTVSPost2010Prop51ColorRGB
 90
-16777216
102
RTVSPost2010PropOp51
 70
     0
102
RTVSPost2010Prop52
140
1.0
102
RTVSPost2010PropOp52
 70
     0
102
RTVSPost2010Prop53
 90
        2
102
RTVSPost2010PropOp53
 70
     1
102
RTVSPost2010Prop54
  1
strokes_ogs.tif
102
RTVSPost2010PropOp54
 70
     1
102
RTVSPost2010Prop55
280
     0
102
RTVSPost2010PropOp55
 70
     1
102
RTVSPost2010Prop56
140
1.0
102
RTVSPost2010PropOp56
 70
     1
102
RTVSPost2010Prop57
140
1.0
102
RTVSPost2010PropOp57
 70
     1
  0
XRECORD
  5
C33
102
{ACAD_REACTORS
330
C32
102
}
330
C32
100
AcDbXrecord
280
     1
102
RTVSPropertyOp0
 70
     1
102
RTVSPropertyOp1
 70
     1
102
RTVSPropertyOp2
 70
     1
102
RTVSPropertyOp3
 70
     1
102
RTVSPropertyOp4
 70
     1
102
RTVSPropertyOp5
 70
     1
102
RTVSPropertyOp6
 70
     1
102
RTVSPropertyOp7
 70
     1
102
RTVSPropertyOp8
 70
     1
102
RTVSPropertyOp9
 70
     1
102
RTVSPropertyOp10
 70
     1
102
RTVSPropertyOp11
 70
     1
102
RTVSPropertyOp12
 70
     1
102
RTVSPropertyOp13
 70
     1
102
RTVSPropertyOp14
 70
     1
102
RTVSPropertyOp15
 70
     1
102
RTVSPropertyOp16
 70
     1
102
RTVSPropertyOp17
 70
     1
102
RTVSPropertyOp18
 70
     1
102
RTVSPropertyOp19
 70
     1
102
RTVSPropertyOp20
 70
     1
102
RTVSPropertyOp21
 70
     1
102
RTVSPropertyOp22
 70
     1
102
RTVSPropertyOp23
 70
     1
102
RTVSPropertyOp24
 70
     1
102
RTVSPropertyOp25
 70
     1
102
RTVSPropertyOp26
 70
     1
102
RTVSPropertyOp27
 70
     1
102
RTVSPropertyOp28
 70
     1
102
RTVSPropertyOp29
 70
     1
102
RTVSPropertyOp30
 70
     1
102
RTVSPropertyOp31
 70
     1
102
RTVSPropertyOp32
 70
     1
102
RTVSPropertyOp33
 70
     1
102
RTVSPropertyOp34
 70
     1
102
RTVSPropertyOp35
 70
     1
102
RTVSPropertyOp36
 70
     1
102
RTVSPropertyOp37
 70
     1
102
RTVSPropertyOp38
 70
     1
102
RTVSPropertyOp39
 70
     1
102
RTVSPropertyOp40
 70
     1
102
RTVSPropertyOp41
 70
     1
102
RTVSPropertyOp42
 70
     1
102
RTVSPropertyOp43
 70
     1
102
RTVSPropertyOp44
 70
     1
102
RTVSPropertyOp45
 70
     1
102
RTVSPropertyOp46
 70
     1
102
RTVSPropertyOp47
 70
     1
102
RTVSPropertyOp48
 70
     1
102
RTVSPropertyOp49
 70
     1
102
RTVSPropertyOp50
 70
     1
102
RTVSPropertyOp51
 70
     0
102
RTVSPropertyOp52
 70
     0
102
RTVSPropertyOp53
 70
     1
102
RTVSPropertyOp54
 70
     1
102
RTVSPropertyOp55
 70
     1
102
RTVSPropertyOp56
 70
     1
102
RTVSPropertyOp57
 70
     1
102
RTVSPost2010Prop28
280
     0
102
RTVSPost2010PropOp28
 70
     1
102
RTVSPost2010Prop29
280
     1
102
RTVSPost2010PropOp29
 70
     1
102
RTVSPost2010Prop30
280
     1
102
RTVSPost2010PropOp30
 70
     1
102
RTVSPost2010Prop31
280
     0
102
RTVSPost2010PropOp31
 70
     1
102
RTVSPost2010Prop32
280
     0
102
RTVSPost2010PropOp32
 70
     1
102
RTVSPost2010Prop33
280
     0
102
RTVSPost2010PropOp33
 70
     1
102
RTVSPost2010Prop34
280
     0
102
RTVSPost2010PropOp34
 70
     1
102
RTVSPost2010Prop35
280
     0
102
RTVSPost2010PropOp35
 70
     1
102
RTVSPost2010Prop36
280
     0
102
RTVSPost2010PropOp36
 70
     1
102
RTVSPost2010Prop37
 90
       50
102
RTVSPost2010PropOp37
 70
     1
102
RTVSPost2010Prop38
140
0.0
102
RTVSPost2010PropOp38
 70
     1
102
RTVSPost2010Prop39
140
1.0
102
RTVSPost2010PropOp39
 70
     1
102
RTVSPost2010Prop40
 90
        0
102
RTVSPost2010PropOp40
 70
     1
102
RTVSPost2010Prop41ColorIndex
 90
       18
102
RTVSPost2010Prop41ColorRGB
 90
        0
102
RTVSPost2010PropOp41
 70
     1
102
RTVSPost2010Prop42
 90
       50
102
RTVSPost2010PropOp42
 70
     1
102
RTVSPost2010Prop43
 90
        3
102
RTVSPost2010PropOp43
 70
     1
102
RTVSPost2010Prop44ColorIndex
 90
        5
102
RTVSPost2010Prop44ColorRGB
 90
      255
102
RTVSPost2010PropOp44
 70
     1
102
RTVSPost2010Prop45
280
     0
102
RTVSPost2010PropOp45
 70
     1
102
RTVSPost2010Prop46
 90
       50
102
RTVSPost2010PropOp46
 70
     1
102
RTVSPost2010Prop47
 90
       50
102
RTVSPost2010PropOp47
 70
     1
102
RTVSPost2010Prop48
 90
       50
102
RTVSPost2010PropOp48
 70
     1
102
RTVSPost2010Prop49
280
     0
102
RTVSPost2010PropOp49
 70
     1
102
RTVSPost2010Prop50
 90
       50
102
RTVSPost2010PropOp50
 70
     1
102
RTVSPost2010Prop51ColorIndex
 90
      256
102
RTVSPost2010Prop51ColorRGB
 90
-16777216
102
RTVSPost2010PropOp51
 70
     0
102
RTVSPost2010Prop52
140
1.0
102
RTVSPost2010PropOp52
 70
     0
102
RTVSPost2010Prop53
 90
        2
102
RTVSPost2010PropOp53
 70
     1
102
RTVSPost2010Prop54
  1
strokes_ogs.tif
102
RTVSPost2010PropOp54
 70
     1
102
RTVSPost2010Prop55
280
     0
102
RTVSPost2010PropOp55
 70
     1
102
RTVSPost2010Prop56
140
1.0
102
RTVSPost2010PropOp56
 70
     1
102
RTVSPost2010Prop57
140
1.0
102
RTVSPost2010PropOp57
 70
     1
  0
XRECORD
  5
C39
102
{ACAD_REACTORS
330
C38
102
}
330
C38
100
AcDbXrecord
280
     1
102
RTVSPropertyOp0
 70
     1
102
RTVSPropertyOp1
 70
     1
102
RTVSPropertyOp2
 70
     1
102
RTVSPropertyOp3
 70
     1
102
RTVSPropertyOp4
 70
     1
102
RTVSPropertyOp5
 70
     1
102
RTVSPropertyOp6
 70
     1
102
RTVSPropertyOp7
 70
     1
102
RTVSPropertyOp8
 70
     1
102
RTVSPropertyOp9
 70
     1
102
RTVSPropertyOp10
 70
     1
102
RTVSPropertyOp11
 70
     1
102
RTVSPropertyOp12
 70
     1
102
RTVSPropertyOp13
 70
     1
102
RTVSPropertyOp14
 70
     1
102
RTVSPropertyOp15
 70
     1
102
RTVSPropertyOp16
 70
     1
102
RTVSPropertyOp17
 70
     1
102
RTVSPropertyOp18
 70
     1
102
RTVSPropertyOp19
 70
     1
102
RTVSPropertyOp20
 70
     1
102
RTVSPropertyOp21
 70
     1
102
RTVSPropertyOp22
 70
     1
102
RTVSPropertyOp23
 70
     1
102
RTVSPropertyOp24
 70
     1
102
RTVSPropertyOp25
 70
     1
102
RTVSPropertyOp26
 70
     1
102
RTVSPropertyOp27
 70
     1
102
RTVSPropertyOp28
 70
     1
102
RTVSPropertyOp29
 70
     1
102
RTVSPropertyOp30
 70
     1
102
RTVSPropertyOp31
 70
     1
102
RTVSPropertyOp32
 70
     1
102
RTVSPropertyOp33
 70
     1
102
RTVSPropertyOp34
 70
     1
102
RTVSPropertyOp35
 70
     1
102
RTVSPropertyOp36
 70
     1
102
RTVSPropertyOp37
 70
     1
102
RTVSPropertyOp38
 70
     1
102
RTVSPropertyOp39
 70
     1
102
RTVSPropertyOp40
 70
     1
102
RTVSPropertyOp41
 70
     1
102
RTVSPropertyOp42
 70
     1
102
RTVSPropertyOp43
 70
     1
102
RTVSPropertyOp44
 70
     1
102
RTVSPropertyOp45
 70
     1
102
RTVSPropertyOp46
 70
     1
102
RTVSPropertyOp47
 70
     1
102
RTVSPropertyOp48
 70
     1
102
RTVSPropertyOp49
 70
     1
102
RTVSPropertyOp50
 70
     1
102
RTVSPropertyOp51
 70
     0
102
RTVSPropertyOp52
 70
     0
102
RTVSPropertyOp53
 70
     1
102
RTVSPropertyOp54
 70
     1
102
RTVSPropertyOp55
 70
     1
102
RTVSPropertyOp56
 70
     1
102
RTVSPropertyOp57
 70
     1
102
RTVSPost2010Prop28
280
     0
102
RTVSPost2010PropOp28
 70
     1
102
RTVSPost2010Prop29
280
     1
102
RTVSPost2010PropOp29
 70
     1
102
RTVSPost2010Prop30
280
     1
102
RTVSPost2010PropOp30
 70
     1
102
RTVSPost2010Prop31
280
     0
102
RTVSPost2010PropOp31
 70
     1
102
RTVSPost2010Prop32
280
     0
102
RTVSPost2010PropOp32
 70
     1
102
RTVSPost2010Prop33
280
     0
102
RTVSPost2010PropOp33
 70
     1
102
RTVSPost2010Prop34
280
     0
102
RTVSPost2010PropOp34
 70
     1
102
RTVSPost2010Prop35
280
     0
102
RTVSPost2010PropOp35
 70
     1
102
RTVSPost2010Prop36
280
     0
102
RTVSPost2010PropOp36
 70
     1
102
RTVSPost2010Prop37
 90
       50
102
RTVSPost2010PropOp37
 70
     1
102
RTVSPost2010Prop38
140
0.0
102
RTVSPost2010PropOp38
 70
     1
102
RTVSPost2010Prop39
140
1.0
102
RTVSPost2010PropOp39
 70
     1
102
RTVSPost2010Prop40
 90
        0
102
RTVSPost2010PropOp40
 70
     1
102
RTVSPost2010Prop41ColorIndex
 90
       18
102
RTVSPost2010Prop41ColorRGB
 90
        0
102
RTVSPost2010PropOp41
 70
     1
102
RTVSPost2010Prop42
 90
       50
102
RTVSPost2010PropOp42
 70
     1
102
RTVSPost2010Prop43
 90
        3
102
RTVSPost2010PropOp43
 70
     1
102
RTVSPost2010Prop44ColorIndex
 90
        5
102
RTVSPost2010Prop44ColorRGB
 90
      255
102
RTVSPost2010PropOp44
 70
     1
102
RTVSPost2010Prop45
280
     0
102
RTVSPost2010PropOp45
 70
     1
102
RTVSPost2010Prop46
 90
       50
102
RTVSPost2010PropOp46
 70
     1
102
RTVSPost2010Prop47
 90
       50
102
RTVSPost2010PropOp47
 70
     1
102
RTVSPost2010Prop48
 90
       50
102
RTVSPost2010PropOp48
 70
     1
102
RTVSPost2010Prop49
280
     0
102
RTVSPost2010PropOp49
 70
     1
102
RTVSPost2010Prop50
 90
       50
102
RTVSPost2010PropOp50
 70
     1
102
RTVSPost2010Prop51ColorIndex
 90
      256
102
RTVSPost2010Prop51ColorRGB
 90
-16777216
102
RTVSPost2010PropOp51
 70
     0
102
RTVSPost2010Prop52
140
1.0
102
RTVSPost2010PropOp52
 70
     0
102
RTVSPost2010Prop53
 90
        2
102
RTVSPost2010PropOp53
 70
     1
102
RTVSPost2010Prop54
  1
strokes_ogs.tif
102
RTVSPost2010PropOp54
 70
     1
102
RTVSPost2010Prop55
280
     0
102
RTVSPost2010PropOp55
 70
     1
102
RTVSPost2010Prop56
140
1.0
102
RTVSPost2010PropOp56
 70
     1
102
RTVSPost2010Prop57
140
1.0
102
RTVSPost2010PropOp57
 70
     1
  0
XRECORD
  5
C4D
102
{ACAD_REACTORS
330
C4C
102
}
330
C4C
100
AcDbXrecord
280
     1
102
RTVSPropertyOp0
 70
     0
102
RTVSPropertyOp1
 70
     0
102
RTVSPropertyOp2
 70
     0
102
RTVSPropertyOp3
 70
     0
102
RTVSPropertyOp4
 70
     0
102
RTVSPropertyOp5
 70
     0
102
RTVSPropertyOp6
 70
     0
102
RTVSPropertyOp7
 70
     0
102
RTVSPropertyOp8
 70
     0
102
RTVSPropertyOp9
 70
     0
102
RTVSPropertyOp10
 70
     0
102
RTVSPropertyOp11
 70
     0
102
RTVSPropertyOp12
 70
     0
102
RTVSPropertyOp13
 70
     0
102
RTVSPropertyOp14
 70
     0
102
RTVSPropertyOp15
 70
     0
102
RTVSPropertyOp16
 70
     0
102
RTVSPropertyOp17
 70
     0
102
RTVSPropertyOp18
 70
     0
102
RTVSPropertyOp19
 70
     0
102
RTVSPropertyOp20
 70
     0
102
RTVSPropertyOp21
 70
     0
102
RTVSPropertyOp22
 70
     0
102
RTVSPropertyOp23
 70
     0
102
RTVSPropertyOp24
 70
     0
102
RTVSPropertyOp25
 70
     0
102
RTVSPropertyOp26
 70
     0
102
RTVSPropertyOp27
 70
     0
102
RTVSPropertyOp28
 70
     1
102
RTVSPropertyOp29
 70
     1
102
RTVSPropertyOp30
 70
     1
102
RTVSPropertyOp31
 70
     1
102
RTVSPropertyOp32
 70
     1
102
RTVSPropertyOp33
 70
     1
102
RTVSPropertyOp34
 70
     1
102
RTVSPropertyOp35
 70
     1
102
RTVSPropertyOp36
 70
     1
102
RTVSPropertyOp37
 70
     1
102
RTVSPropertyOp38
 70
     1
102
RTVSPropertyOp39
 70
     1
102
RTVSPropertyOp40
 70
     1
102
RTVSPropertyOp41
 70
     1
102
RTVSPropertyOp42
 70
     1
102
RTVSPropertyOp43
 70
     1
102
RTVSPropertyOp44
 70
     1
102
RTVSPropertyOp45
 70
     1
102
RTVSPropertyOp46
 70
     1
102
RTVSPropertyOp47
 70
     1
102
RTVSPropertyOp48
 70
     1
102
RTVSPropertyOp49
 70
     1
102
RTVSPropertyOp50
 70
     1
102
RTVSPropertyOp51
 70
     0
102
RTVSPropertyOp52
 70
     0
102
RTVSPropertyOp53
 70
     1
102
RTVSPropertyOp54
 70
     1
102
RTVSPropertyOp55
 70
     1
102
RTVSPropertyOp56
 70
     1
102
RTVSPropertyOp57
 70
     1
102
RTVSPost2010Prop28
280
     0
102
RTVSPost2010PropOp28
 70
     1
102
RTVSPost2010Prop29
280
     1
102
RTVSPost2010PropOp29
 70
     1
102
RTVSPost2010Prop30
280
     1
102
RTVSPost2010PropOp30
 70
     1
102
RTVSPost2010Prop31
280
     0
102
RTVSPost2010PropOp31
 70
     1
102
RTVSPost2010Prop32
280
     0
102
RTVSPost2010PropOp32
 70
     1
102
RTVSPost2010Prop33
280
     0
102
RTVSPost2010PropOp33
 70
     1
102
RTVSPost2010Prop34
280
     0
102
RTVSPost2010PropOp34
 70
     1
102
RTVSPost2010Prop35
280
     0
102
RTVSPost2010PropOp35
 70
     1
102
RTVSPost2010Prop36
280
     0
102
RTVSPost2010PropOp36
 70
     1
102
RTVSPost2010Prop37
 90
       50
102
RTVSPost2010PropOp37
 70
     1
102
RTVSPost2010Prop38
140
0.0
102
RTVSPost2010PropOp38
 70
     1
102
RTVSPost2010Prop39
140
1.0
102
RTVSPost2010PropOp39
 70
     1
102
RTVSPost2010Prop40
 90
        0
102
RTVSPost2010PropOp40
 70
     1
102
RTVSPost2010Prop41ColorIndex
 90
       18
102
RTVSPost2010Prop41ColorRGB
 90
        0
102
RTVSPost2010PropOp41
 70
     1
102
RTVSPost2010Prop42
 90
       50
102
RTVSPost2010PropOp42
 70
     1
102
RTVSPost2010Prop43
 90
        3
102
RTVSPost2010PropOp43
 70
     1
102
RTVSPost2010Prop44ColorIndex
 90
        5
102
RTVSPost2010Prop44ColorRGB
 90
      255
102
RTVSPost2010PropOp44
 70
     1
102
RTVSPost2010Prop45
280
     0
102
RTVSPost2010PropOp45
 70
     1
102
RTVSPost2010Prop46
 90
       50
102
RTVSPost2010PropOp46
 70
     1
102
RTVSPost2010Prop47
 90
       50
102
RTVSPost2010PropOp47
 70
     1
102
RTVSPost2010Prop48
 90
       50
102
RTVSPost2010PropOp48
 70
     1
102
RTVSPost2010Prop49
280
     0
102
RTVSPost2010PropOp49
 70
     1
102
RTVSPost2010Prop50
 90
       50
102
RTVSPost2010PropOp50
 70
     1
102
RTVSPost2010Prop51ColorIndex
 90
      256
102
RTVSPost2010Prop51ColorRGB
 90
-16777216
102
RTVSPost2010PropOp51
 70
     0
102
RTVSPost2010Prop52
140
1.0
102
RTVSPost2010PropOp52
 70
     0
102
RTVSPost2010Prop53
 90
        2
102
RTVSPost2010PropOp53
 70
     1
102
RTVSPost2010Prop54
  1
strokes_ogs.tif
102
RTVSPost2010PropOp54
 70
     1
102
RTVSPost2010Prop55
280
     0
102
RTVSPost2010PropOp55
 70
     1
102
RTVSPost2010Prop56
140
1.0
102
RTVSPost2010PropOp56
 70
     1
102
RTVSPost2010Prop57
140
1.0
102
RTVSPost2010PropOp57
 70
     1
  0
XRECORD
  5
C47
102
{ACAD_REACTORS
330
C46
102
}
330
C46
100
AcDbXrecord
280
     1
102
RTVSPropertyOp0
 70
     1
102
RTVSPropertyOp1
 70
     1
102
RTVSPropertyOp2
 70
     1
102
RTVSPropertyOp3
 70
     1
102
RTVSPropertyOp4
 70
     1
102
RTVSPropertyOp5
 70
     1
102
RTVSPropertyOp6
 70
     1
102
RTVSPropertyOp7
 70
     1
102
RTVSPropertyOp8
 70
     1
102
RTVSPropertyOp9
 70
     1
102
RTVSPropertyOp10
 70
     1
102
RTVSPropertyOp11
 70
     1
102
RTVSPropertyOp12
 70
     1
102
RTVSPropertyOp13
 70
     1
102
RTVSPropertyOp14
 70
     1
102
RTVSPropertyOp15
 70
     1
102
RTVSPropertyOp16
 70
     1
102
RTVSPropertyOp17
 70
     1
102
RTVSPropertyOp18
 70
     1
102
RTVSPropertyOp19
 70
     1
102
RTVSPropertyOp20
 70
     1
102
RTVSPropertyOp21
 70
     1
102
RTVSPropertyOp22
 70
     1
102
RTVSPropertyOp23
 70
     1
102
RTVSPropertyOp24
 70
     1
102
RTVSPropertyOp25
 70
     1
102
RTVSPropertyOp26
 70
     1
102
RTVSPropertyOp27
 70
     1
102
RTVSPropertyOp28
 70
     1
102
RTVSPropertyOp29
 70
     1
102
RTVSPropertyOp30
 70
     1
102
RTVSPropertyOp31
 70
     1
102
RTVSPropertyOp32
 70
     1
102
RTVSPropertyOp33
 70
     1
102
RTVSPropertyOp34
 70
     1
102
RTVSPropertyOp35
 70
     1
102
RTVSPropertyOp36
 70
     1
102
RTVSPropertyOp37
 70
     1
102
RTVSPropertyOp38
 70
     1
102
RTVSPropertyOp39
 70
     1
102
RTVSPropertyOp40
 70
     1
102
RTVSPropertyOp41
 70
     1
102
RTVSPropertyOp42
 70
     1
102
RTVSPropertyOp43
 70
     1
102
RTVSPropertyOp44
 70
     1
102
RTVSPropertyOp45
 70
     1
102
RTVSPropertyOp46
 70
     1
102
RTVSPropertyOp47
 70
     1
102
RTVSPropertyOp48
 70
     1
102
RTVSPropertyOp49
 70
     1
102
RTVSPropertyOp50
 70
     1
102
RTVSPropertyOp51
 70
     0
102
RTVSPropertyOp52
 70
     0
102
RTVSPropertyOp53
 70
     1
102
RTVSPropertyOp54
 70
     1
102
RTVSPropertyOp55
 70
     1
102
RTVSPropertyOp56
 70
     1
102
RTVSPropertyOp57
 70
     1
102
RTVSPost2010Prop28
280
     0
102
RTVSPost2010PropOp28
 70
     1
102
RTVSPost2010Prop29
280
     1
102
RTVSPost2010PropOp29
 70
     1
102
RTVSPost2010Prop30
280
     1
102
RTVSPost2010PropOp30
 70
     1
102
RTVSPost2010Prop31
280
     0
102
RTVSPost2010PropOp31
 70
     1
102
RTVSPost2010Prop32
280
     0
102
RTVSPost2010PropOp32
 70
     1
102
RTVSPost2010Prop33
280
     0
102
RTVSPost2010PropOp33
 70
     1
102
RTVSPost2010Prop34
280
     0
102
RTVSPost2010PropOp34
 70
     1
102
RTVSPost2010Prop35
280
     0
102
RTVSPost2010PropOp35
 70
     1
102
RTVSPost2010Prop36
280
     0
102
RTVSPost2010PropOp36
 70
     1
102
RTVSPost2010Prop37
 90
       50
102
RTVSPost2010PropOp37
 70
     1
102
RTVSPost2010Prop38
140
0.0
102
RTVSPost2010PropOp38
 70
     1
102
RTVSPost2010Prop39
140
1.0
102
RTVSPost2010PropOp39
 70
     1
102
RTVSPost2010Prop40
 90
        0
102
RTVSPost2010PropOp40
 70
     1
102
RTVSPost2010Prop41ColorIndex
 90
       18
102
RTVSPost2010Prop41ColorRGB
 90
        0
102
RTVSPost2010PropOp41
 70
     1
102
RTVSPost2010Prop42
 90
       50
102
RTVSPost2010PropOp42
 70
     1
102
RTVSPost2010Prop43
 90
        3
102
RTVSPost2010PropOp43
 70
     1
102
RTVSPost2010Prop44ColorIndex
 90
        5
102
RTVSPost2010Prop44ColorRGB
 90
      255
102
RTVSPost2010PropOp44
 70
     1
102
RTVSPost2010Prop45
280
     0
102
RTVSPost2010PropOp45
 70
     1
102
RTVSPost2010Prop46
 90
       50
102
RTVSPost2010PropOp46
 70
     1
102
RTVSPost2010Prop47
 90
       50
102
RTVSPost2010PropOp47
 70
     1
102
RTVSPost2010Prop48
 90
       50
102
RTVSPost2010PropOp48
 70
     1
102
RTVSPost2010Prop49
280
     0
102
RTVSPost2010PropOp49
 70
     1
102
RTVSPost2010Prop50
 90
       50
102
RTVSPost2010PropOp50
 70
     1
102
RTVSPost2010Prop51ColorIndex
 90
      256
102
RTVSPost2010Prop51ColorRGB
 90
-16777216
102
RTVSPost2010PropOp51
 70
     0
102
RTVSPost2010Prop52
140
1.0
102
RTVSPost2010PropOp52
 70
     0
102
RTVSPost2010Prop53
 90
        2
102
RTVSPost2010PropOp53
 70
     1
102
RTVSPost2010Prop54
  1
strokes_ogs.tif
102
RTVSPost2010PropOp54
 70
     1
102
RTVSPost2010Prop55
280
     0
102
RTVSPost2010PropOp55
 70
     1
102
RTVSPost2010Prop56
140
1.0
102
RTVSPost2010PropOp56
 70
     1
102
RTVSPost2010Prop57
140
1.0
102
RTVSPost2010PropOp57
 70
     1
  0
XRECORD
  5
C4F
102
{ACAD_REACTORS
330
C4E
102
}
330
C4E
100
AcDbXrecord
280
     1
102
RTVSPropertyOp0
 70
     0
102
RTVSPropertyOp1
 70
     0
102
RTVSPropertyOp2
 70
     0
102
RTVSPropertyOp3
 70
     0
102
RTVSPropertyOp4
 70
     0
102
RTVSPropertyOp5
 70
     0
102
RTVSPropertyOp6
 70
     0
102
RTVSPropertyOp7
 70
     0
102
RTVSPropertyOp8
 70
     0
102
RTVSPropertyOp9
 70
     0
102
RTVSPropertyOp10
 70
     0
102
RTVSPropertyOp11
 70
     0
102
RTVSPropertyOp12
 70
     0
102
RTVSPropertyOp13
 70
     0
102
RTVSPropertyOp14
 70
     0
102
RTVSPropertyOp15
 70
     0
102
RTVSPropertyOp16
 70
     0
102
RTVSPropertyOp17
 70
     0
102
RTVSPropertyOp18
 70
     0
102
RTVSPropertyOp19
 70
     0
102
RTVSPropertyOp20
 70
     0
102
RTVSPropertyOp21
 70
     0
102
RTVSPropertyOp22
 70
     0
102
RTVSPropertyOp23
 70
     0
102
RTVSPropertyOp24
 70
     0
102
RTVSPropertyOp25
 70
     0
102
RTVSPropertyOp26
 70
     0
102
RTVSPropertyOp27
 70
     0
102
RTVSPropertyOp28
 70
     1
102
RTVSPropertyOp29
 70
     1
102
RTVSPropertyOp30
 70
     1
102
RTVSPropertyOp31
 70
     1
102
RTVSPropertyOp32
 70
     1
102
RTVSPropertyOp33
 70
     1
102
RTVSPropertyOp34
 70
     1
102
RTVSPropertyOp35
 70
     1
102
RTVSPropertyOp36
 70
     1
102
RTVSPropertyOp37
 70
     1
102
RTVSPropertyOp38
 70
     1
102
RTVSPropertyOp39
 70
     1
102
RTVSPropertyOp40
 70
     1
102
RTVSPropertyOp41
 70
     1
102
RTVSPropertyOp42
 70
     1
102
RTVSPropertyOp43
 70
     1
102
RTVSPropertyOp44
 70
     1
102
RTVSPropertyOp45
 70
     1
102
RTVSPropertyOp46
 70
     1
102
RTVSPropertyOp47
 70
     1
102
RTVSPropertyOp48
 70
     1
102
RTVSPropertyOp49
 70
     1
102
RTVSPropertyOp50
 70
     1
102
RTVSPropertyOp51
 70
     0
102
RTVSPropertyOp52
 70
     0
102
RTVSPropertyOp53
 70
     1
102
RTVSPropertyOp54
 70
     1
102
RTVSPropertyOp55
 70
     1
102
RTVSPropertyOp56
 70
     1
102
RTVSPropertyOp57
 70
     1
102
RTVSPost2010Prop28
280
     0
102
RTVSPost2010PropOp28
 70
     1
102
RTVSPost2010Prop29
280
     1
102
RTVSPost2010PropOp29
 70
     1
102
RTVSPost2010Prop30
280
     1
102
RTVSPost2010PropOp30
 70
     1
102
RTVSPost2010Prop31
280
     0
102
RTVSPost2010PropOp31
 70
     1
102
RTVSPost2010Prop32
280
     0
102
RTVSPost2010PropOp32
 70
     1
102
RTVSPost2010Prop33
280
     0
102
RTVSPost2010PropOp33
 70
     1
102
RTVSPost2010Prop34
280
     0
102
RTVSPost2010PropOp34
 70
     1
102
RTVSPost2010Prop35
280
     0
102
RTVSPost2010PropOp35
 70
     1
102
RTVSPost2010Prop36
280
     0
102
RTVSPost2010PropOp36
 70
     1
102
RTVSPost2010Prop37
 90
       50
102
RTVSPost2010PropOp37
 70
     1
102
RTVSPost2010Prop38
140
0.0
102
RTVSPost2010PropOp38
 70
     1
102
RTVSPost2010Prop39
140
1.0
102
RTVSPost2010PropOp39
 70
     1
102
RTVSPost2010Prop40
 90
        0
102
RTVSPost2010PropOp40
 70
     1
102
RTVSPost2010Prop41ColorIndex
 90
       18
102
RTVSPost2010Prop41ColorRGB
 90
        0
102
RTVSPost2010PropOp41
 70
     1
102
RTVSPost2010Prop42
 90
       50
102
RTVSPost2010PropOp42
 70
     1
102
RTVSPost2010Prop43
 90
        3
102
RTVSPost2010PropOp43
 70
     1
102
RTVSPost2010Prop44ColorIndex
 90
        5
102
RTVSPost2010Prop44ColorRGB
 90
      255
102
RTVSPost2010PropOp44
 70
     1
102
RTVSPost2010Prop45
280
     0
102
RTVSPost2010PropOp45
 70
     1
102
RTVSPost2010Prop46
 90
       50
102
RTVSPost2010PropOp46
 70
     1
102
RTVSPost2010Prop47
 90
       50
102
RTVSPost2010PropOp47
 70
     1
102
RTVSPost2010Prop48
 90
       50
102
RTVSPost2010PropOp48
 70
     1
102
RTVSPost2010Prop49
280
     0
102
RTVSPost2010PropOp49
 70
     1
102
RTVSPost2010Prop50
 90
       50
102
RTVSPost2010PropOp50
 70
     1
102
RTVSPost2010Prop51ColorIndex
 90
      256
102
RTVSPost2010Prop51ColorRGB
 90
-16777216
102
RTVSPost2010PropOp51
 70
     0
102
RTVSPost2010Prop52
140
1.0
102
RTVSPost2010PropOp52
 70
     0
102
RTVSPost2010Prop53
 90
        2
102
RTVSPost2010PropOp53
 70
     1
102
RTVSPost2010Prop54
  1
strokes_ogs.tif
102
RTVSPost2010PropOp54
 70
     1
102
RTVSPost2010Prop55
280
     0
102
RTVSPost2010PropOp55
 70
     1
102
RTVSPost2010Prop56
140
1.0
102
RTVSPost2010PropOp56
 70
     1
102
RTVSPost2010Prop57
140
1.0
102
RTVSPost2010PropOp57
 70
     1
  0
XRECORD
  5
C3D
102
{ACAD_REACTORS
330
C3C
102
}
330
C3C
100
AcDbXrecord
280
     1
102
RTVSPropertyOp0
 70
     1
102
RTVSPropertyOp1
 70
     1
102
RTVSPropertyOp2
 70
     1
102
RTVSPropertyOp3
 70
     1
102
RTVSPropertyOp4
 70
     1
102
RTVSPropertyOp5
 70
     1
102
RTVSPropertyOp6
 70
     1
102
RTVSPropertyOp7
 70
     1
102
RTVSPropertyOp8
 70
     1
102
RTVSPropertyOp9
 70
     1
102
RTVSPropertyOp10
 70
     1
102
RTVSPropertyOp11
 70
     1
102
RTVSPropertyOp12
 70
     1
102
RTVSPropertyOp13
 70
     1
102
RTVSPropertyOp14
 70
     1
102
RTVSPropertyOp15
 70
     1
102
RTVSPropertyOp16
 70
     1
102
RTVSPropertyOp17
 70
     1
102
RTVSPropertyOp18
 70
     1
102
RTVSPropertyOp19
 70
     1
102
RTVSPropertyOp20
 70
     1
102
RTVSPropertyOp21
 70
     1
102
RTVSPropertyOp22
 70
     1
102
RTVSPropertyOp23
 70
     1
102
RTVSPropertyOp24
 70
     1
102
RTVSPropertyOp25
 70
     1
102
RTVSPropertyOp26
 70
     1
102
RTVSPropertyOp27
 70
     1
102
RTVSPropertyOp28
 70
     1
102
RTVSPropertyOp29
 70
     1
102
RTVSPropertyOp30
 70
     1
102
RTVSPropertyOp31
 70
     1
102
RTVSPropertyOp32
 70
     1
102
RTVSPropertyOp33
 70
     1
102
RTVSPropertyOp34
 70
     1
102
RTVSPropertyOp35
 70
     1
102
RTVSPropertyOp36
 70
     1
102
RTVSPropertyOp37
 70
     1
102
RTVSPropertyOp38
 70
     1
102
RTVSPropertyOp39
 70
     1
102
RTVSPropertyOp40
 70
     1
102
RTVSPropertyOp41
 70
     1
102
RTVSPropertyOp42
 70
     1
102
RTVSPropertyOp43
 70
     1
102
RTVSPropertyOp44
 70
     1
102
RTVSPropertyOp45
 70
     1
102
RTVSPropertyOp46
 70
     1
102
RTVSPropertyOp47
 70
     1
102
RTVSPropertyOp48
 70
     1
102
RTVSPropertyOp49
 70
     1
102
RTVSPropertyOp50
 70
     1
102
RTVSPropertyOp51
 70
     0
102
RTVSPropertyOp52
 70
     0
102
RTVSPropertyOp53
 70
     1
102
RTVSPropertyOp54
 70
     1
102
RTVSPropertyOp55
 70
     1
102
RTVSPropertyOp56
 70
     1
102
RTVSPropertyOp57
 70
     1
102
RTVSPost2010Prop28
280
     0
102
RTVSPost2010PropOp28
 70
     1
102
RTVSPost2010Prop29
280
     1
102
RTVSPost2010PropOp29
 70
     1
102
RTVSPost2010Prop30
280
     1
102
RTVSPost2010PropOp30
 70
     1
102
RTVSPost2010Prop31
280
     0
102
RTVSPost2010PropOp31
 70
     1
102
RTVSPost2010Prop32
280
     0
102
RTVSPost2010PropOp32
 70
     1
102
RTVSPost2010Prop33
280
     0
102
RTVSPost2010PropOp33
 70
     1
102
RTVSPost2010Prop34
280
     0
102
RTVSPost2010PropOp34
 70
     1
102
RTVSPost2010Prop35
280
     0
102
RTVSPost2010PropOp35
 70
     1
102
RTVSPost2010Prop36
280
     0
102
RTVSPost2010PropOp36
 70
     1
102
RTVSPost2010Prop37
 90
       50
102
RTVSPost2010PropOp37
 70
     1
102
RTVSPost2010Prop38
140
0.0
102
RTVSPost2010PropOp38
 70
     1
102
RTVSPost2010Prop39
140
1.0
102
RTVSPost2010PropOp39
 70
     1
102
RTVSPost2010Prop40
 90
        0
102
RTVSPost2010PropOp40
 70
     1
102
RTVSPost2010Prop41ColorIndex
 90
       18
102
RTVSPost2010Prop41ColorRGB
 90
        0
102
RTVSPost2010PropOp41
 70
     1
102
RTVSPost2010Prop42
 90
       50
102
RTVSPost2010PropOp42
 70
     1
102
RTVSPost2010Prop43
 90
        3
102
RTVSPost2010PropOp43
 70
     1
102
RTVSPost2010Prop44ColorIndex
 90
        5
102
RTVSPost2010Prop44ColorRGB
 90
      255
102
RTVSPost2010PropOp44
 70
     1
102
RTVSPost2010Prop45
280
     0
102
RTVSPost2010PropOp45
 70
     1
102
RTVSPost2010Prop46
 90
       50
102
RTVSPost2010PropOp46
 70
     1
102
RTVSPost2010Prop47
 90
       50
102
RTVSPost2010PropOp47
 70
     1
102
RTVSPost2010Prop48
 90
       50
102
RTVSPost2010PropOp48
 70
     1
102
RTVSPost2010Prop49
280
     0
102
RTVSPost2010PropOp49
 70
     1
102
RTVSPost2010Prop50
 90
       50
102
RTVSPost2010PropOp50
 70
     1
102
RTVSPost2010Prop51ColorIndex
 90
      256
102
RTVSPost2010Prop51ColorRGB
 90
-16777216
102
RTVSPost2010PropOp51
 70
     0
102
RTVSPost2010Prop52
140
1.0
102
RTVSPost2010PropOp52
 70
     0
102
RTVSPost2010Prop53
 90
        2
102
RTVSPost2010PropOp53
 70
     1
102
RTVSPost2010Prop54
  1
strokes_ogs.tif
102
RTVSPost2010PropOp54
 70
     1
102
RTVSPost2010Prop55
280
     0
102
RTVSPost2010PropOp55
 70
     1
102
RTVSPost2010Prop56
140
1.0
102
RTVSPost2010PropOp56
 70
     1
102
RTVSPost2010Prop57
140
1.0
102
RTVSPost2010PropOp57
 70
     1
  0
XRECORD
  5
C5B
102
{ACAD_REACTORS
330
C5A
102
}
330
C5A
100
AcDbXrecord
280
     1
102
RTVSPropertyOp0
 70
     1
102
RTVSPropertyOp1
 70
     1
102
RTVSPropertyOp2
 70
     1
102
RTVSPropertyOp3
 70
     1
102
RTVSPropertyOp4
 70
     1
102
RTVSPropertyOp5
 70
     1
102
RTVSPropertyOp6
 70
     1
102
RTVSPropertyOp7
 70
     1
102
RTVSPropertyOp8
 70
     1
102
RTVSPropertyOp9
 70
     1
102
RTVSPropertyOp10
 70
     1
102
RTVSPropertyOp11
 70
     1
102
RTVSPropertyOp12
 70
     1
102
RTVSPropertyOp13
 70
     1
102
RTVSPropertyOp14
 70
     1
102
RTVSPropertyOp15
 70
     1
102
RTVSPropertyOp16
 70
     1
102
RTVSPropertyOp17
 70
     1
102
RTVSPropertyOp18
 70
     1
102
RTVSPropertyOp19
 70
     1
102
RTVSPropertyOp20
 70
     1
102
RTVSPropertyOp21
 70
     1
102
RTVSPropertyOp22
 70
     1
102
RTVSPropertyOp23
 70
     1
102
RTVSPropertyOp24
 70
     1
102
RTVSPropertyOp25
 70
     1
102
RTVSPropertyOp26
 70
     1
102
RTVSPropertyOp27
 70
     1
102
RTVSPropertyOp28
 70
     1
102
RTVSPropertyOp29
 70
     1
102
RTVSPropertyOp30
 70
     1
102
RTVSPropertyOp31
 70
     1
102
RTVSPropertyOp32
 70
     1
102
RTVSPropertyOp33
 70
     1
102
RTVSPropertyOp34
 70
     1
102
RTVSPropertyOp35
 70
     1
102
RTVSPropertyOp36
 70
     1
102
RTVSPropertyOp37
 70
     1
102
RTVSPropertyOp38
 70
     1
102
RTVSPropertyOp39
 70
     1
102
RTVSPropertyOp40
 70
     1
102
RTVSPropertyOp41
 70
     1
102
RTVSPropertyOp42
 70
     1
102
RTVSPropertyOp43
 70
     1
102
RTVSPropertyOp44
 70
     1
102
RTVSPropertyOp45
 70
     1
102
RTVSPropertyOp46
 70
     1
102
RTVSPropertyOp47
 70
     1
102
RTVSPropertyOp48
 70
     1
102
RTVSPropertyOp49
 70
     1
102
RTVSPropertyOp50
 70
     1
102
RTVSPropertyOp51
 70
     0
102
RTVSPropertyOp52
 70
     0
102
RTVSPropertyOp53
 70
     1
102
RTVSPropertyOp54
 70
     1
102
RTVSPropertyOp55
 70
     1
102
RTVSPropertyOp56
 70
     1
102
RTVSPropertyOp57
 70
     1
102
RTVSPost2010Prop28
280
     0
102
RTVSPost2010PropOp28
 70
     1
102
RTVSPost2010Prop29
280
     1
102
RTVSPost2010PropOp29
 70
     1
102
RTVSPost2010Prop30
280
     1
102
RTVSPost2010PropOp30
 70
     1
102
RTVSPost2010Prop31
280
     0
102
RTVSPost2010PropOp31
 70
     1
102
RTVSPost2010Prop32
280
     0
102
RTVSPost2010PropOp32
 70
     1
102
RTVSPost2010Prop33
280
     0
102
RTVSPost2010PropOp33
 70
     1
102
RTVSPost2010Prop34
280
     0
102
RTVSPost2010PropOp34
 70
     1
102
RTVSPost2010Prop35
280
     0
102
RTVSPost2010PropOp35
 70
     1
102
RTVSPost2010Prop36
280
     0
102
RTVSPost2010PropOp36
 70
     1
102
RTVSPost2010Prop37
 90
       50
102
RTVSPost2010PropOp37
 70
     1
102
RTVSPost2010Prop38
140
0.0
102
RTVSPost2010PropOp38
 70
     1
102
RTVSPost2010Prop39
140
1.0
102
RTVSPost2010PropOp39
 70
     1
102
RTVSPost2010Prop40
 90
        0
102
RTVSPost2010PropOp40
 70
     1
102
RTVSPost2010Prop41ColorIndex
 90
       18
102
RTVSPost2010Prop41ColorRGB
 90
        0
102
RTVSPost2010PropOp41
 70
     1
102
RTVSPost2010Prop42
 90
       50
102
RTVSPost2010PropOp42
 70
     1
102
RTVSPost2010Prop43
 90
        3
102
RTVSPost2010PropOp43
 70
     1
102
RTVSPost2010Prop44ColorIndex
 90
        5
102
RTVSPost2010Prop44ColorRGB
 90
      255
102
RTVSPost2010PropOp44
 70
     1
102
RTVSPost2010Prop45
280
     0
102
RTVSPost2010PropOp45
 70
     1
102
RTVSPost2010Prop46
 90
       50
102
RTVSPost2010PropOp46
 70
     1
102
RTVSPost2010Prop47
 90
       50
102
RTVSPost2010PropOp47
 70
     1
102
RTVSPost2010Prop48
 90
       50
102
RTVSPost2010PropOp48
 70
     1
102
RTVSPost2010Prop49
280
     0
102
RTVSPost2010PropOp49
 70
     1
102
RTVSPost2010Prop50
 90
       50
102
RTVSPost2010PropOp50
 70
     1
102
RTVSPost2010Prop51ColorIndex
 90
      256
102
RTVSPost2010Prop51ColorRGB
 90
-16777216
102
RTVSPost2010PropOp51
 70
     0
102
RTVSPost2010Prop52
140
1.0
102
RTVSPost2010PropOp52
 70
     0
102
RTVSPost2010Prop53
 90
        2
102
RTVSPost2010PropOp53
 70
     1
102
RTVSPost2010Prop54
  1
strokes_ogs.tif
102
RTVSPost2010PropOp54
 70
     1
102
RTVSPost2010Prop55
280
     0
102
RTVSPost2010PropOp55
 70
     1
102
RTVSPost2010Prop56
140
1.0
102
RTVSPost2010PropOp56
 70
     1
102
RTVSPost2010Prop57
140
1.0
102
RTVSPost2010PropOp57
 70
     1
  0
XRECORD
  5
C59
102
{ACAD_REACTORS
330
C58
102
}
330
C58
100
AcDbXrecord
280
     1
102
RTVSPropertyOp0
 70
     1
102
RTVSPropertyOp1
 70
     1
102
RTVSPropertyOp2
 70
     1
102
RTVSPropertyOp3
 70
     1
102
RTVSPropertyOp4
 70
     1
102
RTVSPropertyOp5
 70
     1
102
RTVSPropertyOp6
 70
     1
102
RTVSPropertyOp7
 70
     1
102
RTVSPropertyOp8
 70
     1
102
RTVSPropertyOp9
 70
     1
102
RTVSPropertyOp10
 70
     1
102
RTVSPropertyOp11
 70
     1
102
RTVSPropertyOp12
 70
     1
102
RTVSPropertyOp13
 70
     1
102
RTVSPropertyOp14
 70
     1
102
RTVSPropertyOp15
 70
     1
102
RTVSPropertyOp16
 70
     1
102
RTVSPropertyOp17
 70
     1
102
RTVSPropertyOp18
 70
     1
102
RTVSPropertyOp19
 70
     1
102
RTVSPropertyOp20
 70
     1
102
RTVSPropertyOp21
 70
     1
102
RTVSPropertyOp22
 70
     1
102
RTVSPropertyOp23
 70
     1
102
RTVSPropertyOp24
 70
     1
102
RTVSPropertyOp25
 70
     1
102
RTVSPropertyOp26
 70
     1
102
RTVSPropertyOp27
 70
     1
102
RTVSPropertyOp28
 70
     1
102
RTVSPropertyOp29
 70
     1
102
RTVSPropertyOp30
 70
     1
102
RTVSPropertyOp31
 70
     1
102
RTVSPropertyOp32
 70
     1
102
RTVSPropertyOp33
 70
     1
102
RTVSPropertyOp34
 70
     1
102
RTVSPropertyOp35
 70
     1
102
RTVSPropertyOp36
 70
     1
102
RTVSPropertyOp37
 70
     1
102
RTVSPropertyOp38
 70
     1
102
RTVSPropertyOp39
 70
     1
102
RTVSPropertyOp40
 70
     1
102
RTVSPropertyOp41
 70
     1
102
RTVSPropertyOp42
 70
     1
102
RTVSPropertyOp43
 70
     1
102
RTVSPropertyOp44
 70
     1
102
RTVSPropertyOp45
 70
     1
102
RTVSPropertyOp46
 70
     1
102
RTVSPropertyOp47
 70
     1
102
RTVSPropertyOp48
 70
     1
102
RTVSPropertyOp49
 70
     1
102
RTVSPropertyOp50
 70
     1
102
RTVSPropertyOp51
 70
     0
102
RTVSPropertyOp52
 70
     0
102
RTVSPropertyOp53
 70
     1
102
RTVSPropertyOp54
 70
     1
102
RTVSPropertyOp55
 70
     1
102
RTVSPropertyOp56
 70
     1
102
RTVSPropertyOp57
 70
     1
102
RTVSPost2010Prop28
280
     0
102
RTVSPost2010PropOp28
 70
     1
102
RTVSPost2010Prop29
280
     1
102
RTVSPost2010PropOp29
 70
     1
102
RTVSPost2010Prop30
280
     1
102
RTVSPost2010PropOp30
 70
     1
102
RTVSPost2010Prop31
280
     0
102
RTVSPost2010PropOp31
 70
     1
102
RTVSPost2010Prop32
280
     0
102
RTVSPost2010PropOp32
 70
     1
102
RTVSPost2010Prop33
280
     0
102
RTVSPost2010PropOp33
 70
     1
102
RTVSPost2010Prop34
280
     0
102
RTVSPost2010PropOp34
 70
     1
102
RTVSPost2010Prop35
280
     0
102
RTVSPost2010PropOp35
 70
     1
102
RTVSPost2010Prop36
280
     0
102
RTVSPost2010PropOp36
 70
     1
102
RTVSPost2010Prop37
 90
       50
102
RTVSPost2010PropOp37
 70
     1
102
RTVSPost2010Prop38
140
0.0
102
RTVSPost2010PropOp38
 70
     1
102
RTVSPost2010Prop39
140
1.0
102
RTVSPost2010PropOp39
 70
     1
102
RTVSPost2010Prop40
 90
        0
102
RTVSPost2010PropOp40
 70
     1
102
RTVSPost2010Prop41ColorIndex
 90
       18
102
RTVSPost2010Prop41ColorRGB
 90
        0
102
RTVSPost2010PropOp41
 70
     1
102
RTVSPost2010Prop42
 90
       50
102
RTVSPost2010PropOp42
 70
     1
102
RTVSPost2010Prop43
 90
        3
102
RTVSPost2010PropOp43
 70
     1
102
RTVSPost2010Prop44ColorIndex
 90
        5
102
RTVSPost2010Prop44ColorRGB
 90
      255
102
RTVSPost2010PropOp44
 70
     1
102
RTVSPost2010Prop45
280
     0
102
RTVSPost2010PropOp45
 70
     1
102
RTVSPost2010Prop46
 90
       50
102
RTVSPost2010PropOp46
 70
     1
102
RTVSPost2010Prop47
 90
       50
102
RTVSPost2010PropOp47
 70
     1
102
RTVSPost2010Prop48
 90
       50
102
RTVSPost2010PropOp48
 70
     1
102
RTVSPost2010Prop49
280
     0
102
RTVSPost2010PropOp49
 70
     1
102
RTVSPost2010Prop50
 90
       50
102
RTVSPost2010PropOp50
 70
     1
102
RTVSPost2010Prop51ColorIndex
 90
      256
102
RTVSPost2010Prop51ColorRGB
 90
-16777216
102
RTVSPost2010PropOp51
 70
     0
102
RTVSPost2010Prop52
140
1.0
102
RTVSPost2010PropOp52
 70
     0
102
RTVSPost2010Prop53
 90
        2
102
RTVSPost2010PropOp53
 70
     1
102
RTVSPost2010Prop54
  1
strokes_ogs.tif
102
RTVSPost2010PropOp54
 70
     1
102
RTVSPost2010Prop55
280
     0
102
RTVSPost2010PropOp55
 70
     1
102
RTVSPost2010Prop56
140
1.0
102
RTVSPost2010PropOp56
 70
     1
102
RTVSPost2010Prop57
140
1.0
102
RTVSPost2010PropOp57
 70
     1
  0
XRECORD
  5
C53
102
{ACAD_REACTORS
330
C52
102
}
330
C52
100
AcDbXrecord
280
     1
102
RTVSPropertyOp0
 70
     1
102
RTVSPropertyOp1
 70
     1
102
RTVSPropertyOp2
 70
     1
102
RTVSPropertyOp3
 70
     1
102
RTVSPropertyOp4
 70
     1
102
RTVSPropertyOp5
 70
     1
102
RTVSPropertyOp6
 70
     1
102
RTVSPropertyOp7
 70
     1
102
RTVSPropertyOp8
 70
     1
102
RTVSPropertyOp9
 70
     1
102
RTVSPropertyOp10
 70
     1
102
RTVSPropertyOp11
 70
     1
102
RTVSPropertyOp12
 70
     1
102
RTVSPropertyOp13
 70
     1
102
RTVSPropertyOp14
 70
     1
102
RTVSPropertyOp15
 70
     1
102
RTVSPropertyOp16
 70
     1
102
RTVSPropertyOp17
 70
     1
102
RTVSPropertyOp18
 70
     1
102
RTVSPropertyOp19
 70
     1
102
RTVSPropertyOp20
 70
     1
102
RTVSPropertyOp21
 70
     1
102
RTVSPropertyOp22
 70
     1
102
RTVSPropertyOp23
 70
     1
102
RTVSPropertyOp24
 70
     1
102
RTVSPropertyOp25
 70
     1
102
RTVSPropertyOp26
 70
     1
102
RTVSPropertyOp27
 70
     1
102
RTVSPropertyOp28
 70
     1
102
RTVSPropertyOp29
 70
     1
102
RTVSPropertyOp30
 70
     1
102
RTVSPropertyOp31
 70
     1
102
RTVSPropertyOp32
 70
     1
102
RTVSPropertyOp33
 70
     1
102
RTVSPropertyOp34
 70
     1
102
RTVSPropertyOp35
 70
     1
102
RTVSPropertyOp36
 70
     1
102
RTVSPropertyOp37
 70
     1
102
RTVSPropertyOp38
 70
     1
102
RTVSPropertyOp39
 70
     1
102
RTVSPropertyOp40
 70
     1
102
RTVSPropertyOp41
 70
     1
102
RTVSPropertyOp42
 70
     1
102
RTVSPropertyOp43
 70
     1
102
RTVSPropertyOp44
 70
     1
102
RTVSPropertyOp45
 70
     1
102
RTVSPropertyOp46
 70
     1
102
RTVSPropertyOp47
 70
     1
102
RTVSPropertyOp48
 70
     1
102
RTVSPropertyOp49
 70
     1
102
RTVSPropertyOp50
 70
     1
102
RTVSPropertyOp51
 70
     0
102
RTVSPropertyOp52
 70
     0
102
RTVSPropertyOp53
 70
     1
102
RTVSPropertyOp54
 70
     1
102
RTVSPropertyOp55
 70
     1
102
RTVSPropertyOp56
 70
     1
102
RTVSPropertyOp57
 70
     1
102
RTVSPost2010Prop28
280
     0
102
RTVSPost2010PropOp28
 70
     1
102
RTVSPost2010Prop29
280
     1
102
RTVSPost2010PropOp29
 70
     1
102
RTVSPost2010Prop30
280
     1
102
RTVSPost2010PropOp30
 70
     1
102
RTVSPost2010Prop31
280
     0
102
RTVSPost2010PropOp31
 70
     1
102
RTVSPost2010Prop32
280
     0
102
RTVSPost2010PropOp32
 70
     1
102
RTVSPost2010Prop33
280
     0
102
RTVSPost2010PropOp33
 70
     1
102
RTVSPost2010Prop34
280
     0
102
RTVSPost2010PropOp34
 70
     1
102
RTVSPost2010Prop35
280
     0
102
RTVSPost2010PropOp35
 70
     1
102
RTVSPost2010Prop36
280
     0
102
RTVSPost2010PropOp36
 70
     1
102
RTVSPost2010Prop37
 90
       50
102
RTVSPost2010PropOp37
 70
     1
102
RTVSPost2010Prop38
140
0.0
102
RTVSPost2010PropOp38
 70
     1
102
RTVSPost2010Prop39
140
1.0
102
RTVSPost2010PropOp39
 70
     1
102
RTVSPost2010Prop40
 90
        0
102
RTVSPost2010PropOp40
 70
     1
102
RTVSPost2010Prop41ColorIndex
 90
       18
102
RTVSPost2010Prop41ColorRGB
 90
        0
102
RTVSPost2010PropOp41
 70
     1
102
RTVSPost2010Prop42
 90
       50
102
RTVSPost2010PropOp42
 70
     1
102
RTVSPost2010Prop43
 90
        3
102
RTVSPost2010PropOp43
 70
     1
102
RTVSPost2010Prop44ColorIndex
 90
        5
102
RTVSPost2010Prop44ColorRGB
 90
      255
102
RTVSPost2010PropOp44
 70
     1
102
RTVSPost2010Prop45
280
     0
102
RTVSPost2010PropOp45
 70
     1
102
RTVSPost2010Prop46
 90
       50
102
RTVSPost2010PropOp46
 70
     1
102
RTVSPost2010Prop47
 90
       50
102
RTVSPost2010PropOp47
 70
     1
102
RTVSPost2010Prop48
 90
       50
102
RTVSPost2010PropOp48
 70
     1
102
RTVSPost2010Prop49
280
     0
102
RTVSPost2010PropOp49
 70
     1
102
RTVSPost2010Prop50
 90
       50
102
RTVSPost2010PropOp50
 70
     1
102
RTVSPost2010Prop51ColorIndex
 90
      256
102
RTVSPost2010Prop51ColorRGB
 90
-16777216
102
RTVSPost2010PropOp51
 70
     0
102
RTVSPost2010Prop52
140
1.0
102
RTVSPost2010PropOp52
 70
     0
102
RTVSPost2010Prop53
 90
        2
102
RTVSPost2010PropOp53
 70
     1
102
RTVSPost2010Prop54
  1
strokes_ogs.tif
102
RTVSPost2010PropOp54
 70
     1
102
RTVSPost2010Prop55
280
     0
102
RTVSPost2010PropOp55
 70
     1
102
RTVSPost2010Prop56
140
1.0
102
RTVSPost2010PropOp56
 70
     1
102
RTVSPost2010Prop57
140
1.0
102
RTVSPost2010PropOp57
 70
     1
  0
XRECORD
  5
C55
102
{ACAD_REACTORS
330
C54
102
}
330
C54
100
AcDbXrecord
280
     1
102
RTVSPropertyOp0
 70
     1
102
RTVSPropertyOp1
 70
     1
102
RTVSPropertyOp2
 70
     1
102
RTVSPropertyOp3
 70
     1
102
RTVSPropertyOp4
 70
     1
102
RTVSPropertyOp5
 70
     1
102
RTVSPropertyOp6
 70
     1
102
RTVSPropertyOp7
 70
     1
102
RTVSPropertyOp8
 70
     1
102
RTVSPropertyOp9
 70
     1
102
RTVSPropertyOp10
 70
     1
102
RTVSPropertyOp11
 70
     1
102
RTVSPropertyOp12
 70
     1
102
RTVSPropertyOp13
 70
     1
102
RTVSPropertyOp14
 70
     1
102
RTVSPropertyOp15
 70
     1
102
RTVSPropertyOp16
 70
     1
102
RTVSPropertyOp17
 70
     1
102
RTVSPropertyOp18
 70
     1
102
RTVSPropertyOp19
 70
     1
102
RTVSPropertyOp20
 70
     1
102
RTVSPropertyOp21
 70
     1
102
RTVSPropertyOp22
 70
     1
102
RTVSPropertyOp23
 70
     1
102
RTVSPropertyOp24
 70
     1
102
RTVSPropertyOp25
 70
     1
102
RTVSPropertyOp26
 70
     1
102
RTVSPropertyOp27
 70
     1
102
RTVSPropertyOp28
 70
     1
102
RTVSPropertyOp29
 70
     1
102
RTVSPropertyOp30
 70
     1
102
RTVSPropertyOp31
 70
     1
102
RTVSPropertyOp32
 70
     1
102
RTVSPropertyOp33
 70
     1
102
RTVSPropertyOp34
 70
     1
102
RTVSPropertyOp35
 70
     1
102
RTVSPropertyOp36
 70
     1
102
RTVSPropertyOp37
 70
     1
102
RTVSPropertyOp38
 70
     1
102
RTVSPropertyOp39
 70
     1
102
RTVSPropertyOp40
 70
     1
102
RTVSPropertyOp41
 70
     1
102
RTVSPropertyOp42
 70
     1
102
RTVSPropertyOp43
 70
     1
102
RTVSPropertyOp44
 70
     1
102
RTVSPropertyOp45
 70
     1
102
RTVSPropertyOp46
 70
     1
102
RTVSPropertyOp47
 70
     1
102
RTVSPropertyOp48
 70
     1
102
RTVSPropertyOp49
 70
     1
102
RTVSPropertyOp50
 70
     1
102
RTVSPropertyOp51
 70
     0
102
RTVSPropertyOp52
 70
     0
102
RTVSPropertyOp53
 70
     1
102
RTVSPropertyOp54
 70
     1
102
RTVSPropertyOp55
 70
     1
102
RTVSPropertyOp56
 70
     1
102
RTVSPropertyOp57
 70
     1
102
RTVSPost2010Prop28
280
     0
102
RTVSPost2010PropOp28
 70
     1
102
RTVSPost2010Prop29
280
     1
102
RTVSPost2010PropOp29
 70
     1
102
RTVSPost2010Prop30
280
     1
102
RTVSPost2010PropOp30
 70
     1
102
RTVSPost2010Prop31
280
     0
102
RTVSPost2010PropOp31
 70
     1
102
RTVSPost2010Prop32
280
     0
102
RTVSPost2010PropOp32
 70
     1
102
RTVSPost2010Prop33
280
     0
102
RTVSPost2010PropOp33
 70
     1
102
RTVSPost2010Prop34
280
     0
102
RTVSPost2010PropOp34
 70
     1
102
RTVSPost2010Prop35
280
     0
102
RTVSPost2010PropOp35
 70
     1
102
RTVSPost2010Prop36
280
     0
102
RTVSPost2010PropOp36
 70
     1
102
RTVSPost2010Prop37
 90
       50
102
RTVSPost2010PropOp37
 70
     1
102
RTVSPost2010Prop38
140
0.0
102
RTVSPost2010PropOp38
 70
     1
102
RTVSPost2010Prop39
140
1.0
102
RTVSPost2010PropOp39
 70
     1
102
RTVSPost2010Prop40
 90
        0
102
RTVSPost2010PropOp40
 70
     1
102
RTVSPost2010Prop41ColorIndex
 90
       18
102
RTVSPost2010Prop41ColorRGB
 90
        0
102
RTVSPost2010PropOp41
 70
     1
102
RTVSPost2010Prop42
 90
       50
102
RTVSPost2010PropOp42
 70
     1
102
RTVSPost2010Prop43
 90
        3
102
RTVSPost2010PropOp43
 70
     1
102
RTVSPost2010Prop44ColorIndex
 90
        5
102
RTVSPost2010Prop44ColorRGB
 90
      255
102
RTVSPost2010PropOp44
 70
     1
102
RTVSPost2010Prop45
280
     0
102
RTVSPost2010PropOp45
 70
     1
102
RTVSPost2010Prop46
 90
       50
102
RTVSPost2010PropOp46
 70
     1
102
RTVSPost2010Prop47
 90
       50
102
RTVSPost2010PropOp47
 70
     1
102
RTVSPost2010Prop48
 90
       50
102
RTVSPost2010PropOp48
 70
     1
102
RTVSPost2010Prop49
280
     0
102
RTVSPost2010PropOp49
 70
     1
102
RTVSPost2010Prop50
 90
       50
102
RTVSPost2010PropOp50
 70
     1
102
RTVSPost2010Prop51ColorIndex
 90
      256
102
RTVSPost2010Prop51ColorRGB
 90
-16777216
102
RTVSPost2010PropOp51
 70
     0
102
RTVSPost2010Prop52
140
1.0
102
RTVSPost2010PropOp52
 70
     0
102
RTVSPost2010Prop53
 90
        2
102
RTVSPost2010PropOp53
 70
     1
102
RTVSPost2010Prop54
  1
strokes_ogs.tif
102
RTVSPost2010PropOp54
 70
     1
102
RTVSPost2010Prop55
280
     0
102
RTVSPost2010PropOp55
 70
     1
102
RTVSPost2010Prop56
140
1.0
102
RTVSPost2010PropOp56
 70
     1
102
RTVSPost2010Prop57
140
1.0
102
RTVSPost2010PropOp57
 70
     1
  0
XRECORD
  5
C45
102
{ACAD_REACTORS
330
C44
102
}
330
C44
100
AcDbXrecord
280
     1
102
RTVSPropertyOp0
 70
     1
102
RTVSPropertyOp1
 70
     1
102
RTVSPropertyOp2
 70
     1
102
RTVSPropertyOp3
 70
     1
102
RTVSPropertyOp4
 70
     1
102
RTVSPropertyOp5
 70
     1
102
RTVSPropertyOp6
 70
     1
102
RTVSPropertyOp7
 70
     1
102
RTVSPropertyOp8
 70
     1
102
RTVSPropertyOp9
 70
     1
102
RTVSPropertyOp10
 70
     1
102
RTVSPropertyOp11
 70
     1
102
RTVSPropertyOp12
 70
     1
102
RTVSPropertyOp13
 70
     1
102
RTVSPropertyOp14
 70
     1
102
RTVSPropertyOp15
 70
     1
102
RTVSPropertyOp16
 70
     1
102
RTVSPropertyOp17
 70
     1
102
RTVSPropertyOp18
 70
     1
102
RTVSPropertyOp19
 70
     1
102
RTVSPropertyOp20
 70
     1
102
RTVSPropertyOp21
 70
     1
102
RTVSPropertyOp22
 70
     1
102
RTVSPropertyOp23
 70
     1
102
RTVSPropertyOp24
 70
     1
102
RTVSPropertyOp25
 70
     1
102
RTVSPropertyOp26
 70
     1
102
RTVSPropertyOp27
 70
     1
102
RTVSPropertyOp28
 70
     1
102
RTVSPropertyOp29
 70
     1
102
RTVSPropertyOp30
 70
     1
102
RTVSPropertyOp31
 70
     1
102
RTVSPropertyOp32
 70
     1
102
RTVSPropertyOp33
 70
     1
102
RTVSPropertyOp34
 70
     1
102
RTVSPropertyOp35
 70
     1
102
RTVSPropertyOp36
 70
     1
102
RTVSPropertyOp37
 70
     1
102
RTVSPropertyOp38
 70
     1
102
RTVSPropertyOp39
 70
     1
102
RTVSPropertyOp40
 70
     1
102
RTVSPropertyOp41
 70
     1
102
RTVSPropertyOp42
 70
     1
102
RTVSPropertyOp43
 70
     1
102
RTVSPropertyOp44
 70
     1
102
RTVSPropertyOp45
 70
     1
102
RTVSPropertyOp46
 70
     1
102
RTVSPropertyOp47
 70
     1
102
RTVSPropertyOp48
 70
     1
102
RTVSPropertyOp49
 70
     1
102
RTVSPropertyOp50
 70
     1
102
RTVSPropertyOp51
 70
     0
102
RTVSPropertyOp52
 70
     0
102
RTVSPropertyOp53
 70
     1
102
RTVSPropertyOp54
 70
     1
102
RTVSPropertyOp55
 70
     1
102
RTVSPropertyOp56
 70
     1
102
RTVSPropertyOp57
 70
     1
102
RTVSPost2010Prop28
280
     0
102
RTVSPost2010PropOp28
 70
     1
102
RTVSPost2010Prop29
280
     1
102
RTVSPost2010PropOp29
 70
     1
102
RTVSPost2010Prop30
280
     1
102
RTVSPost2010PropOp30
 70
     1
102
RTVSPost2010Prop31
280
     0
102
RTVSPost2010PropOp31
 70
     1
102
RTVSPost2010Prop32
280
     0
102
RTVSPost2010PropOp32
 70
     1
102
RTVSPost2010Prop33
280
     0
102
RTVSPost2010PropOp33
 70
     1
102
RTVSPost2010Prop34
280
     0
102
RTVSPost2010PropOp34
 70
     1
102
RTVSPost2010Prop35
280
     0
102
RTVSPost2010PropOp35
 70
     1
102
RTVSPost2010Prop36
280
     0
102
RTVSPost2010PropOp36
 70
     1
102
RTVSPost2010Prop37
 90
       50
102
RTVSPost2010PropOp37
 70
     1
102
RTVSPost2010Prop38
140
0.0
102
RTVSPost2010PropOp38
 70
     1
102
RTVSPost2010Prop39
140
1.0
102
RTVSPost2010PropOp39
 70
     1
102
RTVSPost2010Prop40
 90
        0
102
RTVSPost2010PropOp40
 70
     1
102
RTVSPost2010Prop41ColorIndex
 90
       18
102
RTVSPost2010Prop41ColorRGB
 90
        0
102
RTVSPost2010PropOp41
 70
     1
102
RTVSPost2010Prop42
 90
       50
102
RTVSPost2010PropOp42
 70
     1
102
RTVSPost2010Prop43
 90
        3
102
RTVSPost2010PropOp43
 70
     1
102
RTVSPost2010Prop44ColorIndex
 90
        5
102
RTVSPost2010Prop44ColorRGB
 90
      255
102
RTVSPost2010PropOp44
 70
     1
102
RTVSPost2010Prop45
280
     0
102
RTVSPost2010PropOp45
 70
     1
102
RTVSPost2010Prop46
 90
       50
102
RTVSPost2010PropOp46
 70
     1
102
RTVSPost2010Prop47
 90
       50
102
RTVSPost2010PropOp47
 70
     1
102
RTVSPost2010Prop48
 90
       50
102
RTVSPost2010PropOp48
 70
     1
102
RTVSPost2010Prop49
280
     0
102
RTVSPost2010PropOp49
 70
     1
102
RTVSPost2010Prop50
 90
       50
102
RTVSPost2010PropOp50
 70
     1
102
RTVSPost2010Prop51ColorIndex
 90
      256
102
RTVSPost2010Prop51ColorRGB
 90
-16777216
102
RTVSPost2010PropOp51
 70
     0
102
RTVSPost2010Prop52
140
1.0
102
RTVSPost2010PropOp52
 70
     0
102
RTVSPost2010Prop53
 90
        2
102
RTVSPost2010PropOp53
 70
     1
102
RTVSPost2010Prop54
  1
strokes_ogs.tif
102
RTVSPost2010PropOp54
 70
     1
102
RTVSPost2010Prop55
280
     0
102
RTVSPost2010PropOp55
 70
     1
102
RTVSPost2010Prop56
140
1.0
102
RTVSPost2010PropOp56
 70
     1
102
RTVSPost2010Prop57
140
1.0
102
RTVSPost2010PropOp57
 70
     1
  0
XRECORD
  5
C37
102
{ACAD_REACTORS
330
C36
102
}
330
C36
100
AcDbXrecord
280
     1
102
RTVSPropertyOp0
 70
     1
102
RTVSPropertyOp1
 70
     1
102
RTVSPropertyOp2
 70
     1
102
RTVSPropertyOp3
 70
     1
102
RTVSPropertyOp4
 70
     1
102
RTVSPropertyOp5
 70
     1
102
RTVSPropertyOp6
 70
     1
102
RTVSPropertyOp7
 70
     1
102
RTVSPropertyOp8
 70
     1
102
RTVSPropertyOp9
 70
     1
102
RTVSPropertyOp10
 70
     1
102
RTVSPropertyOp11
 70
     1
102
RTVSPropertyOp12
 70
     1
102
RTVSPropertyOp13
 70
     1
102
RTVSPropertyOp14
 70
     1
102
RTVSPropertyOp15
 70
     1
102
RTVSPropertyOp16
 70
     1
102
RTVSPropertyOp17
 70
     1
102
RTVSPropertyOp18
 70
     1
102
RTVSPropertyOp19
 70
     1
102
RTVSPropertyOp20
 70
     1
102
RTVSPropertyOp21
 70
     1
102
RTVSPropertyOp22
 70
     1
102
RTVSPropertyOp23
 70
     1
102
RTVSPropertyOp24
 70
     1
102
RTVSPropertyOp25
 70
     1
102
RTVSPropertyOp26
 70
     1
102
RTVSPropertyOp27
 70
     1
102
RTVSPropertyOp28
 70
     1
102
RTVSPropertyOp29
 70
     1
102
RTVSPropertyOp30
 70
     1
102
RTVSPropertyOp31
 70
     1
102
RTVSPropertyOp32
 70
     1
102
RTVSPropertyOp33
 70
     1
102
RTVSPropertyOp34
 70
     1
102
RTVSPropertyOp35
 70
     1
102
RTVSPropertyOp36
 70
     1
102
RTVSPropertyOp37
 70
     1
102
RTVSPropertyOp38
 70
     1
102
RTVSPropertyOp39
 70
     1
102
RTVSPropertyOp40
 70
     1
102
RTVSPropertyOp41
 70
     1
102
RTVSPropertyOp42
 70
     1
102
RTVSPropertyOp43
 70
     1
102
RTVSPropertyOp44
 70
     1
102
RTVSPropertyOp45
 70
     1
102
RTVSPropertyOp46
 70
     1
102
RTVSPropertyOp47
 70
     1
102
RTVSPropertyOp48
 70
     1
102
RTVSPropertyOp49
 70
     1
102
RTVSPropertyOp50
 70
     1
102
RTVSPropertyOp51
 70
     0
102
RTVSPropertyOp52
 70
     0
102
RTVSPropertyOp53
 70
     1
102
RTVSPropertyOp54
 70
     1
102
RTVSPropertyOp55
 70
     1
102
RTVSPropertyOp56
 70
     1
102
RTVSPropertyOp57
 70
     1
102
RTVSPost2010Prop28
280
     0
102
RTVSPost2010PropOp28
 70
     1
102
RTVSPost2010Prop29
280
     1
102
RTVSPost2010PropOp29
 70
     1
102
RTVSPost2010Prop30
280
     1
102
RTVSPost2010PropOp30
 70
     1
102
RTVSPost2010Prop31
280
     0
102
RTVSPost2010PropOp31
 70
     1
102
RTVSPost2010Prop32
280
     0
102
RTVSPost2010PropOp32
 70
     1
102
RTVSPost2010Prop33
280
     0
102
RTVSPost2010PropOp33
 70
     1
102
RTVSPost2010Prop34
280
     0
102
RTVSPost2010PropOp34
 70
     1
102
RTVSPost2010Prop35
280
     0
102
RTVSPost2010PropOp35
 70
     1
102
RTVSPost2010Prop36
280
     0
102
RTVSPost2010PropOp36
 70
     1
102
RTVSPost2010Prop37
 90
       50
102
RTVSPost2010PropOp37
 70
     1
102
RTVSPost2010Prop38
140
0.0
102
RTVSPost2010PropOp38
 70
     1
102
RTVSPost2010Prop39
140
1.0
102
RTVSPost2010PropOp39
 70
     1
102
RTVSPost2010Prop40
 90
        0
102
RTVSPost2010PropOp40
 70
     1
102
RTVSPost2010Prop41ColorIndex
 90
       18
102
RTVSPost2010Prop41ColorRGB
 90
        0
102
RTVSPost2010PropOp41
 70
     1
102
RTVSPost2010Prop42
 90
       50
102
RTVSPost2010PropOp42
 70
     1
102
RTVSPost2010Prop43
 90
        3
102
RTVSPost2010PropOp43
 70
     1
102
RTVSPost2010Prop44ColorIndex
 90
        5
102
RTVSPost2010Prop44ColorRGB
 90
      255
102
RTVSPost2010PropOp44
 70
     1
102
RTVSPost2010Prop45
280
     0
102
RTVSPost2010PropOp45
 70
     1
102
RTVSPost2010Prop46
 90
       50
102
RTVSPost2010PropOp46
 70
     1
102
RTVSPost2010Prop47
 90
       50
102
RTVSPost2010PropOp47
 70
     1
102
RTVSPost2010Prop48
 90
       50
102
RTVSPost2010PropOp48
 70
     1
102
RTVSPost2010Prop49
280
     0
102
RTVSPost2010PropOp49
 70
     1
102
RTVSPost2010Prop50
 90
       50
102
RTVSPost2010PropOp50
 70
     1
102
RTVSPost2010Prop51ColorIndex
 90
      256
102
RTVSPost2010Prop51ColorRGB
 90
-16777216
102
RTVSPost2010PropOp51
 70
     0
102
RTVSPost2010Prop52
140
1.0
102
RTVSPost2010PropOp52
 70
     0
102
RTVSPost2010Prop53
 90
        2
102
RTVSPost2010PropOp53
 70
     1
102
RTVSPost2010Prop54
  1
strokes_ogs.tif
102
RTVSPost2010PropOp54
 70
     1
102
RTVSPost2010Prop55
280
     0
102
RTVSPost2010PropOp55
 70
     1
102
RTVSPost2010Prop56
140
1.0
102
RTVSPost2010PropOp56
 70
     1
102
RTVSPost2010Prop57
140
1.0
102
RTVSPost2010PropOp57
 70
     1
  0
XRECORD
  5
C57
102
{ACAD_REACTORS
330
C56
102
}
330
C56
100
AcDbXrecord
280
     1
102
RTVSPropertyOp0
 70
     1
102
RTVSPropertyOp1
 70
     1
102
RTVSPropertyOp2
 70
     1
102
RTVSPropertyOp3
 70
     1
102
RTVSPropertyOp4
 70
     1
102
RTVSPropertyOp5
 70
     1
102
RTVSPropertyOp6
 70
     1
102
RTVSPropertyOp7
 70
     1
102
RTVSPropertyOp8
 70
     1
102
RTVSPropertyOp9
 70
     1
102
RTVSPropertyOp10
 70
     1
102
RTVSPropertyOp11
 70
     1
102
RTVSPropertyOp12
 70
     1
102
RTVSPropertyOp13
 70
     1
102
RTVSPropertyOp14
 70
     1
102
RTVSPropertyOp15
 70
     1
102
RTVSPropertyOp16
 70
     1
102
RTVSPropertyOp17
 70
     1
102
RTVSPropertyOp18
 70
     1
102
RTVSPropertyOp19
 70
     1
102
RTVSPropertyOp20
 70
     1
102
RTVSPropertyOp21
 70
     1
102
RTVSPropertyOp22
 70
     1
102
RTVSPropertyOp23
 70
     1
102
RTVSPropertyOp24
 70
     1
102
RTVSPropertyOp25
 70
     1
102
RTVSPropertyOp26
 70
     1
102
RTVSPropertyOp27
 70
     1
102
RTVSPropertyOp28
 70
     1
102
RTVSPropertyOp29
 70
     1
102
RTVSPropertyOp30
 70
     1
102
RTVSPropertyOp31
 70
     1
102
RTVSPropertyOp32
 70
     1
102
RTVSPropertyOp33
 70
     1
102
RTVSPropertyOp34
 70
     1
102
RTVSPropertyOp35
 70
     1
102
RTVSPropertyOp36
 70
     1
102
RTVSPropertyOp37
 70
     1
102
RTVSPropertyOp38
 70
     1
102
RTVSPropertyOp39
 70
     1
102
RTVSPropertyOp40
 70
     1
102
RTVSPropertyOp41
 70
     1
102
RTVSPropertyOp42
 70
     1
102
RTVSPropertyOp43
 70
     1
102
RTVSPropertyOp44
 70
     1
102
RTVSPropertyOp45
 70
     1
102
RTVSPropertyOp46
 70
     1
102
RTVSPropertyOp47
 70
     1
102
RTVSPropertyOp48
 70
     1
102
RTVSPropertyOp49
 70
     1
102
RTVSPropertyOp50
 70
     1
102
RTVSPropertyOp51
 70
     0
102
RTVSPropertyOp52
 70
     0
102
RTVSPropertyOp53
 70
     1
102
RTVSPropertyOp54
 70
     1
102
RTVSPropertyOp55
 70
     1
102
RTVSPropertyOp56
 70
     1
102
RTVSPropertyOp57
 70
     1
102
RTVSPost2010Prop28
280
     0
102
RTVSPost2010PropOp28
 70
     1
102
RTVSPost2010Prop29
280
     1
102
RTVSPost2010PropOp29
 70
     1
102
RTVSPost2010Prop30
280
     1
102
RTVSPost2010PropOp30
 70
     1
102
RTVSPost2010Prop31
280
     0
102
RTVSPost2010PropOp31
 70
     1
102
RTVSPost2010Prop32
280
     0
102
RTVSPost2010PropOp32
 70
     1
102
RTVSPost2010Prop33
280
     0
102
RTVSPost2010PropOp33
 70
     1
102
RTVSPost2010Prop34
280
     0
102
RTVSPost2010PropOp34
 70
     1
102
RTVSPost2010Prop35
280
     0
102
RTVSPost2010PropOp35
 70
     1
102
RTVSPost2010Prop36
280
     0
102
RTVSPost2010PropOp36
 70
     1
102
RTVSPost2010Prop37
 90
       50
102
RTVSPost2010PropOp37
 70
     1
102
RTVSPost2010Prop38
140
0.0
102
RTVSPost2010PropOp38
 70
     1
102
RTVSPost2010Prop39
140
1.0
102
RTVSPost2010PropOp39
 70
     1
102
RTVSPost2010Prop40
 90
        0
102
RTVSPost2010PropOp40
 70
     1
102
RTVSPost2010Prop41ColorIndex
 90
       18
102
RTVSPost2010Prop41ColorRGB
 90
        0
102
RTVSPost2010PropOp41
 70
     1
102
RTVSPost2010Prop42
 90
       50
102
RTVSPost2010PropOp42
 70
     1
102
RTVSPost2010Prop43
 90
        3
102
RTVSPost2010PropOp43
 70
     1
102
RTVSPost2010Prop44ColorIndex
 90
        5
102
RTVSPost2010Prop44ColorRGB
 90
      255
102
RTVSPost2010PropOp44
 70
     1
102
RTVSPost2010Prop45
280
     0
102
RTVSPost2010PropOp45
 70
     1
102
RTVSPost2010Prop46
 90
       50
102
RTVSPost2010PropOp46
 70
     1
102
RTVSPost2010Prop47
 90
       50
102
RTVSPost2010PropOp47
 70
     1
102
RTVSPost2010Prop48
 90
       50
102
RTVSPost2010PropOp48
 70
     1
102
RTVSPost2010Prop49
280
     0
102
RTVSPost2010PropOp49
 70
     1
102
RTVSPost2010Prop50
 90
       50
102
RTVSPost2010PropOp50
 70
     1
102
RTVSPost2010Prop51ColorIndex
 90
      256
102
RTVSPost2010Prop51ColorRGB
 90
-16777216
102
RTVSPost2010PropOp51
 70
     0
102
RTVSPost2010Prop52
140
1.0
102
RTVSPost2010PropOp52
 70
     0
102
RTVSPost2010Prop53
 90
        2
102
RTVSPost2010PropOp53
 70
     1
102
RTVSPost2010Prop54
  1
strokes_ogs.tif
102
RTVSPost2010PropOp54
 70
     1
102
RTVSPost2010Prop55
280
     0
102
RTVSPost2010PropOp55
 70
     1
102
RTVSPost2010Prop56
140
1.0
102
RTVSPost2010PropOp56
 70
     1
102
RTVSPost2010Prop57
140
1.0
102
RTVSPost2010PropOp57
 70
     1
  0
ENDSEC
  0
EOF
