  0
SECTION
  2
HEADER
  9
$ACADVER
  1
AC1015
  9
$ACADMAINTVER
 70
     6
  9
$DWGCODEPAGE
  3
ANSI_932
  9
$INSBASE
 10
449.0547997188024
 20
203.9223971094546
 30
0.0
  9
$EXTMIN
 10
43.3966617695296
 20
8.677252647424297
 30
0.0
  9
$EXTMAX
 10
350.5419007006511
 20
340.3336449302071
 30
0.0
  9
$LIMMIN
 10
0.0
 20
0.0
  9
$LIMMAX
 10
816.5000000000001
 20
565.0
  9
$ORTHOMODE
 70
     0
  9
$REGENMODE
 70
     1
  9
$FILLMODE
 70
     1
  9
$QTEXTMODE
 70
     0
  9
$MIRRTEXT
 70
     1
  9
$LTSCALE
 40
20.0
  9
$ATTMODE
 70
     1
  9
$TEXTSIZE
 40
4.5
  9
$TRACEWID
 40
0.05
  9
$TEXTSTYLE
  7
KANJI
  9
$CLAYER
  8
2
  9
$CELTYPE
  6
BYLAYER
  9
$CECOLOR
 62
   256
  9
$CELTSCALE
 40
1.0
  9
$DISPSILH
 70
     0
  9
$DIMSCALE
 40
1.0
  9
$DIMASZ
 40
2.0
  9
$DIMEXO
 40
0.5
  9
$DIMDLI
 40
0.0
  9
$DIMRND
 40
0.0
  9
$DIMDLE
 40
0.0
  9
$DIMEXE
 40
1.0
  9
$DIMTP
 40
0.0
  9
$DIMTM
 40
0.0
  9
$DIMTXT
 40
3.0
  9
$DIMCEN
 40
0.09
  9
$DIMTSZ
 40
0.0
  9
$DIMTOL
 70
     0
  9
$DIMLIM
 70
     0
  9
$DIMTIH
 70
     0
  9
$DIMTOH
 70
     0
  9
$DIMSE1
 70
     0
  9
$DIMSE2
 70
     0
  9
$DIMTAD
 70
     0
  9
$DIMZIN
 70
     8
  9
$DIMBLK
  1

  9
$DIMASO
 70
     0
  9
$DIMSHO
 70
     0
  9
$DIMPOST
  1

  9
$DIMAPOST
  1

  9
$DIMALT
 70
     0
  9
$DIMALTD
 70
     2
  9
$DIMALTF
 40
25.4
  9
$DIMLFAC
 40
1.0
  9
$DIMTOFL
 70
     1
  9
$DIMTVP
 40
1.0
  9
$DIMTIX
 70
     1
  9
$DIMSOXD
 70
     1
  9
$DIMSAH
 70
     0
  9
$DIMBLK1
  1

  9
$DIMBLK2
  1

  9
$DIMSTYLE
  2
STANDARD
  9
$DIMCLRD
 70
   256
  9
$DIMCLRE
 70
   256
  9
$DIMCLRT
 70
     2
  9
$DIMTFAC
 40
1.0
  9
$DIMGAP
 40
0.09
  9
$DIMJUST
 70
     0
  9
$DIMSD1
 70
     0
  9
$DIMSD2
 70
     0
  9
$DIMTOLJ
 70
     1
  9
$DIMTZIN
 70
     0
  9
$DIMALTZ
 70
     0
  9
$DIMALTTZ
 70
     0
  9
$DIMUPT
 70
     0
  9
$DIMDEC
 70
     1
  9
$DIMTDEC
 70
     4
  9
$DIMALTU
 70
     2
  9
$DIMALTTD
 70
     2
  9
$DIMTXSTY
  7
STANDARD
  9
$DIMAUNIT
 70
     0
  9
$DIMADEC
 70
     0
  9
$DIMALTRND
 40
0.0
  9
$DIMAZIN
 70
     0
  9
$DIMDSEP
 70
    46
  9
$DIMATFIT
 70
     3
  9
$DIMFRAC
 70
     0
  9
$DIMLDRBLK
  1

  9
$DIMLUNIT
 70
     2
  9
$DIMLWD
 70
    -2
  9
$DIMLWE
 70
    -2
  9
$DIMTMOVE
 70
     0
  9
$LUNITS
 70
     2
  9
$LUPREC
 70
     3
  9
$SKETCHINC
 40
0.1
  9
$FILLETRAD
 40
1.0
  9
$AUNITS
 70
     0
  9
$AUPREC
 70
     3
  9
$MENU
  1
C:\R13\WIN\SUPPORT\ACADFULL
  9
$ELEVATION
 40
0.0
  9
$PELEVATION
 40
0.0
  9
$THICKNESS
 40
0.0
  9
$LIMCHECK
 70
     0
  9
$CHAMFERA
 40
0.0
  9
$CHAMFERB
 40
0.0
  9
$CHAMFERC
 40
0.0
  9
$CHAMFERD
 40
0.0
  9
$SKPOLY
 70
     0
  9
$TDCREATE
 40
2457554.418412743
  9
$TDUCREATE
 40
2457554.043412743
  9
$TDUPDATE
 40
2457870.589821076
  9
$TDUUPDATE
 40
2457870.214821076
  9
$TDINDWG
 40
0.0604625463
  9
$TDUSRTIMER
 40
0.0604621528
  9
$USRTIMER
 70
     1
  9
$ANGBASE
 50
0.0
  9
$ANGDIR
 70
     0
  9
$PDMODE
 70
     0
  9
$PDSIZE
 40
0.0
  9
$PLINEWID
 40
0.0
  9
$SPLFRAME
 70
     0
  9
$SPLINETYPE
 70
     6
  9
$SPLINESEGS
 70
     8
  9
$HANDSEED
  5
4AD
  9
$SURFTAB1
 70
     6
  9
$SURFTAB2
 70
     6
  9
$SURFTYPE
 70
     6
  9
$SURFU
 70
     6
  9
$SURFV
 70
     6
  9
$UCSBASE
  2

  9
$UCSNAME
  2

  9
$UCSORG
 10
0.0
 20
0.0
 30
0.0
  9
$UCSXDIR
 10
1.0
 20
0.0
 30
0.0
  9
$UCSYDIR
 10
0.0
 20
1.0
 30
0.0
  9
$UCSORTHOREF
  2

  9
$UCSORTHOVIEW
 70
     0
  9
$UCSORGTOP
 10
0.0
 20
0.0
 30
0.0
  9
$UCSORGBOTTOM
 10
0.0
 20
0.0
 30
0.0
  9
$UCSORGLEFT
 10
0.0
 20
0.0
 30
0.0
  9
$UCSORGRIGHT
 10
0.0
 20
0.0
 30
0.0
  9
$UCSORGFRONT
 10
0.0
 20
0.0
 30
0.0
  9
$UCSORGBACK
 10
0.0
 20
0.0
 30
0.0
  9
$PUCSBASE
  2

  9
$PUCSNAME
  2

  9
$PUCSORG
 10
0.0
 20
0.0
 30
0.0
  9
$PUCSXDIR
 10
1.0
 20
0.0
 30
0.0
  9
$PUCSYDIR
 10
0.0
 20
1.0
 30
0.0
  9
$PUCSORTHOREF
  2

  9
$PUCSORTHOVIEW
 70
     0
  9
$PUCSORGTOP
 10
0.0
 20
0.0
 30
0.0
  9
$PUCSORGBOTTOM
 10
0.0
 20
0.0
 30
0.0
  9
$PUCSORGLEFT
 10
0.0
 20
0.0
 30
0.0
  9
$PUCSORGRIGHT
 10
0.0
 20
0.0
 30
0.0
  9
$PUCSORGFRONT
 10
0.0
 20
0.0
 30
0.0
  9
$PUCSORGBACK
 10
0.0
 20
0.0
 30
0.0
  9
$USERI1
 70
     0
  9
$USERI2
 70
     0
  9
$USERI3
 70
     0
  9
$USERI4
 70
     0
  9
$USERI5
 70
     0
  9
$USERR1
 40
0.0
  9
$USERR2
 40
0.0
  9
$USERR3
 40
0.0
  9
$USERR4
 40
2448925.372986111
  9
$USERR5
 40
0.04166667
  9
$WORLDVIEW
 70
     1
  9
$SHADEDGE
 70
     3
  9
$SHADEDIF
 70
    70
  9
$TILEMODE
 70
     1
  9
$MAXACTVP
 70
    16
  9
$PINSBASE
 10
0.0
 20
0.0
 30
0.0
  9
$PLIMCHECK
 70
     0
  9
$PEXTMIN
 10
1.000000000000000E+20
 20
1.000000000000000E+20
 30
1.000000000000000E+20
  9
$PEXTMAX
 10
-1.000000000000000E+20
 20
-1.000000000000000E+20
 30
-1.000000000000000E+20
  9
$PLIMMIN
 10
0.0
 20
0.0
  9
$PLIMMAX
 10
12.0
 20
9.0
  9
$UNITMODE
 70
     0
  9
$VISRETAIN
 70
     0
  9
$PLINEGEN
 70
     0
  9
$PSLTSCALE
 70
     0
  9
$TREEDEPTH
 70
  3020
  9
$CMLSTYLE
  2
STANDARD
  9
$CMLJUST
 70
     0
  9
$CMLSCALE
 40
1.0
  9
$PROXYGRAPHICS
 70
     1
  9
$MEASUREMENT
 70
     0
  9
$CELWEIGHT
370
    -1
  9
$ENDCAPS
280
     0
  9
$JOINSTYLE
280
     0
  9
$LWDISPLAY
290
     0
  9
$INSUNITS
 70
     0
  9
$HYPERLINKBASE
  1

  9
$STYLESHEET
  1
monochrome.ctb
  9
$XEDIT
290
     1
  9
$CEPSNTYPE
380
     0
  9
$PSTYLEMODE
290
     1
  9
$FINGERPRINTGUID
  2
{B127B0BA-3E8F-44D0-9BFD-A370331F3D3D}
  9
$VERSIONGUID
  2
{9EB8252F-2AC4-44FD-9F30-C7AB12A752C2}
  9
$EXTNAMES
290
     1
  9
$PSVPSCALE
 40
0.0
  9
$OLESTARTUP
290
     0
  0
ENDSEC
  0
SECTION
  2
CLASSES
  0
CLASS
  1
ACDBDICTIONARYWDFLT
  2
AcDbDictionaryWithDefault
  3
ObjectDBX Classes
 90
        0
280
     0
281
     0
  0
CLASS
  1
MATERIAL
  2
AcDbMaterial
  3
ObjectDBX Classes
 90
     1153
280
     0
281
     0
  0
CLASS
  1
SORTENTSTABLE
  2
AcDbSortentsTable
  3
ObjectDBX Classes
 90
        0
280
     0
281
     0
  0
CLASS
  1
SCALE
  2
AcDbScale
  3
ObjectDBX Classes
 90
     1153
280
     0
281
     0
  0
CLASS
  1
DICTIONARYVAR
  2
AcDbDictionaryVar
  3
ObjectDBX Classes
 90
        0
280
     0
281
     0
  0
CLASS
  1
VISUALSTYLE
  2
AcDbVisualStyle
  3
ObjectDBX Classes
 90
     4095
280
     0
281
     0
  0
CLASS
  1
MLEADERSTYLE
  2
AcDbMLeaderStyle
  3
ACDB_MLEADERSTYLE_CLASS
 90
     4095
280
     0
281
     0
  0
CLASS
  1
TABLESTYLE
  2
AcDbTableStyle
  3
ObjectDBX Classes
 90
     4095
280
     0
281
     0
  0
CLASS
  1
ACDBPLACEHOLDER
  2
AcDbPlaceHolder
  3
ObjectDBX Classes
 90
        0
280
     0
281
     0
  0
CLASS
  1
LAYOUT
  2
AcDbLayout
  3
ObjectDBX Classes
 90
        0
280
     0
281
     0
  0
ENDSEC
  0
SECTION
  2
TABLES
  0
TABLE
  2
VPORT
  5
2C
102
{ACAD_XDICTIONARY
360
2D
102
}
330
0
100
AcDbSymbolTable
 70
     1
  0
VPORT
  5
32
330
2C
100
AcDbSymbolTableRecord
100
AcDbViewportTableRecord
  2
*ACTIVE
 70
     0
 10
0.0
 20
0.0
 11
1.0
 21
1.0
 12
319.9303235234255
 22
160.3830444080492
 13
0.0
 23
0.0
 14
1.0
 24
1.0
 15
50.0
 25
50.0
 16
0.0
 26
0.0
 36
1.0
 17
0.0
 27
0.0
 37
0.0
 40
390.2522039337169
 41
2.171641791044776
 42
50.0
 43
0.0
 44
0.0
 50
0.0
 51
0.0
 71
     0
 72
  5000
 73
     1
 74
     0
 75
     0
 76
     0
 77
     0
 78
     0
281
     0
 65
     1
110
0.0
120
0.0
130
0.0
111
1.0
121
0.0
131
0.0
112
0.0
122
1.0
132
0.0
 79
     0
146
0.0
1001
ACAD_NAV_VCDISPLAY
1070
     3
  0
ENDTAB
  0
TABLE
  2
LTYPE
  5
F
330
0
100
AcDbSymbolTable
 70
     3
  0
LTYPE
  5
10
330
F
100
AcDbSymbolTableRecord
100
AcDbLinetypeTableRecord
  2
BYBLOCK
 70
     0
  3

 72
    65
 73
     0
 40
0.0
  0
LTYPE
  5
11
330
F
100
AcDbSymbolTableRecord
100
AcDbLinetypeTableRecord
  2
BYLAYER
 70
     0
  3

 72
    65
 73
     0
 40
0.0
  0
LTYPE
  5
E
330
F
100
AcDbSymbolTableRecord
100
AcDbLinetypeTableRecord
  2
CONTINUOUS
 70
     0
  3
Solid line
 72
    65
 73
     0
 40
0.0
  0
LTYPE
  5
77
330
F
100
AcDbSymbolTableRecord
100
AcDbLinetypeTableRecord
  2
CENTER
 70
     0
  3
____ _ ____ _ ____ _ ____ _ ____ _ ____ _ ____
 72
    65
 73
     4
 40
2.0
 49
1.25
 74
     0
 49
-0.25
 74
     0
 49
0.25
 74
     0
 49
-0.25
 74
     0
  0
LTYPE
  5
439
330
F
100
AcDbSymbolTableRecord
100
AcDbLinetypeTableRecord
  2
DASHED
 70
     0
  3
__ __ __ __ __ __ __ __ __ __ __ __ __ __ __ __
 72
    65
 73
     2
 40
0.75
 49
0.5
 74
     0
 49
-0.25
 74
     0
  0
ENDTAB
  0
TABLE
  2
LAYER
  5
2
102
{ACAD_XDICTIONARY
360
3
102
}
330
0
100
AcDbSymbolTable
 70
     8
  0
LAYER
  5
1F
102
{ACAD_XDICTIONARY
360
20
102
}
330
2
100
AcDbSymbolTableRecord
100
AcDbLayerTableRecord
  2
0
 70
     0
 62
     7
  6
CONTINUOUS
370
    -3
390
7
  0
LAYER
  5
289
102
{ACAD_XDICTIONARY
360
28A
102
}
330
2
100
AcDbSymbolTableRecord
100
AcDbLayerTableRecord
  2
1
 70
     0
 62
     9
  6
CONTINUOUS
370
    -3
390
7
  0
LAYER
  5
1
102
{ACAD_XDICTIONARY
360
5
102
}
330
2
100
AcDbSymbolTableRecord
100
AcDbLayerTableRecord
  2
2
 70
     0
 62
     4
  6
CONTINUOUS
370
    -3
390
7
  0
LAYER
  5
79
102
{ACAD_XDICTIONARY
360
7A
102
}
330
2
100
AcDbSymbolTableRecord
100
AcDbLayerTableRecord
  2
4
 70
     0
 62
     3
  6
CONTINUOUS
370
    -3
390
7
  0
LAYER
  5
74
102
{ACAD_XDICTIONARY
360
75
102
}
330
2
100
AcDbSymbolTableRecord
100
AcDbLayerTableRecord
  2
L-CENTER
 70
     0
 62
     1
  6
CENTER
370
    -3
390
7
  0
LAYER
  5
257
330
2
100
AcDbSymbolTableRecord
100
AcDbLayerTableRecord
  2
DEFPOINTS
 70
     0
 62
     7
  6
CONTINUOUS
290
     0
370
    -3
390
7
  0
LAYER
  5
6A
102
{ACAD_XDICTIONARY
360
6B
102
}
330
2
100
AcDbSymbolTableRecord
100
AcDbLayerTableRecord
  2
3
 70
     0
 62
     2
  6
CONTINUOUS
370
    -3
390
7
  0
LAYER
  5
283
330
2
100
AcDbSymbolTableRecord
100
AcDbLayerTableRecord
  2
5
 70
     0
 62
     6
  6
CONTINUOUS
370
    -3
390
7
  0
ENDTAB
  0
TABLE
  2
STYLE
  5
13
330
0
100
AcDbSymbolTable
 70
     2
  0
STYLE
  5
17
330
13
100
AcDbSymbolTableRecord
100
AcDbTextStyleTableRecord
  2
STANDARD
 70
     0
 40
0.0
 41
1.0
 50
0.0
 71
     0
 42
1.8
  3
TXT
  4

  0
STYLE
  5
12
330
13
100
AcDbSymbolTableRecord
100
AcDbTextStyleTableRecord
  2
KANJI
 70
     0
 40
0.0
 41
1.0
 50
0.0
 71
     0
 42
4.5
  3
TXT
  4
BIGFONT
  0
ENDTAB
  0
TABLE
  2
VIEW
  5
2A
330
0
100
AcDbSymbolTable
 70
     0
  0
ENDTAB
  0
TABLE
  2
UCS
  5
2B
330
0
100
AcDbSymbolTable
 70
     0
  0
ENDTAB
  0
TABLE
  2
APPID
  5
D
330
0
100
AcDbSymbolTable
 70
     4
  0
APPID
  5
C
330
D
100
AcDbSymbolTableRecord
100
AcDbRegAppTableRecord
  2
ACAD
 70
     0
  0
APPID
  5
25
330
D
100
AcDbSymbolTableRecord
100
AcDbRegAppTableRecord
  2
ACAD_PSEXT
 70
     0
  0
APPID
  5
33
330
D
100
AcDbSymbolTableRecord
100
AcDbRegAppTableRecord
  2
ACAD_NAV_VCDISPLAY
 70
     0
  0
APPID
  5
3D7
330
D
100
AcDbSymbolTableRecord
100
AcDbRegAppTableRecord
  2
ACAD_MLEADERVER
 70
     0
  0
ENDTAB
  0
TABLE
  2
DIMSTYLE
  5
16
330
0
100
AcDbSymbolTable
 70
     1
100
AcDbDimStyleTable
  0
DIMSTYLE
105
15
330
16
100
AcDbSymbolTableRecord
100
AcDbDimStyleTableRecord
  2
STANDARD
 70
     0
178
     0
340
17
  0
ENDTAB
  0
TABLE
  2
BLOCK_RECORD
  5
1A
330
0
100
AcDbSymbolTable
 70
     0
  0
BLOCK_RECORD
  5
1B
102
{ACAD_XDICTIONARY
360
1C
102
}
330
1A
100
AcDbSymbolTableRecord
100
AcDbBlockTableRecord
  2
*MODEL_SPACE
340
23
  0
BLOCK_RECORD
  5
26
330
1A
100
AcDbSymbolTableRecord
100
AcDbBlockTableRecord
  2
*PAPER_SPACE
340
29
  0
ENDTAB
  0
ENDSEC
  0
SECTION
  2
BLOCKS
  0
BLOCK
  5
1E
330
1B
100
AcDbEntity
  8
0
100
AcDbBlockBegin
  2
*MODEL_SPACE
 70
     0
 10
0.0
 20
0.0
 30
0.0
  3
*MODEL_SPACE
  1

  0
ENDBLK
  5
22
330
1B
100
AcDbEntity
  8
0
100
AcDbBlockEnd
  0
BLOCK
  5
27
330
26
100
AcDbEntity
 67
     1
  8
0
100
AcDbBlockBegin
  2
*PAPER_SPACE
 70
     0
 10
0.0
 20
0.0
 30
0.0
  3
*PAPER_SPACE
  1

  0
ENDBLK
  5
28
330
26
100
AcDbEntity
 67
     1
  8
0
100
AcDbBlockEnd
  0
ENDSEC
  0
SECTION
  2
ENTITIES
  0
TEXT
  5
69
330
1B
100
AcDbEntity
  8
3
100
AcDbText
 10
219.3783567187049
 20
53.76949227404666
 30
0.0
 40
3.123035995835638
  1
LC0-08
  7
KANJI
100
AcDbText
  0
LINE
  5
73
330
1B
100
AcDbEntity
  8
L-CENTER
 48
0.5
100
AcDbLine
 10
43.39666176952957
 20
113.4871211942983
 30
0.0
 11
209.9209537695297
 21
113.4871211942983
 31
0.0
  0
LINE
  5
78
330
1B
100
AcDbEntity
  8
4
100
AcDbLine
 10
273.6087673477322
 20
117.4871211942983
 30
0.0
 11
267.6087673477322
 21
117.4871211942983
 31
0.0
  0
CIRCLE
  5
7C
330
1B
100
AcDbEntity
  8
4
100
AcDbCircle
 10
270.6087673477322
 20
113.4871211942983
 30
0.0
 40
5.0
  0
CIRCLE
  5
7D
330
1B
100
AcDbEntity
  8
4
100
AcDbCircle
 10
270.6087673477322
 20
113.4871211942983
 30
0.0
 40
6.0
  0
LINE
  5
8F
330
1B
100
AcDbEntity
  8
4
100
AcDbLine
 10
207.1588077695296
 20
117.4871211942983
 30
0.0
 11
207.1588077695296
 21
108.4871211942983
 31
0.0
  0
LINE
  5
90
330
1B
100
AcDbEntity
  8
4
100
AcDbLine
 10
187.6588077695296
 20
118.4871211942983
 30
0.0
 11
185.6588077695296
 21
118.4871211942983
 31
0.0
  0
LINE
  5
91
330
1B
100
AcDbEntity
  8
4
100
AcDbLine
 10
207.6588077695296
 20
117.4871211942983
 30
0.0
 11
207.6588077695296
 21
108.9871211942983
 31
0.0
  0
LINE
  5
92
330
1B
100
AcDbEntity
  8
4
100
AcDbLine
 10
207.6588077695296
 20
117.4871211942983
 30
0.0
 11
188.6588077695296
 21
117.4871211942983
 31
0.0
  0
LINE
  5
93
330
1B
100
AcDbEntity
  8
4
100
AcDbLine
 10
185.6588077695296
 20
107.4871211942983
 30
0.0
 11
185.6588077695296
 21
119.4871211942983
 31
0.0
  0
LINE
  5
94
330
1B
100
AcDbEntity
  8
4
100
AcDbLine
 10
172.6588077695296
 20
119.4871211942983
 30
0.0
 11
185.6588077695296
 21
119.4871211942983
 31
0.0
  0
LINE
  5
95
330
1B
100
AcDbEntity
  8
4
100
AcDbLine
 10
172.6588077695296
 20
107.4871211942983
 30
0.0
 11
185.6588077695296
 21
107.4871211942983
 31
0.0
  0
LINE
  5
96
330
1B
100
AcDbEntity
  8
4
100
AcDbLine
 10
185.6588077695296
 20
108.4871211942983
 30
0.0
 11
207.1588077695296
 21
108.4871211942983
 31
0.0
  0
ARC
  5
97
330
1B
100
AcDbEntity
  8
4
100
AcDbCircle
 10
188.6588077695296
 20
118.4871211942983
 30
0.0
 40
1.0
100
AcDbArc
 50
180.0
 51
270.0
  0
LINE
  5
98
330
1B
100
AcDbEntity
  8
4
100
AcDbLine
 10
207.6588077695296
 20
108.9871211942983
 30
0.0
 11
207.1588077695296
 21
108.4871211942983
 31
0.0
  0
LINE
  5
99
330
1B
100
AcDbEntity
  8
4
100
AcDbLine
 10
143.7308897695295
 20
146.4871211942983
 30
0.0
 11
142.6591127695297
 21
150.4871211942983
 31
0.0
  0
LINE
  5
9A
330
1B
100
AcDbEntity
  8
4
100
AcDbLine
 10
166.6586247695295
 20
146.4871211942983
 30
0.0
 11
166.6586247695295
 21
141.9871211942983
 31
0.0
  0
LINE
  5
9B
330
1B
100
AcDbEntity
  8
4
100
AcDbLine
 10
138.6591127695297
 20
151.4871211942983
 30
0.0
 11
138.6591127695297
 21
150.4871211942983
 31
0.0
  0
LINE
  5
9C
330
1B
100
AcDbEntity
  8
4
100
AcDbLine
 10
114.6588077695296
 20
151.4871211942983
 30
0.0
 11
114.6588077695296
 21
150.4871211942983
 31
0.0
  0
LINE
  5
9D
330
1B
100
AcDbEntity
  8
4
100
AcDbLine
 10
114.6588077695296
 20
151.4871211942983
 30
0.0
 11
138.6591127695297
 21
151.4871211942983
 31
0.0
  0
LINE
  5
9E
330
1B
100
AcDbEntity
  8
4
100
AcDbLine
 10
86.65911276952966
 20
146.4871211942983
 30
0.0
 11
86.65911276952966
 21
141.9871211942983
 31
0.0
  0
LINE
  5
9F
330
1B
100
AcDbEntity
  8
4
100
AcDbLine
 10
86.65911276952966
 20
146.4871211942983
 30
0.0
 11
166.6586247695295
 21
146.4871211942983
 31
0.0
  0
LINE
  5
A0
330
1B
100
AcDbEntity
  8
4
100
AcDbLine
 10
109.5870147695296
 20
146.4871211942983
 30
0.0
 11
110.6588077695296
 21
150.4871211942983
 31
0.0
  0
LINE
  5
A1
330
1B
100
AcDbEntity
  8
4
100
AcDbLine
 10
95.15880776952963
 20
150.4871211942983
 30
0.0
 11
97.66007042800038
 21
150.4871211942983
 31
0.0
  0
ARC
  5
A2
330
1B
100
AcDbEntity
  8
4
100
AcDbCircle
 10
174.9690647695295
 20
77.69172619429835
 30
0.0
 40
1.270796
100
AcDbArc
 50
288.5746020000063
 51
38.74866300000071
  0
ARC
  5
A3
330
1B
100
AcDbEntity
  8
4
100
AcDbCircle
 10
175.7786197695295
 20
75.28251519429833
 30
0.0
 40
1.270794
100
AcDbArc
 50
108.5739459999977
 51
218.7486280000056
  0
ARC
  5
A4
330
1B
100
AcDbEntity
  8
4
100
AcDbCircle
 10
173.7964417695296
 20
73.69172619429835
 30
0.0
 40
1.270797
100
AcDbArc
 50
288.5746440000059
 51
38.74866299999847
  0
ARC
  5
A5
330
1B
100
AcDbEntity
  8
4
100
AcDbCircle
 10
174.6059967695296
 20
71.28251519429833
 30
0.0
 40
1.270794
100
AcDbArc
 50
108.5739459999977
 51
218.7486279999974
  0
ARC
  5
A6
330
1B
100
AcDbEntity
  8
4
100
AcDbCircle
 10
172.6238197695295
 20
69.69172619429835
 30
0.0
 40
1.270796
100
AcDbArc
 50
288.5746020000059
 51
38.74869099999859
  0
ARC
  5
A7
330
1B
100
AcDbEntity
  8
4
100
AcDbCircle
 10
172.6238197695295
 20
69.69172619429835
 30
0.0
 40
1.270796
100
AcDbArc
 50
288.5746020000059
 51
38.74869099999859
  0
ARC
  5
A8
330
1B
100
AcDbEntity
  8
4
100
AcDbCircle
 10
174.6059967695296
 20
71.28251519429833
 30
0.0
 40
1.270794
100
AcDbArc
 50
108.5739459999977
 51
218.7486279999974
  0
ARC
  5
A9
330
1B
100
AcDbEntity
  8
4
100
AcDbCircle
 10
173.7964417695296
 20
73.69172619429835
 30
0.0
 40
1.270797
100
AcDbArc
 50
288.5746440000059
 51
38.74866299999847
  0
ARC
  5
AA
330
1B
100
AcDbEntity
  8
4
100
AcDbCircle
 10
175.7786197695295
 20
75.28251519429833
 30
0.0
 40
1.270794
100
AcDbArc
 50
108.5739459999977
 51
218.7486280000056
  0
ARC
  5
AB
330
1B
100
AcDbEntity
  8
4
100
AcDbCircle
 10
174.9690647695295
 20
77.69172619429835
 30
0.0
 40
1.270796
100
AcDbArc
 50
288.5746020000063
 51
38.74866300000071
  0
LINE
  5
AC
330
1B
100
AcDbEntity
  8
4
100
AcDbLine
 10
189.6588077695296
 20
78.48712119429834
 30
0.0
 11
189.6588077695296
 21
68.48712119429834
 31
0.0
  0
LINE
  5
AD
330
1B
100
AcDbEntity
  8
4
100
AcDbLine
 10
180.6588077695296
 20
78.48712119429834
 30
0.0
 11
180.6588077695296
 21
68.48712119429834
 31
0.0
  0
LINE
  5
AE
330
1B
100
AcDbEntity
  8
4
100
AcDbLine
 10
126.6586247695295
 20
141.9871211942983
 30
0.0
 11
86.65862476952952
 21
141.9871211942983
 31
0.0
  0
LINE
  5
AF
330
1B
100
AcDbEntity
  8
4
100
AcDbLine
 10
85.65911276952966
 20
137.4871211942983
 30
0.0
 11
167.6588077695296
 21
137.4871211942983
 31
0.0
  0
LINE
  5
B0
330
1B
100
AcDbEntity
  8
4
100
AcDbLine
 10
85.65911276952966
 20
138.4871211942983
 30
0.0
 11
167.6588077695296
 21
138.4871211942983
 31
0.0
  0
LINE
  5
B1
330
1B
100
AcDbEntity
  8
4
100
AcDbLine
 10
123.6588077695296
 20
137.4871211942983
 30
0.0
 11
126.6591127695297
 21
137.4871211942983
 31
0.0
  0
LINE
  5
B2
330
1B
100
AcDbEntity
  8
4
100
AcDbLine
 10
166.6588077695296
 20
141.9871211942983
 30
0.0
 11
166.6588077695296
 21
138.4871211942983
 31
0.0
  0
LINE
  5
B3
330
1B
100
AcDbEntity
  8
4
100
AcDbLine
 10
86.65911276952966
 20
141.9871211942983
 30
0.0
 11
86.65911276952966
 21
138.4871211942983
 31
0.0
  0
LINE
  5
B4
330
1B
100
AcDbEntity
  8
4
100
AcDbLine
 10
80.65911276952966
 20
129.4871211942983
 30
0.0
 11
80.65911276952966
 21
97.48712119429834
 31
0.0
  0
LINE
  5
B5
330
1B
100
AcDbEntity
  8
4
100
AcDbLine
 10
81.65911276952966
 20
129.4871211942983
 30
0.0
 11
80.65911276952966
 21
129.4871211942983
 31
0.0
  0
LINE
  5
B6
330
1B
100
AcDbEntity
  8
4
100
AcDbLine
 10
81.65911276952966
 20
97.48712119429834
 30
0.0
 11
80.65911276952966
 21
97.48712119429834
 31
0.0
  0
LINE
  5
B7
330
1B
100
AcDbEntity
  8
4
100
AcDbLine
 10
171.6588077695296
 20
97.48712119429834
 30
0.0
 11
172.6588077695296
 21
97.48712119429834
 31
0.0
  0
LINE
  5
B8
330
1B
100
AcDbEntity
  8
4
100
AcDbLine
 10
171.6588077695296
 20
129.4871211942983
 30
0.0
 11
172.6588077695296
 21
129.4871211942983
 31
0.0
  0
LINE
  5
B9
330
1B
100
AcDbEntity
  8
4
100
AcDbLine
 10
172.6588077695296
 20
129.4871211942983
 30
0.0
 11
172.6588077695296
 21
97.48712119429834
 31
0.0
  0
LINE
  5
BA
330
1B
100
AcDbEntity
  8
4
100
AcDbLine
 10
86.65911276952966
 20
141.9871211942983
 30
0.0
 11
166.6588077695296
 21
141.9871211942983
 31
0.0
  0
LINE
  5
BB
330
1B
100
AcDbEntity
  8
4
100
AcDbLine
 10
167.6588077695296
 20
138.4871211942983
 30
0.0
 11
167.6588077695296
 21
137.4871211942983
 31
0.0
  0
LINE
  5
BC
330
1B
100
AcDbEntity
  8
4
100
AcDbLine
 10
85.65911276952966
 20
89.48712119429834
 30
0.0
 11
167.6588077695296
 21
89.48712119429834
 31
0.0
  0
LINE
  5
BD
330
1B
100
AcDbEntity
  8
4
100
AcDbLine
 10
167.6588077695296
 20
89.48712119429834
 30
0.0
 11
167.6588077695296
 21
81.48712119429834
 31
0.0
  0
LINE
  5
BE
330
1B
100
AcDbEntity
  8
4
100
AcDbLine
 10
85.65911276952966
 20
89.48712119429834
 30
0.0
 11
85.65911276952966
 21
81.48712119429834
 31
0.0
  0
LINE
  5
BF
330
1B
100
AcDbEntity
  8
L-CENTER
 48
0.5
100
AcDbLine
 10
68.15911276952966
 20
63.48712119429834
 30
0.0
 11
68.15911276952966
 21
83.48712119429834
 31
0.0
  0
LINE
  5
C0
330
1B
100
AcDbEntity
  8
L-CENTER
 48
0.5
100
AcDbLine
 10
185.1588077695296
 20
63.48712119429834
 30
0.0
 11
185.1588077695296
 21
83.48712119429834
 31
0.0
  0
ARC
  5
C1
330
1B
100
AcDbEntity
  8
4
100
AcDbCircle
 10
60.1591127695296
 20
77.48712119429834
 30
0.0
 40
1.0
100
AcDbArc
 50
90.0
 51
180.0009169997968
  0
LINE
  5
C2
330
1B
100
AcDbEntity
  8
4
100
AcDbLine
 10
59.1591127695296
 20
68.48712119429834
 30
0.0
 11
59.1591127695296
 21
77.48712119429834
 31
0.0
  0
LINE
  5
C3
330
1B
100
AcDbEntity
  8
4
100
AcDbLine
 10
93.65911276952966
 20
68.48712119429834
 30
0.0
 11
59.1591127695296
 21
68.48712119429834
 31
0.0
  0
LINE
  5
C4
330
1B
100
AcDbEntity
  8
4
100
AcDbLine
 10
81.65911276952966
 20
90.98712119429834
 30
0.0
 11
81.65911276952966
 21
135.9871211942983
 31
0.0
  0
ARC
  5
C5
330
1B
100
AcDbEntity
  8
4
100
AcDbCircle
 10
95.65911276952966
 20
71.48712119429834
 30
0.0
 40
2.0
100
AcDbArc
 50
90.0
 51
180.000458000027
  0
LINE
  5
C6
330
1B
100
AcDbEntity
  8
4
100
AcDbLine
 10
95.65911276952966
 20
73.48712119429834
 30
0.0
 11
157.6588077695296
 21
73.48712119429834
 31
0.0
  0
LINE
  5
C7
330
1B
100
AcDbEntity
  8
4
100
AcDbLine
 10
93.65911276952966
 20
71.48712119429834
 30
0.0
 11
93.65911276952966
 21
68.48712119429834
 31
0.0
  0
ARC
  5
C8
330
1B
100
AcDbEntity
  8
4
100
AcDbCircle
 10
82.65911276952966
 20
81.48712119429834
 30
0.0
 40
3.0
100
AcDbArc
 50
270.0008789999981
 51
0.0
  0
LINE
  5
C9
330
1B
100
AcDbEntity
  8
4
100
AcDbLine
 10
82.65911276952966
 20
78.48712119429834
 30
0.0
 11
60.1591127695296
 21
78.48712119429834
 31
0.0
  0
LINE
  5
CA
330
1B
100
AcDbEntity
  8
4
100
AcDbLine
 10
170.6588077695296
 20
78.48712119429834
 30
0.0
 11
193.1588077695296
 21
78.48712119429834
 31
0.0
  0
ARC
  5
CB
330
1B
100
AcDbEntity
  8
4
100
AcDbCircle
 10
170.6588077695296
 20
81.48712119429834
 30
0.0
 40
3.0
100
AcDbArc
 50
180.0005920001451
 51
270.0008789999981
  0
LINE
  5
CC
330
1B
100
AcDbEntity
  8
4
100
AcDbLine
 10
159.6588077695296
 20
71.48712119429834
 30
0.0
 11
159.6588077695296
 21
68.48712119429834
 31
0.0
  0
ARC
  5
CD
330
1B
100
AcDbEntity
  8
4
100
AcDbCircle
 10
157.6588077695296
 20
71.48712119429834
 30
0.0
 40
2.0
100
AcDbArc
 50
0.0
 51
90.0
  0
LINE
  5
CE
330
1B
100
AcDbEntity
  8
4
100
AcDbLine
 10
171.6588077695296
 20
90.98712119429834
 30
0.0
 11
171.6588077695296
 21
135.9871211942983
 31
0.0
  0
LINE
  5
CF
330
1B
100
AcDbEntity
  8
4
100
AcDbLine
 10
159.6588077695296
 20
68.48712119429834
 30
0.0
 11
194.1588077695296
 21
68.48712119429834
 31
0.0
  0
LINE
  5
D0
330
1B
100
AcDbEntity
  8
4
100
AcDbLine
 10
194.1588077695296
 20
68.48712119429834
 30
0.0
 11
194.1588077695296
 21
77.48712119429834
 31
0.0
  0
ARC
  5
D1
330
1B
100
AcDbEntity
  8
4
100
AcDbCircle
 10
193.1588077695296
 20
77.48712119429834
 30
0.0
 40
1.0
100
AcDbArc
 50
0.0
 51
90.0
  0
ARC
  5
D2
330
1B
100
AcDbEntity
  8
4
100
AcDbCircle
 10
320.6087673477322
 20
70.48712119429834
 30
0.0
 40
2.0
100
AcDbArc
 50
0.0
 51
90.0
  0
LINE
  5
D3
330
1B
100
AcDbEntity
  8
4
100
AcDbLine
 10
322.6087673477322
 20
70.48712119429834
 30
0.0
 11
322.6087673477322
 21
68.48712119429834
 31
0.0
  0
ARC
  5
D4
330
1B
100
AcDbEntity
  8
4
100
AcDbCircle
 10
294.6087673477322
 20
70.48712119429834
 30
0.0
 40
2.0
100
AcDbArc
 50
90.0
 51
180.0013179997758
  0
LINE
  5
D5
330
1B
100
AcDbEntity
  8
4
100
AcDbLine
 10
294.6087673477322
 20
72.48712119429834
 30
0.0
 11
320.6087673477322
 21
72.48712119429834
 31
0.0
  0
ARC
  5
D6
330
1B
100
AcDbEntity
  8
4
100
AcDbCircle
 10
273.6087673477322
 20
77.48712119429834
 30
0.0
 40
1.0
100
AcDbArc
 50
90.0
 51
180.0009169997968
  0
LINE
  5
D7
330
1B
100
AcDbEntity
  8
4
100
AcDbLine
 10
273.6087673477322
 20
78.48712119429834
 30
0.0
 11
307.6087673477322
 21
78.48712119429834
 31
0.0
  0
ARC
  5
D8
330
1B
100
AcDbEntity
  8
4
100
AcDbCircle
 10
291.6087673477322
 20
77.48712119429834
 30
0.0
 40
1.0
100
AcDbArc
 50
0.0
 51
90.0
  0
LINE
  5
D9
330
1B
100
AcDbEntity
  8
4
100
AcDbLine
 10
292.6087673477322
 20
77.48712119429834
 30
0.0
 11
292.6087673477322
 21
68.48712119429834
 31
0.0
  0
ARC
  5
DA
330
1B
100
AcDbEntity
  8
4
100
AcDbCircle
 10
344.6087673477322
 20
81.48712119429834
 30
0.0
 40
2.0
100
AcDbArc
 50
90.0
 51
180.0013179997758
  0
LINE
  5
DB
330
1B
100
AcDbEntity
  8
4
100
AcDbLine
 10
342.6087673477322
 20
81.48712119429834
 30
0.0
 11
342.6087673477322
 21
68.48712119429834
 31
0.0
  0
ARC
  5
DC
330
1B
100
AcDbEntity
  8
4
100
AcDbCircle
 10
345.6087673477322
 20
85.48712119429834
 30
0.0
 40
2.0
100
AcDbArc
 50
270.0
 51
0.0
  0
ARC
  5
DD
330
1B
100
AcDbEntity
  8
4
100
AcDbCircle
 10
348.1087673477322
 20
101.9871211942983
 30
0.0
 40
0.5
100
AcDbArc
 50
90.0
 51
180.0018329997257
  0
LINE
  5
DE
330
1B
100
AcDbEntity
  8
4
100
AcDbLine
 10
348.1087673477322
 20
102.4871211942983
 30
0.0
 11
348.6087673477322
 21
102.4871211942983
 31
0.0
  0
LINE
  5
DF
330
1B
100
AcDbEntity
  8
4
100
AcDbLine
 10
347.6087673477322
 20
101.9871211942983
 30
0.0
 11
347.6087673477322
 21
85.48712119429834
 31
0.0
  0
LINE
  5
E0
330
1B
100
AcDbEntity
  8
4
100
AcDbLine
 10
347.5655233477323
 20
138.4871211942983
 30
0.0
 11
347.5655233477323
 21
141.9871211942983
 31
0.0
  0
LINE
  5
E1
330
1B
100
AcDbEntity
  8
4
100
AcDbLine
 10
267.6085233477322
 20
141.9871211942983
 30
0.0
 11
347.5655233477323
 21
141.9871211942983
 31
0.0
  0
ARC
  5
E2
330
1B
100
AcDbEntity
  8
4
100
AcDbCircle
 10
48.60870634773221
 20
113.4871211942983
 30
0.0
 40
300.000029
100
AcDbArc
 50
0.0000169898810431
 51
4.780549000000044
  0
LINE
  5
E3
330
1B
100
AcDbEntity
  8
4
100
AcDbLine
 10
348.6087673477322
 20
113.4871211942983
 30
0.0
 11
348.6087673477322
 21
102.4871211942983
 31
0.0
  0
ARC
  5
E4
330
1B
100
AcDbEntity
  8
4
100
AcDbCircle
 10
249.0235623477321
 20
133.9046011942984
 30
0.0
 40
2.000044
100
AcDbArc
 50
98.38782399999455
 51
172.0725470000002
  0
ARC
  5
E5
330
1B
100
AcDbEntity
  8
4
100
AcDbCircle
 10
249.0238063477322
 20
93.06964019429833
 30
0.0
 40
2.00003
100
AcDbArc
 50
187.9291839999997
 51
261.6190869999961
  0
ARC
  5
E6
330
1B
100
AcDbEntity
  8
4
100
AcDbCircle
 10
395.6085233477322
 20
113.4871211942983
 30
0.0
 40
149.999999
100
AcDbArc
 50
172.071265
 51
187.9301999999999
  0
ARC
  5
E7
330
1B
100
AcDbEntity
  8
4
100
AcDbCircle
 10
266.6085233477322
 20
139.4871211942983
 30
0.0
 40
1.0
100
AcDbArc
 50
270.0
 51
0.0
  0
LINE
  5
E8
330
1B
100
AcDbEntity
  8
4
100
AcDbLine
 10
267.6085233477322
 20
139.4871211942983
 30
0.0
 11
267.6085233477322
 21
141.9871211942983
 31
0.0
  0
LINE
  5
E9
330
1B
100
AcDbEntity
  8
4
100
AcDbLine
 10
266.6085233477322
 20
138.4871211942983
 30
0.0
 11
266.6085233477322
 21
138.4871211942983
 31
0.0
  0
ARC
  5
EA
330
1B
100
AcDbEntity
  8
4
100
AcDbCircle
 10
265.6085233477322
 20
138.4043571942983
 30
0.0
 40
1.000001
100
AcDbArc
 50
271.9027370000001
 51
0.0
  0
LINE
  5
EB
330
1B
100
AcDbEntity
  8
4
100
AcDbLine
 10
266.6085233477322
 20
138.4043571942983
 30
0.0
 11
266.6085233477322
 21
138.4871211942983
 31
0.0
  0
ARC
  5
EC
330
1B
100
AcDbEntity
  8
4
100
AcDbCircle
 10
268.6087673477322
 20
85.50006019429836
 30
0.0
 40
4.000001
100
AcDbArc
 50
0.0
 51
89.25510600000058
  0
LINE
  5
ED
330
1B
100
AcDbEntity
  8
4
100
AcDbLine
 10
272.6087673477322
 20
85.50006019429836
 30
0.0
 11
272.6087673477322
 21
68.48712119429834
 31
0.0
  0
LINE
  5
EE
330
1B
100
AcDbEntity
  8
L-CENTER
 48
0.5
100
AcDbLine
 10
344.8732323477322
 20
94.48712119429834
 30
0.0
 11
349.6375603477322
 21
94.48712119429834
 31
0.0
  0
LINE
  5
EF
330
1B
100
AcDbEntity
  8
4
100
AcDbLine
 10
266.6085233477322
 20
138.4871211942983
 30
0.0
 11
347.5655233477323
 21
138.4871211942983
 31
0.0
  0
ARC
  5
F0
330
1B
100
AcDbEntity
  8
4
100
AcDbCircle
 10
270.6085233477322
 20
-12.51287880570166
 30
0.0
 40
150.000005
100
AcDbArc
 50
90.0
 51
98.38648099999999
  0
LINE
  5
F1
330
1B
100
AcDbEntity
  8
4
100
AcDbLine
 10
270.6085233477322
 20
137.4871211942983
 30
0.0
 11
347.6470973477321
 21
137.4873041942983
 31
0.0
  0
LINE
  5
F2
330
1B
100
AcDbEntity
  8
4
100
AcDbLine
 10
272.6087673477322
 20
68.48712119429834
 30
0.0
 11
292.6087673477322
 21
68.48712119429834
 31
0.0
  0
LINE
  5
F3
330
1B
100
AcDbEntity
  8
4
100
AcDbLine
 10
322.6087673477322
 20
68.48712119429834
 30
0.0
 11
342.6087673477322
 21
68.48712119429834
 31
0.0
  0
LINE
  5
F4
330
1B
100
AcDbEntity
  8
4
100
AcDbLine
 10
322.6087673477322
 20
77.48719719429832
 30
0.0
 11
322.6087673477322
 21
68.48719719429832
 31
0.0
  0
ARC
  5
F5
330
1B
100
AcDbEntity
  8
4
100
AcDbCircle
 10
323.6087673477322
 20
77.48719719429832
 30
0.0
 40
1.0
100
AcDbArc
 50
90.0
 51
180.000858999821
  0
LINE
  5
F6
330
1B
100
AcDbEntity
  8
4
100
AcDbLine
 10
341.6087673477322
 20
78.48728819429832
 30
0.0
 11
307.6087673477322
 21
78.48712119429834
 31
0.0
  0
ARC
  5
F7
330
1B
100
AcDbEntity
  8
4
100
AcDbCircle
 10
341.6087673477322
 20
77.48728819429832
 30
0.0
 40
1.0
100
AcDbArc
 50
0.0
 51
90.0
  0
LINE
  5
F8
330
1B
100
AcDbEntity
  8
4
100
AcDbLine
 10
345.6087673477322
 20
83.48712119429834
 30
0.0
 11
272.6087673477322
 21
83.48712119429834
 31
0.0
  0
ARC
  5
F9
330
1B
100
AcDbEntity
  8
4
100
AcDbCircle
 10
270.6085233477322
 20
239.4875781942983
 30
0.0
 40
150.000001
100
AcDbArc
 50
261.615216
 51
269.256365
  0
LINE
  5
FA
330
1B
100
AcDbEntity
  8
4
100
AcDbLine
 10
307.6085233477322
 20
141.9871211942983
 30
0.0
 11
267.6085233477322
 21
141.9871211942983
 31
0.0
  0
LINE
  5
FB
330
1B
100
AcDbEntity
  8
4
100
AcDbLine
 10
307.6085233477322
 20
141.9871211942983
 30
0.0
 11
347.6085233477322
 21
141.9871211942983
 31
0.0
  0
LINE
  5
FC
330
1B
100
AcDbEntity
  8
4
100
AcDbLine
 10
348.6087963477323
 20
99.37820319429832
 30
0.0
 11
348.6087963477323
 21
94.4870901942983
 31
0.0
  0
LINE
  5
FD
330
1B
100
AcDbEntity
  8
4
100
AcDbLine
 10
348.6087963477323
 20
99.37820319429832
 30
0.0
 11
347.6087673477322
 21
99.23757819429832
 31
0.0
  0
LINE
  5
FE
330
1B
100
AcDbEntity
  8
4
100
AcDbLine
 10
348.6087963477323
 20
89.59597719429834
 30
0.0
 11
347.6087673477322
 21
89.73660219429834
 31
0.0
  0
LINE
  5
FF
330
1B
100
AcDbEntity
  8
4
100
AcDbLine
 10
348.6087963477323
 20
89.59597719429834
 30
0.0
 11
348.6087963477323
 21
94.4870901942983
 31
0.0
  0
LINE
  5
100
330
1B
100
AcDbEntity
  8
L-CENTER
 48
0.5
100
AcDbLine
 10
270.6085178213115
 20
140.7042086670058
 30
0.0
 11
270.6087754463337
 21
86.2700337204482
 31
0.0
  0
LINE
  5
101
330
1B
100
AcDbEntity
  8
4
100
AcDbLine
 10
323.6090113477321
 20
150.4871211942983
 30
0.0
 11
307.6090113477321
 21
150.4871211942983
 31
0.0
  0
LINE
  5
102
330
1B
100
AcDbEntity
  8
4
100
AcDbLine
 10
324.6807893477321
 20
146.4871211942983
 30
0.0
 11
323.6090113477321
 21
150.4871211942983
 31
0.0
  0
LINE
  5
103
330
1B
100
AcDbEntity
  8
4
100
AcDbLine
 10
347.5655233477323
 20
146.4871211942983
 30
0.0
 11
267.6085233477322
 21
146.4869221942983
 31
0.0
  0
LINE
  5
104
330
1B
100
AcDbEntity
  8
4
100
AcDbLine
 10
347.5655233477323
 20
146.4871211942983
 30
0.0
 11
347.5655233477323
 21
141.9871211942983
 31
0.0
  0
LINE
  5
105
330
1B
100
AcDbEntity
  8
4
100
AcDbLine
 10
319.6090113477321
 20
151.4871211942983
 30
0.0
 11
319.6090113477321
 21
150.4871211942983
 31
0.0
  0
LINE
  5
106
330
1B
100
AcDbEntity
  8
4
100
AcDbLine
 10
295.6080353477323
 20
151.4870601942983
 30
0.0
 11
295.6080353477323
 21
150.4870601942983
 31
0.0
  0
LINE
  5
107
330
1B
100
AcDbEntity
  8
4
100
AcDbLine
 10
295.6080353477323
 20
151.4870601942983
 30
0.0
 11
319.6090113477321
 21
151.4871211942983
 31
0.0
  0
LINE
  5
108
330
1B
100
AcDbEntity
  8
4
100
AcDbLine
 10
267.6085233477322
 20
146.4869221942983
 30
0.0
 11
267.6085233477322
 21
141.9869221942983
 31
0.0
  0
LINE
  5
109
330
1B
100
AcDbEntity
  8
4
100
AcDbLine
 10
290.5362573477323
 20
146.4870291942983
 30
0.0
 11
291.6080353477323
 21
150.4870291942983
 31
0.0
  0
LINE
  5
10A
330
1B
100
AcDbEntity
  8
4
100
AcDbLine
 10
291.6080353477323
 20
150.4870291942983
 30
0.0
 11
307.6080353477323
 21
150.4871211942983
 31
0.0
  0
LINE
  5
10B
330
1B
100
AcDbEntity
  8
4
100
AcDbLine
 10
95.15880776952963
 20
146.4871211942983
 30
0.0
 11
95.15880776952963
 21
150.4871211942983
 31
0.0
  0
LINE
  5
10C
330
1B
100
AcDbEntity
  8
L-CENTER
 48
0.5
100
AcDbLine
 10
103.1588077695296
 20
139.6281581942983
 30
0.0
 11
103.1588077695296
 21
152.0467648980818
 31
0.0
  0
LINE
  5
10D
330
1B
100
AcDbEntity
  8
L-CENTER
 48
0.5
100
AcDbLine
 10
126.6588077695296
 20
41.31742872802218
 30
0.0
 11
126.6588077695296
 21
153.5026850738013
 31
0.0
  0
LINE
  5
10E
330
1B
100
AcDbEntity
  8
L-CENTER
 48
0.5
100
AcDbLine
 10
307.608818061554
 20
41.31742872817262
 30
0.0
 11
307.608589000403
 21
153.5026850738013
 31
0.0
  0
LINE
  5
10F
330
1B
100
AcDbEntity
  8
L-CENTER
 48
0.5
100
AcDbLine
 10
282.6087673477322
 20
63.48712119429834
 30
0.0
 11
282.6087673477322
 21
83.48712119429834
 31
0.0
  0
LINE
  5
110
330
1B
100
AcDbEntity
  8
L-CENTER
 48
0.5
100
AcDbLine
 10
332.6087673477322
 20
63.48712119429834
 30
0.0
 11
332.6087673477322
 21
83.48712119429834
 31
0.0
  0
LINE
  5
111
330
1B
100
AcDbEntity
  8
L-CENTER
 48
0.5
100
AcDbLine
 10
243.3916798738809
 20
113.4871211942983
 30
0.0
 11
350.5419007006512
 21
113.4871211942983
 31
0.0
  0
LINE
  5
112
330
1B
100
AcDbEntity
  8
4
100
AcDbLine
 10
81.65911276952966
 20
135.9871211942983
 30
0.0
 11
85.65911276952966
 21
135.9871211942983
 31
0.0
  0
LINE
  5
113
330
1B
100
AcDbEntity
  8
4
100
AcDbLine
 10
81.65911276952966
 20
90.98712119429834
 30
0.0
 11
85.65911276952966
 21
90.98712119429834
 31
0.0
  0
LINE
  5
114
330
1B
100
AcDbEntity
  8
4
100
AcDbLine
 10
85.65911276952966
 20
89.48712119429834
 30
0.0
 11
85.65911276952966
 21
138.4871211942983
 31
0.0
  0
LINE
  5
115
330
1B
100
AcDbEntity
  8
4
100
AcDbLine
 10
167.6588077695296
 20
89.48712119429834
 30
0.0
 11
167.6588077695296
 21
137.4871211942983
 31
0.0
  0
LINE
  5
116
330
1B
100
AcDbEntity
  8
4
100
AcDbLine
 10
167.6588077695296
 20
135.9871211942983
 30
0.0
 11
171.6588077695296
 21
135.9871211942983
 31
0.0
  0
LINE
  5
117
330
1B
100
AcDbEntity
  8
4
100
AcDbLine
 10
167.6588077695296
 20
90.98712119429834
 30
0.0
 11
171.6588077695296
 21
90.98712119429834
 31
0.0
  0
CIRCLE
  5
118
330
1B
100
AcDbEntity
  8
4
100
AcDbCircle
 10
270.6086493477323
 20
113.4871211942983
 30
0.0
 40
22.5
  0
CIRCLE
  5
119
330
1B
100
AcDbEntity
  8
4
100
AcDbCircle
 10
270.6086493477323
 20
113.4871211942983
 30
0.0
 40
16.0
  0
LINE
  5
11A
330
1B
100
AcDbEntity
  8
4
100
AcDbLine
 10
106.1600704280004
 20
150.4871211942983
 30
0.0
 11
142.6591127695297
 21
150.4871211942983
 31
0.0
  0
LINE
  5
182
330
1B
100
AcDbEntity
  8
4
100
AcDbLine
 10
86.65880776952963
 20
234.8552596476397
 30
0.0
 11
166.7007677695296
 21
234.8552596476397
 31
0.0
  0
LINE
  5
183
330
1B
100
AcDbEntity
  8
L-CENTER
 48
0.5
100
AcDbLine
 10
43.39666176952959
 20
259.8552596476397
 30
0.0
 11
209.9209537695297
 21
259.8552596476397
 31
0.0
  0
ARC
  5
184
330
1B
100
AcDbEntity
  8
4
100
AcDbCircle
 10
126.6588077695296
 20
167.8552596476397
 30
0.0
 40
170.0
100
AcDbArc
 50
77.8851619999971
 51
102.1148380000029
  0
LINE
  5
185
330
1B
100
AcDbEntity
  8
L-CENTER
 48
0.5
100
AcDbLine
 10
78.63598761779554
 20
296.8552596476397
 30
0.0
 11
174.6816279212637
 21
296.8552596476397
 31
0.0
  0
ARC
  5
186
330
1B
100
AcDbEntity
  8
4
100
AcDbCircle
 10
86.65880776952963
 20
235.8552596476397
 30
0.0
 40
1.0
100
AcDbArc
 50
180.0
 51
270.0
  0
LINE
  5
187
330
1B
100
AcDbEntity
  8
L-CENTER
 48
0.5
100
AcDbLine
 10
126.6588077695296
 20
340.3336449302071
 30
0.0
 11
126.6588077695296
 21
231.4633560291851
 31
0.0
  0
LINE
  5
188
330
1B
100
AcDbEntity
  8
4
100
AcDbLine
 10
59.15880776952963
 20
329.8552596476397
 30
0.0
 11
59.15880776952963
 21
313.8552596476397
 31
0.0
  0
LINE
  5
189
330
1B
100
AcDbEntity
  8
L-CENTER
 48
0.5
100
AcDbLine
 10
68.15880776952963
 20
312.7568896476398
 30
0.0
 11
68.15880776952963
 21
330.9536296476396
 31
0.0
  0
ARC
  5
18A
330
1B
100
AcDbEntity
  8
4
100
AcDbCircle
 10
255.6588077695296
 20
296.8552596476397
 30
0.0
 40
170.0
100
AcDbArc
 50
167.8851619999971
 51
192.1148380000029
  0
LINE
  5
18B
330
1B
100
AcDbEntity
  8
4
100
AcDbLine
 10
81.65880776952963
 20
237.3552596476397
 30
0.0
 11
84.15880776952963
 21
237.3552596476397
 31
0.0
  0
LINE
  5
18C
330
1B
100
AcDbEntity
  8
4
100
AcDbLine
 10
81.65880776952963
 20
282.3552596476397
 30
0.0
 11
83.65880776952963
 21
282.3552596476397
 31
0.0
  0
ARC
  5
18D
330
1B
100
AcDbEntity
  8
4
100
AcDbCircle
 10
77.65880776952963
 20
284.8552596476397
 30
0.0
 40
3.0
100
AcDbArc
 50
270.0
 51
0.0
  0
LINE
  5
18E
330
1B
100
AcDbEntity
  8
4
100
AcDbLine
 10
81.65880776952963
 20
282.3552596476397
 30
0.0
 11
81.65880776952963
 21
237.3552596476397
 31
0.0
  0
LINE
  5
18F
330
1B
100
AcDbEntity
  8
4
100
AcDbLine
 10
81.65880776952963
 20
282.3552596476397
 30
0.0
 11
81.65880776952963
 21
237.3552596476397
 31
0.0
  0
LINE
  5
190
330
1B
100
AcDbEntity
  8
4
100
AcDbLine
 10
61.15880776952963
 20
281.8552596476397
 30
0.0
 11
77.65880776952963
 21
281.8552596476397
 31
0.0
  0
CIRCLE
  5
191
330
1B
100
AcDbEntity
  8
4
100
AcDbCircle
 10
68.15880776952963
 20
271.8552596476397
 30
0.0
 40
4.5
  0
LINE
  5
192
330
1B
100
AcDbEntity
  8
L-CENTER
 48
0.5
100
AcDbLine
 10
76.94247676952955
 20
271.8552596476397
 30
0.0
 11
59.37513876952971
 21
271.8552596476397
 31
0.0
  0
LINE
  5
194
330
1B
100
AcDbEntity
  8
4
100
AcDbLine
 10
59.15880776952963
 20
264.8552596476396
 30
0.0
 11
59.15880776952963
 21
279.8552596476397
 31
0.0
  0
ARC
  5
196
330
1B
100
AcDbEntity
  8
4
100
AcDbCircle
 10
61.15880776952963
 20
279.8552596476397
 30
0.0
 40
2.0
100
AcDbArc
 50
90.0
 51
180.0
  0
LINE
  5
197
330
1B
100
AcDbEntity
  8
L-CENTER
 48
0.5
100
AcDbLine
 10
68.15880776952963
 20
263.0715906476398
 30
0.0
 11
68.15880776952963
 21
280.6389286476396
 31
0.0
  0
LINE
  5
198
330
1B
100
AcDbEntity
  8
4
100
AcDbLine
 10
80.65880776952963
 20
284.8552596476397
 30
0.0
 11
80.65880776952963
 21
308.8552596476397
 31
0.0
  0
LINE
  5
199
330
1B
100
AcDbEntity
  8
4
100
AcDbLine
 10
61.15880776952963
 20
311.8552596476397
 30
0.0
 11
77.65880776952963
 21
311.8552596476397
 31
0.0
  0
CIRCLE
  5
19A
330
1B
100
AcDbEntity
  8
4
100
AcDbCircle
 10
68.15880776952963
 20
321.8552596476397
 30
0.0
 40
4.5
  0
LINE
  5
19B
330
1B
100
AcDbEntity
  8
L-CENTER
 48
0.5
100
AcDbLine
 10
77.25717776952956
 20
321.8552596476397
 30
0.0
 11
59.0604377695297
 21
321.8552596476397
 31
0.0
  0
ARC
  5
19C
330
1B
100
AcDbEntity
  8
4
100
AcDbCircle
 10
61.15880776952963
 20
313.8552596476397
 30
0.0
 40
2.0
100
AcDbArc
 50
180.0
 51
270.0
  0
ARC
  5
19D
330
1B
100
AcDbEntity
  8
4
100
AcDbCircle
 10
77.65880776952963
 20
308.8552596476397
 30
0.0
 40
3.0
100
AcDbArc
 50
0.0
 51
90.0
  0
LINE
  5
19E
330
1B
100
AcDbEntity
  8
4
100
AcDbLine
 10
85.65880776952963
 20
235.8552596476397
 30
0.0
 11
85.65880776952963
 21
296.8552596476397
 31
0.0
  0
ARC
  5
19F
330
1B
100
AcDbEntity
  8
4
100
AcDbCircle
 10
83.65880776952963
 20
284.3552596476397
 30
0.0
 40
2.0
100
AcDbArc
 50
270.0
 51
0.0
  0
ARC
  5
1A0
330
1B
100
AcDbEntity
  8
4
100
AcDbCircle
 10
126.6588077695296
 20
425.8552596476396
 30
0.0
 40
170.0
100
AcDbArc
 50
257.8851599999938
 51
282.1148379958992
  0
ARC
  5
1A1
330
1B
100
AcDbEntity
  8
4
100
AcDbCircle
 10
84.15880776952963
 20
235.8552596476397
 30
0.0
 40
1.5
100
AcDbArc
 50
0.0
 51
90.0
  0
LINE
  5
1A2
330
1B
100
AcDbEntity
  8
4
100
AcDbLine
 10
116.6588077695296
 20
244.3552596476397
 30
0.0
 11
116.6588227695297
 21
249.3552576476397
 31
0.0
  0
LINE
  5
1A3
330
1B
100
AcDbEntity
  8
4
100
AcDbLine
 10
114.6588077695296
 20
242.3552596476397
 30
0.0
 11
114.6588077695296
 21
249.3552586476396
 31
0.0
  0
ARC
  5
1A4
330
1B
100
AcDbEntity
  8
4
100
AcDbCircle
 10
115.1588077695296
 20
242.3552596476397
 30
0.0
 40
0.5
100
AcDbArc
 50
179.9999982924527
 51
269.9999979999841
  0
ARC
  5
1A5
330
1B
100
AcDbEntity
  8
4
100
AcDbCircle
 10
119.6588077695296
 20
242.3552596476397
 30
0.0
 40
0.5
100
AcDbArc
 50
270.0
 51
0.0
  0
ARC
  5
1A6
330
1B
100
AcDbEntity
  8
4
100
AcDbCircle
 10
119.6588077695296
 20
243.3552596476397
 30
0.0
 40
0.5
100
AcDbArc
 50
0.0
 51
90.0
  0
ARC
  5
1A7
330
1B
100
AcDbEntity
  8
4
100
AcDbCircle
 10
117.1588087695297
 20
244.3552596476397
 30
0.0
 40
0.5
100
AcDbArc
 50
180.0
 51
270.0
  0
LINE
  5
1A8
330
1B
100
AcDbEntity
  8
4
100
AcDbLine
 10
120.1588077695296
 20
242.3552596476397
 30
0.0
 11
120.1588077695296
 21
243.3552596476397
 31
0.0
  0
LINE
  5
1A9
330
1B
100
AcDbEntity
  8
4
100
AcDbLine
 10
117.1588087695297
 20
243.8552596476397
 30
0.0
 11
119.6588077695296
 21
243.8552596476397
 31
0.0
  0
LINE
  5
1AA
330
1B
100
AcDbEntity
  8
4
100
AcDbLine
 10
115.1588077695296
 20
241.8552596476397
 30
0.0
 11
119.6588077695296
 21
241.8552596476397
 31
0.0
  0
ARC
  5
1AB
330
1B
100
AcDbEntity
  8
4
100
AcDbCircle
 10
116.1588227695297
 20
249.3552596476397
 30
0.0
 40
0.5
100
AcDbArc
 50
359.9998460032781
 51
89.99984600000535
  0
ARC
  5
1AC
330
1B
100
AcDbEntity
  8
4
100
AcDbCircle
 10
115.1588077695296
 20
249.3552586476396
 30
0.0
 40
0.5
100
AcDbArc
 50
90.00002900000814
 51
180.0000290031821
  0
LINE
  5
1AD
330
1B
100
AcDbEntity
  8
4
100
AcDbLine
 10
115.1588077695296
 20
249.8552586476396
 30
0.0
 11
116.1588237695298
 21
249.8552606476398
 31
0.0
  0
ARC
  5
1AE
330
1B
100
AcDbEntity
  8
4
100
AcDbCircle
 10
91.40034976952961
 20
261.5968016476397
 30
0.0
 40
2.0
100
AcDbArc
 50
192.1148380000024
 51
257.8851619999975
  0
LINE
  5
1AF
330
1B
100
AcDbEntity
  8
4
100
AcDbLine
 10
89.30076076952969
 20
331.8552596476397
 30
0.0
 11
61.15880776952963
 21
331.8552596476397
 31
0.0
  0
ARC
  5
1B0
330
1B
100
AcDbEntity
  8
4
100
AcDbCircle
 10
61.15880776952963
 20
329.8552596476397
 30
0.0
 40
2.0
100
AcDbArc
 50
90.0
 51
180.0
  0
ARC
  5
1B1
330
1B
100
AcDbEntity
  8
4
100
AcDbCircle
 10
91.40034976952961
 20
332.1137176476397
 30
0.0
 40
2.0
100
AcDbArc
 50
102.1148380000025
 51
167.8851619999976
  0
ARC
  5
1B2
330
1B
100
AcDbEntity
  8
4
100
AcDbCircle
 10
166.7007677695296
 20
235.8552596476397
 30
0.0
 40
1.0
100
AcDbArc
 50
270.0
 51
350.405931999998
  0
LINE
  5
1B3
330
1B
100
AcDbEntity
  8
L-CENTER
 48
0.5
100
AcDbLine
 10
185.1588077695296
 20
313.0715906476398
 30
0.0
 11
185.1588077695296
 21
330.6389286476396
 31
0.0
  0
ARC
  5
1B4
330
1B
100
AcDbEntity
  8
4
100
AcDbCircle
 10
175.6588077695296
 20
284.8552596476397
 30
0.0
 40
3.0
100
AcDbArc
 50
180.0
 51
270.0
  0
ARC
  5
1B5
330
1B
100
AcDbEntity
  8
4
100
AcDbCircle
 10
169.6588077695296
 20
284.3552596476397
 30
0.0
 40
2.0
100
AcDbArc
 50
180.0
 51
270.0
  0
LINE
  5
1B6
330
1B
100
AcDbEntity
  8
4
100
AcDbLine
 10
171.6588077695296
 20
282.3552596476397
 30
0.0
 11
171.6588077695296
 21
237.3552596476397
 31
0.0
  0
ARC
  5
1B7
330
1B
100
AcDbEntity
  8
4
100
AcDbCircle
 10
169.6588077695296
 20
235.3552596476397
 30
0.0
 40
2.0
100
AcDbArc
 50
90.0
 51
170.4059319999978
  0
LINE
  5
1B8
330
1B
100
AcDbEntity
  8
4
100
AcDbLine
 10
169.6588077695296
 20
237.3552596476397
 30
0.0
 11
171.6588077695296
 21
237.3552596476397
 31
0.0
  0
LINE
  5
1B9
330
1B
100
AcDbEntity
  8
4
100
AcDbLine
 10
192.1588077695296
 20
281.8552596476397
 30
0.0
 11
175.6588077695296
 21
281.8552596476397
 31
0.0
  0
LINE
  5
1BA
330
1B
100
AcDbEntity
  8
4
100
AcDbLine
 10
169.6588077695296
 20
282.3552596476397
 30
0.0
 11
171.6588077695296
 21
282.3552596476397
 31
0.0
  0
LINE
  5
1BB
330
1B
100
AcDbEntity
  8
L-CENTER
 48
0.5
100
AcDbLine
 10
185.1588077695296
 20
263.0715906476398
 30
0.0
 11
185.1588077695296
 21
280.6389286476396
 31
0.0
  0
CIRCLE
  5
1BC
330
1B
100
AcDbEntity
  8
4
100
AcDbCircle
 10
185.1588077695296
 20
271.8552596476397
 30
0.0
 40
4.5
  0
LINE
  5
1BD
330
1B
100
AcDbEntity
  8
L-CENTER
 48
0.5
100
AcDbLine
 10
176.3751387695297
 20
271.8552596476397
 30
0.0
 11
193.9424767695295
 21
271.8552596476397
 31
0.0
  0
LINE
  5
1BE
330
1B
100
AcDbEntity
  8
4
100
AcDbLine
 10
172.6588077695296
 20
284.8552596476397
 30
0.0
 11
172.6588077695296
 21
308.8552596476397
 31
0.0
  0
LINE
  5
1BF
330
1B
100
AcDbEntity
  8
4
100
AcDbLine
 10
167.6588077695296
 20
284.3552596476397
 30
0.0
 11
167.6588077695296
 21
296.8552596476397
 31
0.0
  0
LINE
  5
1C0
330
1B
100
AcDbEntity
  8
4
100
AcDbLine
 10
192.1588077695296
 20
311.8552596476397
 30
0.0
 11
175.6588077695296
 21
311.8552596476397
 31
0.0
  0
ARC
  5
1C1
330
1B
100
AcDbEntity
  8
4
100
AcDbCircle
 10
175.6588077695296
 20
308.8552596476397
 30
0.0
 40
3.0
100
AcDbArc
 50
90.0
 51
180.0
  0
CIRCLE
  5
1C2
330
1B
100
AcDbEntity
  8
4
100
AcDbCircle
 10
185.1588077695296
 20
321.8552596476397
 30
0.0
 40
4.5
  0
LINE
  5
1C3
330
1B
100
AcDbEntity
  8
4
100
AcDbLine
 10
164.0168557695297
 20
331.8552596476397
 30
0.0
 11
192.1588077695296
 21
331.8552596476397
 31
0.0
  0
ARC
  5
1C4
330
1B
100
AcDbEntity
  8
4
100
AcDbCircle
 10
161.9172657695296
 20
332.1137176476397
 30
0.0
 40
2.0
100
AcDbArc
 50
12.11483800000238
 51
77.88516199999748
  0
LINE
  5
1C5
330
1B
100
AcDbEntity
  8
4
100
AcDbLine
 10
194.1588077695296
 20
329.8552596476397
 30
0.0
 11
194.1588077695296
 21
313.8552596476397
 31
0.0
  0
LINE
  5
1C6
330
1B
100
AcDbEntity
  8
4
100
AcDbLine
 10
194.1588077695296
 20
264.8552596476397
 30
0.0
 11
194.1588077695296
 21
279.8552596476397
 31
0.0
  0
ARC
  5
1C7
330
1B
100
AcDbEntity
  8
4
100
AcDbCircle
 10
192.1588077695296
 20
279.8552596476397
 30
0.0
 40
2.0
100
AcDbArc
 50
0.0
 51
90.0
  0
ARC
  5
1C8
330
1B
100
AcDbEntity
  8
4
100
AcDbCircle
 10
192.1588077695296
 20
313.8552596476397
 30
0.0
 40
2.0
100
AcDbArc
 50
270.0
 51
0.0
  0
ARC
  5
1C9
330
1B
100
AcDbEntity
  8
4
100
AcDbCircle
 10
192.1588077695296
 20
329.8552596476397
 30
0.0
 40
2.0
100
AcDbArc
 50
0.0
 51
90.0
  0
LINE
  5
1CA
330
1B
100
AcDbEntity
  8
4
100
AcDbLine
 10
167.6588077695296
 20
235.8552596476397
 30
0.0
 11
167.6588077695296
 21
296.8552596476397
 31
0.0
  0
ARC
  5
1CB
330
1B
100
AcDbEntity
  8
4
100
AcDbCircle
 10
-2.341192230470767
 20
296.8552596476421
 30
0.0
 40
170.0
100
AcDbArc
 50
347.885161999996
 51
12.11483800000184
  0
ARC
  5
1CC
330
1B
100
AcDbEntity
  8
4
100
AcDbCircle
 10
161.9172657695285
 20
261.596801647639
 30
0.0
 40
2.0
100
AcDbArc
 50
282.1148380000025
 51
347.8851619999959
  0
LINE
  5
1CD
330
1B
100
AcDbEntity
  8
L-CENTER
 48
0.5
100
AcDbLine
 10
176.3751387695297
 20
321.8552596476397
 30
0.0
 11
193.9424767695295
 21
321.8552596476397
 31
0.0
  0
CIRCLE
  5
1CE
330
1B
100
AcDbEntity
  8
L-CENTER
 48
0.5
100
AcDbCircle
 10
126.6588077695296
 20
296.8552596476397
 30
0.0
 40
35.0
  0
CIRCLE
  5
1CF
330
1B
100
AcDbEntity
  8
4
100
AcDbCircle
 10
126.6588077695296
 20
296.8552596476397
 30
0.0
 40
40.0
  0
ARC
  5
1D0
330
1B
100
AcDbEntity
  8
4
100
AcDbCircle
 10
126.6588077695296
 20
296.8552596476397
 30
0.0
 40
28.0
100
AcDbArc
 50
206.103881
 51
153.896119
  0
ARC
  5
1D1
330
1B
100
AcDbEntity
  8
4
100
AcDbCircle
 10
126.6588077695296
 20
296.8552596476397
 30
0.0
 40
16.0
100
AcDbArc
 50
198.8975355069374
 51
161.1024644930626
  0
LINE
  5
1D2
330
1B
100
AcDbEntity
  8
4
100
AcDbLine
 10
110.1663857695296
 20
288.8552596476397
 30
0.0
 11
104.2088637695297
 21
288.8552596476397
 31
0.0
  0
LINE
  5
1D3
330
1B
100
AcDbEntity
  8
4
100
AcDbLine
 10
110.1663857695296
 20
288.8552596476397
 30
0.0
 11
104.2088637695297
 21
288.8552596476397
 31
0.0
  0
LINE
  5
1D4
330
1B
100
AcDbEntity
  8
4
100
AcDbLine
 10
110.1663857695296
 20
304.8552596476397
 30
0.0
 11
104.2088637695297
 21
304.8552596476397
 31
0.0
  0
LINE
  5
1D5
330
1B
100
AcDbEntity
  8
4
100
AcDbLine
 10
110.1663857695296
 20
304.8552596476397
 30
0.0
 11
104.2088637695297
 21
304.8552596476397
 31
0.0
  0
ARC
  5
1D6
330
1B
100
AcDbEntity
  8
4
100
AcDbCircle
 10
104.2088637695297
 20
285.8552596476397
 30
0.0
 40
3.0
100
AcDbArc
 50
90.0
 51
206.1038810000001
  0
ARC
  5
1D7
330
1B
100
AcDbEntity
  8
4
100
AcDbCircle
 10
104.2088637695297
 20
285.8552596476397
 30
0.0
 40
3.0
100
AcDbArc
 50
90.0
 51
206.1038810000001
  0
LINE
  5
1D8
330
1B
100
AcDbEntity
  8
L-CENTER
 48
0.5
100
AcDbLine
 10
103.1588077695296
 20
306.978770852585
 30
0.0
 11
103.1588077695296
 21
286.7317484426944
 31
0.0
  0
ARC
  5
1D9
330
1B
100
AcDbEntity
  8
4
100
AcDbCircle
 10
104.2088637695297
 20
307.8552596476397
 30
0.0
 40
3.0
100
AcDbArc
 50
153.8961189999999
 51
270.0
  0
ARC
  5
1DA
330
1B
100
AcDbEntity
  8
4
100
AcDbCircle
 10
104.2088637695297
 20
307.8552596476397
 30
0.0
 40
3.0
100
AcDbArc
 50
153.8961189999999
 51
270.0
  0
CIRCLE
  5
1DB
330
1B
100
AcDbEntity
  8
4
100
AcDbCircle
 10
126.6588077695296
 20
296.8552596476397
 30
0.0
 40
12.0
  0
ARC
  5
1DC
330
1B
100
AcDbEntity
  8
4
100
AcDbCircle
 10
103.1588077695296
 20
296.8552596476397
 30
0.0
 40
9.5
100
AcDbArc
 50
332.4397545350931
 51
27.5602454649069
  0
ARC
  5
1DD
330
1B
100
AcDbEntity
  8
4
100
AcDbCircle
 10
110.1663857695298
 20
283.8552596476397
 30
0.0
 40
5.0
100
AcDbArc
 50
38.24661999999964
 51
90.0
  0
ARC
  5
1DE
330
1B
100
AcDbEntity
  8
4
100
AcDbCircle
 10
110.1663857695298
 20
283.8552596476397
 30
0.0
 40
5.0
100
AcDbArc
 50
38.24661999999964
 51
90.0
  0
ARC
  5
1DF
330
1B
100
AcDbEntity
  8
4
100
AcDbCircle
 10
112.4673184078276
 20
291.9971087960609
 30
0.0
 40
1.0
100
AcDbArc
 50
152.4397545350926
 51
198.8975355069358
  0
ARC
  5
1E0
330
1B
100
AcDbEntity
  8
4
100
AcDbCircle
 10
112.4673184078276
 20
301.7134104992185
 30
0.0
 40
1.0
100
AcDbArc
 50
161.1024644930642
 51
207.5602454649074
  0
ARC
  5
1E1
330
1B
100
AcDbEntity
  8
4
100
AcDbCircle
 10
110.1663857695298
 20
309.8552596476397
 30
0.0
 40
5.0
100
AcDbArc
 50
270.0
 51
321.7533799999989
  0
ARC
  5
1E2
330
1B
100
AcDbEntity
  8
4
100
AcDbCircle
 10
110.1663857695298
 20
309.8552596476397
 30
0.0
 40
5.0
100
AcDbArc
 50
270.0
 51
321.7533799999989
  0
ARC
  5
1E3
330
1B
100
AcDbEntity
  8
4
100
AcDbCircle
 10
126.6588097695296
 20
245.8552596476397
 30
0.0
 40
1.5
100
AcDbArc
 50
98.26263399999937
 51
261.7372280000013
  0
ARC
  5
1E4
330
1B
100
AcDbEntity
  8
4
100
AcDbCircle
 10
130.6588137695296
 20
246.3552596476397
 30
0.0
 40
0.5
100
AcDbArc
 50
0.0
 51
90.0
  0
ARC
  5
1E5
330
1B
100
AcDbEntity
  8
4
100
AcDbCircle
 10
129.6588137695296
 20
246.3552596476397
 30
0.0
 40
0.5
100
AcDbArc
 50
90.0
 51
180.0
  0
LINE
  5
1E6
330
1B
100
AcDbEntity
  8
4
100
AcDbLine
 10
132.6588137695296
 20
246.8552556476397
 30
0.0
 11
132.6588137695296
 21
244.8552576476397
 31
0.0
  0
LINE
  5
1E7
330
1B
100
AcDbEntity
  8
4
100
AcDbLine
 10
138.6588137695296
 20
246.8552556476397
 30
0.0
 11
138.6588137695296
 21
244.8552576476397
 31
0.0
  0
LINE
  5
1E8
330
1B
100
AcDbEntity
  8
4
100
AcDbLine
 10
121.6588097695296
 20
244.3552596476397
 30
0.0
 11
121.6588097695296
 21
247.3552596476397
 31
0.0
  0
ARC
  5
1E9
330
1B
100
AcDbEntity
  8
4
100
AcDbCircle
 10
135.6588137695296
 20
244.8552576476397
 30
0.0
 40
3.0
100
AcDbArc
 50
270.0
 51
0.0
  0
ARC
  5
1EA
330
1B
100
AcDbEntity
  8
4
100
AcDbCircle
 10
126.2995267695296
 20
243.3812106476395
 30
0.0
 40
1.0
100
AcDbArc
 50
319.5062099999915
 51
81.73722800000093
  0
LINE
  5
1EB
330
1B
100
AcDbEntity
  8
4
100
AcDbLine
 10
124.1588097695296
 20
241.8552596476397
 30
0.0
 11
125.1588117695296
 21
241.8552596476397
 31
0.0
  0
ARC
  5
1EC
330
1B
100
AcDbEntity
  8
4
100
AcDbCircle
 10
125.1588117695296
 20
244.3552596476397
 30
0.0
 40
2.5
100
AcDbArc
 50
270.0
 51
319.5062099999976
  0
ARC
  5
1ED
330
1B
100
AcDbEntity
  8
4
100
AcDbCircle
 10
124.1588097695296
 20
244.3552596476397
 30
0.0
 40
2.5
100
AcDbArc
 50
180.0
 51
270.0
  0
ARC
  5
1EE
330
1B
100
AcDbEntity
  8
4
100
AcDbCircle
 10
129.6588137695296
 20
245.3552596476397
 30
0.0
 40
0.5
100
AcDbArc
 50
180.0
 51
270.0
  0
ARC
  5
1EF
330
1B
100
AcDbEntity
  8
4
100
AcDbCircle
 10
130.6588137695296
 20
245.3552596476397
 30
0.0
 40
0.5
100
AcDbArc
 50
270.0
 51
0.0
  0
ARC
  5
1F0
330
1B
100
AcDbEntity
  8
4
100
AcDbCircle
 10
135.6588137695296
 20
244.8552576476397
 30
0.0
 40
3.0
100
AcDbArc
 50
180.0
 51
270.0
  0
LINE
  5
1F1
330
1B
100
AcDbEntity
  8
4
100
AcDbLine
 10
129.1588137695296
 20
245.3552596476397
 30
0.0
 11
129.1588137695296
 21
246.3552596476397
 31
0.0
  0
LINE
  5
1F2
330
1B
100
AcDbEntity
  8
4
100
AcDbLine
 10
131.1588137695296
 20
245.3552596476397
 30
0.0
 11
131.1588137695296
 21
246.3552596476397
 31
0.0
  0
LINE
  5
1F3
330
1B
100
AcDbEntity
  8
4
100
AcDbLine
 10
130.6588137695296
 20
244.8552596476397
 30
0.0
 11
129.6588137695296
 21
244.8552596476397
 31
0.0
  0
ARC
  5
1F4
330
1B
100
AcDbEntity
  8
4
100
AcDbCircle
 10
135.6588137695296
 20
246.8552556476397
 30
0.0
 40
3.0
100
AcDbArc
 50
0.0
 51
90.0
  0
ARC
  5
1F5
330
1B
100
AcDbEntity
  8
4
100
AcDbCircle
 10
126.2995327695296
 20
248.3293086476396
 30
0.0
 40
1.0
100
AcDbArc
 50
278.2626339999949
 51
40.49383300000657
  0
LINE
  5
1F6
330
1B
100
AcDbEntity
  8
4
100
AcDbLine
 10
124.1588097695296
 20
249.8552596476397
 30
0.0
 11
125.1588187695297
 21
249.8552596476397
 31
0.0
  0
ARC
  5
1F7
330
1B
100
AcDbEntity
  8
4
100
AcDbCircle
 10
124.1588097695296
 20
247.3552596476397
 30
0.0
 40
2.5
100
AcDbArc
 50
90.0
 51
180.0
  0
ARC
  5
1F8
330
1B
100
AcDbEntity
  8
4
100
AcDbCircle
 10
125.1588187695297
 20
247.3552596476397
 30
0.0
 40
2.5
100
AcDbArc
 50
40.4938330000022
 51
90.0
  0
ARC
  5
1F9
330
1B
100
AcDbEntity
  8
4
100
AcDbCircle
 10
135.6588137695296
 20
246.8552556476397
 30
0.0
 40
3.0
100
AcDbArc
 50
90.0
 51
180.0
  0
LINE
  5
1FA
330
1B
100
AcDbEntity
  8
4
100
AcDbLine
 10
130.6588137695296
 20
246.8552596476397
 30
0.0
 11
129.6588137695296
 21
246.8552596476397
 31
0.0
  0
LINE
  5
1FB
330
1B
100
AcDbEntity
  8
L-CENTER
 48
0.5
100
AcDbLine
 10
151.4075451110589
 20
154.163526263131
 30
0.0
 11
151.4075451110589
 21
135.627999625458
 31
0.0
  0
LINE
  5
1FC
330
1B
100
AcDbEntity
  8
4
100
AcDbLine
 10
97.2912682744834
 20
146.4871211942983
 30
0.0
 11
106.5288725815174
 21
146.4871211942983
 31
0.0
  0
LINE
  5
1FD
330
1B
100
AcDbEntity
  8
4
100
AcDbLine
 10
80.65911276952966
 20
275.8552596476397
 30
0.0
 11
80.65911276952966
 21
243.8552596476397
 31
0.0
  0
LINE
  5
1FE
330
1B
100
AcDbEntity
  8
4
100
AcDbLine
 10
81.65911276952966
 20
243.8552596476397
 30
0.0
 11
80.65911276952966
 21
243.8552596476397
 31
0.0
  0
LINE
  5
1FF
330
1B
100
AcDbEntity
  8
4
100
AcDbLine
 10
81.65911276952966
 20
275.8552596476397
 30
0.0
 11
80.65911276952966
 21
275.8552596476397
 31
0.0
  0
LINE
  5
200
330
1B
100
AcDbEntity
  8
4
100
AcDbLine
 10
171.6588077695296
 20
275.8552596476397
 30
0.0
 11
172.6588077695296
 21
275.8552596476397
 31
0.0
  0
LINE
  5
201
330
1B
100
AcDbEntity
  8
4
100
AcDbLine
 10
171.6588077695296
 20
243.8552596476397
 30
0.0
 11
172.6588077695296
 21
243.8552596476397
 31
0.0
  0
LINE
  5
202
330
1B
100
AcDbEntity
  8
4
100
AcDbLine
 10
172.6588077695296
 20
275.8552596476397
 30
0.0
 11
172.6588077695296
 21
243.8552596476397
 31
0.0
  0
LINE
  5
203
330
1B
100
AcDbEntity
  8
4
100
AcDbLine
 10
172.6588077695296
 20
253.8552596476397
 30
0.0
 11
185.6588077695296
 21
253.8552596476397
 31
0.0
  0
LINE
  5
204
330
1B
100
AcDbEntity
  8
4
100
AcDbLine
 10
172.6588077695296
 20
265.8552596476397
 30
0.0
 11
185.6588077695296
 21
265.8552596476397
 31
0.0
  0
LINE
  5
205
330
1B
100
AcDbEntity
  8
4
100
AcDbLine
 10
207.6588077695296
 20
255.3552596476397
 30
0.0
 11
207.1588077695296
 21
254.8552596476397
 31
0.0
  0
LINE
  5
206
330
1B
100
AcDbEntity
  8
4
100
AcDbLine
 10
207.6588077695296
 20
264.3552596476397
 30
0.0
 11
207.6588077695296
 21
255.3552596476397
 31
0.0
  0
LINE
  5
207
330
1B
100
AcDbEntity
  8
4
100
AcDbLine
 10
207.1588077695296
 20
264.8552596476397
 30
0.0
 11
207.1588077695296
 21
262.8552596476397
 31
0.0
  0
LINE
  5
208
330
1B
100
AcDbEntity
  8
4
100
AcDbLine
 10
207.1588077695296
 20
264.8552596476397
 30
0.0
 11
185.6588077695296
 21
264.8552596476397
 31
0.0
  0
LINE
  5
209
330
1B
100
AcDbEntity
  8
4
100
AcDbLine
 10
185.6588077695296
 20
253.8552596476397
 30
0.0
 11
185.6588077695296
 21
265.8552596476397
 31
0.0
  0
LINE
  5
20A
330
1B
100
AcDbEntity
  8
4
100
AcDbLine
 10
185.6588077695296
 20
254.8552596476397
 30
0.0
 11
207.1588077695296
 21
254.8552596476397
 31
0.0
  0
LINE
  5
20B
330
1B
100
AcDbEntity
  8
4
100
AcDbLine
 10
207.1588077695296
 20
264.8552596476397
 30
0.0
 11
207.6588077695296
 21
264.3552596476397
 31
0.0
  0
LINE
  5
20C
330
1B
100
AcDbEntity
  8
4
100
AcDbLine
 10
190.6588077695296
 20
262.8552596476397
 30
0.0
 11
207.6588077695296
 21
262.8552596476397
 31
0.0
  0
LINE
  5
20D
330
1B
100
AcDbEntity
  8
4
100
AcDbLine
 10
190.6588077695296
 20
256.8552596476397
 30
0.0
 11
207.6588077695296
 21
256.8552596476397
 31
0.0
  0
ARC
  5
20E
330
1B
100
AcDbEntity
  8
4
100
AcDbCircle
 10
190.6588077695296
 20
259.8552596476397
 30
0.0
 40
3.0
100
AcDbArc
 50
90.0
 51
270.0
  0
LINE
  5
20F
330
1B
100
AcDbEntity
  8
4
100
AcDbLine
 10
207.1588077695296
 20
256.8552596476397
 30
0.0
 11
207.1588077695296
 21
254.8552596476397
 31
0.0
  0
CIRCLE
  5
212
330
1B
100
AcDbEntity
  8
4
100
AcDbCircle
 10
103.1588077695296
 20
296.8552596476397
 30
0.0
 40
8.0
  0
CIRCLE
  5
213
330
1B
100
AcDbEntity
  8
4
100
AcDbCircle
 10
103.1588077695296
 20
296.8552596476397
 30
0.0
 40
0.8
  0
LINE
  5
214
330
1B
100
AcDbEntity
  8
4
100
AcDbLine
 10
147.1575451110589
 20
147.7871211942983
 30
0.0
 11
155.6575451110589
 21
147.7871211942983
 31
0.0
  0
LINE
  5
215
330
1B
100
AcDbEntity
  8
4
100
AcDbLine
 10
147.1575451110589
 20
152.7871211942984
 30
0.0
 11
155.6575451110589
 21
152.7871211942984
 31
0.0
  0
LINE
  5
216
330
1B
100
AcDbEntity
  8
4
100
AcDbLine
 10
155.6575451110589
 20
152.7871211942984
 30
0.0
 11
155.6575451110589
 21
146.4871211942983
 31
0.0
  0
LINE
  5
217
330
1B
100
AcDbEntity
  8
4
100
AcDbLine
 10
147.1575451110589
 20
152.7871211942984
 30
0.0
 11
147.1575451110589
 21
146.4871211942983
 31
0.0
  0
LINE
  5
218
330
1B
100
AcDbEntity
  8
2
100
AcDbLine
 10
151.4075451110589
 20
146.4871211942983
 30
0.0
 11
152.7075451110588
 21
147.7871211942984
 31
0.0
  0
LINE
  5
219
330
1B
100
AcDbEntity
  8
2
100
AcDbLine
 10
149.5690674799739
 20
146.4871211942983
 30
0.0
 11
150.8690674799739
 21
147.7871211942984
 31
0.0
  0
LINE
  5
21A
330
1B
100
AcDbEntity
  8
4
100
AcDbLine
 10
106.1600704280004
 20
152.7871211942984
 30
0.0
 11
106.1600704280004
 21
146.4871211942983
 31
0.0
  0
LINE
  5
21B
330
1B
100
AcDbEntity
  8
4
100
AcDbLine
 10
97.66007042800038
 20
152.7871211942984
 30
0.0
 11
97.66007042800038
 21
146.4871211942983
 31
0.0
  0
LINE
  5
21C
330
1B
100
AcDbEntity
  8
4
100
AcDbLine
 10
106.1600704280004
 20
147.7871211942983
 30
0.0
 11
97.66007042800038
 21
147.7871211942983
 31
0.0
  0
LINE
  5
21D
330
1B
100
AcDbEntity
  8
2
100
AcDbLine
 10
101.9100704280004
 20
146.4871211942983
 30
0.0
 11
100.6100704280004
 21
147.7871211942984
 31
0.0
  0
LINE
  5
21E
330
1B
100
AcDbEntity
  8
2
100
AcDbLine
 10
103.7485480590854
 20
146.4871211942983
 30
0.0
 11
102.4485480590854
 21
147.7871211942984
 31
0.0
  0
LINE
  5
21F
330
1B
100
AcDbEntity
  8
4
100
AcDbLine
 10
106.1600704280004
 20
152.7871211942984
 30
0.0
 11
97.66007042800038
 21
152.7871211942984
 31
0.0
  0
LINE
  5
220
330
1B
100
AcDbEntity
  8
L-CENTER
 48
0.5
100
AcDbLine
 10
101.9100704280004
 20
154.163526263131
 30
0.0
 11
101.9100704280004
 21
135.627999625458
 31
0.0
  0
LINE
  5
221
330
1B
100
AcDbEntity
  8
L-CENTER
 48
0.5
100
AcDbLine
 10
332.3573498545433
 20
154.163526263131
 30
0.0
 11
332.3573498545433
 21
135.627999625458
 31
0.0
  0
LINE
  5
222
330
1B
100
AcDbEntity
  8
4
100
AcDbLine
 10
328.1073498545435
 20
152.7871211942984
 30
0.0
 11
328.1073498545435
 21
146.4871211942983
 31
0.0
  0
LINE
  5
223
330
1B
100
AcDbEntity
  8
4
100
AcDbLine
 10
336.6073498545435
 20
152.7871211942984
 30
0.0
 11
336.6073498545435
 21
146.4871211942983
 31
0.0
  0
LINE
  5
224
330
1B
100
AcDbEntity
  8
4
100
AcDbLine
 10
328.1073498545435
 20
147.7871211942983
 30
0.0
 11
336.6073498545433
 21
147.7871211942983
 31
0.0
  0
LINE
  5
225
330
1B
100
AcDbEntity
  8
4
100
AcDbLine
 10
328.1073498545435
 20
152.7871211942984
 30
0.0
 11
336.6073498545433
 21
152.7871211942984
 31
0.0
  0
LINE
  5
226
330
1B
100
AcDbEntity
  8
4
100
AcDbLine
 10
278.6098310685974
 20
152.7870027742953
 30
0.0
 11
278.6098567954229
 21
146.4870027743478
 31
0.0
  0
LINE
  5
227
330
1B
100
AcDbEntity
  8
4
100
AcDbLine
 10
287.1098310685267
 20
152.7870374850915
 30
0.0
 11
287.109856795352
 21
146.4870374851439
 31
0.0
  0
LINE
  5
228
330
1B
100
AcDbEntity
  8
L-CENTER
 48
0.5
100
AcDbLine
 10
282.8598254478426
 20
154.1634251985145
 30
0.0
 11
282.8599011399469
 21
135.627898560996
 31
0.0
  0
LINE
  5
229
330
1B
100
AcDbEntity
  8
4
100
AcDbLine
 10
287.1098514866421
 20
147.7870374851331
 30
0.0
 11
278.609851486713
 21
147.7870027743369
 31
0.0
  0
LINE
  5
22A
330
1B
100
AcDbEntity
  8
4
100
AcDbLine
 10
287.1098310685267
 20
152.7870374850914
 30
0.0
 11
278.6098310685977
 21
152.7870027742952
 31
0.0
  0
LINE
  5
231
330
1B
100
AcDbEntity
  8
L-CENTER
 48
0.5
100
AcDbLine
 10
96.17971216721276
 20
266.3761640453229
 30
0.0
 11
107.640428688788
 21
277.8368805668982
 31
0.0
  0
CIRCLE
  5
232
330
1B
100
AcDbEntity
  8
4
100
AcDbCircle
 10
101.9100704280004
 20
272.1065223061105
 30
0.0
 40
4.25
  0
LINE
  5
233
330
1B
100
AcDbEntity
  8
2
100
AcDbLine
 10
100.2770772661449
 20
270.4735291442551
 30
0.0
 11
99.67936028469967
 21
272.7042392875559
 31
0.0
  0
LINE
  5
234
330
1B
100
AcDbEntity
  8
2
100
AcDbLine
 10
104.1407805713013
 20
271.5088053246652
 30
0.0
 11
103.5430635898558
 21
273.739515467966
 31
0.0
  0
LINE
  5
235
330
1B
100
AcDbEntity
  8
2
100
AcDbLine
 10
99.67936028469967
 20
272.7042392875559
 30
0.0
 11
101.3123534465551
 21
274.3372324494115
 31
0.0
  0
LINE
  5
236
330
1B
100
AcDbEntity
  8
2
100
AcDbLine
 10
102.5077874094459
 20
269.8758121628097
 30
0.0
 11
104.1407805713013
 21
271.5088053246652
 31
0.0
  0
LINE
  5
237
330
1B
100
AcDbEntity
  8
2
100
AcDbLine
 10
101.3123534465551
 20
274.3372324494115
 30
0.0
 11
103.5430635898558
 21
273.739515467966
 31
0.0
  0
LINE
  5
238
330
1B
100
AcDbEntity
  8
2
100
AcDbLine
 10
100.2770772661449
 20
270.4735291442551
 30
0.0
 11
102.5077874094459
 21
269.8758121628097
 31
0.0
  0
LINE
  5
239
330
1B
100
AcDbEntity
  8
L-CENTER
 48
0.5
100
AcDbLine
 10
157.1379033718465
 20
266.3761640453229
 30
0.0
 11
145.677186850271
 21
277.8368805668982
 31
0.0
  0
LINE
  5
23A
330
1B
100
AcDbEntity
  8
2
100
AcDbLine
 10
153.0405382729143
 20
270.4735291442551
 30
0.0
 11
150.8098281296134
 21
269.8758121628097
 31
0.0
  0
LINE
  5
23B
330
1B
100
AcDbEntity
  8
2
100
AcDbLine
 10
152.0052620925042
 20
274.3372324494115
 30
0.0
 11
149.7745519492034
 21
273.739515467966
 31
0.0
  0
CIRCLE
  5
23C
330
1B
100
AcDbEntity
  8
4
100
AcDbCircle
 10
151.4075451110589
 20
272.1065223061105
 30
0.0
 40
4.25
  0
LINE
  5
23D
330
1B
100
AcDbEntity
  8
2
100
AcDbLine
 10
153.6382552543596
 20
272.7042392875559
 30
0.0
 11
152.0052620925042
 21
274.3372324494115
 31
0.0
  0
LINE
  5
23E
330
1B
100
AcDbEntity
  8
2
100
AcDbLine
 10
153.0405382729143
 20
270.4735291442551
 30
0.0
 11
153.6382552543596
 21
272.7042392875559
 31
0.0
  0
LINE
  5
23F
330
1B
100
AcDbEntity
  8
2
100
AcDbLine
 10
150.8098281296134
 20
269.8758121628097
 30
0.0
 11
149.1768349677579
 21
271.5088053246652
 31
0.0
  0
LINE
  5
240
330
1B
100
AcDbEntity
  8
2
100
AcDbLine
 10
149.1768349677579
 20
271.5088053246652
 30
0.0
 11
149.7745519492034
 21
273.739515467966
 31
0.0
  0
LINE
  5
241
330
1B
100
AcDbEntity
  8
L-CENTER
 48
0.5
100
AcDbLine
 10
96.17971216721276
 20
327.3343552499564
 30
0.0
 11
107.640428688788
 21
315.8736387283812
 31
0.0
  0
LINE
  5
242
330
1B
100
AcDbEntity
  8
2
100
AcDbLine
 10
100.2770772661449
 20
323.2369901510243
 30
0.0
 11
102.5077874094459
 21
323.8347071324696
 31
0.0
  0
LINE
  5
243
330
1B
100
AcDbEntity
  8
2
100
AcDbLine
 10
101.3123534465551
 20
319.3732868458679
 30
0.0
 11
103.5430635898558
 21
319.9710038273133
 31
0.0
  0
CIRCLE
  5
244
330
1B
100
AcDbEntity
  8
4
100
AcDbCircle
 10
101.9100704280004
 20
321.6039969891688
 30
0.0
 40
4.25
  0
LINE
  5
245
330
1B
100
AcDbEntity
  8
2
100
AcDbLine
 10
99.67936028469967
 20
321.0062800077234
 30
0.0
 11
101.3123534465551
 21
319.3732868458679
 31
0.0
  0
LINE
  5
246
330
1B
100
AcDbEntity
  8
2
100
AcDbLine
 10
100.2770772661449
 20
323.2369901510243
 30
0.0
 11
99.67936028469967
 21
321.0062800077234
 31
0.0
  0
LINE
  5
247
330
1B
100
AcDbEntity
  8
2
100
AcDbLine
 10
102.5077874094459
 20
323.8347071324696
 30
0.0
 11
104.1407805713013
 21
322.2017139706142
 31
0.0
  0
LINE
  5
248
330
1B
100
AcDbEntity
  8
2
100
AcDbLine
 10
104.1407805713013
 20
322.2017139706142
 30
0.0
 11
103.5430635898558
 21
319.9710038273133
 31
0.0
  0
LINE
  5
249
330
1B
100
AcDbEntity
  8
L-CENTER
 48
0.5
100
AcDbLine
 10
157.1379033718465
 20
327.3343552499564
 30
0.0
 11
145.677186850271
 21
315.8736387283812
 31
0.0
  0
LINE
  5
24A
330
1B
100
AcDbEntity
  8
2
100
AcDbLine
 10
149.1768349677579
 20
322.2017139706142
 30
0.0
 11
149.7745519492034
 21
319.9710038273133
 31
0.0
  0
LINE
  5
24B
330
1B
100
AcDbEntity
  8
2
100
AcDbLine
 10
150.8098281296134
 20
323.8347071324696
 30
0.0
 11
149.1768349677579
 21
322.2017139706142
 31
0.0
  0
CIRCLE
  5
24C
330
1B
100
AcDbEntity
  8
4
100
AcDbCircle
 10
151.4075451110589
 20
321.6039969891688
 30
0.0
 40
4.25
  0
LINE
  5
24D
330
1B
100
AcDbEntity
  8
2
100
AcDbLine
 10
153.0405382729143
 20
323.2369901510243
 30
0.0
 11
153.6382552543596
 21
321.0062800077234
 31
0.0
  0
LINE
  5
24E
330
1B
100
AcDbEntity
  8
2
100
AcDbLine
 10
153.6382552543596
 20
321.0062800077234
 30
0.0
 11
152.0052620925042
 21
319.3732868458679
 31
0.0
  0
LINE
  5
24F
330
1B
100
AcDbEntity
  8
2
100
AcDbLine
 10
152.0052620925042
 20
319.3732868458679
 30
0.0
 11
149.7745519492034
 21
319.9710038273133
 31
0.0
  0
LINE
  5
250
330
1B
100
AcDbEntity
  8
2
100
AcDbLine
 10
153.0405382729143
 20
323.2369901510243
 30
0.0
 11
150.8098281296134
 21
323.8347071324696
 31
0.0
  0
LINE
  5
258
330
1B
100
AcDbEntity
  8
4
100
AcDbLine
 10
122.9171077695296
 20
25.34745264742438
 30
0.0
 11
130.4005067695296
 21
25.34745264742438
 31
0.0
  0
LINE
  5
25B
330
1B
100
AcDbEntity
  8
L-CENTER
 48
0.5
100
AcDbLine
 10
126.6588077695296
 20
8.677252647424297
 30
0.0
 11
126.6588077695296
 21
29.0176526474244
 31
0.0
  0
ARC
  5
25E
330
1B
100
AcDbEntity
  8
4
100
AcDbCircle
 10
126.6588077695296
 20
18.84745264742438
 30
0.0
 40
7.500002
100
AcDbArc
 50
119.9268310000005
 51
60.07323199999983
  0
LINE
  5
261
330
1B
100
AcDbEntity
  8
L-CENTER
 48
0.5
100
AcDbLine
 10
136.8290077695297
 20
18.84745264742438
 30
0.0
 11
116.4886077695296
 21
18.84745264742438
 31
0.0
  0
LINE
  5
3DD
330
1B
100
AcDbEntity
  8
4
100
AcDbLine
 10
46.1588077695296
 20
117.4871211942983
 30
0.0
 11
46.1588077695296
 21
108.4871211942983
 31
0.0
  0
LINE
  5
3DE
330
1B
100
AcDbEntity
  8
4
100
AcDbLine
 10
65.6588077695296
 20
118.4871211942983
 30
0.0
 11
67.6588077695296
 21
118.4871211942983
 31
0.0
  0
LINE
  5
3DF
330
1B
100
AcDbEntity
  8
4
100
AcDbLine
 10
45.6588077695296
 20
117.4871211942983
 30
0.0
 11
45.6588077695296
 21
108.9871211942983
 31
0.0
  0
LINE
  5
3E0
330
1B
100
AcDbEntity
  8
4
100
AcDbLine
 10
45.6588077695296
 20
117.4871211942983
 30
0.0
 11
64.6588077695296
 21
117.4871211942983
 31
0.0
  0
LINE
  5
3E1
330
1B
100
AcDbEntity
  8
4
100
AcDbLine
 10
67.6588077695296
 20
107.4871211942983
 30
0.0
 11
67.6588077695296
 21
119.4871211942983
 31
0.0
  0
LINE
  5
3E2
330
1B
100
AcDbEntity
  8
4
100
AcDbLine
 10
80.6588077695296
 20
119.4871211942983
 30
0.0
 11
67.6588077695296
 21
119.4871211942983
 31
0.0
  0
LINE
  5
3E3
330
1B
100
AcDbEntity
  8
4
100
AcDbLine
 10
80.6588077695296
 20
107.4871211942983
 30
0.0
 11
67.6588077695296
 21
107.4871211942983
 31
0.0
  0
LINE
  5
3E4
330
1B
100
AcDbEntity
  8
4
100
AcDbLine
 10
67.6588077695296
 20
108.4871211942983
 30
0.0
 11
46.1588077695296
 21
108.4871211942983
 31
0.0
  0
ARC
  5
3E5
330
1B
100
AcDbEntity
  8
4
100
AcDbCircle
 10
64.6588077695296
 20
118.4871211942983
 30
0.0
 40
1.0
100
AcDbArc
 50
270.0
 51
0.0
  0
LINE
  5
3E6
330
1B
100
AcDbEntity
  8
4
100
AcDbLine
 10
45.6588077695296
 20
108.9871211942983
 30
0.0
 11
46.1588077695296
 21
108.4871211942983
 31
0.0
  0
LINE
  5
3EA
330
1B
100
AcDbEntity
  8
4
100
AcDbLine
 10
80.65880776952963
 20
253.8552596476396
 30
0.0
 11
67.65880776952963
 21
253.8552596476396
 31
0.0
  0
LINE
  5
3EB
330
1B
100
AcDbEntity
  8
4
100
AcDbLine
 10
80.65880776952963
 20
265.8552596476396
 30
0.0
 11
67.65880776952963
 21
265.8552596476396
 31
0.0
  0
LINE
  5
3EC
330
1B
100
AcDbEntity
  8
4
100
AcDbLine
 10
45.65880776952963
 20
255.3552596476396
 30
0.0
 11
46.15880776952963
 21
254.8552596476396
 31
0.0
  0
LINE
  5
3ED
330
1B
100
AcDbEntity
  8
4
100
AcDbLine
 10
45.65880776952963
 20
264.3552596476396
 30
0.0
 11
45.65880776952963
 21
255.3552596476396
 31
0.0
  0
LINE
  5
3EE
330
1B
100
AcDbEntity
  8
4
100
AcDbLine
 10
46.15880776952963
 20
264.8552596476396
 30
0.0
 11
46.15880776952963
 21
262.8552596476396
 31
0.0
  0
LINE
  5
3EF
330
1B
100
AcDbEntity
  8
4
100
AcDbLine
 10
46.15880776952963
 20
264.8552596476396
 30
0.0
 11
67.65880776952963
 21
264.8552596476396
 31
0.0
  0
LINE
  5
3F0
330
1B
100
AcDbEntity
  8
4
100
AcDbLine
 10
67.65880776952963
 20
253.8552596476396
 30
0.0
 11
67.65880776952963
 21
265.8552596476396
 31
0.0
  0
LINE
  5
3F1
330
1B
100
AcDbEntity
  8
4
100
AcDbLine
 10
67.65880776952963
 20
254.8552596476396
 30
0.0
 11
46.15880776952963
 21
254.8552596476396
 31
0.0
  0
LINE
  5
3F2
330
1B
100
AcDbEntity
  8
4
100
AcDbLine
 10
46.15880776952963
 20
264.8552596476396
 30
0.0
 11
45.65880776952963
 21
264.3552596476396
 31
0.0
  0
LINE
  5
3F3
330
1B
100
AcDbEntity
  8
4
100
AcDbLine
 10
62.65880776952963
 20
262.8552596476396
 30
0.0
 11
45.65880776952963
 21
262.8552596476396
 31
0.0
  0
LINE
  5
3F4
330
1B
100
AcDbEntity
  8
4
100
AcDbLine
 10
62.65880776952963
 20
256.8552596476396
 30
0.0
 11
45.65880776952963
 21
256.8552596476396
 31
0.0
  0
ARC
  5
3F5
330
1B
100
AcDbEntity
  8
4
100
AcDbCircle
 10
62.65880776952963
 20
259.8552596476396
 30
0.0
 40
3.0
100
AcDbArc
 50
270.0
 51
90.0
  0
LINE
  5
3F6
330
1B
100
AcDbEntity
  8
4
100
AcDbLine
 10
46.15880776952963
 20
256.8552596476396
 30
0.0
 11
46.15880776952963
 21
254.8552596476396
 31
0.0
  0
LINE
  5
40F
330
1B
100
AcDbEntity
  8
4
100
AcDbLine
 10
130.4004607695297
 20
64.74548319429837
 30
0.0
 11
130.4004607695297
 21
43.48712119429834
 31
0.0
  0
LINE
  5
410
330
1B
100
AcDbEntity
  8
4
100
AcDbLine
 10
122.9171537695297
 20
64.74548319429837
 30
0.0
 11
122.9171537695297
 21
43.48712119429834
 31
0.0
  0
ARC
  5
411
330
1B
100
AcDbEntity
  8
4
100
AcDbCircle
 10
126.6588077695296
 20
64.74548319429837
 30
0.0
 40
3.741638
100
AcDbArc
 50
0.0
 51
179.9997700002886
  0
LINE
  5
412
330
1B
100
AcDbEntity
  8
4
100
AcDbLine
 10
130.4004607695297
 20
43.98712119429834
 30
0.0
 11
134.1588077695296
 21
43.98712119429834
 31
0.0
  0
LINE
  5
413
330
1B
100
AcDbEntity
  8
4
100
AcDbLine
 10
119.1588077695296
 20
43.98712119429834
 30
0.0
 11
122.9171537695297
 21
43.98712119429834
 31
0.0
  0
LINE
  5
414
330
1B
100
AcDbEntity
  8
4
100
AcDbLine
 10
300.1085233477322
 20
68.48712119429834
 30
0.0
 11
300.1085233477322
 21
72.48712119429834
 31
0.0
  0
LINE
  5
415
330
1B
100
AcDbEntity
  8
4
100
AcDbLine
 10
301.1085233477322
 20
43.98712119429834
 30
0.0
 11
315.1085233477322
 21
43.98712119429834
 31
0.0
  0
LINE
  5
416
330
1B
100
AcDbEntity
  8
4
100
AcDbLine
 10
301.1085233477322
 20
43.48712119429834
 30
0.0
 11
301.1085233477322
 21
67.48712119429834
 31
0.0
  0
LINE
  5
417
330
1B
100
AcDbEntity
  8
4
100
AcDbLine
 10
301.1085233477322
 20
43.48712119429834
 30
0.0
 11
314.6085233477322
 21
43.48712119429834
 31
0.0
  0
ARC
  5
418
330
1B
100
AcDbEntity
  8
4
100
AcDbCircle
 10
300.1085233477322
 20
67.48712119429834
 30
0.0
 40
1.0
100
AcDbArc
 50
0.0
 51
90.0
  0
LINE
  5
419
330
1B
100
AcDbEntity
  8
4
100
AcDbLine
 10
314.6085233477322
 20
43.48712119429834
 30
0.0
 11
315.1085233477322
 21
43.98712119429834
 31
0.0
  0
LINE
  5
41A
330
1B
100
AcDbEntity
  8
4
100
AcDbLine
 10
315.1085233477322
 20
43.98712119429834
 30
0.0
 11
315.1085233477322
 21
72.48712119429834
 31
0.0
  0
LINE
  5
41B
330
1B
100
AcDbEntity
  8
4
100
AcDbLine
 10
134.1588077695296
 20
43.98712119429834
 30
0.0
 11
134.1588077695296
 21
73.48712119429834
 31
0.0
  0
LINE
  5
41C
330
1B
100
AcDbEntity
  8
4
100
AcDbLine
 10
133.6588077695296
 20
43.48712119429834
 30
0.0
 11
119.6588077695296
 21
43.48712119429834
 31
0.0
  0
LINE
  5
41D
330
1B
100
AcDbEntity
  8
4
100
AcDbLine
 10
133.6588077695296
 20
43.48712119429834
 30
0.0
 11
134.1588077695296
 21
43.98712119429834
 31
0.0
  0
LINE
  5
41E
330
1B
100
AcDbEntity
  8
4
100
AcDbLine
 10
119.1588077695296
 20
43.98712119429834
 30
0.0
 11
119.1588077695296
 21
73.48712119429834
 31
0.0
  0
LINE
  5
41F
330
1B
100
AcDbEntity
  8
4
100
AcDbLine
 10
119.6588077695296
 20
43.48712119429834
 30
0.0
 11
119.1588077695296
 21
43.98712119429834
 31
0.0
  0
LINE
  5
423
330
1B
100
AcDbEntity
  8
2
  6
DASHED
 48
0.5
100
AcDbLine
 10
319.6090113477321
 20
75.48712119429834
 30
0.0
 11
319.6090113477321
 21
76.48712119429834
 31
0.0
  0
LINE
  5
424
330
1B
100
AcDbEntity
  8
2
  6
DASHED
 48
0.5
100
AcDbLine
 10
295.6080353477323
 20
75.48718219429836
 30
0.0
 11
295.6080353477323
 21
76.48718219429836
 31
0.0
  0
LINE
  5
425
330
1B
100
AcDbEntity
  8
2
  6
DASHED
 48
0.5
100
AcDbLine
 10
295.6080353477323
 20
75.48718219429836
 30
0.0
 11
319.6090113477321
 21
75.48712119429834
 31
0.0
  0
LINE
  5
433
330
1B
100
AcDbEntity
  8
2
  6
DASHED
 48
0.5
100
AcDbLine
 10
293.60874625167
 20
76.48712119429834
 30
0.0
 11
321.60874625167
 21
76.48712119429834
 31
0.0
  0
LINE
  5
437
330
1B
100
AcDbEntity
  8
2
  6
DASHED
 48
0.5
100
AcDbLine
 10
300.1085233477322
 20
72.48712119429834
 30
0.0
 11
300.1085233477322
 21
75.48712119429834
 31
0.0
  0
LINE
  5
438
330
1B
100
AcDbEntity
  8
2
  6
DASHED
 48
0.5
100
AcDbLine
 10
315.1085233477322
 20
72.48712119429834
 30
0.0
 11
315.1085233477322
 21
75.48712119429834
 31
0.0
  0
ENDSEC
  0
SECTION
  2
OBJECTS
  0
DICTIONARY
  5
9
330
0
100
AcDbDictionary
281
     1
  3
ACAD_COLOR
350
30
  3
ACAD_GROUP
350
2E
  3
ACAD_LAYOUT
350
24
  3
ACAD_MATERIAL
350
B
  3
ACAD_MLEADERSTYLE
350
3BB
  3
ACAD_MLINESTYLE
350
19
  3
ACAD_PLOTSETTINGS
350
2F
  3
ACAD_PLOTSTYLENAME
350
8
  3
ACAD_SCALELIST
350
35
  3
ACAD_TABLESTYLE
350
3BA
  3
ACAD_VISUALSTYLE
350
31
  3
ACDBHEADERROUNDTRIPXREC
350
46F
  3
AcDbVariableDictionary
350
3B8
  3
DWGPROPS
350
472
  0
DICTIONARY
  5
2D
330
2C
100
AcDbDictionary
280
     1
281
     1
  3
ACAD_XREC_ROUNDTRIP
360
473
  0
DICTIONARY
  5
3
330
2
100
AcDbDictionary
280
     1
281
     1
  3
ACAD_LAYERSTATES
360
4
  0
DICTIONARY
  5
20
330
1F
100
AcDbDictionary
280
     1
281
     1
  3
ADSK_XREC_LAYER_RECONCILED
360
21
  0
DICTIONARY
  5
28A
330
289
100
AcDbDictionary
280
     1
281
     1
  3
ADSK_XREC_LAYER_RECONCILED
360
28B
  0
DICTIONARY
  5
5
330
1
100
AcDbDictionary
280
     1
281
     1
  3
ADSK_XREC_LAYER_RECONCILED
360
6
  0
DICTIONARY
  5
7A
330
79
100
AcDbDictionary
280
     1
281
     1
  3
ADSK_XREC_LAYER_RECONCILED
360
7B
  0
DICTIONARY
  5
75
330
74
100
AcDbDictionary
280
     1
281
     1
  3
ADSK_XREC_LAYER_RECONCILED
360
76
  0
DICTIONARY
  5
6B
330
6A
100
AcDbDictionary
280
     1
281
     1
  3
ADSK_XREC_LAYER_RECONCILED
360
6C
  0
DICTIONARY
  5
1C
330
1B
100
AcDbDictionary
280
     1
281
     1
  3
ACAD_SORTENTS
360
1D
  0
DICTIONARY
  5
30
102
{ACAD_REACTORS
330
9
102
}
330
9
100
AcDbDictionary
281
     1
  0
DICTIONARY
  5
2E
102
{ACAD_REACTORS
330
9
102
}
330
9
100
AcDbDictionary
281
     1
  0
DICTIONARY
  5
24
102
{ACAD_REACTORS
330
9
102
}
330
9
100
AcDbDictionary
281
     1
  3
Model
350
23
  3
ﾚｲｱｳﾄ1
350
29
  0
DICTIONARY
  5
B
102
{ACAD_REACTORS
330
9
102
}
330
9
100
AcDbDictionary
281
     1
  3
ByBlock
350
68
  3
ByLayer
350
14
  3
Global
350
A
  0
DICTIONARY
  5
3BB
102
{ACAD_REACTORS
330
9
102
}
330
9
100
AcDbDictionary
281
     1
  3
Standard
350
3D6
  0
DICTIONARY
  5
19
102
{ACAD_REACTORS
330
9
102
}
330
9
100
AcDbDictionary
281
     1
  3
STANDARD
350
18
  0
DICTIONARY
  5
2F
102
{ACAD_REACTORS
330
9
102
}
330
9
100
AcDbDictionary
281
     1
  0
ACDBDICTIONARYWDFLT
  5
8
102
{ACAD_REACTORS
330
9
102
}
330
9
100
AcDbDictionary
281
     1
  3
Normal
350
7
100
AcDbDictionaryWithDefault
340
7
  0
DICTIONARY
  5
35
102
{ACAD_REACTORS
330
9
102
}
330
9
100
AcDbDictionary
281
     1
  3
*A1
350
57
  3
*A10
350
60
  3
*A11
350
61
  3
*A12
350
62
  3
*A13
350
63
  3
*A14
350
64
  3
*A15
350
65
  3
*A16
350
66
  3
*A17
350
67
  3
*A2
350
58
  3
*A3
350
59
  3
*A4
350
5A
  3
*A5
350
5B
  3
*A6
350
5C
  3
*A7
350
5D
  3
*A8
350
5E
  3
*A9
350
5F
  0
DICTIONARY
  5
3BA
102
{ACAD_REACTORS
330
9
102
}
330
9
100
AcDbDictionary
281
     1
  3
Standard
350
46A
  0
DICTIONARY
  5
31
102
{ACAD_REACTORS
330
9
102
}
330
9
100
AcDbDictionary
281
     1
  3
2dWireframe
350
3C2
  3
Basic
350
3C5
  3
Brighten
350
3C9
  3
ColorChange
350
3CD
  3
Conceptual
350
3C7
  3
Dim
350
3C8
  3
EdgeColorOff
350
3D0
  3
Facepattern
350
3CC
  3
Flat
350
3BE
  3
FlatWithEdges
350
3BF
  3
Gouraud
350
3C0
  3
GouraudWithEdges
350
3C1
  3
Hidden
350
3C4
  3
JitterOff
350
3CE
  3
Linepattern
350
3CB
  3
OverhangOff
350
3CF
  3
Realistic
350
3C6
  3
Shaded
350
3D5
  3
Shaded with edges
350
3D4
  3
Shades of Gray
350
3D1
  3
Sketchy
350
3D2
  3
Thicken
350
3CA
  3
Wireframe
350
3C3
  3
X-Ray
350
3D3
  0
DICTIONARY
  5
46F
102
{ACAD_REACTORS
330
9
102
}
330
9
100
AcDbDictionary
281
     1
  3
COLORDICT
350
470
  3
MATERIALDICT
350
471
  0
DICTIONARY
  5
3B8
102
{ACAD_REACTORS
330
9
102
}
330
9
100
AcDbDictionary
281
     1
  3
CANNOSCALE
350
3B9
  3
CMLEADERSTYLE
350
3D8
  3
CTABLESTYLE
350
46B
  3
DIMASSOC
350
46C
  3
HIDETEXT
350
46E
  3
MSLTSCALE
350
474
  3
XCLIPFRAME
350
46D
  0
XRECORD
  5
472
102
{ACAD_REACTORS
330
9
102
}
330
9
100
AcDbXrecord
280
     1
  1
DWGPROPS COOKIE
  2

  3

  4

  6

  7

  8
sg-d04
  9

300
=
301
=
302
=
303
=
304
=
305
=
306
=
307
=
308
=
309
=
 40
0.0
 41
2457554.043412743
 42
2457870.214821076
  1

 90
        0
  0
XRECORD
  5
473
102
{ACAD_REACTORS
330
2D
102
}
330
2D
100
AcDbXrecord
280
     1
102
VTR_0.000_0.000_1.000_1.000_VISUALSTYLE
340
3C2
102
VTR_0.000_0.000_1.000_1.000_GRIDDISPLAY
 70
     3
102
VTR_0.000_0.000_1.000_1.000_GRIDMAJOR
 70
     5
102
VTR_0.000_0.000_1.000_1.000_DEFAULTLIGHTING
280
     1
102
VTR_0.000_0.000_1.000_1.000_DEFAULTLIGHTINGTYPE
 70
     1
102
VTR_0.000_0.000_1.000_1.000_BRIGHTNESS
141
0.0
102
VTR_0.000_0.000_1.000_1.000_CONTRAST
142
0.0
  0
DICTIONARY
  5
4
102
{ACAD_REACTORS
330
3
102
}
330
3
100
AcDbDictionary
281
     1
  0
XRECORD
  5
21
102
{ACAD_REACTORS
330
20
102
}
330
20
100
AcDbXrecord
280
     1
290
     1
  0
XRECORD
  5
28B
102
{ACAD_REACTORS
330
28A
102
}
330
28A
100
AcDbXrecord
280
     1
290
     1
  0
XRECORD
  5
6
102
{ACAD_REACTORS
330
5
102
}
330
5
100
AcDbXrecord
280
     1
290
     1
  0
XRECORD
  5
7B
102
{ACAD_REACTORS
330
7A
102
}
330
7A
100
AcDbXrecord
280
     1
290
     1
  0
XRECORD
  5
76
102
{ACAD_REACTORS
330
75
102
}
330
75
100
AcDbXrecord
280
     1
290
     1
  0
XRECORD
  5
6C
102
{ACAD_REACTORS
330
6B
102
}
330
6B
100
AcDbXrecord
280
     1
290
     1
  0
SORTENTSTABLE
  5
1D
102
{ACAD_REACTORS
330
1C
102
}
330
1C
100
AcDbSortentsTable
330
1B
331
0
  5
125
331
C4
  5
C5
331
C5
  5
C6
331
C6
  5
C7
331
C7
  5
C8
331
C8
  5
C9
331
C9
  5
CA
331
CA
  5
CC
331
CB
  5
CD
331
CC
  5
CE
331
CD
  5
CF
331
CE
  5
D0
331
CF
  5
D1
331
D0
  5
D2
331
D1
  5
D3
331
D2
  5
D4
331
D3
  5
D5
331
D4
  5
D6
331
D5
  5
D7
331
D6
  5
D8
331
D7
  5
D9
331
D8
  5
DA
331
D9
  5
DB
331
DA
  5
DC
331
DB
  5
DD
331
DC
  5
DE
331
DD
  5
DF
331
DE
  5
E0
331
DF
  5
E1
331
E0
  5
E2
331
E1
  5
E3
331
E2
  5
E4
331
E3
  5
E5
331
E4
  5
E6
331
E5
  5
E7
331
E6
  5
E8
331
E7
  5
E9
331
E8
  5
EA
331
E9
  5
EB
331
EA
  5
EC
331
EB
  5
ED
331
EC
  5
EE
331
ED
  5
EF
331
EE
  5
F0
331
EF
  5
F1
331
F0
  5
F2
331
F1
  5
F3
331
F2
  5
F4
331
F3
  5
F5
331
F4
  5
F6
331
F5
  5
F7
331
F6
  5
F8
331
F7
  5
F9
331
F8
  5
FA
331
F9
  5
FB
331
FA
  5
FC
331
FB
  5
FD
331
FC
  5
FE
331
FD
  5
FF
331
FE
  5
100
331
FF
  5
101
331
100
  5
102
331
101
  5
103
331
102
  5
104
331
103
  5
105
331
104
  5
106
331
105
  5
107
331
106
  5
108
331
107
  5
109
331
108
  5
10A
331
109
  5
10B
331
10A
  5
10C
331
10B
  5
10D
331
10C
  5
10E
331
10D
  5
10F
331
10E
  5
110
331
10F
  5
111
331
110
  5
112
331
111
  5
113
331
112
  5
114
331
113
  5
115
331
114
  5
116
331
115
  5
117
331
116
  5
118
331
117
  5
119
331
118
  5
11A
331
119
  5
11B
331
11A
  5
11C
331
182
  5
184
331
183
  5
185
331
184
  5
186
331
185
  5
187
331
186
  5
188
331
187
  5
189
331
188
  5
18A
331
189
  5
18B
331
18A
  5
18C
331
18B
  5
18D
331
18C
  5
18E
331
18D
  5
18F
331
18E
  5
190
331
18F
  5
191
331
190
  5
192
331
191
  5
193
331
192
  5
194
331
194
  5
196
331
196
  5
198
331
197
  5
199
331
198
  5
19A
331
199
  5
19B
331
19A
  5
19C
331
19B
  5
19D
331
19C
  5
19E
331
19D
  5
19F
331
19E
  5
1A0
331
19F
  5
1A1
331
1A0
  5
1A2
331
1A1
  5
1A3
331
1A2
  5
1A4
331
1A3
  5
1A5
331
1A4
  5
1A6
331
1A5
  5
1A7
331
1A6
  5
1A8
331
1A7
  5
1A9
331
1A8
  5
1AA
331
1A9
  5
1AB
331
1AA
  5
1AC
331
1AB
  5
1AD
331
1AC
  5
1AE
331
1AD
  5
1AF
331
1AE
  5
1B0
331
1AF
  5
1B1
331
1B0
  5
1B2
331
1B1
  5
1B3
331
1B2
  5
1B4
331
1B3
  5
1B5
331
1B4
  5
1B6
331
1B5
  5
1B7
331
1B6
  5
1B8
331
1B7
  5
1B9
331
1B8
  5
1BA
331
1B9
  5
1BB
331
1BA
  5
1BC
331
1BB
  5
1BD
331
1BC
  5
1BE
331
1BD
  5
1BF
331
1BE
  5
1C0
331
1BF
  5
1C1
331
1C0
  5
1C2
331
1C1
  5
1C3
331
1C2
  5
1C4
331
1C3
  5
1C5
331
1C4
  5
1C6
331
1C5
  5
1C7
331
1C6
  5
1C8
331
1C7
  5
1C9
331
1C8
  5
1CA
331
1C9
  5
1CB
331
1CA
  5
1CC
331
1CB
  5
1CD
331
1CC
  5
1CE
331
1CD
  5
1CF
331
1CE
  5
1D0
331
1CF
  5
1D1
331
1D0
  5
1D2
331
1D1
  5
1D3
331
1D2
  5
1D4
331
1D3
  5
1D5
331
1D4
  5
1D6
331
1D5
  5
1D7
331
1D6
  5
1D8
331
1D7
  5
1D9
331
1D8
  5
1DA
331
1D9
  5
1DB
331
1DA
  5
1DC
331
1DB
  5
1DD
331
1DC
  5
1DE
331
1DD
  5
1DF
331
1DE
  5
1E0
331
1DF
  5
1E1
331
1E0
  5
1E2
331
1E1
  5
1E3
331
1E2
  5
1E4
331
1E3
  5
1E5
331
1E4
  5
1E6
331
1E5
  5
1E7
331
1E6
  5
1E8
331
1E7
  5
1E9
331
1E8
  5
1EA
331
1E9
  5
1EB
331
1EA
  5
1EC
331
1EB
  5
1ED
331
1EC
  5
1EE
331
1ED
  5
1EF
331
1EE
  5
1F0
331
1EF
  5
1F1
331
1F0
  5
1F2
331
1F1
  5
1F3
331
1F2
  5
1F4
331
1F3
  5
1F5
331
1F4
  5
1F6
331
1F5
  5
1F7
331
1F6
  5
1F8
331
1F7
  5
1F9
331
1F8
  5
1FA
331
1F9
  5
1FB
331
1FA
  5
1FC
331
1FB
  5
1FD
331
1FC
  5
1FE
331
1FD
  5
1FF
331
1FE
  5
200
331
1FF
  5
201
331
200
  5
202
331
201
  5
203
331
202
  5
204
331
203
  5
205
331
204
  5
206
331
205
  5
207
331
206
  5
208
331
207
  5
209
331
208
  5
20A
331
209
  5
20B
331
20A
  5
20C
331
20B
  5
20D
331
20C
  5
20E
331
20D
  5
20F
331
20E
  5
210
331
20F
  5
211
331
212
  5
214
331
213
  5
215
331
214
  5
216
331
215
  5
217
331
216
  5
218
331
217
  5
219
331
218
  5
21A
331
219
  5
21B
331
21A
  5
21C
331
21B
  5
21D
331
21C
  5
21E
331
21D
  5
21F
331
21E
  5
220
331
21F
  5
221
331
220
  5
222
331
221
  5
223
331
222
  5
224
331
223
  5
225
331
224
  5
226
331
225
  5
227
331
226
  5
228
331
227
  5
229
331
228
  5
22A
331
229
  5
22B
331
22A
  5
22C
331
231
  5
233
331
232
  5
234
331
233
  5
235
331
234
  5
236
331
235
  5
237
331
236
  5
238
331
237
  5
239
331
238
  5
23A
331
239
  5
23B
331
23A
  5
23C
331
23B
  5
23D
331
23C
  5
23E
331
23D
  5
23F
331
23E
  5
240
331
23F
  5
241
331
240
  5
242
331
241
  5
243
331
242
  5
244
331
243
  5
245
331
244
  5
246
331
245
  5
247
331
246
  5
248
331
247
  5
249
331
248
  5
24A
331
249
  5
24B
331
24A
  5
24C
331
24B
  5
24D
331
24C
  5
24E
331
24D
  5
24F
331
24E
  5
250
331
24F
  5
251
331
250
  5
252
331
258
  5
25A
331
25B
  5
25D
331
25E
  5
260
331
261
  5
263
331
415
  5
416
331
416
  5
417
331
417
  5
418
331
418
  5
41A
331
419
  5
41B
331
41A
  5
41C
331
41B
  5
41E
331
41C
  5
41F
331
41D
  5
420
331
41E
  5
421
331
41F
  5
422
331
423
  5
426
331
424
  5
427
331
425
  5
428
331
433
  5
419
331
437
  5
415
331
438
  5
41D
  0
LAYOUT
  5
23
102
{ACAD_REACTORS
330
24
102
}
330
24
100
AcDbPlotSettings
  1

  2
Bullzip PDF Printer.pc3
  4
A3
  6

 40
0.2
 41
0.0
 42
0.0
 43
0.0
 44
420.2
 45
297.1
 46
25.0
 47
12.0
 48
19.99999995333337
 49
0.0
140
401.9999990783334
141
272.4999993641666
142
1.0
143
1.0
 70
 11936
 72
     1
 73
     0
 74
     4
  7
monochrome.ctb
 75
    16
147
1.0
148
-19.99999995333337
149
0.0
100
AcDbLayout
  1
Model
 70
     0
 71
     0
 10
0.0
 20
0.0
 11
12.0
 21
9.0
 12
0.0
 22
0.0
 32
0.0
 14
43.3966617695296
 24
8.677252647424297
 34
0.0
 15
350.5419007006511
 25
340.3336449302071
 35
0.0
146
0.0
 13
0.0
 23
0.0
 33
0.0
 16
1.0
 26
0.0
 36
0.0
 17
0.0
 27
1.0
 37
0.0
 76
     0
330
1B
331
32
1001
ACAD_PSEXT
1000
Bullzip PDF Printer.pc3
1000
Bullzip PDF Printer
1000
BULLZIP
1000
Bullzip PDF Printer 10.1.0.1871
1070
     0
  0
LAYOUT
  5
29
102
{ACAD_REACTORS
330
24
102
}
330
24
100
AcDbPlotSettings
  1

  2
C:\Program Files\ACAD LT 2000\plotters\Draftpro-DXL (7575A).pc3
  4

  6

 40
0.0
 41
0.0
 42
0.0
 43
0.0
 44
0.0
 45
0.0
 46
0.0
 47
0.0
 48
0.0
 49
0.0
140
0.0
141
0.0
142
1.0
143
1.0
 70
   688
 72
     0
 73
     0
 74
     5
  7
monochrome.ctb
 75
    16
147
1.0
148
0.0
149
0.0
100
AcDbLayout
  1
ﾚｲｱｳﾄ1
 70
     0
 71
     1
 10
0.0
 20
0.0
 11
12.0
 21
9.0
 12
0.0
 22
0.0
 32
0.0
 14
1.000000000000000E+20
 24
1.000000000000000E+20
 34
1.000000000000000E+20
 15
-1.000000000000000E+20
 25
-1.000000000000000E+20
 35
-1.000000000000000E+20
146
0.0
 13
0.0
 23
0.0
 33
0.0
 16
1.0
 26
0.0
 36
0.0
 17
0.0
 27
1.0
 37
0.0
 76
     0
330
26
  0
MATERIAL
  5
68
102
{ACAD_REACTORS
330
B
102
}
102
{ACAD_XDICTIONARY
360
479
102
}
330
B
100
AcDbMaterial
  1
ByBlock
 72
     0
 73
     2
 43
0.0208333333333333
 43
0.0
 43
0.0
 43
0.0
 43
0.0
 43
0.0208333333333333
 43
0.0
 43
0.0
 43
0.0
 43
0.0
 43
1.0
 43
0.0
 43
0.0
 43
0.0
 43
0.0
 43
1.0
 77
     0
 78
     2
 47
0.0208333333333333
 47
0.0
 47
0.0
 47
0.0
 47
0.0
 47
0.0208333333333333
 47
0.0
 47
0.0
 47
0.0
 47
0.0
 47
1.0
 47
0.0
 47
0.0
 47
0.0
 47
0.0
 47
1.0
171
     0
172
     2
 49
0.0208333333333333
 49
0.0
 49
0.0
 49
0.0
 49
0.0
 49
0.0208333333333333
 49
0.0
 49
0.0
 49
0.0
 49
0.0
 49
1.0
 49
0.0
 49
0.0
 49
0.0
 49
0.0
 49
1.0
175
     0
176
     2
142
0.0208333333333333
142
0.0
142
0.0
142
0.0
142
0.0
142
0.0208333333333333
142
0.0
142
0.0
142
0.0
142
0.0
142
1.0
142
0.0
142
0.0
142
0.0
142
0.0
142
1.0
179
     0
270
     2
144
0.0208333333333333
144
0.0
144
0.0
144
0.0
144
0.0
144
0.0208333333333333
144
0.0
144
0.0
144
0.0
144
0.0
144
1.0
144
0.0
144
0.0
144
0.0
144
0.0
144
1.0
274
     2
147
0.0208333333333333
147
0.0
147
0.0
147
0.0
147
0.0
147
0.0208333333333333
147
0.0
147
0.0
147
0.0
147
0.0
147
1.0
147
0.0
147
0.0
147
0.0
147
0.0
147
1.0
  0
MATERIAL
  5
14
102
{ACAD_REACTORS
330
B
102
}
102
{ACAD_XDICTIONARY
360
475
102
}
330
B
100
AcDbMaterial
  1
ByLayer
 72
     0
 73
     2
 43
0.0208333333333333
 43
0.0
 43
0.0
 43
0.0
 43
0.0
 43
0.0208333333333333
 43
0.0
 43
0.0
 43
0.0
 43
0.0
 43
1.0
 43
0.0
 43
0.0
 43
0.0
 43
0.0
 43
1.0
 77
     0
 78
     2
 47
0.0208333333333333
 47
0.0
 47
0.0
 47
0.0
 47
0.0
 47
0.0208333333333333
 47
0.0
 47
0.0
 47
0.0
 47
0.0
 47
1.0
 47
0.0
 47
0.0
 47
0.0
 47
0.0
 47
1.0
171
     0
172
     2
 49
0.0208333333333333
 49
0.0
 49
0.0
 49
0.0
 49
0.0
 49
0.0208333333333333
 49
0.0
 49
0.0
 49
0.0
 49
0.0
 49
1.0
 49
0.0
 49
0.0
 49
0.0
 49
0.0
 49
1.0
175
     0
176
     2
142
0.0208333333333333
142
0.0
142
0.0
142
0.0
142
0.0
142
0.0208333333333333
142
0.0
142
0.0
142
0.0
142
0.0
142
1.0
142
0.0
142
0.0
142
0.0
142
0.0
142
1.0
179
     0
270
     2
144
0.0208333333333333
144
0.0
144
0.0
144
0.0
144
0.0
144
0.0208333333333333
144
0.0
144
0.0
144
0.0
144
0.0
144
1.0
144
0.0
144
0.0
144
0.0
144
0.0
144
1.0
274
     2
147
0.0208333333333333
147
0.0
147
0.0
147
0.0
147
0.0
147
0.0208333333333333
147
0.0
147
0.0
147
0.0
147
0.0
147
1.0
147
0.0
147
0.0
147
0.0
147
0.0
147
1.0
  0
MATERIAL
  5
A
102
{ACAD_REACTORS
330
B
102
}
102
{ACAD_XDICTIONARY
360
477
102
}
330
B
100
AcDbMaterial
  1
Global
 72
     0
 73
     2
 43
0.0208333333333333
 43
0.0
 43
0.0
 43
0.0
 43
0.0
 43
0.0208333333333333
 43
0.0
 43
0.0
 43
0.0
 43
0.0
 43
1.0
 43
0.0
 43
0.0
 43
0.0
 43
0.0
 43
1.0
 77
     0
 78
     2
 47
0.0208333333333333
 47
0.0
 47
0.0
 47
0.0
 47
0.0
 47
0.0208333333333333
 47
0.0
 47
0.0
 47
0.0
 47
0.0
 47
1.0
 47
0.0
 47
0.0
 47
0.0
 47
0.0
 47
1.0
171
     0
172
     2
 49
0.0208333333333333
 49
0.0
 49
0.0
 49
0.0
 49
0.0
 49
0.0208333333333333
 49
0.0
 49
0.0
 49
0.0
 49
0.0
 49
1.0
 49
0.0
 49
0.0
 49
0.0
 49
0.0
 49
1.0
175
     0
176
     2
142
0.0208333333333333
142
0.0
142
0.0
142
0.0
142
0.0
142
0.0208333333333333
142
0.0
142
0.0
142
0.0
142
0.0
142
1.0
142
0.0
142
0.0
142
0.0
142
0.0
142
1.0
179
     0
270
     2
144
0.0208333333333333
144
0.0
144
0.0
144
0.0
144
0.0
144
0.0208333333333333
144
0.0
144
0.0
144
0.0
144
0.0
144
1.0
144
0.0
144
0.0
144
0.0
144
0.0
144
1.0
274
     2
147
0.0208333333333333
147
0.0
147
0.0
147
0.0
147
0.0
147
0.0208333333333333
147
0.0
147
0.0
147
0.0
147
0.0
147
1.0
147
0.0
147
0.0
147
0.0
147
0.0
147
1.0
1001
ACAD
1070
    -1
1070
     3
1070
     0
1000

1071
        0
  0
MLEADERSTYLE
  5
3D6
102
{ACAD_REACTORS
330
3BB
102
}
102
{ACAD_XDICTIONARY
360
4AB
102
}
330
3BB
100
AcDbMLeaderStyle
170
     2
171
     1
172
     0
 90
        2
 40
0.0
 41
0.0
173
     1
 91
-1056964608
340
11
 92
       -2
290
     1
 42
0.09
291
     1
 43
0.36
  3
Standard
341
0
 44
0.18
300

342
12
174
     1
178
     6
175
     1
176
     0
 93
-1056964608
 45
0.18
292
     0
297
     0
 46
0.18
343
0
 94
-1056964608
 47
1.0
 49
1.0
140
1.0
293
     1
141
0.0
294
     1
177
     0
142
1.0
295
     0
296
     0
143
0.125
1001
ACAD_MLEADERVER
1070
     2
  0
MLINESTYLE
  5
18
102
{ACAD_REACTORS
330
19
102
}
330
19
100
AcDbMlineStyle
  2
STANDARD
 70
     0
  3

 62
     0
 51
90.0
 52
90.0
 71
     2
 49
0.5
 62
   256
  6
BYLAYER
 49
-0.5
 62
   256
  6
BYLAYER
  0
ACDBPLACEHOLDER
  5
7
102
{ACAD_REACTORS
330
8
102
}
330
8
  0
SCALE
  5
57
102
{ACAD_REACTORS
330
35
102
}
330
35
100
AcDbScale
 70
     0
300
1:1
140
1.0
141
1.0
290
     1
  0
SCALE
  5
60
102
{ACAD_REACTORS
330
35
102
}
330
35
100
AcDbScale
 70
     0
300
3/8" = 1'-0"
140
0.375
141
12.0
290
     0
  0
SCALE
  5
61
102
{ACAD_REACTORS
330
35
102
}
330
35
100
AcDbScale
 70
     0
300
1/2" = 1'-0"
140
0.5
141
12.0
290
     0
  0
SCALE
  5
62
102
{ACAD_REACTORS
330
35
102
}
330
35
100
AcDbScale
 70
     0
300
3/4" = 1'-0"
140
0.75
141
12.0
290
     0
  0
SCALE
  5
63
102
{ACAD_REACTORS
330
35
102
}
330
35
100
AcDbScale
 70
     0
300
1" = 1'-0"
140
1.0
141
12.0
290
     0
  0
SCALE
  5
64
102
{ACAD_REACTORS
330
35
102
}
330
35
100
AcDbScale
 70
     0
300
1-1/2" = 1'-0"
140
1.5
141
12.0
290
     0
  0
SCALE
  5
65
102
{ACAD_REACTORS
330
35
102
}
330
35
100
AcDbScale
 70
     0
300
3" = 1'-0"
140
3.0
141
12.0
290
     0
  0
SCALE
  5
66
102
{ACAD_REACTORS
330
35
102
}
330
35
100
AcDbScale
 70
     0
300
6" = 1'-0"
140
6.0
141
12.0
290
     0
  0
SCALE
  5
67
102
{ACAD_REACTORS
330
35
102
}
330
35
100
AcDbScale
 70
     0
300
1'-0" = 1'-0"
140
12.0
141
12.0
290
     0
  0
SCALE
  5
58
102
{ACAD_REACTORS
330
35
102
}
330
35
100
AcDbScale
 70
     0
300
1/128" = 1'-0"
140
0.0078125
141
12.0
290
     0
  0
SCALE
  5
59
102
{ACAD_REACTORS
330
35
102
}
330
35
100
AcDbScale
 70
     0
300
1/64" = 1'-0"
140
0.015625
141
12.0
290
     0
  0
SCALE
  5
5A
102
{ACAD_REACTORS
330
35
102
}
330
35
100
AcDbScale
 70
     0
300
1/32" = 1'-0"
140
0.03125
141
12.0
290
     0
  0
SCALE
  5
5B
102
{ACAD_REACTORS
330
35
102
}
330
35
100
AcDbScale
 70
     0
300
1/16" = 1'-0"
140
0.0625
141
12.0
290
     0
  0
SCALE
  5
5C
102
{ACAD_REACTORS
330
35
102
}
330
35
100
AcDbScale
 70
     0
300
3/32" = 1'-0"
140
0.09375
141
12.0
290
     0
  0
SCALE
  5
5D
102
{ACAD_REACTORS
330
35
102
}
330
35
100
AcDbScale
 70
     0
300
1/8" = 1'-0"
140
0.125
141
12.0
290
     0
  0
SCALE
  5
5E
102
{ACAD_REACTORS
330
35
102
}
330
35
100
AcDbScale
 70
     0
300
3/16" = 1'-0"
140
0.1875
141
12.0
290
     0
  0
SCALE
  5
5F
102
{ACAD_REACTORS
330
35
102
}
330
35
100
AcDbScale
 70
     0
300
1/4" = 1'-0"
140
0.25
141
12.0
290
     0
  0
TABLESTYLE
  5
46A
102
{ACAD_REACTORS
330
3BA
102
}
330
3BA
100
AcDbTableStyle
  3
Standard
 70
     0
 71
     0
 40
0.06
 41
0.06
280
     0
281
     0
  7
STANDARD
140
0.18
170
     2
 62
     0
 63
   257
283
     0
274
    -2
284
     1
 64
     0
275
    -2
285
     1
 65
     0
276
    -2
286
     1
 66
     0
277
    -2
287
     1
 67
     0
278
    -2
288
     1
 68
     0
279
    -2
289
     1
 69
     0
  7
STANDARD
140
0.25
170
     5
 62
     0
 63
   257
283
     0
274
    -2
284
     1
 64
     0
275
    -2
285
     1
 65
     0
276
    -2
286
     1
 66
     0
277
    -2
287
     1
 67
     0
278
    -2
288
     1
 68
     0
279
    -2
289
     1
 69
     0
  7
STANDARD
140
0.18
170
     5
 62
     0
 63
   257
283
     0
274
    -2
284
     1
 64
     0
275
    -2
285
     1
 65
     0
276
    -2
286
     1
 66
     0
277
    -2
287
     1
 67
     0
278
    -2
288
     1
 68
     0
279
    -2
289
     1
 69
     0
  0
VISUALSTYLE
  5
3C2
102
{ACAD_REACTORS
330
31
102
}
102
{ACAD_XDICTIONARY
360
483
102
}
330
31
100
AcDbVisualStyle
  2
2dWireframe
 70
     4
 71
     0
 72
     2
 73
     0
 90
        0
 40
0.6
 41
30.0
 62
     5
 63
     7
 74
     1
 91
        4
 64
     7
 65
   257
 75
     1
175
     1
 42
1.0
 92
        0
 66
   257
 43
1.0
 76
     1
 77
     6
 78
     2
 67
     7
 79
     5
170
     0
171
     0
290
     0
174
     0
 93
        1
 44
0.0
173
     0
291
     0
 45
0.0
1001
ACAD
1000
AcDbSavedByObjectVersion
1070
     0
  0
VISUALSTYLE
  5
3C5
102
{ACAD_REACTORS
330
31
102
}
102
{ACAD_XDICTIONARY
360
489
102
}
330
31
100
AcDbVisualStyle
  2
Basic
 70
     7
 71
     1
 72
     0
 73
     1
 90
        0
 40
0.6
 41
30.0
 62
     5
 63
     7
 74
     0
 91
        4
 64
     7
 65
   257
 75
     1
175
     1
 42
1.0
 92
        8
 66
     7
 43
1.0
 76
     1
 77
     6
 78
     2
 67
     7
 79
     5
170
     0
171
     0
290
     0
174
     0
 93
        1
 44
0.0
173
     0
291
     1
 45
0.0
1001
ACAD
1000
AcDbSavedByObjectVersion
1070
     0
  0
VISUALSTYLE
  5
3C9
102
{ACAD_REACTORS
330
31
102
}
102
{ACAD_XDICTIONARY
360
491
102
}
330
31
100
AcDbVisualStyle
  2
Brighten
 70
    12
 71
     2
 72
     2
 73
     0
 90
        0
 40
0.6
 41
30.0
 62
     5
 63
     7
 74
     1
 91
        4
 64
     7
 65
   257
 75
     1
175
     1
 42
1.0
 92
        8
 66
     7
 43
1.0
 76
     1
 77
     6
 78
     2
 67
     7
 79
     5
170
     0
171
     0
290
     0
174
     0
 93
        1
 44
50.0
173
     0
291
     1
 45
0.0
1001
ACAD
1000
AcDbSavedByObjectVersion
1070
     0
  0
VISUALSTYLE
  5
3CD
102
{ACAD_REACTORS
330
31
102
}
102
{ACAD_XDICTIONARY
360
499
102
}
330
31
100
AcDbVisualStyle
  2
ColorChange
 70
    16
 71
     2
 72
     2
 73
     3
 90
        0
 40
0.6
 41
30.0
 62
     5
 63
     8
 74
     1
 91
        4
 64
     7
 65
   257
 75
     1
175
     1
 42
1.0
 92
        8
 66
     8
 43
1.0
 76
     1
 77
     6
 78
     2
 67
     7
 79
     5
170
     0
171
     0
290
     0
174
     0
 93
        1
 44
0.0
173
     0
291
     1
 45
0.0
1001
ACAD
1000
AcDbSavedByObjectVersion
1070
     0
  0
VISUALSTYLE
  5
3C7
102
{ACAD_REACTORS
330
31
102
}
102
{ACAD_XDICTIONARY
360
48D
102
}
330
31
100
AcDbVisualStyle
  2
Conceptual
 70
     9
 71
     3
 72
     2
 73
     0
 90
        0
 40
0.6
 41
30.0
 62
     5
 63
     7
 74
     2
 91
        2
 64
     7
 65
   257
 75
     1
175
     1
 42
40.0
 92
        8
 66
     7
 43
1.0
 76
     1
 77
     6
 78
     2
 67
     7
 79
     3
170
     0
171
     0
290
     0
174
     0
 93
        1
 44
0.0
173
     0
291
     0
 45
0.0
1001
ACAD
1000
AcDbSavedByObjectVersion
1070
     0
  0
VISUALSTYLE
  5
3C8
102
{ACAD_REACTORS
330
31
102
}
102
{ACAD_XDICTIONARY
360
48F
102
}
330
31
100
AcDbVisualStyle
  2
Dim
 70
    11
 71
     2
 72
     2
 73
     0
 90
        0
 40
0.6
 41
30.0
 62
     5
 63
     7
 74
     1
 91
        4
 64
     7
 65
   257
 75
     1
175
     1
 42
1.0
 92
        8
 66
     7
 43
1.0
 76
     1
 77
     6
 78
     2
 67
     7
 79
     5
170
     0
171
     0
290
     0
174
     0
 93
        1
 44
-50.0
173
     0
291
     1
 45
0.0
1001
ACAD
1000
AcDbSavedByObjectVersion
1070
     0
  0
VISUALSTYLE
  5
3D0
102
{ACAD_REACTORS
330
31
102
}
102
{ACAD_XDICTIONARY
360
49F
102
}
330
31
100
AcDbVisualStyle
  2
EdgeColorOff
 70
    22
 71
     2
 72
     2
 73
     0
 90
        0
 40
0.6
 41
30.0
 62
     5
 63
     7
 74
     1
 91
        4
 64
     7
 65
   257
 75
     1
175
     1
 42
1.0
 92
        8
 66
     7
 43
1.0
 76
     1
 77
     6
 78
     2
 67
     7
 79
     5
170
     0
171
     0
290
     0
174
     0
 93
        1
 44
0.0
173
     0
291
     1
 45
0.0
1001
ACAD
1000
AcDbSavedByObjectVersion
1070
     0
  0
VISUALSTYLE
  5
3CC
102
{ACAD_REACTORS
330
31
102
}
102
{ACAD_XDICTIONARY
360
497
102
}
330
31
100
AcDbVisualStyle
  2
Facepattern
 70
    15
 71
     2
 72
     2
 73
     0
 90
        0
 40
0.6
 41
30.0
 62
     5
 63
     7
 74
     1
 91
        4
 64
     7
 65
   257
 75
     1
175
     1
 42
1.0
 92
        8
 66
     7
 43
1.0
 76
     1
 77
     6
 78
     2
 67
     7
 79
     5
170
     0
171
     0
290
     0
174
     0
 93
        1
 44
0.0
173
     0
291
     1
 45
0.0
1001
ACAD
1000
AcDbSavedByObjectVersion
1070
     0
  0
VISUALSTYLE
  5
3BE
102
{ACAD_REACTORS
330
31
102
}
102
{ACAD_XDICTIONARY
360
47B
102
}
330
31
100
AcDbVisualStyle
  2
Flat
 70
     0
 71
     2
 72
     1
 73
     1
 90
        2
 40
0.6
 41
30.0
 62
     5
 63
     7
 74
     0
 91
        4
 64
     7
 65
   257
 75
     1
175
     1
 42
1.0
 92
        8
 66
     7
 43
1.0
 76
     1
 77
     6
 78
     2
 67
     7
 79
     5
170
     0
171
     0
290
     0
174
     0
 93
       13
 44
0.0
173
     0
291
     1
 45
0.0
1001
ACAD
1000
AcDbSavedByObjectVersion
1070
     0
  0
VISUALSTYLE
  5
3BF
102
{ACAD_REACTORS
330
31
102
}
102
{ACAD_XDICTIONARY
360
47D
102
}
330
31
100
AcDbVisualStyle
  2
FlatWithEdges
 70
     1
 71
     2
 72
     1
 73
     1
 90
        2
 40
0.6
 41
30.0
 62
     5
 63
     7
 74
     1
 91
        4
 64
     7
 65
   257
 75
     1
175
     1
 42
1.0
 92
        0
 66
   257
 43
1.0
 76
     1
 77
     6
 78
     2
 67
     7
 79
     5
170
     0
171
     0
290
     0
174
     0
 93
       13
 44
0.0
173
     0
291
     1
 45
0.0
1001
ACAD
1000
AcDbSavedByObjectVersion
1070
     0
  0
VISUALSTYLE
  5
3C0
102
{ACAD_REACTORS
330
31
102
}
102
{ACAD_XDICTIONARY
360
47F
102
}
330
31
100
AcDbVisualStyle
  2
Gouraud
 70
     2
 71
     2
 72
     2
 73
     1
 90
        2
 40
0.6
 41
30.0
 62
     5
 63
     7
 74
     0
 91
        4
 64
     7
 65
   257
 75
     1
175
     1
 42
1.0
 92
        0
 66
     7
 43
1.0
 76
     1
 77
     6
 78
     2
 67
     7
 79
     5
170
     0
171
     0
290
     0
174
     0
 93
       13
 44
0.0
173
     0
291
     1
 45
0.0
1001
ACAD
1000
AcDbSavedByObjectVersion
1070
     0
  0
VISUALSTYLE
  5
3C1
102
{ACAD_REACTORS
330
31
102
}
102
{ACAD_XDICTIONARY
360
481
102
}
330
31
100
AcDbVisualStyle
  2
GouraudWithEdges
 70
     3
 71
     2
 72
     2
 73
     1
 90
        2
 40
0.6
 41
30.0
 62
     5
 63
     7
 74
     1
 91
        4
 64
     7
 65
   257
 75
     1
175
     1
 42
1.0
 92
        0
 66
   257
 43
1.0
 76
     1
 77
     6
 78
     2
 67
     7
 79
     5
170
     0
171
     0
290
     0
174
     0
 93
       13
 44
0.0
173
     0
291
     1
 45
0.0
1001
ACAD
1000
AcDbSavedByObjectVersion
1070
     0
  0
VISUALSTYLE
  5
3C4
102
{ACAD_REACTORS
330
31
102
}
102
{ACAD_XDICTIONARY
360
487
102
}
330
31
100
AcDbVisualStyle
  2
Hidden
 70
     6
 71
     1
 72
     2
 73
     2
 90
        0
 40
0.6
 41
30.0
 62
     5
 63
     7
 74
     2
 91
        2
 64
     7
 65
   257
 75
     2
175
     1
 42
40.0
 92
        0
 66
   257
 43
1.0
 76
     1
 77
     6
 78
     2
 67
     7
 79
     3
170
     0
171
     0
290
     0
174
     0
 93
        1
 44
0.0
173
     0
291
     0
 45
0.0
1001
ACAD
1000
AcDbSavedByObjectVersion
1070
     0
  0
VISUALSTYLE
  5
3CE
102
{ACAD_REACTORS
330
31
102
}
102
{ACAD_XDICTIONARY
360
49B
102
}
330
31
100
AcDbVisualStyle
  2
JitterOff
 70
    20
 71
     2
 72
     2
 73
     0
 90
        0
 40
0.6
 41
30.0
 62
     5
 63
     7
 74
     1
 91
        4
 64
     7
 65
   257
 75
     1
175
     1
 42
1.0
 92
       10
 66
     7
 43
1.0
 76
     1
 77
     6
 78
     2
 67
     7
 79
     5
170
     0
171
     0
290
     0
174
     0
 93
        1
 44
0.0
173
     0
291
     1
 45
0.0
1001
ACAD
1000
AcDbSavedByObjectVersion
1070
     0
  0
VISUALSTYLE
  5
3CB
102
{ACAD_REACTORS
330
31
102
}
102
{ACAD_XDICTIONARY
360
495
102
}
330
31
100
AcDbVisualStyle
  2
Linepattern
 70
    14
 71
     2
 72
     2
 73
     0
 90
        0
 40
0.6
 41
30.0
 62
     5
 63
     7
 74
     1
 91
        4
 64
     7
 65
   257
 75
     7
175
     7
 42
1.0
 92
        8
 66
     7
 43
1.0
 76
     1
 77
     6
 78
     2
 67
     7
 79
     5
170
     0
171
     0
290
     0
174
     0
 93
        1
 44
0.0
173
     0
291
     1
 45
0.0
1001
ACAD
1000
AcDbSavedByObjectVersion
1070
     0
  0
VISUALSTYLE
  5
3CF
102
{ACAD_REACTORS
330
31
102
}
102
{ACAD_XDICTIONARY
360
49D
102
}
330
31
100
AcDbVisualStyle
  2
OverhangOff
 70
    21
 71
     2
 72
     2
 73
     0
 90
        0
 40
0.6
 41
30.0
 62
     5
 63
     7
 74
     1
 91
        4
 64
     7
 65
   257
 75
     1
175
     1
 42
1.0
 92
        9
 66
     7
 43
1.0
 76
     1
 77
     6
 78
     2
 67
     7
 79
     5
170
     0
171
     0
290
     0
174
     0
 93
        1
 44
0.0
173
     0
291
     1
 45
0.0
1001
ACAD
1000
AcDbSavedByObjectVersion
1070
     0
  0
VISUALSTYLE
  5
3C6
102
{ACAD_REACTORS
330
31
102
}
102
{ACAD_XDICTIONARY
360
48B
102
}
330
31
100
AcDbVisualStyle
  2
Realistic
 70
     8
 71
     2
 72
     3
 73
     0
 90
        2
 40
0.6
 41
30.0
 62
     5
 63
     7
 74
     0
 91
        0
 64
     7
 65
   257
 75
     1
175
     1
 42
1.0
 92
        8
 66
   257
 43
1.0
 76
     1
 77
     6
 78
     2
 67
     7
 79
     3
170
     0
171
     0
290
     0
174
     0
 93
       13
 44
0.0
173
     0
291
     0
 45
0.0
1001
ACAD
1000
AcDbSavedByObjectVersion
1070
     0
  0
VISUALSTYLE
  5
3D5
102
{ACAD_REACTORS
330
31
102
}
102
{ACAD_XDICTIONARY
360
4A9
102
}
330
31
100
AcDbVisualStyle
  2
Shaded
 70
    27
 71
     2
 72
     2
 73
     1
 90
        2
 40
0.6
 41
30.0
 62
     5
 63
     7
 74
     0
 91
        4
 64
     7
 65
   257
 75
     1
175
     1
 42
1.0
 92
        8
 66
   257
 43
1.0
 76
     1
 77
     6
 78
     2
 67
   251
 79
     3
170
     0
171
     0
290
     0
174
     0
 93
        5
 44
0.0
173
     0
291
     0
 45
0.0
1001
ACAD
1000
AcDbSavedByObjectVersion
1070
     0
  0
VISUALSTYLE
  5
3D4
102
{ACAD_REACTORS
330
31
102
}
102
{ACAD_XDICTIONARY
360
4A7
102
}
330
31
100
AcDbVisualStyle
  2
Shaded with edges
 70
    26
 71
     2
 72
     2
 73
     1
 90
        2
 40
0.6
 41
30.0
 62
     5
 63
     7
 74
     1
 91
       10
 64
     7
 65
   257
 75
     2
175
     1
 42
1.0
 92
        8
 66
   257
 43
1.0
 76
     1
 77
     6
 78
     2
 67
     7
 79
     3
170
     0
171
     0
290
     0
174
     0
 93
        5
 44
0.0
173
     0
291
     0
 45
0.0
1001
ACAD
1000
AcDbSavedByObjectVersion
1070
     0
  0
VISUALSTYLE
  5
3D1
102
{ACAD_REACTORS
330
31
102
}
102
{ACAD_XDICTIONARY
360
4A1
102
}
330
31
100
AcDbVisualStyle
  2
Shades of Gray
 70
    23
 71
     2
 72
     2
 73
     3
 90
        0
 40
0.6
 41
30.0
 62
     5
 63
     7
 74
     2
 91
        2
 64
     7
 65
     7
 75
     1
175
     1
 42
40.0
 92
        8
 66
     7
 43
1.0
 76
     1
 77
     6
 78
     2
 67
     7
 79
     3
170
     0
171
     0
290
     0
174
     0
 93
        1
 44
0.0
173
     0
291
     0
 45
0.0
1001
ACAD
1000
AcDbSavedByObjectVersion
1070
     0
  0
VISUALSTYLE
  5
3D2
102
{ACAD_REACTORS
330
31
102
}
102
{ACAD_XDICTIONARY
360
4A3
102
}
330
31
100
AcDbVisualStyle
  2
Sketchy
 70
    24
 71
     1
 72
     2
 73
     2
 90
        0
 40
0.6
 41
30.0
 62
     5
 63
     7
 74
     2
 91
        2
 64
     7
 65
     7
 75
     1
175
     1
 42
40.0
 92
       11
 66
     7
 43
1.0
 76
     1
 77
     6
 78
     2
 67
     7
 79
     6
170
     0
171
     0
290
     0
174
     0
 93
        1
 44
0.0
173
     0
291
     0
 45
0.0
1001
ACAD
1000
AcDbSavedByObjectVersion
1070
     0
  0
VISUALSTYLE
  5
3CA
102
{ACAD_REACTORS
330
31
102
}
102
{ACAD_XDICTIONARY
360
493
102
}
330
31
100
AcDbVisualStyle
  2
Thicken
 70
    13
 71
     2
 72
     2
 73
     0
 90
        0
 40
0.6
 41
30.0
 62
     5
 63
     7
 74
     1
 91
        4
 64
     7
 65
   257
 75
     1
175
     1
 42
1.0
 92
       12
 66
     7
 43
1.0
 76
     1
 77
     6
 78
     2
 67
     7
 79
     5
170
     0
171
     0
290
     0
174
     0
 93
        1
 44
0.0
173
     0
291
     1
 45
0.0
1001
ACAD
1000
AcDbSavedByObjectVersion
1070
     0
  0
VISUALSTYLE
  5
3C3
102
{ACAD_REACTORS
330
31
102
}
102
{ACAD_XDICTIONARY
360
485
102
}
330
31
100
AcDbVisualStyle
  2
Wireframe
 70
     5
 71
     0
 72
     2
 73
     0
 90
        0
 40
0.6
 41
30.0
 62
     5
 63
     7
 74
     1
 91
        4
 64
     7
 65
   257
 75
     1
175
     1
 42
1.0
 92
        0
 66
   257
 43
1.0
 76
     1
 77
     6
 78
     2
 67
     7
 79
     5
170
     0
171
     0
290
     0
174
     0
 93
        1
 44
0.0
173
     0
291
     0
 45
0.0
1001
ACAD
1000
AcDbSavedByObjectVersion
1070
     0
  0
VISUALSTYLE
  5
3D3
102
{ACAD_REACTORS
330
31
102
}
102
{ACAD_XDICTIONARY
360
4A5
102
}
330
31
100
AcDbVisualStyle
  2
X-Ray
 70
    25
 71
     2
 72
     2
 73
     1
 90
        1
 40
0.5
 41
30.0
 62
     5
 63
     7
 74
     1
 91
        0
 64
     7
 65
   257
 75
     1
175
     1
 42
1.0
 92
        8
 66
     7
 43
1.0
 76
     1
 77
     6
 78
     2
 67
     7
 79
     3
170
     0
171
     0
290
     0
174
     0
 93
       13
 44
0.0
173
     0
291
     0
 45
0.0
1001
ACAD
1000
AcDbSavedByObjectVersion
1070
     0
  0
XRECORD
  5
470
102
{ACAD_REACTORS
330
46F
102
}
330
46F
100
AcDbXrecord
280
     1
340
30
  0
XRECORD
  5
471
102
{ACAD_REACTORS
330
46F
102
}
330
46F
100
AcDbXrecord
280
     1
340
B
  0
DICTIONARYVAR
  5
3B9
102
{ACAD_REACTORS
330
3B8
102
}
330
3B8
100
DictionaryVariables
280
     0
  1
1:1
  0
DICTIONARYVAR
  5
3D8
102
{ACAD_REACTORS
330
3B8
102
}
330
3B8
100
DictionaryVariables
280
     0
  1
Standard
  0
DICTIONARYVAR
  5
46B
102
{ACAD_REACTORS
330
3B8
102
}
330
3B8
100
DictionaryVariables
280
     0
  1
Standard
  0
DICTIONARYVAR
  5
46C
102
{ACAD_REACTORS
330
3B8
102
}
330
3B8
100
DictionaryVariables
280
     0
  1
0
  0
DICTIONARYVAR
  5
46E
102
{ACAD_REACTORS
330
3B8
102
}
330
3B8
100
DictionaryVariables
280
     0
  1
1
  0
DICTIONARYVAR
  5
474
102
{ACAD_REACTORS
330
3B8
102
}
330
3B8
100
DictionaryVariables
280
     0
  1
1
  0
DICTIONARYVAR
  5
46D
102
{ACAD_REACTORS
330
3B8
102
}
330
3B8
100
DictionaryVariables
280
     0
  1
0
  0
DICTIONARY
  5
479
330
68
100
AcDbDictionary
280
     1
281
     1
  3
ACAD_XREC_ROUNDTRIP
360
47A
  0
DICTIONARY
  5
475
330
14
100
AcDbDictionary
280
     1
281
     1
  3
ACAD_XREC_ROUNDTRIP
360
476
  0
DICTIONARY
  5
477
330
A
100
AcDbDictionary
280
     1
281
     1
  3
ACAD_XREC_ROUNDTRIP
360
478
  0
DICTIONARY
  5
4AB
330
3D6
100
AcDbDictionary
280
     1
281
     1
  3
ACAD_XREC_ROUNDTRIP
360
4AC
  0
DICTIONARY
  5
483
330
3C2
100
AcDbDictionary
280
     1
281
     1
  3
ACAD_XREC_ROUNDTRIP
360
484
  0
DICTIONARY
  5
489
330
3C5
100
AcDbDictionary
280
     1
281
     1
  3
ACAD_XREC_ROUNDTRIP
360
48A
  0
DICTIONARY
  5
491
330
3C9
100
AcDbDictionary
280
     1
281
     1
  3
ACAD_XREC_ROUNDTRIP
360
492
  0
DICTIONARY
  5
499
330
3CD
100
AcDbDictionary
280
     1
281
     1
  3
ACAD_XREC_ROUNDTRIP
360
49A
  0
DICTIONARY
  5
48D
330
3C7
100
AcDbDictionary
280
     1
281
     1
  3
ACAD_XREC_ROUNDTRIP
360
48E
  0
DICTIONARY
  5
48F
330
3C8
100
AcDbDictionary
280
     1
281
     1
  3
ACAD_XREC_ROUNDTRIP
360
490
  0
DICTIONARY
  5
49F
330
3D0
100
AcDbDictionary
280
     1
281
     1
  3
ACAD_XREC_ROUNDTRIP
360
4A0
  0
DICTIONARY
  5
497
330
3CC
100
AcDbDictionary
280
     1
281
     1
  3
ACAD_XREC_ROUNDTRIP
360
498
  0
DICTIONARY
  5
47B
330
3BE
100
AcDbDictionary
280
     1
281
     1
  3
ACAD_XREC_ROUNDTRIP
360
47C
  0
DICTIONARY
  5
47D
330
3BF
100
AcDbDictionary
280
     1
281
     1
  3
ACAD_XREC_ROUNDTRIP
360
47E
  0
DICTIONARY
  5
47F
330
3C0
100
AcDbDictionary
280
     1
281
     1
  3
ACAD_XREC_ROUNDTRIP
360
480
  0
DICTIONARY
  5
481
330
3C1
100
AcDbDictionary
280
     1
281
     1
  3
ACAD_XREC_ROUNDTRIP
360
482
  0
DICTIONARY
  5
487
330
3C4
100
AcDbDictionary
280
     1
281
     1
  3
ACAD_XREC_ROUNDTRIP
360
488
  0
DICTIONARY
  5
49B
330
3CE
100
AcDbDictionary
280
     1
281
     1
  3
ACAD_XREC_ROUNDTRIP
360
49C
  0
DICTIONARY
  5
495
330
3CB
100
AcDbDictionary
280
     1
281
     1
  3
ACAD_XREC_ROUNDTRIP
360
496
  0
DICTIONARY
  5
49D
330
3CF
100
AcDbDictionary
280
     1
281
     1
  3
ACAD_XREC_ROUNDTRIP
360
49E
  0
DICTIONARY
  5
48B
330
3C6
100
AcDbDictionary
280
     1
281
     1
  3
ACAD_XREC_ROUNDTRIP
360
48C
  0
DICTIONARY
  5
4A9
330
3D5
100
AcDbDictionary
280
     1
281
     1
  3
ACAD_XREC_ROUNDTRIP
360
4AA
  0
DICTIONARY
  5
4A7
330
3D4
100
AcDbDictionary
280
     1
281
     1
  3
ACAD_XREC_ROUNDTRIP
360
4A8
  0
DICTIONARY
  5
4A1
330
3D1
100
AcDbDictionary
280
     1
281
     1
  3
ACAD_XREC_ROUNDTRIP
360
4A2
  0
DICTIONARY
  5
4A3
330
3D2
100
AcDbDictionary
280
     1
281
     1
  3
ACAD_XREC_ROUNDTRIP
360
4A4
  0
DICTIONARY
  5
493
330
3CA
100
AcDbDictionary
280
     1
281
     1
  3
ACAD_XREC_ROUNDTRIP
360
494
  0
DICTIONARY
  5
485
330
3C3
100
AcDbDictionary
280
     1
281
     1
  3
ACAD_XREC_ROUNDTRIP
360
486
  0
DICTIONARY
  5
4A5
330
3D3
100
AcDbDictionary
280
     1
281
     1
  3
ACAD_XREC_ROUNDTRIP
360
4A6
  0
XRECORD
  5
47A
102
{ACAD_REACTORS
330
479
102
}
330
479
100
AcDbXrecord
280
     1
102
MATERIAL
148
0.0
149
0.0
149
0.0
 93
        0
 94
      127
282
     0
 72
     0
 77
     0
171
     0
175
     0
179
     0
273
     0
  0
XRECORD
  5
476
102
{ACAD_REACTORS
330
475
102
}
330
475
100
AcDbXrecord
280
     1
102
MATERIAL
148
0.0
149
0.0
149
0.0
 93
        0
 94
      127
282
     0
 72
     0
 77
     0
171
     0
175
     0
179
     0
273
     0
  0
XRECORD
  5
478
102
{ACAD_REACTORS
330
477
102
}
330
477
100
AcDbXrecord
280
     1
102
MATERIAL
148
0.0
149
0.0
149
0.0
 93
        0
 94
      127
282
     0
 72
     0
 77
     0
171
     0
175
     0
179
     0
273
     0
  0
XRECORD
  5
4AC
102
{ACAD_REACTORS
330
4AB
102
}
330
4AB
100
AcDbXrecord
280
     1
102
ACAD_ROUNDTRIP_2010_MLEADER_STYLE
  0
XRECORD
  5
484
102
{ACAD_REACTORS
330
483
102
}
330
483
100
AcDbXrecord
280
     1
102
RTVSPropertyOp0
 70
     1
102
RTVSPropertyOp1
 70
     1
102
RTVSPropertyOp2
 70
     1
102
RTVSPropertyOp3
 70
     1
102
RTVSPropertyOp4
 70
     1
102
RTVSPropertyOp5
 70
     1
102
RTVSPropertyOp6
 70
     1
102
RTVSPropertyOp7
 70
     1
102
RTVSPropertyOp8
 70
     1
102
RTVSPropertyOp9
 70
     1
102
RTVSPropertyOp10
 70
     1
102
RTVSPropertyOp11
 70
     1
102
RTVSPropertyOp12
 70
     1
102
RTVSPropertyOp13
 70
     1
102
RTVSPropertyOp14
 70
     1
102
RTVSPropertyOp15
 70
     1
102
RTVSPropertyOp16
 70
     1
102
RTVSPropertyOp17
 70
     1
102
RTVSPropertyOp18
 70
     1
102
RTVSPropertyOp19
 70
     1
102
RTVSPropertyOp20
 70
     1
102
RTVSPropertyOp21
 70
     1
102
RTVSPropertyOp22
 70
     1
102
RTVSPropertyOp23
 70
     1
102
RTVSPropertyOp24
 70
     1
102
RTVSPropertyOp25
 70
     1
102
RTVSPropertyOp26
 70
     1
102
RTVSPropertyOp27
 70
     1
102
RTVSPropertyOp28
 70
     1
102
RTVSPropertyOp29
 70
     1
102
RTVSPropertyOp30
 70
     1
102
RTVSPropertyOp31
 70
     1
102
RTVSPropertyOp32
 70
     1
102
RTVSPropertyOp33
 70
     1
102
RTVSPropertyOp34
 70
     1
102
RTVSPropertyOp35
 70
     1
102
RTVSPropertyOp36
 70
     1
102
RTVSPropertyOp37
 70
     1
102
RTVSPropertyOp38
 70
     1
102
RTVSPropertyOp39
 70
     1
102
RTVSPropertyOp40
 70
     1
102
RTVSPropertyOp41
 70
     1
102
RTVSPropertyOp42
 70
     1
102
RTVSPropertyOp43
 70
     1
102
RTVSPropertyOp44
 70
     1
102
RTVSPropertyOp45
 70
     1
102
RTVSPropertyOp46
 70
     1
102
RTVSPropertyOp47
 70
     1
102
RTVSPropertyOp48
 70
     1
102
RTVSPropertyOp49
 70
     1
102
RTVSPropertyOp50
 70
     1
102
RTVSPropertyOp51
 70
     0
102
RTVSPropertyOp52
 70
     0
102
RTVSPropertyOp53
 70
     1
102
RTVSPropertyOp54
 70
     1
102
RTVSPropertyOp55
 70
     1
102
RTVSPropertyOp56
 70
     1
102
RTVSPropertyOp57
 70
     1
102
RTVSPost2010Prop28
280
     1
102
RTVSPost2010PropOp28
 70
     1
102
RTVSPost2010Prop29
280
     1
102
RTVSPost2010PropOp29
 70
     1
102
RTVSPost2010Prop30
280
     0
102
RTVSPost2010PropOp30
 70
     1
102
RTVSPost2010Prop31
280
     0
102
RTVSPost2010PropOp31
 70
     1
102
RTVSPost2010Prop32
280
     0
102
RTVSPost2010PropOp32
 70
     1
102
RTVSPost2010Prop33
280
     0
102
RTVSPost2010PropOp33
 70
     1
102
RTVSPost2010Prop34
280
     0
102
RTVSPost2010PropOp34
 70
     1
102
RTVSPost2010Prop35
280
     0
102
RTVSPost2010PropOp35
 70
     1
102
RTVSPost2010Prop36
280
     0
102
RTVSPost2010PropOp36
 70
     1
102
RTVSPost2010Prop37
 90
       50
102
RTVSPost2010PropOp37
 70
     1
102
RTVSPost2010Prop38
140
0.0
102
RTVSPost2010PropOp38
 70
     1
102
RTVSPost2010Prop39
140
1.0
102
RTVSPost2010PropOp39
 70
     1
102
RTVSPost2010Prop40
 90
        0
102
RTVSPost2010PropOp40
 70
     1
102
RTVSPost2010Prop41ColorIndex
 90
       18
102
RTVSPost2010Prop41ColorRGB
 90
        0
102
RTVSPost2010PropOp41
 70
     1
102
RTVSPost2010Prop42
 90
       50
102
RTVSPost2010PropOp42
 70
     1
102
RTVSPost2010Prop43
 90
        3
102
RTVSPost2010PropOp43
 70
     1
102
RTVSPost2010Prop44ColorIndex
 90
        5
102
RTVSPost2010Prop44ColorRGB
 90
      255
102
RTVSPost2010PropOp44
 70
     1
102
RTVSPost2010Prop45
280
     0
102
RTVSPost2010PropOp45
 70
     1
102
RTVSPost2010Prop46
 90
       50
102
RTVSPost2010PropOp46
 70
     1
102
RTVSPost2010Prop47
 90
       50
102
RTVSPost2010PropOp47
 70
     1
102
RTVSPost2010Prop48
 90
       50
102
RTVSPost2010PropOp48
 70
     1
102
RTVSPost2010Prop49
280
     0
102
RTVSPost2010PropOp49
 70
     1
102
RTVSPost2010Prop50
 90
       50
102
RTVSPost2010PropOp50
 70
     1
102
RTVSPost2010Prop51ColorIndex
 90
      256
102
RTVSPost2010Prop51ColorRGB
 90
-16777216
102
RTVSPost2010PropOp51
 70
     0
102
RTVSPost2010Prop52
140
1.0
102
RTVSPost2010PropOp52
 70
     0
102
RTVSPost2010Prop53
 90
        2
102
RTVSPost2010PropOp53
 70
     1
102
RTVSPost2010Prop54
  1
strokes_ogs.tif
102
RTVSPost2010PropOp54
 70
     1
102
RTVSPost2010Prop55
280
     0
102
RTVSPost2010PropOp55
 70
     1
102
RTVSPost2010Prop56
140
1.0
102
RTVSPost2010PropOp56
 70
     1
102
RTVSPost2010Prop57
140
1.0
102
RTVSPost2010PropOp57
 70
     1
  0
XRECORD
  5
48A
102
{ACAD_REACTORS
330
489
102
}
330
489
100
AcDbXrecord
280
     1
102
RTVSPropertyOp0
 70
     1
102
RTVSPropertyOp1
 70
     1
102
RTVSPropertyOp2
 70
     1
102
RTVSPropertyOp3
 70
     1
102
RTVSPropertyOp4
 70
     1
102
RTVSPropertyOp5
 70
     1
102
RTVSPropertyOp6
 70
     1
102
RTVSPropertyOp7
 70
     1
102
RTVSPropertyOp8
 70
     1
102
RTVSPropertyOp9
 70
     1
102
RTVSPropertyOp10
 70
     1
102
RTVSPropertyOp11
 70
     1
102
RTVSPropertyOp12
 70
     1
102
RTVSPropertyOp13
 70
     1
102
RTVSPropertyOp14
 70
     1
102
RTVSPropertyOp15
 70
     1
102
RTVSPropertyOp16
 70
     1
102
RTVSPropertyOp17
 70
     1
102
RTVSPropertyOp18
 70
     1
102
RTVSPropertyOp19
 70
     1
102
RTVSPropertyOp20
 70
     1
102
RTVSPropertyOp21
 70
     1
102
RTVSPropertyOp22
 70
     1
102
RTVSPropertyOp23
 70
     1
102
RTVSPropertyOp24
 70
     1
102
RTVSPropertyOp25
 70
     1
102
RTVSPropertyOp26
 70
     1
102
RTVSPropertyOp27
 70
     1
102
RTVSPropertyOp28
 70
     1
102
RTVSPropertyOp29
 70
     1
102
RTVSPropertyOp30
 70
     1
102
RTVSPropertyOp31
 70
     1
102
RTVSPropertyOp32
 70
     1
102
RTVSPropertyOp33
 70
     1
102
RTVSPropertyOp34
 70
     1
102
RTVSPropertyOp35
 70
     1
102
RTVSPropertyOp36
 70
     1
102
RTVSPropertyOp37
 70
     1
102
RTVSPropertyOp38
 70
     1
102
RTVSPropertyOp39
 70
     1
102
RTVSPropertyOp40
 70
     1
102
RTVSPropertyOp41
 70
     1
102
RTVSPropertyOp42
 70
     1
102
RTVSPropertyOp43
 70
     1
102
RTVSPropertyOp44
 70
     1
102
RTVSPropertyOp45
 70
     1
102
RTVSPropertyOp46
 70
     1
102
RTVSPropertyOp47
 70
     1
102
RTVSPropertyOp48
 70
     1
102
RTVSPropertyOp49
 70
     1
102
RTVSPropertyOp50
 70
     1
102
RTVSPropertyOp51
 70
     0
102
RTVSPropertyOp52
 70
     0
102
RTVSPropertyOp53
 70
     1
102
RTVSPropertyOp54
 70
     1
102
RTVSPropertyOp55
 70
     1
102
RTVSPropertyOp56
 70
     1
102
RTVSPropertyOp57
 70
     1
102
RTVSPost2010Prop28
280
     0
102
RTVSPost2010PropOp28
 70
     1
102
RTVSPost2010Prop29
280
     1
102
RTVSPost2010PropOp29
 70
     1
102
RTVSPost2010Prop30
280
     1
102
RTVSPost2010PropOp30
 70
     1
102
RTVSPost2010Prop31
280
     0
102
RTVSPost2010PropOp31
 70
     1
102
RTVSPost2010Prop32
280
     0
102
RTVSPost2010PropOp32
 70
     1
102
RTVSPost2010Prop33
280
     0
102
RTVSPost2010PropOp33
 70
     1
102
RTVSPost2010Prop34
280
     0
102
RTVSPost2010PropOp34
 70
     1
102
RTVSPost2010Prop35
280
     0
102
RTVSPost2010PropOp35
 70
     1
102
RTVSPost2010Prop36
280
     0
102
RTVSPost2010PropOp36
 70
     1
102
RTVSPost2010Prop37
 90
       50
102
RTVSPost2010PropOp37
 70
     1
102
RTVSPost2010Prop38
140
0.0
102
RTVSPost2010PropOp38
 70
     1
102
RTVSPost2010Prop39
140
1.0
102
RTVSPost2010PropOp39
 70
     1
102
RTVSPost2010Prop40
 90
        0
102
RTVSPost2010PropOp40
 70
     1
102
RTVSPost2010Prop41ColorIndex
 90
       18
102
RTVSPost2010Prop41ColorRGB
 90
        0
102
RTVSPost2010PropOp41
 70
     1
102
RTVSPost2010Prop42
 90
       50
102
RTVSPost2010PropOp42
 70
     1
102
RTVSPost2010Prop43
 90
        3
102
RTVSPost2010PropOp43
 70
     1
102
RTVSPost2010Prop44ColorIndex
 90
        5
102
RTVSPost2010Prop44ColorRGB
 90
      255
102
RTVSPost2010PropOp44
 70
     1
102
RTVSPost2010Prop45
280
     0
102
RTVSPost2010PropOp45
 70
     1
102
RTVSPost2010Prop46
 90
       50
102
RTVSPost2010PropOp46
 70
     1
102
RTVSPost2010Prop47
 90
       50
102
RTVSPost2010PropOp47
 70
     1
102
RTVSPost2010Prop48
 90
       50
102
RTVSPost2010PropOp48
 70
     1
102
RTVSPost2010Prop49
280
     0
102
RTVSPost2010PropOp49
 70
     1
102
RTVSPost2010Prop50
 90
       50
102
RTVSPost2010PropOp50
 70
     1
102
RTVSPost2010Prop51ColorIndex
 90
      256
102
RTVSPost2010Prop51ColorRGB
 90
-16777216
102
RTVSPost2010PropOp51
 70
     0
102
RTVSPost2010Prop52
140
1.0
102
RTVSPost2010PropOp52
 70
     0
102
RTVSPost2010Prop53
 90
        2
102
RTVSPost2010PropOp53
 70
     1
102
RTVSPost2010Prop54
  1
strokes_ogs.tif
102
RTVSPost2010PropOp54
 70
     1
102
RTVSPost2010Prop55
280
     0
102
RTVSPost2010PropOp55
 70
     1
102
RTVSPost2010Prop56
140
1.0
102
RTVSPost2010PropOp56
 70
     1
102
RTVSPost2010Prop57
140
1.0
102
RTVSPost2010PropOp57
 70
     1
  0
XRECORD
  5
492
102
{ACAD_REACTORS
330
491
102
}
330
491
100
AcDbXrecord
280
     1
102
RTVSPropertyOp0
 70
     1
102
RTVSPropertyOp1
 70
     1
102
RTVSPropertyOp2
 70
     1
102
RTVSPropertyOp3
 70
     1
102
RTVSPropertyOp4
 70
     1
102
RTVSPropertyOp5
 70
     1
102
RTVSPropertyOp6
 70
     1
102
RTVSPropertyOp7
 70
     1
102
RTVSPropertyOp8
 70
     1
102
RTVSPropertyOp9
 70
     1
102
RTVSPropertyOp10
 70
     1
102
RTVSPropertyOp11
 70
     1
102
RTVSPropertyOp12
 70
     1
102
RTVSPropertyOp13
 70
     1
102
RTVSPropertyOp14
 70
     1
102
RTVSPropertyOp15
 70
     1
102
RTVSPropertyOp16
 70
     1
102
RTVSPropertyOp17
 70
     1
102
RTVSPropertyOp18
 70
     1
102
RTVSPropertyOp19
 70
     1
102
RTVSPropertyOp20
 70
     1
102
RTVSPropertyOp21
 70
     1
102
RTVSPropertyOp22
 70
     1
102
RTVSPropertyOp23
 70
     1
102
RTVSPropertyOp24
 70
     1
102
RTVSPropertyOp25
 70
     1
102
RTVSPropertyOp26
 70
     1
102
RTVSPropertyOp27
 70
     1
102
RTVSPropertyOp28
 70
     1
102
RTVSPropertyOp29
 70
     1
102
RTVSPropertyOp30
 70
     1
102
RTVSPropertyOp31
 70
     1
102
RTVSPropertyOp32
 70
     1
102
RTVSPropertyOp33
 70
     1
102
RTVSPropertyOp34
 70
     1
102
RTVSPropertyOp35
 70
     1
102
RTVSPropertyOp36
 70
     1
102
RTVSPropertyOp37
 70
     1
102
RTVSPropertyOp38
 70
     1
102
RTVSPropertyOp39
 70
     1
102
RTVSPropertyOp40
 70
     1
102
RTVSPropertyOp41
 70
     1
102
RTVSPropertyOp42
 70
     1
102
RTVSPropertyOp43
 70
     1
102
RTVSPropertyOp44
 70
     1
102
RTVSPropertyOp45
 70
     1
102
RTVSPropertyOp46
 70
     1
102
RTVSPropertyOp47
 70
     1
102
RTVSPropertyOp48
 70
     1
102
RTVSPropertyOp49
 70
     1
102
RTVSPropertyOp50
 70
     1
102
RTVSPropertyOp51
 70
     0
102
RTVSPropertyOp52
 70
     0
102
RTVSPropertyOp53
 70
     1
102
RTVSPropertyOp54
 70
     1
102
RTVSPropertyOp55
 70
     1
102
RTVSPropertyOp56
 70
     1
102
RTVSPropertyOp57
 70
     1
102
RTVSPost2010Prop28
280
     0
102
RTVSPost2010PropOp28
 70
     1
102
RTVSPost2010Prop29
280
     1
102
RTVSPost2010PropOp29
 70
     1
102
RTVSPost2010Prop30
280
     1
102
RTVSPost2010PropOp30
 70
     1
102
RTVSPost2010Prop31
280
     0
102
RTVSPost2010PropOp31
 70
     1
102
RTVSPost2010Prop32
280
     0
102
RTVSPost2010PropOp32
 70
     1
102
RTVSPost2010Prop33
280
     0
102
RTVSPost2010PropOp33
 70
     1
102
RTVSPost2010Prop34
280
     0
102
RTVSPost2010PropOp34
 70
     1
102
RTVSPost2010Prop35
280
     0
102
RTVSPost2010PropOp35
 70
     1
102
RTVSPost2010Prop36
280
     0
102
RTVSPost2010PropOp36
 70
     1
102
RTVSPost2010Prop37
 90
       50
102
RTVSPost2010PropOp37
 70
     1
102
RTVSPost2010Prop38
140
0.0
102
RTVSPost2010PropOp38
 70
     1
102
RTVSPost2010Prop39
140
1.0
102
RTVSPost2010PropOp39
 70
     1
102
RTVSPost2010Prop40
 90
        0
102
RTVSPost2010PropOp40
 70
     1
102
RTVSPost2010Prop41ColorIndex
 90
       18
102
RTVSPost2010Prop41ColorRGB
 90
        0
102
RTVSPost2010PropOp41
 70
     1
102
RTVSPost2010Prop42
 90
       50
102
RTVSPost2010PropOp42
 70
     1
102
RTVSPost2010Prop43
 90
        3
102
RTVSPost2010PropOp43
 70
     1
102
RTVSPost2010Prop44ColorIndex
 90
        5
102
RTVSPost2010Prop44ColorRGB
 90
      255
102
RTVSPost2010PropOp44
 70
     1
102
RTVSPost2010Prop45
280
     0
102
RTVSPost2010PropOp45
 70
     1
102
RTVSPost2010Prop46
 90
       50
102
RTVSPost2010PropOp46
 70
     1
102
RTVSPost2010Prop47
 90
       50
102
RTVSPost2010PropOp47
 70
     1
102
RTVSPost2010Prop48
 90
       50
102
RTVSPost2010PropOp48
 70
     1
102
RTVSPost2010Prop49
280
     0
102
RTVSPost2010PropOp49
 70
     1
102
RTVSPost2010Prop50
 90
       50
102
RTVSPost2010PropOp50
 70
     1
102
RTVSPost2010Prop51ColorIndex
 90
      256
102
RTVSPost2010Prop51ColorRGB
 90
-16777216
102
RTVSPost2010PropOp51
 70
     0
102
RTVSPost2010Prop52
140
1.0
102
RTVSPost2010PropOp52
 70
     0
102
RTVSPost2010Prop53
 90
        2
102
RTVSPost2010PropOp53
 70
     1
102
RTVSPost2010Prop54
  1
strokes_ogs.tif
102
RTVSPost2010PropOp54
 70
     1
102
RTVSPost2010Prop55
280
     0
102
RTVSPost2010PropOp55
 70
     1
102
RTVSPost2010Prop56
140
1.0
102
RTVSPost2010PropOp56
 70
     1
102
RTVSPost2010Prop57
140
1.0
102
RTVSPost2010PropOp57
 70
     1
  0
XRECORD
  5
49A
102
{ACAD_REACTORS
330
499
102
}
330
499
100
AcDbXrecord
280
     1
102
RTVSPropertyOp0
 70
     1
102
RTVSPropertyOp1
 70
     1
102
RTVSPropertyOp2
 70
     1
102
RTVSPropertyOp3
 70
     1
102
RTVSPropertyOp4
 70
     1
102
RTVSPropertyOp5
 70
     1
102
RTVSPropertyOp6
 70
     1
102
RTVSPropertyOp7
 70
     1
102
RTVSPropertyOp8
 70
     1
102
RTVSPropertyOp9
 70
     1
102
RTVSPropertyOp10
 70
     1
102
RTVSPropertyOp11
 70
     1
102
RTVSPropertyOp12
 70
     1
102
RTVSPropertyOp13
 70
     1
102
RTVSPropertyOp14
 70
     1
102
RTVSPropertyOp15
 70
     1
102
RTVSPropertyOp16
 70
     1
102
RTVSPropertyOp17
 70
     1
102
RTVSPropertyOp18
 70
     1
102
RTVSPropertyOp19
 70
     1
102
RTVSPropertyOp20
 70
     1
102
RTVSPropertyOp21
 70
     1
102
RTVSPropertyOp22
 70
     1
102
RTVSPropertyOp23
 70
     1
102
RTVSPropertyOp24
 70
     1
102
RTVSPropertyOp25
 70
     1
102
RTVSPropertyOp26
 70
     1
102
RTVSPropertyOp27
 70
     1
102
RTVSPropertyOp28
 70
     1
102
RTVSPropertyOp29
 70
     1
102
RTVSPropertyOp30
 70
     1
102
RTVSPropertyOp31
 70
     1
102
RTVSPropertyOp32
 70
     1
102
RTVSPropertyOp33
 70
     1
102
RTVSPropertyOp34
 70
     1
102
RTVSPropertyOp35
 70
     1
102
RTVSPropertyOp36
 70
     1
102
RTVSPropertyOp37
 70
     1
102
RTVSPropertyOp38
 70
     1
102
RTVSPropertyOp39
 70
     1
102
RTVSPropertyOp40
 70
     1
102
RTVSPropertyOp41
 70
     1
102
RTVSPropertyOp42
 70
     1
102
RTVSPropertyOp43
 70
     1
102
RTVSPropertyOp44
 70
     1
102
RTVSPropertyOp45
 70
     1
102
RTVSPropertyOp46
 70
     1
102
RTVSPropertyOp47
 70
     1
102
RTVSPropertyOp48
 70
     1
102
RTVSPropertyOp49
 70
     1
102
RTVSPropertyOp50
 70
     1
102
RTVSPropertyOp51
 70
     0
102
RTVSPropertyOp52
 70
     0
102
RTVSPropertyOp53
 70
     1
102
RTVSPropertyOp54
 70
     1
102
RTVSPropertyOp55
 70
     1
102
RTVSPropertyOp56
 70
     1
102
RTVSPropertyOp57
 70
     1
102
RTVSPost2010Prop28
280
     0
102
RTVSPost2010PropOp28
 70
     1
102
RTVSPost2010Prop29
280
     1
102
RTVSPost2010PropOp29
 70
     1
102
RTVSPost2010Prop30
280
     1
102
RTVSPost2010PropOp30
 70
     1
102
RTVSPost2010Prop31
280
     0
102
RTVSPost2010PropOp31
 70
     1
102
RTVSPost2010Prop32
280
     0
102
RTVSPost2010PropOp32
 70
     1
102
RTVSPost2010Prop33
280
     0
102
RTVSPost2010PropOp33
 70
     1
102
RTVSPost2010Prop34
280
     0
102
RTVSPost2010PropOp34
 70
     1
102
RTVSPost2010Prop35
280
     0
102
RTVSPost2010PropOp35
 70
     1
102
RTVSPost2010Prop36
280
     0
102
RTVSPost2010PropOp36
 70
     1
102
RTVSPost2010Prop37
 90
       50
102
RTVSPost2010PropOp37
 70
     1
102
RTVSPost2010Prop38
140
0.0
102
RTVSPost2010PropOp38
 70
     1
102
RTVSPost2010Prop39
140
1.0
102
RTVSPost2010PropOp39
 70
     1
102
RTVSPost2010Prop40
 90
        0
102
RTVSPost2010PropOp40
 70
     1
102
RTVSPost2010Prop41ColorIndex
 90
       18
102
RTVSPost2010Prop41ColorRGB
 90
        0
102
RTVSPost2010PropOp41
 70
     1
102
RTVSPost2010Prop42
 90
       50
102
RTVSPost2010PropOp42
 70
     1
102
RTVSPost2010Prop43
 90
        3
102
RTVSPost2010PropOp43
 70
     1
102
RTVSPost2010Prop44ColorIndex
 90
        5
102
RTVSPost2010Prop44ColorRGB
 90
      255
102
RTVSPost2010PropOp44
 70
     1
102
RTVSPost2010Prop45
280
     0
102
RTVSPost2010PropOp45
 70
     1
102
RTVSPost2010Prop46
 90
       50
102
RTVSPost2010PropOp46
 70
     1
102
RTVSPost2010Prop47
 90
       50
102
RTVSPost2010PropOp47
 70
     1
102
RTVSPost2010Prop48
 90
       50
102
RTVSPost2010PropOp48
 70
     1
102
RTVSPost2010Prop49
280
     0
102
RTVSPost2010PropOp49
 70
     1
102
RTVSPost2010Prop50
 90
       50
102
RTVSPost2010PropOp50
 70
     1
102
RTVSPost2010Prop51ColorIndex
 90
      256
102
RTVSPost2010Prop51ColorRGB
 90
-16777216
102
RTVSPost2010PropOp51
 70
     0
102
RTVSPost2010Prop52
140
1.0
102
RTVSPost2010PropOp52
 70
     0
102
RTVSPost2010Prop53
 90
        2
102
RTVSPost2010PropOp53
 70
     1
102
RTVSPost2010Prop54
  1
strokes_ogs.tif
102
RTVSPost2010PropOp54
 70
     1
102
RTVSPost2010Prop55
280
     0
102
RTVSPost2010PropOp55
 70
     1
102
RTVSPost2010Prop56
140
1.0
102
RTVSPost2010PropOp56
 70
     1
102
RTVSPost2010Prop57
140
1.0
102
RTVSPost2010PropOp57
 70
     1
  0
XRECORD
  5
48E
102
{ACAD_REACTORS
330
48D
102
}
330
48D
100
AcDbXrecord
280
     1
102
RTVSPropertyOp0
 70
     1
102
RTVSPropertyOp1
 70
     1
102
RTVSPropertyOp2
 70
     1
102
RTVSPropertyOp3
 70
     1
102
RTVSPropertyOp4
 70
     1
102
RTVSPropertyOp5
 70
     1
102
RTVSPropertyOp6
 70
     1
102
RTVSPropertyOp7
 70
     1
102
RTVSPropertyOp8
 70
     1
102
RTVSPropertyOp9
 70
     1
102
RTVSPropertyOp10
 70
     1
102
RTVSPropertyOp11
 70
     1
102
RTVSPropertyOp12
 70
     1
102
RTVSPropertyOp13
 70
     1
102
RTVSPropertyOp14
 70
     1
102
RTVSPropertyOp15
 70
     1
102
RTVSPropertyOp16
 70
     1
102
RTVSPropertyOp17
 70
     1
102
RTVSPropertyOp18
 70
     1
102
RTVSPropertyOp19
 70
     1
102
RTVSPropertyOp20
 70
     1
102
RTVSPropertyOp21
 70
     1
102
RTVSPropertyOp22
 70
     1
102
RTVSPropertyOp23
 70
     1
102
RTVSPropertyOp24
 70
     1
102
RTVSPropertyOp25
 70
     1
102
RTVSPropertyOp26
 70
     1
102
RTVSPropertyOp27
 70
     1
102
RTVSPropertyOp28
 70
     1
102
RTVSPropertyOp29
 70
     1
102
RTVSPropertyOp30
 70
     1
102
RTVSPropertyOp31
 70
     1
102
RTVSPropertyOp32
 70
     1
102
RTVSPropertyOp33
 70
     1
102
RTVSPropertyOp34
 70
     1
102
RTVSPropertyOp35
 70
     1
102
RTVSPropertyOp36
 70
     1
102
RTVSPropertyOp37
 70
     1
102
RTVSPropertyOp38
 70
     1
102
RTVSPropertyOp39
 70
     1
102
RTVSPropertyOp40
 70
     1
102
RTVSPropertyOp41
 70
     1
102
RTVSPropertyOp42
 70
     1
102
RTVSPropertyOp43
 70
     1
102
RTVSPropertyOp44
 70
     1
102
RTVSPropertyOp45
 70
     1
102
RTVSPropertyOp46
 70
     1
102
RTVSPropertyOp47
 70
     1
102
RTVSPropertyOp48
 70
     1
102
RTVSPropertyOp49
 70
     1
102
RTVSPropertyOp50
 70
     1
102
RTVSPropertyOp51
 70
     0
102
RTVSPropertyOp52
 70
     0
102
RTVSPropertyOp53
 70
     1
102
RTVSPropertyOp54
 70
     1
102
RTVSPropertyOp55
 70
     1
102
RTVSPropertyOp56
 70
     1
102
RTVSPropertyOp57
 70
     1
102
RTVSPost2010Prop28
280
     0
102
RTVSPost2010PropOp28
 70
     1
102
RTVSPost2010Prop29
280
     1
102
RTVSPost2010PropOp29
 70
     1
102
RTVSPost2010Prop30
280
     1
102
RTVSPost2010PropOp30
 70
     1
102
RTVSPost2010Prop31
280
     0
102
RTVSPost2010PropOp31
 70
     1
102
RTVSPost2010Prop32
280
     0
102
RTVSPost2010PropOp32
 70
     1
102
RTVSPost2010Prop33
280
     0
102
RTVSPost2010PropOp33
 70
     1
102
RTVSPost2010Prop34
280
     0
102
RTVSPost2010PropOp34
 70
     1
102
RTVSPost2010Prop35
280
     0
102
RTVSPost2010PropOp35
 70
     1
102
RTVSPost2010Prop36
280
     0
102
RTVSPost2010PropOp36
 70
     1
102
RTVSPost2010Prop37
 90
       50
102
RTVSPost2010PropOp37
 70
     1
102
RTVSPost2010Prop38
140
0.0
102
RTVSPost2010PropOp38
 70
     1
102
RTVSPost2010Prop39
140
1.0
102
RTVSPost2010PropOp39
 70
     1
102
RTVSPost2010Prop40
 90
        0
102
RTVSPost2010PropOp40
 70
     1
102
RTVSPost2010Prop41ColorIndex
 90
       18
102
RTVSPost2010Prop41ColorRGB
 90
        0
102
RTVSPost2010PropOp41
 70
     1
102
RTVSPost2010Prop42
 90
       50
102
RTVSPost2010PropOp42
 70
     1
102
RTVSPost2010Prop43
 90
        3
102
RTVSPost2010PropOp43
 70
     1
102
RTVSPost2010Prop44ColorIndex
 90
        5
102
RTVSPost2010Prop44ColorRGB
 90
      255
102
RTVSPost2010PropOp44
 70
     1
102
RTVSPost2010Prop45
280
     0
102
RTVSPost2010PropOp45
 70
     1
102
RTVSPost2010Prop46
 90
       50
102
RTVSPost2010PropOp46
 70
     1
102
RTVSPost2010Prop47
 90
       50
102
RTVSPost2010PropOp47
 70
     1
102
RTVSPost2010Prop48
 90
       50
102
RTVSPost2010PropOp48
 70
     1
102
RTVSPost2010Prop49
280
     0
102
RTVSPost2010PropOp49
 70
     1
102
RTVSPost2010Prop50
 90
       50
102
RTVSPost2010PropOp50
 70
     1
102
RTVSPost2010Prop51ColorIndex
 90
      256
102
RTVSPost2010Prop51ColorRGB
 90
-16777216
102
RTVSPost2010PropOp51
 70
     0
102
RTVSPost2010Prop52
140
1.0
102
RTVSPost2010PropOp52
 70
     0
102
RTVSPost2010Prop53
 90
        2
102
RTVSPost2010PropOp53
 70
     1
102
RTVSPost2010Prop54
  1
strokes_ogs.tif
102
RTVSPost2010PropOp54
 70
     1
102
RTVSPost2010Prop55
280
     0
102
RTVSPost2010PropOp55
 70
     1
102
RTVSPost2010Prop56
140
1.0
102
RTVSPost2010PropOp56
 70
     1
102
RTVSPost2010Prop57
140
1.0
102
RTVSPost2010PropOp57
 70
     1
  0
XRECORD
  5
490
102
{ACAD_REACTORS
330
48F
102
}
330
48F
100
AcDbXrecord
280
     1
102
RTVSPropertyOp0
 70
     1
102
RTVSPropertyOp1
 70
     1
102
RTVSPropertyOp2
 70
     1
102
RTVSPropertyOp3
 70
     1
102
RTVSPropertyOp4
 70
     1
102
RTVSPropertyOp5
 70
     1
102
RTVSPropertyOp6
 70
     1
102
RTVSPropertyOp7
 70
     1
102
RTVSPropertyOp8
 70
     1
102
RTVSPropertyOp9
 70
     1
102
RTVSPropertyOp10
 70
     1
102
RTVSPropertyOp11
 70
     1
102
RTVSPropertyOp12
 70
     1
102
RTVSPropertyOp13
 70
     1
102
RTVSPropertyOp14
 70
     1
102
RTVSPropertyOp15
 70
     1
102
RTVSPropertyOp16
 70
     1
102
RTVSPropertyOp17
 70
     1
102
RTVSPropertyOp18
 70
     1
102
RTVSPropertyOp19
 70
     1
102
RTVSPropertyOp20
 70
     1
102
RTVSPropertyOp21
 70
     1
102
RTVSPropertyOp22
 70
     1
102
RTVSPropertyOp23
 70
     1
102
RTVSPropertyOp24
 70
     1
102
RTVSPropertyOp25
 70
     1
102
RTVSPropertyOp26
 70
     1
102
RTVSPropertyOp27
 70
     1
102
RTVSPropertyOp28
 70
     1
102
RTVSPropertyOp29
 70
     1
102
RTVSPropertyOp30
 70
     1
102
RTVSPropertyOp31
 70
     1
102
RTVSPropertyOp32
 70
     1
102
RTVSPropertyOp33
 70
     1
102
RTVSPropertyOp34
 70
     1
102
RTVSPropertyOp35
 70
     1
102
RTVSPropertyOp36
 70
     1
102
RTVSPropertyOp37
 70
     1
102
RTVSPropertyOp38
 70
     1
102
RTVSPropertyOp39
 70
     1
102
RTVSPropertyOp40
 70
     1
102
RTVSPropertyOp41
 70
     1
102
RTVSPropertyOp42
 70
     1
102
RTVSPropertyOp43
 70
     1
102
RTVSPropertyOp44
 70
     1
102
RTVSPropertyOp45
 70
     1
102
RTVSPropertyOp46
 70
     1
102
RTVSPropertyOp47
 70
     1
102
RTVSPropertyOp48
 70
     1
102
RTVSPropertyOp49
 70
     1
102
RTVSPropertyOp50
 70
     1
102
RTVSPropertyOp51
 70
     0
102
RTVSPropertyOp52
 70
     0
102
RTVSPropertyOp53
 70
     1
102
RTVSPropertyOp54
 70
     1
102
RTVSPropertyOp55
 70
     1
102
RTVSPropertyOp56
 70
     1
102
RTVSPropertyOp57
 70
     1
102
RTVSPost2010Prop28
280
     0
102
RTVSPost2010PropOp28
 70
     1
102
RTVSPost2010Prop29
280
     1
102
RTVSPost2010PropOp29
 70
     1
102
RTVSPost2010Prop30
280
     1
102
RTVSPost2010PropOp30
 70
     1
102
RTVSPost2010Prop31
280
     0
102
RTVSPost2010PropOp31
 70
     1
102
RTVSPost2010Prop32
280
     0
102
RTVSPost2010PropOp32
 70
     1
102
RTVSPost2010Prop33
280
     0
102
RTVSPost2010PropOp33
 70
     1
102
RTVSPost2010Prop34
280
     0
102
RTVSPost2010PropOp34
 70
     1
102
RTVSPost2010Prop35
280
     0
102
RTVSPost2010PropOp35
 70
     1
102
RTVSPost2010Prop36
280
     0
102
RTVSPost2010PropOp36
 70
     1
102
RTVSPost2010Prop37
 90
       50
102
RTVSPost2010PropOp37
 70
     1
102
RTVSPost2010Prop38
140
0.0
102
RTVSPost2010PropOp38
 70
     1
102
RTVSPost2010Prop39
140
1.0
102
RTVSPost2010PropOp39
 70
     1
102
RTVSPost2010Prop40
 90
        0
102
RTVSPost2010PropOp40
 70
     1
102
RTVSPost2010Prop41ColorIndex
 90
       18
102
RTVSPost2010Prop41ColorRGB
 90
        0
102
RTVSPost2010PropOp41
 70
     1
102
RTVSPost2010Prop42
 90
       50
102
RTVSPost2010PropOp42
 70
     1
102
RTVSPost2010Prop43
 90
        3
102
RTVSPost2010PropOp43
 70
     1
102
RTVSPost2010Prop44ColorIndex
 90
        5
102
RTVSPost2010Prop44ColorRGB
 90
      255
102
RTVSPost2010PropOp44
 70
     1
102
RTVSPost2010Prop45
280
     0
102
RTVSPost2010PropOp45
 70
     1
102
RTVSPost2010Prop46
 90
       50
102
RTVSPost2010PropOp46
 70
     1
102
RTVSPost2010Prop47
 90
       50
102
RTVSPost2010PropOp47
 70
     1
102
RTVSPost2010Prop48
 90
       50
102
RTVSPost2010PropOp48
 70
     1
102
RTVSPost2010Prop49
280
     0
102
RTVSPost2010PropOp49
 70
     1
102
RTVSPost2010Prop50
 90
       50
102
RTVSPost2010PropOp50
 70
     1
102
RTVSPost2010Prop51ColorIndex
 90
      256
102
RTVSPost2010Prop51ColorRGB
 90
-16777216
102
RTVSPost2010PropOp51
 70
     0
102
RTVSPost2010Prop52
140
1.0
102
RTVSPost2010PropOp52
 70
     0
102
RTVSPost2010Prop53
 90
        2
102
RTVSPost2010PropOp53
 70
     1
102
RTVSPost2010Prop54
  1
strokes_ogs.tif
102
RTVSPost2010PropOp54
 70
     1
102
RTVSPost2010Prop55
280
     0
102
RTVSPost2010PropOp55
 70
     1
102
RTVSPost2010Prop56
140
1.0
102
RTVSPost2010PropOp56
 70
     1
102
RTVSPost2010Prop57
140
1.0
102
RTVSPost2010PropOp57
 70
     1
  0
XRECORD
  5
4A0
102
{ACAD_REACTORS
330
49F
102
}
330
49F
100
AcDbXrecord
280
     1
102
RTVSPropertyOp0
 70
     0
102
RTVSPropertyOp1
 70
     0
102
RTVSPropertyOp2
 70
     0
102
RTVSPropertyOp3
 70
     0
102
RTVSPropertyOp4
 70
     0
102
RTVSPropertyOp5
 70
     0
102
RTVSPropertyOp6
 70
     0
102
RTVSPropertyOp7
 70
     0
102
RTVSPropertyOp8
 70
     0
102
RTVSPropertyOp9
 70
     0
102
RTVSPropertyOp10
 70
     0
102
RTVSPropertyOp11
 70
     0
102
RTVSPropertyOp12
 70
     0
102
RTVSPropertyOp13
 70
     0
102
RTVSPropertyOp14
 70
     0
102
RTVSPropertyOp15
 70
     0
102
RTVSPropertyOp16
 70
     0
102
RTVSPropertyOp17
 70
     0
102
RTVSPropertyOp18
 70
     0
102
RTVSPropertyOp19
 70
     0
102
RTVSPropertyOp20
 70
     0
102
RTVSPropertyOp21
 70
     0
102
RTVSPropertyOp22
 70
     0
102
RTVSPropertyOp23
 70
     0
102
RTVSPropertyOp24
 70
     0
102
RTVSPropertyOp25
 70
     0
102
RTVSPropertyOp26
 70
     0
102
RTVSPropertyOp27
 70
     0
102
RTVSPropertyOp28
 70
     1
102
RTVSPropertyOp29
 70
     1
102
RTVSPropertyOp30
 70
     1
102
RTVSPropertyOp31
 70
     1
102
RTVSPropertyOp32
 70
     1
102
RTVSPropertyOp33
 70
     1
102
RTVSPropertyOp34
 70
     1
102
RTVSPropertyOp35
 70
     1
102
RTVSPropertyOp36
 70
     1
102
RTVSPropertyOp37
 70
     1
102
RTVSPropertyOp38
 70
     1
102
RTVSPropertyOp39
 70
     1
102
RTVSPropertyOp40
 70
     1
102
RTVSPropertyOp41
 70
     1
102
RTVSPropertyOp42
 70
     1
102
RTVSPropertyOp43
 70
     1
102
RTVSPropertyOp44
 70
     1
102
RTVSPropertyOp45
 70
     1
102
RTVSPropertyOp46
 70
     1
102
RTVSPropertyOp47
 70
     1
102
RTVSPropertyOp48
 70
     1
102
RTVSPropertyOp49
 70
     1
102
RTVSPropertyOp50
 70
     1
102
RTVSPropertyOp51
 70
     0
102
RTVSPropertyOp52
 70
     0
102
RTVSPropertyOp53
 70
     1
102
RTVSPropertyOp54
 70
     1
102
RTVSPropertyOp55
 70
     1
102
RTVSPropertyOp56
 70
     1
102
RTVSPropertyOp57
 70
     1
102
RTVSPost2010Prop28
280
     0
102
RTVSPost2010PropOp28
 70
     1
102
RTVSPost2010Prop29
280
     1
102
RTVSPost2010PropOp29
 70
     1
102
RTVSPost2010Prop30
280
     1
102
RTVSPost2010PropOp30
 70
     1
102
RTVSPost2010Prop31
280
     0
102
RTVSPost2010PropOp31
 70
     1
102
RTVSPost2010Prop32
280
     0
102
RTVSPost2010PropOp32
 70
     1
102
RTVSPost2010Prop33
280
     0
102
RTVSPost2010PropOp33
 70
     1
102
RTVSPost2010Prop34
280
     0
102
RTVSPost2010PropOp34
 70
     1
102
RTVSPost2010Prop35
280
     0
102
RTVSPost2010PropOp35
 70
     1
102
RTVSPost2010Prop36
280
     0
102
RTVSPost2010PropOp36
 70
     1
102
RTVSPost2010Prop37
 90
       50
102
RTVSPost2010PropOp37
 70
     1
102
RTVSPost2010Prop38
140
0.0
102
RTVSPost2010PropOp38
 70
     1
102
RTVSPost2010Prop39
140
1.0
102
RTVSPost2010PropOp39
 70
     1
102
RTVSPost2010Prop40
 90
        0
102
RTVSPost2010PropOp40
 70
     1
102
RTVSPost2010Prop41ColorIndex
 90
       18
102
RTVSPost2010Prop41ColorRGB
 90
        0
102
RTVSPost2010PropOp41
 70
     1
102
RTVSPost2010Prop42
 90
       50
102
RTVSPost2010PropOp42
 70
     1
102
RTVSPost2010Prop43
 90
        3
102
RTVSPost2010PropOp43
 70
     1
102
RTVSPost2010Prop44ColorIndex
 90
        5
102
RTVSPost2010Prop44ColorRGB
 90
      255
102
RTVSPost2010PropOp44
 70
     1
102
RTVSPost2010Prop45
280
     0
102
RTVSPost2010PropOp45
 70
     1
102
RTVSPost2010Prop46
 90
       50
102
RTVSPost2010PropOp46
 70
     1
102
RTVSPost2010Prop47
 90
       50
102
RTVSPost2010PropOp47
 70
     1
102
RTVSPost2010Prop48
 90
       50
102
RTVSPost2010PropOp48
 70
     1
102
RTVSPost2010Prop49
280
     0
102
RTVSPost2010PropOp49
 70
     1
102
RTVSPost2010Prop50
 90
       50
102
RTVSPost2010PropOp50
 70
     1
102
RTVSPost2010Prop51ColorIndex
 90
      256
102
RTVSPost2010Prop51ColorRGB
 90
-16777216
102
RTVSPost2010PropOp51
 70
     0
102
RTVSPost2010Prop52
140
1.0
102
RTVSPost2010PropOp52
 70
     0
102
RTVSPost2010Prop53
 90
        2
102
RTVSPost2010PropOp53
 70
     1
102
RTVSPost2010Prop54
  1
strokes_ogs.tif
102
RTVSPost2010PropOp54
 70
     1
102
RTVSPost2010Prop55
280
     0
102
RTVSPost2010PropOp55
 70
     1
102
RTVSPost2010Prop56
140
1.0
102
RTVSPost2010PropOp56
 70
     1
102
RTVSPost2010Prop57
140
1.0
102
RTVSPost2010PropOp57
 70
     1
  0
XRECORD
  5
498
102
{ACAD_REACTORS
330
497
102
}
330
497
100
AcDbXrecord
280
     1
102
RTVSPropertyOp0
 70
     1
102
RTVSPropertyOp1
 70
     1
102
RTVSPropertyOp2
 70
     1
102
RTVSPropertyOp3
 70
     1
102
RTVSPropertyOp4
 70
     1
102
RTVSPropertyOp5
 70
     1
102
RTVSPropertyOp6
 70
     1
102
RTVSPropertyOp7
 70
     1
102
RTVSPropertyOp8
 70
     1
102
RTVSPropertyOp9
 70
     1
102
RTVSPropertyOp10
 70
     1
102
RTVSPropertyOp11
 70
     1
102
RTVSPropertyOp12
 70
     1
102
RTVSPropertyOp13
 70
     1
102
RTVSPropertyOp14
 70
     1
102
RTVSPropertyOp15
 70
     1
102
RTVSPropertyOp16
 70
     1
102
RTVSPropertyOp17
 70
     1
102
RTVSPropertyOp18
 70
     1
102
RTVSPropertyOp19
 70
     1
102
RTVSPropertyOp20
 70
     1
102
RTVSPropertyOp21
 70
     1
102
RTVSPropertyOp22
 70
     1
102
RTVSPropertyOp23
 70
     1
102
RTVSPropertyOp24
 70
     1
102
RTVSPropertyOp25
 70
     1
102
RTVSPropertyOp26
 70
     1
102
RTVSPropertyOp27
 70
     1
102
RTVSPropertyOp28
 70
     1
102
RTVSPropertyOp29
 70
     1
102
RTVSPropertyOp30
 70
     1
102
RTVSPropertyOp31
 70
     1
102
RTVSPropertyOp32
 70
     1
102
RTVSPropertyOp33
 70
     1
102
RTVSPropertyOp34
 70
     1
102
RTVSPropertyOp35
 70
     1
102
RTVSPropertyOp36
 70
     1
102
RTVSPropertyOp37
 70
     1
102
RTVSPropertyOp38
 70
     1
102
RTVSPropertyOp39
 70
     1
102
RTVSPropertyOp40
 70
     1
102
RTVSPropertyOp41
 70
     1
102
RTVSPropertyOp42
 70
     1
102
RTVSPropertyOp43
 70
     1
102
RTVSPropertyOp44
 70
     1
102
RTVSPropertyOp45
 70
     1
102
RTVSPropertyOp46
 70
     1
102
RTVSPropertyOp47
 70
     1
102
RTVSPropertyOp48
 70
     1
102
RTVSPropertyOp49
 70
     1
102
RTVSPropertyOp50
 70
     1
102
RTVSPropertyOp51
 70
     0
102
RTVSPropertyOp52
 70
     0
102
RTVSPropertyOp53
 70
     1
102
RTVSPropertyOp54
 70
     1
102
RTVSPropertyOp55
 70
     1
102
RTVSPropertyOp56
 70
     1
102
RTVSPropertyOp57
 70
     1
102
RTVSPost2010Prop28
280
     0
102
RTVSPost2010PropOp28
 70
     1
102
RTVSPost2010Prop29
280
     1
102
RTVSPost2010PropOp29
 70
     1
102
RTVSPost2010Prop30
280
     1
102
RTVSPost2010PropOp30
 70
     1
102
RTVSPost2010Prop31
280
     0
102
RTVSPost2010PropOp31
 70
     1
102
RTVSPost2010Prop32
280
     0
102
RTVSPost2010PropOp32
 70
     1
102
RTVSPost2010Prop33
280
     0
102
RTVSPost2010PropOp33
 70
     1
102
RTVSPost2010Prop34
280
     0
102
RTVSPost2010PropOp34
 70
     1
102
RTVSPost2010Prop35
280
     0
102
RTVSPost2010PropOp35
 70
     1
102
RTVSPost2010Prop36
280
     0
102
RTVSPost2010PropOp36
 70
     1
102
RTVSPost2010Prop37
 90
       50
102
RTVSPost2010PropOp37
 70
     1
102
RTVSPost2010Prop38
140
0.0
102
RTVSPost2010PropOp38
 70
     1
102
RTVSPost2010Prop39
140
1.0
102
RTVSPost2010PropOp39
 70
     1
102
RTVSPost2010Prop40
 90
        0
102
RTVSPost2010PropOp40
 70
     1
102
RTVSPost2010Prop41ColorIndex
 90
       18
102
RTVSPost2010Prop41ColorRGB
 90
        0
102
RTVSPost2010PropOp41
 70
     1
102
RTVSPost2010Prop42
 90
       50
102
RTVSPost2010PropOp42
 70
     1
102
RTVSPost2010Prop43
 90
        3
102
RTVSPost2010PropOp43
 70
     1
102
RTVSPost2010Prop44ColorIndex
 90
        5
102
RTVSPost2010Prop44ColorRGB
 90
      255
102
RTVSPost2010PropOp44
 70
     1
102
RTVSPost2010Prop45
280
     0
102
RTVSPost2010PropOp45
 70
     1
102
RTVSPost2010Prop46
 90
       50
102
RTVSPost2010PropOp46
 70
     1
102
RTVSPost2010Prop47
 90
       50
102
RTVSPost2010PropOp47
 70
     1
102
RTVSPost2010Prop48
 90
       50
102
RTVSPost2010PropOp48
 70
     1
102
RTVSPost2010Prop49
280
     0
102
RTVSPost2010PropOp49
 70
     1
102
RTVSPost2010Prop50
 90
       50
102
RTVSPost2010PropOp50
 70
     1
102
RTVSPost2010Prop51ColorIndex
 90
      256
102
RTVSPost2010Prop51ColorRGB
 90
-16777216
102
RTVSPost2010PropOp51
 70
     0
102
RTVSPost2010Prop52
140
1.0
102
RTVSPost2010PropOp52
 70
     0
102
RTVSPost2010Prop53
 90
        2
102
RTVSPost2010PropOp53
 70
     1
102
RTVSPost2010Prop54
  1
strokes_ogs.tif
102
RTVSPost2010PropOp54
 70
     1
102
RTVSPost2010Prop55
280
     0
102
RTVSPost2010PropOp55
 70
     1
102
RTVSPost2010Prop56
140
1.0
102
RTVSPost2010PropOp56
 70
     1
102
RTVSPost2010Prop57
140
1.0
102
RTVSPost2010PropOp57
 70
     1
  0
XRECORD
  5
47C
102
{ACAD_REACTORS
330
47B
102
}
330
47B
100
AcDbXrecord
280
     1
102
RTVSPropertyOp0
 70
     1
102
RTVSPropertyOp1
 70
     1
102
RTVSPropertyOp2
 70
     1
102
RTVSPropertyOp3
 70
     1
102
RTVSPropertyOp4
 70
     1
102
RTVSPropertyOp5
 70
     1
102
RTVSPropertyOp6
 70
     1
102
RTVSPropertyOp7
 70
     1
102
RTVSPropertyOp8
 70
     1
102
RTVSPropertyOp9
 70
     1
102
RTVSPropertyOp10
 70
     1
102
RTVSPropertyOp11
 70
     1
102
RTVSPropertyOp12
 70
     1
102
RTVSPropertyOp13
 70
     1
102
RTVSPropertyOp14
 70
     1
102
RTVSPropertyOp15
 70
     1
102
RTVSPropertyOp16
 70
     1
102
RTVSPropertyOp17
 70
     1
102
RTVSPropertyOp18
 70
     1
102
RTVSPropertyOp19
 70
     1
102
RTVSPropertyOp20
 70
     1
102
RTVSPropertyOp21
 70
     1
102
RTVSPropertyOp22
 70
     1
102
RTVSPropertyOp23
 70
     1
102
RTVSPropertyOp24
 70
     1
102
RTVSPropertyOp25
 70
     1
102
RTVSPropertyOp26
 70
     1
102
RTVSPropertyOp27
 70
     1
102
RTVSPropertyOp28
 70
     1
102
RTVSPropertyOp29
 70
     1
102
RTVSPropertyOp30
 70
     1
102
RTVSPropertyOp31
 70
     1
102
RTVSPropertyOp32
 70
     1
102
RTVSPropertyOp33
 70
     1
102
RTVSPropertyOp34
 70
     1
102
RTVSPropertyOp35
 70
     1
102
RTVSPropertyOp36
 70
     1
102
RTVSPropertyOp37
 70
     1
102
RTVSPropertyOp38
 70
     1
102
RTVSPropertyOp39
 70
     1
102
RTVSPropertyOp40
 70
     1
102
RTVSPropertyOp41
 70
     1
102
RTVSPropertyOp42
 70
     1
102
RTVSPropertyOp43
 70
     1
102
RTVSPropertyOp44
 70
     1
102
RTVSPropertyOp45
 70
     1
102
RTVSPropertyOp46
 70
     1
102
RTVSPropertyOp47
 70
     1
102
RTVSPropertyOp48
 70
     1
102
RTVSPropertyOp49
 70
     1
102
RTVSPropertyOp50
 70
     1
102
RTVSPropertyOp51
 70
     0
102
RTVSPropertyOp52
 70
     0
102
RTVSPropertyOp53
 70
     1
102
RTVSPropertyOp54
 70
     1
102
RTVSPropertyOp55
 70
     1
102
RTVSPropertyOp56
 70
     1
102
RTVSPropertyOp57
 70
     1
102
RTVSPost2010Prop28
280
     0
102
RTVSPost2010PropOp28
 70
     1
102
RTVSPost2010Prop29
280
     1
102
RTVSPost2010PropOp29
 70
     1
102
RTVSPost2010Prop30
280
     1
102
RTVSPost2010PropOp30
 70
     1
102
RTVSPost2010Prop31
280
     0
102
RTVSPost2010PropOp31
 70
     1
102
RTVSPost2010Prop32
280
     0
102
RTVSPost2010PropOp32
 70
     1
102
RTVSPost2010Prop33
280
     0
102
RTVSPost2010PropOp33
 70
     1
102
RTVSPost2010Prop34
280
     0
102
RTVSPost2010PropOp34
 70
     1
102
RTVSPost2010Prop35
280
     0
102
RTVSPost2010PropOp35
 70
     1
102
RTVSPost2010Prop36
280
     0
102
RTVSPost2010PropOp36
 70
     1
102
RTVSPost2010Prop37
 90
       50
102
RTVSPost2010PropOp37
 70
     1
102
RTVSPost2010Prop38
140
0.0
102
RTVSPost2010PropOp38
 70
     1
102
RTVSPost2010Prop39
140
1.0
102
RTVSPost2010PropOp39
 70
     1
102
RTVSPost2010Prop40
 90
        0
102
RTVSPost2010PropOp40
 70
     1
102
RTVSPost2010Prop41ColorIndex
 90
       18
102
RTVSPost2010Prop41ColorRGB
 90
        0
102
RTVSPost2010PropOp41
 70
     1
102
RTVSPost2010Prop42
 90
       50
102
RTVSPost2010PropOp42
 70
     1
102
RTVSPost2010Prop43
 90
        3
102
RTVSPost2010PropOp43
 70
     1
102
RTVSPost2010Prop44ColorIndex
 90
        5
102
RTVSPost2010Prop44ColorRGB
 90
      255
102
RTVSPost2010PropOp44
 70
     1
102
RTVSPost2010Prop45
280
     0
102
RTVSPost2010PropOp45
 70
     1
102
RTVSPost2010Prop46
 90
       50
102
RTVSPost2010PropOp46
 70
     1
102
RTVSPost2010Prop47
 90
       50
102
RTVSPost2010PropOp47
 70
     1
102
RTVSPost2010Prop48
 90
       50
102
RTVSPost2010PropOp48
 70
     1
102
RTVSPost2010Prop49
280
     0
102
RTVSPost2010PropOp49
 70
     1
102
RTVSPost2010Prop50
 90
       50
102
RTVSPost2010PropOp50
 70
     1
102
RTVSPost2010Prop51ColorIndex
 90
      256
102
RTVSPost2010Prop51ColorRGB
 90
-16777216
102
RTVSPost2010PropOp51
 70
     0
102
RTVSPost2010Prop52
140
1.0
102
RTVSPost2010PropOp52
 70
     0
102
RTVSPost2010Prop53
 90
        2
102
RTVSPost2010PropOp53
 70
     1
102
RTVSPost2010Prop54
  1
strokes_ogs.tif
102
RTVSPost2010PropOp54
 70
     1
102
RTVSPost2010Prop55
280
     0
102
RTVSPost2010PropOp55
 70
     1
102
RTVSPost2010Prop56
140
1.0
102
RTVSPost2010PropOp56
 70
     1
102
RTVSPost2010Prop57
140
1.0
102
RTVSPost2010PropOp57
 70
     1
  0
XRECORD
  5
47E
102
{ACAD_REACTORS
330
47D
102
}
330
47D
100
AcDbXrecord
280
     1
102
RTVSPropertyOp0
 70
     1
102
RTVSPropertyOp1
 70
     1
102
RTVSPropertyOp2
 70
     1
102
RTVSPropertyOp3
 70
     1
102
RTVSPropertyOp4
 70
     1
102
RTVSPropertyOp5
 70
     1
102
RTVSPropertyOp6
 70
     1
102
RTVSPropertyOp7
 70
     1
102
RTVSPropertyOp8
 70
     1
102
RTVSPropertyOp9
 70
     1
102
RTVSPropertyOp10
 70
     1
102
RTVSPropertyOp11
 70
     1
102
RTVSPropertyOp12
 70
     1
102
RTVSPropertyOp13
 70
     1
102
RTVSPropertyOp14
 70
     1
102
RTVSPropertyOp15
 70
     1
102
RTVSPropertyOp16
 70
     1
102
RTVSPropertyOp17
 70
     1
102
RTVSPropertyOp18
 70
     1
102
RTVSPropertyOp19
 70
     1
102
RTVSPropertyOp20
 70
     1
102
RTVSPropertyOp21
 70
     1
102
RTVSPropertyOp22
 70
     1
102
RTVSPropertyOp23
 70
     1
102
RTVSPropertyOp24
 70
     1
102
RTVSPropertyOp25
 70
     1
102
RTVSPropertyOp26
 70
     1
102
RTVSPropertyOp27
 70
     1
102
RTVSPropertyOp28
 70
     1
102
RTVSPropertyOp29
 70
     1
102
RTVSPropertyOp30
 70
     1
102
RTVSPropertyOp31
 70
     1
102
RTVSPropertyOp32
 70
     1
102
RTVSPropertyOp33
 70
     1
102
RTVSPropertyOp34
 70
     1
102
RTVSPropertyOp35
 70
     1
102
RTVSPropertyOp36
 70
     1
102
RTVSPropertyOp37
 70
     1
102
RTVSPropertyOp38
 70
     1
102
RTVSPropertyOp39
 70
     1
102
RTVSPropertyOp40
 70
     1
102
RTVSPropertyOp41
 70
     1
102
RTVSPropertyOp42
 70
     1
102
RTVSPropertyOp43
 70
     1
102
RTVSPropertyOp44
 70
     1
102
RTVSPropertyOp45
 70
     1
102
RTVSPropertyOp46
 70
     1
102
RTVSPropertyOp47
 70
     1
102
RTVSPropertyOp48
 70
     1
102
RTVSPropertyOp49
 70
     1
102
RTVSPropertyOp50
 70
     1
102
RTVSPropertyOp51
 70
     0
102
RTVSPropertyOp52
 70
     0
102
RTVSPropertyOp53
 70
     1
102
RTVSPropertyOp54
 70
     1
102
RTVSPropertyOp55
 70
     1
102
RTVSPropertyOp56
 70
     1
102
RTVSPropertyOp57
 70
     1
102
RTVSPost2010Prop28
280
     0
102
RTVSPost2010PropOp28
 70
     1
102
RTVSPost2010Prop29
280
     1
102
RTVSPost2010PropOp29
 70
     1
102
RTVSPost2010Prop30
280
     1
102
RTVSPost2010PropOp30
 70
     1
102
RTVSPost2010Prop31
280
     0
102
RTVSPost2010PropOp31
 70
     1
102
RTVSPost2010Prop32
280
     0
102
RTVSPost2010PropOp32
 70
     1
102
RTVSPost2010Prop33
280
     0
102
RTVSPost2010PropOp33
 70
     1
102
RTVSPost2010Prop34
280
     0
102
RTVSPost2010PropOp34
 70
     1
102
RTVSPost2010Prop35
280
     0
102
RTVSPost2010PropOp35
 70
     1
102
RTVSPost2010Prop36
280
     0
102
RTVSPost2010PropOp36
 70
     1
102
RTVSPost2010Prop37
 90
       50
102
RTVSPost2010PropOp37
 70
     1
102
RTVSPost2010Prop38
140
0.0
102
RTVSPost2010PropOp38
 70
     1
102
RTVSPost2010Prop39
140
1.0
102
RTVSPost2010PropOp39
 70
     1
102
RTVSPost2010Prop40
 90
        0
102
RTVSPost2010PropOp40
 70
     1
102
RTVSPost2010Prop41ColorIndex
 90
       18
102
RTVSPost2010Prop41ColorRGB
 90
        0
102
RTVSPost2010PropOp41
 70
     1
102
RTVSPost2010Prop42
 90
       50
102
RTVSPost2010PropOp42
 70
     1
102
RTVSPost2010Prop43
 90
        3
102
RTVSPost2010PropOp43
 70
     1
102
RTVSPost2010Prop44ColorIndex
 90
        5
102
RTVSPost2010Prop44ColorRGB
 90
      255
102
RTVSPost2010PropOp44
 70
     1
102
RTVSPost2010Prop45
280
     0
102
RTVSPost2010PropOp45
 70
     1
102
RTVSPost2010Prop46
 90
       50
102
RTVSPost2010PropOp46
 70
     1
102
RTVSPost2010Prop47
 90
       50
102
RTVSPost2010PropOp47
 70
     1
102
RTVSPost2010Prop48
 90
       50
102
RTVSPost2010PropOp48
 70
     1
102
RTVSPost2010Prop49
280
     0
102
RTVSPost2010PropOp49
 70
     1
102
RTVSPost2010Prop50
 90
       50
102
RTVSPost2010PropOp50
 70
     1
102
RTVSPost2010Prop51ColorIndex
 90
      256
102
RTVSPost2010Prop51ColorRGB
 90
-16777216
102
RTVSPost2010PropOp51
 70
     0
102
RTVSPost2010Prop52
140
1.0
102
RTVSPost2010PropOp52
 70
     0
102
RTVSPost2010Prop53
 90
        2
102
RTVSPost2010PropOp53
 70
     1
102
RTVSPost2010Prop54
  1
strokes_ogs.tif
102
RTVSPost2010PropOp54
 70
     1
102
RTVSPost2010Prop55
280
     0
102
RTVSPost2010PropOp55
 70
     1
102
RTVSPost2010Prop56
140
1.0
102
RTVSPost2010PropOp56
 70
     1
102
RTVSPost2010Prop57
140
1.0
102
RTVSPost2010PropOp57
 70
     1
  0
XRECORD
  5
480
102
{ACAD_REACTORS
330
47F
102
}
330
47F
100
AcDbXrecord
280
     1
102
RTVSPropertyOp0
 70
     1
102
RTVSPropertyOp1
 70
     1
102
RTVSPropertyOp2
 70
     1
102
RTVSPropertyOp3
 70
     1
102
RTVSPropertyOp4
 70
     1
102
RTVSPropertyOp5
 70
     1
102
RTVSPropertyOp6
 70
     1
102
RTVSPropertyOp7
 70
     1
102
RTVSPropertyOp8
 70
     1
102
RTVSPropertyOp9
 70
     1
102
RTVSPropertyOp10
 70
     1
102
RTVSPropertyOp11
 70
     1
102
RTVSPropertyOp12
 70
     1
102
RTVSPropertyOp13
 70
     1
102
RTVSPropertyOp14
 70
     1
102
RTVSPropertyOp15
 70
     1
102
RTVSPropertyOp16
 70
     1
102
RTVSPropertyOp17
 70
     1
102
RTVSPropertyOp18
 70
     1
102
RTVSPropertyOp19
 70
     1
102
RTVSPropertyOp20
 70
     1
102
RTVSPropertyOp21
 70
     1
102
RTVSPropertyOp22
 70
     1
102
RTVSPropertyOp23
 70
     1
102
RTVSPropertyOp24
 70
     1
102
RTVSPropertyOp25
 70
     1
102
RTVSPropertyOp26
 70
     1
102
RTVSPropertyOp27
 70
     1
102
RTVSPropertyOp28
 70
     1
102
RTVSPropertyOp29
 70
     1
102
RTVSPropertyOp30
 70
     1
102
RTVSPropertyOp31
 70
     1
102
RTVSPropertyOp32
 70
     1
102
RTVSPropertyOp33
 70
     1
102
RTVSPropertyOp34
 70
     1
102
RTVSPropertyOp35
 70
     1
102
RTVSPropertyOp36
 70
     1
102
RTVSPropertyOp37
 70
     1
102
RTVSPropertyOp38
 70
     1
102
RTVSPropertyOp39
 70
     1
102
RTVSPropertyOp40
 70
     1
102
RTVSPropertyOp41
 70
     1
102
RTVSPropertyOp42
 70
     1
102
RTVSPropertyOp43
 70
     1
102
RTVSPropertyOp44
 70
     1
102
RTVSPropertyOp45
 70
     1
102
RTVSPropertyOp46
 70
     1
102
RTVSPropertyOp47
 70
     1
102
RTVSPropertyOp48
 70
     1
102
RTVSPropertyOp49
 70
     1
102
RTVSPropertyOp50
 70
     1
102
RTVSPropertyOp51
 70
     0
102
RTVSPropertyOp52
 70
     0
102
RTVSPropertyOp53
 70
     1
102
RTVSPropertyOp54
 70
     1
102
RTVSPropertyOp55
 70
     1
102
RTVSPropertyOp56
 70
     1
102
RTVSPropertyOp57
 70
     1
102
RTVSPost2010Prop28
280
     0
102
RTVSPost2010PropOp28
 70
     1
102
RTVSPost2010Prop29
280
     1
102
RTVSPost2010PropOp29
 70
     1
102
RTVSPost2010Prop30
280
     1
102
RTVSPost2010PropOp30
 70
     1
102
RTVSPost2010Prop31
280
     0
102
RTVSPost2010PropOp31
 70
     1
102
RTVSPost2010Prop32
280
     0
102
RTVSPost2010PropOp32
 70
     1
102
RTVSPost2010Prop33
280
     0
102
RTVSPost2010PropOp33
 70
     1
102
RTVSPost2010Prop34
280
     0
102
RTVSPost2010PropOp34
 70
     1
102
RTVSPost2010Prop35
280
     0
102
RTVSPost2010PropOp35
 70
     1
102
RTVSPost2010Prop36
280
     0
102
RTVSPost2010PropOp36
 70
     1
102
RTVSPost2010Prop37
 90
       50
102
RTVSPost2010PropOp37
 70
     1
102
RTVSPost2010Prop38
140
0.0
102
RTVSPost2010PropOp38
 70
     1
102
RTVSPost2010Prop39
140
1.0
102
RTVSPost2010PropOp39
 70
     1
102
RTVSPost2010Prop40
 90
        0
102
RTVSPost2010PropOp40
 70
     1
102
RTVSPost2010Prop41ColorIndex
 90
       18
102
RTVSPost2010Prop41ColorRGB
 90
        0
102
RTVSPost2010PropOp41
 70
     1
102
RTVSPost2010Prop42
 90
       50
102
RTVSPost2010PropOp42
 70
     1
102
RTVSPost2010Prop43
 90
        3
102
RTVSPost2010PropOp43
 70
     1
102
RTVSPost2010Prop44ColorIndex
 90
        5
102
RTVSPost2010Prop44ColorRGB
 90
      255
102
RTVSPost2010PropOp44
 70
     1
102
RTVSPost2010Prop45
280
     0
102
RTVSPost2010PropOp45
 70
     1
102
RTVSPost2010Prop46
 90
       50
102
RTVSPost2010PropOp46
 70
     1
102
RTVSPost2010Prop47
 90
       50
102
RTVSPost2010PropOp47
 70
     1
102
RTVSPost2010Prop48
 90
       50
102
RTVSPost2010PropOp48
 70
     1
102
RTVSPost2010Prop49
280
     0
102
RTVSPost2010PropOp49
 70
     1
102
RTVSPost2010Prop50
 90
       50
102
RTVSPost2010PropOp50
 70
     1
102
RTVSPost2010Prop51ColorIndex
 90
      256
102
RTVSPost2010Prop51ColorRGB
 90
-16777216
102
RTVSPost2010PropOp51
 70
     0
102
RTVSPost2010Prop52
140
1.0
102
RTVSPost2010PropOp52
 70
     0
102
RTVSPost2010Prop53
 90
        2
102
RTVSPost2010PropOp53
 70
     1
102
RTVSPost2010Prop54
  1
strokes_ogs.tif
102
RTVSPost2010PropOp54
 70
     1
102
RTVSPost2010Prop55
280
     0
102
RTVSPost2010PropOp55
 70
     1
102
RTVSPost2010Prop56
140
1.0
102
RTVSPost2010PropOp56
 70
     1
102
RTVSPost2010Prop57
140
1.0
102
RTVSPost2010PropOp57
 70
     1
  0
XRECORD
  5
482
102
{ACAD_REACTORS
330
481
102
}
330
481
100
AcDbXrecord
280
     1
102
RTVSPropertyOp0
 70
     1
102
RTVSPropertyOp1
 70
     1
102
RTVSPropertyOp2
 70
     1
102
RTVSPropertyOp3
 70
     1
102
RTVSPropertyOp4
 70
     1
102
RTVSPropertyOp5
 70
     1
102
RTVSPropertyOp6
 70
     1
102
RTVSPropertyOp7
 70
     1
102
RTVSPropertyOp8
 70
     1
102
RTVSPropertyOp9
 70
     1
102
RTVSPropertyOp10
 70
     1
102
RTVSPropertyOp11
 70
     1
102
RTVSPropertyOp12
 70
     1
102
RTVSPropertyOp13
 70
     1
102
RTVSPropertyOp14
 70
     1
102
RTVSPropertyOp15
 70
     1
102
RTVSPropertyOp16
 70
     1
102
RTVSPropertyOp17
 70
     1
102
RTVSPropertyOp18
 70
     1
102
RTVSPropertyOp19
 70
     1
102
RTVSPropertyOp20
 70
     1
102
RTVSPropertyOp21
 70
     1
102
RTVSPropertyOp22
 70
     1
102
RTVSPropertyOp23
 70
     1
102
RTVSPropertyOp24
 70
     1
102
RTVSPropertyOp25
 70
     1
102
RTVSPropertyOp26
 70
     1
102
RTVSPropertyOp27
 70
     1
102
RTVSPropertyOp28
 70
     1
102
RTVSPropertyOp29
 70
     1
102
RTVSPropertyOp30
 70
     1
102
RTVSPropertyOp31
 70
     1
102
RTVSPropertyOp32
 70
     1
102
RTVSPropertyOp33
 70
     1
102
RTVSPropertyOp34
 70
     1
102
RTVSPropertyOp35
 70
     1
102
RTVSPropertyOp36
 70
     1
102
RTVSPropertyOp37
 70
     1
102
RTVSPropertyOp38
 70
     1
102
RTVSPropertyOp39
 70
     1
102
RTVSPropertyOp40
 70
     1
102
RTVSPropertyOp41
 70
     1
102
RTVSPropertyOp42
 70
     1
102
RTVSPropertyOp43
 70
     1
102
RTVSPropertyOp44
 70
     1
102
RTVSPropertyOp45
 70
     1
102
RTVSPropertyOp46
 70
     1
102
RTVSPropertyOp47
 70
     1
102
RTVSPropertyOp48
 70
     1
102
RTVSPropertyOp49
 70
     1
102
RTVSPropertyOp50
 70
     1
102
RTVSPropertyOp51
 70
     0
102
RTVSPropertyOp52
 70
     0
102
RTVSPropertyOp53
 70
     1
102
RTVSPropertyOp54
 70
     1
102
RTVSPropertyOp55
 70
     1
102
RTVSPropertyOp56
 70
     1
102
RTVSPropertyOp57
 70
     1
102
RTVSPost2010Prop28
280
     0
102
RTVSPost2010PropOp28
 70
     1
102
RTVSPost2010Prop29
280
     1
102
RTVSPost2010PropOp29
 70
     1
102
RTVSPost2010Prop30
280
     1
102
RTVSPost2010PropOp30
 70
     1
102
RTVSPost2010Prop31
280
     0
102
RTVSPost2010PropOp31
 70
     1
102
RTVSPost2010Prop32
280
     0
102
RTVSPost2010PropOp32
 70
     1
102
RTVSPost2010Prop33
280
     0
102
RTVSPost2010PropOp33
 70
     1
102
RTVSPost2010Prop34
280
     0
102
RTVSPost2010PropOp34
 70
     1
102
RTVSPost2010Prop35
280
     0
102
RTVSPost2010PropOp35
 70
     1
102
RTVSPost2010Prop36
280
     0
102
RTVSPost2010PropOp36
 70
     1
102
RTVSPost2010Prop37
 90
       50
102
RTVSPost2010PropOp37
 70
     1
102
RTVSPost2010Prop38
140
0.0
102
RTVSPost2010PropOp38
 70
     1
102
RTVSPost2010Prop39
140
1.0
102
RTVSPost2010PropOp39
 70
     1
102
RTVSPost2010Prop40
 90
        0
102
RTVSPost2010PropOp40
 70
     1
102
RTVSPost2010Prop41ColorIndex
 90
       18
102
RTVSPost2010Prop41ColorRGB
 90
        0
102
RTVSPost2010PropOp41
 70
     1
102
RTVSPost2010Prop42
 90
       50
102
RTVSPost2010PropOp42
 70
     1
102
RTVSPost2010Prop43
 90
        3
102
RTVSPost2010PropOp43
 70
     1
102
RTVSPost2010Prop44ColorIndex
 90
        5
102
RTVSPost2010Prop44ColorRGB
 90
      255
102
RTVSPost2010PropOp44
 70
     1
102
RTVSPost2010Prop45
280
     0
102
RTVSPost2010PropOp45
 70
     1
102
RTVSPost2010Prop46
 90
       50
102
RTVSPost2010PropOp46
 70
     1
102
RTVSPost2010Prop47
 90
       50
102
RTVSPost2010PropOp47
 70
     1
102
RTVSPost2010Prop48
 90
       50
102
RTVSPost2010PropOp48
 70
     1
102
RTVSPost2010Prop49
280
     0
102
RTVSPost2010PropOp49
 70
     1
102
RTVSPost2010Prop50
 90
       50
102
RTVSPost2010PropOp50
 70
     1
102
RTVSPost2010Prop51ColorIndex
 90
      256
102
RTVSPost2010Prop51ColorRGB
 90
-16777216
102
RTVSPost2010PropOp51
 70
     0
102
RTVSPost2010Prop52
140
1.0
102
RTVSPost2010PropOp52
 70
     0
102
RTVSPost2010Prop53
 90
        2
102
RTVSPost2010PropOp53
 70
     1
102
RTVSPost2010Prop54
  1
strokes_ogs.tif
102
RTVSPost2010PropOp54
 70
     1
102
RTVSPost2010Prop55
280
     0
102
RTVSPost2010PropOp55
 70
     1
102
RTVSPost2010Prop56
140
1.0
102
RTVSPost2010PropOp56
 70
     1
102
RTVSPost2010Prop57
140
1.0
102
RTVSPost2010PropOp57
 70
     1
  0
XRECORD
  5
488
102
{ACAD_REACTORS
330
487
102
}
330
487
100
AcDbXrecord
280
     1
102
RTVSPropertyOp0
 70
     1
102
RTVSPropertyOp1
 70
     1
102
RTVSPropertyOp2
 70
     1
102
RTVSPropertyOp3
 70
     1
102
RTVSPropertyOp4
 70
     1
102
RTVSPropertyOp5
 70
     1
102
RTVSPropertyOp6
 70
     1
102
RTVSPropertyOp7
 70
     1
102
RTVSPropertyOp8
 70
     1
102
RTVSPropertyOp9
 70
     1
102
RTVSPropertyOp10
 70
     1
102
RTVSPropertyOp11
 70
     1
102
RTVSPropertyOp12
 70
     1
102
RTVSPropertyOp13
 70
     1
102
RTVSPropertyOp14
 70
     1
102
RTVSPropertyOp15
 70
     1
102
RTVSPropertyOp16
 70
     1
102
RTVSPropertyOp17
 70
     1
102
RTVSPropertyOp18
 70
     1
102
RTVSPropertyOp19
 70
     1
102
RTVSPropertyOp20
 70
     1
102
RTVSPropertyOp21
 70
     1
102
RTVSPropertyOp22
 70
     1
102
RTVSPropertyOp23
 70
     1
102
RTVSPropertyOp24
 70
     1
102
RTVSPropertyOp25
 70
     1
102
RTVSPropertyOp26
 70
     1
102
RTVSPropertyOp27
 70
     1
102
RTVSPropertyOp28
 70
     1
102
RTVSPropertyOp29
 70
     1
102
RTVSPropertyOp30
 70
     1
102
RTVSPropertyOp31
 70
     1
102
RTVSPropertyOp32
 70
     1
102
RTVSPropertyOp33
 70
     1
102
RTVSPropertyOp34
 70
     1
102
RTVSPropertyOp35
 70
     1
102
RTVSPropertyOp36
 70
     1
102
RTVSPropertyOp37
 70
     1
102
RTVSPropertyOp38
 70
     1
102
RTVSPropertyOp39
 70
     1
102
RTVSPropertyOp40
 70
     1
102
RTVSPropertyOp41
 70
     1
102
RTVSPropertyOp42
 70
     1
102
RTVSPropertyOp43
 70
     1
102
RTVSPropertyOp44
 70
     1
102
RTVSPropertyOp45
 70
     1
102
RTVSPropertyOp46
 70
     1
102
RTVSPropertyOp47
 70
     1
102
RTVSPropertyOp48
 70
     1
102
RTVSPropertyOp49
 70
     1
102
RTVSPropertyOp50
 70
     1
102
RTVSPropertyOp51
 70
     0
102
RTVSPropertyOp52
 70
     0
102
RTVSPropertyOp53
 70
     1
102
RTVSPropertyOp54
 70
     1
102
RTVSPropertyOp55
 70
     1
102
RTVSPropertyOp56
 70
     1
102
RTVSPropertyOp57
 70
     1
102
RTVSPost2010Prop28
280
     0
102
RTVSPost2010PropOp28
 70
     1
102
RTVSPost2010Prop29
280
     1
102
RTVSPost2010PropOp29
 70
     1
102
RTVSPost2010Prop30
280
     1
102
RTVSPost2010PropOp30
 70
     1
102
RTVSPost2010Prop31
280
     0
102
RTVSPost2010PropOp31
 70
     1
102
RTVSPost2010Prop32
280
     0
102
RTVSPost2010PropOp32
 70
     1
102
RTVSPost2010Prop33
280
     0
102
RTVSPost2010PropOp33
 70
     1
102
RTVSPost2010Prop34
280
     0
102
RTVSPost2010PropOp34
 70
     1
102
RTVSPost2010Prop35
280
     0
102
RTVSPost2010PropOp35
 70
     1
102
RTVSPost2010Prop36
280
     0
102
RTVSPost2010PropOp36
 70
     1
102
RTVSPost2010Prop37
 90
       50
102
RTVSPost2010PropOp37
 70
     1
102
RTVSPost2010Prop38
140
0.0
102
RTVSPost2010PropOp38
 70
     1
102
RTVSPost2010Prop39
140
1.0
102
RTVSPost2010PropOp39
 70
     1
102
RTVSPost2010Prop40
 90
        0
102
RTVSPost2010PropOp40
 70
     1
102
RTVSPost2010Prop41ColorIndex
 90
       18
102
RTVSPost2010Prop41ColorRGB
 90
        0
102
RTVSPost2010PropOp41
 70
     1
102
RTVSPost2010Prop42
 90
       50
102
RTVSPost2010PropOp42
 70
     1
102
RTVSPost2010Prop43
 90
        3
102
RTVSPost2010PropOp43
 70
     1
102
RTVSPost2010Prop44ColorIndex
 90
        5
102
RTVSPost2010Prop44ColorRGB
 90
      255
102
RTVSPost2010PropOp44
 70
     1
102
RTVSPost2010Prop45
280
     0
102
RTVSPost2010PropOp45
 70
     1
102
RTVSPost2010Prop46
 90
       50
102
RTVSPost2010PropOp46
 70
     1
102
RTVSPost2010Prop47
 90
       50
102
RTVSPost2010PropOp47
 70
     1
102
RTVSPost2010Prop48
 90
       50
102
RTVSPost2010PropOp48
 70
     1
102
RTVSPost2010Prop49
280
     0
102
RTVSPost2010PropOp49
 70
     1
102
RTVSPost2010Prop50
 90
       50
102
RTVSPost2010PropOp50
 70
     1
102
RTVSPost2010Prop51ColorIndex
 90
      256
102
RTVSPost2010Prop51ColorRGB
 90
-16777216
102
RTVSPost2010PropOp51
 70
     0
102
RTVSPost2010Prop52
140
1.0
102
RTVSPost2010PropOp52
 70
     0
102
RTVSPost2010Prop53
 90
        2
102
RTVSPost2010PropOp53
 70
     1
102
RTVSPost2010Prop54
  1
strokes_ogs.tif
102
RTVSPost2010PropOp54
 70
     1
102
RTVSPost2010Prop55
280
     0
102
RTVSPost2010PropOp55
 70
     1
102
RTVSPost2010Prop56
140
1.0
102
RTVSPost2010PropOp56
 70
     1
102
RTVSPost2010Prop57
140
1.0
102
RTVSPost2010PropOp57
 70
     1
  0
XRECORD
  5
49C
102
{ACAD_REACTORS
330
49B
102
}
330
49B
100
AcDbXrecord
280
     1
102
RTVSPropertyOp0
 70
     0
102
RTVSPropertyOp1
 70
     0
102
RTVSPropertyOp2
 70
     0
102
RTVSPropertyOp3
 70
     0
102
RTVSPropertyOp4
 70
     0
102
RTVSPropertyOp5
 70
     0
102
RTVSPropertyOp6
 70
     0
102
RTVSPropertyOp7
 70
     0
102
RTVSPropertyOp8
 70
     0
102
RTVSPropertyOp9
 70
     0
102
RTVSPropertyOp10
 70
     0
102
RTVSPropertyOp11
 70
     0
102
RTVSPropertyOp12
 70
     0
102
RTVSPropertyOp13
 70
     0
102
RTVSPropertyOp14
 70
     0
102
RTVSPropertyOp15
 70
     0
102
RTVSPropertyOp16
 70
     0
102
RTVSPropertyOp17
 70
     0
102
RTVSPropertyOp18
 70
     0
102
RTVSPropertyOp19
 70
     0
102
RTVSPropertyOp20
 70
     0
102
RTVSPropertyOp21
 70
     0
102
RTVSPropertyOp22
 70
     0
102
RTVSPropertyOp23
 70
     0
102
RTVSPropertyOp24
 70
     0
102
RTVSPropertyOp25
 70
     0
102
RTVSPropertyOp26
 70
     0
102
RTVSPropertyOp27
 70
     0
102
RTVSPropertyOp28
 70
     1
102
RTVSPropertyOp29
 70
     1
102
RTVSPropertyOp30
 70
     1
102
RTVSPropertyOp31
 70
     1
102
RTVSPropertyOp32
 70
     1
102
RTVSPropertyOp33
 70
     1
102
RTVSPropertyOp34
 70
     1
102
RTVSPropertyOp35
 70
     1
102
RTVSPropertyOp36
 70
     1
102
RTVSPropertyOp37
 70
     1
102
RTVSPropertyOp38
 70
     1
102
RTVSPropertyOp39
 70
     1
102
RTVSPropertyOp40
 70
     1
102
RTVSPropertyOp41
 70
     1
102
RTVSPropertyOp42
 70
     1
102
RTVSPropertyOp43
 70
     1
102
RTVSPropertyOp44
 70
     1
102
RTVSPropertyOp45
 70
     1
102
RTVSPropertyOp46
 70
     1
102
RTVSPropertyOp47
 70
     1
102
RTVSPropertyOp48
 70
     1
102
RTVSPropertyOp49
 70
     1
102
RTVSPropertyOp50
 70
     1
102
RTVSPropertyOp51
 70
     0
102
RTVSPropertyOp52
 70
     0
102
RTVSPropertyOp53
 70
     1
102
RTVSPropertyOp54
 70
     1
102
RTVSPropertyOp55
 70
     1
102
RTVSPropertyOp56
 70
     1
102
RTVSPropertyOp57
 70
     1
102
RTVSPost2010Prop28
280
     0
102
RTVSPost2010PropOp28
 70
     1
102
RTVSPost2010Prop29
280
     1
102
RTVSPost2010PropOp29
 70
     1
102
RTVSPost2010Prop30
280
     1
102
RTVSPost2010PropOp30
 70
     1
102
RTVSPost2010Prop31
280
     0
102
RTVSPost2010PropOp31
 70
     1
102
RTVSPost2010Prop32
280
     0
102
RTVSPost2010PropOp32
 70
     1
102
RTVSPost2010Prop33
280
     0
102
RTVSPost2010PropOp33
 70
     1
102
RTVSPost2010Prop34
280
     0
102
RTVSPost2010PropOp34
 70
     1
102
RTVSPost2010Prop35
280
     0
102
RTVSPost2010PropOp35
 70
     1
102
RTVSPost2010Prop36
280
     0
102
RTVSPost2010PropOp36
 70
     1
102
RTVSPost2010Prop37
 90
       50
102
RTVSPost2010PropOp37
 70
     1
102
RTVSPost2010Prop38
140
0.0
102
RTVSPost2010PropOp38
 70
     1
102
RTVSPost2010Prop39
140
1.0
102
RTVSPost2010PropOp39
 70
     1
102
RTVSPost2010Prop40
 90
        0
102
RTVSPost2010PropOp40
 70
     1
102
RTVSPost2010Prop41ColorIndex
 90
       18
102
RTVSPost2010Prop41ColorRGB
 90
        0
102
RTVSPost2010PropOp41
 70
     1
102
RTVSPost2010Prop42
 90
       50
102
RTVSPost2010PropOp42
 70
     1
102
RTVSPost2010Prop43
 90
        3
102
RTVSPost2010PropOp43
 70
     1
102
RTVSPost2010Prop44ColorIndex
 90
        5
102
RTVSPost2010Prop44ColorRGB
 90
      255
102
RTVSPost2010PropOp44
 70
     1
102
RTVSPost2010Prop45
280
     0
102
RTVSPost2010PropOp45
 70
     1
102
RTVSPost2010Prop46
 90
       50
102
RTVSPost2010PropOp46
 70
     1
102
RTVSPost2010Prop47
 90
       50
102
RTVSPost2010PropOp47
 70
     1
102
RTVSPost2010Prop48
 90
       50
102
RTVSPost2010PropOp48
 70
     1
102
RTVSPost2010Prop49
280
     0
102
RTVSPost2010PropOp49
 70
     1
102
RTVSPost2010Prop50
 90
       50
102
RTVSPost2010PropOp50
 70
     1
102
RTVSPost2010Prop51ColorIndex
 90
      256
102
RTVSPost2010Prop51ColorRGB
 90
-16777216
102
RTVSPost2010PropOp51
 70
     0
102
RTVSPost2010Prop52
140
1.0
102
RTVSPost2010PropOp52
 70
     0
102
RTVSPost2010Prop53
 90
        2
102
RTVSPost2010PropOp53
 70
     1
102
RTVSPost2010Prop54
  1
strokes_ogs.tif
102
RTVSPost2010PropOp54
 70
     1
102
RTVSPost2010Prop55
280
     0
102
RTVSPost2010PropOp55
 70
     1
102
RTVSPost2010Prop56
140
1.0
102
RTVSPost2010PropOp56
 70
     1
102
RTVSPost2010Prop57
140
1.0
102
RTVSPost2010PropOp57
 70
     1
  0
XRECORD
  5
496
102
{ACAD_REACTORS
330
495
102
}
330
495
100
AcDbXrecord
280
     1
102
RTVSPropertyOp0
 70
     1
102
RTVSPropertyOp1
 70
     1
102
RTVSPropertyOp2
 70
     1
102
RTVSPropertyOp3
 70
     1
102
RTVSPropertyOp4
 70
     1
102
RTVSPropertyOp5
 70
     1
102
RTVSPropertyOp6
 70
     1
102
RTVSPropertyOp7
 70
     1
102
RTVSPropertyOp8
 70
     1
102
RTVSPropertyOp9
 70
     1
102
RTVSPropertyOp10
 70
     1
102
RTVSPropertyOp11
 70
     1
102
RTVSPropertyOp12
 70
     1
102
RTVSPropertyOp13
 70
     1
102
RTVSPropertyOp14
 70
     1
102
RTVSPropertyOp15
 70
     1
102
RTVSPropertyOp16
 70
     1
102
RTVSPropertyOp17
 70
     1
102
RTVSPropertyOp18
 70
     1
102
RTVSPropertyOp19
 70
     1
102
RTVSPropertyOp20
 70
     1
102
RTVSPropertyOp21
 70
     1
102
RTVSPropertyOp22
 70
     1
102
RTVSPropertyOp23
 70
     1
102
RTVSPropertyOp24
 70
     1
102
RTVSPropertyOp25
 70
     1
102
RTVSPropertyOp26
 70
     1
102
RTVSPropertyOp27
 70
     1
102
RTVSPropertyOp28
 70
     1
102
RTVSPropertyOp29
 70
     1
102
RTVSPropertyOp30
 70
     1
102
RTVSPropertyOp31
 70
     1
102
RTVSPropertyOp32
 70
     1
102
RTVSPropertyOp33
 70
     1
102
RTVSPropertyOp34
 70
     1
102
RTVSPropertyOp35
 70
     1
102
RTVSPropertyOp36
 70
     1
102
RTVSPropertyOp37
 70
     1
102
RTVSPropertyOp38
 70
     1
102
RTVSPropertyOp39
 70
     1
102
RTVSPropertyOp40
 70
     1
102
RTVSPropertyOp41
 70
     1
102
RTVSPropertyOp42
 70
     1
102
RTVSPropertyOp43
 70
     1
102
RTVSPropertyOp44
 70
     1
102
RTVSPropertyOp45
 70
     1
102
RTVSPropertyOp46
 70
     1
102
RTVSPropertyOp47
 70
     1
102
RTVSPropertyOp48
 70
     1
102
RTVSPropertyOp49
 70
     1
102
RTVSPropertyOp50
 70
     1
102
RTVSPropertyOp51
 70
     0
102
RTVSPropertyOp52
 70
     0
102
RTVSPropertyOp53
 70
     1
102
RTVSPropertyOp54
 70
     1
102
RTVSPropertyOp55
 70
     1
102
RTVSPropertyOp56
 70
     1
102
RTVSPropertyOp57
 70
     1
102
RTVSPost2010Prop28
280
     0
102
RTVSPost2010PropOp28
 70
     1
102
RTVSPost2010Prop29
280
     1
102
RTVSPost2010PropOp29
 70
     1
102
RTVSPost2010Prop30
280
     1
102
RTVSPost2010PropOp30
 70
     1
102
RTVSPost2010Prop31
280
     0
102
RTVSPost2010PropOp31
 70
     1
102
RTVSPost2010Prop32
280
     0
102
RTVSPost2010PropOp32
 70
     1
102
RTVSPost2010Prop33
280
     0
102
RTVSPost2010PropOp33
 70
     1
102
RTVSPost2010Prop34
280
     0
102
RTVSPost2010PropOp34
 70
     1
102
RTVSPost2010Prop35
280
     0
102
RTVSPost2010PropOp35
 70
     1
102
RTVSPost2010Prop36
280
     0
102
RTVSPost2010PropOp36
 70
     1
102
RTVSPost2010Prop37
 90
       50
102
RTVSPost2010PropOp37
 70
     1
102
RTVSPost2010Prop38
140
0.0
102
RTVSPost2010PropOp38
 70
     1
102
RTVSPost2010Prop39
140
1.0
102
RTVSPost2010PropOp39
 70
     1
102
RTVSPost2010Prop40
 90
        0
102
RTVSPost2010PropOp40
 70
     1
102
RTVSPost2010Prop41ColorIndex
 90
       18
102
RTVSPost2010Prop41ColorRGB
 90
        0
102
RTVSPost2010PropOp41
 70
     1
102
RTVSPost2010Prop42
 90
       50
102
RTVSPost2010PropOp42
 70
     1
102
RTVSPost2010Prop43
 90
        3
102
RTVSPost2010PropOp43
 70
     1
102
RTVSPost2010Prop44ColorIndex
 90
        5
102
RTVSPost2010Prop44ColorRGB
 90
      255
102
RTVSPost2010PropOp44
 70
     1
102
RTVSPost2010Prop45
280
     0
102
RTVSPost2010PropOp45
 70
     1
102
RTVSPost2010Prop46
 90
       50
102
RTVSPost2010PropOp46
 70
     1
102
RTVSPost2010Prop47
 90
       50
102
RTVSPost2010PropOp47
 70
     1
102
RTVSPost2010Prop48
 90
       50
102
RTVSPost2010PropOp48
 70
     1
102
RTVSPost2010Prop49
280
     0
102
RTVSPost2010PropOp49
 70
     1
102
RTVSPost2010Prop50
 90
       50
102
RTVSPost2010PropOp50
 70
     1
102
RTVSPost2010Prop51ColorIndex
 90
      256
102
RTVSPost2010Prop51ColorRGB
 90
-16777216
102
RTVSPost2010PropOp51
 70
     0
102
RTVSPost2010Prop52
140
1.0
102
RTVSPost2010PropOp52
 70
     0
102
RTVSPost2010Prop53
 90
        2
102
RTVSPost2010PropOp53
 70
     1
102
RTVSPost2010Prop54
  1
strokes_ogs.tif
102
RTVSPost2010PropOp54
 70
     1
102
RTVSPost2010Prop55
280
     0
102
RTVSPost2010PropOp55
 70
     1
102
RTVSPost2010Prop56
140
1.0
102
RTVSPost2010PropOp56
 70
     1
102
RTVSPost2010Prop57
140
1.0
102
RTVSPost2010PropOp57
 70
     1
  0
XRECORD
  5
49E
102
{ACAD_REACTORS
330
49D
102
}
330
49D
100
AcDbXrecord
280
     1
102
RTVSPropertyOp0
 70
     0
102
RTVSPropertyOp1
 70
     0
102
RTVSPropertyOp2
 70
     0
102
RTVSPropertyOp3
 70
     0
102
RTVSPropertyOp4
 70
     0
102
RTVSPropertyOp5
 70
     0
102
RTVSPropertyOp6
 70
     0
102
RTVSPropertyOp7
 70
     0
102
RTVSPropertyOp8
 70
     0
102
RTVSPropertyOp9
 70
     0
102
RTVSPropertyOp10
 70
     0
102
RTVSPropertyOp11
 70
     0
102
RTVSPropertyOp12
 70
     0
102
RTVSPropertyOp13
 70
     0
102
RTVSPropertyOp14
 70
     0
102
RTVSPropertyOp15
 70
     0
102
RTVSPropertyOp16
 70
     0
102
RTVSPropertyOp17
 70
     0
102
RTVSPropertyOp18
 70
     0
102
RTVSPropertyOp19
 70
     0
102
RTVSPropertyOp20
 70
     0
102
RTVSPropertyOp21
 70
     0
102
RTVSPropertyOp22
 70
     0
102
RTVSPropertyOp23
 70
     0
102
RTVSPropertyOp24
 70
     0
102
RTVSPropertyOp25
 70
     0
102
RTVSPropertyOp26
 70
     0
102
RTVSPropertyOp27
 70
     0
102
RTVSPropertyOp28
 70
     1
102
RTVSPropertyOp29
 70
     1
102
RTVSPropertyOp30
 70
     1
102
RTVSPropertyOp31
 70
     1
102
RTVSPropertyOp32
 70
     1
102
RTVSPropertyOp33
 70
     1
102
RTVSPropertyOp34
 70
     1
102
RTVSPropertyOp35
 70
     1
102
RTVSPropertyOp36
 70
     1
102
RTVSPropertyOp37
 70
     1
102
RTVSPropertyOp38
 70
     1
102
RTVSPropertyOp39
 70
     1
102
RTVSPropertyOp40
 70
     1
102
RTVSPropertyOp41
 70
     1
102
RTVSPropertyOp42
 70
     1
102
RTVSPropertyOp43
 70
     1
102
RTVSPropertyOp44
 70
     1
102
RTVSPropertyOp45
 70
     1
102
RTVSPropertyOp46
 70
     1
102
RTVSPropertyOp47
 70
     1
102
RTVSPropertyOp48
 70
     1
102
RTVSPropertyOp49
 70
     1
102
RTVSPropertyOp50
 70
     1
102
RTVSPropertyOp51
 70
     0
102
RTVSPropertyOp52
 70
     0
102
RTVSPropertyOp53
 70
     1
102
RTVSPropertyOp54
 70
     1
102
RTVSPropertyOp55
 70
     1
102
RTVSPropertyOp56
 70
     1
102
RTVSPropertyOp57
 70
     1
102
RTVSPost2010Prop28
280
     0
102
RTVSPost2010PropOp28
 70
     1
102
RTVSPost2010Prop29
280
     1
102
RTVSPost2010PropOp29
 70
     1
102
RTVSPost2010Prop30
280
     1
102
RTVSPost2010PropOp30
 70
     1
102
RTVSPost2010Prop31
280
     0
102
RTVSPost2010PropOp31
 70
     1
102
RTVSPost2010Prop32
280
     0
102
RTVSPost2010PropOp32
 70
     1
102
RTVSPost2010Prop33
280
     0
102
RTVSPost2010PropOp33
 70
     1
102
RTVSPost2010Prop34
280
     0
102
RTVSPost2010PropOp34
 70
     1
102
RTVSPost2010Prop35
280
     0
102
RTVSPost2010PropOp35
 70
     1
102
RTVSPost2010Prop36
280
     0
102
RTVSPost2010PropOp36
 70
     1
102
RTVSPost2010Prop37
 90
       50
102
RTVSPost2010PropOp37
 70
     1
102
RTVSPost2010Prop38
140
0.0
102
RTVSPost2010PropOp38
 70
     1
102
RTVSPost2010Prop39
140
1.0
102
RTVSPost2010PropOp39
 70
     1
102
RTVSPost2010Prop40
 90
        0
102
RTVSPost2010PropOp40
 70
     1
102
RTVSPost2010Prop41ColorIndex
 90
       18
102
RTVSPost2010Prop41ColorRGB
 90
        0
102
RTVSPost2010PropOp41
 70
     1
102
RTVSPost2010Prop42
 90
       50
102
RTVSPost2010PropOp42
 70
     1
102
RTVSPost2010Prop43
 90
        3
102
RTVSPost2010PropOp43
 70
     1
102
RTVSPost2010Prop44ColorIndex
 90
        5
102
RTVSPost2010Prop44ColorRGB
 90
      255
102
RTVSPost2010PropOp44
 70
     1
102
RTVSPost2010Prop45
280
     0
102
RTVSPost2010PropOp45
 70
     1
102
RTVSPost2010Prop46
 90
       50
102
RTVSPost2010PropOp46
 70
     1
102
RTVSPost2010Prop47
 90
       50
102
RTVSPost2010PropOp47
 70
     1
102
RTVSPost2010Prop48
 90
       50
102
RTVSPost2010PropOp48
 70
     1
102
RTVSPost2010Prop49
280
     0
102
RTVSPost2010PropOp49
 70
     1
102
RTVSPost2010Prop50
 90
       50
102
RTVSPost2010PropOp50
 70
     1
102
RTVSPost2010Prop51ColorIndex
 90
      256
102
RTVSPost2010Prop51ColorRGB
 90
-16777216
102
RTVSPost2010PropOp51
 70
     0
102
RTVSPost2010Prop52
140
1.0
102
RTVSPost2010PropOp52
 70
     0
102
RTVSPost2010Prop53
 90
        2
102
RTVSPost2010PropOp53
 70
     1
102
RTVSPost2010Prop54
  1
strokes_ogs.tif
102
RTVSPost2010PropOp54
 70
     1
102
RTVSPost2010Prop55
280
     0
102
RTVSPost2010PropOp55
 70
     1
102
RTVSPost2010Prop56
140
1.0
102
RTVSPost2010PropOp56
 70
     1
102
RTVSPost2010Prop57
140
1.0
102
RTVSPost2010PropOp57
 70
     1
  0
XRECORD
  5
48C
102
{ACAD_REACTORS
330
48B
102
}
330
48B
100
AcDbXrecord
280
     1
102
RTVSPropertyOp0
 70
     1
102
RTVSPropertyOp1
 70
     1
102
RTVSPropertyOp2
 70
     1
102
RTVSPropertyOp3
 70
     1
102
RTVSPropertyOp4
 70
     1
102
RTVSPropertyOp5
 70
     1
102
RTVSPropertyOp6
 70
     1
102
RTVSPropertyOp7
 70
     1
102
RTVSPropertyOp8
 70
     1
102
RTVSPropertyOp9
 70
     1
102
RTVSPropertyOp10
 70
     1
102
RTVSPropertyOp11
 70
     1
102
RTVSPropertyOp12
 70
     1
102
RTVSPropertyOp13
 70
     1
102
RTVSPropertyOp14
 70
     1
102
RTVSPropertyOp15
 70
     1
102
RTVSPropertyOp16
 70
     1
102
RTVSPropertyOp17
 70
     1
102
RTVSPropertyOp18
 70
     1
102
RTVSPropertyOp19
 70
     1
102
RTVSPropertyOp20
 70
     1
102
RTVSPropertyOp21
 70
     1
102
RTVSPropertyOp22
 70
     1
102
RTVSPropertyOp23
 70
     1
102
RTVSPropertyOp24
 70
     1
102
RTVSPropertyOp25
 70
     1
102
RTVSPropertyOp26
 70
     1
102
RTVSPropertyOp27
 70
     1
102
RTVSPropertyOp28
 70
     1
102
RTVSPropertyOp29
 70
     1
102
RTVSPropertyOp30
 70
     1
102
RTVSPropertyOp31
 70
     1
102
RTVSPropertyOp32
 70
     1
102
RTVSPropertyOp33
 70
     1
102
RTVSPropertyOp34
 70
     1
102
RTVSPropertyOp35
 70
     1
102
RTVSPropertyOp36
 70
     1
102
RTVSPropertyOp37
 70
     1
102
RTVSPropertyOp38
 70
     1
102
RTVSPropertyOp39
 70
     1
102
RTVSPropertyOp40
 70
     1
102
RTVSPropertyOp41
 70
     1
102
RTVSPropertyOp42
 70
     1
102
RTVSPropertyOp43
 70
     1
102
RTVSPropertyOp44
 70
     1
102
RTVSPropertyOp45
 70
     1
102
RTVSPropertyOp46
 70
     1
102
RTVSPropertyOp47
 70
     1
102
RTVSPropertyOp48
 70
     1
102
RTVSPropertyOp49
 70
     1
102
RTVSPropertyOp50
 70
     1
102
RTVSPropertyOp51
 70
     0
102
RTVSPropertyOp52
 70
     0
102
RTVSPropertyOp53
 70
     1
102
RTVSPropertyOp54
 70
     1
102
RTVSPropertyOp55
 70
     1
102
RTVSPropertyOp56
 70
     1
102
RTVSPropertyOp57
 70
     1
102
RTVSPost2010Prop28
280
     0
102
RTVSPost2010PropOp28
 70
     1
102
RTVSPost2010Prop29
280
     1
102
RTVSPost2010PropOp29
 70
     1
102
RTVSPost2010Prop30
280
     1
102
RTVSPost2010PropOp30
 70
     1
102
RTVSPost2010Prop31
280
     0
102
RTVSPost2010PropOp31
 70
     1
102
RTVSPost2010Prop32
280
     0
102
RTVSPost2010PropOp32
 70
     1
102
RTVSPost2010Prop33
280
     0
102
RTVSPost2010PropOp33
 70
     1
102
RTVSPost2010Prop34
280
     0
102
RTVSPost2010PropOp34
 70
     1
102
RTVSPost2010Prop35
280
     0
102
RTVSPost2010PropOp35
 70
     1
102
RTVSPost2010Prop36
280
     0
102
RTVSPost2010PropOp36
 70
     1
102
RTVSPost2010Prop37
 90
       50
102
RTVSPost2010PropOp37
 70
     1
102
RTVSPost2010Prop38
140
0.0
102
RTVSPost2010PropOp38
 70
     1
102
RTVSPost2010Prop39
140
1.0
102
RTVSPost2010PropOp39
 70
     1
102
RTVSPost2010Prop40
 90
        0
102
RTVSPost2010PropOp40
 70
     1
102
RTVSPost2010Prop41ColorIndex
 90
       18
102
RTVSPost2010Prop41ColorRGB
 90
        0
102
RTVSPost2010PropOp41
 70
     1
102
RTVSPost2010Prop42
 90
       50
102
RTVSPost2010PropOp42
 70
     1
102
RTVSPost2010Prop43
 90
        3
102
RTVSPost2010PropOp43
 70
     1
102
RTVSPost2010Prop44ColorIndex
 90
        5
102
RTVSPost2010Prop44ColorRGB
 90
      255
102
RTVSPost2010PropOp44
 70
     1
102
RTVSPost2010Prop45
280
     0
102
RTVSPost2010PropOp45
 70
     1
102
RTVSPost2010Prop46
 90
       50
102
RTVSPost2010PropOp46
 70
     1
102
RTVSPost2010Prop47
 90
       50
102
RTVSPost2010PropOp47
 70
     1
102
RTVSPost2010Prop48
 90
       50
102
RTVSPost2010PropOp48
 70
     1
102
RTVSPost2010Prop49
280
     0
102
RTVSPost2010PropOp49
 70
     1
102
RTVSPost2010Prop50
 90
       50
102
RTVSPost2010PropOp50
 70
     1
102
RTVSPost2010Prop51ColorIndex
 90
      256
102
RTVSPost2010Prop51ColorRGB
 90
-16777216
102
RTVSPost2010PropOp51
 70
     0
102
RTVSPost2010Prop52
140
1.0
102
RTVSPost2010PropOp52
 70
     0
102
RTVSPost2010Prop53
 90
        2
102
RTVSPost2010PropOp53
 70
     1
102
RTVSPost2010Prop54
  1
strokes_ogs.tif
102
RTVSPost2010PropOp54
 70
     1
102
RTVSPost2010Prop55
280
     0
102
RTVSPost2010PropOp55
 70
     1
102
RTVSPost2010Prop56
140
1.0
102
RTVSPost2010PropOp56
 70
     1
102
RTVSPost2010Prop57
140
1.0
102
RTVSPost2010PropOp57
 70
     1
  0
XRECORD
  5
4AA
102
{ACAD_REACTORS
330
4A9
102
}
330
4A9
100
AcDbXrecord
280
     1
102
RTVSPropertyOp0
 70
     1
102
RTVSPropertyOp1
 70
     1
102
RTVSPropertyOp2
 70
     1
102
RTVSPropertyOp3
 70
     1
102
RTVSPropertyOp4
 70
     1
102
RTVSPropertyOp5
 70
     1
102
RTVSPropertyOp6
 70
     1
102
RTVSPropertyOp7
 70
     1
102
RTVSPropertyOp8
 70
     1
102
RTVSPropertyOp9
 70
     1
102
RTVSPropertyOp10
 70
     1
102
RTVSPropertyOp11
 70
     1
102
RTVSPropertyOp12
 70
     1
102
RTVSPropertyOp13
 70
     1
102
RTVSPropertyOp14
 70
     1
102
RTVSPropertyOp15
 70
     1
102
RTVSPropertyOp16
 70
     1
102
RTVSPropertyOp17
 70
     1
102
RTVSPropertyOp18
 70
     1
102
RTVSPropertyOp19
 70
     1
102
RTVSPropertyOp20
 70
     1
102
RTVSPropertyOp21
 70
     1
102
RTVSPropertyOp22
 70
     1
102
RTVSPropertyOp23
 70
     1
102
RTVSPropertyOp24
 70
     1
102
RTVSPropertyOp25
 70
     1
102
RTVSPropertyOp26
 70
     1
102
RTVSPropertyOp27
 70
     1
102
RTVSPropertyOp28
 70
     1
102
RTVSPropertyOp29
 70
     1
102
RTVSPropertyOp30
 70
     1
102
RTVSPropertyOp31
 70
     1
102
RTVSPropertyOp32
 70
     1
102
RTVSPropertyOp33
 70
     1
102
RTVSPropertyOp34
 70
     1
102
RTVSPropertyOp35
 70
     1
102
RTVSPropertyOp36
 70
     1
102
RTVSPropertyOp37
 70
     1
102
RTVSPropertyOp38
 70
     1
102
RTVSPropertyOp39
 70
     1
102
RTVSPropertyOp40
 70
     1
102
RTVSPropertyOp41
 70
     1
102
RTVSPropertyOp42
 70
     1
102
RTVSPropertyOp43
 70
     1
102
RTVSPropertyOp44
 70
     1
102
RTVSPropertyOp45
 70
     1
102
RTVSPropertyOp46
 70
     1
102
RTVSPropertyOp47
 70
     1
102
RTVSPropertyOp48
 70
     1
102
RTVSPropertyOp49
 70
     1
102
RTVSPropertyOp50
 70
     1
102
RTVSPropertyOp51
 70
     0
102
RTVSPropertyOp52
 70
     0
102
RTVSPropertyOp53
 70
     1
102
RTVSPropertyOp54
 70
     1
102
RTVSPropertyOp55
 70
     1
102
RTVSPropertyOp56
 70
     1
102
RTVSPropertyOp57
 70
     1
102
RTVSPost2010Prop28
280
     0
102
RTVSPost2010PropOp28
 70
     1
102
RTVSPost2010Prop29
280
     1
102
RTVSPost2010PropOp29
 70
     1
102
RTVSPost2010Prop30
280
     1
102
RTVSPost2010PropOp30
 70
     1
102
RTVSPost2010Prop31
280
     0
102
RTVSPost2010PropOp31
 70
     1
102
RTVSPost2010Prop32
280
     0
102
RTVSPost2010PropOp32
 70
     1
102
RTVSPost2010Prop33
280
     0
102
RTVSPost2010PropOp33
 70
     1
102
RTVSPost2010Prop34
280
     0
102
RTVSPost2010PropOp34
 70
     1
102
RTVSPost2010Prop35
280
     0
102
RTVSPost2010PropOp35
 70
     1
102
RTVSPost2010Prop36
280
     0
102
RTVSPost2010PropOp36
 70
     1
102
RTVSPost2010Prop37
 90
       50
102
RTVSPost2010PropOp37
 70
     1
102
RTVSPost2010Prop38
140
0.0
102
RTVSPost2010PropOp38
 70
     1
102
RTVSPost2010Prop39
140
1.0
102
RTVSPost2010PropOp39
 70
     1
102
RTVSPost2010Prop40
 90
        0
102
RTVSPost2010PropOp40
 70
     1
102
RTVSPost2010Prop41ColorIndex
 90
       18
102
RTVSPost2010Prop41ColorRGB
 90
        0
102
RTVSPost2010PropOp41
 70
     1
102
RTVSPost2010Prop42
 90
       50
102
RTVSPost2010PropOp42
 70
     1
102
RTVSPost2010Prop43
 90
        3
102
RTVSPost2010PropOp43
 70
     1
102
RTVSPost2010Prop44ColorIndex
 90
        5
102
RTVSPost2010Prop44ColorRGB
 90
      255
102
RTVSPost2010PropOp44
 70
     1
102
RTVSPost2010Prop45
280
     0
102
RTVSPost2010PropOp45
 70
     1
102
RTVSPost2010Prop46
 90
       50
102
RTVSPost2010PropOp46
 70
     1
102
RTVSPost2010Prop47
 90
       50
102
RTVSPost2010PropOp47
 70
     1
102
RTVSPost2010Prop48
 90
       50
102
RTVSPost2010PropOp48
 70
     1
102
RTVSPost2010Prop49
280
     0
102
RTVSPost2010PropOp49
 70
     1
102
RTVSPost2010Prop50
 90
       50
102
RTVSPost2010PropOp50
 70
     1
102
RTVSPost2010Prop51ColorIndex
 90
      256
102
RTVSPost2010Prop51ColorRGB
 90
-16777216
102
RTVSPost2010PropOp51
 70
     0
102
RTVSPost2010Prop52
140
1.0
102
RTVSPost2010PropOp52
 70
     0
102
RTVSPost2010Prop53
 90
        2
102
RTVSPost2010PropOp53
 70
     1
102
RTVSPost2010Prop54
  1
strokes_ogs.tif
102
RTVSPost2010PropOp54
 70
     1
102
RTVSPost2010Prop55
280
     0
102
RTVSPost2010PropOp55
 70
     1
102
RTVSPost2010Prop56
140
1.0
102
RTVSPost2010PropOp56
 70
     1
102
RTVSPost2010Prop57
140
1.0
102
RTVSPost2010PropOp57
 70
     1
  0
XRECORD
  5
4A8
102
{ACAD_REACTORS
330
4A7
102
}
330
4A7
100
AcDbXrecord
280
     1
102
RTVSPropertyOp0
 70
     1
102
RTVSPropertyOp1
 70
     1
102
RTVSPropertyOp2
 70
     1
102
RTVSPropertyOp3
 70
     1
102
RTVSPropertyOp4
 70
     1
102
RTVSPropertyOp5
 70
     1
102
RTVSPropertyOp6
 70
     1
102
RTVSPropertyOp7
 70
     1
102
RTVSPropertyOp8
 70
     1
102
RTVSPropertyOp9
 70
     1
102
RTVSPropertyOp10
 70
     1
102
RTVSPropertyOp11
 70
     1
102
RTVSPropertyOp12
 70
     1
102
RTVSPropertyOp13
 70
     1
102
RTVSPropertyOp14
 70
     1
102
RTVSPropertyOp15
 70
     1
102
RTVSPropertyOp16
 70
     1
102
RTVSPropertyOp17
 70
     1
102
RTVSPropertyOp18
 70
     1
102
RTVSPropertyOp19
 70
     1
102
RTVSPropertyOp20
 70
     1
102
RTVSPropertyOp21
 70
     1
102
RTVSPropertyOp22
 70
     1
102
RTVSPropertyOp23
 70
     1
102
RTVSPropertyOp24
 70
     1
102
RTVSPropertyOp25
 70
     1
102
RTVSPropertyOp26
 70
     1
102
RTVSPropertyOp27
 70
     1
102
RTVSPropertyOp28
 70
     1
102
RTVSPropertyOp29
 70
     1
102
RTVSPropertyOp30
 70
     1
102
RTVSPropertyOp31
 70
     1
102
RTVSPropertyOp32
 70
     1
102
RTVSPropertyOp33
 70
     1
102
RTVSPropertyOp34
 70
     1
102
RTVSPropertyOp35
 70
     1
102
RTVSPropertyOp36
 70
     1
102
RTVSPropertyOp37
 70
     1
102
RTVSPropertyOp38
 70
     1
102
RTVSPropertyOp39
 70
     1
102
RTVSPropertyOp40
 70
     1
102
RTVSPropertyOp41
 70
     1
102
RTVSPropertyOp42
 70
     1
102
RTVSPropertyOp43
 70
     1
102
RTVSPropertyOp44
 70
     1
102
RTVSPropertyOp45
 70
     1
102
RTVSPropertyOp46
 70
     1
102
RTVSPropertyOp47
 70
     1
102
RTVSPropertyOp48
 70
     1
102
RTVSPropertyOp49
 70
     1
102
RTVSPropertyOp50
 70
     1
102
RTVSPropertyOp51
 70
     0
102
RTVSPropertyOp52
 70
     0
102
RTVSPropertyOp53
 70
     1
102
RTVSPropertyOp54
 70
     1
102
RTVSPropertyOp55
 70
     1
102
RTVSPropertyOp56
 70
     1
102
RTVSPropertyOp57
 70
     1
102
RTVSPost2010Prop28
280
     0
102
RTVSPost2010PropOp28
 70
     1
102
RTVSPost2010Prop29
280
     1
102
RTVSPost2010PropOp29
 70
     1
102
RTVSPost2010Prop30
280
     1
102
RTVSPost2010PropOp30
 70
     1
102
RTVSPost2010Prop31
280
     0
102
RTVSPost2010PropOp31
 70
     1
102
RTVSPost2010Prop32
280
     0
102
RTVSPost2010PropOp32
 70
     1
102
RTVSPost2010Prop33
280
     0
102
RTVSPost2010PropOp33
 70
     1
102
RTVSPost2010Prop34
280
     0
102
RTVSPost2010PropOp34
 70
     1
102
RTVSPost2010Prop35
280
     0
102
RTVSPost2010PropOp35
 70
     1
102
RTVSPost2010Prop36
280
     0
102
RTVSPost2010PropOp36
 70
     1
102
RTVSPost2010Prop37
 90
       50
102
RTVSPost2010PropOp37
 70
     1
102
RTVSPost2010Prop38
140
0.0
102
RTVSPost2010PropOp38
 70
     1
102
RTVSPost2010Prop39
140
1.0
102
RTVSPost2010PropOp39
 70
     1
102
RTVSPost2010Prop40
 90
        0
102
RTVSPost2010PropOp40
 70
     1
102
RTVSPost2010Prop41ColorIndex
 90
       18
102
RTVSPost2010Prop41ColorRGB
 90
        0
102
RTVSPost2010PropOp41
 70
     1
102
RTVSPost2010Prop42
 90
       50
102
RTVSPost2010PropOp42
 70
     1
102
RTVSPost2010Prop43
 90
        3
102
RTVSPost2010PropOp43
 70
     1
102
RTVSPost2010Prop44ColorIndex
 90
        5
102
RTVSPost2010Prop44ColorRGB
 90
      255
102
RTVSPost2010PropOp44
 70
     1
102
RTVSPost2010Prop45
280
     0
102
RTVSPost2010PropOp45
 70
     1
102
RTVSPost2010Prop46
 90
       50
102
RTVSPost2010PropOp46
 70
     1
102
RTVSPost2010Prop47
 90
       50
102
RTVSPost2010PropOp47
 70
     1
102
RTVSPost2010Prop48
 90
       50
102
RTVSPost2010PropOp48
 70
     1
102
RTVSPost2010Prop49
280
     0
102
RTVSPost2010PropOp49
 70
     1
102
RTVSPost2010Prop50
 90
       50
102
RTVSPost2010PropOp50
 70
     1
102
RTVSPost2010Prop51ColorIndex
 90
      256
102
RTVSPost2010Prop51ColorRGB
 90
-16777216
102
RTVSPost2010PropOp51
 70
     0
102
RTVSPost2010Prop52
140
1.0
102
RTVSPost2010PropOp52
 70
     0
102
RTVSPost2010Prop53
 90
        2
102
RTVSPost2010PropOp53
 70
     1
102
RTVSPost2010Prop54
  1
strokes_ogs.tif
102
RTVSPost2010PropOp54
 70
     1
102
RTVSPost2010Prop55
280
     0
102
RTVSPost2010PropOp55
 70
     1
102
RTVSPost2010Prop56
140
1.0
102
RTVSPost2010PropOp56
 70
     1
102
RTVSPost2010Prop57
140
1.0
102
RTVSPost2010PropOp57
 70
     1
  0
XRECORD
  5
4A2
102
{ACAD_REACTORS
330
4A1
102
}
330
4A1
100
AcDbXrecord
280
     1
102
RTVSPropertyOp0
 70
     1
102
RTVSPropertyOp1
 70
     1
102
RTVSPropertyOp2
 70
     1
102
RTVSPropertyOp3
 70
     1
102
RTVSPropertyOp4
 70
     1
102
RTVSPropertyOp5
 70
     1
102
RTVSPropertyOp6
 70
     1
102
RTVSPropertyOp7
 70
     1
102
RTVSPropertyOp8
 70
     1
102
RTVSPropertyOp9
 70
     1
102
RTVSPropertyOp10
 70
     1
102
RTVSPropertyOp11
 70
     1
102
RTVSPropertyOp12
 70
     1
102
RTVSPropertyOp13
 70
     1
102
RTVSPropertyOp14
 70
     1
102
RTVSPropertyOp15
 70
     1
102
RTVSPropertyOp16
 70
     1
102
RTVSPropertyOp17
 70
     1
102
RTVSPropertyOp18
 70
     1
102
RTVSPropertyOp19
 70
     1
102
RTVSPropertyOp20
 70
     1
102
RTVSPropertyOp21
 70
     1
102
RTVSPropertyOp22
 70
     1
102
RTVSPropertyOp23
 70
     1
102
RTVSPropertyOp24
 70
     1
102
RTVSPropertyOp25
 70
     1
102
RTVSPropertyOp26
 70
     1
102
RTVSPropertyOp27
 70
     1
102
RTVSPropertyOp28
 70
     1
102
RTVSPropertyOp29
 70
     1
102
RTVSPropertyOp30
 70
     1
102
RTVSPropertyOp31
 70
     1
102
RTVSPropertyOp32
 70
     1
102
RTVSPropertyOp33
 70
     1
102
RTVSPropertyOp34
 70
     1
102
RTVSPropertyOp35
 70
     1
102
RTVSPropertyOp36
 70
     1
102
RTVSPropertyOp37
 70
     1
102
RTVSPropertyOp38
 70
     1
102
RTVSPropertyOp39
 70
     1
102
RTVSPropertyOp40
 70
     1
102
RTVSPropertyOp41
 70
     1
102
RTVSPropertyOp42
 70
     1
102
RTVSPropertyOp43
 70
     1
102
RTVSPropertyOp44
 70
     1
102
RTVSPropertyOp45
 70
     1
102
RTVSPropertyOp46
 70
     1
102
RTVSPropertyOp47
 70
     1
102
RTVSPropertyOp48
 70
     1
102
RTVSPropertyOp49
 70
     1
102
RTVSPropertyOp50
 70
     1
102
RTVSPropertyOp51
 70
     0
102
RTVSPropertyOp52
 70
     0
102
RTVSPropertyOp53
 70
     1
102
RTVSPropertyOp54
 70
     1
102
RTVSPropertyOp55
 70
     1
102
RTVSPropertyOp56
 70
     1
102
RTVSPropertyOp57
 70
     1
102
RTVSPost2010Prop28
280
     0
102
RTVSPost2010PropOp28
 70
     1
102
RTVSPost2010Prop29
280
     1
102
RTVSPost2010PropOp29
 70
     1
102
RTVSPost2010Prop30
280
     1
102
RTVSPost2010PropOp30
 70
     1
102
RTVSPost2010Prop31
280
     0
102
RTVSPost2010PropOp31
 70
     1
102
RTVSPost2010Prop32
280
     0
102
RTVSPost2010PropOp32
 70
     1
102
RTVSPost2010Prop33
280
     0
102
RTVSPost2010PropOp33
 70
     1
102
RTVSPost2010Prop34
280
     0
102
RTVSPost2010PropOp34
 70
     1
102
RTVSPost2010Prop35
280
     0
102
RTVSPost2010PropOp35
 70
     1
102
RTVSPost2010Prop36
280
     0
102
RTVSPost2010PropOp36
 70
     1
102
RTVSPost2010Prop37
 90
       50
102
RTVSPost2010PropOp37
 70
     1
102
RTVSPost2010Prop38
140
0.0
102
RTVSPost2010PropOp38
 70
     1
102
RTVSPost2010Prop39
140
1.0
102
RTVSPost2010PropOp39
 70
     1
102
RTVSPost2010Prop40
 90
        0
102
RTVSPost2010PropOp40
 70
     1
102
RTVSPost2010Prop41ColorIndex
 90
       18
102
RTVSPost2010Prop41ColorRGB
 90
        0
102
RTVSPost2010PropOp41
 70
     1
102
RTVSPost2010Prop42
 90
       50
102
RTVSPost2010PropOp42
 70
     1
102
RTVSPost2010Prop43
 90
        3
102
RTVSPost2010PropOp43
 70
     1
102
RTVSPost2010Prop44ColorIndex
 90
        5
102
RTVSPost2010Prop44ColorRGB
 90
      255
102
RTVSPost2010PropOp44
 70
     1
102
RTVSPost2010Prop45
280
     0
102
RTVSPost2010PropOp45
 70
     1
102
RTVSPost2010Prop46
 90
       50
102
RTVSPost2010PropOp46
 70
     1
102
RTVSPost2010Prop47
 90
       50
102
RTVSPost2010PropOp47
 70
     1
102
RTVSPost2010Prop48
 90
       50
102
RTVSPost2010PropOp48
 70
     1
102
RTVSPost2010Prop49
280
     0
102
RTVSPost2010PropOp49
 70
     1
102
RTVSPost2010Prop50
 90
       50
102
RTVSPost2010PropOp50
 70
     1
102
RTVSPost2010Prop51ColorIndex
 90
      256
102
RTVSPost2010Prop51ColorRGB
 90
-16777216
102
RTVSPost2010PropOp51
 70
     0
102
RTVSPost2010Prop52
140
1.0
102
RTVSPost2010PropOp52
 70
     0
102
RTVSPost2010Prop53
 90
        2
102
RTVSPost2010PropOp53
 70
     1
102
RTVSPost2010Prop54
  1
strokes_ogs.tif
102
RTVSPost2010PropOp54
 70
     1
102
RTVSPost2010Prop55
280
     0
102
RTVSPost2010PropOp55
 70
     1
102
RTVSPost2010Prop56
140
1.0
102
RTVSPost2010PropOp56
 70
     1
102
RTVSPost2010Prop57
140
1.0
102
RTVSPost2010PropOp57
 70
     1
  0
XRECORD
  5
4A4
102
{ACAD_REACTORS
330
4A3
102
}
330
4A3
100
AcDbXrecord
280
     1
102
RTVSPropertyOp0
 70
     1
102
RTVSPropertyOp1
 70
     1
102
RTVSPropertyOp2
 70
     1
102
RTVSPropertyOp3
 70
     1
102
RTVSPropertyOp4
 70
     1
102
RTVSPropertyOp5
 70
     1
102
RTVSPropertyOp6
 70
     1
102
RTVSPropertyOp7
 70
     1
102
RTVSPropertyOp8
 70
     1
102
RTVSPropertyOp9
 70
     1
102
RTVSPropertyOp10
 70
     1
102
RTVSPropertyOp11
 70
     1
102
RTVSPropertyOp12
 70
     1
102
RTVSPropertyOp13
 70
     1
102
RTVSPropertyOp14
 70
     1
102
RTVSPropertyOp15
 70
     1
102
RTVSPropertyOp16
 70
     1
102
RTVSPropertyOp17
 70
     1
102
RTVSPropertyOp18
 70
     1
102
RTVSPropertyOp19
 70
     1
102
RTVSPropertyOp20
 70
     1
102
RTVSPropertyOp21
 70
     1
102
RTVSPropertyOp22
 70
     1
102
RTVSPropertyOp23
 70
     1
102
RTVSPropertyOp24
 70
     1
102
RTVSPropertyOp25
 70
     1
102
RTVSPropertyOp26
 70
     1
102
RTVSPropertyOp27
 70
     1
102
RTVSPropertyOp28
 70
     1
102
RTVSPropertyOp29
 70
     1
102
RTVSPropertyOp30
 70
     1
102
RTVSPropertyOp31
 70
     1
102
RTVSPropertyOp32
 70
     1
102
RTVSPropertyOp33
 70
     1
102
RTVSPropertyOp34
 70
     1
102
RTVSPropertyOp35
 70
     1
102
RTVSPropertyOp36
 70
     1
102
RTVSPropertyOp37
 70
     1
102
RTVSPropertyOp38
 70
     1
102
RTVSPropertyOp39
 70
     1
102
RTVSPropertyOp40
 70
     1
102
RTVSPropertyOp41
 70
     1
102
RTVSPropertyOp42
 70
     1
102
RTVSPropertyOp43
 70
     1
102
RTVSPropertyOp44
 70
     1
102
RTVSPropertyOp45
 70
     1
102
RTVSPropertyOp46
 70
     1
102
RTVSPropertyOp47
 70
     1
102
RTVSPropertyOp48
 70
     1
102
RTVSPropertyOp49
 70
     1
102
RTVSPropertyOp50
 70
     1
102
RTVSPropertyOp51
 70
     0
102
RTVSPropertyOp52
 70
     0
102
RTVSPropertyOp53
 70
     1
102
RTVSPropertyOp54
 70
     1
102
RTVSPropertyOp55
 70
     1
102
RTVSPropertyOp56
 70
     1
102
RTVSPropertyOp57
 70
     1
102
RTVSPost2010Prop28
280
     0
102
RTVSPost2010PropOp28
 70
     1
102
RTVSPost2010Prop29
280
     1
102
RTVSPost2010PropOp29
 70
     1
102
RTVSPost2010Prop30
280
     1
102
RTVSPost2010PropOp30
 70
     1
102
RTVSPost2010Prop31
280
     0
102
RTVSPost2010PropOp31
 70
     1
102
RTVSPost2010Prop32
280
     0
102
RTVSPost2010PropOp32
 70
     1
102
RTVSPost2010Prop33
280
     0
102
RTVSPost2010PropOp33
 70
     1
102
RTVSPost2010Prop34
280
     0
102
RTVSPost2010PropOp34
 70
     1
102
RTVSPost2010Prop35
280
     0
102
RTVSPost2010PropOp35
 70
     1
102
RTVSPost2010Prop36
280
     0
102
RTVSPost2010PropOp36
 70
     1
102
RTVSPost2010Prop37
 90
       50
102
RTVSPost2010PropOp37
 70
     1
102
RTVSPost2010Prop38
140
0.0
102
RTVSPost2010PropOp38
 70
     1
102
RTVSPost2010Prop39
140
1.0
102
RTVSPost2010PropOp39
 70
     1
102
RTVSPost2010Prop40
 90
        0
102
RTVSPost2010PropOp40
 70
     1
102
RTVSPost2010Prop41ColorIndex
 90
       18
102
RTVSPost2010Prop41ColorRGB
 90
        0
102
RTVSPost2010PropOp41
 70
     1
102
RTVSPost2010Prop42
 90
       50
102
RTVSPost2010PropOp42
 70
     1
102
RTVSPost2010Prop43
 90
        3
102
RTVSPost2010PropOp43
 70
     1
102
RTVSPost2010Prop44ColorIndex
 90
        5
102
RTVSPost2010Prop44ColorRGB
 90
      255
102
RTVSPost2010PropOp44
 70
     1
102
RTVSPost2010Prop45
280
     0
102
RTVSPost2010PropOp45
 70
     1
102
RTVSPost2010Prop46
 90
       50
102
RTVSPost2010PropOp46
 70
     1
102
RTVSPost2010Prop47
 90
       50
102
RTVSPost2010PropOp47
 70
     1
102
RTVSPost2010Prop48
 90
       50
102
RTVSPost2010PropOp48
 70
     1
102
RTVSPost2010Prop49
280
     0
102
RTVSPost2010PropOp49
 70
     1
102
RTVSPost2010Prop50
 90
       50
102
RTVSPost2010PropOp50
 70
     1
102
RTVSPost2010Prop51ColorIndex
 90
      256
102
RTVSPost2010Prop51ColorRGB
 90
-16777216
102
RTVSPost2010PropOp51
 70
     0
102
RTVSPost2010Prop52
140
1.0
102
RTVSPost2010PropOp52
 70
     0
102
RTVSPost2010Prop53
 90
        2
102
RTVSPost2010PropOp53
 70
     1
102
RTVSPost2010Prop54
  1
strokes_ogs.tif
102
RTVSPost2010PropOp54
 70
     1
102
RTVSPost2010Prop55
280
     0
102
RTVSPost2010PropOp55
 70
     1
102
RTVSPost2010Prop56
140
1.0
102
RTVSPost2010PropOp56
 70
     1
102
RTVSPost2010Prop57
140
1.0
102
RTVSPost2010PropOp57
 70
     1
  0
XRECORD
  5
494
102
{ACAD_REACTORS
330
493
102
}
330
493
100
AcDbXrecord
280
     1
102
RTVSPropertyOp0
 70
     1
102
RTVSPropertyOp1
 70
     1
102
RTVSPropertyOp2
 70
     1
102
RTVSPropertyOp3
 70
     1
102
RTVSPropertyOp4
 70
     1
102
RTVSPropertyOp5
 70
     1
102
RTVSPropertyOp6
 70
     1
102
RTVSPropertyOp7
 70
     1
102
RTVSPropertyOp8
 70
     1
102
RTVSPropertyOp9
 70
     1
102
RTVSPropertyOp10
 70
     1
102
RTVSPropertyOp11
 70
     1
102
RTVSPropertyOp12
 70
     1
102
RTVSPropertyOp13
 70
     1
102
RTVSPropertyOp14
 70
     1
102
RTVSPropertyOp15
 70
     1
102
RTVSPropertyOp16
 70
     1
102
RTVSPropertyOp17
 70
     1
102
RTVSPropertyOp18
 70
     1
102
RTVSPropertyOp19
 70
     1
102
RTVSPropertyOp20
 70
     1
102
RTVSPropertyOp21
 70
     1
102
RTVSPropertyOp22
 70
     1
102
RTVSPropertyOp23
 70
     1
102
RTVSPropertyOp24
 70
     1
102
RTVSPropertyOp25
 70
     1
102
RTVSPropertyOp26
 70
     1
102
RTVSPropertyOp27
 70
     1
102
RTVSPropertyOp28
 70
     1
102
RTVSPropertyOp29
 70
     1
102
RTVSPropertyOp30
 70
     1
102
RTVSPropertyOp31
 70
     1
102
RTVSPropertyOp32
 70
     1
102
RTVSPropertyOp33
 70
     1
102
RTVSPropertyOp34
 70
     1
102
RTVSPropertyOp35
 70
     1
102
RTVSPropertyOp36
 70
     1
102
RTVSPropertyOp37
 70
     1
102
RTVSPropertyOp38
 70
     1
102
RTVSPropertyOp39
 70
     1
102
RTVSPropertyOp40
 70
     1
102
RTVSPropertyOp41
 70
     1
102
RTVSPropertyOp42
 70
     1
102
RTVSPropertyOp43
 70
     1
102
RTVSPropertyOp44
 70
     1
102
RTVSPropertyOp45
 70
     1
102
RTVSPropertyOp46
 70
     1
102
RTVSPropertyOp47
 70
     1
102
RTVSPropertyOp48
 70
     1
102
RTVSPropertyOp49
 70
     1
102
RTVSPropertyOp50
 70
     1
102
RTVSPropertyOp51
 70
     0
102
RTVSPropertyOp52
 70
     0
102
RTVSPropertyOp53
 70
     1
102
RTVSPropertyOp54
 70
     1
102
RTVSPropertyOp55
 70
     1
102
RTVSPropertyOp56
 70
     1
102
RTVSPropertyOp57
 70
     1
102
RTVSPost2010Prop28
280
     0
102
RTVSPost2010PropOp28
 70
     1
102
RTVSPost2010Prop29
280
     1
102
RTVSPost2010PropOp29
 70
     1
102
RTVSPost2010Prop30
280
     1
102
RTVSPost2010PropOp30
 70
     1
102
RTVSPost2010Prop31
280
     0
102
RTVSPost2010PropOp31
 70
     1
102
RTVSPost2010Prop32
280
     0
102
RTVSPost2010PropOp32
 70
     1
102
RTVSPost2010Prop33
280
     0
102
RTVSPost2010PropOp33
 70
     1
102
RTVSPost2010Prop34
280
     0
102
RTVSPost2010PropOp34
 70
     1
102
RTVSPost2010Prop35
280
     0
102
RTVSPost2010PropOp35
 70
     1
102
RTVSPost2010Prop36
280
     0
102
RTVSPost2010PropOp36
 70
     1
102
RTVSPost2010Prop37
 90
       50
102
RTVSPost2010PropOp37
 70
     1
102
RTVSPost2010Prop38
140
0.0
102
RTVSPost2010PropOp38
 70
     1
102
RTVSPost2010Prop39
140
1.0
102
RTVSPost2010PropOp39
 70
     1
102
RTVSPost2010Prop40
 90
        0
102
RTVSPost2010PropOp40
 70
     1
102
RTVSPost2010Prop41ColorIndex
 90
       18
102
RTVSPost2010Prop41ColorRGB
 90
        0
102
RTVSPost2010PropOp41
 70
     1
102
RTVSPost2010Prop42
 90
       50
102
RTVSPost2010PropOp42
 70
     1
102
RTVSPost2010Prop43
 90
        3
102
RTVSPost2010PropOp43
 70
     1
102
RTVSPost2010Prop44ColorIndex
 90
        5
102
RTVSPost2010Prop44ColorRGB
 90
      255
102
RTVSPost2010PropOp44
 70
     1
102
RTVSPost2010Prop45
280
     0
102
RTVSPost2010PropOp45
 70
     1
102
RTVSPost2010Prop46
 90
       50
102
RTVSPost2010PropOp46
 70
     1
102
RTVSPost2010Prop47
 90
       50
102
RTVSPost2010PropOp47
 70
     1
102
RTVSPost2010Prop48
 90
       50
102
RTVSPost2010PropOp48
 70
     1
102
RTVSPost2010Prop49
280
     0
102
RTVSPost2010PropOp49
 70
     1
102
RTVSPost2010Prop50
 90
       50
102
RTVSPost2010PropOp50
 70
     1
102
RTVSPost2010Prop51ColorIndex
 90
      256
102
RTVSPost2010Prop51ColorRGB
 90
-16777216
102
RTVSPost2010PropOp51
 70
     0
102
RTVSPost2010Prop52
140
1.0
102
RTVSPost2010PropOp52
 70
     0
102
RTVSPost2010Prop53
 90
        2
102
RTVSPost2010PropOp53
 70
     1
102
RTVSPost2010Prop54
  1
strokes_ogs.tif
102
RTVSPost2010PropOp54
 70
     1
102
RTVSPost2010Prop55
280
     0
102
RTVSPost2010PropOp55
 70
     1
102
RTVSPost2010Prop56
140
1.0
102
RTVSPost2010PropOp56
 70
     1
102
RTVSPost2010Prop57
140
1.0
102
RTVSPost2010PropOp57
 70
     1
  0
XRECORD
  5
486
102
{ACAD_REACTORS
330
485
102
}
330
485
100
AcDbXrecord
280
     1
102
RTVSPropertyOp0
 70
     1
102
RTVSPropertyOp1
 70
     1
102
RTVSPropertyOp2
 70
     1
102
RTVSPropertyOp3
 70
     1
102
RTVSPropertyOp4
 70
     1
102
RTVSPropertyOp5
 70
     1
102
RTVSPropertyOp6
 70
     1
102
RTVSPropertyOp7
 70
     1
102
RTVSPropertyOp8
 70
     1
102
RTVSPropertyOp9
 70
     1
102
RTVSPropertyOp10
 70
     1
102
RTVSPropertyOp11
 70
     1
102
RTVSPropertyOp12
 70
     1
102
RTVSPropertyOp13
 70
     1
102
RTVSPropertyOp14
 70
     1
102
RTVSPropertyOp15
 70
     1
102
RTVSPropertyOp16
 70
     1
102
RTVSPropertyOp17
 70
     1
102
RTVSPropertyOp18
 70
     1
102
RTVSPropertyOp19
 70
     1
102
RTVSPropertyOp20
 70
     1
102
RTVSPropertyOp21
 70
     1
102
RTVSPropertyOp22
 70
     1
102
RTVSPropertyOp23
 70
     1
102
RTVSPropertyOp24
 70
     1
102
RTVSPropertyOp25
 70
     1
102
RTVSPropertyOp26
 70
     1
102
RTVSPropertyOp27
 70
     1
102
RTVSPropertyOp28
 70
     1
102
RTVSPropertyOp29
 70
     1
102
RTVSPropertyOp30
 70
     1
102
RTVSPropertyOp31
 70
     1
102
RTVSPropertyOp32
 70
     1
102
RTVSPropertyOp33
 70
     1
102
RTVSPropertyOp34
 70
     1
102
RTVSPropertyOp35
 70
     1
102
RTVSPropertyOp36
 70
     1
102
RTVSPropertyOp37
 70
     1
102
RTVSPropertyOp38
 70
     1
102
RTVSPropertyOp39
 70
     1
102
RTVSPropertyOp40
 70
     1
102
RTVSPropertyOp41
 70
     1
102
RTVSPropertyOp42
 70
     1
102
RTVSPropertyOp43
 70
     1
102
RTVSPropertyOp44
 70
     1
102
RTVSPropertyOp45
 70
     1
102
RTVSPropertyOp46
 70
     1
102
RTVSPropertyOp47
 70
     1
102
RTVSPropertyOp48
 70
     1
102
RTVSPropertyOp49
 70
     1
102
RTVSPropertyOp50
 70
     1
102
RTVSPropertyOp51
 70
     0
102
RTVSPropertyOp52
 70
     0
102
RTVSPropertyOp53
 70
     1
102
RTVSPropertyOp54
 70
     1
102
RTVSPropertyOp55
 70
     1
102
RTVSPropertyOp56
 70
     1
102
RTVSPropertyOp57
 70
     1
102
RTVSPost2010Prop28
280
     0
102
RTVSPost2010PropOp28
 70
     1
102
RTVSPost2010Prop29
280
     1
102
RTVSPost2010PropOp29
 70
     1
102
RTVSPost2010Prop30
280
     1
102
RTVSPost2010PropOp30
 70
     1
102
RTVSPost2010Prop31
280
     0
102
RTVSPost2010PropOp31
 70
     1
102
RTVSPost2010Prop32
280
     0
102
RTVSPost2010PropOp32
 70
     1
102
RTVSPost2010Prop33
280
     0
102
RTVSPost2010PropOp33
 70
     1
102
RTVSPost2010Prop34
280
     0
102
RTVSPost2010PropOp34
 70
     1
102
RTVSPost2010Prop35
280
     0
102
RTVSPost2010PropOp35
 70
     1
102
RTVSPost2010Prop36
280
     0
102
RTVSPost2010PropOp36
 70
     1
102
RTVSPost2010Prop37
 90
       50
102
RTVSPost2010PropOp37
 70
     1
102
RTVSPost2010Prop38
140
0.0
102
RTVSPost2010PropOp38
 70
     1
102
RTVSPost2010Prop39
140
1.0
102
RTVSPost2010PropOp39
 70
     1
102
RTVSPost2010Prop40
 90
        0
102
RTVSPost2010PropOp40
 70
     1
102
RTVSPost2010Prop41ColorIndex
 90
       18
102
RTVSPost2010Prop41ColorRGB
 90
        0
102
RTVSPost2010PropOp41
 70
     1
102
RTVSPost2010Prop42
 90
       50
102
RTVSPost2010PropOp42
 70
     1
102
RTVSPost2010Prop43
 90
        3
102
RTVSPost2010PropOp43
 70
     1
102
RTVSPost2010Prop44ColorIndex
 90
        5
102
RTVSPost2010Prop44ColorRGB
 90
      255
102
RTVSPost2010PropOp44
 70
     1
102
RTVSPost2010Prop45
280
     0
102
RTVSPost2010PropOp45
 70
     1
102
RTVSPost2010Prop46
 90
       50
102
RTVSPost2010PropOp46
 70
     1
102
RTVSPost2010Prop47
 90
       50
102
RTVSPost2010PropOp47
 70
     1
102
RTVSPost2010Prop48
 90
       50
102
RTVSPost2010PropOp48
 70
     1
102
RTVSPost2010Prop49
280
     0
102
RTVSPost2010PropOp49
 70
     1
102
RTVSPost2010Prop50
 90
       50
102
RTVSPost2010PropOp50
 70
     1
102
RTVSPost2010Prop51ColorIndex
 90
      256
102
RTVSPost2010Prop51ColorRGB
 90
-16777216
102
RTVSPost2010PropOp51
 70
     0
102
RTVSPost2010Prop52
140
1.0
102
RTVSPost2010PropOp52
 70
     0
102
RTVSPost2010Prop53
 90
        2
102
RTVSPost2010PropOp53
 70
     1
102
RTVSPost2010Prop54
  1
strokes_ogs.tif
102
RTVSPost2010PropOp54
 70
     1
102
RTVSPost2010Prop55
280
     0
102
RTVSPost2010PropOp55
 70
     1
102
RTVSPost2010Prop56
140
1.0
102
RTVSPost2010PropOp56
 70
     1
102
RTVSPost2010Prop57
140
1.0
102
RTVSPost2010PropOp57
 70
     1
  0
XRECORD
  5
4A6
102
{ACAD_REACTORS
330
4A5
102
}
330
4A5
100
AcDbXrecord
280
     1
102
RTVSPropertyOp0
 70
     1
102
RTVSPropertyOp1
 70
     1
102
RTVSPropertyOp2
 70
     1
102
RTVSPropertyOp3
 70
     1
102
RTVSPropertyOp4
 70
     1
102
RTVSPropertyOp5
 70
     1
102
RTVSPropertyOp6
 70
     1
102
RTVSPropertyOp7
 70
     1
102
RTVSPropertyOp8
 70
     1
102
RTVSPropertyOp9
 70
     1
102
RTVSPropertyOp10
 70
     1
102
RTVSPropertyOp11
 70
     1
102
RTVSPropertyOp12
 70
     1
102
RTVSPropertyOp13
 70
     1
102
RTVSPropertyOp14
 70
     1
102
RTVSPropertyOp15
 70
     1
102
RTVSPropertyOp16
 70
     1
102
RTVSPropertyOp17
 70
     1
102
RTVSPropertyOp18
 70
     1
102
RTVSPropertyOp19
 70
     1
102
RTVSPropertyOp20
 70
     1
102
RTVSPropertyOp21
 70
     1
102
RTVSPropertyOp22
 70
     1
102
RTVSPropertyOp23
 70
     1
102
RTVSPropertyOp24
 70
     1
102
RTVSPropertyOp25
 70
     1
102
RTVSPropertyOp26
 70
     1
102
RTVSPropertyOp27
 70
     1
102
RTVSPropertyOp28
 70
     1
102
RTVSPropertyOp29
 70
     1
102
RTVSPropertyOp30
 70
     1
102
RTVSPropertyOp31
 70
     1
102
RTVSPropertyOp32
 70
     1
102
RTVSPropertyOp33
 70
     1
102
RTVSPropertyOp34
 70
     1
102
RTVSPropertyOp35
 70
     1
102
RTVSPropertyOp36
 70
     1
102
RTVSPropertyOp37
 70
     1
102
RTVSPropertyOp38
 70
     1
102
RTVSPropertyOp39
 70
     1
102
RTVSPropertyOp40
 70
     1
102
RTVSPropertyOp41
 70
     1
102
RTVSPropertyOp42
 70
     1
102
RTVSPropertyOp43
 70
     1
102
RTVSPropertyOp44
 70
     1
102
RTVSPropertyOp45
 70
     1
102
RTVSPropertyOp46
 70
     1
102
RTVSPropertyOp47
 70
     1
102
RTVSPropertyOp48
 70
     1
102
RTVSPropertyOp49
 70
     1
102
RTVSPropertyOp50
 70
     1
102
RTVSPropertyOp51
 70
     0
102
RTVSPropertyOp52
 70
     0
102
RTVSPropertyOp53
 70
     1
102
RTVSPropertyOp54
 70
     1
102
RTVSPropertyOp55
 70
     1
102
RTVSPropertyOp56
 70
     1
102
RTVSPropertyOp57
 70
     1
102
RTVSPost2010Prop28
280
     0
102
RTVSPost2010PropOp28
 70
     1
102
RTVSPost2010Prop29
280
     1
102
RTVSPost2010PropOp29
 70
     1
102
RTVSPost2010Prop30
280
     1
102
RTVSPost2010PropOp30
 70
     1
102
RTVSPost2010Prop31
280
     0
102
RTVSPost2010PropOp31
 70
     1
102
RTVSPost2010Prop32
280
     0
102
RTVSPost2010PropOp32
 70
     1
102
RTVSPost2010Prop33
280
     0
102
RTVSPost2010PropOp33
 70
     1
102
RTVSPost2010Prop34
280
     0
102
RTVSPost2010PropOp34
 70
     1
102
RTVSPost2010Prop35
280
     0
102
RTVSPost2010PropOp35
 70
     1
102
RTVSPost2010Prop36
280
     0
102
RTVSPost2010PropOp36
 70
     1
102
RTVSPost2010Prop37
 90
       50
102
RTVSPost2010PropOp37
 70
     1
102
RTVSPost2010Prop38
140
0.0
102
RTVSPost2010PropOp38
 70
     1
102
RTVSPost2010Prop39
140
1.0
102
RTVSPost2010PropOp39
 70
     1
102
RTVSPost2010Prop40
 90
        0
102
RTVSPost2010PropOp40
 70
     1
102
RTVSPost2010Prop41ColorIndex
 90
       18
102
RTVSPost2010Prop41ColorRGB
 90
        0
102
RTVSPost2010PropOp41
 70
     1
102
RTVSPost2010Prop42
 90
       50
102
RTVSPost2010PropOp42
 70
     1
102
RTVSPost2010Prop43
 90
        3
102
RTVSPost2010PropOp43
 70
     1
102
RTVSPost2010Prop44ColorIndex
 90
        5
102
RTVSPost2010Prop44ColorRGB
 90
      255
102
RTVSPost2010PropOp44
 70
     1
102
RTVSPost2010Prop45
280
     0
102
RTVSPost2010PropOp45
 70
     1
102
RTVSPost2010Prop46
 90
       50
102
RTVSPost2010PropOp46
 70
     1
102
RTVSPost2010Prop47
 90
       50
102
RTVSPost2010PropOp47
 70
     1
102
RTVSPost2010Prop48
 90
       50
102
RTVSPost2010PropOp48
 70
     1
102
RTVSPost2010Prop49
280
     0
102
RTVSPost2010PropOp49
 70
     1
102
RTVSPost2010Prop50
 90
       50
102
RTVSPost2010PropOp50
 70
     1
102
RTVSPost2010Prop51ColorIndex
 90
      256
102
RTVSPost2010Prop51ColorRGB
 90
-16777216
102
RTVSPost2010PropOp51
 70
     0
102
RTVSPost2010Prop52
140
1.0
102
RTVSPost2010PropOp52
 70
     0
102
RTVSPost2010Prop53
 90
        2
102
RTVSPost2010PropOp53
 70
     1
102
RTVSPost2010Prop54
  1
strokes_ogs.tif
102
RTVSPost2010PropOp54
 70
     1
102
RTVSPost2010Prop55
280
     0
102
RTVSPost2010PropOp55
 70
     1
102
RTVSPost2010Prop56
140
1.0
102
RTVSPost2010PropOp56
 70
     1
102
RTVSPost2010Prop57
140
1.0
102
RTVSPost2010PropOp57
 70
     1
  0
ENDSEC
  0
EOF
