  0
SECTION
  2
HEADER
  9
$ACADVER
  1
AC1015
  9
$ACADMAINTVER
 70
     6
  9
$DWGCODEPAGE
  3
ANSI_932
  9
$INSBASE
 10
3758.638861446825
 20
1348.172587671936
 30
0.0
  9
$EXTMIN
 10
205.266659337544
 20
64.12615488928304
 30
0.0
  9
$EXTMAX
 10
2081.926999359308
 20
1826.085594808893
 30
0.0
  9
$LIMMIN
 10
0.0
 20
0.0
  9
$LIMMAX
 10
816.5000000000001
 20
565.0
  9
$ORTHOMODE
 70
     0
  9
$REGENMODE
 70
     1
  9
$FILLMODE
 70
     1
  9
$QTEXTMODE
 70
     0
  9
$MIRRTEXT
 70
     1
  9
$LTSCALE
 40
20.0
  9
$ATTMODE
 70
     1
  9
$TEXTSIZE
 40
18.0
  9
$TRACEWID
 40
0.05
  9
$TEXTSTYLE
  7
KANJI
  9
$CLAYER
  8
2
  9
$CELTYPE
  6
BYLAYER
  9
$CECOLOR
 62
   256
  9
$CELTSCALE
 40
1.0
  9
$DISPSILH
 70
     0
  9
$DIMSCALE
 40
6.0
  9
$DIMASZ
 40
2.0
  9
$DIMEXO
 40
0.5
  9
$DIMDLI
 40
0.0
  9
$DIMRND
 40
0.0
  9
$DIMDLE
 40
0.0
  9
$DIMEXE
 40
1.0
  9
$DIMTP
 40
0.0
  9
$DIMTM
 40
0.0
  9
$DIMTXT
 40
3.0
  9
$DIMCEN
 40
0.09
  9
$DIMTSZ
 40
0.0
  9
$DIMTOL
 70
     0
  9
$DIMLIM
 70
     0
  9
$DIMTIH
 70
     0
  9
$DIMTOH
 70
     0
  9
$DIMSE1
 70
     0
  9
$DIMSE2
 70
     0
  9
$DIMTAD
 70
     0
  9
$DIMZIN
 70
     8
  9
$DIMBLK
  1

  9
$DIMASO
 70
     0
  9
$DIMSHO
 70
     0
  9
$DIMPOST
  1

  9
$DIMAPOST
  1

  9
$DIMALT
 70
     0
  9
$DIMALTD
 70
     2
  9
$DIMALTF
 40
25.4
  9
$DIMLFAC
 40
1.0
  9
$DIMTOFL
 70
     1
  9
$DIMTVP
 40
1.0
  9
$DIMTIX
 70
     1
  9
$DIMSOXD
 70
     1
  9
$DIMSAH
 70
     0
  9
$DIMBLK1
  1

  9
$DIMBLK2
  1

  9
$DIMSTYLE
  2
STANDARD
  9
$DIMCLRD
 70
   256
  9
$DIMCLRE
 70
   256
  9
$DIMCLRT
 70
   256
  9
$DIMTFAC
 40
1.0
  9
$DIMGAP
 40
0.09
  9
$DIMJUST
 70
     0
  9
$DIMSD1
 70
     0
  9
$DIMSD2
 70
     0
  9
$DIMTOLJ
 70
     1
  9
$DIMTZIN
 70
     0
  9
$DIMALTZ
 70
     0
  9
$DIMALTTZ
 70
     0
  9
$DIMUPT
 70
     0
  9
$DIMDEC
 70
     1
  9
$DIMTDEC
 70
     4
  9
$DIMALTU
 70
     2
  9
$DIMALTTD
 70
     2
  9
$DIMTXSTY
  7
STANDARD
  9
$DIMAUNIT
 70
     0
  9
$DIMADEC
 70
     0
  9
$DIMALTRND
 40
0.0
  9
$DIMAZIN
 70
     0
  9
$DIMDSEP
 70
    46
  9
$DIMATFIT
 70
     3
  9
$DIMFRAC
 70
     0
  9
$DIMLDRBLK
  1

  9
$DIMLUNIT
 70
     2
  9
$DIMLWD
 70
    -2
  9
$DIMLWE
 70
    -2
  9
$DIMTMOVE
 70
     0
  9
$LUNITS
 70
     2
  9
$LUPREC
 70
     3
  9
$SKETCHINC
 40
0.1
  9
$FILLETRAD
 40
2.0
  9
$AUNITS
 70
     0
  9
$AUPREC
 70
     3
  9
$MENU
  1
C:\R13\WIN\SUPPORT\ACADFULL
  9
$ELEVATION
 40
0.0
  9
$PELEVATION
 40
0.0
  9
$THICKNESS
 40
0.0
  9
$LIMCHECK
 70
     0
  9
$CHAMFERA
 40
0.0
  9
$CHAMFERB
 40
0.0
  9
$CHAMFERC
 40
0.0
  9
$CHAMFERD
 40
0.0
  9
$SKPOLY
 70
     0
  9
$TDCREATE
 40
2449812.756805555
  9
$TDUCREATE
 40
2449812.381805555
  9
$TDUPDATE
 40
2457871.834034398
  9
$TDUUPDATE
 40
2457871.459034398
  9
$TDINDWG
 40
1.2249714236
  9
$TDUSRTIMER
 40
1.2249711227
  9
$USRTIMER
 70
     1
  9
$ANGBASE
 50
0.0
  9
$ANGDIR
 70
     0
  9
$PDMODE
 70
     0
  9
$PDSIZE
 40
0.0
  9
$PLINEWID
 40
0.0
  9
$SPLFRAME
 70
     0
  9
$SPLINETYPE
 70
     6
  9
$SPLINESEGS
 70
     8
  9
$HANDSEED
  5
6A7
  9
$SURFTAB1
 70
     6
  9
$SURFTAB2
 70
     6
  9
$SURFTYPE
 70
     6
  9
$SURFU
 70
     6
  9
$SURFV
 70
     6
  9
$UCSBASE
  2

  9
$UCSNAME
  2

  9
$UCSORG
 10
0.0
 20
0.0
 30
0.0
  9
$UCSXDIR
 10
1.0
 20
0.0
 30
0.0
  9
$UCSYDIR
 10
0.0
 20
1.0
 30
0.0
  9
$UCSORTHOREF
  2

  9
$UCSORTHOVIEW
 70
     0
  9
$UCSORGTOP
 10
0.0
 20
0.0
 30
0.0
  9
$UCSORGBOTTOM
 10
0.0
 20
0.0
 30
0.0
  9
$UCSORGLEFT
 10
0.0
 20
0.0
 30
0.0
  9
$UCSORGRIGHT
 10
0.0
 20
0.0
 30
0.0
  9
$UCSORGFRONT
 10
0.0
 20
0.0
 30
0.0
  9
$UCSORGBACK
 10
0.0
 20
0.0
 30
0.0
  9
$PUCSBASE
  2

  9
$PUCSNAME
  2

  9
$PUCSORG
 10
0.0
 20
0.0
 30
0.0
  9
$PUCSXDIR
 10
1.0
 20
0.0
 30
0.0
  9
$PUCSYDIR
 10
0.0
 20
1.0
 30
0.0
  9
$PUCSORTHOREF
  2

  9
$PUCSORTHOVIEW
 70
     0
  9
$PUCSORGTOP
 10
0.0
 20
0.0
 30
0.0
  9
$PUCSORGBOTTOM
 10
0.0
 20
0.0
 30
0.0
  9
$PUCSORGLEFT
 10
0.0
 20
0.0
 30
0.0
  9
$PUCSORGRIGHT
 10
0.0
 20
0.0
 30
0.0
  9
$PUCSORGFRONT
 10
0.0
 20
0.0
 30
0.0
  9
$PUCSORGBACK
 10
0.0
 20
0.0
 30
0.0
  9
$USERI1
 70
     0
  9
$USERI2
 70
     0
  9
$USERI3
 70
     0
  9
$USERI4
 70
     0
  9
$USERI5
 70
     0
  9
$USERR1
 40
0.0
  9
$USERR2
 40
0.0
  9
$USERR3
 40
0.0
  9
$USERR4
 40
2448925.372986111
  9
$USERR5
 40
0.04166667
  9
$WORLDVIEW
 70
     1
  9
$SHADEDGE
 70
     3
  9
$SHADEDIF
 70
    70
  9
$TILEMODE
 70
     1
  9
$MAXACTVP
 70
    16
  9
$PINSBASE
 10
0.0
 20
0.0
 30
0.0
  9
$PLIMCHECK
 70
     0
  9
$PEXTMIN
 10
1.000000000000000E+20
 20
1.000000000000000E+20
 30
1.000000000000000E+20
  9
$PEXTMAX
 10
-1.000000000000000E+20
 20
-1.000000000000000E+20
 30
-1.000000000000000E+20
  9
$PLIMMIN
 10
0.0
 20
0.0
  9
$PLIMMAX
 10
12.0
 20
9.0
  9
$UNITMODE
 70
     0
  9
$VISRETAIN
 70
     0
  9
$PLINEGEN
 70
     0
  9
$PSLTSCALE
 70
     0
  9
$TREEDEPTH
 70
  3020
  9
$CMLSTYLE
  2
STANDARD
  9
$CMLJUST
 70
     0
  9
$CMLSCALE
 40
1.0
  9
$PROXYGRAPHICS
 70
     1
  9
$MEASUREMENT
 70
     0
  9
$CELWEIGHT
370
    -1
  9
$ENDCAPS
280
     0
  9
$JOINSTYLE
280
     0
  9
$LWDISPLAY
290
     0
  9
$INSUNITS
 70
     0
  9
$HYPERLINKBASE
  1

  9
$STYLESHEET
  1
monochrome.ctb
  9
$XEDIT
290
     1
  9
$CEPSNTYPE
380
     0
  9
$PSTYLEMODE
290
     1
  9
$FINGERPRINTGUID
  2
{90BCA920-1E4E-4417-AEB1-10B435284F28}
  9
$VERSIONGUID
  2
{6313224E-A8DF-45E2-A9FF-E86927C0721D}
  9
$EXTNAMES
290
     1
  9
$PSVPSCALE
 40
0.0
  9
$OLESTARTUP
290
     0
  0
ENDSEC
  0
SECTION
  2
CLASSES
  0
CLASS
  1
ACDBDICTIONARYWDFLT
  2
AcDbDictionaryWithDefault
  3
ObjectDBX Classes
 90
        0
280
     0
281
     0
  0
CLASS
  1
MATERIAL
  2
AcDbMaterial
  3
ObjectDBX Classes
 90
     1153
280
     0
281
     0
  0
CLASS
  1
SORTENTSTABLE
  2
AcDbSortentsTable
  3
ObjectDBX Classes
 90
        0
280
     0
281
     0
  0
CLASS
  1
VISUALSTYLE
  2
AcDbVisualStyle
  3
ObjectDBX Classes
 90
     4095
280
     0
281
     0
  0
CLASS
  1
SCALE
  2
AcDbScale
  3
ObjectDBX Classes
 90
     1153
280
     0
281
     0
  0
CLASS
  1
DICTIONARYVAR
  2
AcDbDictionaryVar
  3
ObjectDBX Classes
 90
        0
280
     0
281
     0
  0
CLASS
  1
MLEADERSTYLE
  2
AcDbMLeaderStyle
  3
ACDB_MLEADERSTYLE_CLASS
 90
     4095
280
     0
281
     0
  0
CLASS
  1
TABLESTYLE
  2
AcDbTableStyle
  3
ObjectDBX Classes
 90
     4095
280
     0
281
     0
  0
CLASS
  1
ACDBPLACEHOLDER
  2
AcDbPlaceHolder
  3
ObjectDBX Classes
 90
        0
280
     0
281
     0
  0
CLASS
  1
LAYOUT
  2
AcDbLayout
  3
ObjectDBX Classes
 90
        0
280
     0
281
     0
  0
ENDSEC
  0
SECTION
  2
TABLES
  0
TABLE
  2
VPORT
  5
2B
102
{ACAD_XDICTIONARY
360
66C
102
}
330
0
100
AcDbSymbolTable
 70
     1
  0
VPORT
  5
33
330
2B
100
AcDbSymbolTableRecord
100
AcDbViewportTableRecord
  2
*Active
 70
     0
 10
0.0
 20
0.0
 11
1.0
 21
1.0
 12
1458.563547316148
 22
974.187366749222
 13
0.0
 23
0.0
 14
1.0
 24
1.0
 15
50.0
 25
50.0
 16
0.0
 26
0.0
 36
1.0
 17
0.0
 27
0.0
 37
0.0
 40
2209.825121203266
 41
2.174107142857143
 42
50.0
 43
0.0
 44
0.0
 50
0.0
 51
0.0
 71
     0
 72
  5000
 73
     1
 74
     0
 75
     0
 76
     0
 77
     0
 78
     0
281
     0
 65
     1
110
0.0
120
0.0
130
0.0
111
1.0
121
0.0
131
0.0
112
0.0
122
1.0
132
0.0
 79
     0
146
0.0
1001
ACAD_NAV_VCDISPLAY
1070
     3
  0
ENDTAB
  0
TABLE
  2
LTYPE
  5
D
330
0
100
AcDbSymbolTable
 70
     4
  0
LTYPE
  5
E
330
D
100
AcDbSymbolTableRecord
100
AcDbLinetypeTableRecord
  2
BYBLOCK
 70
     0
  3

 72
    65
 73
     0
 40
0.0
  0
LTYPE
  5
F
330
D
100
AcDbSymbolTableRecord
100
AcDbLinetypeTableRecord
  2
BYLAYER
 70
     0
  3

 72
    65
 73
     0
 40
0.0
  0
LTYPE
  5
C
330
D
100
AcDbSymbolTableRecord
100
AcDbLinetypeTableRecord
  2
CONTINUOUS
 70
     0
  3
Solid line
 72
    65
 73
     0
 40
0.0
  0
LTYPE
  5
7D
330
D
100
AcDbSymbolTableRecord
100
AcDbLinetypeTableRecord
  2
CENTER
 70
     0
  3
____ _ ____ _ ____ _ ____ _ ____ _ ____ _ ____
 72
    65
 73
     4
 40
2.0
 49
1.25
 74
     0
 49
-0.25
 74
     0
 49
0.25
 74
     0
 49
-0.25
 74
     0
  0
LTYPE
  5
4DF
330
D
100
AcDbSymbolTableRecord
100
AcDbLinetypeTableRecord
  2
DASHED
 70
     0
  3
Dashed __ __ __ __ __ __ __ __ __ __ __ __ __ _
 72
    65
 73
     2
 40
0.75
 49
0.5
 74
     0
 49
-0.25
 74
     0
  0
ENDTAB
  0
TABLE
  2
LAYER
  5
2
102
{ACAD_XDICTIONARY
360
3
102
}
330
0
100
AcDbSymbolTable
 70
     7
  0
LAYER
  5
1D
102
{ACAD_XDICTIONARY
360
1E
102
}
330
2
100
AcDbSymbolTableRecord
100
AcDbLayerTableRecord
  2
0
 70
     0
 62
     7
  6
CONTINUOUS
370
    -3
390
7
  0
LAYER
  5
35A
102
{ACAD_XDICTIONARY
360
35B
102
}
330
2
100
AcDbSymbolTableRecord
100
AcDbLayerTableRecord
  2
1
 70
     0
 62
     9
  6
CONTINUOUS
370
    -3
390
7
  0
LAYER
  5
1
102
{ACAD_XDICTIONARY
360
5
102
}
330
2
100
AcDbSymbolTableRecord
100
AcDbLayerTableRecord
  2
2
 70
     0
 62
     4
  6
CONTINUOUS
370
    -3
390
7
  0
LAYER
  5
6D
102
{ACAD_XDICTIONARY
360
6E
102
}
330
2
100
AcDbSymbolTableRecord
100
AcDbLayerTableRecord
  2
4
 70
     0
 62
     3
  6
CONTINUOUS
370
    -3
390
7
  0
LAYER
  5
7A
102
{ACAD_XDICTIONARY
360
7B
102
}
330
2
100
AcDbSymbolTableRecord
100
AcDbLayerTableRecord
  2
L-CENTER
 70
     0
 62
     1
  6
CENTER
370
    -3
390
7
  0
LAYER
  5
89
102
{ACAD_XDICTIONARY
360
8A
102
}
330
2
100
AcDbSymbolTableRecord
100
AcDbLayerTableRecord
  2
3
 70
     0
 62
     2
  6
CONTINUOUS
370
    -3
390
7
  0
LAYER
  5
354
330
2
100
AcDbSymbolTableRecord
100
AcDbLayerTableRecord
  2
5
 70
     0
 62
     6
  6
CONTINUOUS
370
    -3
390
7
  0
ENDTAB
  0
TABLE
  2
STYLE
  5
11
330
0
100
AcDbSymbolTable
 70
     2
  0
STYLE
  5
15
330
11
100
AcDbSymbolTableRecord
100
AcDbTextStyleTableRecord
  2
STANDARD
 70
     0
 40
0.0
 41
1.0
 50
0.0
 71
     0
 42
10.79999999999999
  3
TXT
  4

  0
STYLE
  5
10
330
11
100
AcDbSymbolTableRecord
100
AcDbTextStyleTableRecord
  2
KANJI
 70
     0
 40
0.0
 41
1.0
 50
0.0
 71
     0
 42
18.0
  3
TXT
  4
BIGFONT
  0
ENDTAB
  0
TABLE
  2
VIEW
  5
29
330
0
100
AcDbSymbolTable
 70
     0
  0
ENDTAB
  0
TABLE
  2
UCS
  5
2A
330
0
100
AcDbSymbolTable
 70
     0
  0
ENDTAB
  0
TABLE
  2
APPID
  5
24
330
0
100
AcDbSymbolTable
 70
     4
  0
APPID
  5
32
330
24
100
AcDbSymbolTableRecord
100
AcDbRegAppTableRecord
  2
ACAD
 70
     0
  0
APPID
  5
34
330
24
100
AcDbSymbolTableRecord
100
AcDbRegAppTableRecord
  2
ACAD_NAV_VCDISPLAY
 70
     0
  0
APPID
  5
23
330
24
100
AcDbSymbolTableRecord
100
AcDbRegAppTableRecord
  2
ACAD_PSEXT
 70
     0
  0
APPID
  5
62E
330
24
100
AcDbSymbolTableRecord
100
AcDbRegAppTableRecord
  2
ACAD_MLEADERVER
 70
     0
  0
ENDTAB
  0
TABLE
  2
DIMSTYLE
  5
14
330
0
100
AcDbSymbolTable
 70
     1
100
AcDbDimStyleTable
  0
DIMSTYLE
105
13
330
14
100
AcDbSymbolTableRecord
100
AcDbDimStyleTableRecord
  2
STANDARD
 70
     0
178
     0
340
15
  0
ENDTAB
  0
TABLE
  2
BLOCK_RECORD
  5
18
330
0
100
AcDbSymbolTable
 70
     0
  0
BLOCK_RECORD
  5
19
102
{ACAD_XDICTIONARY
360
1A
102
}
330
18
100
AcDbSymbolTableRecord
100
AcDbBlockTableRecord
  2
*MODEL_SPACE
340
21
  0
BLOCK_RECORD
  5
25
330
18
100
AcDbSymbolTableRecord
100
AcDbBlockTableRecord
  2
*PAPER_SPACE
340
28
  0
ENDTAB
  0
ENDSEC
  0
SECTION
  2
BLOCKS
  0
BLOCK
  5
1C
330
19
100
AcDbEntity
  8
0
100
AcDbBlockBegin
  2
*MODEL_SPACE
 70
     0
 10
0.0
 20
0.0
 30
0.0
  3
*MODEL_SPACE
  1

  0
ENDBLK
  5
20
330
19
100
AcDbEntity
  8
0
100
AcDbBlockEnd
  0
BLOCK
  5
26
330
25
100
AcDbEntity
 67
     1
  8
0
100
AcDbBlockBegin
  2
*PAPER_SPACE
 70
     0
 10
0.0
 20
0.0
 30
0.0
  3
*PAPER_SPACE
  1

  0
ENDBLK
  5
27
330
25
100
AcDbEntity
 67
     1
  8
0
100
AcDbBlockEnd
  0
ENDSEC
  0
SECTION
  2
ENTITIES
  0
LINE
  5
6C
330
19
100
AcDbEntity
  8
4
100
AcDbLine
 10
866.4578091411163
 20
274.389584889283
 30
0.0
 11
866.4578091411163
 21
149.126154889283
 31
0.0
  0
LINE
  5
70
330
19
100
AcDbEntity
  8
4
100
AcDbLine
 10
561.3508741411165
 20
288.547294889283
 30
0.0
 11
575.5156691411162
 21
157.3634598892831
 31
0.0
  0
LINE
  5
71
330
19
100
AcDbEntity
  8
4
100
AcDbLine
 10
675.5647441411161
 20
288.547294889283
 30
0.0
 11
661.3999491411164
 21
157.3634598892831
 31
0.0
  0
LINE
  5
72
330
19
100
AcDbEntity
  8
4
100
AcDbLine
 10
370.4578091411163
 20
274.389584889283
 30
0.0
 11
370.4578091411163
 21
149.126154889283
 31
0.0
  0
CIRCLE
  5
73
330
19
100
AcDbEntity
  8
4
100
AcDbCircle
 10
618.4578091411163
 20
369.126154889283
 30
0.0
 40
250.0
  0
ARC
  5
74
330
19
100
AcDbEntity
  8
4
100
AcDbCircle
 10
618.4578091411163
 20
369.126154889283
 30
0.0
 40
220.0
100
AcDbArc
 50
96.58510479247461
 51
83.41489520752539
  0
ARC
  5
75
330
19
100
AcDbEntity
  8
4
100
AcDbCircle
 10
643.4578091411164
 20
585.6879243685703
 30
0.0
 40
2.0
100
AcDbArc
 50
83.41489520752658
 51
180.0
  0
ARC
  5
76
330
19
100
AcDbEntity
  8
4
100
AcDbCircle
 10
593.4578091411162
 20
585.6879243685703
 30
0.0
 40
2.0
100
AcDbArc
 50
0.0
 51
96.58510479247342
  0
ARC
  5
77
330
19
100
AcDbEntity
  8
4
100
AcDbCircle
 10
-28.54219085888371
 20
369.126154889283
 30
0.0
 40
900.0
100
AcDbArc
 50
345.742695000007
 51
14.25813799999099
  0
ARC
  5
78
330
19
100
AcDbEntity
  8
4
100
AcDbCircle
 10
1265.457809141116
 20
369.126154889283
 30
0.0
 40
900.00001
100
AcDbArc
 50
165.7423599999906
 51
194.2581229999902
  0
LINE
  5
79
330
19
100
AcDbEntity
  8
L-CENTER
 48
2.0
100
AcDbLine
 10
618.4578091411163
 20
810.7408998892829
 30
0.0
 11
618.4578091411163
 21
102.7785959990356
 31
0.0
  0
LINE
  5
86
330
19
100
AcDbEntity
  8
4
100
AcDbLine
 10
445.4578091411163
 20
139.126154889283
 30
0.0
 11
346.4578091411163
 21
139.126154889283
 31
0.0
  0
LINE
  5
87
330
19
100
AcDbEntity
  8
4
100
AcDbLine
 10
478.4578091411163
 20
89.12615488928304
 30
0.0
 11
343.4578091411163
 21
89.12615488928304
 31
0.0
  0
LINE
  5
9F
330
19
100
AcDbEntity
  8
4
100
AcDbLine
 10
343.4578091411163
 20
89.12615488928304
 30
0.0
 11
343.4578091411163
 21
136.126154889283
 31
0.0
  0
ARC
  5
A0
330
19
100
AcDbEntity
  8
4
100
AcDbCircle
 10
346.4578091411163
 20
136.126154889283
 30
0.0
 40
3.0
100
AcDbArc
 50
90.0
 51
180.0
  0
ARC
  5
A7
330
19
100
AcDbEntity
  8
4
100
AcDbCircle
 10
618.4580541411165
 20
1016.126154889283
 30
0.0
 40
899.999985
100
AcDbArc
 50
259.1124609999979
 51
280.8884379999988
  0
LINE
  5
AA
330
19
100
AcDbEntity
  8
4
100
AcDbLine
 10
758.4578091411163
 20
89.12615488928304
 30
0.0
 11
893.4578091411163
 21
89.12615488928304
 31
0.0
  0
LINE
  5
D6
330
19
100
AcDbEntity
  8
4
100
AcDbLine
 10
518.4578091411163
 20
113.126154889283
 30
0.0
 11
718.4578091411163
 21
113.126154889283
 31
0.0
  0
LINE
  5
D9
330
19
100
AcDbEntity
  8
4
100
AcDbLine
 10
448.4578091411163
 20
89.12615488928304
 30
0.0
 11
448.4578091411163
 21
169.126154889283
 31
0.0
  0
LINE
  5
DA
330
19
100
AcDbEntity
  8
L-CENTER
 48
2.0
100
AcDbLine
 10
383.4578091411163
 20
64.12615488928304
 30
0.0
 11
383.4578091411163
 21
164.126154889283
 31
0.0
  0
ARC
  5
DB
330
19
100
AcDbEntity
  8
4
100
AcDbCircle
 10
618.4580541411165
 20
1016.126154889283
 30
0.0
 40
900.00002
100
AcDbArc
 50
255.7422799999995
 51
257.0189519999982
  0
ARC
  5
DC
330
19
100
AcDbEntity
  8
4
100
AcDbCircle
 10
398.0273891411161
 20
148.6957348892829
 30
0.0
 40
4.999965
100
AcDbArc
 50
194.2581190000103
 51
255.7418670000024
  0
LINE
  5
DD
330
19
100
AcDbEntity
  8
4
100
AcDbLine
 10
365.4578091411163
 20
140.4658998892833
 30
0.0
 11
365.4578091411163
 21
146.126154889283
 31
0.0
  0
LINE
  5
DE
330
19
100
AcDbEntity
  8
4
100
AcDbLine
 10
367.4578091411163
 20
141.9847248892829
 30
0.0
 11
367.4578091411163
 21
154.126154889283
 31
0.0
  0
ARC
  5
DF
330
19
100
AcDbEntity
  8
4
100
AcDbCircle
 10
360.4578091411163
 20
149.126154889283
 30
0.0
 40
10.0
100
AcDbArc
 50
270.0
 51
0.0
  0
LINE
  5
E0
330
19
100
AcDbEntity
  8
4
100
AcDbLine
 10
370.4578091411163
 20
154.126154889283
 30
0.0
 11
367.4578091411163
 21
154.126154889283
 31
0.0
  0
LINE
  5
E1
330
19
100
AcDbEntity
  8
4
100
AcDbLine
 10
365.4578091411163
 20
146.126154889283
 30
0.0
 11
367.4578091411163
 21
146.126154889283
 31
0.0
  0
LINE
  5
E2
330
19
100
AcDbEntity
  8
4
100
AcDbLine
 10
436.4578091411163
 20
142.126154889283
 30
0.0
 11
436.4578091411163
 21
169.126154889283
 31
0.0
  0
ARC
  5
E3
330
19
100
AcDbEntity
  8
4
100
AcDbCircle
 10
445.4578091411163
 20
136.126154889283
 30
0.0
 40
3.0
100
AcDbArc
 50
0.0
 51
90.0
  0
ARC
  5
E4
330
19
100
AcDbEntity
  8
4
100
AcDbCircle
 10
433.4578091411163
 20
142.126154889283
 30
0.0
 40
3.0
100
AcDbArc
 50
270.0
 51
0.0
  0
LINE
  5
E5
330
19
100
AcDbEntity
  8
4
100
AcDbLine
 10
436.4578091411163
 20
169.126154889283
 30
0.0
 11
448.4578091411163
 21
169.126154889283
 31
0.0
  0
LINE
  5
E6
330
19
100
AcDbEntity
  8
4
100
AcDbLine
 10
486.2626891411164
 20
105.8822548892831
 30
0.0
 11
518.4578091411163
 21
113.126154889283
 31
0.0
  0
ARC
  5
E7
330
19
100
AcDbEntity
  8
4
100
AcDbCircle
 10
488.4578091411163
 20
96.12615488928304
 30
0.0
 40
10.0
100
AcDbArc
 50
102.6803830000023
 51
180.0
  0
LINE
  5
E8
330
19
100
AcDbEntity
  8
4
100
AcDbLine
 10
478.4578091411163
 20
89.51433988928284
 30
0.0
 11
478.4578091411163
 21
89.12615488928304
 31
0.0
  0
LINE
  5
E9
330
19
100
AcDbEntity
  8
4
100
AcDbLine
 10
478.4578091411163
 20
89.12615488928304
 30
0.0
 11
478.4578091411163
 21
96.12615488928304
 31
0.0
  0
ARC
  5
EC
330
19
100
AcDbEntity
  8
4
100
AcDbCircle
 10
572.5330041411162
 20
157.0414398892831
 30
0.0
 40
3.00005
100
AcDbArc
 50
257.7801900000009
 51
6.162021999997868
  0
ARC
  5
ED
330
19
100
AcDbEntity
  8
4
100
AcDbCircle
 10
664.3826141411164
 20
157.0414398892831
 30
0.0
 40
3.00005
100
AcDbArc
 50
173.8379780000021
 51
282.2198099999991
  0
LINE
  5
EE
330
19
100
AcDbEntity
  8
4
100
AcDbLine
 10
718.4578091411163
 20
113.126154889283
 30
0.0
 11
750.6529291411161
 21
105.8822548892831
 31
0.0
  0
ARC
  5
EF
330
19
100
AcDbEntity
  8
4
100
AcDbCircle
 10
748.4578091411163
 20
96.12615488928304
 30
0.0
 40
10.0
100
AcDbArc
 50
0.0
 51
77.31961699999778
  0
LINE
  5
F0
330
19
100
AcDbEntity
  8
4
100
AcDbLine
 10
758.4578091411163
 20
89.51433988928284
 30
0.0
 11
758.4578091411163
 21
89.12615488928304
 31
0.0
  0
LINE
  5
F1
330
19
100
AcDbEntity
  8
4
100
AcDbLine
 10
758.4578091411163
 20
89.12615488928304
 30
0.0
 11
758.4578091411163
 21
96.12615488928304
 31
0.0
  0
TEXT
  5
F3
330
19
100
AcDbEntity
  8
3
100
AcDbText
 10
1122.093641071426
 20
75.42009307157787
 30
0.0
 40
18.73821597033114
  1
LB9-06
  7
KANJI
100
AcDbText
  0
ARC
  5
F9
330
19
100
AcDbEntity
  8
4
100
AcDbCircle
 10
890.4578091411163
 20
136.126154889283
 30
0.0
 40
3.0
100
AcDbArc
 50
0.0
 51
90.0
  0
LINE
  5
FA
330
19
100
AcDbEntity
  8
L-CENTER
 48
2.0
100
AcDbLine
 10
853.4578091411163
 20
64.12615488928304
 30
0.0
 11
853.4578091411162
 21
164.126154889283
 31
0.0
  0
LWPOLYLINE
  5
FB
330
19
100
AcDbEntity
  8
4
100
AcDbPolyline
 90
       44
 70
     0
 43
0.0
 10
828.6429141411163
 20
139.1271898892833
 10
829.488494141116
 20
138.3600598892831
 10
830.3109141411164
 20
137.5924498892832
 10
831.0870041411163
 20
136.8238848892829
 10
832.9056591411163
 20
134.5076398892829
 10
833.2647891411166
 20
133.7304448892833
 10
833.4617741411162
 20
132.9498948892829
 10
833.473444141116
 20
132.1655098892829
 10
833.2905441411162
 20
131.3881048892831
 10
832.9401041411161
 20
130.6063098892832
 10
832.4571791411163
 20
129.819939889283
 10
830.5639991411163
 20
127.4313948892832
 10
828.7403141411164
 20
124.9946298892833
 10
828.3114441411162
 20
124.1707498892829
 10
828.0304991411163
 20
123.3407348892829
 10
827.9325391411162
 20
122.5043898892832
 10
828.0132741411162
 20
121.7841648892831
 10
828.2322991411161
 20
121.062899889283
 10
828.5682291411163
 20
120.344329889283
 10
828.999689141116
 20
119.6321948892833
 10
829.5052991411162
 20
118.9302298892831
 10
830.0636791411162
 20
118.2421698892831
 10
830.7424491411161
 20
117.4708348892832
 10
831.4219791411165
 20
116.7192448892829
 10
832.0614541411164
 20
115.9837748892828
 10
832.6200691411163
 20
115.2607998892831
 10
833.0569941411163
 20
114.5466948892831
 10
833.3314241411163
 20
113.8378348892829
 10
833.4097441411163
 20
113.043979889283
 10
833.2607591411165
 20
112.251229889283
 10
832.9137291411162
 20
111.4586498892832
 10
830.9770341411163
 20
109.0725398892832
 10
828.3114891411165
 20
106.6541798892831
 10
825.7072341411163
 20
104.1782498892831
 10
824.9893391411165
 20
103.3357748892831
 10
824.3953141411162
 20
102.4831498892831
 10
823.9544241411163
 20
101.6194348892827
 10
823.6228391411164
 20
100.327389889283
 10
823.642294141116
 20
99.01220488928311
 10
823.9689041411161
 20
97.67677488928302
 10
826.3528791411163
 20
93.57792488928317
 10
827.4693191411166
 20
92.19042988928277
 10
828.6735191411162
 20
90.79714988928299
 10
829.9215991411161
 20
89.40097988928301
  0
LINE
  5
FC
330
19
100
AcDbEntity
  8
4
100
AcDbLine
 10
841.4578091411163
 20
139.126154889283
 30
0.0
 11
841.4578091411163
 21
89.12615488928304
 31
0.0
  0
LINE
  5
FD
330
19
100
AcDbEntity
  8
4
100
AcDbLine
 10
865.4578091411163
 20
139.126154889283
 30
0.0
 11
865.4578091411163
 21
89.12615488928304
 31
0.0
  0
LINE
  5
FE
330
19
100
AcDbEntity
  8
4
100
AcDbLine
 10
788.4578091411163
 20
89.12615488928304
 30
0.0
 11
788.4578091411163
 21
169.126154889283
 31
0.0
  0
ARC
  5
100
330
19
100
AcDbEntity
  8
4
100
AcDbCircle
 10
618.4575641411161
 20
1016.126154889283
 30
0.0
 40
900.0000699999999
100
AcDbArc
 50
282.9810610000005
 51
284.2586510000015
  0
LINE
  5
101
330
19
100
AcDbEntity
  8
4
100
AcDbLine
 10
791.4578091411163
 20
139.126154889283
 30
0.0
 11
890.4578091411163
 21
139.126154889283
 31
0.0
  0
LINE
  5
102
330
19
100
AcDbEntity
  8
4
100
AcDbLine
 10
800.4578091411163
 20
142.126154889283
 30
0.0
 11
800.4578091411163
 21
169.126154889283
 31
0.0
  0
ARC
  5
103
330
19
100
AcDbEntity
  8
4
100
AcDbCircle
 10
803.4578091411163
 20
142.126154889283
 30
0.0
 40
3.0
100
AcDbArc
 50
180.0
 51
270.0
  0
ARC
  5
104
330
19
100
AcDbEntity
  8
4
100
AcDbCircle
 10
791.4578091411163
 20
136.126154889283
 30
0.0
 40
3.0
100
AcDbArc
 50
90.0
 51
180.0
  0
LINE
  5
105
330
19
100
AcDbEntity
  8
4
100
AcDbLine
 10
800.4578091411163
 20
169.126154889283
 30
0.0
 11
788.4578091411163
 21
169.126154889283
 31
0.0
  0
ARC
  5
106
330
19
100
AcDbEntity
  8
4
100
AcDbCircle
 10
838.8882291411164
 20
148.6957348892829
 30
0.0
 40
4.999965
100
AcDbArc
 50
284.2581329999982
 51
345.7418809999897
  0
ARC
  5
107
330
19
100
AcDbEntity
  8
4
100
AcDbCircle
 10
876.4578091411163
 20
149.126154889283
 30
0.0
 40
10.0
100
AcDbArc
 50
180.0
 51
270.0014040000001
  0
LINE
  5
10A
330
19
100
AcDbEntity
  8
4
100
AcDbLine
 10
893.4578091411163
 20
89.12615488928304
 30
0.0
 11
893.4578091411163
 21
136.126154889283
 31
0.0
  0
LINE
  5
110
330
19
100
AcDbEntity
  8
4
100
AcDbLine
 10
365.4578091411163
 20
724.126154889283
 30
0.0
 11
348.6579091411163
 21
724.126154889283
 31
0.0
  0
LINE
  5
111
330
19
100
AcDbEntity
  8
L-CENTER
 48
2.0
100
AcDbLine
 10
330.647124945835
 20
680.9979798892832
 30
0.0
 11
390.5812084168879
 21
680.9979798892832
 31
0.0
  0
LINE
  5
112
330
19
100
AcDbEntity
  8
4
100
AcDbLine
 10
348.6579091411163
 20
514.126154889283
 30
0.0
 11
365.4578091411163
 21
514.126154889283
 31
0.0
  0
LINE
  5
113
330
19
100
AcDbEntity
  8
L-CENTER
 48
2.0
100
AcDbLine
 10
347.2770591411163
 20
329.126154889283
 30
0.0
 11
391.787016189382
 21
329.126154889283
 31
0.0
  0
LINE
  5
116
330
19
100
AcDbEntity
  8
L-CENTER
 48
2.0
100
AcDbLine
 10
1031.648958944688
 20
619.126154889283
 30
0.0
 11
205.2666593375443
 21
619.126154889283
 31
0.0
  0
LINE
  5
11B
330
19
100
AcDbEntity
  8
4
100
AcDbLine
 10
347.6579041411164
 20
664.126154889283
 30
0.0
 11
347.6579041411164
 21
574.126154889283
 31
0.0
  0
LINE
  5
11C
330
19
100
AcDbEntity
  8
4
100
AcDbLine
 10
333.4578091411163
 20
651.626154889283
 30
0.0
 11
333.4578091411163
 21
586.626154889283
 31
0.0
  0
LINE
  5
11D
330
19
100
AcDbEntity
  8
4
100
AcDbLine
 10
215.4578091411163
 20
648.126154889283
 30
0.0
 11
215.4578091411163
 21
590.126154889283
 31
0.0
  0
LINE
  5
11E
330
19
100
AcDbEntity
  8
4
100
AcDbLine
 10
213.4578091411163
 20
653.126154889283
 30
0.0
 11
213.4578091411163
 21
592.126154889283
 31
0.0
  0
LINE
  5
11F
330
19
100
AcDbEntity
  8
4
100
AcDbLine
 10
348.6579091411163
 20
724.126154889283
 30
0.0
 11
348.6579091411163
 21
514.126154889283
 31
0.0
  0
LINE
  5
120
330
19
100
AcDbEntity
  8
4
100
AcDbLine
 10
333.4578091411163
 20
590.126154889283
 30
0.0
 11
215.4578091411163
 21
590.126154889283
 31
0.0
  0
LINE
  5
121
330
19
100
AcDbEntity
  8
4
100
AcDbLine
 10
215.4578091411163
 20
590.126154889283
 30
0.0
 11
213.4578091411163
 21
592.126154889283
 31
0.0
  0
LINE
  5
122
330
19
100
AcDbEntity
  8
4
100
AcDbLine
 10
348.6579091411163
 20
545.2543298892829
 30
0.0
 11
348.6579091411163
 21
569.2543298892829
 31
0.0
  0
LINE
  5
123
330
19
100
AcDbEntity
  8
4
100
AcDbLine
 10
345.6579091411163
 20
569.2543298892829
 30
0.0
 11
345.6579091411163
 21
545.2543298892829
 31
0.0
  0
ARC
  5
124
330
19
100
AcDbEntity
  8
4
100
AcDbCircle
 10
341.2416491411163
 20
566.2543298892829
 30
0.0
 40
4.58369
100
AcDbArc
 50
139.1186700000087
 51
220.8813299999913
  0
LINE
  5
125
330
19
100
AcDbEntity
  8
4
100
AcDbLine
 10
336.6579091411163
 20
566.2543298892829
 30
0.0
 11
336.6579091411163
 21
548.2543298892829
 31
0.0
  0
LINE
  5
126
330
19
100
AcDbEntity
  8
4
100
AcDbLine
 10
348.6579091411163
 20
545.2543298892829
 30
0.0
 11
345.6579091411163
 21
545.2543298892829
 31
0.0
  0
ARC
  5
127
330
19
100
AcDbEntity
  8
4
100
AcDbCircle
 10
354.6579091411163
 20
557.2543298892829
 30
0.0
 40
18.00009
100
AcDbArc
 50
160.528928000001
 51
199.4703399999861
  0
ARC
  5
128
330
19
100
AcDbEntity
  8
4
100
AcDbCircle
 10
341.2416491411163
 20
548.2543298892829
 30
0.0
 40
4.58369
100
AcDbArc
 50
139.1186700000087
 51
220.8813299999913
  0
LINE
  5
129
330
19
100
AcDbEntity
  8
4
100
AcDbLine
 10
345.6579091411163
 20
563.2543298892829
 30
0.0
 11
337.6874491411163
 21
563.2543298892829
 31
0.0
  0
LINE
  5
12A
330
19
100
AcDbEntity
  8
4
100
AcDbLine
 10
345.6579091411163
 20
551.2543298892829
 30
0.0
 11
337.6874491411163
 21
551.2543298892829
 31
0.0
  0
LINE
  5
12B
330
19
100
AcDbEntity
  8
4
100
AcDbLine
 10
337.6874491411163
 20
545.2543298892829
 30
0.0
 11
345.6579091411163
 21
545.2543298892829
 31
0.0
  0
LINE
  5
12C
330
19
100
AcDbEntity
  8
4
100
AcDbLine
 10
348.6579041411164
 20
574.126154889283
 30
0.0
 11
347.6579041411164
 21
574.126154889283
 31
0.0
  0
LINE
  5
12D
330
19
100
AcDbEntity
  8
4
100
AcDbLine
 10
348.6579091411163
 20
569.2543298892829
 30
0.0
 11
345.6579091411163
 21
569.2543298892829
 31
0.0
  0
LINE
  5
12E
330
19
100
AcDbEntity
  8
4
100
AcDbLine
 10
347.6579041411164
 20
586.626154889283
 30
0.0
 11
333.4578091411163
 21
586.626154889283
 31
0.0
  0
LINE
  5
12F
330
19
100
AcDbEntity
  8
4
100
AcDbLine
 10
337.6874491411163
 20
569.2543298892829
 30
0.0
 11
345.6579091411163
 21
569.2543298892829
 31
0.0
  0
LINE
  5
130
330
19
100
AcDbEntity
  8
4
100
AcDbLine
 10
333.4578091411163
 20
648.126154889283
 30
0.0
 11
215.4578091411163
 21
648.126154889283
 31
0.0
  0
LINE
  5
131
330
19
100
AcDbEntity
  8
4
100
AcDbLine
 10
213.4578091411163
 20
653.126154889283
 30
0.0
 11
323.4578091411163
 21
653.126154889283
 31
0.0
  0
LINE
  5
133
330
19
100
AcDbEntity
  8
4
100
AcDbLine
 10
213.4578091411163
 20
646.126154889283
 30
0.0
 11
215.4578091411163
 21
648.126154889283
 31
0.0
  0
ARC
  5
134
330
19
100
AcDbEntity
  8
4
100
AcDbCircle
 10
341.2416491411163
 20
671.9979798892832
 30
0.0
 40
4.583600000000001
100
AcDbArc
 50
139.1186700000098
 51
220.8833260000132
  0
LINE
  5
135
330
19
100
AcDbEntity
  8
4
100
AcDbLine
 10
345.6579091411163
 20
668.9979798892832
 30
0.0
 11
345.6579091411163
 21
692.9979798892832
 31
0.0
  0
LINE
  5
136
330
19
100
AcDbEntity
  8
4
100
AcDbLine
 10
348.6579091411163
 20
692.9979798892832
 30
0.0
 11
348.6579091411163
 21
668.9979798892832
 31
0.0
  0
LINE
  5
137
330
19
100
AcDbEntity
  8
4
100
AcDbLine
 10
347.6579041411164
 20
664.126154889283
 30
0.0
 11
348.6579041411164
 21
664.126154889283
 31
0.0
  0
LINE
  5
138
330
19
100
AcDbEntity
  8
4
100
AcDbLine
 10
348.6579091411163
 20
668.9979798892832
 30
0.0
 11
345.6579091411163
 21
668.9979798892832
 31
0.0
  0
LINE
  5
139
330
19
100
AcDbEntity
  8
4
100
AcDbLine
 10
323.4578091411163
 20
653.126154889283
 30
0.0
 11
323.4578091411163
 21
648.126154889283
 31
0.0
  0
LINE
  5
13A
330
19
100
AcDbEntity
  8
4
100
AcDbLine
 10
333.4578091411163
 20
651.626154889283
 30
0.0
 11
347.6579041411164
 21
651.626154889283
 31
0.0
  0
LINE
  5
13B
330
19
100
AcDbEntity
  8
4
100
AcDbLine
 10
337.6874491411163
 20
668.9979798892832
 30
0.0
 11
345.6579091411163
 21
668.9979798892832
 31
0.0
  0
LINE
  5
13C
330
19
100
AcDbEntity
  8
4
100
AcDbLine
 10
348.6579091411163
 20
692.9979798892832
 30
0.0
 11
345.6579091411163
 21
692.9979798892832
 31
0.0
  0
LINE
  5
13D
330
19
100
AcDbEntity
  8
4
100
AcDbLine
 10
336.6579091411163
 20
671.9979798892832
 30
0.0
 11
336.6579091411163
 21
689.9979798892832
 31
0.0
  0
ARC
  5
13E
330
19
100
AcDbEntity
  8
4
100
AcDbCircle
 10
354.6579091411163
 20
680.9979798892832
 30
0.0
 40
17.999975
100
AcDbArc
 50
160.5296600000135
 51
199.4713310000033
  0
ARC
  5
13F
330
19
100
AcDbEntity
  8
4
100
AcDbCircle
 10
341.2416491411163
 20
689.9979798892832
 30
0.0
 40
4.583600000000001
100
AcDbArc
 50
139.1186700000098
 51
220.8833260000132
  0
LINE
  5
140
330
19
100
AcDbEntity
  8
4
100
AcDbLine
 10
337.6874491411163
 20
692.9979798892832
 30
0.0
 11
345.6579091411163
 21
692.9979798892832
 31
0.0
  0
LINE
  5
141
330
19
100
AcDbEntity
  8
4
100
AcDbLine
 10
345.6579091411163
 20
686.9979798892832
 30
0.0
 11
337.6874491411163
 21
686.9979798892832
 31
0.0
  0
LINE
  5
142
330
19
100
AcDbEntity
  8
4
100
AcDbLine
 10
345.6579091411163
 20
674.9979798892832
 30
0.0
 11
337.6874491411163
 21
674.9979798892832
 31
0.0
  0
LINE
  5
14D
330
19
100
AcDbEntity
  8
L-CENTER
 48
2.0
100
AcDbLine
 10
857.4578091411163
 20
754.8165561540777
 30
0.0
 11
857.4578091411163
 21
701.5072311540775
 31
0.0
  0
LINE
  5
14E
330
19
100
AcDbEntity
  8
4
100
AcDbLine
 10
847.4578091411163
 20
735.126154889283
 30
0.0
 11
847.4578091411163
 21
745.126154889283
 31
0.0
  0
LINE
  5
14F
330
19
100
AcDbEntity
  8
4
100
AcDbLine
 10
867.4578091411163
 20
735.126154889283
 30
0.0
 11
867.4578091411163
 21
745.126154889283
 31
0.0
  0
LINE
  5
150
330
19
100
AcDbEntity
  8
4
100
AcDbLine
 10
633.268844141116
 20
741.1107748892832
 30
0.0
 11
635.9578091411163
 21
729.126154889283
 31
0.0
  0
LINE
  5
151
330
19
100
AcDbEntity
  8
4
100
AcDbLine
 10
603.6467741411166
 20
741.1107748892832
 30
0.0
 11
600.9578091411163
 21
729.126154889283
 31
0.0
  0
ARC
  5
152
330
19
100
AcDbEntity
  8
4
100
AcDbCircle
 10
618.4578091411163
 20
764.126154889283
 30
0.0
 40
35.99993499999999
100
AcDbArc
 50
305.3397909999953
 51
234.661611999998
  0
LINE
  5
153
330
19
100
AcDbEntity
  8
L-CENTER
 48
2.0
100
AcDbLine
 10
478.4578091411163
 20
747.0159198892829
 30
0.0
 11
478.4578091411163
 21
705.2685122572925
 31
0.0
  0
LINE
  5
154
330
19
100
AcDbEntity
  8
4
100
AcDbLine
 10
489.9578091411163
 20
735.126154889283
 30
0.0
 11
489.9578091411163
 21
740.126154889283
 31
0.0
  0
LINE
  5
155
330
19
100
AcDbEntity
  8
4
100
AcDbLine
 10
501.4578091411163
 20
731.126154889283
 30
0.0
 11
501.4578091411163
 21
740.126154889283
 31
0.0
  0
LINE
  5
156
330
19
100
AcDbEntity
  8
4
100
AcDbLine
 10
466.9578091411163
 20
735.126154889283
 30
0.0
 11
466.9578091411163
 21
740.126154889283
 31
0.0
  0
LINE
  5
157
330
19
100
AcDbEntity
  8
4
100
AcDbLine
 10
455.4578091411163
 20
731.126154889283
 30
0.0
 11
455.4578091411163
 21
740.126154889283
 31
0.0
  0
LINE
  5
158
330
19
100
AcDbEntity
  8
L-CENTER
 48
2.0
100
AcDbLine
 10
379.4578091411163
 20
754.8165561540777
 30
0.0
 11
379.4578091411163
 21
701.5072311540775
 31
0.0
  0
LINE
  5
159
330
19
100
AcDbEntity
  8
4
100
AcDbLine
 10
369.4578091411163
 20
735.126154889283
 30
0.0
 11
369.4578091411163
 21
745.126154889283
 31
0.0
  0
LINE
  5
15A
330
19
100
AcDbEntity
  8
4
100
AcDbLine
 10
389.4578091411163
 20
735.126154889283
 30
0.0
 11
389.4578091411163
 21
745.126154889283
 31
0.0
  0
LINE
  5
15B
330
19
100
AcDbEntity
  8
4
100
AcDbLine
 10
699.0369091411162
 20
426.2330898892828
 30
0.0
 11
830.2205041411162
 21
412.068049889283
 31
0.0
  0
LINE
  5
15C
330
19
100
AcDbEntity
  8
4
100
AcDbLine
 10
699.0369091411162
 20
312.0192198892832
 30
0.0
 11
830.2205041411162
 21
326.1842598892831
 31
0.0
  0
ARC
  5
15D
330
19
100
AcDbEntity
  8
4
100
AcDbCircle
 10
618.4580541411165
 20
-277.873845110717
 30
0.0
 40
900.00001
100
AcDbArc
 50
75.74190899999856
 51
104.2581399999966
  0
LINE
  5
15E
330
19
100
AcDbEntity
  8
4
100
AcDbLine
 10
370.4578091411163
 20
726.126154889283
 30
0.0
 11
866.4578091411163
 21
726.126154889283
 31
0.0
  0
LINE
  5
15F
330
19
100
AcDbEntity
  8
L-CENTER
 48
2.0
100
AcDbLine
 10
352.1102502508688
 20
369.126154889283
 30
0.0
 11
884.8053680313637
 21
369.126154889283
 31
0.0
  0
LINE
  5
160
330
19
100
AcDbEntity
  8
4
100
AcDbLine
 10
575.5157207414122
 20
580.8888424295553
 30
0.0
 11
561.3508741411165
 21
449.7050098892828
 31
0.0
  0
ARC
  5
161
330
19
100
AcDbEntity
  8
4
100
AcDbCircle
 10
618.4578091411163
 20
146.626154889283
 30
0.0
 40
299.99994
100
AcDbArc
 50
77.23053799999929
 51
102.7695530000017
  0
ARC
  5
162
330
19
100
AcDbEntity
  8
4
100
AcDbCircle
 10
618.4578091411163
 20
151.626154889283
 30
0.0
 40
300.00009
100
AcDbArc
 50
76.42224300000157
 51
103.5778019999991
  0
ARC
  5
163
330
19
100
AcDbEntity
  8
4
100
AcDbCircle
 10
618.4578091411163
 20
591.626154889283
 30
0.0
 40
300.00002
100
AcDbArc
 50
257.2307859999991
 51
282.7699380000017
  0
ARC
  5
164
330
19
100
AcDbEntity
  8
4
100
AcDbCircle
 10
618.4578091411163
 20
586.626154889283
 30
0.0
 40
299.99997
100
AcDbArc
 50
256.4225260000024
 51
283.5780960000024
  0
ARC
  5
165
330
19
100
AcDbEntity
  8
4
100
AcDbCircle
 10
840.9575641411161
 20
369.1259098892829
 30
0.0
 40
300.000015
100
AcDbArc
 50
167.2307859999919
 51
192.7695079999879
  0
ARC
  5
166
330
19
100
AcDbEntity
  8
4
100
AcDbCircle
 10
835.9575641411161
 20
369.1259098892829
 30
0.0
 40
299.99995
100
AcDbArc
 50
166.4225710000112
 51
193.577712000009
  0
LINE
  5
167
330
19
100
AcDbEntity
  8
4
100
AcDbLine
 10
537.8787091411164
 20
312.0192198892832
 30
0.0
 11
406.6951141411164
 21
326.1842598892831
 31
0.0
  0
LINE
  5
168
330
19
100
AcDbEntity
  8
4
100
AcDbLine
 10
365.4582141411161
 20
349.126154889283
 30
0.0
 11
365.4582141411161
 21
309.126154889283
 31
0.0
  0
LINE
  5
169
330
19
100
AcDbEntity
  8
4
100
AcDbLine
 10
356.9582141411161
 20
311.126154889283
 30
0.0
 11
356.9582141411161
 21
347.126154889283
 31
0.0
  0
LINE
  5
16A
330
19
100
AcDbEntity
  8
4
100
AcDbLine
 10
365.4582141411161
 20
312.126154889283
 30
0.0
 11
365.4582141411161
 21
346.126154889283
 31
0.0
  0
LINE
  5
16B
330
19
100
AcDbEntity
  8
4
100
AcDbLine
 10
363.9582141411165
 20
311.126154889283
 30
0.0
 11
363.9582141411165
 21
347.126154889283
 31
0.0
  0
LINE
  5
16C
330
19
100
AcDbEntity
  8
4
100
AcDbLine
 10
361.9582141411161
 20
311.126154889283
 30
0.0
 11
361.9582141411161
 21
347.126154889283
 31
0.0
  0
LINE
  5
16D
330
19
100
AcDbEntity
  8
4
100
AcDbLine
 10
363.9582141411165
 20
312.126154889283
 30
0.0
 11
365.4582141411161
 21
312.126154889283
 31
0.0
  0
LINE
  5
16E
330
19
100
AcDbEntity
  8
4
100
AcDbLine
 10
365.4582141411161
 20
309.126154889283
 30
0.0
 11
367.4600091411162
 21
309.126154889283
 31
0.0
  0
LINE
  5
16F
330
19
100
AcDbEntity
  8
4
100
AcDbLine
 10
363.9582141411165
 20
311.126154889283
 30
0.0
 11
356.9582141411161
 21
311.126154889283
 31
0.0
  0
ARC
  5
170
330
19
100
AcDbEntity
  8
4
100
AcDbCircle
 10
537.3418441411163
 20
307.0482748892832
 30
0.0
 40
5.0
100
AcDbArc
 50
11.74284000000842
 51
83.83621699999982
  0
ARC
  5
171
330
19
100
AcDbEntity
  8
4
100
AcDbCircle
 10
556.3796841411163
 20
288.0104298892829
 30
0.0
 40
5.000025
100
AcDbArc
 50
6.163781999989684
 51
78.25441300000107
  0
ARC
  5
172
330
19
100
AcDbEntity
  8
4
100
AcDbCircle
 10
553.2537091411164
 20
303.9225398892831
 30
0.0
 40
4.999904999999999
100
AcDbArc
 50
192.7706639999981
 51
257.2293359999965
  0
ARC
  5
173
330
19
100
AcDbEntity
  8
4
100
AcDbCircle
 10
549.2019491411161
 20
299.8707848892832
 30
0.0
 40
5.00009
100
AcDbArc
 50
193.5775609999982
 51
256.4224410000014
  0
LINE
  5
174
330
19
100
AcDbEntity
  8
4
100
AcDbLine
 10
537.8787091411164
 20
426.2330898892828
 30
0.0
 11
406.6951141411164
 21
412.068049889283
 31
0.0
  0
ARC
  5
175
330
19
100
AcDbEntity
  8
4
100
AcDbCircle
 10
406.3730941411163
 20
323.2015948892831
 30
0.0
 40
3.00005
100
AcDbArc
 50
83.83797799999884
 51
192.219809999997
  0
LINE
  5
176
330
19
100
AcDbEntity
  8
4
100
AcDbLine
 10
365.6799791411163
 20
349.126154889283
 30
0.0
 11
365.4582141411161
 21
349.126154889283
 31
0.0
  0
LINE
  5
177
330
19
100
AcDbEntity
  8
4
100
AcDbLine
 10
365.4582141411161
 20
346.126154889283
 30
0.0
 11
363.9582141411165
 21
346.126154889283
 31
0.0
  0
LINE
  5
178
330
19
100
AcDbEntity
  8
4
100
AcDbLine
 10
363.9582141411165
 20
347.126154889283
 30
0.0
 11
356.9582141411161
 21
347.126154889283
 31
0.0
  0
LINE
  5
179
330
19
100
AcDbEntity
  8
4
100
AcDbLine
 10
361.9582141411161
 20
338.126154889283
 30
0.0
 11
356.9582141411161
 21
338.126154889283
 31
0.0
  0
LINE
  5
17A
330
19
100
AcDbEntity
  8
4
100
AcDbLine
 10
361.9582141411161
 20
320.126154889283
 30
0.0
 11
356.9582141411161
 21
320.126154889283
 31
0.0
  0
ARC
  5
17B
330
19
100
AcDbEntity
  8
4
100
AcDbCircle
 10
406.3730941411163
 20
415.050714889283
 30
0.0
 40
3.00005
100
AcDbArc
 50
167.7801900000051
 51
276.1620220000013
  0
ARC
  5
17C
330
19
100
AcDbEntity
  8
4
100
AcDbCircle
 10
537.3418441411163
 20
431.2040348892829
 30
0.0
 40
5.0
100
AcDbArc
 50
276.1637819999996
 51
348.2571599999916
  0
ARC
  5
17D
330
19
100
AcDbEntity
  8
4
100
AcDbCircle
 10
556.3796841411163
 20
450.2418748892828
 30
0.0
 40
5.000025
100
AcDbArc
 50
281.745588999998
 51
353.8362180000103
  0
ARC
  5
17E
330
19
100
AcDbEntity
  8
4
100
AcDbCircle
 10
549.2021941411163
 20
438.3815248892829
 30
0.0
 40
5.00009
100
AcDbArc
 50
103.5775610000008
 51
166.4224390000005
  0
ARC
  5
17F
330
19
100
AcDbEntity
  8
4
100
AcDbCircle
 10
553.2537091411164
 20
434.3300098892828
 30
0.0
 40
5.00009
100
AcDbArc
 50
102.7673189999987
 51
167.2326809999896
  0
ARC
  5
180
330
19
100
AcDbEntity
  8
4
100
AcDbCircle
 10
395.9580541411165
 20
369.1259098892829
 30
0.0
 40
299.999975
100
AcDbArc
 50
347.2311140000005
 51
12.7695530000065
  0
ARC
  5
181
330
19
100
AcDbEntity
  8
4
100
AcDbCircle
 10
400.9580541411165
 20
369.1259098892829
 30
0.0
 40
300.000075
100
AcDbArc
 50
346.4230119999949
 51
13.57775700000587
  0
CIRCLE
  5
182
330
19
100
AcDbEntity
  8
4
100
AcDbCircle
 10
618.4578091411163
 20
369.126154889283
 30
0.0
 40
50.0
  0
ARC
  5
183
330
19
100
AcDbEntity
  8
4
100
AcDbCircle
 10
699.5737741411162
 20
307.0482748892832
 30
0.0
 40
5.0
100
AcDbArc
 50
96.16378300000021
 51
168.2571599999916
  0
ARC
  5
184
330
19
100
AcDbEntity
  8
4
100
AcDbCircle
 10
683.6619091411162
 20
303.9225398892831
 30
0.0
 40
4.999904999999999
100
AcDbArc
 50
282.7706640000035
 51
347.2293360000019
  0
ARC
  5
185
330
19
100
AcDbEntity
  8
4
100
AcDbCircle
 10
680.5359341411163
 20
288.0104298892829
 30
0.0
 40
5.000025
100
AcDbArc
 50
101.7455749999984
 51
173.8362169999922
  0
ARC
  5
186
330
19
100
AcDbEntity
  8
4
100
AcDbCircle
 10
687.7136691411165
 20
299.8707848892832
 30
0.0
 40
5.00009
100
AcDbArc
 50
283.5775589999973
 51
346.4224390000018
  0
ARC
  5
187
330
19
100
AcDbEntity
  8
4
100
AcDbCircle
 10
618.4578091411163
 20
369.126154889283
 30
0.0
 40
38.99999
100
AcDbArc
 50
104.8571694421997
 51
75.1428329999985
  0
LINE
  5
188
330
19
100
AcDbEntity
  8
4
100
AcDbLine
 10
608.4578091411163
 20
401.126154889283
 30
0.0
 11
628.4578091411163
 21
401.126154889283
 31
0.0
  0
LINE
  5
189
330
19
100
AcDbEntity
  8
4
100
AcDbLine
 10
628.4578091411163
 20
414.126154889283
 30
0.0
 11
608.4578091411163
 21
414.126154889283
 31
0.0
  0
LINE
  5
18A
330
19
100
AcDbEntity
  8
4
100
AcDbLine
 10
608.4578091411163
 20
401.126154889283
 30
0.0
 11
608.4578091411163
 21
414.126154889283
 31
0.0
  0
LINE
  5
18B
330
19
100
AcDbEntity
  8
4
100
AcDbLine
 10
628.4578091411163
 20
401.126154889283
 30
0.0
 11
628.4578091411163
 21
414.126154889283
 31
0.0
  0
ARC
  5
18C
330
19
100
AcDbEntity
  8
4
100
AcDbCircle
 10
699.5737741411162
 20
431.2040348892829
 30
0.0
 40
5.0
100
AcDbArc
 50
191.7428400000084
 51
263.8362180000004
  0
ARC
  5
18D
330
19
100
AcDbEntity
  8
4
100
AcDbCircle
 10
683.6619091411162
 20
434.3300098892828
 30
0.0
 40
5.00009
100
AcDbArc
 50
12.76731900001039
 51
77.23268100000132
  0
ARC
  5
18E
330
19
100
AcDbEntity
  8
4
100
AcDbCircle
 10
687.7134241411163
 20
438.3815248892829
 30
0.0
 40
5.00009
100
AcDbArc
 50
13.57756099999947
 51
76.42243899999924
  0
ARC
  5
18F
330
19
100
AcDbEntity
  8
4
100
AcDbCircle
 10
365.4578091411163
 20
599.126154889283
 30
0.0
 40
5.0
100
AcDbArc
 50
0.0
 51
90.0
  0
LINE
  5
190
330
19
100
AcDbEntity
  8
4
100
AcDbLine
 10
365.4578091411163
 20
514.126154889283
 30
0.0
 11
365.4578091411163
 21
724.126154889283
 31
0.0
  0
LINE
  5
191
330
19
100
AcDbEntity
  8
4
100
AcDbLine
 10
370.4578091411163
 20
463.8627248892831
 30
0.0
 11
370.4578091411163
 21
599.126154889283
 31
0.0
  0
ARC
  5
192
330
19
100
AcDbEntity
  8
4
100
AcDbCircle
 10
368.4578091411163
 20
512.126154889283
 30
0.0
 40
2.0
100
AcDbArc
 50
0.0
 51
90.0
  0
LINE
  5
193
330
19
100
AcDbEntity
  8
4
100
AcDbLine
 10
368.4578091411163
 20
514.126154889283
 30
0.0
 11
365.4578091411163
 21
514.126154889283
 31
0.0
  0
ARC
  5
194
330
19
100
AcDbEntity
  8
4
100
AcDbCircle
 10
398.0273891411161
 20
589.5565748892832
 30
0.0
 40
4.999965
100
AcDbArc
 50
104.2581329999973
 51
165.7418809999897
  0
LINE
  5
195
330
19
100
AcDbEntity
  8
4
100
AcDbLine
 10
453.4578091411163
 20
729.126154889283
 30
0.0
 11
503.4578091411163
 21
729.126154889283
 31
0.0
  0
LINE
  5
196
330
19
100
AcDbEntity
  8
4
100
AcDbLine
 10
455.4578091411163
 20
735.126154889283
 30
0.0
 11
501.4578091411163
 21
735.126154889283
 31
0.0
  0
LINE
  5
197
330
19
100
AcDbEntity
  8
4
100
AcDbLine
 10
455.4578091411163
 20
731.126154889283
 30
0.0
 11
501.4578091411163
 21
731.126154889283
 31
0.0
  0
LINE
  5
198
330
19
100
AcDbEntity
  8
4
100
AcDbLine
 10
456.4578091411163
 20
729.126154889283
 30
0.0
 11
500.4578091411163
 21
729.126154889283
 31
0.0
  0
LINE
  5
199
330
19
100
AcDbEntity
  8
4
100
AcDbLine
 10
370.4578091411163
 20
639.126154889283
 30
0.0
 11
370.4578091411163
 21
726.126154889283
 31
0.0
  0
ARC
  5
19A
330
19
100
AcDbEntity
  8
4
100
AcDbCircle
 10
365.4578091411163
 20
639.126154889283
 30
0.0
 40
5.0
100
AcDbArc
 50
270.0
 51
0.0
  0
ARC
  5
19B
330
19
100
AcDbEntity
  8
4
100
AcDbCircle
 10
376.4578091411163
 20
726.126154889283
 30
0.0
 40
5.0
100
AcDbArc
 50
53.13010199999781
 51
126.8698980000022
  0
LINE
  5
19C
330
19
100
AcDbEntity
  8
4
100
AcDbLine
 10
373.4578091411163
 20
726.126154889283
 30
0.0
 11
379.4578091411163
 21
726.126154889283
 31
0.0
  0
LINE
  5
19D
330
19
100
AcDbEntity
  8
4
100
AcDbLine
 10
369.4578091411163
 20
735.126154889283
 30
0.0
 11
379.4578091411163
 21
735.126154889283
 31
0.0
  0
LINE
  5
19E
330
19
100
AcDbEntity
  8
4
100
AcDbLine
 10
373.4578091411163
 20
726.126154889283
 30
0.0
 11
373.4578091411163
 21
731.126154889283
 31
0.0
  0
LINE
  5
19F
330
19
100
AcDbEntity
  8
4
100
AcDbLine
 10
365.4578091411163
 20
724.126154889283
 30
0.0
 11
370.4578091411163
 21
724.126154889283
 31
0.0
  0
ARC
  5
1A0
330
19
100
AcDbEntity
  8
4
100
AcDbCircle
 10
369.4578091411163
 20
731.126154889283
 30
0.0
 40
4.0
100
AcDbArc
 50
0.0
 51
90.0
  0
LINE
  5
1A1
330
19
100
AcDbEntity
  8
4
100
AcDbLine
 10
385.4578091411163
 20
726.126154889283
 30
0.0
 11
379.4578091411163
 21
726.126154889283
 31
0.0
  0
LINE
  5
1A2
330
19
100
AcDbEntity
  8
4
100
AcDbLine
 10
385.4578091411163
 20
726.126154889283
 30
0.0
 11
385.4578091411163
 21
731.126154889283
 31
0.0
  0
ARC
  5
1A3
330
19
100
AcDbEntity
  8
4
100
AcDbCircle
 10
382.4578091411163
 20
726.126154889283
 30
0.0
 40
5.0
100
AcDbArc
 50
53.13010199999781
 51
126.8698980000022
  0
LINE
  5
1A4
330
19
100
AcDbEntity
  8
4
100
AcDbLine
 10
389.4578091411163
 20
735.126154889283
 30
0.0
 11
379.4578091411163
 21
735.126154889283
 31
0.0
  0
ARC
  5
1A5
330
19
100
AcDbEntity
  8
4
100
AcDbCircle
 10
389.4578091411163
 20
731.126154889283
 30
0.0
 40
4.0
100
AcDbArc
 50
90.0
 51
180.0
  0
LINE
  5
1A6
330
19
100
AcDbEntity
  8
4
100
AcDbLine
 10
382.4578091411163
 20
731.126154889283
 30
0.0
 11
376.4578091411163
 21
731.126154889283
 31
0.0
  0
LINE
  5
1A7
330
19
100
AcDbEntity
  8
4
100
AcDbLine
 10
453.4578091411163
 20
726.126154889283
 30
0.0
 11
453.4578091411163
 21
729.126154889283
 31
0.0
  0
LINE
  5
1A8
330
19
100
AcDbEntity
  8
4
100
AcDbLine
 10
456.4578091411163
 20
731.126154889283
 30
0.0
 11
456.4578091411163
 21
729.126154889283
 31
0.0
  0
LINE
  5
1A9
330
19
100
AcDbEntity
  8
4
100
AcDbLine
 10
503.4578091411163
 20
726.126154889283
 30
0.0
 11
503.4578091411163
 21
729.126154889283
 31
0.0
  0
LINE
  5
1AA
330
19
100
AcDbEntity
  8
4
100
AcDbLine
 10
500.4578091411163
 20
731.126154889283
 30
0.0
 11
500.4578091411163
 21
729.126154889283
 31
0.0
  0
ARC
  5
1AB
330
19
100
AcDbEntity
  8
4
100
AcDbCircle
 10
572.5330041411162
 20
581.210869889283
 30
0.0
 40
3.00005
100
AcDbArc
 50
353.8379589999892
 51
102.2198140000009
  0
LINE
  5
1AC
330
19
100
AcDbEntity
  8
4
100
AcDbLine
 10
598.4578091411163
 20
729.126154889283
 30
0.0
 11
638.4578091411163
 21
729.126154889283
 31
0.0
  0
LINE
  5
1AD
330
19
100
AcDbEntity
  8
4
100
AcDbLine
 10
598.4578091411163
 20
726.126154889283
 30
0.0
 11
598.4578091411163
 21
729.126154889283
 31
0.0
  0
ARC
  5
1AE
330
19
100
AcDbEntity
  8
4
100
AcDbCircle
 10
593.0078591411161
 20
728.233334889283
 30
0.0
 40
7.999904999999999
100
AcDbArc
 50
6.407772999997083
 51
54.66131099999542
  0
LINE
  5
1AF
330
19
100
AcDbEntity
  8
4
100
AcDbLine
 10
638.4578091411163
 20
726.126154889283
 30
0.0
 11
638.4578091411163
 21
729.126154889283
 31
0.0
  0
ARC
  5
1B0
330
19
100
AcDbEntity
  8
4
100
AcDbCircle
 10
643.9077591411165
 20
728.233334889283
 30
0.0
 40
7.999975
100
AcDbArc
 50
125.3401140000078
 51
173.5922279999914
  0
ARC
  5
1B2
330
19
100
AcDbEntity
  8
4
100
AcDbCircle
 10
830.5425241411162
 20
323.2015948892831
 30
0.0
 40
3.00005
100
AcDbArc
 50
347.780190000003
 51
96.16202200000008
  0
ARC
  5
1B3
330
19
100
AcDbEntity
  8
4
100
AcDbCircle
 10
830.5425241411162
 20
415.050714889283
 30
0.0
 40
3.00005
100
AcDbArc
 50
263.8379779999997
 51
12.21980999999492
  0
LINE
  5
1B4
330
19
100
AcDbEntity
  8
4
100
AcDbLine
 10
903.4578091411163
 20
648.126154889283
 30
0.0
 11
1021.457809141116
 21
648.126154889283
 31
0.0
  0
LINE
  5
1B5
330
19
100
AcDbEntity
  8
4
100
AcDbLine
 10
1023.457809141116
 20
653.126154889283
 30
0.0
 11
913.4578091411163
 21
653.126154889283
 31
0.0
  0
LINE
  5
1B6
330
19
100
AcDbEntity
  8
4
100
AcDbLine
 10
903.4578091411163
 20
590.126154889283
 30
0.0
 11
1021.457809141116
 21
590.126154889283
 31
0.0
  0
ARC
  5
1B7
330
19
100
AcDbEntity
  8
4
100
AcDbCircle
 10
871.4578091411163
 20
599.126154889283
 30
0.0
 40
5.0
100
AcDbArc
 50
90.0
 51
180.0
  0
LINE
  5
1B8
330
19
100
AcDbEntity
  8
4
100
AcDbLine
 10
903.4578091411163
 20
651.626154889283
 30
0.0
 11
903.4578091411163
 21
586.626154889283
 31
0.0
  0
LINE
  5
1B9
330
19
100
AcDbEntity
  8
4
100
AcDbLine
 10
889.2577141411161
 20
664.126154889283
 30
0.0
 11
889.2577141411161
 21
574.126154889283
 31
0.0
  0
LINE
  5
1BA
330
19
100
AcDbEntity
  8
4
100
AcDbLine
 10
871.4578091411163
 20
514.126154889283
 30
0.0
 11
871.4578091411163
 21
724.126154889283
 31
0.0
  0
LINE
  5
1BB
330
19
100
AcDbEntity
  8
4
100
AcDbLine
 10
888.2577141411161
 20
724.126154889283
 30
0.0
 11
888.2577141411161
 21
514.126154889283
 31
0.0
  0
LINE
  5
1BC
330
19
100
AcDbEntity
  8
4
100
AcDbLine
 10
899.2281691411163
 20
569.2543298892829
 30
0.0
 11
891.2577141411161
 21
569.2543298892829
 31
0.0
  0
LINE
  5
1BD
330
19
100
AcDbEntity
  8
4
100
AcDbLine
 10
889.2577141411161
 20
586.626154889283
 30
0.0
 11
903.4578091411163
 21
586.626154889283
 31
0.0
  0
LINE
  5
1BE
330
19
100
AcDbEntity
  8
4
100
AcDbLine
 10
891.2577141411161
 20
563.2543298892829
 30
0.0
 11
899.2281691411163
 21
563.2543298892829
 31
0.0
  0
LINE
  5
1BF
330
19
100
AcDbEntity
  8
4
100
AcDbLine
 10
891.2577141411161
 20
551.2543298892829
 30
0.0
 11
899.2281691411163
 21
551.2543298892829
 31
0.0
  0
LINE
  5
1C0
330
19
100
AcDbEntity
  8
4
100
AcDbLine
 10
899.2281691411163
 20
545.2543298892829
 30
0.0
 11
891.2577141411161
 21
545.2543298892829
 31
0.0
  0
LINE
  5
1C1
330
19
100
AcDbEntity
  8
4
100
AcDbLine
 10
866.4578091411163
 20
463.8627248892831
 30
0.0
 11
866.4578091411163
 21
599.126154889283
 31
0.0
  0
LINE
  5
1C2
330
19
100
AcDbEntity
  8
4
100
AcDbLine
 10
868.4578091411163
 20
514.126154889283
 30
0.0
 11
871.4578091411163
 21
514.126154889283
 31
0.0
  0
ARC
  5
1C3
330
19
100
AcDbEntity
  8
4
100
AcDbCircle
 10
868.4578091411163
 20
512.126154889283
 30
0.0
 40
2.0
100
AcDbArc
 50
90.0
 51
180.0
  0
LINE
  5
1C4
330
19
100
AcDbEntity
  8
4
100
AcDbLine
 10
888.2577141411161
 20
514.126154889283
 30
0.0
 11
871.4578091411163
 21
514.126154889283
 31
0.0
  0
LINE
  5
1C5
330
19
100
AcDbEntity
  8
4
100
AcDbLine
 10
891.2577141411161
 20
545.2543298892829
 30
0.0
 11
891.2577141411161
 21
569.2543298892829
 31
0.0
  0
LINE
  5
1C6
330
19
100
AcDbEntity
  8
4
100
AcDbLine
 10
888.2577141411161
 20
569.2543298892829
 30
0.0
 11
888.2577141411161
 21
545.2543298892829
 31
0.0
  0
LINE
  5
1C7
330
19
100
AcDbEntity
  8
4
100
AcDbLine
 10
888.2577141411161
 20
545.2543298892829
 30
0.0
 11
891.2577141411161
 21
545.2543298892829
 31
0.0
  0
ARC
  5
1C8
330
19
100
AcDbEntity
  8
4
100
AcDbCircle
 10
838.8882291411164
 20
589.5565748892832
 30
0.0
 40
4.999965
100
AcDbArc
 50
14.25811900001033
 51
75.74186700000212
  0
LINE
  5
1C9
330
19
100
AcDbEntity
  8
4
100
AcDbLine
 10
888.2577141411161
 20
569.2543298892829
 30
0.0
 11
891.2577141411161
 21
569.2543298892829
 31
0.0
  0
LINE
  5
1CA
330
19
100
AcDbEntity
  8
4
100
AcDbLine
 10
888.2577141411161
 20
574.126154889283
 30
0.0
 11
889.2577141411161
 21
574.126154889283
 31
0.0
  0
ARC
  5
1CB
330
19
100
AcDbEntity
  8
4
100
AcDbCircle
 10
895.6739741411161
 20
566.2543298892829
 30
0.0
 40
4.58369
100
AcDbArc
 50
319.1186700000086
 51
40.88132999999132
  0
LINE
  5
1CC
330
19
100
AcDbEntity
  8
4
100
AcDbLine
 10
900.2577141411161
 20
548.2543298892829
 30
0.0
 11
900.2577141411161
 21
566.2543298892829
 31
0.0
  0
ARC
  5
1CD
330
19
100
AcDbEntity
  8
4
100
AcDbCircle
 10
882.2577141411161
 20
557.2543298892829
 30
0.0
 40
18.00009
100
AcDbArc
 50
340.528928000001
 51
19.47033699999144
  0
ARC
  5
1CE
330
19
100
AcDbEntity
  8
4
100
AcDbCircle
 10
895.6739741411161
 20
548.2543298892829
 30
0.0
 40
4.58369
100
AcDbArc
 50
319.1186700000086
 51
40.88132999999132
  0
LINE
  5
1CF
330
19
100
AcDbEntity
  8
4
100
AcDbLine
 10
899.2281691411163
 20
692.9979798892832
 30
0.0
 11
891.2577141411161
 21
692.9979798892832
 31
0.0
  0
LINE
  5
1D0
330
19
100
AcDbEntity
  8
4
100
AcDbLine
 10
891.2577141411161
 20
686.9979798892832
 30
0.0
 11
899.2281691411163
 21
686.9979798892832
 31
0.0
  0
LINE
  5
1D1
330
19
100
AcDbEntity
  8
4
100
AcDbLine
 10
891.2577141411161
 20
674.9979798892832
 30
0.0
 11
899.2281691411163
 21
674.9979798892832
 31
0.0
  0
LINE
  5
1D2
330
19
100
AcDbEntity
  8
4
100
AcDbLine
 10
899.2281691411163
 20
668.9979798892832
 30
0.0
 11
891.2577141411161
 21
668.9979798892832
 31
0.0
  0
LINE
  5
1D3
330
19
100
AcDbEntity
  8
4
100
AcDbLine
 10
903.4578091411163
 20
651.626154889283
 30
0.0
 11
889.2577141411161
 21
651.626154889283
 31
0.0
  0
LINE
  5
1D4
330
19
100
AcDbEntity
  8
4
100
AcDbLine
 10
866.4578091411163
 20
639.126154889283
 30
0.0
 11
866.4578091411163
 21
726.126154889283
 31
0.0
  0
LINE
  5
1D5
330
19
100
AcDbEntity
  8
4
100
AcDbLine
 10
888.2577141411161
 20
668.9979798892832
 30
0.0
 11
888.2577141411161
 21
692.9979798892832
 31
0.0
  0
LINE
  5
1D6
330
19
100
AcDbEntity
  8
4
100
AcDbLine
 10
891.2577141411161
 20
692.9979798892832
 30
0.0
 11
891.2577141411161
 21
668.9979798892832
 31
0.0
  0
ARC
  5
1D7
330
19
100
AcDbEntity
  8
4
100
AcDbCircle
 10
871.4578091411163
 20
639.126154889283
 30
0.0
 40
5.0
100
AcDbArc
 50
180.0
 51
270.0
  0
LINE
  5
1D8
330
19
100
AcDbEntity
  8
4
100
AcDbLine
 10
888.2577141411161
 20
668.9979798892832
 30
0.0
 11
891.2577141411161
 21
668.9979798892832
 31
0.0
  0
LINE
  5
1D9
330
19
100
AcDbEntity
  8
4
100
AcDbLine
 10
889.2577141411161
 20
664.126154889283
 30
0.0
 11
888.2577141411161
 21
664.126154889283
 31
0.0
  0
LINE
  5
1DA
330
19
100
AcDbEntity
  8
4
100
AcDbLine
 10
888.2577141411161
 20
692.9979798892832
 30
0.0
 11
891.2577141411161
 21
692.9979798892832
 31
0.0
  0
LINE
  5
1DB
330
19
100
AcDbEntity
  8
4
100
AcDbLine
 10
867.4578091411163
 20
735.126154889283
 30
0.0
 11
857.4578091411163
 21
735.126154889283
 31
0.0
  0
ARC
  5
1DC
330
19
100
AcDbEntity
  8
4
100
AcDbCircle
 10
867.4578091411163
 20
731.126154889283
 30
0.0
 40
4.0
100
AcDbArc
 50
90.0
 51
180.0
  0
LINE
  5
1DD
330
19
100
AcDbEntity
  8
4
100
AcDbLine
 10
863.4578091411163
 20
726.126154889283
 30
0.0
 11
863.4578091411163
 21
731.126154889283
 31
0.0
  0
LINE
  5
1DE
330
19
100
AcDbEntity
  8
4
100
AcDbLine
 10
863.4578091411163
 20
726.126154889283
 30
0.0
 11
857.4578091411163
 21
726.126154889283
 31
0.0
  0
ARC
  5
1DF
330
19
100
AcDbEntity
  8
4
100
AcDbCircle
 10
860.4578091411163
 20
726.126154889283
 30
0.0
 40
5.0
100
AcDbArc
 50
53.13010199999833
 51
126.8698980000017
  0
LINE
  5
1E0
330
19
100
AcDbEntity
  8
4
100
AcDbLine
 10
851.4578091411163
 20
726.126154889283
 30
0.0
 11
851.4578091411163
 21
731.126154889283
 31
0.0
  0
ARC
  5
1E1
330
19
100
AcDbEntity
  8
4
100
AcDbCircle
 10
854.4578091411163
 20
726.126154889283
 30
0.0
 40
5.0
100
AcDbArc
 50
53.13010199999833
 51
126.8698980000017
  0
LINE
  5
1E2
330
19
100
AcDbEntity
  8
4
100
AcDbLine
 10
851.4578091411163
 20
726.126154889283
 30
0.0
 11
857.4578091411163
 21
726.126154889283
 31
0.0
  0
LINE
  5
1E3
330
19
100
AcDbEntity
  8
4
100
AcDbLine
 10
854.4578091411163
 20
731.126154889283
 30
0.0
 11
860.4578091411163
 21
731.126154889283
 31
0.0
  0
ARC
  5
1E4
330
19
100
AcDbEntity
  8
4
100
AcDbCircle
 10
847.4578091411163
 20
731.126154889283
 30
0.0
 40
4.0
100
AcDbArc
 50
0.0
 51
90.0
  0
LINE
  5
1E5
330
19
100
AcDbEntity
  8
4
100
AcDbLine
 10
847.4578091411163
 20
735.126154889283
 30
0.0
 11
857.4578091411163
 21
735.126154889283
 31
0.0
  0
LINE
  5
1E6
330
19
100
AcDbEntity
  8
4
100
AcDbLine
 10
871.4578091411163
 20
724.126154889283
 30
0.0
 11
866.4578091411163
 21
724.126154889283
 31
0.0
  0
LINE
  5
1E7
330
19
100
AcDbEntity
  8
4
100
AcDbLine
 10
871.4578091411163
 20
724.126154889283
 30
0.0
 11
888.2577141411161
 21
724.126154889283
 31
0.0
  0
ARC
  5
1E8
330
19
100
AcDbEntity
  8
4
100
AcDbCircle
 10
895.6739741411161
 20
671.9979798892832
 30
0.0
 40
4.583600000000001
100
AcDbArc
 50
319.1186700000099
 51
40.88332600001323
  0
LINE
  5
1E9
330
19
100
AcDbEntity
  8
4
100
AcDbLine
 10
913.4578091411163
 20
653.126154889283
 30
0.0
 11
913.4578091411163
 21
648.126154889283
 31
0.0
  0
ARC
  5
1EA
330
19
100
AcDbEntity
  8
4
100
AcDbCircle
 10
882.2577141411161
 20
680.9979798892832
 30
0.0
 40
17.999975
100
AcDbArc
 50
340.5296600000133
 51
19.47133100000335
  0
LINE
  5
1EB
330
19
100
AcDbEntity
  8
4
100
AcDbLine
 10
900.2577141411161
 20
689.9979798892832
 30
0.0
 11
900.2577141411161
 21
671.9979798892832
 31
0.0
  0
ARC
  5
1EC
330
19
100
AcDbEntity
  8
4
100
AcDbCircle
 10
895.6739741411161
 20
689.9979798892832
 30
0.0
 40
4.583600000000001
100
AcDbArc
 50
319.1186700000099
 51
40.88332600001323
  0
LINE
  5
1ED
330
19
100
AcDbEntity
  8
4
100
AcDbLine
 10
1023.457809141116
 20
653.126154889283
 30
0.0
 11
1023.457809141116
 21
592.126154889283
 31
0.0
  0
LINE
  5
1EE
330
19
100
AcDbEntity
  8
4
100
AcDbLine
 10
1021.457809141116
 20
648.126154889283
 30
0.0
 11
1021.457809141116
 21
590.126154889283
 31
0.0
  0
LINE
  5
1EF
330
19
100
AcDbEntity
  8
4
100
AcDbLine
 10
1021.457809141116
 20
590.126154889283
 30
0.0
 11
1023.457809141116
 21
592.126154889283
 31
0.0
  0
LINE
  5
1F1
330
19
100
AcDbEntity
  8
4
100
AcDbLine
 10
1023.457809141116
 20
646.126154889283
 30
0.0
 11
1021.457809141116
 21
648.126154889283
 31
0.0
  0
LINE
  5
1F5
330
19
100
AcDbEntity
  8
4
100
AcDbLine
 10
455.4578091411163
 20
740.126154889283
 30
0.0
 11
501.4578091411163
 21
740.126154889283
 31
0.0
  0
LINE
  5
1F6
330
19
100
AcDbEntity
  8
4
100
AcDbLine
 10
368.4578091411163
 20
747.126154889283
 30
0.0
 11
379.4578091411163
 21
747.126154889283
 31
0.0
  0
LINE
  5
1F7
330
19
100
AcDbEntity
  8
4
100
AcDbLine
 10
370.4578091411163
 20
748.126154889283
 30
0.0
 11
379.4578091411163
 21
748.126154889283
 31
0.0
  0
LINE
  5
1F8
330
19
100
AcDbEntity
  8
4
100
AcDbLine
 10
379.4578091411163
 20
745.126154889283
 30
0.0
 11
368.4578091411163
 21
745.126154889283
 31
0.0
  0
LINE
  5
1F9
330
19
100
AcDbEntity
  8
4
100
AcDbLine
 10
368.4578091411163
 20
747.126154889283
 30
0.0
 11
368.4578091411163
 21
745.126154889283
 31
0.0
  0
LINE
  5
1FA
330
19
100
AcDbEntity
  8
4
100
AcDbLine
 10
370.4578091411163
 20
748.126154889283
 30
0.0
 11
368.4578091411163
 21
747.126154889283
 31
0.0
  0
LINE
  5
1FB
330
19
100
AcDbEntity
  8
4
100
AcDbLine
 10
388.4578091411163
 20
748.126154889283
 30
0.0
 11
390.4578091411163
 21
747.126154889283
 31
0.0
  0
LINE
  5
1FC
330
19
100
AcDbEntity
  8
4
100
AcDbLine
 10
390.4578091411163
 20
747.126154889283
 30
0.0
 11
390.4578091411163
 21
745.126154889283
 31
0.0
  0
LINE
  5
1FD
330
19
100
AcDbEntity
  8
4
100
AcDbLine
 10
379.4578091411163
 20
745.126154889283
 30
0.0
 11
390.4578091411163
 21
745.126154889283
 31
0.0
  0
LINE
  5
1FE
330
19
100
AcDbEntity
  8
4
100
AcDbLine
 10
388.4578091411163
 20
748.126154889283
 30
0.0
 11
379.4578091411163
 21
748.126154889283
 31
0.0
  0
LINE
  5
1FF
330
19
100
AcDbEntity
  8
4
100
AcDbLine
 10
390.4578091411163
 20
747.126154889283
 30
0.0
 11
379.4578091411163
 21
747.126154889283
 31
0.0
  0
LINE
  5
204
330
19
100
AcDbEntity
  8
4
100
AcDbLine
 10
618.4578091411163
 20
744.126154889283
 30
0.0
 11
632.1890091411165
 21
742.112239889283
 31
0.0
  0
LINE
  5
205
330
19
100
AcDbEntity
  8
L-CENTER
 48
2.0
100
AcDbLine
 10
571.8430641411164
 20
764.126154889283
 30
0.0
 11
665.0725541411161
 21
764.126154889283
 31
0.0
  0
LINE
  5
206
330
19
100
AcDbEntity
  8
4
100
AcDbLine
 10
604.9153291411162
 20
742.126154889283
 30
0.0
 11
632.0002891411164
 21
742.126154889283
 31
0.0
  0
CIRCLE
  5
207
330
19
100
AcDbEntity
  8
4
100
AcDbCircle
 10
618.4578091411163
 20
764.126154889283
 30
0.0
 40
20.0
  0
ARC
  5
208
330
19
100
AcDbEntity
  8
4
100
AcDbCircle
 10
604.9153291411162
 20
740.8261048892832
 30
0.0
 40
1.300075
100
AcDbArc
 50
90.0
 51
167.3521589999979
  0
LINE
  5
209
330
19
100
AcDbEntity
  8
4
100
AcDbLine
 10
618.4578091411163
 20
744.126154889283
 30
0.0
 11
604.7266091411161
 21
742.112239889283
 31
0.0
  0
ARC
  5
20A
330
19
100
AcDbEntity
  8
4
100
AcDbCircle
 10
632.0002891411164
 20
740.8261048892832
 30
0.0
 40
1.300075
100
AcDbArc
 50
12.6478410000021
 51
90.0
  0
LINE
  5
20E
330
19
100
AcDbEntity
  8
4
100
AcDbLine
 10
857.4578091411163
 20
745.126154889283
 30
0.0
 11
868.4578091411163
 21
745.126154889283
 31
0.0
  0
LINE
  5
20F
330
19
100
AcDbEntity
  8
4
100
AcDbLine
 10
866.4578091411163
 20
748.126154889283
 30
0.0
 11
857.4578091411163
 21
748.126154889283
 31
0.0
  0
LINE
  5
210
330
19
100
AcDbEntity
  8
4
100
AcDbLine
 10
868.4578091411163
 20
747.126154889283
 30
0.0
 11
857.4578091411163
 21
747.126154889283
 31
0.0
  0
LINE
  5
211
330
19
100
AcDbEntity
  8
4
100
AcDbLine
 10
846.4578091411163
 20
747.126154889283
 30
0.0
 11
846.4578091411163
 21
745.126154889283
 31
0.0
  0
LINE
  5
212
330
19
100
AcDbEntity
  8
4
100
AcDbLine
 10
848.4578091411163
 20
748.126154889283
 30
0.0
 11
846.4578091411163
 21
747.126154889283
 31
0.0
  0
LINE
  5
213
330
19
100
AcDbEntity
  8
4
100
AcDbLine
 10
846.4578091411163
 20
747.126154889283
 30
0.0
 11
857.4578091411163
 21
747.126154889283
 31
0.0
  0
LINE
  5
214
330
19
100
AcDbEntity
  8
4
100
AcDbLine
 10
848.4578091411163
 20
748.126154889283
 30
0.0
 11
857.4578091411163
 21
748.126154889283
 31
0.0
  0
LINE
  5
215
330
19
100
AcDbEntity
  8
4
100
AcDbLine
 10
857.4578091411163
 20
745.126154889283
 30
0.0
 11
846.4578091411163
 21
745.126154889283
 31
0.0
  0
LINE
  5
216
330
19
100
AcDbEntity
  8
4
100
AcDbLine
 10
868.4578091411163
 20
747.126154889283
 30
0.0
 11
868.4578091411163
 21
745.126154889283
 31
0.0
  0
LINE
  5
217
330
19
100
AcDbEntity
  8
4
100
AcDbLine
 10
866.4578091411163
 20
748.126154889283
 30
0.0
 11
868.4578091411163
 21
747.126154889283
 31
0.0
  0
LINE
  5
221
330
19
100
AcDbEntity
  8
4
100
AcDbLine
 10
1861.846916768883
 20
177.6100398892831
 30
0.0
 11
1888.675601768884
 21
286.626154889283
 31
0.0
  0
LINE
  5
222
330
19
100
AcDbEntity
  8
4
100
AcDbLine
 10
1595.977481768884
 20
158.4905998892832
 30
0.0
 11
1565.375701768884
 21
286.626154889283
 31
0.0
  0
LINE
  5
223
330
19
100
AcDbEntity
  8
4
100
AcDbLine
 10
1820.375701768884
 20
369.126154889283
 30
0.0
 11
1820.375701768884
 21
149.126154889283
 31
0.0
  0
LINE
  5
224
330
19
100
AcDbEntity
  8
4
100
AcDbLine
 10
1630.375701768884
 20
369.126154889283
 30
0.0
 11
1630.375701768884
 21
149.126154889283
 31
0.0
  0
LINE
  5
225
330
19
100
AcDbEntity
  8
L-CENTER
 48
2.0
100
AcDbLine
 10
1725.375701768884
 20
808.2557948892832
 30
0.0
 11
1725.375701768883
 21
75.58542414609246
 31
0.0
  0
LINE
  5
226
330
19
100
AcDbEntity
  8
4
100
AcDbLine
 10
1856.675601768884
 20
157.5807448892833
 30
0.0
 11
1856.675601768884
 21
619.126154889283
 31
0.0
  0
LINE
  5
227
330
19
100
AcDbEntity
  8
4
100
AcDbLine
 10
1834.375701768884
 20
167.7625198892829
 30
0.0
 11
1834.375701768884
 21
619.126154889283
 31
0.0
  0
LINE
  5
228
330
19
100
AcDbEntity
  8
4
100
AcDbLine
 10
1831.375701768884
 20
169.126154889283
 30
0.0
 11
1831.375701768884
 21
622.126154889283
 31
0.0
  0
LINE
  5
229
330
19
100
AcDbEntity
  8
4
100
AcDbLine
 10
1830.375701768884
 20
149.126154889283
 30
0.0
 11
1830.375701768884
 21
619.126154889283
 31
0.0
  0
LINE
  5
22A
330
19
100
AcDbEntity
  8
4
100
AcDbLine
 10
1619.375701768884
 20
169.126154889283
 30
0.0
 11
1619.375701768884
 21
622.126154889283
 31
0.0
  0
LINE
  5
22B
330
19
100
AcDbEntity
  8
4
100
AcDbLine
 10
1620.375701768884
 20
149.126154889283
 30
0.0
 11
1620.375701768884
 21
619.126154889283
 31
0.0
  0
LINE
  5
22C
330
19
100
AcDbEntity
  8
4
100
AcDbLine
 10
1596.375701768884
 20
617.126154889283
 30
0.0
 11
1596.375701768884
 21
158.671609889283
 31
0.0
  0
LINE
  5
231
330
19
100
AcDbEntity
  8
4
100
AcDbLine
 10
1900.375701768884
 20
89.12615488928304
 30
0.0
 11
1550.375701768884
 21
89.12615488928304
 31
0.0
  0
LINE
  5
232
330
19
100
AcDbEntity
  8
4
100
AcDbLine
 10
1897.375701768884
 20
139.126154889283
 30
0.0
 11
1553.375701768884
 21
139.126154889283
 31
0.0
  0
LINE
  5
23B
330
19
100
AcDbEntity
  8
L-CENTER
 48
2.0
100
AcDbLine
 10
1590.375701768883
 20
164.126154889283
 30
0.0
 11
1590.375701768884
 21
64.12615488928304
 31
0.0
  0
LINE
  5
23C
330
19
100
AcDbEntity
  8
4
100
AcDbLine
 10
1550.375701768884
 20
89.12615488928304
 30
0.0
 11
1550.375701768884
 21
136.126154889283
 31
0.0
  0
LINE
  5
23D
330
19
100
AcDbEntity
  8
4
100
AcDbLine
 10
1553.375701768884
 20
139.126154889283
 30
0.0
 11
1620.375701768884
 21
169.5806998892831
 31
0.0
  0
ARC
  5
23E
330
19
100
AcDbEntity
  8
4
100
AcDbCircle
 10
1553.375701768884
 20
136.126154889283
 30
0.0
 40
3.0
100
AcDbArc
 50
90.0
 51
180.0
  0
ARC
  5
23F
330
19
100
AcDbEntity
  8
4
100
AcDbCircle
 10
1620.375701768884
 20
149.126154889283
 30
0.0
 40
10.0
100
AcDbArc
 50
270.0
 51
0.0
  0
ARC
  5
240
330
19
100
AcDbEntity
  8
4
100
AcDbCircle
 10
1610.375701768884
 20
149.126154889283
 30
0.0
 40
10.0
100
AcDbArc
 50
270.0
 51
0.0
  0
ARC
  5
241
330
19
100
AcDbEntity
  8
4
100
AcDbCircle
 10
1864.091861768884
 20
174.6100398892831
 30
0.0
 40
4.58369
100
AcDbArc
 50
319.1186700000107
 51
40.88132999998932
  0
ARC
  5
242
330
19
100
AcDbEntity
  8
4
100
AcDbCircle
 10
1850.675601768884
 20
165.6100398892831
 30
0.0
 40
18.00009
100
AcDbArc
 50
340.528928000001
 51
19.47033699999144
  0
ARC
  5
243
330
19
100
AcDbEntity
  8
4
100
AcDbCircle
 10
1864.091861768884
 20
156.6100398892831
 30
0.0
 40
4.58369
100
AcDbArc
 50
319.1186700000107
 51
40.88132999998932
  0
LINE
  5
244
330
19
100
AcDbEntity
  8
4
100
AcDbLine
 10
1897.375701768884
 20
139.126154889283
 30
0.0
 11
1830.375701768884
 21
169.5806998892831
 31
0.0
  0
LINE
  5
249
330
19
100
AcDbEntity
  8
L-CENTER
 48
2.0
100
AcDbLine
 10
1860.375701768883
 20
164.126154889283
 30
0.0
 11
1860.375701768884
 21
64.12615488928304
 31
0.0
  0
ARC
  5
24A
330
19
100
AcDbEntity
  8
4
100
AcDbCircle
 10
1830.375701768884
 20
149.126154889283
 30
0.0
 40
10.0
100
AcDbArc
 50
180.0
 51
270.0
  0
ARC
  5
24B
330
19
100
AcDbEntity
  8
4
100
AcDbCircle
 10
1840.375701768884
 20
149.126154889283
 30
0.0
 40
10.0
100
AcDbArc
 50
180.0
 51
270.0
  0
LINE
  5
24C
330
19
100
AcDbEntity
  8
4
100
AcDbLine
 10
1859.675601768884
 20
171.6100398892831
 30
0.0
 11
1867.646061768884
 21
171.6100398892831
 31
0.0
  0
LINE
  5
24D
330
19
100
AcDbEntity
  8
4
100
AcDbLine
 10
1859.675601768884
 20
159.6100398892831
 30
0.0
 11
1867.646061768884
 21
159.6100398892831
 31
0.0
  0
LINE
  5
24E
330
19
100
AcDbEntity
  8
4
100
AcDbLine
 10
1867.646061768884
 20
177.6100398892831
 30
0.0
 11
1859.675601768884
 21
177.6100398892831
 31
0.0
  0
LINE
  5
24F
330
19
100
AcDbEntity
  8
4
100
AcDbLine
 10
1867.646061768884
 20
153.6100398892831
 30
0.0
 11
1865.411151768883
 21
153.6100398892831
 31
0.0
  0
LINE
  5
250
330
19
100
AcDbEntity
  8
4
100
AcDbLine
 10
1859.675601768884
 20
156.2171098892832
 30
0.0
 11
1859.675601768884
 21
177.6100398892831
 31
0.0
  0
LINE
  5
251
330
19
100
AcDbEntity
  8
4
100
AcDbLine
 10
1856.675601768884
 20
177.6100398892831
 30
0.0
 11
1856.675601768884
 21
157.5807448892833
 31
0.0
  0
LINE
  5
252
330
19
100
AcDbEntity
  8
4
100
AcDbLine
 10
1856.675601768884
 20
177.6100398892831
 30
0.0
 11
1859.675601768884
 21
177.6100398892831
 31
0.0
  0
LINE
  5
255
330
19
100
AcDbEntity
  8
4
100
AcDbLine
 10
1900.375701768884
 20
89.12615488928304
 30
0.0
 11
1900.375701768884
 21
136.126154889283
 31
0.0
  0
ARC
  5
256
330
19
100
AcDbEntity
  8
4
100
AcDbCircle
 10
1897.375701768884
 20
136.126154889283
 30
0.0
 40
3.0
100
AcDbArc
 50
0.0
 51
90.0
  0
LINE
  5
257
330
19
100
AcDbEntity
  8
4
100
AcDbLine
 10
1868.675601768884
 20
156.6100398892831
 30
0.0
 11
1868.675601768884
 21
174.6100398892831
 31
0.0
  0
LINE
  5
258
330
19
100
AcDbEntity
  8
L-CENTER
 48
2.0
100
AcDbLine
 10
2081.926999359308
 20
369.126154889283
 30
0.0
 11
1368.824404178458
 21
369.126154889283
 31
0.0
  0
LINE
  5
25A
330
19
100
AcDbEntity
  8
4
100
AcDbLine
 10
1715.375701768884
 20
735.126154889283
 30
0.0
 11
1715.375701768884
 21
745.126154889283
 31
0.0
  0
LINE
  5
25B
330
19
100
AcDbEntity
  8
4
100
AcDbLine
 10
1710.564421768884
 20
741.1107748892832
 30
0.0
 11
1707.875701768884
 21
729.126154889283
 31
0.0
  0
LINE
  5
25C
330
19
100
AcDbEntity
  8
4
100
AcDbLine
 10
1705.457001768883
 20
735.126154889283
 30
0.0
 11
1705.457001768883
 21
740.126154889283
 31
0.0
  0
LINE
  5
25D
330
19
100
AcDbEntity
  8
4
100
AcDbLine
 10
1735.375701768884
 20
735.126154889283
 30
0.0
 11
1735.375701768884
 21
745.126154889283
 31
0.0
  0
LINE
  5
25E
330
19
100
AcDbEntity
  8
4
100
AcDbLine
 10
1740.186736768883
 20
741.1107748892832
 30
0.0
 11
1742.875701768884
 21
729.126154889283
 31
0.0
  0
LINE
  5
25F
330
19
100
AcDbEntity
  8
4
100
AcDbLine
 10
1745.294156768884
 20
735.126154889283
 30
0.0
 11
1745.294156768884
 21
740.126154889283
 31
0.0
  0
LINE
  5
262
330
19
100
AcDbEntity
  8
L-CENTER
 48
2.0
100
AcDbLine
 10
1643.620576768883
 20
537.3712698892828
 30
0.0
 11
1683.386936768883
 21
577.1376298892831
 31
0.0
  0
LINE
  5
263
330
19
100
AcDbEntity
  8
L-CENTER
 48
2.0
100
AcDbLine
 10
1643.620934338663
 20
700.8809074597837
 30
0.0
 11
1683.387431092379
 21
661.1146842128956
 31
0.0
  0
LINE
  5
264
330
19
100
AcDbEntity
  8
L-CENTER
 48
2.0
100
AcDbLine
 10
1843.886027659008
 20
619.126154889283
 30
0.0
 11
1607.266658912115
 21
619.126154889283
 31
0.0
  0
CIRCLE
  5
265
330
19
100
AcDbEntity
  8
4
100
AcDbCircle
 10
1725.375701768884
 20
619.126154889283
 30
0.0
 40
105.0
  0
CIRCLE
  5
266
330
19
100
AcDbEntity
  8
L-CENTER
 48
2.0
100
AcDbCircle
 10
1725.375701768884
 20
619.126154889283
 30
0.0
 40
87.5
  0
ARC
  5
267
330
19
100
AcDbEntity
  8
4
100
AcDbCircle
 10
1725.375701768884
 20
226.126154889283
 30
0.0
 40
500.000005
100
AcDbArc
 50
79.39719200000197
 51
100.6030059999988
  0
LINE
  5
268
330
19
100
AcDbEntity
  8
4
100
AcDbLine
 10
1596.375701768884
 20
581.429134889283
 30
0.0
 11
1565.375701768884
 21
451.626154889283
 31
0.0
  0
LINE
  5
26C
330
19
100
AcDbEntity
  8
4
100
AcDbLine
 10
1375.375701768883
 20
414.126154889283
 30
0.0
 11
1525.375701768883
 21
414.126154889283
 31
0.0
  0
LINE
  5
26D
330
19
100
AcDbEntity
  8
4
100
AcDbLine
 10
1535.375701768883
 20
408.126154889283
 30
0.0
 11
1377.375701768883
 21
408.126154889283
 31
0.0
  0
LINE
  5
26E
330
19
100
AcDbEntity
  8
4
100
AcDbLine
 10
1535.375701768883
 20
330.126154889283
 30
0.0
 11
1377.375701768883
 21
330.126154889283
 31
0.0
  0
LINE
  5
276
330
19
100
AcDbEntity
  8
4
100
AcDbLine
 10
1375.375701768883
 20
414.126154889283
 30
0.0
 11
1375.375701768883
 21
332.126154889283
 31
0.0
  0
LINE
  5
277
330
19
100
AcDbEntity
  8
4
100
AcDbLine
 10
1377.375701768883
 20
408.126154889283
 30
0.0
 11
1377.375701768883
 21
330.126154889283
 31
0.0
  0
LINE
  5
278
330
19
100
AcDbEntity
  8
4
100
AcDbLine
 10
1377.375701768883
 20
330.126154889283
 30
0.0
 11
1375.375701768883
 21
332.126154889283
 31
0.0
  0
LINE
  5
27B
330
19
100
AcDbEntity
  8
4
100
AcDbLine
 10
1375.375701768883
 20
406.126154889283
 30
0.0
 11
1377.375701768883
 21
408.126154889283
 31
0.0
  0
LINE
  5
27C
330
19
100
AcDbEntity
  8
4
100
AcDbLine
 10
1596.375701768884
 20
326.626154889283
 30
0.0
 11
1565.375701768884
 21
311.626154889283
 31
0.0
  0
LINE
  5
27D
330
19
100
AcDbEntity
  8
4
100
AcDbLine
 10
1565.375701768884
 20
451.626154889283
 30
0.0
 11
1565.375701768884
 21
286.626154889283
 31
0.0
  0
LINE
  5
27E
330
19
100
AcDbEntity
  8
4
100
AcDbLine
 10
1542.375701768884
 20
446.626154889283
 30
0.0
 11
1542.375701768884
 21
291.626154889283
 31
0.0
  0
LINE
  5
27F
330
19
100
AcDbEntity
  8
4
100
AcDbLine
 10
1596.375701768884
 20
326.626154889283
 30
0.0
 11
1565.375701768884
 21
311.626154889283
 31
0.0
  0
LINE
  5
280
330
19
100
AcDbEntity
  8
4
100
AcDbLine
 10
1541.375701768884
 20
419.126154889283
 30
0.0
 11
1541.375701768884
 21
319.126154889283
 31
0.0
  0
LINE
  5
281
330
19
100
AcDbEntity
  8
4
100
AcDbLine
 10
1565.375701768884
 20
286.626154889283
 30
0.0
 11
1542.375701768884
 21
291.626154889283
 31
0.0
  0
LINE
  5
282
330
19
100
AcDbEntity
  8
4
100
AcDbLine
 10
1542.375701768884
 20
319.126154889283
 30
0.0
 11
1541.375701768884
 21
319.126154889283
 31
0.0
  0
LINE
  5
283
330
19
100
AcDbEntity
  8
4
100
AcDbLine
 10
1565.375701768884
 20
451.626154889283
 30
0.0
 11
1542.375701768884
 21
446.626154889283
 31
0.0
  0
LINE
  5
284
330
19
100
AcDbEntity
  8
4
100
AcDbLine
 10
1535.375701768883
 20
409.126154889283
 30
0.0
 11
1535.375701768883
 21
329.126154889283
 31
0.0
  0
LINE
  5
285
330
19
100
AcDbEntity
  8
4
100
AcDbLine
 10
1541.375701768884
 20
329.126154889283
 30
0.0
 11
1535.375701768883
 21
329.126154889283
 31
0.0
  0
LINE
  5
286
330
19
100
AcDbEntity
  8
4
100
AcDbLine
 10
1542.375701768884
 20
419.126154889283
 30
0.0
 11
1541.375701768884
 21
419.126154889283
 31
0.0
  0
LINE
  5
287
330
19
100
AcDbEntity
  8
4
100
AcDbLine
 10
1525.375701768883
 20
414.126154889283
 30
0.0
 11
1525.375701768883
 21
408.126154889283
 31
0.0
  0
LINE
  5
288
330
19
100
AcDbEntity
  8
4
100
AcDbLine
 10
1535.375701768883
 20
409.126154889283
 30
0.0
 11
1541.375701768884
 21
409.126154889283
 31
0.0
  0
LINE
  5
289
330
19
100
AcDbEntity
  8
4
100
AcDbLine
 10
1596.375701768884
 20
411.626154889283
 30
0.0
 11
1565.375701768884
 21
426.626154889283
 31
0.0
  0
ARC
  5
296
330
19
100
AcDbEntity
  8
4
100
AcDbCircle
 10
2120.375701768884
 20
619.126154889283
 30
0.0
 40
500.00003
100
AcDbArc
 50
169.1068520000132
 51
180.0003920002005
  0
ARC
  5
297
330
19
100
AcDbEntity
  8
4
100
AcDbCircle
 10
1598.375701768884
 20
617.126154889283
 30
0.0
 40
2.0
100
AcDbArc
 50
90.0
 51
180.0
  0
LINE
  5
298
330
19
100
AcDbEntity
  8
4
100
AcDbLine
 10
1620.418671768884
 20
622.126154889283
 30
0.0
 11
1619.375701768884
 21
622.126154889283
 31
0.0
  0
LINE
  5
299
330
19
100
AcDbEntity
  8
4
100
AcDbLine
 10
1598.375701768884
 20
619.126154889283
 30
0.0
 11
1619.375701768884
 21
619.126154889283
 31
0.0
  0
ARC
  5
29A
330
19
100
AcDbEntity
  8
4
100
AcDbCircle
 10
1634.295866768884
 20
712.674739889283
 30
0.0
 40
4.99997
100
AcDbArc
 50
100.6048749999998
 51
169.1076069999868
  0
LINE
  5
29D
330
19
100
AcDbEntity
  8
4
100
AcDbLine
 10
1861.846916768883
 20
560.6422698892829
 30
0.0
 11
1888.675601768884
 21
451.626154889283
 31
0.0
  0
ARC
  5
29E
330
19
100
AcDbEntity
  8
4
100
AcDbCircle
 10
1864.091861768884
 20
378.126154889283
 30
0.0
 40
4.583600000000001
100
AcDbArc
 50
319.1186700000108
 51
40.88332600001215
  0
ARC
  5
29F
330
19
100
AcDbEntity
  8
4
100
AcDbCircle
 10
1864.091861768884
 20
360.126154889283
 30
0.0
 40
4.583600000000001
100
AcDbArc
 50
319.1186700000108
 51
40.88332600001215
  0
ARC
  5
2A0
330
19
100
AcDbEntity
  8
4
100
AcDbCircle
 10
1850.675601768884
 20
369.126154889283
 30
0.0
 40
17.999975
100
AcDbArc
 50
340.5296600000138
 51
19.471331000003
  0
LINE
  5
2A1
330
19
100
AcDbEntity
  8
4
100
AcDbLine
 10
1856.675601768884
 20
411.626154889283
 30
0.0
 11
1888.675601768884
 21
426.626154889283
 31
0.0
  0
LINE
  5
2A2
330
19
100
AcDbEntity
  8
4
100
AcDbLine
 10
1856.675601768884
 20
326.626154889283
 30
0.0
 11
1888.675601768884
 21
311.626154889283
 31
0.0
  0
LINE
  5
2A3
330
19
100
AcDbEntity
  8
4
100
AcDbLine
 10
1856.675601768884
 20
326.626154889283
 30
0.0
 11
1888.675601768884
 21
311.626154889283
 31
0.0
  0
LINE
  5
2A4
330
19
100
AcDbEntity
  8
4
100
AcDbLine
 10
1859.675601768884
 20
375.126154889283
 30
0.0
 11
1867.646061768884
 21
375.126154889283
 31
0.0
  0
LINE
  5
2A5
330
19
100
AcDbEntity
  8
4
100
AcDbLine
 10
1867.646061768884
 20
381.126154889283
 30
0.0
 11
1859.675601768884
 21
381.126154889283
 31
0.0
  0
LINE
  5
2A6
330
19
100
AcDbEntity
  8
4
100
AcDbLine
 10
1859.675601768884
 20
363.126154889283
 30
0.0
 11
1867.646061768884
 21
363.126154889283
 31
0.0
  0
LINE
  5
2A7
330
19
100
AcDbEntity
  8
4
100
AcDbLine
 10
1867.646061768884
 20
357.126154889283
 30
0.0
 11
1859.675601768884
 21
357.126154889283
 31
0.0
  0
LINE
  5
2A8
330
19
100
AcDbEntity
  8
4
100
AcDbLine
 10
1859.675601768884
 20
381.126154889283
 30
0.0
 11
1859.675601768884
 21
357.126154889283
 31
0.0
  0
LINE
  5
2A9
330
19
100
AcDbEntity
  8
4
100
AcDbLine
 10
1856.675601768884
 20
357.126154889283
 30
0.0
 11
1856.675601768884
 21
381.126154889283
 31
0.0
  0
LINE
  5
2AA
330
19
100
AcDbEntity
  8
4
100
AcDbLine
 10
1856.675601768884
 20
381.126154889283
 30
0.0
 11
1859.675601768884
 21
381.126154889283
 31
0.0
  0
LINE
  5
2AB
330
19
100
AcDbEntity
  8
4
100
AcDbLine
 10
1856.675601768884
 20
357.126154889283
 30
0.0
 11
1859.675601768884
 21
357.126154889283
 31
0.0
  0
LINE
  5
2AC
330
19
100
AcDbEntity
  8
4
100
AcDbLine
 10
1888.675601768884
 20
451.626154889283
 30
0.0
 11
1888.675601768884
 21
286.626154889283
 31
0.0
  0
LINE
  5
2AD
330
19
100
AcDbEntity
  8
4
100
AcDbLine
 10
1908.675601768884
 20
446.626154889283
 30
0.0
 11
1908.675601768884
 21
291.626154889283
 31
0.0
  0
LINE
  5
2AE
330
19
100
AcDbEntity
  8
4
100
AcDbLine
 10
1909.675601768884
 20
419.126154889283
 30
0.0
 11
1909.675601768884
 21
319.126154889283
 31
0.0
  0
LINE
  5
2AF
330
19
100
AcDbEntity
  8
4
100
AcDbLine
 10
1888.675601768884
 20
286.626154889283
 30
0.0
 11
1908.675601768884
 21
291.626154889283
 31
0.0
  0
LINE
  5
2B0
330
19
100
AcDbEntity
  8
4
100
AcDbLine
 10
1908.675601768884
 20
319.126154889283
 30
0.0
 11
1909.675601768884
 21
319.126154889283
 31
0.0
  0
LINE
  5
2B1
330
19
100
AcDbEntity
  8
4
100
AcDbLine
 10
1915.375701768884
 20
330.126154889283
 30
0.0
 11
2073.375701768884
 21
330.126154889283
 31
0.0
  0
LINE
  5
2B2
330
19
100
AcDbEntity
  8
4
100
AcDbLine
 10
1915.375701768884
 20
408.126154889283
 30
0.0
 11
2073.375701768884
 21
408.126154889283
 31
0.0
  0
LINE
  5
2B3
330
19
100
AcDbEntity
  8
4
100
AcDbLine
 10
2075.375701768884
 20
414.126154889283
 30
0.0
 11
1925.375701768884
 21
414.126154889283
 31
0.0
  0
LINE
  5
2B4
330
19
100
AcDbEntity
  8
4
100
AcDbLine
 10
1915.375701768884
 20
409.126154889283
 30
0.0
 11
1915.375701768884
 21
329.126154889283
 31
0.0
  0
LINE
  5
2B5
330
19
100
AcDbEntity
  8
4
100
AcDbLine
 10
1909.675601768884
 20
329.126154889283
 30
0.0
 11
1915.375701768884
 21
329.126154889283
 31
0.0
  0
LINE
  5
2B6
330
19
100
AcDbEntity
  8
4
100
AcDbLine
 10
1868.675601768884
 20
378.126154889283
 30
0.0
 11
1868.675601768884
 21
360.126154889283
 31
0.0
  0
LINE
  5
2B7
330
19
100
AcDbEntity
  8
4
100
AcDbLine
 10
1908.675601768884
 20
419.126154889283
 30
0.0
 11
1909.675601768884
 21
419.126154889283
 31
0.0
  0
LINE
  5
2B8
330
19
100
AcDbEntity
  8
4
100
AcDbLine
 10
1915.375701768884
 20
409.126154889283
 30
0.0
 11
1909.675601768884
 21
409.126154889283
 31
0.0
  0
LINE
  5
2B9
330
19
100
AcDbEntity
  8
4
100
AcDbLine
 10
1888.675601768884
 20
451.626154889283
 30
0.0
 11
1908.675601768884
 21
446.626154889283
 31
0.0
  0
LINE
  5
2BA
330
19
100
AcDbEntity
  8
4
100
AcDbLine
 10
1925.375701768884
 20
414.126154889283
 30
0.0
 11
1925.375701768884
 21
408.126154889283
 31
0.0
  0
LINE
  5
2BB
330
19
100
AcDbEntity
  8
4
100
AcDbLine
 10
2073.375701768884
 20
408.126154889283
 30
0.0
 11
2073.375701768884
 21
330.126154889283
 31
0.0
  0
LINE
  5
2BC
330
19
100
AcDbEntity
  8
4
100
AcDbLine
 10
2075.375701768884
 20
414.126154889283
 30
0.0
 11
2075.375701768884
 21
332.126154889283
 31
0.0
  0
LINE
  5
2BD
330
19
100
AcDbEntity
  8
4
100
AcDbLine
 10
2073.375701768884
 20
330.126154889283
 30
0.0
 11
2075.375701768884
 21
332.126154889283
 31
0.0
  0
LINE
  5
2BE
330
19
100
AcDbEntity
  8
4
100
AcDbLine
 10
2075.375701768884
 20
406.126154889283
 30
0.0
 11
2073.375701768884
 21
408.126154889283
 31
0.0
  0
ARC
  5
2BF
330
19
100
AcDbEntity
  8
4
100
AcDbCircle
 10
1864.091861768884
 20
581.6422698892829
 30
0.0
 40
4.583600000000001
100
AcDbArc
 50
319.1186700000108
 51
40.88332600001323
  0
ARC
  5
2C0
330
19
100
AcDbEntity
  8
4
100
AcDbCircle
 10
1850.675601768884
 20
572.6422698892829
 30
0.0
 40
17.999975
100
AcDbArc
 50
340.5296600000135
 51
19.47133100000335
  0
LINE
  5
2C1
330
19
100
AcDbEntity
  8
L-CENTER
 48
2.0
100
AcDbLine
 10
1810.576901542945
 20
572.6422698892829
 30
0.0
 11
1874.559923423941
 21
572.6422698892829
 31
0.0
  0
ARC
  5
2C2
330
19
100
AcDbEntity
  8
4
100
AcDbCircle
 10
1864.091861768884
 20
563.6422698892829
 30
0.0
 40
4.583600000000001
100
AcDbArc
 50
319.1186700000108
 51
40.88332600001323
  0
CIRCLE
  5
2C3
330
19
100
AcDbEntity
  8
4
100
AcDbCircle
 10
1725.375701768884
 20
619.126154889283
 30
0.0
 40
45.0
  0
ARC
  5
2C4
330
19
100
AcDbEntity
  8
4
100
AcDbCircle
 10
1725.375701768884
 20
619.126154889283
 30
0.0
 40
29.000035
100
AcDbArc
 50
104.9882150000025
 51
75.01178499999752
  0
LINE
  5
2C5
330
19
100
AcDbEntity
  8
4
100
AcDbLine
 10
1660.398161768884
 20
568.8456348892828
 30
0.0
 11
1651.912811768884
 21
560.3602848892829
 31
0.0
  0
LINE
  5
2C6
330
19
100
AcDbEntity
  8
4
100
AcDbLine
 10
1675.095181768883
 20
554.1486148892832
 30
0.0
 11
1671.989471768884
 21
565.739924889283
 31
0.0
  0
CIRCLE
  5
2C7
330
19
100
AcDbEntity
  8
4
100
AcDbCircle
 10
1663.503876768883
 20
557.2543298892829
 30
0.0
 40
10.392335
  0
CIRCLE
  5
2C8
330
19
100
AcDbEntity
  8
4
100
AcDbCircle
 10
1663.504121768884
 20
557.254574889283
 30
0.0
 40
12.0
  0
LINE
  5
2C9
330
19
100
AcDbEntity
  8
4
100
AcDbLine
 10
1655.018766768884
 20
548.7692198892832
 30
0.0
 11
1666.609831768883
 21
545.6632648892833
 31
0.0
  0
LINE
  5
2CA
330
19
100
AcDbEntity
  8
4
100
AcDbLine
 10
1651.912811768884
 20
560.3602848892829
 30
0.0
 11
1655.018766768884
 21
548.7692198892832
 31
0.0
  0
LINE
  5
2CB
330
19
100
AcDbEntity
  8
4
100
AcDbLine
 10
1666.609831768883
 20
545.6632648892833
 30
0.0
 11
1675.095181768883
 21
554.1486148892832
 31
0.0
  0
LINE
  5
2CC
330
19
100
AcDbEntity
  8
4
100
AcDbLine
 10
1671.989471768884
 20
565.739924889283
 30
0.0
 11
1660.398161768884
 21
568.8456348892828
 31
0.0
  0
LINE
  5
2CD
330
19
100
AcDbEntity
  8
4
100
AcDbLine
 10
1790.353241768883
 20
568.8456348892828
 30
0.0
 11
1798.838591768883
 21
560.3602848892829
 31
0.0
  0
LINE
  5
2CE
330
19
100
AcDbEntity
  8
4
100
AcDbLine
 10
1775.656216768884
 20
554.1486148892832
 30
0.0
 11
1778.761931768884
 21
565.739924889283
 31
0.0
  0
CIRCLE
  5
2CF
330
19
100
AcDbEntity
  8
4
100
AcDbCircle
 10
1787.247526768884
 20
557.2543298892829
 30
0.0
 40
10.392335
  0
CIRCLE
  5
2D0
330
19
100
AcDbEntity
  8
4
100
AcDbCircle
 10
1787.247281768884
 20
557.254574889283
 30
0.0
 40
12.0
  0
LINE
  5
2D1
330
19
100
AcDbEntity
  8
L-CENTER
 48
2.0
100
AcDbLine
 10
1807.130826768883
 20
537.3712698892828
 30
0.0
 11
1767.364221768883
 21
577.137874889283
 31
0.0
  0
LINE
  5
2D2
330
19
100
AcDbEntity
  8
4
100
AcDbLine
 10
1795.732636768883
 20
548.7692198892832
 30
0.0
 11
1784.141571768884
 21
545.6632648892833
 31
0.0
  0
LINE
  5
2D3
330
19
100
AcDbEntity
  8
4
100
AcDbLine
 10
1784.141571768884
 20
545.6632648892833
 30
0.0
 11
1775.656216768884
 21
554.1486148892832
 31
0.0
  0
LINE
  5
2D4
330
19
100
AcDbEntity
  8
4
100
AcDbLine
 10
1798.838591768883
 20
560.3602848892829
 30
0.0
 11
1795.732636768883
 21
548.7692198892832
 31
0.0
  0
LINE
  5
2D5
330
19
100
AcDbEntity
  8
4
100
AcDbLine
 10
1778.761931768884
 20
565.739924889283
 30
0.0
 11
1790.353241768883
 21
568.8456348892828
 31
0.0
  0
LINE
  5
2D6
330
19
100
AcDbEntity
  8
4
100
AcDbLine
 10
1859.675601768884
 20
584.6422698892829
 30
0.0
 11
1859.675601768884
 21
560.6422698892829
 31
0.0
  0
LINE
  5
2D7
330
19
100
AcDbEntity
  8
4
100
AcDbLine
 10
1856.675601768884
 20
560.6422698892829
 30
0.0
 11
1856.675601768884
 21
584.6422698892829
 31
0.0
  0
LINE
  5
2D8
330
19
100
AcDbEntity
  8
4
100
AcDbLine
 10
1867.646061768884
 20
560.6422698892829
 30
0.0
 11
1859.675601768884
 21
560.6422698892829
 31
0.0
  0
LINE
  5
2D9
330
19
100
AcDbEntity
  8
4
100
AcDbLine
 10
1856.675601768884
 20
560.6422698892829
 30
0.0
 11
1859.675601768884
 21
560.6422698892829
 31
0.0
  0
LINE
  5
2DA
330
19
100
AcDbEntity
  8
4
100
AcDbLine
 10
1859.675601768884
 20
578.6422698892829
 30
0.0
 11
1867.646061768884
 21
578.6422698892829
 31
0.0
  0
LINE
  5
2DB
330
19
100
AcDbEntity
  8
4
100
AcDbLine
 10
1867.646061768884
 20
584.6422698892829
 30
0.0
 11
1859.675601768884
 21
584.6422698892829
 31
0.0
  0
LINE
  5
2DC
330
19
100
AcDbEntity
  8
4
100
AcDbLine
 10
1859.675601768884
 20
566.6422698892829
 30
0.0
 11
1867.646061768884
 21
566.6422698892829
 31
0.0
  0
LINE
  5
2DD
330
19
100
AcDbEntity
  8
4
100
AcDbLine
 10
1856.675601768884
 20
584.6422698892829
 30
0.0
 11
1859.675601768884
 21
584.6422698892829
 31
0.0
  0
LINE
  5
2DE
330
19
100
AcDbEntity
  8
4
100
AcDbLine
 10
1671.989471768884
 20
672.5123848892831
 30
0.0
 11
1660.398161768884
 21
669.406669889283
 31
0.0
  0
LINE
  5
2DF
330
19
100
AcDbEntity
  8
4
100
AcDbLine
 10
1660.398161768884
 20
669.406669889283
 30
0.0
 11
1651.912811768884
 21
677.8920248892832
 31
0.0
  0
CIRCLE
  5
2E0
330
19
100
AcDbEntity
  8
4
100
AcDbCircle
 10
1663.504121768884
 20
680.997734889283
 30
0.0
 40
12.0
  0
LINE
  5
2E1
330
19
100
AcDbEntity
  8
4
100
AcDbLine
 10
1732.875701768884
 20
653.126154889283
 30
0.0
 11
1717.875701768884
 21
653.126154889283
 31
0.0
  0
LINE
  5
2E2
330
19
100
AcDbEntity
  8
4
100
AcDbLine
 10
1732.875701768884
 20
643.126154889283
 30
0.0
 11
1717.875701768884
 21
643.126154889283
 31
0.0
  0
LINE
  5
2E3
330
19
100
AcDbEntity
  8
4
100
AcDbLine
 10
1717.875701768884
 20
643.126154889283
 30
0.0
 11
1717.875701768884
 21
653.126154889283
 31
0.0
  0
LINE
  5
2E4
330
19
100
AcDbEntity
  8
4
100
AcDbLine
 10
1732.875701768884
 20
653.126154889283
 30
0.0
 11
1732.875701768884
 21
643.126154889283
 31
0.0
  0
LINE
  5
2E5
330
19
100
AcDbEntity
  8
4
100
AcDbLine
 10
1709.221891768884
 20
735.126154889283
 30
0.0
 11
1702.375701768884
 21
735.126154889283
 31
0.0
  0
LINE
  5
2E6
330
19
100
AcDbEntity
  8
4
100
AcDbLine
 10
1702.375701768884
 20
731.126154889283
 30
0.0
 11
1708.324431768884
 21
731.126154889283
 31
0.0
  0
LINE
  5
2E7
330
19
100
AcDbEntity
  8
4
100
AcDbLine
 10
1703.375701768884
 20
729.126154889283
 30
0.0
 11
1718.875701768884
 21
729.126154889283
 31
0.0
  0
LINE
  5
2E8
330
19
100
AcDbEntity
  8
4
100
AcDbLine
 10
1703.375701768884
 20
729.126154889283
 30
0.0
 11
1718.875701768884
 21
729.126154889283
 31
0.0
  0
LINE
  5
2E9
330
19
100
AcDbEntity
  8
4
100
AcDbLine
 10
1700.375701768884
 20
729.126154889283
 30
0.0
 11
1718.875701768884
 21
729.126154889283
 31
0.0
  0
LINE
  5
2EA
330
19
100
AcDbEntity
  8
4
100
AcDbLine
 10
1651.912811768884
 20
677.8920248892832
 30
0.0
 11
1655.018766768884
 21
689.4830898892828
 31
0.0
  0
LINE
  5
2EB
330
19
100
AcDbEntity
  8
4
100
AcDbLine
 10
1655.018766768884
 20
689.4830898892828
 30
0.0
 11
1666.609831768883
 21
692.5890448892828
 31
0.0
  0
LINE
  5
2EC
330
19
100
AcDbEntity
  8
4
100
AcDbLine
 10
1675.095181768883
 20
684.1036948892829
 30
0.0
 11
1671.989471768884
 21
672.5123848892831
 31
0.0
  0
CIRCLE
  5
2ED
330
19
100
AcDbEntity
  8
4
100
AcDbCircle
 10
1663.503876768883
 20
680.9979798892832
 30
0.0
 40
10.392335
  0
LINE
  5
2EE
330
19
100
AcDbEntity
  8
4
100
AcDbLine
 10
1666.609831768883
 20
692.5890448892828
 30
0.0
 11
1675.095181768883
 21
684.1036948892829
 31
0.0
  0
LINE
  5
2EF
330
19
100
AcDbEntity
  8
4
100
AcDbLine
 10
1702.375701768884
 20
731.126154889283
 30
0.0
 11
1702.375701768884
 21
735.126154889283
 31
0.0
  0
LINE
  5
2F0
330
19
100
AcDbEntity
  8
4
100
AcDbLine
 10
1705.375701768884
 20
725.726009889283
 30
0.0
 11
1705.375701768884
 21
729.126154889283
 31
0.0
  0
LINE
  5
2F1
330
19
100
AcDbEntity
  8
4
100
AcDbLine
 10
1703.375701768884
 20
729.126154889283
 30
0.0
 11
1703.375701768884
 21
731.126154889283
 31
0.0
  0
LINE
  5
2F2
330
19
100
AcDbEntity
  8
4
100
AcDbLine
 10
1700.375701768884
 20
725.5006648892831
 30
0.0
 11
1700.375701768884
 21
729.126154889283
 31
0.0
  0
LINE
  5
2F3
330
19
100
AcDbEntity
  8
4
100
AcDbLine
 10
1731.875701768884
 20
729.126154889283
 30
0.0
 11
1742.875701768884
 21
729.126154889283
 31
0.0
  0
LINE
  5
2F4
330
19
100
AcDbEntity
  8
4
100
AcDbLine
 10
1731.875701768884
 20
729.126154889283
 30
0.0
 11
1747.375701768884
 21
729.126154889283
 31
0.0
  0
LINE
  5
2F5
330
19
100
AcDbEntity
  8
4
100
AcDbLine
 10
1731.875701768884
 20
729.126154889283
 30
0.0
 11
1747.375701768884
 21
729.126154889283
 31
0.0
  0
LINE
  5
2F6
330
19
100
AcDbEntity
  8
4
100
AcDbLine
 10
1731.875701768884
 20
729.126154889283
 30
0.0
 11
1750.375701768884
 21
729.126154889283
 31
0.0
  0
ARC
  5
2F7
330
19
100
AcDbEntity
  8
4
100
AcDbCircle
 10
1735.375701768884
 20
731.126154889283
 30
0.0
 40
4.0
100
AcDbArc
 50
90.0
 51
180.0
  0
LINE
  5
2F8
330
19
100
AcDbEntity
  8
4
100
AcDbLine
 10
1735.375701768884
 20
735.126154889283
 30
0.0
 11
1725.375701768884
 21
735.126154889283
 31
0.0
  0
LINE
  5
2F9
330
19
100
AcDbEntity
  8
4
100
AcDbLine
 10
1731.875701768884
 20
726.126154889283
 30
0.0
 11
1731.875701768884
 21
730.4259598892831
 31
0.0
  0
LINE
  5
2FA
330
19
100
AcDbEntity
  8
4
100
AcDbLine
 10
1728.625701768884
 20
726.126154889283
 30
0.0
 11
1728.625701768884
 21
730.4259598892831
 31
0.0
  0
LINE
  5
2FB
330
19
100
AcDbEntity
  8
4
100
AcDbLine
 10
1731.375701768884
 20
731.126154889283
 30
0.0
 11
1731.375701768884
 21
730.8224448892829
 31
0.0
  0
ARC
  5
2FC
330
19
100
AcDbEntity
  8
4
100
AcDbCircle
 10
1730.250701768884
 20
728.8903148892828
 30
0.0
 40
2.235805
100
AcDbArc
 50
43.38059600001328
 51
136.6194039999867
  0
LINE
  5
2FD
330
19
100
AcDbEntity
  8
4
100
AcDbLine
 10
1731.875701768884
 20
726.126154889283
 30
0.0
 11
1725.375701768884
 21
726.126154889283
 31
0.0
  0
LINE
  5
2FE
330
19
100
AcDbEntity
  8
4
100
AcDbLine
 10
1730.250701768884
 20
731.126154889283
 30
0.0
 11
1725.375701768884
 21
731.126154889283
 31
0.0
  0
LINE
  5
2FF
330
19
100
AcDbEntity
  8
4
100
AcDbLine
 10
1722.125701768884
 20
726.126154889283
 30
0.0
 11
1722.125701768884
 21
730.4259598892831
 31
0.0
  0
LINE
  5
300
330
19
100
AcDbEntity
  8
4
100
AcDbLine
 10
1718.875701768884
 20
726.126154889283
 30
0.0
 11
1718.875701768884
 21
730.4259598892831
 31
0.0
  0
ARC
  5
301
330
19
100
AcDbEntity
  8
4
100
AcDbCircle
 10
1720.500701768884
 20
728.8903148892828
 30
0.0
 40
2.235805
100
AcDbArc
 50
43.38059600001328
 51
136.6194039999867
  0
LINE
  5
302
330
19
100
AcDbEntity
  8
4
100
AcDbLine
 10
1719.375701768884
 20
731.126154889283
 30
0.0
 11
1719.375701768884
 21
730.8224448892829
 31
0.0
  0
LINE
  5
303
330
19
100
AcDbEntity
  8
4
100
AcDbLine
 10
1707.875701768884
 20
729.126154889283
 30
0.0
 11
1718.875701768884
 21
729.126154889283
 31
0.0
  0
ARC
  5
304
330
19
100
AcDbEntity
  8
4
100
AcDbCircle
 10
1715.375701768884
 20
731.126154889283
 30
0.0
 40
4.0
100
AcDbArc
 50
0.0
 51
90.0
  0
LINE
  5
305
330
19
100
AcDbEntity
  8
4
100
AcDbLine
 10
1720.500701768884
 20
731.126154889283
 30
0.0
 11
1725.375701768884
 21
731.126154889283
 31
0.0
  0
LINE
  5
306
330
19
100
AcDbEntity
  8
4
100
AcDbLine
 10
1718.875701768884
 20
726.126154889283
 30
0.0
 11
1725.375701768884
 21
726.126154889283
 31
0.0
  0
ARC
  5
307
330
19
100
AcDbEntity
  8
4
100
AcDbCircle
 10
1725.375701768884
 20
723.2345548892831
 30
0.0
 40
7.89147
100
AcDbArc
 50
65.67971300000504
 51
114.320286999995
  0
LINE
  5
308
330
19
100
AcDbEntity
  8
4
100
AcDbLine
 10
1715.375701768884
 20
735.126154889283
 30
0.0
 11
1725.375701768884
 21
735.126154889283
 31
0.0
  0
LINE
  5
309
330
19
100
AcDbEntity
  8
4
100
AcDbLine
 10
1748.375701768884
 20
731.126154889283
 30
0.0
 11
1748.375701768884
 21
735.126154889283
 31
0.0
  0
LINE
  5
30A
330
19
100
AcDbEntity
  8
4
100
AcDbLine
 10
1742.426971768884
 20
731.126154889283
 30
0.0
 11
1748.375701768884
 21
731.126154889283
 31
0.0
  0
LINE
  5
30B
330
19
100
AcDbEntity
  8
4
100
AcDbLine
 10
1750.375701768884
 20
725.5006648892831
 30
0.0
 11
1750.375701768884
 21
729.126154889283
 31
0.0
  0
LINE
  5
30C
330
19
100
AcDbEntity
  8
4
100
AcDbLine
 10
1745.375701768884
 20
725.726009889283
 30
0.0
 11
1745.375701768884
 21
729.126154889283
 31
0.0
  0
LINE
  5
30D
330
19
100
AcDbEntity
  8
4
100
AcDbLine
 10
1747.375701768884
 20
731.126154889283
 30
0.0
 11
1747.375701768884
 21
729.126154889283
 31
0.0
  0
LINE
  5
30E
330
19
100
AcDbEntity
  8
4
100
AcDbLine
 10
1741.529511768883
 20
735.126154889283
 30
0.0
 11
1748.375701768884
 21
735.126154889283
 31
0.0
  0
LINE
  5
30F
330
19
100
AcDbEntity
  8
4
100
AcDbLine
 10
1790.353241768883
 20
669.406669889283
 30
0.0
 11
1798.838591768883
 21
677.8920248892832
 31
0.0
  0
LINE
  5
310
330
19
100
AcDbEntity
  8
4
100
AcDbLine
 10
1778.761931768884
 20
672.5123848892831
 30
0.0
 11
1790.353241768883
 21
669.406669889283
 31
0.0
  0
ARC
  5
311
330
19
100
AcDbEntity
  8
4
100
AcDbCircle
 10
1330.375701768884
 20
619.126154889283
 30
0.0
 40
499.999945
100
AcDbArc
 50
0.0
 51
10.89363600001011
  0
LINE
  5
312
330
19
100
AcDbEntity
  8
L-CENTER
 48
2.0
100
AcDbLine
 10
1807.130469199104
 20
700.8809074597837
 30
0.0
 11
1767.363972445388
 21
661.1146842128956
 31
0.0
  0
CIRCLE
  5
313
330
19
100
AcDbEntity
  8
4
100
AcDbCircle
 10
1787.247281768884
 20
680.997734889283
 30
0.0
 40
12.0
  0
LINE
  5
314
330
19
100
AcDbEntity
  8
4
100
AcDbLine
 10
1856.675601768884
 20
619.126154889283
 30
0.0
 11
1834.375701768884
 21
619.126154889283
 31
0.0
  0
LINE
  5
315
330
19
100
AcDbEntity
  8
4
100
AcDbLine
 10
1831.375701768884
 20
619.126154889283
 30
0.0
 11
1834.375701768884
 21
619.126154889283
 31
0.0
  0
LINE
  5
316
330
19
100
AcDbEntity
  8
4
100
AcDbLine
 10
1830.332731768883
 20
622.126154889283
 30
0.0
 11
1831.375701768884
 21
622.126154889283
 31
0.0
  0
LINE
  5
317
330
19
100
AcDbEntity
  8
4
100
AcDbLine
 10
1795.732636768883
 20
689.4830898892828
 30
0.0
 11
1784.141571768884
 21
692.5890448892828
 31
0.0
  0
CIRCLE
  5
318
330
19
100
AcDbEntity
  8
4
100
AcDbCircle
 10
1787.247526768884
 20
680.9979798892832
 30
0.0
 40
10.392335
  0
LINE
  5
319
330
19
100
AcDbEntity
  8
4
100
AcDbLine
 10
1775.656216768884
 20
684.1036948892829
 30
0.0
 11
1778.761931768884
 21
672.5123848892831
 31
0.0
  0
LINE
  5
31A
330
19
100
AcDbEntity
  8
4
100
AcDbLine
 10
1784.141571768884
 20
692.5890448892828
 30
0.0
 11
1775.656216768884
 21
684.1036948892829
 31
0.0
  0
LINE
  5
31B
330
19
100
AcDbEntity
  8
4
100
AcDbLine
 10
1798.838591768883
 20
677.8920248892832
 30
0.0
 11
1795.732636768883
 21
689.4830898892828
 31
0.0
  0
ARC
  5
31C
330
19
100
AcDbEntity
  8
4
100
AcDbCircle
 10
1816.455536768884
 20
712.674739889283
 30
0.0
 40
4.99997
100
AcDbArc
 50
10.89239300001324
 51
79.39512500000019
  0
LINE
  5
320
330
19
100
AcDbEntity
  8
4
100
AcDbLine
 10
1868.675601768884
 20
581.6422698892829
 30
0.0
 11
1868.675601768884
 21
563.6422698892829
 31
0.0
  0
LINE
  5
32E
330
19
100
AcDbEntity
  8
4
100
AcDbLine
 10
1705.457001768883
 20
740.126154889283
 30
0.0
 11
1710.343526768883
 21
740.126154889283
 31
0.0
  0
LINE
  5
32F
330
19
100
AcDbEntity
  8
4
100
AcDbLine
 10
1733.375701768884
 20
748.126154889283
 30
0.0
 11
1733.375701768884
 21
792.126154889283
 31
0.0
  0
LINE
  5
330
330
19
100
AcDbEntity
  8
4
100
AcDbLine
 10
1717.375701768884
 20
748.126154889283
 30
0.0
 11
1717.375701768884
 21
792.126154889283
 31
0.0
  0
LINE
  5
331
330
19
100
AcDbEntity
  8
4
100
AcDbLine
 10
1736.375701768884
 20
747.126154889283
 30
0.0
 11
1725.375701768884
 21
747.126154889283
 31
0.0
  0
LINE
  5
332
330
19
100
AcDbEntity
  8
4
100
AcDbLine
 10
1725.375701768884
 20
745.126154889283
 30
0.0
 11
1736.375701768884
 21
745.126154889283
 31
0.0
  0
LINE
  5
333
330
19
100
AcDbEntity
  8
4
100
AcDbLine
 10
1734.375701768884
 20
748.126154889283
 30
0.0
 11
1716.375701768884
 21
748.126154889283
 31
0.0
  0
LINE
  5
334
330
19
100
AcDbEntity
  8
L-CENTER
 48
2.0
100
AcDbLine
 10
1741.375701768884
 20
764.126154889283
 30
0.0
 11
1709.375701768884
 21
764.126154889283
 31
0.0
  0
LINE
  5
335
330
19
100
AcDbEntity
  8
4
100
AcDbLine
 10
1716.375701768884
 20
748.126154889283
 30
0.0
 11
1714.375701768884
 21
747.126154889283
 31
0.0
  0
LINE
  5
336
330
19
100
AcDbEntity
  8
4
100
AcDbLine
 10
1714.375701768884
 20
747.126154889283
 30
0.0
 11
1714.375701768884
 21
745.126154889283
 31
0.0
  0
ARC
  5
337
330
19
100
AcDbEntity
  8
4
100
AcDbCircle
 10
1711.832976768883
 20
740.8261048892832
 30
0.0
 40
1.300075
100
AcDbArc
 50
90.0
 51
167.352158999999
  0
LINE
  5
338
330
19
100
AcDbEntity
  8
4
100
AcDbLine
 10
1715.375701768884
 20
742.126154889283
 30
0.0
 11
1711.832976768883
 21
742.126154889283
 31
0.0
  0
LINE
  5
339
330
19
100
AcDbEntity
  8
4
100
AcDbLine
 10
1715.375701768884
 20
742.6595998892831
 30
0.0
 11
1711.644256768884
 21
742.112239889283
 31
0.0
  0
LINE
  5
33A
330
19
100
AcDbEntity
  8
4
100
AcDbLine
 10
1725.375701768884
 20
745.126154889283
 30
0.0
 11
1714.375701768884
 21
745.126154889283
 31
0.0
  0
LINE
  5
33B
330
19
100
AcDbEntity
  8
4
100
AcDbLine
 10
1714.375701768884
 20
747.126154889283
 30
0.0
 11
1725.375701768884
 21
747.126154889283
 31
0.0
  0
LINE
  5
33C
330
19
100
AcDbEntity
  8
4
100
AcDbLine
 10
1736.375701768884
 20
747.126154889283
 30
0.0
 11
1736.375701768884
 21
745.126154889283
 31
0.0
  0
LINE
  5
33D
330
19
100
AcDbEntity
  8
4
100
AcDbLine
 10
1734.375701768884
 20
748.126154889283
 30
0.0
 11
1736.375701768884
 21
747.126154889283
 31
0.0
  0
ARC
  5
33E
330
19
100
AcDbEntity
  8
4
100
AcDbCircle
 10
1738.918181768884
 20
740.8261048892832
 30
0.0
 40
1.300075
100
AcDbArc
 50
12.64784100000097
 51
90.0
  0
LINE
  5
33F
330
19
100
AcDbEntity
  8
4
100
AcDbLine
 10
1735.375701768884
 20
742.126154889283
 30
0.0
 11
1738.918181768884
 21
742.126154889283
 31
0.0
  0
LINE
  5
340
330
19
100
AcDbEntity
  8
4
100
AcDbLine
 10
1735.375701768884
 20
742.6595998892831
 30
0.0
 11
1739.106901768884
 21
742.112239889283
 31
0.0
  0
LINE
  5
341
330
19
100
AcDbEntity
  8
4
100
AcDbLine
 10
1740.407651768884
 20
740.126154889283
 30
0.0
 11
1745.294156768884
 21
740.126154889283
 31
0.0
  0
ARC
  5
342
330
19
100
AcDbEntity
  8
4
100
AcDbCircle
 10
1725.375701768884
 20
792.126154889283
 30
0.0
 40
8.0
100
AcDbArc
 50
0.0
 51
180.0
  0
LINE
  5
44D
330
19
100
AcDbEntity
  8
L-CENTER
 48
2.0
100
AcDbLine
 10
1810.576901542945
 20
165.6100398892831
 30
0.0
 11
1874.559923423941
 21
165.6100398892831
 31
0.0
  0
LINE
  5
44E
330
19
100
AcDbEntity
  8
L-CENTER
 48
2.0
100
AcDbLine
 10
330.647124945835
 20
557.2543298892829
 30
0.0
 11
390.5812084168879
 21
557.2543298892829
 31
0.0
  0
LINE
  5
44F
330
19
100
AcDbEntity
  8
L-CENTER
 48
2.0
100
AcDbLine
 10
906.2684933363976
 20
680.9979798892832
 30
0.0
 11
846.3344098653447
 21
680.9979798892832
 31
0.0
  0
LINE
  5
450
330
19
100
AcDbEntity
  8
L-CENTER
 48
2.0
100
AcDbLine
 10
906.2684933363976
 20
557.2543298892829
 30
0.0
 11
846.3344098653447
 21
557.2543298892829
 31
0.0
  0
ARC
  5
48C
330
19
100
AcDbEntity
  8
4
100
AcDbCircle
 10
618.4578091411163
 20
559.1261548892828
 30
0.0
 40
23.0
100
AcDbArc
 50
180.0
 51
0.0
  0
LINE
  5
48D
330
19
100
AcDbEntity
  8
4
100
AcDbLine
 10
641.4578091411163
 20
559.1261548892828
 30
0.0
 11
641.4578091411163
 21
585.6879243685703
 31
0.0
  0
LINE
  5
48E
330
19
100
AcDbEntity
  8
4
100
AcDbLine
 10
702.957809141114
 20
649.1261548892826
 30
0.0
 11
727.9578091411136
 21
649.1261548892826
 31
0.0
  0
LINE
  5
48F
330
19
100
AcDbEntity
  8
4
100
AcDbLine
 10
712.9578091411154
 20
659.1261548892821
 30
0.0
 11
727.957809141114
 21
659.1261548892826
 31
0.0
  0
LINE
  5
490
330
19
100
AcDbEntity
  8
4
100
AcDbLine
 10
700.4578091411136
 20
686.6261548892821
 30
0.0
 11
700.457809141114
 21
651.6261548892826
 31
0.0
  0
LINE
  5
491
330
19
100
AcDbEntity
  8
4
100
AcDbLine
 10
702.9578091411136
 20
689.1261548892821
 30
0.0
 11
707.9578091411154
 21
689.1261548892821
 31
0.0
  0
LINE
  5
492
330
19
100
AcDbEntity
  8
4
100
AcDbLine
 10
710.4578091411154
 20
686.6261548892821
 30
0.0
 11
710.4578091411154
 21
661.6261548892821
 31
0.0
  0
LINE
  5
493
330
19
100
AcDbEntity
  8
4
100
AcDbLine
 10
740.9578091411136
 20
649.1261548892826
 30
0.0
 11
760.457809141114
 21
649.1261548892826
 31
0.0
  0
LINE
  5
494
330
19
100
AcDbEntity
  8
4
100
AcDbLine
 10
740.9578091411145
 20
689.1261548892826
 30
0.0
 11
760.4578091411145
 21
689.1261548892826
 31
0.0
  0
LINE
  5
495
330
19
100
AcDbEntity
  8
4
100
AcDbLine
 10
778.9578091411145
 20
664.1261548892826
 30
0.0
 11
783.9578091411145
 21
664.1261548892826
 31
0.0
  0
LINE
  5
496
330
19
100
AcDbEntity
  8
4
100
AcDbLine
 10
778.9578091411131
 20
674.1261548892826
 30
0.0
 11
783.9578091411136
 21
674.1261548892826
 31
0.0
  0
LINE
  5
497
330
19
100
AcDbEntity
  8
4
100
AcDbLine
 10
786.4578091411136
 20
671.626154889283
 30
0.0
 11
786.4578091411145
 21
666.626154889283
 31
0.0
  0
LINE
  5
498
330
19
100
AcDbEntity
  8
4
100
AcDbLine
 10
776.4578091411131
 20
671.6261548892817
 30
0.0
 11
776.4578091411145
 21
666.6261548892817
 31
0.0
  0
LINE
  5
499
330
19
100
AcDbEntity
  8
4
100
AcDbLine
 10
730.457809141114
 20
656.6261548892826
 30
0.0
 11
730.4578091411136
 21
651.6261548892826
 31
0.0
  0
ARC
  5
49A
330
19
100
AcDbEntity
  8
4
100
AcDbCircle
 10
702.9578091411136
 20
686.6261548892821
 30
0.0
 40
2.5
100
AcDbArc
 50
90.0
 51
180.0
  0
ARC
  5
49B
330
19
100
AcDbEntity
  8
4
100
AcDbCircle
 10
707.9578091411154
 20
686.6261548892821
 30
0.0
 40
2.5
100
AcDbArc
 50
0.0
 51
90.0
  0
ARC
  5
49C
330
19
100
AcDbEntity
  8
4
100
AcDbCircle
 10
712.9578091411154
 20
661.6261548892821
 30
0.0
 40
2.5
100
AcDbArc
 50
180.0
 51
270.0
  0
ARC
  5
49D
330
19
100
AcDbEntity
  8
4
100
AcDbCircle
 10
727.957809141114
 20
656.6261548892826
 30
0.0
 40
2.5
100
AcDbArc
 50
0.0
 51
90.0
  0
ARC
  5
49E
330
19
100
AcDbEntity
  8
4
100
AcDbCircle
 10
727.9578091411136
 20
651.6261548892826
 30
0.0
 40
2.5
100
AcDbArc
 50
270.0
 51
0.0
  0
ARC
  5
49F
330
19
100
AcDbEntity
  8
4
100
AcDbCircle
 10
702.957809141114
 20
651.6261548892826
 30
0.0
 40
2.5
100
AcDbArc
 50
180.0
 51
270.0
  0
LINE
  5
4A0
330
19
100
AcDbEntity
  8
4
100
AcDbLine
 10
738.4578091411145
 20
686.6261548892826
 30
0.0
 11
738.4578091411136
 21
651.6261548892826
 31
0.0
  0
LINE
  5
4A1
330
19
100
AcDbEntity
  8
4
100
AcDbLine
 10
768.4578091411145
 20
681.1261548892826
 30
0.0
 11
768.4578091411145
 21
679.3731056552424
 31
0.0
  0
ARC
  5
4A2
330
19
100
AcDbEntity
  8
4
100
AcDbCircle
 10
740.9578091411136
 20
651.6261548892826
 30
0.0
 40
2.5
100
AcDbArc
 50
180.0
 51
270.0
  0
ARC
  5
4A3
330
19
100
AcDbEntity
  8
4
100
AcDbCircle
 10
740.9578091411145
 20
686.6261548892826
 30
0.0
 40
2.5
100
AcDbArc
 50
90.0
 51
180.0
  0
ARC
  5
4A4
330
19
100
AcDbEntity
  8
4
100
AcDbCircle
 10
760.457809141114
 20
657.1261548892826
 30
0.0
 40
8.0
100
AcDbArc
 50
270.0
 51
0.0
  0
ARC
  5
4A5
330
19
100
AcDbEntity
  8
4
100
AcDbCircle
 10
760.4578091411145
 20
681.1261548892826
 30
0.0
 40
8.0
100
AcDbArc
 50
0.0
 51
90.0
  0
ARC
  5
4A6
330
19
100
AcDbEntity
  8
4
100
AcDbCircle
 10
768.4578091411145
 20
669.1261548892826
 30
0.0
 40
5.0
100
AcDbArc
 50
127.9798724448621
 51
232.0201275551379
  0
LINE
  5
4A7
330
19
100
AcDbEntity
  8
4
100
AcDbLine
 10
768.457809141114
 20
658.8792041233232
 30
0.0
 11
768.457809141114
 21
657.1261548892821
 31
0.0
  0
ARC
  5
4A8
330
19
100
AcDbEntity
  8
4
100
AcDbCircle
 10
760.4578091411145
 20
679.3731056552424
 30
0.0
 40
8.0
100
AcDbArc
 50
307.9798724448621
 51
0.0
  0
ARC
  5
4A9
330
19
100
AcDbEntity
  8
4
100
AcDbCircle
 10
760.457809141114
 20
658.8792041233232
 30
0.0
 40
8.0
100
AcDbArc
 50
0.0
 51
52.02012755513794
  0
ARC
  5
4AA
330
19
100
AcDbEntity
  8
4
100
AcDbCircle
 10
778.9578091411145
 20
666.6261548892826
 30
0.0
 40
2.5
100
AcDbArc
 50
180.0
 51
270.0
  0
ARC
  5
4AB
330
19
100
AcDbEntity
  8
4
100
AcDbCircle
 10
778.9578091411131
 20
671.6261548892826
 30
0.0
 40
2.5
100
AcDbArc
 50
90.0
 51
180.0
  0
ARC
  5
4AC
330
19
100
AcDbEntity
  8
4
100
AcDbCircle
 10
783.9578091411136
 20
671.6261548892826
 30
0.0
 40
2.5
100
AcDbArc
 50
0.0
 51
90.0
  0
ARC
  5
4AD
330
19
100
AcDbEntity
  8
4
100
AcDbCircle
 10
783.9578091411145
 20
666.6261548892826
 30
0.0
 40
2.5
100
AcDbArc
 50
270.0
 51
0.0
  0
LINE
  5
4AE
330
19
100
AcDbEntity
  8
4
100
AcDbLine
 10
808.0530917407655
 20
649.1261548892821
 30
0.0
 11
802.1990808395167
 21
649.1261548892821
 31
0.0
  0
LINE
  5
4AF
330
19
100
AcDbEntity
  8
4
100
AcDbLine
 10
812.4578091411158
 20
689.1261548892826
 30
0.0
 11
806.4578091411158
 21
689.1261548892826
 31
0.0
  0
ARC
  5
4B0
330
19
100
AcDbEntity
  8
4
100
AcDbCircle
 10
812.4578091411158
 20
677.1261548892826
 30
0.0
 40
12.0
100
AcDbArc
 50
328.6621287348042
 51
90.0
  0
ARC
  5
4B1
330
19
100
AcDbEntity
  8
4
100
AcDbCircle
 10
806.4578091411158
 20
677.1261548892826
 30
0.0
 40
12.0
100
AcDbArc
 50
90.0
 51
236.1537534422866
  0
LINE
  5
4B2
330
19
100
AcDbEntity
  8
4
100
AcDbLine
 10
810.188379872418
 20
650.3259454466056
 30
0.0
 11
822.7071921730467
 21
670.8851495644353
 31
0.0
  0
LINE
  5
4B3
330
19
100
AcDbEntity
  8
4
100
AcDbLine
 10
800.0637927078642
 20
652.9263643319587
 30
0.0
 11
802.1514078177074
 21
656.3547810325254
 31
0.0
  0
ARC
  5
4B4
330
19
100
AcDbEntity
  8
4
100
AcDbCircle
 10
795.3184857964202
 20
660.5154512490899
 30
0.0
 40
8.0
100
AcDbArc
 50
328.662128734804
 51
56.15375344228622
  0
ARC
  5
4B5
330
19
100
AcDbEntity
  8
4
100
AcDbCircle
 10
808.0530917407655
 20
651.6261548892821
 30
0.0
 40
2.5
100
AcDbArc
 50
270.0
 51
328.6621287348021
  0
ARC
  5
4B6
330
19
100
AcDbEntity
  8
4
100
AcDbCircle
 10
802.1990808395167
 20
651.6261548892821
 30
0.0
 40
2.5
100
AcDbArc
 50
148.6621287348021
 51
270.0
  0
LINE
  5
4B7
330
19
100
AcDbEntity
  8
4
100
AcDbLine
 10
696.4578091411136
 20
701.1261548892826
 30
0.0
 11
828.4578091411163
 21
701.1261548892826
 31
0.0
  0
LINE
  5
4B8
330
19
100
AcDbEntity
  8
4
100
AcDbLine
 10
696.4578091411136
 20
637.126154889283
 30
0.0
 11
828.4578091411163
 21
637.1261548892817
 31
0.0
  0
LINE
  5
4B9
330
19
100
AcDbEntity
  8
4
100
AcDbLine
 10
836.4578091411163
 20
693.1261548892826
 30
0.0
 11
836.4578091411163
 21
645.1261548892817
 31
0.0
  0
LINE
  5
4BA
330
19
100
AcDbEntity
  8
4
100
AcDbLine
 10
688.4578091411136
 20
693.1261548892826
 30
0.0
 11
688.4578091411136
 21
645.126154889283
 31
0.0
  0
ARC
  5
4BB
330
19
100
AcDbEntity
  8
4
100
AcDbCircle
 10
696.4578091411136
 20
693.1261548892826
 30
0.0
 40
8.0
100
AcDbArc
 50
90.0
 51
180.0
  0
ARC
  5
4BC
330
19
100
AcDbEntity
  8
4
100
AcDbCircle
 10
828.4578091411163
 20
693.1261548892826
 30
0.0
 40
8.0
100
AcDbArc
 50
0.0
 51
90.0
  0
ARC
  5
4BD
330
19
100
AcDbEntity
  8
4
100
AcDbCircle
 10
828.4578091411163
 20
645.1261548892817
 30
0.0
 40
8.0
100
AcDbArc
 50
270.0
 51
0.0
  0
ARC
  5
4BE
330
19
100
AcDbEntity
  8
4
100
AcDbCircle
 10
696.4578091411136
 20
645.126154889283
 30
0.0
 40
8.0
100
AcDbArc
 50
180.0
 51
270.0
  0
LINE
  5
4BF
330
19
100
AcDbEntity
  8
4
100
AcDbLine
 10
1623.889022360921
 20
701.1261548892826
 30
0.0
 11
1627.145501963558
 21
701.1261548892826
 31
0.0
  0
ARC
  5
4C0
330
19
100
AcDbEntity
  8
4
100
AcDbCircle
 10
1623.889022360921
 20
699.1261548892826
 30
0.0
 40
2.0
100
AcDbArc
 50
90.0
 51
174.2948654962331
  0
LINE
  5
4C1
330
19
100
AcDbEntity
  8
4
100
AcDbLine
 10
1617.894795736494
 20
637.1261548892833
 30
0.0
 11
1620.699776793504
 21
637.1261548892833
 31
0.0
  0
ARC
  5
4C2
330
19
100
AcDbEntity
  8
4
100
AcDbCircle
 10
1617.894795736494
 20
639.1261548892833
 30
0.0
 40
2.0
100
AcDbArc
 50
174.2948654962331
 51
270.0
  0
LINE
  5
4C3
330
19
100
AcDbEntity
  8
4
100
AcDbLine
 10
1621.898929029868
 20
699.3249727297841
 30
0.0
 11
1615.904702405442
 21
639.3249727297848
 31
0.0
  0
LINE
  5
4C4
330
19
100
AcDbEntity
  8
4
100
AcDbLine
 10
595.4578091411163
 20
559.1261548892828
 30
0.0
 11
595.4578091411161
 21
585.6879243685703
 31
0.0
  0
LINE
  5
4C5
330
19
100
AcDbEntity
  8
4
100
AcDbLine
 10
661.3998975408203
 20
580.8888424295553
 30
0.0
 11
675.5647441411161
 21
449.7050098892828
 31
0.0
  0
ARC
  5
4C6
330
19
100
AcDbEntity
  8
4
100
AcDbCircle
 10
680.5359341411163
 20
450.2418748892828
 30
0.0
 40
5.000025
100
AcDbArc
 50
186.1637819999897
 51
258.2544110000051
  0
ARC
  5
4C7
330
19
100
AcDbEntity
  8
4
100
AcDbCircle
 10
664.3826141411164
 20
581.210869889283
 30
0.0
 40
3.00005
100
AcDbArc
 50
77.78018600000121
 51
186.1620410000109
  0
LINE
  5
4CB
330
19
100
AcDbEntity
  8
L-CENTER
 48
2.0
100
AcDbLine
 10
360.1602221678049
 20
1334.534297218468
 30
0.0
 11
406.7553961144276
 21
1334.534297218468
 31
0.0
  0
LINE
  5
4CC
330
19
100
AcDbEntity
  8
4
100
AcDbLine
 10
353.4578091411163
 20
1294.534297218468
 30
0.0
 11
438.4578091411163
 21
1294.534297218469
 31
0.0
  0
LINE
  5
4CD
330
19
100
AcDbEntity
  8
4
100
AcDbLine
 10
353.4578091411163
 20
1644.534297218469
 30
0.0
 11
438.4578091411163
 21
1644.534297218469
 31
0.0
  0
LINE
  5
4CE
330
19
100
AcDbEntity
  8
L-CENTER
 48
2.0
100
AcDbLine
 10
360.1602221678049
 20
1604.534297218469
 30
0.0
 11
406.7553961144276
 21
1604.534297218469
 31
0.0
  0
LINE
  5
4CF
330
19
100
AcDbEntity
  8
4
100
AcDbLine
 10
367.4578091411163
 20
1600.934297218468
 30
0.0
 11
869.4578091411163
 21
1600.934297218468
 31
0.0
  0
LINE
  5
4D0
330
19
100
AcDbEntity
  8
4
100
AcDbLine
 10
366.4578091411163
 20
1578.934297218468
 30
0.0
 11
870.4578091411163
 21
1578.934297218468
 31
0.0
  0
LINE
  5
4D1
330
19
100
AcDbEntity
  8
4
100
AcDbLine
 10
368.4578091411163
 20
1340.534297218469
 30
0.0
 11
868.4578091411163
 21
1340.534297218469
 31
0.0
  0
LINE
  5
4D2
330
19
100
AcDbEntity
  8
4
100
AcDbLine
 10
348.6578091411161
 20
1363.534297218469
 30
0.0
 11
688.4578091411136
 21
1363.534297218469
 31
0.0
  0
LINE
  5
4D3
330
19
100
AcDbEntity
  8
4
100
AcDbLine
 10
348.6578091411161
 20
1575.534297218469
 30
0.0
 11
888.2578091411165
 21
1575.534297218469
 31
0.0
  0
LINE
  5
4D4
330
19
100
AcDbEntity
  8
4
100
AcDbLine
 10
365.4578091411163
 20
1364.534297218468
 30
0.0
 11
871.4578091411163
 21
1364.534297218468
 31
0.0
  0
LINE
  5
4D5
330
19
100
AcDbEntity
  8
4
100
AcDbLine
 10
365.4578091411163
 20
1574.534297218469
 30
0.0
 11
871.4578091411163
 21
1574.534297218469
 31
0.0
  0
LINE
  5
4D6
330
19
100
AcDbEntity
  8
L-CENTER
 48
2.0
100
AcDbLine
 10
205.2666593375443
 20
1469.534297218469
 30
0.0
 11
1031.648958944688
 21
1469.534297218469
 31
0.0
  0
LINE
  5
4D7
330
19
100
AcDbEntity
  8
4
100
AcDbLine
 10
343.4578091411163
 20
1395.662472218469
 30
0.0
 11
343.4578091411163
 21
1304.534297218468
 31
0.0
  0
LINE
  5
4D8
330
19
100
AcDbEntity
  8
4
100
AcDbLine
 10
370.4578091411163
 20
1460.314752761175
 30
0.0
 11
370.4578091411163
 21
1364.534297218469
 31
0.0
  0
LINE
  5
4D9
330
19
100
AcDbEntity
  8
4
100
AcDbLine
 10
348.6578091411161
 20
1575.534297218469
 30
0.0
 11
348.6578091411161
 21
1363.534297218469
 31
0.0
  0
LINE
  5
4DA
330
19
100
AcDbEntity
  8
4
100
AcDbLine
 10
365.4578091411163
 20
1575.534297218469
 30
0.0
 11
365.4578091411163
 21
1363.534297218469
 31
0.0
  0
ARC
  5
4DB
330
19
100
AcDbEntity
  8
4
100
AcDbCircle
 10
353.4578091411163
 20
1304.534297218468
 30
0.0
 40
10.0
100
AcDbArc
 50
180.0
 51
270.0
  0
LINE
  5
4DC
330
19
100
AcDbEntity
  8
L-CENTER
 48
2.0
100
AcDbLine
 10
383.4578091411163
 20
1311.236710245157
 30
0.0
 11
383.4578091411163
 21
1357.83188419178
 31
0.0
  0
LINE
  5
4DD
330
19
100
AcDbEntity
  8
4
100
AcDbLine
 10
368.4578091411163
 20
1363.534297218469
 30
0.0
 11
368.4578091411163
 21
1340.534297218469
 31
0.0
  0
ARC
  5
4DE
330
19
100
AcDbEntity
  8
2
  6
DASHED
100
AcDbCircle
 10
383.4578091411163
 20
1334.534297218468
 30
0.0
 40
12.0
100
AcDbArc
 50
30.00000000000121
 51
149.9999999999988
  0
ARC
  5
4E0
330
19
100
AcDbEntity
  8
4
100
AcDbCircle
 10
383.4578091411163
 20
1334.534297218468
 30
0.0
 40
12.0
100
AcDbArc
 50
149.9999999999988
 51
30.00000000000121
  0
LINE
  5
4E1
330
19
100
AcDbEntity
  8
4
100
AcDbLine
 10
343.4578091411163
 20
1634.534297218469
 30
0.0
 11
343.4578091411163
 21
1543.406122218469
 31
0.0
  0
LINE
  5
4E2
330
19
100
AcDbEntity
  8
L-CENTER
 48
2.0
100
AcDbLine
 10
383.4578091411163
 20
1563.559544353363
 30
0.0
 11
383.4578091411163
 21
1618.733628156459
 31
0.0
  0
LINE
  5
4E3
330
19
100
AcDbEntity
  8
4
100
AcDbLine
 10
370.4578091411163
 20
1574.534297218469
 30
0.0
 11
370.4578091411163
 21
1478.753841675761
 31
0.0
  0
LINE
  5
4E4
330
19
100
AcDbEntity
  8
4
100
AcDbLine
 10
343.4578091411163
 20
1519.406122218469
 30
0.0
 11
343.4578091411163
 21
1502.034297218469
 31
0.0
  0
CIRCLE
  5
4E5
330
19
100
AcDbEntity
  8
4
100
AcDbCircle
 10
376.4578091411163
 20
1469.534297218469
 30
0.0
 40
11.0
  0
LINE
  5
4E6
330
19
100
AcDbEntity
  8
L-CENTER
 48
2.0
100
AcDbLine
 10
376.4578091411163
 20
1486.974122862548
 30
0.0
 11
376.4578091411163
 21
1453.22884525629
 31
0.0
  0
LINE
  5
4E7
330
19
100
AcDbEntity
  8
L-CENTER
 48
2.0
100
AcDbLine
 10
331.8065993055311
 20
1407.662472218474
 30
0.0
 11
380.2343144382889
 21
1407.662472218473
 31
0.0
  0
LINE
  5
4E8
330
19
100
AcDbEntity
  8
4
100
AcDbLine
 10
337.6874491411163
 20
1395.662472218468
 30
0.0
 11
345.6579091411163
 21
1395.662472218468
 31
0.0
  0
LINE
  5
4E9
330
19
100
AcDbEntity
  8
4
100
AcDbLine
 10
345.6579091411163
 20
1401.662472218468
 30
0.0
 11
337.6874491411163
 21
1401.662472218468
 31
0.0
  0
LINE
  5
4EA
330
19
100
AcDbEntity
  8
4
100
AcDbLine
 10
337.6874491411163
 20
1419.662472218468
 30
0.0
 11
345.6579091411163
 21
1419.662472218468
 31
0.0
  0
LINE
  5
4EB
330
19
100
AcDbEntity
  8
4
100
AcDbLine
 10
345.6579091411163
 20
1413.662472218468
 30
0.0
 11
337.6874491411163
 21
1413.662472218468
 31
0.0
  0
ARC
  5
4EC
330
19
100
AcDbEntity
  8
4
100
AcDbCircle
 10
341.2416491411163
 20
1416.662472218468
 30
0.0
 40
4.58369
100
AcDbArc
 50
139.1186700000007
 51
220.8813299999993
  0
ARC
  5
4ED
330
19
100
AcDbEntity
  8
4
100
AcDbCircle
 10
341.2416491411163
 20
1398.662472218468
 30
0.0
 40
4.58369
100
AcDbArc
 50
139.1186700000007
 51
220.8813299999993
  0
ARC
  5
4EE
330
19
100
AcDbEntity
  8
4
100
AcDbCircle
 10
354.6579091411163
 20
1407.662472218468
 30
0.0
 40
18.00009
100
AcDbArc
 50
160.5289280000003
 51
199.4703399999999
  0
LINE
  5
4EF
330
19
100
AcDbEntity
  8
4
100
AcDbLine
 10
336.6579091411163
 20
1416.662472218468
 30
0.0
 11
336.6579091411163
 21
1398.662472218468
 31
0.0
  0
LINE
  5
4F0
330
19
100
AcDbEntity
  8
4
100
AcDbLine
 10
345.6579091411163
 20
1419.662472218468
 30
0.0
 11
345.6579091411163
 21
1395.662472218468
 31
0.0
  0
LINE
  5
4F1
330
19
100
AcDbEntity
  8
4
100
AcDbLine
 10
348.6579091411163
 20
1395.662472218468
 30
0.0
 11
348.6579091411163
 21
1419.662472218468
 31
0.0
  0
LINE
  5
4F2
330
19
100
AcDbEntity
  8
4
100
AcDbLine
 10
348.6579091411163
 20
1395.662472218468
 30
0.0
 11
345.6579091411163
 21
1395.662472218468
 31
0.0
  0
LINE
  5
4F3
330
19
100
AcDbEntity
  8
4
100
AcDbLine
 10
348.6579091411163
 20
1419.662472218468
 30
0.0
 11
345.6579091411163
 21
1419.662472218468
 31
0.0
  0
LINE
  5
4F4
330
19
100
AcDbEntity
  8
L-CENTER
 48
2.0
100
AcDbLine
 10
330.0346293055341
 20
1531.406122218475
 30
0.0
 11
380.2343144382917
 21
1531.406122218473
 31
0.0
  0
LINE
  5
4F5
330
19
100
AcDbEntity
  8
4
100
AcDbLine
 10
345.6579091411163
 20
1525.406122218469
 30
0.0
 11
337.6874491411163
 21
1525.406122218469
 31
0.0
  0
LINE
  5
4F6
330
19
100
AcDbEntity
  8
4
100
AcDbLine
 10
345.6579091411163
 20
1537.406122218469
 30
0.0
 11
337.6874491411163
 21
1537.406122218469
 31
0.0
  0
LINE
  5
4F7
330
19
100
AcDbEntity
  8
4
100
AcDbLine
 10
337.6874491411163
 20
1543.406122218469
 30
0.0
 11
345.6579091411163
 21
1543.406122218469
 31
0.0
  0
LINE
  5
4F8
330
19
100
AcDbEntity
  8
4
100
AcDbLine
 10
337.6874491411163
 20
1519.406122218469
 30
0.0
 11
345.6579091411163
 21
1519.406122218469
 31
0.0
  0
ARC
  5
4F9
330
19
100
AcDbEntity
  8
4
100
AcDbCircle
 10
341.2416491411163
 20
1540.406122218469
 30
0.0
 40
4.583600000000001
100
AcDbArc
 50
139.1186700000054
 51
220.8833260000026
  0
ARC
  5
4FA
330
19
100
AcDbEntity
  8
4
100
AcDbCircle
 10
354.6579091411163
 20
1531.406122218469
 30
0.0
 40
17.999975
100
AcDbArc
 50
160.5296600000026
 51
199.4713310000026
  0
LINE
  5
4FB
330
19
100
AcDbEntity
  8
4
100
AcDbLine
 10
336.6579091411163
 20
1522.406122218469
 30
0.0
 11
336.6579091411163
 21
1540.406122218469
 31
0.0
  0
ARC
  5
4FC
330
19
100
AcDbEntity
  8
4
100
AcDbCircle
 10
341.2416491411163
 20
1522.406122218469
 30
0.0
 40
4.583600000000001
100
AcDbArc
 50
139.1186700000063
 51
220.8833260000026
  0
LINE
  5
4FD
330
19
100
AcDbEntity
  8
4
100
AcDbLine
 10
348.6579091411163
 20
1543.406122218469
 30
0.0
 11
345.6579091411163
 21
1543.406122218469
 31
0.0
  0
LINE
  5
4FE
330
19
100
AcDbEntity
  8
4
100
AcDbLine
 10
348.6579091411163
 20
1519.406122218469
 30
0.0
 11
345.6579091411163
 21
1519.406122218469
 31
0.0
  0
LINE
  5
4FF
330
19
100
AcDbEntity
  8
4
100
AcDbLine
 10
348.6579091411163
 20
1543.406122218469
 30
0.0
 11
348.6579091411163
 21
1519.406122218469
 31
0.0
  0
LINE
  5
500
330
19
100
AcDbEntity
  8
4
100
AcDbLine
 10
345.6579091411163
 20
1519.406122218469
 30
0.0
 11
345.6579091411163
 21
1543.406122218469
 31
0.0
  0
ARC
  5
501
330
19
100
AcDbEntity
  8
4
100
AcDbCircle
 10
353.4578091411163
 20
1634.534297218469
 30
0.0
 40
10.0
100
AcDbArc
 50
90.0
 51
180.0
  0
ARC
  5
502
330
19
100
AcDbEntity
  8
2
  6
DASHED
100
AcDbCircle
 10
383.4578091411163
 20
1604.534297218469
 30
0.0
 40
12.0
100
AcDbArc
 50
135.5729959991962
 51
44.42700400080382
  0
LINE
  5
503
330
19
100
AcDbEntity
  8
L-CENTER
 48
2.0
100
AcDbLine
 10
383.4578091411163
 20
1627.831884191779
 30
0.0
 11
383.4578091411163
 21
1581.236710245157
 31
0.0
  0
ARC
  5
504
330
19
100
AcDbEntity
  8
4
100
AcDbCircle
 10
374.4578091411163
 20
1608.350557218468
 30
0.0
 40
4.583600000000001
100
AcDbArc
 50
49.11667400001057
 51
130.8813299999989
  0
ARC
  5
505
330
19
100
AcDbEntity
  8
4
100
AcDbCircle
 10
392.4578091411163
 20
1608.350557218468
 30
0.0
 40
4.583600000000001
100
AcDbArc
 50
49.11667400001057
 51
130.8813299999989
  0
ARC
  5
506
330
19
100
AcDbEntity
  8
4
100
AcDbCircle
 10
383.4578091411163
 20
1594.934297218468
 30
0.0
 40
17.999975
100
AcDbArc
 50
70.5286690000005
 51
109.4703399999999
  0
ARC
  5
507
330
19
100
AcDbEntity
  8
4
100
AcDbCircle
 10
367.4578091411163
 20
1599.934297218468
 30
0.0
 40
1.0
100
AcDbArc
 50
90.0
 51
180.0
  0
LINE
  5
508
330
19
100
AcDbEntity
  8
4
100
AcDbLine
 10
366.4578091411163
 20
1599.934297218468
 30
0.0
 11
366.4578091411163
 21
1578.934297218468
 31
0.0
  0
LINE
  5
509
330
19
100
AcDbEntity
  8
4
100
AcDbLine
 10
368.4578091411163
 20
1578.934297218468
 30
0.0
 11
368.4578091411163
 21
1575.534297218469
 31
0.0
  0
LINE
  5
50A
330
19
100
AcDbEntity
  8
4
100
AcDbLine
 10
377.4578091411163
 20
1603.934297218468
 30
0.0
 11
377.4578091411163
 21
1611.904757218469
 31
0.0
  0
LINE
  5
50B
330
19
100
AcDbEntity
  8
4
100
AcDbLine
 10
371.4578091411163
 20
1611.904757218469
 30
0.0
 11
371.4578091411163
 21
1603.934297218468
 31
0.0
  0
LINE
  5
50C
330
19
100
AcDbEntity
  8
4
100
AcDbLine
 10
389.4578091411163
 20
1603.934297218468
 30
0.0
 11
389.4578091411163
 21
1611.904757218469
 31
0.0
  0
LINE
  5
50D
330
19
100
AcDbEntity
  8
4
100
AcDbLine
 10
395.4578091411163
 20
1611.904757218469
 30
0.0
 11
395.4578091411163
 21
1603.934297218468
 31
0.0
  0
LINE
  5
50E
330
19
100
AcDbEntity
  8
4
100
AcDbLine
 10
395.4578091411163
 20
1603.934297218468
 30
0.0
 11
371.4578091411163
 21
1603.934297218468
 31
0.0
  0
LINE
  5
50F
330
19
100
AcDbEntity
  8
4
100
AcDbLine
 10
371.4578091411163
 20
1600.934297218468
 30
0.0
 11
395.4578091411163
 21
1600.934297218468
 31
0.0
  0
LINE
  5
510
330
19
100
AcDbEntity
  8
4
100
AcDbLine
 10
395.4578091411163
 20
1600.934297218468
 30
0.0
 11
395.4578091411163
 21
1603.934297218468
 31
0.0
  0
LINE
  5
511
330
19
100
AcDbEntity
  8
4
100
AcDbLine
 10
371.4578091411163
 20
1600.934297218468
 30
0.0
 11
371.4578091411163
 21
1603.934297218468
 31
0.0
  0
ARC
  5
512
330
19
100
AcDbEntity
  8
4
100
AcDbCircle
 10
383.4578091411163
 20
1604.534297218469
 30
0.0
 40
12.0
100
AcDbArc
 50
44.42700400080382
 51
135.5729959991962
  0
LINE
  5
513
330
19
100
AcDbEntity
  8
4
100
AcDbLine
 10
392.4578091411163
 20
1612.934297218468
 30
0.0
 11
374.4578091411163
 21
1612.934297218468
 31
0.0
  0
LINE
  5
514
330
19
100
AcDbEntity
  8
4
100
AcDbLine
 10
893.4578091411163
 20
1395.662472218468
 30
0.0
 11
893.4578091411163
 21
1304.534297218468
 31
0.0
  0
LINE
  5
515
330
19
100
AcDbEntity
  8
4
100
AcDbLine
 10
866.4578091411163
 20
1460.314752761175
 30
0.0
 11
866.4578091411163
 21
1364.534297218469
 31
0.0
  0
LINE
  5
516
330
19
100
AcDbEntity
  8
4
100
AcDbLine
 10
888.2578091411165
 20
1575.534297218469
 30
0.0
 11
888.257809141116
 21
1363.534297218468
 31
0.0
  0
LINE
  5
517
330
19
100
AcDbEntity
  8
L-CENTER
 48
2.0
100
AcDbLine
 10
618.4578091411163
 20
1826.085594808893
 30
0.0
 11
618.4578091411163
 21
1112.982999628043
 31
0.0
  0
LINE
  5
518
330
19
100
AcDbEntity
  8
4
100
AcDbLine
 10
871.4578091411163
 20
1575.534297218469
 30
0.0
 11
871.4578091411163
 21
1363.534297218468
 31
0.0
  0
LINE
  5
519
330
19
100
AcDbEntity
  8
4
100
AcDbLine
 10
883.4578091411163
 20
1294.534297218468
 30
0.0
 11
798.4578091411163
 21
1294.534297218469
 31
0.0
  0
LINE
  5
51A
330
19
100
AcDbEntity
  8
4
100
AcDbLine
 10
694.0889354137412
 20
1307.539323668441
 30
0.0
 11
833.4745744347515
 21
1340.534297218468
 31
0.0
  0
LINE
  5
51B
330
19
100
AcDbEntity
  8
4
100
AcDbLine
 10
834.6572957431031
 20
1340.534297218468
 30
0.0
 11
700.4844882648135
 21
1307.357021187473
 31
0.0
  0
LINE
  5
51C
330
19
100
AcDbEntity
  8
4
100
AcDbLine
 10
694.0889354137412
 20
1309.534297218468
 30
0.0
 11
825.0469070302338
 21
1340.534297218468
 31
0.0
  0
LINE
  5
525
330
19
100
AcDbEntity
  8
4
100
AcDbLine
 10
560.7956239534446
 20
1307.539323668441
 30
0.0
 11
676.1199943287875
 21
1307.539323668441
 31
0.0
  0
LINE
  5
526
330
19
100
AcDbEntity
  8
4
100
AcDbLine
 10
695.9578091411158
 20
1286.534297218468
 30
0.0
 11
540.9578091411158
 21
1286.534297218468
 31
0.0
  0
LINE
  5
527
330
19
100
AcDbEntity
  8
4
100
AcDbLine
 10
542.8266828684914
 20
1309.534297218468
 30
0.0
 11
411.8687112519988
 21
1340.534297218468
 31
0.0
  0
LINE
  5
528
330
19
100
AcDbEntity
  8
4
100
AcDbLine
 10
402.2583225391295
 20
1340.534297218468
 30
0.0
 11
536.431130017419
 21
1307.357021187473
 31
0.0
  0
LINE
  5
529
330
19
100
AcDbEntity
  8
4
100
AcDbLine
 10
542.8266828684914
 20
1307.539323668441
 30
0.0
 11
403.4410438474811
 21
1340.534297218468
 31
0.0
  0
LINE
  5
52A
330
19
100
AcDbEntity
  8
4
100
AcDbLine
 10
448.4578091411163
 20
1329.110424167795
 30
0.0
 11
448.4578091411163
 21
1304.534297218469
 31
0.0
  0
ARC
  5
52B
330
19
100
AcDbEntity
  8
4
100
AcDbCircle
 10
438.4578091411163
 20
1304.534297218469
 30
0.0
 40
10.0
100
AcDbArc
 50
270.0
 51
0.0
  0
LINE
  5
530
330
19
100
AcDbEntity
  8
4
100
AcDbLine
 10
560.7956239534442
 20
1309.534297218468
 30
0.0
 11
542.8266828684914
 21
1309.534297218468
 31
0.0
  0
ARC
  5
536
330
19
100
AcDbEntity
  8
4
100
AcDbCircle
 10
534.0627205357346
 20
1305.868440388762
 30
0.0
 40
2.0
100
AcDbArc
 50
14.03624346792646
 51
76.89891387042832
  0
LINE
  5
537
330
19
100
AcDbEntity
  8
4
100
AcDbLine
 10
542.8266828684914
 20
1307.539323668441
 30
0.0
 11
542.8266828684914
 21
1309.534297218468
 31
0.0
  0
LINE
  5
538
330
19
100
AcDbEntity
  8
4
100
AcDbLine
 10
542.8266828684914
 20
1307.539323668441
 30
0.0
 11
535.1618788799628
 21
1307.539323668441
 31
0.0
  0
LINE
  5
539
330
19
100
AcDbEntity
  8
4
100
AcDbLine
 10
540.9578091411163
 20
1286.534297218468
 30
0.0
 11
536.0030055360253
 21
1306.353511638834
 31
0.0
  0
LINE
  5
53E
330
19
100
AcDbEntity
  8
4
100
AcDbLine
 10
575.4734879476874
 20
1340.534297218469
 30
0.0
 11
560.7956239534446
 21
1307.539323668441
 31
0.0
  0
LINE
  5
53F
330
19
100
AcDbEntity
  8
4
100
AcDbLine
 10
574.5860209401746
 20
1340.534297218469
 30
0.0
 11
560.7956239534446
 21
1309.534297218468
 31
0.0
  0
LINE
  5
540
330
19
100
AcDbEntity
  8
4
100
AcDbLine
 10
560.7956239534446
 20
1307.539323668441
 30
0.0
 11
560.7956239534446
 21
1309.534297218468
 31
0.0
  0
LINE
  5
55A
330
19
100
AcDbEntity
  8
4
100
AcDbLine
 10
676.1199943287884
 20
1309.534297218468
 30
0.0
 11
694.0889354137412
 21
1309.534297218468
 31
0.0
  0
LINE
  5
55B
330
19
100
AcDbEntity
  8
4
100
AcDbLine
 10
661.4421303345451
 20
1340.534297218469
 30
0.0
 11
676.1199943287879
 21
1307.539323668441
 31
0.0
  0
LINE
  5
55C
330
19
100
AcDbEntity
  8
4
100
AcDbLine
 10
662.3295973420561
 20
1340.534297218469
 30
0.0
 11
676.1199943287879
 21
1309.534297218468
 31
0.0
  0
LINE
  5
55D
330
19
100
AcDbEntity
  8
4
100
AcDbLine
 10
676.1199943287879
 20
1307.539323668441
 30
0.0
 11
676.1199943287879
 21
1309.534297218468
 31
0.0
  0
LINE
  5
55F
330
19
100
AcDbEntity
  8
4
100
AcDbLine
 10
694.0889354137412
 20
1307.539323668441
 30
0.0
 11
701.7537394022697
 21
1307.539323668441
 31
0.0
  0
LINE
  5
560
330
19
100
AcDbEntity
  8
4
100
AcDbLine
 10
694.0889354137412
 20
1307.539323668441
 30
0.0
 11
694.0889354137412
 21
1309.534297218468
 31
0.0
  0
ARC
  5
561
330
19
100
AcDbEntity
  8
4
100
AcDbCircle
 10
702.852897746498
 20
1305.868440388762
 30
0.0
 40
2.0
100
AcDbArc
 50
103.1010861295717
 51
165.9637565320735
  0
LINE
  5
562
330
19
100
AcDbEntity
  8
4
100
AcDbLine
 10
695.9578091411163
 20
1286.534297218468
 30
0.0
 11
700.9126127462073
 21
1306.353511638834
 31
0.0
  0
LINE
  5
568
330
19
100
AcDbEntity
  8
4
100
AcDbLine
 10
788.4578091411163
 20
1329.110424167795
 30
0.0
 11
788.4578091411163
 21
1304.534297218469
 31
0.0
  0
ARC
  5
569
330
19
100
AcDbEntity
  8
4
100
AcDbCircle
 10
798.4578091411163
 20
1304.534297218469
 30
0.0
 40
10.0
100
AcDbArc
 50
180.0
 51
270.0
  0
LINE
  5
56A
330
19
100
AcDbEntity
  8
L-CENTER
 48
2.0
100
AcDbLine
 10
876.7553961144276
 20
1334.534297218468
 30
0.0
 11
830.1602221678049
 21
1334.534297218468
 31
0.0
  0
LINE
  5
56B
330
19
100
AcDbEntity
  8
L-CENTER
 48
2.0
100
AcDbLine
 10
853.4578091411163
 20
1311.236710245157
 30
0.0
 11
853.4578091411163
 21
1357.83188419178
 31
0.0
  0
ARC
  5
56C
330
19
100
AcDbEntity
  8
2
  6
DASHED
100
AcDbCircle
 10
853.4578091411163
 20
1334.534297218468
 30
0.0
 40
12.0
100
AcDbArc
 50
30.00000000000121
 51
149.9999999999988
  0
ARC
  5
56D
330
19
100
AcDbEntity
  8
4
100
AcDbCircle
 10
853.4578091411163
 20
1334.534297218468
 30
0.0
 40
12.0
100
AcDbArc
 50
149.9999999999988
 51
30.00000000000121
  0
LINE
  5
56E
330
19
100
AcDbEntity
  8
4
100
AcDbLine
 10
868.4578091411163
 20
1363.534297218468
 30
0.0
 11
868.4578091411163
 21
1340.534297218469
 31
0.0
  0
ARC
  5
56F
330
19
100
AcDbEntity
  8
4
100
AcDbCircle
 10
883.4578091411163
 20
1304.534297218468
 30
0.0
 40
10.0
100
AcDbArc
 50
270.0
 51
0.0
  0
LINE
  5
570
330
19
100
AcDbEntity
  8
4
100
AcDbLine
 10
883.4578091411163
 20
1644.534297218469
 30
0.0
 11
798.4578091411163
 21
1644.534297218469
 31
0.0
  0
LINE
  5
571
330
19
100
AcDbEntity
  8
4
100
AcDbLine
 10
702.1151006275581
 20
1632.639713931017
 30
0.0
 11
826.6720948554039
 21
1600.934297218484
 31
0.0
  0
LINE
  5
572
330
19
100
AcDbEntity
  8
4
100
AcDbLine
 10
700.4068008450513
 20
1635.138330402734
 30
0.0
 11
834.7797883546409
 21
1600.934297218485
 31
0.0
  0
LINE
  5
573
330
19
100
AcDbEntity
  8
4
100
AcDbLine
 10
579.4578091411163
 20
1660.534297218469
 30
0.0
 11
579.4578091411163
 21
1817.534297218469
 31
0.0
  0
LINE
  5
574
330
19
100
AcDbEntity
  8
4
100
AcDbLine
 10
628.4578091411163
 20
1819.534297218469
 30
0.0
 11
628.4578091411163
 21
1679.534297218469
 31
0.0
  0
LINE
  5
575
330
19
100
AcDbEntity
  8
4
100
AcDbLine
 10
657.4578091411163
 20
1660.534297218469
 30
0.0
 11
657.4578091411163
 21
1817.534297218469
 31
0.0
  0
LINE
  5
576
330
19
100
AcDbEntity
  8
4
100
AcDbLine
 10
608.4578091411163
 20
1819.534297218469
 30
0.0
 11
608.4578091411163
 21
1679.534297218469
 31
0.0
  0
ARC
  5
577
330
19
100
AcDbEntity
  8
4
100
AcDbCircle
 10
618.4578091411163
 20
1469.534297218469
 30
0.0
 40
20.0
100
AcDbArc
 50
203.5781784782018
 51
336.4218215217981
  0
ARC
  5
578
330
19
100
AcDbEntity
  8
4
100
AcDbCircle
 10
618.4578091411163
 20
1469.534297218469
 30
0.0
 40
16.0
100
AcDbArc
 50
30.00000000000014
 51
150.0000000000001
  0
ARC
  5
579
330
19
100
AcDbEntity
  8
4
100
AcDbCircle
 10
618.4578091411163
 20
1469.534297218469
 30
0.0
 40
16.0
100
AcDbArc
 50
209.9999999999999
 51
330.0000000000001
  0
LINE
  5
57A
330
19
100
AcDbEntity
  8
4
100
AcDbLine
 10
590.4578091411163
 20
1477.534297218469
 30
0.0
 11
646.4578091411163
 21
1477.534297218469
 31
0.0
  0
LINE
  5
57B
330
19
100
AcDbEntity
  8
4
100
AcDbLine
 10
590.4578091411163
 20
1461.534297218469
 30
0.0
 11
646.4578091411163
 21
1461.534297218469
 31
0.0
  0
ARC
  5
57C
330
19
100
AcDbEntity
  8
4
100
AcDbCircle
 10
618.4578091411163
 20
1469.534297218469
 30
0.0
 40
17.5
100
AcDbArc
 50
27.20289441221446
 51
152.7971055877856
  0
ARC
  5
57D
330
19
100
AcDbEntity
  8
4
100
AcDbCircle
 10
618.4578091411163
 20
1469.534297218469
 30
0.0
 40
17.5
100
AcDbArc
 50
207.2028944122144
 51
332.7971055877855
  0
ARC
  5
57E
330
19
100
AcDbEntity
  8
4
100
AcDbCircle
 10
618.4578091411163
 20
1469.534297218469
 30
0.0
 40
20.0
100
AcDbArc
 50
23.57817847820185
 51
156.4218215217982
  0
ARC
  5
57F
330
19
100
AcDbEntity
  8
4
100
AcDbCircle
 10
618.4578091411163
 20
1679.534297218469
 30
0.0
 40
10.0
100
AcDbArc
 50
180.0
 51
0.0
  0
LINE
  5
580
330
19
100
AcDbEntity
  8
4
100
AcDbLine
 10
578.4578091411163
 20
1659.534297218469
 30
0.0
 11
658.4578091411163
 21
1659.534297218469
 31
0.0
  0
LINE
  5
581
330
19
100
AcDbEntity
  8
4
100
AcDbLine
 10
638.4578091411163
 20
1619.934297218468
 30
0.0
 11
598.4578091411163
 21
1619.934297218468
 31
0.0
  0
LINE
  5
582
330
19
100
AcDbEntity
  8
4
100
AcDbLine
 10
598.4578091411163
 20
1606.361710109198
 30
0.0
 11
638.4578091411163
 21
1606.361710109184
 31
0.0
  0
LINE
  5
583
330
19
100
AcDbEntity
  8
4
100
AcDbLine
 10
540.9578091411163
 20
1652.934297218468
 30
0.0
 11
695.9578091411158
 21
1652.934297218468
 31
0.0
  0
LINE
  5
584
330
19
100
AcDbEntity
  8
4
100
AcDbLine
 10
568.4578091411163
 20
1653.934297218468
 30
0.0
 11
668.4578091411163
 21
1653.934297218468
 31
0.0
  0
LINE
  5
585
330
19
100
AcDbEntity
  8
4
100
AcDbLine
 10
560.9578091411163
 20
1634.934297218468
 30
0.0
 11
675.9578091411163
 21
1634.934297218468
 31
0.0
  0
LINE
  5
586
330
19
100
AcDbEntity
  8
L-CENTER
 48
2.0
100
AcDbLine
 10
500.9578091411158
 20
1563.559544353363
 30
0.0
 11
500.9578091411158
 21
1618.733628156459
 31
0.0
  0
LWPOLYLINE
  5
587
330
19
100
AcDbEntity
  8
4
100
AcDbPolyline
 90
        6
 70
     1
 43
0.0
 10
501.4578091411163
 20
1469.534297218469
 10
489.9578091411163
 20
1489.452881505511
 10
466.9578091411163
 20
1489.452881505511
 10
455.4578091411163
 20
1469.534297218469
 10
466.9578091411163
 20
1449.615712931427
 10
489.9578091411163
 20
1449.615712931427
  0
CIRCLE
  5
588
330
19
100
AcDbEntity
  8
4
100
AcDbCircle
 10
478.4578091411163
 20
1469.534297218469
 30
0.0
 40
23.0
  0
CIRCLE
  5
589
330
19
100
AcDbEntity
  8
4
100
AcDbCircle
 10
478.4578091411163
 20
1469.534297218469
 30
0.0
 40
25.0
  0
LINE
  5
58A
330
19
100
AcDbEntity
  8
L-CENTER
 48
2.0
100
AcDbLine
 10
478.4578091411163
 20
1503.253685498852
 30
0.0
 11
478.4578091411163
 21
1435.300784379332
 31
0.0
  0
ARC
  5
58B
330
19
100
AcDbEntity
  8
4
100
AcDbCircle
 10
590.4578091411163
 20
1469.534297218469
 30
0.0
 40
8.0
100
AcDbArc
 50
90.0
 51
270.0
  0
ARC
  5
58C
330
19
100
AcDbEntity
  8
4
100
AcDbCircle
 10
500.9578091411158
 20
1594.934297218468
 30
0.0
 40
17.999975
100
AcDbArc
 50
70.52866900000068
 51
109.4703400000002
  0
LINE
  5
58D
330
19
100
AcDbEntity
  8
4
100
AcDbLine
 10
509.9578091411158
 20
1612.934297218468
 30
0.0
 11
491.9578091411158
 21
1612.934297218468
 31
0.0
  0
LINE
  5
58E
330
19
100
AcDbEntity
  8
4
100
AcDbLine
 10
512.9578091411158
 20
1603.934297218468
 30
0.0
 11
488.9578091411158
 21
1603.934297218468
 31
0.0
  0
LINE
  5
58F
330
19
100
AcDbEntity
  8
4
100
AcDbLine
 10
488.9578091411158
 20
1600.934297218468
 30
0.0
 11
512.9578091411158
 21
1600.934297218468
 31
0.0
  0
LINE
  5
590
330
19
100
AcDbEntity
  8
4
100
AcDbLine
 10
536.5088174371808
 20
1635.138330402727
 30
0.0
 11
402.1358299275935
 21
1600.934297218468
 31
0.0
  0
LINE
  5
591
330
19
100
AcDbEntity
  8
4
100
AcDbLine
 10
534.800517654674
 20
1632.639713931011
 30
0.0
 11
410.2435234268305
 21
1600.934297218468
 31
0.0
  0
LINE
  5
592
330
19
100
AcDbEntity
  8
4
100
AcDbLine
 10
483.4578091411163
 20
1625.934297218468
 30
0.0
 11
433.4578091411163
 21
1625.934297218468
 31
0.0
  0
LINE
  5
593
330
19
100
AcDbEntity
  8
4
100
AcDbLine
 10
433.4578091411163
 20
1625.934297218468
 30
0.0
 11
433.4578091411163
 21
1609.079751763923
 31
0.0
  0
ARC
  5
594
330
19
100
AcDbEntity
  8
4
100
AcDbCircle
 10
438.4578091411163
 20
1634.534297218469
 30
0.0
 40
10.0
100
AcDbArc
 50
0.0
 51
90.0
  0
LINE
  5
595
330
19
100
AcDbEntity
  8
4
100
AcDbLine
 10
448.4578091411163
 20
1634.534297218469
 30
0.0
 11
448.4578091411163
 21
1625.934297218468
 31
0.0
  0
ARC
  5
596
330
19
100
AcDbEntity
  8
4
100
AcDbCircle
 10
491.9578091411158
 20
1608.350557218468
 30
0.0
 40
4.583600000000001
100
AcDbArc
 50
49.1166740000111
 51
130.8813299999994
  0
LINE
  5
597
330
19
100
AcDbEntity
  8
4
100
AcDbLine
 10
488.9578091411158
 20
1611.904757218469
 30
0.0
 11
488.9578091411158
 21
1603.934297218468
 31
0.0
  0
LINE
  5
598
330
19
100
AcDbEntity
  8
4
100
AcDbLine
 10
494.9578091411158
 20
1603.934297218468
 30
0.0
 11
494.9578091411158
 21
1611.904757218469
 31
0.0
  0
LINE
  5
599
330
19
100
AcDbEntity
  8
4
100
AcDbLine
 10
488.9578091411158
 20
1600.934297218468
 30
0.0
 11
488.9578091411158
 21
1603.934297218468
 31
0.0
  0
LINE
  5
59A
330
19
100
AcDbEntity
  8
4
100
AcDbLine
 10
483.4578091411163
 20
1625.934297218468
 30
0.0
 11
483.4578091411163
 21
1621.634437381911
 31
0.0
  0
LINE
  5
59B
330
19
100
AcDbEntity
  8
4
100
AcDbLine
 10
536.2705826488977
 20
1632.934297218468
 30
0.0
 11
560.9578091411163
 21
1632.934297218468
 31
0.0
  0
ARC
  5
59C
330
19
100
AcDbEntity
  8
4
100
AcDbCircle
 10
509.9578091411158
 20
1608.350557218468
 30
0.0
 40
4.583600000000001
100
AcDbArc
 50
49.1166740000111
 51
130.8813299999994
  0
LINE
  5
59D
330
19
100
AcDbEntity
  8
4
100
AcDbLine
 10
512.9578091411158
 20
1611.904757218469
 30
0.0
 11
512.9578091411158
 21
1603.934297218468
 31
0.0
  0
LINE
  5
59E
330
19
100
AcDbEntity
  8
4
100
AcDbLine
 10
506.9578091411158
 20
1603.934297218468
 30
0.0
 11
506.9578091411158
 21
1611.904757218469
 31
0.0
  0
LINE
  5
59F
330
19
100
AcDbEntity
  8
4
100
AcDbLine
 10
512.9578091411158
 20
1600.934297218468
 30
0.0
 11
512.9578091411158
 21
1603.934297218468
 31
0.0
  0
ARC
  5
5A0
330
19
100
AcDbEntity
  8
4
100
AcDbCircle
 10
534.3071590934042
 20
1634.577908278856
 30
0.0
 40
2.0
100
AcDbArc
 50
284.2810957359712
 51
345.9637565320933
  0
LINE
  5
5A1
330
19
100
AcDbEntity
  8
4
100
AcDbLine
 10
540.9578091411163
 20
1652.934297218468
 30
0.0
 11
536.2474440936949
 21
1634.092837028783
 31
0.0
  0
LINE
  5
5A2
330
19
100
AcDbEntity
  8
4
100
AcDbLine
 10
598.4578091411163
 20
1619.934297218468
 30
0.0
 11
598.4578091411163
 21
1606.361710109198
 31
0.0
  0
LINE
  5
5A3
330
19
100
AcDbEntity
  8
4
100
AcDbLine
 10
560.9578091411163
 20
1634.934297218468
 30
0.0
 11
575.5292377125452
 21
1600.934297218468
 31
0.0
  0
LINE
  5
5A4
330
19
100
AcDbEntity
  8
4
100
AcDbLine
 10
560.9578091411163
 20
1632.934297218468
 30
0.0
 11
574.6720948554021
 21
1600.934297218468
 31
0.0
  0
LINE
  5
5A5
330
19
100
AcDbEntity
  8
4
100
AcDbLine
 10
578.4578091411163
 20
1653.934297218468
 30
0.0
 11
578.4578091411163
 21
1659.534297218469
 31
0.0
  0
ARC
  5
5A6
330
19
100
AcDbEntity
  8
4
100
AcDbCircle
 10
578.4578091411163
 20
1660.534297218469
 30
0.0
 40
1.0
100
AcDbArc
 50
270.0
 51
0.0
  0
LINE
  5
5A7
330
19
100
AcDbEntity
  8
4
100
AcDbLine
 10
578.4578091411163
 20
1659.534297218469
 30
0.0
 11
578.4578091411163
 21
1659.534297218469
 31
0.0
  0
LINE
  5
5A8
330
19
100
AcDbEntity
  8
4
100
AcDbLine
 10
568.4578091411163
 20
1653.934297218468
 30
0.0
 11
568.4578091411163
 21
1652.934297218468
 31
0.0
  0
LINE
  5
5A9
330
19
100
AcDbEntity
  8
4
100
AcDbLine
 10
560.9578091411163
 20
1632.934297218468
 30
0.0
 11
560.9578091411163
 21
1634.934297218468
 31
0.0
  0
LINE
  5
5AA
330
19
100
AcDbEntity
  8
L-CENTER
 48
2.0
100
AcDbLine
 10
735.9578091411167
 20
1563.559544353363
 30
0.0
 11
735.9578091411167
 21
1618.733628156459
 31
0.0
  0
ARC
  5
5AB
330
19
100
AcDbEntity
  8
4
100
AcDbCircle
 10
646.4578091411163
 20
1469.534297218469
 30
0.0
 40
8.0
100
AcDbArc
 50
270.0
 51
90.0
  0
LINE
  5
5AC
330
19
100
AcDbEntity
  8
4
100
AcDbLine
 10
675.9578091411163
 20
1632.934297218468
 30
0.0
 11
662.2435234268305
 21
1600.934297218468
 31
0.0
  0
LINE
  5
5AD
330
19
100
AcDbEntity
  8
4
100
AcDbLine
 10
675.9578091411163
 20
1634.934297218468
 30
0.0
 11
661.3863805696874
 21
1600.934297218468
 31
0.0
  0
LINE
  5
5AE
330
19
100
AcDbEntity
  8
4
100
AcDbLine
 10
638.4578091411163
 20
1619.934297218468
 30
0.0
 11
638.4578091411163
 21
1606.361710109184
 31
0.0
  0
LINE
  5
5AF
330
19
100
AcDbEntity
  8
4
100
AcDbLine
 10
658.4578091411163
 20
1653.934297218468
 30
0.0
 11
658.4578091411163
 21
1659.534297218469
 31
0.0
  0
LINE
  5
5B0
330
19
100
AcDbEntity
  8
4
100
AcDbLine
 10
658.4578091411163
 20
1659.534297218469
 30
0.0
 11
658.4578091411163
 21
1659.534297218469
 31
0.0
  0
ARC
  5
5B1
330
19
100
AcDbEntity
  8
4
100
AcDbCircle
 10
658.4578091411163
 20
1660.534297218469
 30
0.0
 40
1.0
100
AcDbArc
 50
180.0
 51
270.0
  0
LINE
  5
5B2
330
19
100
AcDbEntity
  8
4
100
AcDbLine
 10
675.9578091411163
 20
1632.934297218468
 30
0.0
 11
700.6111006721035
 21
1632.934297218468
 31
0.0
  0
LINE
  5
5B3
330
19
100
AcDbEntity
  8
4
100
AcDbLine
 10
668.4578091411163
 20
1653.934297218468
 30
0.0
 11
668.4578091411167
 21
1652.934297218468
 31
0.0
  0
LINE
  5
5B4
330
19
100
AcDbEntity
  8
4
100
AcDbLine
 10
675.9578091411163
 20
1632.934297218468
 30
0.0
 11
675.9578091411163
 21
1634.934297218468
 31
0.0
  0
ARC
  5
5B5
330
19
100
AcDbEntity
  8
4
100
AcDbCircle
 10
702.608459188828
 20
1634.577908278863
 30
0.0
 40
2.0
100
AcDbArc
 50
194.0362434679336
 51
255.7189042640288
  0
LINE
  5
5B6
330
19
100
AcDbEntity
  8
4
100
AcDbLine
 10
695.9578091411163
 20
1652.934297218468
 30
0.0
 11
700.6681741885359
 21
1634.09283702879
 31
0.0
  0
ARC
  5
5B7
330
19
100
AcDbEntity
  8
4
100
AcDbCircle
 10
735.9578091411167
 20
1594.934297218468
 30
0.0
 40
17.999975
100
AcDbArc
 50
70.52965999999977
 51
109.4713309999994
  0
ARC
  5
5B8
330
19
100
AcDbEntity
  8
4
100
AcDbCircle
 10
726.9578091411167
 20
1608.350557218468
 30
0.0
 40
4.583600000000001
100
AcDbArc
 50
49.1186700000006
 51
130.8833259999889
  0
ARC
  5
5B9
330
19
100
AcDbEntity
  8
4
100
AcDbCircle
 10
744.9578091411167
 20
1608.350557218468
 30
0.0
 40
4.583600000000001
100
AcDbArc
 50
49.1186700000006
 51
130.8833259999889
  0
LINE
  5
5BA
330
19
100
AcDbEntity
  8
4
100
AcDbLine
 10
747.9578091411167
 20
1600.934297218468
 30
0.0
 11
723.9578091411167
 21
1600.934297218468
 31
0.0
  0
LINE
  5
5BB
330
19
100
AcDbEntity
  8
4
100
AcDbLine
 10
723.9578091411167
 20
1603.934297218468
 30
0.0
 11
747.9578091411167
 21
1603.934297218468
 31
0.0
  0
LINE
  5
5BC
330
19
100
AcDbEntity
  8
4
100
AcDbLine
 10
741.9578091411167
 20
1603.934297218468
 30
0.0
 11
741.9578091411167
 21
1611.904757218469
 31
0.0
  0
LINE
  5
5BD
330
19
100
AcDbEntity
  8
4
100
AcDbLine
 10
723.9578091411167
 20
1611.904757218469
 30
0.0
 11
723.9578091411167
 21
1603.934297218468
 31
0.0
  0
LINE
  5
5BE
330
19
100
AcDbEntity
  8
4
100
AcDbLine
 10
729.9578091411167
 20
1603.934297218468
 30
0.0
 11
729.9578091411167
 21
1611.904757218469
 31
0.0
  0
LINE
  5
5BF
330
19
100
AcDbEntity
  8
4
100
AcDbLine
 10
723.9578091411167
 20
1600.934297218468
 30
0.0
 11
723.9578091411167
 21
1603.934297218468
 31
0.0
  0
LINE
  5
5C0
330
19
100
AcDbEntity
  8
4
100
AcDbLine
 10
747.9578091411167
 20
1611.904757218469
 30
0.0
 11
747.9578091411167
 21
1603.934297218468
 31
0.0
  0
LINE
  5
5C1
330
19
100
AcDbEntity
  8
4
100
AcDbLine
 10
747.9578091411167
 20
1600.934297218468
 30
0.0
 11
747.9578091411167
 21
1603.934297218468
 31
0.0
  0
LINE
  5
5C2
330
19
100
AcDbEntity
  8
4
100
AcDbLine
 10
726.9578091411167
 20
1612.934297218468
 30
0.0
 11
744.9578091411167
 21
1612.934297218468
 31
0.0
  0
ARC
  5
5C3
330
19
100
AcDbEntity
  8
4
100
AcDbCircle
 10
798.4578091411163
 20
1634.534297218469
 30
0.0
 40
10.0
100
AcDbArc
 50
90.0
 51
180.0
  0
LINE
  5
5C4
330
19
100
AcDbEntity
  8
4
100
AcDbLine
 10
788.4578091411163
 20
1634.534297218469
 30
0.0
 11
788.4578091411163
 21
1612.725346472832
 31
0.0
  0
LINE
  5
5C5
330
19
100
AcDbEntity
  8
4
100
AcDbLine
 10
581.4578091411163
 20
1819.534297218469
 30
0.0
 11
655.4578091411163
 21
1819.534297218469
 31
0.0
  0
LINE
  5
5C6
330
19
100
AcDbEntity
  8
4
100
AcDbLine
 10
579.4578091411163
 20
1817.534297218469
 30
0.0
 11
608.4578091411163
 21
1817.534297218469
 31
0.0
  0
LINE
  5
5C7
330
19
100
AcDbEntity
  8
4
100
AcDbLine
 10
579.4578091411163
 20
1817.534297218469
 30
0.0
 11
581.4578091411163
 21
1819.534297218469
 31
0.0
  0
LINE
  5
5C8
330
19
100
AcDbEntity
  8
4
100
AcDbLine
 10
628.4578091411163
 20
1817.534297218469
 30
0.0
 11
657.4578091411163
 21
1817.534297218469
 31
0.0
  0
LINE
  5
5C9
330
19
100
AcDbEntity
  8
4
100
AcDbLine
 10
657.4578091411163
 20
1817.534297218469
 30
0.0
 11
655.4578091411163
 21
1819.534297218469
 31
0.0
  0
LINE
  5
5CA
330
19
100
AcDbEntity
  8
4
100
AcDbLine
 10
893.4578091411163
 20
1634.534297218469
 30
0.0
 11
893.4578091411163
 21
1543.406122218468
 31
0.0
  0
LINE
  5
5CB
330
19
100
AcDbEntity
  8
L-CENTER
 48
2.0
100
AcDbLine
 10
853.4578091411163
 20
1563.559544353363
 30
0.0
 11
853.4578091411163
 21
1618.733628156459
 31
0.0
  0
LINE
  5
5CC
330
19
100
AcDbEntity
  8
4
100
AcDbLine
 10
866.4578091411163
 20
1574.534297218469
 30
0.0
 11
866.4578091411163
 21
1478.753841675761
 31
0.0
  0
LINE
  5
5CD
330
19
100
AcDbEntity
  8
4
100
AcDbLine
 10
920.9578091411163
 20
1462.034297218469
 30
0.0
 11
1023.457809141116
 21
1462.034297218469
 31
0.0
  0
LINE
  5
5CE
330
19
100
AcDbEntity
  8
4
100
AcDbLine
 10
920.9578091411163
 20
1477.034297218469
 30
0.0
 11
1023.457809141116
 21
1477.034297218469
 31
0.0
  0
LINE
  5
5CF
330
19
100
AcDbEntity
  8
4
100
AcDbLine
 10
905.4578091411163
 20
1440.534297218469
 30
0.0
 11
1021.457809141116
 21
1440.534297218469
 31
0.0
  0
LINE
  5
5D0
330
19
100
AcDbEntity
  8
4
100
AcDbLine
 10
905.4578091411163
 20
1498.534297218469
 30
0.0
 11
1021.457809141116
 21
1498.534297218469
 31
0.0
  0
CIRCLE
  5
5D1
330
19
100
AcDbEntity
  8
4
100
AcDbCircle
 10
860.4578091411163
 20
1469.534297218469
 30
0.0
 40
11.0
  0
LINE
  5
5D2
330
19
100
AcDbEntity
  8
L-CENTER
 48
2.0
100
AcDbLine
 10
860.4578091411163
 20
1486.974122862548
 30
0.0
 11
860.4578091411163
 21
1453.22884525629
 31
0.0
  0
ARC
  5
5D3
330
19
100
AcDbEntity
  8
4
100
AcDbCircle
 10
920.9578091411163
 20
1469.534297218469
 30
0.0
 40
7.5
100
AcDbArc
 50
90.0
 51
270.0
  0
LINE
  5
5D4
330
19
100
AcDbEntity
  8
4
100
AcDbLine
 10
903.4578091411163
 20
1502.034297218469
 30
0.0
 11
903.4578091411163
 21
1437.034297218469
 31
0.0
  0
LINE
  5
5D5
330
19
100
AcDbEntity
  8
4
100
AcDbLine
 10
889.2577141411161
 20
1514.534297218469
 30
0.0
 11
889.2577141411161
 21
1424.534297218468
 31
0.0
  0
LINE
  5
5D6
330
19
100
AcDbEntity
  8
L-CENTER
 48
2.0
100
AcDbLine
 10
907.1527456145163
 20
1407.662472218468
 30
0.0
 11
858.7250304817585
 21
1407.662472218468
 31
0.0
  0
LINE
  5
5D7
330
19
100
AcDbEntity
  8
4
100
AcDbLine
 10
888.2577141411161
 20
1419.662472218468
 30
0.0
 11
888.2577141411161
 21
1395.662472218468
 31
0.0
  0
LINE
  5
5D8
330
19
100
AcDbEntity
  8
4
100
AcDbLine
 10
891.2577141411161
 20
1395.662472218468
 30
0.0
 11
891.2577141411161
 21
1419.662472218468
 31
0.0
  0
ARC
  5
5D9
330
19
100
AcDbEntity
  8
4
100
AcDbCircle
 10
895.6739741411161
 20
1416.662472218468
 30
0.0
 40
4.58369
100
AcDbArc
 50
319.1186700000006
 51
40.88132999999934
  0
ARC
  5
5DA
330
19
100
AcDbEntity
  8
4
100
AcDbCircle
 10
895.6739741411161
 20
1398.662472218468
 30
0.0
 40
4.58369
100
AcDbArc
 50
319.1186700000006
 51
40.88132999999934
  0
LINE
  5
5DB
330
19
100
AcDbEntity
  8
4
100
AcDbLine
 10
888.2577141411161
 20
1395.662472218468
 30
0.0
 11
891.2577141411161
 21
1395.662472218468
 31
0.0
  0
LINE
  5
5DC
330
19
100
AcDbEntity
  8
4
100
AcDbLine
 10
899.2281691411163
 20
1395.662472218468
 30
0.0
 11
891.2577141411161
 21
1395.662472218468
 31
0.0
  0
ARC
  5
5DD
330
19
100
AcDbEntity
  8
4
100
AcDbCircle
 10
882.2577141411161
 20
1407.662472218468
 30
0.0
 40
18.00009
100
AcDbArc
 50
340.5289280000003
 51
19.47033699999977
  0
LINE
  5
5DE
330
19
100
AcDbEntity
  8
4
100
AcDbLine
 10
891.2577141411161
 20
1401.662472218468
 30
0.0
 11
899.2281691411163
 21
1401.662472218468
 31
0.0
  0
LINE
  5
5DF
330
19
100
AcDbEntity
  8
4
100
AcDbLine
 10
891.2577141411161
 20
1413.662472218468
 30
0.0
 11
899.2281691411163
 21
1413.662472218468
 31
0.0
  0
LINE
  5
5E0
330
19
100
AcDbEntity
  8
4
100
AcDbLine
 10
900.2577141411161
 20
1398.662472218468
 30
0.0
 11
900.2577141411161
 21
1416.662472218468
 31
0.0
  0
LINE
  5
5E1
330
19
100
AcDbEntity
  8
4
100
AcDbLine
 10
889.2577141411161
 20
1437.034297218469
 30
0.0
 11
903.4578091411163
 21
1437.034297218469
 31
0.0
  0
LINE
  5
5E2
330
19
100
AcDbEntity
  8
4
100
AcDbLine
 10
893.4578091411163
 20
1437.034297218468
 30
0.0
 11
893.4578091411163
 21
1419.662472218468
 31
0.0
  0
LINE
  5
5E3
330
19
100
AcDbEntity
  8
4
100
AcDbLine
 10
888.2577141411161
 20
1424.534297218468
 30
0.0
 11
889.2577141411161
 21
1424.534297218468
 31
0.0
  0
LINE
  5
5E4
330
19
100
AcDbEntity
  8
4
100
AcDbLine
 10
888.2577141411161
 20
1419.662472218468
 30
0.0
 11
891.2577141411161
 21
1419.662472218468
 31
0.0
  0
LINE
  5
5E5
330
19
100
AcDbEntity
  8
4
100
AcDbLine
 10
899.2281691411163
 20
1419.662472218468
 30
0.0
 11
891.2577141411161
 21
1419.662472218468
 31
0.0
  0
ARC
  5
5E6
330
19
100
AcDbEntity
  8
4
100
AcDbCircle
 10
905.4578091411163
 20
1438.534297218469
 30
0.0
 40
2.0
100
AcDbArc
 50
90.0
 51
180.0
  0
LINE
  5
5E7
330
19
100
AcDbEntity
  8
L-CENTER
 48
2.0
100
AcDbLine
 10
907.1527456145159
 20
1531.406122218469
 30
0.0
 11
858.7250304817585
 21
1531.406122218468
 31
0.0
  0
LINE
  5
5E8
330
19
100
AcDbEntity
  8
4
100
AcDbLine
 10
893.4578091411163
 20
1519.406122218469
 30
0.0
 11
893.4578091411163
 21
1502.034297218469
 31
0.0
  0
LINE
  5
5E9
330
19
100
AcDbEntity
  8
4
100
AcDbLine
 10
889.2577141411161
 20
1502.034297218469
 30
0.0
 11
903.4578091411163
 21
1502.034297218469
 31
0.0
  0
LINE
  5
5EA
330
19
100
AcDbEntity
  8
4
100
AcDbLine
 10
889.2577141411161
 20
1514.534297218469
 30
0.0
 11
888.2577141411161
 21
1514.534297218469
 31
0.0
  0
ARC
  5
5EB
330
19
100
AcDbEntity
  8
4
100
AcDbCircle
 10
905.4578091411163
 20
1500.534297218469
 30
0.0
 40
2.0
100
AcDbArc
 50
180.0
 51
270.0
  0
LINE
  5
5EC
330
19
100
AcDbEntity
  8
4
100
AcDbLine
 10
888.2577141411161
 20
1543.406122218469
 30
0.0
 11
891.2577141411161
 21
1543.406122218469
 31
0.0
  0
ARC
  5
5ED
330
19
100
AcDbEntity
  8
4
100
AcDbCircle
 10
895.6739741411161
 20
1540.406122218469
 30
0.0
 40
4.583600000000001
100
AcDbArc
 50
319.1186699999978
 51
40.88332600000215
  0
LINE
  5
5EE
330
19
100
AcDbEntity
  8
4
100
AcDbLine
 10
900.2577141411161
 20
1540.406122218469
 30
0.0
 11
900.2577141411161
 21
1522.406122218469
 31
0.0
  0
ARC
  5
5EF
330
19
100
AcDbEntity
  8
4
100
AcDbCircle
 10
882.2577141411161
 20
1531.406122218469
 30
0.0
 40
17.999975
100
AcDbArc
 50
340.5296599999995
 51
19.47133099999955
  0
LINE
  5
5F0
330
19
100
AcDbEntity
  8
4
100
AcDbLine
 10
891.2577141411161
 20
1525.406122218469
 30
0.0
 11
899.2281691411163
 21
1525.406122218469
 31
0.0
  0
LINE
  5
5F1
330
19
100
AcDbEntity
  8
4
100
AcDbLine
 10
891.2577141411161
 20
1537.406122218469
 30
0.0
 11
899.2281691411163
 21
1537.406122218469
 31
0.0
  0
LINE
  5
5F2
330
19
100
AcDbEntity
  8
4
100
AcDbLine
 10
899.2281691411163
 20
1543.406122218469
 30
0.0
 11
891.2577141411161
 21
1543.406122218469
 31
0.0
  0
LINE
  5
5F3
330
19
100
AcDbEntity
  8
4
100
AcDbLine
 10
888.2577141411161
 20
1519.406122218469
 30
0.0
 11
891.2577141411161
 21
1519.406122218469
 31
0.0
  0
LINE
  5
5F4
330
19
100
AcDbEntity
  8
4
100
AcDbLine
 10
899.2281691411163
 20
1519.406122218469
 30
0.0
 11
891.2577141411161
 21
1519.406122218469
 31
0.0
  0
LINE
  5
5F5
330
19
100
AcDbEntity
  8
4
100
AcDbLine
 10
888.2577141411161
 20
1519.406122218469
 30
0.0
 11
888.2577141411161
 21
1543.406122218469
 31
0.0
  0
LINE
  5
5F6
330
19
100
AcDbEntity
  8
4
100
AcDbLine
 10
891.2577141411161
 20
1543.406122218469
 30
0.0
 11
891.2577141411161
 21
1519.406122218469
 31
0.0
  0
ARC
  5
5F7
330
19
100
AcDbEntity
  8
4
100
AcDbCircle
 10
895.6739741411161
 20
1522.406122218469
 30
0.0
 40
4.583600000000001
100
AcDbArc
 50
319.1186699999926
 51
40.88332599999319
  0
LINE
  5
5F8
330
19
100
AcDbEntity
  8
4
100
AcDbLine
 10
1023.457809141116
 20
1496.534297218469
 30
0.0
 11
1023.457809141116
 21
1442.534297218469
 31
0.0
  0
LINE
  5
5F9
330
19
100
AcDbEntity
  8
4
100
AcDbLine
 10
1021.457809141116
 20
1440.534297218469
 30
0.0
 11
1023.457809141116
 21
1442.534297218469
 31
0.0
  0
LINE
  5
5FA
330
19
100
AcDbEntity
  8
4
100
AcDbLine
 10
1021.457809141116
 20
1462.034297218469
 30
0.0
 11
1021.457809141116
 21
1440.534297218469
 31
0.0
  0
LINE
  5
5FB
330
19
100
AcDbEntity
  8
4
100
AcDbLine
 10
1021.457809141116
 20
1498.534297218469
 30
0.0
 11
1023.457809141116
 21
1496.534297218469
 31
0.0
  0
LINE
  5
5FC
330
19
100
AcDbEntity
  8
4
100
AcDbLine
 10
1021.457809141116
 20
1498.534297218469
 30
0.0
 11
1021.457809141116
 21
1477.034297218469
 31
0.0
  0
LINE
  5
5FD
330
19
100
AcDbEntity
  8
L-CENTER
 48
2.0
100
AcDbLine
 10
876.7553961144276
 20
1604.534297218469
 30
0.0
 11
830.1602221678049
 21
1604.534297218469
 31
0.0
  0
ARC
  5
5FE
330
19
100
AcDbEntity
  8
2
  6
DASHED
100
AcDbCircle
 10
853.4578091411163
 20
1604.534297218469
 30
0.0
 40
12.0
100
AcDbArc
 50
135.5729959991962
 51
44.42700400080382
  0
LINE
  5
5FF
330
19
100
AcDbEntity
  8
L-CENTER
 48
2.0
100
AcDbLine
 10
853.4578091411163
 20
1627.831884191779
 30
0.0
 11
853.4578091411163
 21
1581.236710245157
 31
0.0
  0
ARC
  5
600
330
19
100
AcDbEntity
  8
4
100
AcDbCircle
 10
853.4578091411163
 20
1594.934297218468
 30
0.0
 40
17.999975
100
AcDbArc
 50
70.52965999999977
 51
109.4713309999994
  0
ARC
  5
601
330
19
100
AcDbEntity
  8
4
100
AcDbCircle
 10
844.4578091411163
 20
1608.350557218468
 30
0.0
 40
4.583600000000001
100
AcDbArc
 50
49.1186700000006
 51
130.8833260000001
  0
ARC
  5
602
330
19
100
AcDbEntity
  8
4
100
AcDbCircle
 10
862.4578091411163
 20
1608.350557218468
 30
0.0
 40
4.583600000000001
100
AcDbArc
 50
49.1186700000006
 51
130.8833260000001
  0
LINE
  5
603
330
19
100
AcDbEntity
  8
4
100
AcDbLine
 10
841.4578091411163
 20
1603.934297218468
 30
0.0
 11
865.4578091411163
 21
1603.934297218468
 31
0.0
  0
LINE
  5
604
330
19
100
AcDbEntity
  8
4
100
AcDbLine
 10
865.4578091411163
 20
1600.934297218468
 30
0.0
 11
841.4578091411163
 21
1600.934297218468
 31
0.0
  0
LINE
  5
605
330
19
100
AcDbEntity
  8
4
100
AcDbLine
 10
841.4578091411163
 20
1611.904757218469
 30
0.0
 11
841.4578091411163
 21
1603.934297218468
 31
0.0
  0
LINE
  5
606
330
19
100
AcDbEntity
  8
4
100
AcDbLine
 10
847.4578091411163
 20
1603.934297218468
 30
0.0
 11
847.4578091411163
 21
1611.904757218469
 31
0.0
  0
LINE
  5
607
330
19
100
AcDbEntity
  8
4
100
AcDbLine
 10
841.4578091411163
 20
1600.934297218468
 30
0.0
 11
841.4578091411163
 21
1603.934297218468
 31
0.0
  0
LINE
  5
608
330
19
100
AcDbEntity
  8
4
100
AcDbLine
 10
865.4578091411163
 20
1611.904757218469
 30
0.0
 11
865.4578091411163
 21
1603.934297218468
 31
0.0
  0
LINE
  5
609
330
19
100
AcDbEntity
  8
4
100
AcDbLine
 10
859.4578091411163
 20
1603.934297218468
 30
0.0
 11
859.4578091411163
 21
1611.904757218469
 31
0.0
  0
LINE
  5
60A
330
19
100
AcDbEntity
  8
4
100
AcDbLine
 10
865.4578091411163
 20
1600.934297218468
 30
0.0
 11
865.4578091411163
 21
1603.934297218468
 31
0.0
  0
ARC
  5
60B
330
19
100
AcDbEntity
  8
4
100
AcDbCircle
 10
869.4578091411163
 20
1599.934297218468
 30
0.0
 40
1.0
100
AcDbArc
 50
0.0
 51
90.0
  0
LINE
  5
60C
330
19
100
AcDbEntity
  8
4
100
AcDbLine
 10
870.4578091411163
 20
1599.934297218468
 30
0.0
 11
870.4578091411163
 21
1578.934297218468
 31
0.0
  0
LINE
  5
60D
330
19
100
AcDbEntity
  8
4
100
AcDbLine
 10
868.4578091411163
 20
1578.934297218468
 30
0.0
 11
868.4578091411163
 21
1575.534297218469
 31
0.0
  0
ARC
  5
60E
330
19
100
AcDbEntity
  8
4
100
AcDbCircle
 10
853.4578091411163
 20
1604.534297218469
 30
0.0
 40
12.0
100
AcDbArc
 50
44.42700400080382
 51
135.5729959991962
  0
LINE
  5
60F
330
19
100
AcDbEntity
  8
4
100
AcDbLine
 10
844.4578091411163
 20
1612.934297218468
 30
0.0
 11
862.4578091411163
 21
1612.934297218468
 31
0.0
  0
ARC
  5
610
330
19
100
AcDbEntity
  8
4
100
AcDbCircle
 10
883.4578091411163
 20
1634.534297218469
 30
0.0
 40
10.0
100
AcDbArc
 50
0.0
 51
90.0
  0
LINE
  5
62F
330
19
100
AcDbEntity
  8
4
100
AcDbLine
 10
836.4578091411163
 20
1364.534297218468
 30
0.0
 11
836.4578091411163
 21
1362.534297218468
 31
0.0
  0
LINE
  5
630
330
19
100
AcDbEntity
  8
4
100
AcDbLine
 10
688.4578091411136
 20
1364.534297218468
 30
0.0
 11
688.4578091411136
 21
1362.534297218468
 31
0.0
  0
LINE
  5
632
330
19
100
AcDbEntity
  8
4
100
AcDbLine
 10
690.4578091411136
 20
1360.534297218468
 30
0.0
 11
834.4578091411163
 21
1360.534297218468
 31
0.0
  0
ARC
  5
633
330
19
100
AcDbEntity
  8
4
100
AcDbCircle
 10
690.4578091411136
 20
1362.534297218468
 30
0.0
 40
2.0
100
AcDbArc
 50
180.0
 51
270.0
  0
ARC
  5
634
330
19
100
AcDbEntity
  8
4
100
AcDbCircle
 10
834.4578091411163
 20
1362.534297218468
 30
0.0
 40
2.0
100
AcDbArc
 50
270.0
 51
0.0
  0
LINE
  5
635
330
19
100
AcDbEntity
  8
4
100
AcDbLine
 10
836.4578091411163
 20
1363.534297218469
 30
0.0
 11
888.2578091411165
 21
1363.534297218469
 31
0.0
  0
LINE
  5
636
330
19
100
AcDbEntity
  8
4
100
AcDbLine
 10
315.9578091411163
 20
1462.034297218469
 30
0.0
 11
213.4578091411163
 21
1462.034297218469
 31
0.0
  0
LINE
  5
637
330
19
100
AcDbEntity
  8
4
100
AcDbLine
 10
315.9578091411163
 20
1477.034297218469
 30
0.0
 11
213.4578091411163
 21
1477.034297218469
 31
0.0
  0
LINE
  5
638
330
19
100
AcDbEntity
  8
4
100
AcDbLine
 10
331.4578091411163
 20
1440.534297218469
 30
0.0
 11
215.4578091411163
 21
1440.534297218469
 31
0.0
  0
LINE
  5
639
330
19
100
AcDbEntity
  8
4
100
AcDbLine
 10
331.4578091411163
 20
1498.534297218469
 30
0.0
 11
215.4578091411163
 21
1498.534297218469
 31
0.0
  0
ARC
  5
63A
330
19
100
AcDbEntity
  8
4
100
AcDbCircle
 10
315.9578091411163
 20
1469.534297218469
 30
0.0
 40
7.5
100
AcDbArc
 50
270.0
 51
90.0
  0
LINE
  5
63B
330
19
100
AcDbEntity
  8
4
100
AcDbLine
 10
333.4578091411163
 20
1502.034297218469
 30
0.0
 11
333.4578091411163
 21
1437.034297218469
 31
0.0
  0
LINE
  5
63C
330
19
100
AcDbEntity
  8
4
100
AcDbLine
 10
347.6579041411164
 20
1514.534297218469
 30
0.0
 11
347.6579041411164
 21
1424.534297218468
 31
0.0
  0
LINE
  5
63D
330
19
100
AcDbEntity
  8
4
100
AcDbLine
 10
347.6579041411164
 20
1437.034297218469
 30
0.0
 11
333.4578091411163
 21
1437.034297218469
 31
0.0
  0
LINE
  5
63E
330
19
100
AcDbEntity
  8
4
100
AcDbLine
 10
348.6579041411164
 20
1424.534297218468
 30
0.0
 11
347.6579041411164
 21
1424.534297218468
 31
0.0
  0
ARC
  5
63F
330
19
100
AcDbEntity
  8
4
100
AcDbCircle
 10
331.4578091411163
 20
1438.534297218469
 30
0.0
 40
2.0
100
AcDbArc
 50
0.0
 51
90.0
  0
LINE
  5
640
330
19
100
AcDbEntity
  8
4
100
AcDbLine
 10
347.6579041411164
 20
1502.034297218469
 30
0.0
 11
333.4578091411163
 21
1502.034297218469
 31
0.0
  0
LINE
  5
641
330
19
100
AcDbEntity
  8
4
100
AcDbLine
 10
347.6579041411164
 20
1514.534297218469
 30
0.0
 11
348.6579041411164
 21
1514.534297218469
 31
0.0
  0
ARC
  5
642
330
19
100
AcDbEntity
  8
4
100
AcDbCircle
 10
331.4578091411163
 20
1500.534297218469
 30
0.0
 40
2.0
100
AcDbArc
 50
270.0
 51
0.0
  0
LINE
  5
643
330
19
100
AcDbEntity
  8
4
100
AcDbLine
 10
213.4578091411163
 20
1496.534297218469
 30
0.0
 11
213.4578091411163
 21
1442.534297218469
 31
0.0
  0
LINE
  5
644
330
19
100
AcDbEntity
  8
4
100
AcDbLine
 10
215.4578091411163
 20
1440.534297218469
 30
0.0
 11
213.4578091411163
 21
1442.534297218469
 31
0.0
  0
LINE
  5
645
330
19
100
AcDbEntity
  8
4
100
AcDbLine
 10
215.4578091411163
 20
1462.034297218469
 30
0.0
 11
215.4578091411163
 21
1440.534297218469
 31
0.0
  0
LINE
  5
646
330
19
100
AcDbEntity
  8
4
100
AcDbLine
 10
215.4578091411163
 20
1498.534297218469
 30
0.0
 11
213.4578091411163
 21
1496.534297218469
 31
0.0
  0
LINE
  5
647
330
19
100
AcDbEntity
  8
4
100
AcDbLine
 10
215.4578091411163
 20
1498.534297218469
 30
0.0
 11
215.4578091411163
 21
1477.034297218469
 31
0.0
  0
LINE
  5
64A
330
19
100
AcDbEntity
  8
4
100
AcDbLine
 10
343.4578091411163
 20
1437.034297218469
 30
0.0
 11
343.4578091411163
 21
1419.662472218469
 31
0.0
  0
LINE
  5
64B
330
19
100
AcDbEntity
  8
4
100
AcDbLine
 10
579.4578091411163
 20
1278.534297218469
 30
0.0
 11
579.4578091411163
 21
1121.534297218469
 31
0.0
  0
LINE
  5
64C
330
19
100
AcDbEntity
  8
4
100
AcDbLine
 10
628.4578091411163
 20
1119.534297218469
 30
0.0
 11
628.4578091411163
 21
1259.534297218469
 31
0.0
  0
LINE
  5
64D
330
19
100
AcDbEntity
  8
4
100
AcDbLine
 10
657.4578091411163
 20
1278.534297218469
 30
0.0
 11
657.4578091411163
 21
1121.534297218469
 31
0.0
  0
LINE
  5
64E
330
19
100
AcDbEntity
  8
4
100
AcDbLine
 10
608.4578091411163
 20
1119.534297218469
 30
0.0
 11
608.4578091411163
 21
1259.534297218469
 31
0.0
  0
ARC
  5
64F
330
19
100
AcDbEntity
  8
4
100
AcDbCircle
 10
618.4578091411163
 20
1259.534297218469
 30
0.0
 40
10.0
100
AcDbArc
 50
0.0
 51
180.0
  0
LINE
  5
650
330
19
100
AcDbEntity
  8
4
100
AcDbLine
 10
578.4578091411163
 20
1279.534297218469
 30
0.0
 11
658.4578091411163
 21
1279.534297218469
 31
0.0
  0
LINE
  5
651
330
19
100
AcDbEntity
  8
4
100
AcDbLine
 10
568.4578091411163
 20
1285.534297218468
 30
0.0
 11
668.4578091411163
 21
1285.534297218468
 31
0.0
  0
LINE
  5
652
330
19
100
AcDbEntity
  8
4
100
AcDbLine
 10
578.4578091411163
 20
1285.534297218468
 30
0.0
 11
578.4578091411163
 21
1279.534297218469
 31
0.0
  0
ARC
  5
653
330
19
100
AcDbEntity
  8
4
100
AcDbCircle
 10
578.4578091411163
 20
1278.534297218469
 30
0.0
 40
1.0
100
AcDbArc
 50
0.0
 51
90.0
  0
LINE
  5
654
330
19
100
AcDbEntity
  8
4
100
AcDbLine
 10
578.4578091411163
 20
1279.534297218469
 30
0.0
 11
578.4578091411163
 21
1279.534297218469
 31
0.0
  0
LINE
  5
655
330
19
100
AcDbEntity
  8
4
100
AcDbLine
 10
568.4578091411163
 20
1285.534297218468
 30
0.0
 11
568.4578091411163
 21
1286.534297218468
 31
0.0
  0
LINE
  5
656
330
19
100
AcDbEntity
  8
4
100
AcDbLine
 10
658.4578091411163
 20
1285.534297218468
 30
0.0
 11
658.4578091411163
 21
1279.534297218469
 31
0.0
  0
LINE
  5
657
330
19
100
AcDbEntity
  8
4
100
AcDbLine
 10
658.4578091411163
 20
1279.534297218469
 30
0.0
 11
658.4578091411163
 21
1279.534297218469
 31
0.0
  0
ARC
  5
658
330
19
100
AcDbEntity
  8
4
100
AcDbCircle
 10
658.4578091411163
 20
1278.534297218469
 30
0.0
 40
1.0
100
AcDbArc
 50
90.0
 51
180.0
  0
LINE
  5
659
330
19
100
AcDbEntity
  8
4
100
AcDbLine
 10
668.4578091411163
 20
1285.534297218468
 30
0.0
 11
668.4578091411167
 21
1286.534297218468
 31
0.0
  0
LINE
  5
65A
330
19
100
AcDbEntity
  8
4
100
AcDbLine
 10
581.4578091411163
 20
1119.534297218469
 30
0.0
 11
655.4578091411163
 21
1119.534297218469
 31
0.0
  0
LINE
  5
65B
330
19
100
AcDbEntity
  8
4
100
AcDbLine
 10
579.4578091411163
 20
1121.534297218469
 30
0.0
 11
608.4578091411163
 21
1121.534297218469
 31
0.0
  0
LINE
  5
65C
330
19
100
AcDbEntity
  8
4
100
AcDbLine
 10
579.4578091411163
 20
1121.534297218469
 30
0.0
 11
581.4578091411163
 21
1119.534297218469
 31
0.0
  0
LINE
  5
65D
330
19
100
AcDbEntity
  8
4
100
AcDbLine
 10
628.4578091411163
 20
1121.534297218469
 30
0.0
 11
657.4578091411163
 21
1121.534297218469
 31
0.0
  0
LINE
  5
65E
330
19
100
AcDbEntity
  8
4
100
AcDbLine
 10
657.4578091411163
 20
1121.534297218469
 30
0.0
 11
655.4578091411163
 21
1119.534297218469
 31
0.0
  0
ENDSEC
  0
SECTION
  2
OBJECTS
  0
DICTIONARY
  5
9
330
0
100
AcDbDictionary
281
     1
  3
ACAD_COLOR
350
2E
  3
ACAD_GROUP
350
2C
  3
ACAD_LAYOUT
350
22
  3
ACAD_MATERIAL
350
B
  3
ACAD_MLEADERSTYLE
350
614
  3
ACAD_MLINESTYLE
350
17
  3
ACAD_PLOTSETTINGS
350
2D
  3
ACAD_PLOTSTYLENAME
350
8
  3
ACAD_SCALELIST
350
36
  3
ACAD_TABLESTYLE
350
613
  3
ACAD_VISUALSTYLE
350
2F
  3
ACDBHEADERROUNDTRIPXREC
350
668
  3
AcDbVariableDictionary
350
611
  3
DWGPROPS
350
66B
  0
DICTIONARY
  5
66C
330
2B
100
AcDbDictionary
280
     1
281
     1
  3
ACAD_XREC_ROUNDTRIP
360
66D
  0
DICTIONARY
  5
3
330
2
100
AcDbDictionary
280
     1
281
     1
  3
ACAD_LAYERSTATES
360
4
  0
DICTIONARY
  5
1E
330
1D
100
AcDbDictionary
280
     1
281
     1
  3
ADSK_XREC_LAYER_RECONCILED
360
1F
  0
DICTIONARY
  5
35B
330
35A
100
AcDbDictionary
280
     1
281
     1
  3
ADSK_XREC_LAYER_RECONCILED
360
35C
  0
DICTIONARY
  5
5
330
1
100
AcDbDictionary
280
     1
281
     1
  3
ADSK_XREC_LAYER_RECONCILED
360
6
  0
DICTIONARY
  5
6E
330
6D
100
AcDbDictionary
280
     1
281
     1
  3
ADSK_XREC_LAYER_RECONCILED
360
6F
  0
DICTIONARY
  5
7B
330
7A
100
AcDbDictionary
280
     1
281
     1
  3
ADSK_XREC_LAYER_RECONCILED
360
7C
  0
DICTIONARY
  5
8A
330
89
100
AcDbDictionary
280
     1
281
     1
  3
ADSK_XREC_LAYER_RECONCILED
360
8B
  0
DICTIONARY
  5
1A
330
19
100
AcDbDictionary
280
     1
281
     1
  3
ACAD_SORTENTS
360
1B
  0
DICTIONARY
  5
2E
102
{ACAD_REACTORS
330
9
102
}
330
9
100
AcDbDictionary
281
     1
  0
DICTIONARY
  5
2C
102
{ACAD_REACTORS
330
9
102
}
330
9
100
AcDbDictionary
281
     1
  0
DICTIONARY
  5
22
102
{ACAD_REACTORS
330
9
102
}
330
9
100
AcDbDictionary
281
     1
  3
Model
350
21
  3
ﾚｲｱｳﾄ1
350
28
  0
DICTIONARY
  5
B
102
{ACAD_REACTORS
330
9
102
}
330
9
100
AcDbDictionary
281
     1
  3
ByBlock
350
69
  3
ByLayer
350
12
  3
Global
350
A
  0
DICTIONARY
  5
614
102
{ACAD_REACTORS
330
9
102
}
330
9
100
AcDbDictionary
281
     1
  3
Standard
350
62D
  0
DICTIONARY
  5
17
102
{ACAD_REACTORS
330
9
102
}
330
9
100
AcDbDictionary
281
     1
  3
STANDARD
350
16
  0
DICTIONARY
  5
2D
102
{ACAD_REACTORS
330
9
102
}
330
9
100
AcDbDictionary
281
     1
  0
ACDBDICTIONARYWDFLT
  5
8
102
{ACAD_REACTORS
330
9
102
}
330
9
100
AcDbDictionary
281
     1
  3
Normal
350
7
100
AcDbDictionaryWithDefault
340
7
  0
DICTIONARY
  5
36
102
{ACAD_REACTORS
330
9
102
}
330
9
100
AcDbDictionary
281
     1
  3
*A1
350
58
  3
*A10
350
61
  3
*A11
350
62
  3
*A12
350
63
  3
*A13
350
64
  3
*A14
350
65
  3
*A15
350
66
  3
*A16
350
67
  3
*A17
350
68
  3
*A2
350
59
  3
*A3
350
5A
  3
*A4
350
5B
  3
*A5
350
5C
  3
*A6
350
5D
  3
*A7
350
5E
  3
*A8
350
5F
  3
*A9
350
60
  0
DICTIONARY
  5
613
102
{ACAD_REACTORS
330
9
102
}
330
9
100
AcDbDictionary
281
     1
  3
Standard
350
664
  0
DICTIONARY
  5
2F
102
{ACAD_REACTORS
330
9
102
}
330
9
100
AcDbDictionary
281
     1
  3
2dWireframe
350
61B
  3
Basic
350
61D
  3
Brighten
350
620
  3
ColorChange
350
624
  3
Conceptual
350
61E
  3
Dim
350
61F
  3
EdgeColorOff
350
627
  3
Facepattern
350
623
  3
Flat
350
617
  3
FlatWithEdges
350
618
  3
Gouraud
350
619
  3
GouraudWithEdges
350
61A
  3
Hidden
350
61C
  3
JitterOff
350
625
  3
Linepattern
350
622
  3
OverhangOff
350
626
  3
Realistic
350
30
  3
Shaded
350
62C
  3
Shaded with edges
350
62B
  3
Shades of Gray
350
628
  3
Sketchy
350
629
  3
Thicken
350
621
  3
Wireframe
350
31
  3
X-Ray
350
62A
  0
DICTIONARY
  5
668
102
{ACAD_REACTORS
330
9
102
}
330
9
100
AcDbDictionary
281
     1
  3
COLORDICT
350
669
  3
MATERIALDICT
350
66A
  0
DICTIONARY
  5
611
102
{ACAD_REACTORS
330
9
102
}
330
9
100
AcDbDictionary
281
     1
  3
CANNOSCALE
350
612
  3
CMLEADERSTYLE
350
663
  3
CTABLESTYLE
350
665
  3
DIMASSOC
350
666
  3
HIDETEXT
350
667
  3
MSLTSCALE
350
66E
  0
XRECORD
  5
66B
102
{ACAD_REACTORS
330
9
102
}
330
9
100
AcDbXrecord
280
     1
  1
DWGPROPS COOKIE
  2

  3

  4

  6

  7

  8
sg-d04
  9

300
=
301
=
302
=
303
=
304
=
305
=
306
=
307
=
308
=
309
=
 40
0.0
 41
2449812.381805555
 42
2457871.459034398
  1

 90
        0
  0
XRECORD
  5
66D
102
{ACAD_REACTORS
330
66C
102
}
330
66C
100
AcDbXrecord
280
     1
102
VTR_0.000_0.000_1.000_1.000_VISUALSTYLE
340
61B
102
VTR_0.000_0.000_1.000_1.000_GRIDDISPLAY
 70
     3
102
VTR_0.000_0.000_1.000_1.000_GRIDMAJOR
 70
     5
102
VTR_0.000_0.000_1.000_1.000_DEFAULTLIGHTING
280
     1
102
VTR_0.000_0.000_1.000_1.000_DEFAULTLIGHTINGTYPE
 70
     1
102
VTR_0.000_0.000_1.000_1.000_BRIGHTNESS
141
0.0
102
VTR_0.000_0.000_1.000_1.000_CONTRAST
142
0.0
  0
DICTIONARY
  5
4
102
{ACAD_REACTORS
330
3
102
}
330
3
100
AcDbDictionary
281
     1
  0
XRECORD
  5
1F
102
{ACAD_REACTORS
330
1E
102
}
330
1E
100
AcDbXrecord
280
     1
290
     1
  0
XRECORD
  5
35C
102
{ACAD_REACTORS
330
35B
102
}
330
35B
100
AcDbXrecord
280
     1
290
     1
  0
XRECORD
  5
6
102
{ACAD_REACTORS
330
5
102
}
330
5
100
AcDbXrecord
280
     1
290
     1
  0
XRECORD
  5
6F
102
{ACAD_REACTORS
330
6E
102
}
330
6E
100
AcDbXrecord
280
     1
290
     1
  0
XRECORD
  5
7C
102
{ACAD_REACTORS
330
7B
102
}
330
7B
100
AcDbXrecord
280
     1
290
     1
  0
XRECORD
  5
8B
102
{ACAD_REACTORS
330
8A
102
}
330
8A
100
AcDbXrecord
280
     1
290
     1
  0
SORTENTSTABLE
  5
1B
102
{ACAD_REACTORS
330
1A
102
}
330
1A
100
AcDbSortentsTable
330
19
331
0
  5
520
331
4D3
  5
4D4
331
4D4
  5
4D5
331
4D5
  5
4D7
331
4D6
  5
4D8
331
4D7
  5
4D9
331
4D8
  5
4DA
331
4D9
  5
4DB
331
4DA
  5
4DC
331
4DB
  5
4DD
331
4DC
  5
4DE
331
4DD
  5
4E0
331
4DE
  5
4E1
331
4E0
  5
4E2
331
4E1
  5
4E3
331
4E2
  5
4E4
331
4E3
  5
4E5
331
4E4
  5
4E6
331
4E5
  5
4E8
331
4E6
  5
4E9
331
4E7
  5
4EA
331
4E8
  5
4EB
331
4E9
  5
4EC
331
4EA
  5
4ED
331
4EB
  5
4EE
331
4EC
  5
4EF
331
4ED
  5
4F0
331
4EE
  5
4F1
331
4EF
  5
4F2
331
4F0
  5
4F3
331
4F1
  5
4F4
331
4F2
  5
4F5
331
4F3
  5
4F6
331
4F4
  5
4F7
331
4F5
  5
4F8
331
4F6
  5
4F9
331
4F7
  5
4FA
331
4F8
  5
4FB
331
4F9
  5
4FC
331
4FA
  5
4FD
331
4FB
  5
4FE
331
4FC
  5
4FF
331
4FD
  5
500
331
4FE
  5
501
331
4FF
  5
502
331
500
  5
503
331
501
  5
504
331
502
  5
505
331
503
  5
506
331
504
  5
507
331
505
  5
508
331
506
  5
509
331
507
  5
50A
331
508
  5
50B
331
509
  5
50C
331
50A
  5
50D
331
50B
  5
50E
331
50C
  5
50F
331
50D
  5
510
331
50E
  5
511
331
50F
  5
512
331
510
  5
513
331
511
  5
514
331
512
  5
515
331
513
  5
516
331
514
  5
517
331
515
  5
518
331
516
  5
519
331
517
  5
51A
331
518
  5
51B
331
519
  5
51C
331
51A
  5
51D
331
51B
  5
51E
331
51C
  5
51F
331
525
  5
528
331
526
  5
529
331
527
  5
52A
331
528
  5
52B
331
529
  5
52C
331
52A
  5
52D
331
52B
  5
52E
331
530
  5
533
331
536
  5
539
331
537
  5
53A
331
538
  5
53B
331
539
  5
53C
331
53E
  5
541
331
53F
  5
542
331
540
  5
543
331
55A
  5
55D
331
55B
  5
55E
331
55C
  5
55F
331
55D
  5
560
331
55F
  5
562
331
560
  5
563
331
561
  5
564
331
562
  5
565
331
568
  5
56B
331
569
  5
56C
331
56A
  5
56D
331
56B
  5
56E
331
56C
  5
56F
331
56D
  5
570
331
56E
  5
571
331
56F
  5
572
331
570
  5
573
331
571
  5
574
331
572
  5
575
331
573
  5
576
331
574
  5
577
331
575
  5
578
331
576
  5
579
331
577
  5
57A
331
578
  5
57B
331
579
  5
57C
331
57A
  5
57D
331
57B
  5
57E
331
57C
  5
57F
331
57D
  5
580
331
57E
  5
581
331
57F
  5
582
331
580
  5
583
331
581
  5
584
331
582
  5
585
331
583
  5
586
331
584
  5
587
331
585
  5
588
331
586
  5
589
331
587
  5
58A
331
588
  5
58B
331
589
  5
58C
331
58A
  5
58D
331
58B
  5
58E
331
58C
  5
58F
331
58D
  5
590
331
58E
  5
591
331
58F
  5
592
331
590
  5
593
331
591
  5
594
331
592
  5
595
331
593
  5
596
331
594
  5
597
331
595
  5
598
331
596
  5
599
331
597
  5
59A
331
598
  5
59B
331
599
  5
59C
331
59A
  5
59D
331
59B
  5
59E
331
59C
  5
59F
331
59D
  5
5A0
331
59E
  5
5A1
331
59F
  5
5A2
331
5A0
  5
5A3
331
5A1
  5
5A4
331
5A2
  5
5A5
331
5A3
  5
5A6
331
5A4
  5
5A7
331
5A5
  5
5A8
331
5A6
  5
5A9
331
5A7
  5
5AA
331
5A8
  5
5AB
331
5A9
  5
5AC
331
5AA
  5
5AD
331
5AB
  5
5AE
331
5AC
  5
5AF
331
5AD
  5
5B0
331
5AE
  5
5B1
331
5AF
  5
5B2
331
5B0
  5
5B3
331
5B1
  5
5B4
331
5B2
  5
5B5
331
5B3
  5
5B6
331
5B4
  5
5B7
331
5B5
  5
5B8
331
5B6
  5
5B9
331
5B7
  5
5BA
331
5B8
  5
5BB
331
5B9
  5
5BC
331
5BA
  5
5BD
331
5BB
  5
5BE
331
5BC
  5
5BF
331
5BD
  5
5C0
331
5BE
  5
5C1
331
5BF
  5
5C2
331
5C0
  5
5C3
331
5C1
  5
5C4
331
5C2
  5
5C5
331
5C3
  5
5C6
331
5C4
  5
5C7
331
5C5
  5
5C8
331
5C6
  5
5C9
331
5C7
  5
5CA
331
5C8
  5
5CB
331
5C9
  5
5CC
331
5CA
  5
5CD
331
5CB
  5
5CE
331
5CC
  5
5CF
331
5CD
  5
5D0
331
5CE
  5
5D1
331
5CF
  5
5D2
331
5D0
  5
5D3
331
5D1
  5
5D4
331
5D2
  5
5D5
331
5D3
  5
5D6
331
5D4
  5
5D7
331
5D5
  5
5D8
331
5D6
  5
5D9
331
5D7
  5
5DA
331
5D8
  5
5DB
331
5D9
  5
5DC
331
5DA
  5
5DD
331
5DB
  5
5DE
331
5DC
  5
5DF
331
5DD
  5
5E0
331
5DE
  5
5E1
331
5DF
  5
5E2
331
5E0
  5
5E3
331
5E1
  5
5E4
331
5E2
  5
5E5
331
5E3
  5
5E6
331
5E4
  5
5E7
331
5E5
  5
5E8
331
5E6
  5
5E9
331
5E7
  5
5EA
331
5E8
  5
5EB
331
5E9
  5
5EC
331
5EA
  5
5ED
331
5EB
  5
5EE
331
5EC
  5
5EF
331
5ED
  5
5F0
331
5EE
  5
5F1
331
5EF
  5
5F2
331
5F0
  5
5F3
331
5F1
  5
5F4
331
5F2
  5
5F5
331
5F3
  5
5F6
331
5F4
  5
5F7
331
5F5
  5
5F8
331
5F6
  5
5F9
331
5F7
  5
5FA
331
5F8
  5
5FB
331
5F9
  5
5FC
331
5FA
  5
5FD
331
5FB
  5
5FE
331
5FC
  5
5FF
331
5FD
  5
600
331
5FE
  5
601
331
5FF
  5
602
331
600
  5
603
331
601
  5
604
331
602
  5
605
331
603
  5
606
331
604
  5
607
331
605
  5
608
331
606
  5
609
331
607
  5
60A
331
608
  5
60B
331
609
  5
60C
331
60A
  5
60D
331
60B
  5
60E
331
60C
  5
60F
331
60D
  5
610
331
60E
  5
62F
331
60F
  5
630
331
610
  5
631
331
62F
  5
632
331
630
  5
633
331
632
  5
4D6
331
633
  5
635
331
634
  5
636
331
635
  5
4D3
331
636
  5
637
331
637
  5
638
331
638
  5
639
331
639
  5
63A
331
63A
  5
63B
331
63B
  5
63C
331
63C
  5
63D
331
63D
  5
63E
331
63E
  5
63F
331
63F
  5
640
331
640
  5
641
331
641
  5
642
331
642
  5
643
331
643
  5
644
331
644
  5
645
331
645
  5
646
331
646
  5
647
331
647
  5
648
331
64A
  5
4E7
  0
LAYOUT
  5
21
102
{ACAD_REACTORS
330
22
102
}
330
22
100
AcDbPlotSettings
  1

  2
Bullzip PDF Printer.pc3
  4
A3
  6

 40
0.2
 41
0.0
 42
0.0
 43
0.0
 44
420.2
 45
297.1
 46
25.0
 47
12.0
 48
131.9999998100004
 49
10.0
140
2423.999994560001
141
1644.999996185
142
1.0
143
6.0
 70
 11936
 72
     1
 73
     0
 74
     4
  7
monochrome.ctb
 75
     0
147
0.1744210990985904
148
-131.9999998100004
149
-10.0
100
AcDbLayout
  1
Model
 70
     0
 71
     0
 10
0.0
 20
0.0
 11
12.0
 21
9.0
 12
0.0
 22
0.0
 32
0.0
 14
205.266659337544
 24
64.12615488928304
 34
0.0
 15
2081.926999359308
 25
1826.085594808893
 35
0.0
146
0.0
 13
0.0
 23
0.0
 33
0.0
 16
1.0
 26
0.0
 36
0.0
 17
0.0
 27
1.0
 37
0.0
 76
     0
330
19
331
33
1001
ACAD_PSEXT
1000
Bullzip PDF Printer.pc3
1000
Bullzip PDF Printer
1000
BULLZIP
1000
Bullzip PDF Printer 10.1.0.1871
1070
     0
  0
LAYOUT
  5
28
102
{ACAD_REACTORS
330
22
102
}
330
22
100
AcDbPlotSettings
  1

  2
SR-LP8300F
  4

  6

 40
0.0
 41
0.0
 42
0.0
 43
0.0
 44
0.0
 45
0.0
 46
0.0
 47
0.0
 48
0.0
 49
0.0
140
0.0
141
0.0
142
1.0
143
1.0
 70
   688
 72
     0
 73
     0
 74
     5
  7
monochrome.ctb
 75
    16
147
1.0
148
0.0
149
0.0
100
AcDbLayout
  1
ﾚｲｱｳﾄ1
 70
     0
 71
     1
 10
0.0
 20
0.0
 11
12.0
 21
9.0
 12
0.0
 22
0.0
 32
0.0
 14
1.000000000000000E+20
 24
1.000000000000000E+20
 34
1.000000000000000E+20
 15
-1.000000000000000E+20
 25
-1.000000000000000E+20
 35
-1.000000000000000E+20
146
0.0
 13
0.0
 23
0.0
 33
0.0
 16
1.0
 26
0.0
 36
0.0
 17
0.0
 27
1.0
 37
0.0
 76
     0
330
25
  0
MATERIAL
  5
69
102
{ACAD_REACTORS
330
B
102
}
102
{ACAD_XDICTIONARY
360
673
102
}
330
B
100
AcDbMaterial
  1
ByBlock
 72
     0
 73
     2
 43
0.0208333333333333
 43
0.0
 43
0.0
 43
0.0
 43
0.0
 43
0.0208333333333333
 43
0.0
 43
0.0
 43
0.0
 43
0.0
 43
1.0
 43
0.0
 43
0.0
 43
0.0
 43
0.0
 43
1.0
 77
     0
 78
     2
 47
0.0208333333333333
 47
0.0
 47
0.0
 47
0.0
 47
0.0
 47
0.0208333333333333
 47
0.0
 47
0.0
 47
0.0
 47
0.0
 47
1.0
 47
0.0
 47
0.0
 47
0.0
 47
0.0
 47
1.0
171
     0
172
     2
 49
0.0208333333333333
 49
0.0
 49
0.0
 49
0.0
 49
0.0
 49
0.0208333333333333
 49
0.0
 49
0.0
 49
0.0
 49
0.0
 49
1.0
 49
0.0
 49
0.0
 49
0.0
 49
0.0
 49
1.0
175
     0
176
     2
142
0.0208333333333333
142
0.0
142
0.0
142
0.0
142
0.0
142
0.0208333333333333
142
0.0
142
0.0
142
0.0
142
0.0
142
1.0
142
0.0
142
0.0
142
0.0
142
0.0
142
1.0
179
     0
270
     2
144
0.0208333333333333
144
0.0
144
0.0
144
0.0
144
0.0
144
0.0208333333333333
144
0.0
144
0.0
144
0.0
144
0.0
144
1.0
144
0.0
144
0.0
144
0.0
144
0.0
144
1.0
274
     2
147
0.0208333333333333
147
0.0
147
0.0
147
0.0
147
0.0
147
0.0208333333333333
147
0.0
147
0.0
147
0.0
147
0.0
147
1.0
147
0.0
147
0.0
147
0.0
147
0.0
147
1.0
  0
MATERIAL
  5
12
102
{ACAD_REACTORS
330
B
102
}
102
{ACAD_XDICTIONARY
360
66F
102
}
330
B
100
AcDbMaterial
  1
ByLayer
 72
     0
 73
     2
 43
0.0208333333333333
 43
0.0
 43
0.0
 43
0.0
 43
0.0
 43
0.0208333333333333
 43
0.0
 43
0.0
 43
0.0
 43
0.0
 43
1.0
 43
0.0
 43
0.0
 43
0.0
 43
0.0
 43
1.0
 77
     0
 78
     2
 47
0.0208333333333333
 47
0.0
 47
0.0
 47
0.0
 47
0.0
 47
0.0208333333333333
 47
0.0
 47
0.0
 47
0.0
 47
0.0
 47
1.0
 47
0.0
 47
0.0
 47
0.0
 47
0.0
 47
1.0
171
     0
172
     2
 49
0.0208333333333333
 49
0.0
 49
0.0
 49
0.0
 49
0.0
 49
0.0208333333333333
 49
0.0
 49
0.0
 49
0.0
 49
0.0
 49
1.0
 49
0.0
 49
0.0
 49
0.0
 49
0.0
 49
1.0
175
     0
176
     2
142
0.0208333333333333
142
0.0
142
0.0
142
0.0
142
0.0
142
0.0208333333333333
142
0.0
142
0.0
142
0.0
142
0.0
142
1.0
142
0.0
142
0.0
142
0.0
142
0.0
142
1.0
179
     0
270
     2
144
0.0208333333333333
144
0.0
144
0.0
144
0.0
144
0.0
144
0.0208333333333333
144
0.0
144
0.0
144
0.0
144
0.0
144
1.0
144
0.0
144
0.0
144
0.0
144
0.0
144
1.0
274
     2
147
0.0208333333333333
147
0.0
147
0.0
147
0.0
147
0.0
147
0.0208333333333333
147
0.0
147
0.0
147
0.0
147
0.0
147
1.0
147
0.0
147
0.0
147
0.0
147
0.0
147
1.0
  0
MATERIAL
  5
A
102
{ACAD_REACTORS
330
B
102
}
102
{ACAD_XDICTIONARY
360
671
102
}
330
B
100
AcDbMaterial
  1
Global
 72
     0
 73
     2
 43
0.0208333333333333
 43
0.0
 43
0.0
 43
0.0
 43
0.0
 43
0.0208333333333333
 43
0.0
 43
0.0
 43
0.0
 43
0.0
 43
1.0
 43
0.0
 43
0.0
 43
0.0
 43
0.0
 43
1.0
 77
     0
 78
     2
 47
0.0208333333333333
 47
0.0
 47
0.0
 47
0.0
 47
0.0
 47
0.0208333333333333
 47
0.0
 47
0.0
 47
0.0
 47
0.0
 47
1.0
 47
0.0
 47
0.0
 47
0.0
 47
0.0
 47
1.0
171
     0
172
     2
 49
0.0208333333333333
 49
0.0
 49
0.0
 49
0.0
 49
0.0
 49
0.0208333333333333
 49
0.0
 49
0.0
 49
0.0
 49
0.0
 49
1.0
 49
0.0
 49
0.0
 49
0.0
 49
0.0
 49
1.0
175
     0
176
     2
142
0.0208333333333333
142
0.0
142
0.0
142
0.0
142
0.0
142
0.0208333333333333
142
0.0
142
0.0
142
0.0
142
0.0
142
1.0
142
0.0
142
0.0
142
0.0
142
0.0
142
1.0
179
     0
270
     2
144
0.0208333333333333
144
0.0
144
0.0
144
0.0
144
0.0
144
0.0208333333333333
144
0.0
144
0.0
144
0.0
144
0.0
144
1.0
144
0.0
144
0.0
144
0.0
144
0.0
144
1.0
274
     2
147
0.0208333333333333
147
0.0
147
0.0
147
0.0
147
0.0
147
0.0208333333333333
147
0.0
147
0.0
147
0.0
147
0.0
147
1.0
147
0.0
147
0.0
147
0.0
147
0.0
147
1.0
  0
MLEADERSTYLE
  5
62D
102
{ACAD_REACTORS
330
614
102
}
102
{ACAD_XDICTIONARY
360
6A5
102
}
330
614
100
AcDbMLeaderStyle
170
     2
171
     1
172
     0
 90
        2
 40
0.0
 41
0.0
173
     1
 91
-1056964608
340
F
 92
       -2
290
     1
 42
0.09
291
     1
 43
0.36
  3
Standard
341
0
 44
0.18
300

342
10
174
     1
178
     6
175
     1
176
     0
 93
-1056964608
 45
0.18
292
     0
297
     0
 46
0.18
343
0
 94
-1056964608
 47
1.0
 49
1.0
140
1.0
293
     1
141
0.0
294
     1
177
     0
142
1.0
295
     0
296
     0
143
0.125
1001
ACAD_MLEADERVER
1070
     2
  0
MLINESTYLE
  5
16
102
{ACAD_REACTORS
330
17
102
}
330
17
100
AcDbMlineStyle
  2
STANDARD
 70
     0
  3

 62
     0
 51
90.0
 52
90.0
 71
     2
 49
0.5
 62
   256
  6
BYLAYER
 49
-0.5
 62
   256
  6
BYLAYER
  0
ACDBPLACEHOLDER
  5
7
102
{ACAD_REACTORS
330
8
102
}
330
8
  0
SCALE
  5
58
102
{ACAD_REACTORS
330
36
102
}
330
36
100
AcDbScale
 70
     0
300
1:1
140
1.0
141
1.0
290
     1
  0
SCALE
  5
61
102
{ACAD_REACTORS
330
36
102
}
330
36
100
AcDbScale
 70
     0
300
3/8" = 1'-0"
140
0.375
141
12.0
290
     0
  0
SCALE
  5
62
102
{ACAD_REACTORS
330
36
102
}
330
36
100
AcDbScale
 70
     0
300
1/2" = 1'-0"
140
0.5
141
12.0
290
     0
  0
SCALE
  5
63
102
{ACAD_REACTORS
330
36
102
}
330
36
100
AcDbScale
 70
     0
300
3/4" = 1'-0"
140
0.75
141
12.0
290
     0
  0
SCALE
  5
64
102
{ACAD_REACTORS
330
36
102
}
330
36
100
AcDbScale
 70
     0
300
1" = 1'-0"
140
1.0
141
12.0
290
     0
  0
SCALE
  5
65
102
{ACAD_REACTORS
330
36
102
}
330
36
100
AcDbScale
 70
     0
300
1-1/2" = 1'-0"
140
1.5
141
12.0
290
     0
  0
SCALE
  5
66
102
{ACAD_REACTORS
330
36
102
}
330
36
100
AcDbScale
 70
     0
300
3" = 1'-0"
140
3.0
141
12.0
290
     0
  0
SCALE
  5
67
102
{ACAD_REACTORS
330
36
102
}
330
36
100
AcDbScale
 70
     0
300
6" = 1'-0"
140
6.0
141
12.0
290
     0
  0
SCALE
  5
68
102
{ACAD_REACTORS
330
36
102
}
330
36
100
AcDbScale
 70
     0
300
1'-0" = 1'-0"
140
12.0
141
12.0
290
     0
  0
SCALE
  5
59
102
{ACAD_REACTORS
330
36
102
}
330
36
100
AcDbScale
 70
     0
300
1/128" = 1'-0"
140
0.0078125
141
12.0
290
     0
  0
SCALE
  5
5A
102
{ACAD_REACTORS
330
36
102
}
330
36
100
AcDbScale
 70
     0
300
1/64" = 1'-0"
140
0.015625
141
12.0
290
     0
  0
SCALE
  5
5B
102
{ACAD_REACTORS
330
36
102
}
330
36
100
AcDbScale
 70
     0
300
1/32" = 1'-0"
140
0.03125
141
12.0
290
     0
  0
SCALE
  5
5C
102
{ACAD_REACTORS
330
36
102
}
330
36
100
AcDbScale
 70
     0
300
1/16" = 1'-0"
140
0.0625
141
12.0
290
     0
  0
SCALE
  5
5D
102
{ACAD_REACTORS
330
36
102
}
330
36
100
AcDbScale
 70
     0
300
3/32" = 1'-0"
140
0.09375
141
12.0
290
     0
  0
SCALE
  5
5E
102
{ACAD_REACTORS
330
36
102
}
330
36
100
AcDbScale
 70
     0
300
1/8" = 1'-0"
140
0.125
141
12.0
290
     0
  0
SCALE
  5
5F
102
{ACAD_REACTORS
330
36
102
}
330
36
100
AcDbScale
 70
     0
300
3/16" = 1'-0"
140
0.1875
141
12.0
290
     0
  0
SCALE
  5
60
102
{ACAD_REACTORS
330
36
102
}
330
36
100
AcDbScale
 70
     0
300
1/4" = 1'-0"
140
0.25
141
12.0
290
     0
  0
TABLESTYLE
  5
664
102
{ACAD_REACTORS
330
613
102
}
330
613
100
AcDbTableStyle
  3
Standard
 70
     0
 71
     0
 40
0.06
 41
0.06
280
     0
281
     0
  7
STANDARD
140
0.18
170
     2
 62
     0
 63
   257
283
     0
274
    -2
284
     1
 64
     0
275
    -2
285
     1
 65
     0
276
    -2
286
     1
 66
     0
277
    -2
287
     1
 67
     0
278
    -2
288
     1
 68
     0
279
    -2
289
     1
 69
     0
  7
STANDARD
140
0.25
170
     5
 62
     0
 63
   257
283
     0
274
    -2
284
     1
 64
     0
275
    -2
285
     1
 65
     0
276
    -2
286
     1
 66
     0
277
    -2
287
     1
 67
     0
278
    -2
288
     1
 68
     0
279
    -2
289
     1
 69
     0
  7
STANDARD
140
0.18
170
     5
 62
     0
 63
   257
283
     0
274
    -2
284
     1
 64
     0
275
    -2
285
     1
 65
     0
276
    -2
286
     1
 66
     0
277
    -2
287
     1
 67
     0
278
    -2
288
     1
 68
     0
279
    -2
289
     1
 69
     0
  0
VISUALSTYLE
  5
61B
102
{ACAD_REACTORS
330
2F
102
}
102
{ACAD_XDICTIONARY
360
681
102
}
330
2F
100
AcDbVisualStyle
  2
2dWireframe
 70
     4
 71
     0
 72
     2
 73
     0
 90
        0
 40
0.6
 41
30.0
 62
     5
 63
     7
 74
     1
 91
        4
 64
     7
 65
   257
 75
     1
175
     1
 42
1.0
 92
        0
 66
   257
 43
1.0
 76
     1
 77
     6
 78
     2
 67
     7
 79
     5
170
     0
171
     0
290
     0
174
     0
 93
        1
 44
0.0
173
     0
291
     0
 45
0.0
1001
ACAD
1000
AcDbSavedByObjectVersion
1070
     0
  0
VISUALSTYLE
  5
61D
102
{ACAD_REACTORS
330
2F
102
}
102
{ACAD_XDICTIONARY
360
685
102
}
330
2F
100
AcDbVisualStyle
  2
Basic
 70
     7
 71
     1
 72
     0
 73
     1
 90
        0
 40
0.6
 41
30.0
 62
     5
 63
     7
 74
     0
 91
        4
 64
     7
 65
   257
 75
     1
175
     1
 42
1.0
 92
        8
 66
     7
 43
1.0
 76
     1
 77
     6
 78
     2
 67
     7
 79
     5
170
     0
171
     0
290
     0
174
     0
 93
        1
 44
0.0
173
     0
291
     1
 45
0.0
1001
ACAD
1000
AcDbSavedByObjectVersion
1070
     0
  0
VISUALSTYLE
  5
620
102
{ACAD_REACTORS
330
2F
102
}
102
{ACAD_XDICTIONARY
360
68B
102
}
330
2F
100
AcDbVisualStyle
  2
Brighten
 70
    12
 71
     2
 72
     2
 73
     0
 90
        0
 40
0.6
 41
30.0
 62
     5
 63
     7
 74
     1
 91
        4
 64
     7
 65
   257
 75
     1
175
     1
 42
1.0
 92
        8
 66
     7
 43
1.0
 76
     1
 77
     6
 78
     2
 67
     7
 79
     5
170
     0
171
     0
290
     0
174
     0
 93
        1
 44
50.0
173
     0
291
     1
 45
0.0
1001
ACAD
1000
AcDbSavedByObjectVersion
1070
     0
  0
VISUALSTYLE
  5
624
102
{ACAD_REACTORS
330
2F
102
}
102
{ACAD_XDICTIONARY
360
693
102
}
330
2F
100
AcDbVisualStyle
  2
ColorChange
 70
    16
 71
     2
 72
     2
 73
     3
 90
        0
 40
0.6
 41
30.0
 62
     5
 63
     8
 74
     1
 91
        4
 64
     7
 65
   257
 75
     1
175
     1
 42
1.0
 92
        8
 66
     8
 43
1.0
 76
     1
 77
     6
 78
     2
 67
     7
 79
     5
170
     0
171
     0
290
     0
174
     0
 93
        1
 44
0.0
173
     0
291
     1
 45
0.0
1001
ACAD
1000
AcDbSavedByObjectVersion
1070
     0
  0
VISUALSTYLE
  5
61E
102
{ACAD_REACTORS
330
2F
102
}
102
{ACAD_XDICTIONARY
360
687
102
}
330
2F
100
AcDbVisualStyle
  2
Conceptual
 70
     9
 71
     3
 72
     2
 73
     0
 90
        0
 40
0.6
 41
30.0
 62
     5
 63
     7
 74
     2
 91
        2
 64
     7
 65
   257
 75
     1
175
     1
 42
40.0
 92
        8
 66
     7
 43
1.0
 76
     1
 77
     6
 78
     2
 67
     7
 79
     3
170
     0
171
     0
290
     0
174
     0
 93
        1
 44
0.0
173
     0
291
     0
 45
0.0
1001
ACAD
1000
AcDbSavedByObjectVersion
1070
     0
  0
VISUALSTYLE
  5
61F
102
{ACAD_REACTORS
330
2F
102
}
102
{ACAD_XDICTIONARY
360
689
102
}
330
2F
100
AcDbVisualStyle
  2
Dim
 70
    11
 71
     2
 72
     2
 73
     0
 90
        0
 40
0.6
 41
30.0
 62
     5
 63
     7
 74
     1
 91
        4
 64
     7
 65
   257
 75
     1
175
     1
 42
1.0
 92
        8
 66
     7
 43
1.0
 76
     1
 77
     6
 78
     2
 67
     7
 79
     5
170
     0
171
     0
290
     0
174
     0
 93
        1
 44
-50.0
173
     0
291
     1
 45
0.0
1001
ACAD
1000
AcDbSavedByObjectVersion
1070
     0
  0
VISUALSTYLE
  5
627
102
{ACAD_REACTORS
330
2F
102
}
102
{ACAD_XDICTIONARY
360
699
102
}
330
2F
100
AcDbVisualStyle
  2
EdgeColorOff
 70
    22
 71
     2
 72
     2
 73
     0
 90
        0
 40
0.6
 41
30.0
 62
     5
 63
     7
 74
     1
 91
        4
 64
     7
 65
   257
 75
     1
175
     1
 42
1.0
 92
        8
 66
     7
 43
1.0
 76
     1
 77
     6
 78
     2
 67
     7
 79
     5
170
     0
171
     0
290
     0
174
     0
 93
        1
 44
0.0
173
     0
291
     1
 45
0.0
1001
ACAD
1000
AcDbSavedByObjectVersion
1070
     0
  0
VISUALSTYLE
  5
623
102
{ACAD_REACTORS
330
2F
102
}
102
{ACAD_XDICTIONARY
360
691
102
}
330
2F
100
AcDbVisualStyle
  2
Facepattern
 70
    15
 71
     2
 72
     2
 73
     0
 90
        0
 40
0.6
 41
30.0
 62
     5
 63
     7
 74
     1
 91
        4
 64
     7
 65
   257
 75
     1
175
     1
 42
1.0
 92
        8
 66
     7
 43
1.0
 76
     1
 77
     6
 78
     2
 67
     7
 79
     5
170
     0
171
     0
290
     0
174
     0
 93
        1
 44
0.0
173
     0
291
     1
 45
0.0
1001
ACAD
1000
AcDbSavedByObjectVersion
1070
     0
  0
VISUALSTYLE
  5
617
102
{ACAD_REACTORS
330
2F
102
}
102
{ACAD_XDICTIONARY
360
679
102
}
330
2F
100
AcDbVisualStyle
  2
Flat
 70
     0
 71
     2
 72
     1
 73
     1
 90
        2
 40
0.6
 41
30.0
 62
     5
 63
     7
 74
     0
 91
        4
 64
     7
 65
   257
 75
     1
175
     1
 42
1.0
 92
        8
 66
     7
 43
1.0
 76
     1
 77
     6
 78
     2
 67
     7
 79
     5
170
     0
171
     0
290
     0
174
     0
 93
       13
 44
0.0
173
     0
291
     1
 45
0.0
1001
ACAD
1000
AcDbSavedByObjectVersion
1070
     0
  0
VISUALSTYLE
  5
618
102
{ACAD_REACTORS
330
2F
102
}
102
{ACAD_XDICTIONARY
360
67B
102
}
330
2F
100
AcDbVisualStyle
  2
FlatWithEdges
 70
     1
 71
     2
 72
     1
 73
     1
 90
        2
 40
0.6
 41
30.0
 62
     5
 63
     7
 74
     1
 91
        4
 64
     7
 65
   257
 75
     1
175
     1
 42
1.0
 92
        0
 66
   257
 43
1.0
 76
     1
 77
     6
 78
     2
 67
     7
 79
     5
170
     0
171
     0
290
     0
174
     0
 93
       13
 44
0.0
173
     0
291
     1
 45
0.0
1001
ACAD
1000
AcDbSavedByObjectVersion
1070
     0
  0
VISUALSTYLE
  5
619
102
{ACAD_REACTORS
330
2F
102
}
102
{ACAD_XDICTIONARY
360
67D
102
}
330
2F
100
AcDbVisualStyle
  2
Gouraud
 70
     2
 71
     2
 72
     2
 73
     1
 90
        2
 40
0.6
 41
30.0
 62
     5
 63
     7
 74
     0
 91
        4
 64
     7
 65
   257
 75
     1
175
     1
 42
1.0
 92
        0
 66
     7
 43
1.0
 76
     1
 77
     6
 78
     2
 67
     7
 79
     5
170
     0
171
     0
290
     0
174
     0
 93
       13
 44
0.0
173
     0
291
     1
 45
0.0
1001
ACAD
1000
AcDbSavedByObjectVersion
1070
     0
  0
VISUALSTYLE
  5
61A
102
{ACAD_REACTORS
330
2F
102
}
102
{ACAD_XDICTIONARY
360
67F
102
}
330
2F
100
AcDbVisualStyle
  2
GouraudWithEdges
 70
     3
 71
     2
 72
     2
 73
     1
 90
        2
 40
0.6
 41
30.0
 62
     5
 63
     7
 74
     1
 91
        4
 64
     7
 65
   257
 75
     1
175
     1
 42
1.0
 92
        0
 66
   257
 43
1.0
 76
     1
 77
     6
 78
     2
 67
     7
 79
     5
170
     0
171
     0
290
     0
174
     0
 93
       13
 44
0.0
173
     0
291
     1
 45
0.0
1001
ACAD
1000
AcDbSavedByObjectVersion
1070
     0
  0
VISUALSTYLE
  5
61C
102
{ACAD_REACTORS
330
2F
102
}
102
{ACAD_XDICTIONARY
360
683
102
}
330
2F
100
AcDbVisualStyle
  2
Hidden
 70
     6
 71
     1
 72
     2
 73
     2
 90
        0
 40
0.6
 41
30.0
 62
     5
 63
     7
 74
     2
 91
        2
 64
     7
 65
   257
 75
     2
175
     1
 42
40.0
 92
        0
 66
   257
 43
1.0
 76
     1
 77
     6
 78
     2
 67
     7
 79
     3
170
     0
171
     0
290
     0
174
     0
 93
        1
 44
0.0
173
     0
291
     0
 45
0.0
1001
ACAD
1000
AcDbSavedByObjectVersion
1070
     0
  0
VISUALSTYLE
  5
625
102
{ACAD_REACTORS
330
2F
102
}
102
{ACAD_XDICTIONARY
360
695
102
}
330
2F
100
AcDbVisualStyle
  2
JitterOff
 70
    20
 71
     2
 72
     2
 73
     0
 90
        0
 40
0.6
 41
30.0
 62
     5
 63
     7
 74
     1
 91
        4
 64
     7
 65
   257
 75
     1
175
     1
 42
1.0
 92
       10
 66
     7
 43
1.0
 76
     1
 77
     6
 78
     2
 67
     7
 79
     5
170
     0
171
     0
290
     0
174
     0
 93
        1
 44
0.0
173
     0
291
     1
 45
0.0
1001
ACAD
1000
AcDbSavedByObjectVersion
1070
     0
  0
VISUALSTYLE
  5
622
102
{ACAD_REACTORS
330
2F
102
}
102
{ACAD_XDICTIONARY
360
68F
102
}
330
2F
100
AcDbVisualStyle
  2
Linepattern
 70
    14
 71
     2
 72
     2
 73
     0
 90
        0
 40
0.6
 41
30.0
 62
     5
 63
     7
 74
     1
 91
        4
 64
     7
 65
   257
 75
     7
175
     7
 42
1.0
 92
        8
 66
     7
 43
1.0
 76
     1
 77
     6
 78
     2
 67
     7
 79
     5
170
     0
171
     0
290
     0
174
     0
 93
        1
 44
0.0
173
     0
291
     1
 45
0.0
1001
ACAD
1000
AcDbSavedByObjectVersion
1070
     0
  0
VISUALSTYLE
  5
626
102
{ACAD_REACTORS
330
2F
102
}
102
{ACAD_XDICTIONARY
360
697
102
}
330
2F
100
AcDbVisualStyle
  2
OverhangOff
 70
    21
 71
     2
 72
     2
 73
     0
 90
        0
 40
0.6
 41
30.0
 62
     5
 63
     7
 74
     1
 91
        4
 64
     7
 65
   257
 75
     1
175
     1
 42
1.0
 92
        9
 66
     7
 43
1.0
 76
     1
 77
     6
 78
     2
 67
     7
 79
     5
170
     0
171
     0
290
     0
174
     0
 93
        1
 44
0.0
173
     0
291
     1
 45
0.0
1001
ACAD
1000
AcDbSavedByObjectVersion
1070
     0
  0
VISUALSTYLE
  5
30
102
{ACAD_REACTORS
330
2F
102
}
102
{ACAD_XDICTIONARY
360
675
102
}
330
2F
100
AcDbVisualStyle
  2
Realistic
 70
     8
 71
     2
 72
     3
 73
     0
 90
        2
 40
0.6
 41
30.0
 62
     5
 63
     7
 74
     0
 91
        0
 64
     7
 65
   257
 75
     1
175
     1
 42
1.0
 92
        8
 66
   257
 43
1.0
 76
     1
 77
     6
 78
     2
 67
     7
 79
     3
170
     0
171
     0
290
     0
174
     0
 93
       13
 44
0.0
173
     0
291
     0
 45
0.0
1001
ACAD
1000
AcDbSavedByObjectVersion
1070
     0
  0
VISUALSTYLE
  5
62C
102
{ACAD_REACTORS
330
2F
102
}
102
{ACAD_XDICTIONARY
360
6A3
102
}
330
2F
100
AcDbVisualStyle
  2
Shaded
 70
    27
 71
     2
 72
     2
 73
     1
 90
        2
 40
0.6
 41
30.0
 62
     5
 63
     7
 74
     0
 91
        4
 64
     7
 65
   257
 75
     1
175
     1
 42
1.0
 92
        8
 66
   257
 43
1.0
 76
     1
 77
     6
 78
     2
 67
   251
 79
     3
170
     0
171
     0
290
     0
174
     0
 93
        5
 44
0.0
173
     0
291
     0
 45
0.0
1001
ACAD
1000
AcDbSavedByObjectVersion
1070
     0
  0
VISUALSTYLE
  5
62B
102
{ACAD_REACTORS
330
2F
102
}
102
{ACAD_XDICTIONARY
360
6A1
102
}
330
2F
100
AcDbVisualStyle
  2
Shaded with edges
 70
    26
 71
     2
 72
     2
 73
     1
 90
        2
 40
0.6
 41
30.0
 62
     5
 63
     7
 74
     1
 91
       10
 64
     7
 65
   257
 75
     2
175
     1
 42
1.0
 92
        8
 66
   257
 43
1.0
 76
     1
 77
     6
 78
     2
 67
     7
 79
     3
170
     0
171
     0
290
     0
174
     0
 93
        5
 44
0.0
173
     0
291
     0
 45
0.0
1001
ACAD
1000
AcDbSavedByObjectVersion
1070
     0
  0
VISUALSTYLE
  5
628
102
{ACAD_REACTORS
330
2F
102
}
102
{ACAD_XDICTIONARY
360
69B
102
}
330
2F
100
AcDbVisualStyle
  2
Shades of Gray
 70
    23
 71
     2
 72
     2
 73
     3
 90
        0
 40
0.6
 41
30.0
 62
     5
 63
     7
 74
     2
 91
        2
 64
     7
 65
     7
 75
     1
175
     1
 42
40.0
 92
        8
 66
     7
 43
1.0
 76
     1
 77
     6
 78
     2
 67
     7
 79
     3
170
     0
171
     0
290
     0
174
     0
 93
        1
 44
0.0
173
     0
291
     0
 45
0.0
1001
ACAD
1000
AcDbSavedByObjectVersion
1070
     0
  0
VISUALSTYLE
  5
629
102
{ACAD_REACTORS
330
2F
102
}
102
{ACAD_XDICTIONARY
360
69D
102
}
330
2F
100
AcDbVisualStyle
  2
Sketchy
 70
    24
 71
     1
 72
     2
 73
     2
 90
        0
 40
0.6
 41
30.0
 62
     5
 63
     7
 74
     2
 91
        2
 64
     7
 65
     7
 75
     1
175
     1
 42
40.0
 92
       11
 66
     7
 43
1.0
 76
     1
 77
     6
 78
     2
 67
     7
 79
     6
170
     0
171
     0
290
     0
174
     0
 93
        1
 44
0.0
173
     0
291
     0
 45
0.0
1001
ACAD
1000
AcDbSavedByObjectVersion
1070
     0
  0
VISUALSTYLE
  5
621
102
{ACAD_REACTORS
330
2F
102
}
102
{ACAD_XDICTIONARY
360
68D
102
}
330
2F
100
AcDbVisualStyle
  2
Thicken
 70
    13
 71
     2
 72
     2
 73
     0
 90
        0
 40
0.6
 41
30.0
 62
     5
 63
     7
 74
     1
 91
        4
 64
     7
 65
   257
 75
     1
175
     1
 42
1.0
 92
       12
 66
     7
 43
1.0
 76
     1
 77
     6
 78
     2
 67
     7
 79
     5
170
     0
171
     0
290
     0
174
     0
 93
        1
 44
0.0
173
     0
291
     1
 45
0.0
1001
ACAD
1000
AcDbSavedByObjectVersion
1070
     0
  0
VISUALSTYLE
  5
31
102
{ACAD_REACTORS
330
2F
102
}
102
{ACAD_XDICTIONARY
360
677
102
}
330
2F
100
AcDbVisualStyle
  2
Wireframe
 70
     5
 71
     0
 72
     2
 73
     0
 90
        0
 40
0.6
 41
30.0
 62
     5
 63
     7
 74
     1
 91
        4
 64
     7
 65
   257
 75
     1
175
     1
 42
1.0
 92
        0
 66
   257
 43
1.0
 76
     1
 77
     6
 78
     2
 67
     7
 79
     3
170
     0
171
     0
290
     0
174
     0
 93
        1
 44
0.0
173
     0
291
     0
 45
0.0
1001
ACAD
1000
AcDbSavedByObjectVersion
1070
     0
  0
VISUALSTYLE
  5
62A
102
{ACAD_REACTORS
330
2F
102
}
102
{ACAD_XDICTIONARY
360
69F
102
}
330
2F
100
AcDbVisualStyle
  2
X-Ray
 70
    25
 71
     2
 72
     2
 73
     1
 90
        1
 40
0.5
 41
30.0
 62
     5
 63
     7
 74
     1
 91
        0
 64
     7
 65
   257
 75
     1
175
     1
 42
1.0
 92
        8
 66
     7
 43
1.0
 76
     1
 77
     6
 78
     2
 67
     7
 79
     3
170
     0
171
     0
290
     0
174
     0
 93
       13
 44
0.0
173
     0
291
     0
 45
0.0
1001
ACAD
1000
AcDbSavedByObjectVersion
1070
     0
  0
XRECORD
  5
669
102
{ACAD_REACTORS
330
668
102
}
330
668
100
AcDbXrecord
280
     1
340
2E
  0
XRECORD
  5
66A
102
{ACAD_REACTORS
330
668
102
}
330
668
100
AcDbXrecord
280
     1
340
B
  0
DICTIONARYVAR
  5
612
102
{ACAD_REACTORS
330
611
102
}
330
611
100
DictionaryVariables
280
     0
  1
1:1
  0
DICTIONARYVAR
  5
663
102
{ACAD_REACTORS
330
611
102
}
330
611
100
DictionaryVariables
280
     0
  1
Standard
  0
DICTIONARYVAR
  5
665
102
{ACAD_REACTORS
330
611
102
}
330
611
100
DictionaryVariables
280
     0
  1
Standard
  0
DICTIONARYVAR
  5
666
102
{ACAD_REACTORS
330
611
102
}
330
611
100
DictionaryVariables
280
     0
  1
0
  0
DICTIONARYVAR
  5
667
102
{ACAD_REACTORS
330
611
102
}
330
611
100
DictionaryVariables
280
     0
  1
1
  0
DICTIONARYVAR
  5
66E
102
{ACAD_REACTORS
330
611
102
}
330
611
100
DictionaryVariables
280
     0
  1
1
  0
DICTIONARY
  5
673
330
69
100
AcDbDictionary
280
     1
281
     1
  3
ACAD_XREC_ROUNDTRIP
360
674
  0
DICTIONARY
  5
66F
330
12
100
AcDbDictionary
280
     1
281
     1
  3
ACAD_XREC_ROUNDTRIP
360
670
  0
DICTIONARY
  5
671
330
A
100
AcDbDictionary
280
     1
281
     1
  3
ACAD_XREC_ROUNDTRIP
360
672
  0
DICTIONARY
  5
6A5
330
62D
100
AcDbDictionary
280
     1
281
     1
  3
ACAD_XREC_ROUNDTRIP
360
6A6
  0
DICTIONARY
  5
681
330
61B
100
AcDbDictionary
280
     1
281
     1
  3
ACAD_XREC_ROUNDTRIP
360
682
  0
DICTIONARY
  5
685
330
61D
100
AcDbDictionary
280
     1
281
     1
  3
ACAD_XREC_ROUNDTRIP
360
686
  0
DICTIONARY
  5
68B
330
620
100
AcDbDictionary
280
     1
281
     1
  3
ACAD_XREC_ROUNDTRIP
360
68C
  0
DICTIONARY
  5
693
330
624
100
AcDbDictionary
280
     1
281
     1
  3
ACAD_XREC_ROUNDTRIP
360
694
  0
DICTIONARY
  5
687
330
61E
100
AcDbDictionary
280
     1
281
     1
  3
ACAD_XREC_ROUNDTRIP
360
688
  0
DICTIONARY
  5
689
330
61F
100
AcDbDictionary
280
     1
281
     1
  3
ACAD_XREC_ROUNDTRIP
360
68A
  0
DICTIONARY
  5
699
330
627
100
AcDbDictionary
280
     1
281
     1
  3
ACAD_XREC_ROUNDTRIP
360
69A
  0
DICTIONARY
  5
691
330
623
100
AcDbDictionary
280
     1
281
     1
  3
ACAD_XREC_ROUNDTRIP
360
692
  0
DICTIONARY
  5
679
330
617
100
AcDbDictionary
280
     1
281
     1
  3
ACAD_XREC_ROUNDTRIP
360
67A
  0
DICTIONARY
  5
67B
330
618
100
AcDbDictionary
280
     1
281
     1
  3
ACAD_XREC_ROUNDTRIP
360
67C
  0
DICTIONARY
  5
67D
330
619
100
AcDbDictionary
280
     1
281
     1
  3
ACAD_XREC_ROUNDTRIP
360
67E
  0
DICTIONARY
  5
67F
330
61A
100
AcDbDictionary
280
     1
281
     1
  3
ACAD_XREC_ROUNDTRIP
360
680
  0
DICTIONARY
  5
683
330
61C
100
AcDbDictionary
280
     1
281
     1
  3
ACAD_XREC_ROUNDTRIP
360
684
  0
DICTIONARY
  5
695
330
625
100
AcDbDictionary
280
     1
281
     1
  3
ACAD_XREC_ROUNDTRIP
360
696
  0
DICTIONARY
  5
68F
330
622
100
AcDbDictionary
280
     1
281
     1
  3
ACAD_XREC_ROUNDTRIP
360
690
  0
DICTIONARY
  5
697
330
626
100
AcDbDictionary
280
     1
281
     1
  3
ACAD_XREC_ROUNDTRIP
360
698
  0
DICTIONARY
  5
675
330
30
100
AcDbDictionary
280
     1
281
     1
  3
ACAD_XREC_ROUNDTRIP
360
676
  0
DICTIONARY
  5
6A3
330
62C
100
AcDbDictionary
280
     1
281
     1
  3
ACAD_XREC_ROUNDTRIP
360
6A4
  0
DICTIONARY
  5
6A1
330
62B
100
AcDbDictionary
280
     1
281
     1
  3
ACAD_XREC_ROUNDTRIP
360
6A2
  0
DICTIONARY
  5
69B
330
628
100
AcDbDictionary
280
     1
281
     1
  3
ACAD_XREC_ROUNDTRIP
360
69C
  0
DICTIONARY
  5
69D
330
629
100
AcDbDictionary
280
     1
281
     1
  3
ACAD_XREC_ROUNDTRIP
360
69E
  0
DICTIONARY
  5
68D
330
621
100
AcDbDictionary
280
     1
281
     1
  3
ACAD_XREC_ROUNDTRIP
360
68E
  0
DICTIONARY
  5
677
330
31
100
AcDbDictionary
280
     1
281
     1
  3
ACAD_XREC_ROUNDTRIP
360
678
  0
DICTIONARY
  5
69F
330
62A
100
AcDbDictionary
280
     1
281
     1
  3
ACAD_XREC_ROUNDTRIP
360
6A0
  0
XRECORD
  5
674
102
{ACAD_REACTORS
330
673
102
}
330
673
100
AcDbXrecord
280
     1
102
MATERIAL
148
0.0
149
0.0
149
0.0
 93
        0
 94
      127
282
     0
 72
     0
 77
     0
171
     0
175
     0
179
     0
273
     0
  0
XRECORD
  5
670
102
{ACAD_REACTORS
330
66F
102
}
330
66F
100
AcDbXrecord
280
     1
102
MATERIAL
148
0.0
149
0.0
149
0.0
 93
        0
 94
      127
282
     0
 72
     0
 77
     0
171
     0
175
     0
179
     0
273
     0
  0
XRECORD
  5
672
102
{ACAD_REACTORS
330
671
102
}
330
671
100
AcDbXrecord
280
     1
102
MATERIAL
148
0.0
149
0.0
149
0.0
 93
        0
 94
      127
282
     0
 72
     0
 77
     0
171
     0
175
     0
179
     0
273
     0
  0
XRECORD
  5
6A6
102
{ACAD_REACTORS
330
6A5
102
}
330
6A5
100
AcDbXrecord
280
     1
102
ACAD_ROUNDTRIP_2010_MLEADER_STYLE
  0
XRECORD
  5
682
102
{ACAD_REACTORS
330
681
102
}
330
681
100
AcDbXrecord
280
     1
102
RTVSPropertyOp0
 70
     1
102
RTVSPropertyOp1
 70
     1
102
RTVSPropertyOp2
 70
     1
102
RTVSPropertyOp3
 70
     1
102
RTVSPropertyOp4
 70
     1
102
RTVSPropertyOp5
 70
     1
102
RTVSPropertyOp6
 70
     1
102
RTVSPropertyOp7
 70
     1
102
RTVSPropertyOp8
 70
     1
102
RTVSPropertyOp9
 70
     1
102
RTVSPropertyOp10
 70
     1
102
RTVSPropertyOp11
 70
     1
102
RTVSPropertyOp12
 70
     1
102
RTVSPropertyOp13
 70
     1
102
RTVSPropertyOp14
 70
     1
102
RTVSPropertyOp15
 70
     1
102
RTVSPropertyOp16
 70
     1
102
RTVSPropertyOp17
 70
     1
102
RTVSPropertyOp18
 70
     1
102
RTVSPropertyOp19
 70
     1
102
RTVSPropertyOp20
 70
     1
102
RTVSPropertyOp21
 70
     1
102
RTVSPropertyOp22
 70
     1
102
RTVSPropertyOp23
 70
     1
102
RTVSPropertyOp24
 70
     1
102
RTVSPropertyOp25
 70
     1
102
RTVSPropertyOp26
 70
     1
102
RTVSPropertyOp27
 70
     1
102
RTVSPropertyOp28
 70
     1
102
RTVSPropertyOp29
 70
     1
102
RTVSPropertyOp30
 70
     1
102
RTVSPropertyOp31
 70
     1
102
RTVSPropertyOp32
 70
     1
102
RTVSPropertyOp33
 70
     1
102
RTVSPropertyOp34
 70
     1
102
RTVSPropertyOp35
 70
     1
102
RTVSPropertyOp36
 70
     1
102
RTVSPropertyOp37
 70
     1
102
RTVSPropertyOp38
 70
     1
102
RTVSPropertyOp39
 70
     1
102
RTVSPropertyOp40
 70
     1
102
RTVSPropertyOp41
 70
     1
102
RTVSPropertyOp42
 70
     1
102
RTVSPropertyOp43
 70
     1
102
RTVSPropertyOp44
 70
     1
102
RTVSPropertyOp45
 70
     1
102
RTVSPropertyOp46
 70
     1
102
RTVSPropertyOp47
 70
     1
102
RTVSPropertyOp48
 70
     1
102
RTVSPropertyOp49
 70
     1
102
RTVSPropertyOp50
 70
     1
102
RTVSPropertyOp51
 70
     0
102
RTVSPropertyOp52
 70
     0
102
RTVSPropertyOp53
 70
     1
102
RTVSPropertyOp54
 70
     1
102
RTVSPropertyOp55
 70
     1
102
RTVSPropertyOp56
 70
     1
102
RTVSPropertyOp57
 70
     1
102
RTVSPost2010Prop28
280
     1
102
RTVSPost2010PropOp28
 70
     1
102
RTVSPost2010Prop29
280
     1
102
RTVSPost2010PropOp29
 70
     1
102
RTVSPost2010Prop30
280
     0
102
RTVSPost2010PropOp30
 70
     1
102
RTVSPost2010Prop31
280
     0
102
RTVSPost2010PropOp31
 70
     1
102
RTVSPost2010Prop32
280
     0
102
RTVSPost2010PropOp32
 70
     1
102
RTVSPost2010Prop33
280
     0
102
RTVSPost2010PropOp33
 70
     1
102
RTVSPost2010Prop34
280
     0
102
RTVSPost2010PropOp34
 70
     1
102
RTVSPost2010Prop35
280
     0
102
RTVSPost2010PropOp35
 70
     1
102
RTVSPost2010Prop36
280
     0
102
RTVSPost2010PropOp36
 70
     1
102
RTVSPost2010Prop37
 90
       50
102
RTVSPost2010PropOp37
 70
     1
102
RTVSPost2010Prop38
140
0.0
102
RTVSPost2010PropOp38
 70
     1
102
RTVSPost2010Prop39
140
1.0
102
RTVSPost2010PropOp39
 70
     1
102
RTVSPost2010Prop40
 90
        0
102
RTVSPost2010PropOp40
 70
     1
102
RTVSPost2010Prop41ColorIndex
 90
       18
102
RTVSPost2010Prop41ColorRGB
 90
        0
102
RTVSPost2010PropOp41
 70
     1
102
RTVSPost2010Prop42
 90
       50
102
RTVSPost2010PropOp42
 70
     1
102
RTVSPost2010Prop43
 90
        3
102
RTVSPost2010PropOp43
 70
     1
102
RTVSPost2010Prop44ColorIndex
 90
        5
102
RTVSPost2010Prop44ColorRGB
 90
      255
102
RTVSPost2010PropOp44
 70
     1
102
RTVSPost2010Prop45
280
     0
102
RTVSPost2010PropOp45
 70
     1
102
RTVSPost2010Prop46
 90
       50
102
RTVSPost2010PropOp46
 70
     1
102
RTVSPost2010Prop47
 90
       50
102
RTVSPost2010PropOp47
 70
     1
102
RTVSPost2010Prop48
 90
       50
102
RTVSPost2010PropOp48
 70
     1
102
RTVSPost2010Prop49
280
     0
102
RTVSPost2010PropOp49
 70
     1
102
RTVSPost2010Prop50
 90
       50
102
RTVSPost2010PropOp50
 70
     1
102
RTVSPost2010Prop51ColorIndex
 90
      256
102
RTVSPost2010Prop51ColorRGB
 90
-16777216
102
RTVSPost2010PropOp51
 70
     0
102
RTVSPost2010Prop52
140
1.0
102
RTVSPost2010PropOp52
 70
     0
102
RTVSPost2010Prop53
 90
        2
102
RTVSPost2010PropOp53
 70
     1
102
RTVSPost2010Prop54
  1
strokes_ogs.tif
102
RTVSPost2010PropOp54
 70
     1
102
RTVSPost2010Prop55
280
     0
102
RTVSPost2010PropOp55
 70
     1
102
RTVSPost2010Prop56
140
1.0
102
RTVSPost2010PropOp56
 70
     1
102
RTVSPost2010Prop57
140
1.0
102
RTVSPost2010PropOp57
 70
     1
  0
XRECORD
  5
686
102
{ACAD_REACTORS
330
685
102
}
330
685
100
AcDbXrecord
280
     1
102
RTVSPropertyOp0
 70
     1
102
RTVSPropertyOp1
 70
     1
102
RTVSPropertyOp2
 70
     1
102
RTVSPropertyOp3
 70
     1
102
RTVSPropertyOp4
 70
     1
102
RTVSPropertyOp5
 70
     1
102
RTVSPropertyOp6
 70
     1
102
RTVSPropertyOp7
 70
     1
102
RTVSPropertyOp8
 70
     1
102
RTVSPropertyOp9
 70
     1
102
RTVSPropertyOp10
 70
     1
102
RTVSPropertyOp11
 70
     1
102
RTVSPropertyOp12
 70
     1
102
RTVSPropertyOp13
 70
     1
102
RTVSPropertyOp14
 70
     1
102
RTVSPropertyOp15
 70
     1
102
RTVSPropertyOp16
 70
     1
102
RTVSPropertyOp17
 70
     1
102
RTVSPropertyOp18
 70
     1
102
RTVSPropertyOp19
 70
     1
102
RTVSPropertyOp20
 70
     1
102
RTVSPropertyOp21
 70
     1
102
RTVSPropertyOp22
 70
     1
102
RTVSPropertyOp23
 70
     1
102
RTVSPropertyOp24
 70
     1
102
RTVSPropertyOp25
 70
     1
102
RTVSPropertyOp26
 70
     1
102
RTVSPropertyOp27
 70
     1
102
RTVSPropertyOp28
 70
     1
102
RTVSPropertyOp29
 70
     1
102
RTVSPropertyOp30
 70
     1
102
RTVSPropertyOp31
 70
     1
102
RTVSPropertyOp32
 70
     1
102
RTVSPropertyOp33
 70
     1
102
RTVSPropertyOp34
 70
     1
102
RTVSPropertyOp35
 70
     1
102
RTVSPropertyOp36
 70
     1
102
RTVSPropertyOp37
 70
     1
102
RTVSPropertyOp38
 70
     1
102
RTVSPropertyOp39
 70
     1
102
RTVSPropertyOp40
 70
     1
102
RTVSPropertyOp41
 70
     1
102
RTVSPropertyOp42
 70
     1
102
RTVSPropertyOp43
 70
     1
102
RTVSPropertyOp44
 70
     1
102
RTVSPropertyOp45
 70
     1
102
RTVSPropertyOp46
 70
     1
102
RTVSPropertyOp47
 70
     1
102
RTVSPropertyOp48
 70
     1
102
RTVSPropertyOp49
 70
     1
102
RTVSPropertyOp50
 70
     1
102
RTVSPropertyOp51
 70
     0
102
RTVSPropertyOp52
 70
     0
102
RTVSPropertyOp53
 70
     1
102
RTVSPropertyOp54
 70
     1
102
RTVSPropertyOp55
 70
     1
102
RTVSPropertyOp56
 70
     1
102
RTVSPropertyOp57
 70
     1
102
RTVSPost2010Prop28
280
     0
102
RTVSPost2010PropOp28
 70
     1
102
RTVSPost2010Prop29
280
     1
102
RTVSPost2010PropOp29
 70
     1
102
RTVSPost2010Prop30
280
     1
102
RTVSPost2010PropOp30
 70
     1
102
RTVSPost2010Prop31
280
     0
102
RTVSPost2010PropOp31
 70
     1
102
RTVSPost2010Prop32
280
     0
102
RTVSPost2010PropOp32
 70
     1
102
RTVSPost2010Prop33
280
     0
102
RTVSPost2010PropOp33
 70
     1
102
RTVSPost2010Prop34
280
     0
102
RTVSPost2010PropOp34
 70
     1
102
RTVSPost2010Prop35
280
     0
102
RTVSPost2010PropOp35
 70
     1
102
RTVSPost2010Prop36
280
     0
102
RTVSPost2010PropOp36
 70
     1
102
RTVSPost2010Prop37
 90
       50
102
RTVSPost2010PropOp37
 70
     1
102
RTVSPost2010Prop38
140
0.0
102
RTVSPost2010PropOp38
 70
     1
102
RTVSPost2010Prop39
140
1.0
102
RTVSPost2010PropOp39
 70
     1
102
RTVSPost2010Prop40
 90
        0
102
RTVSPost2010PropOp40
 70
     1
102
RTVSPost2010Prop41ColorIndex
 90
       18
102
RTVSPost2010Prop41ColorRGB
 90
        0
102
RTVSPost2010PropOp41
 70
     1
102
RTVSPost2010Prop42
 90
       50
102
RTVSPost2010PropOp42
 70
     1
102
RTVSPost2010Prop43
 90
        3
102
RTVSPost2010PropOp43
 70
     1
102
RTVSPost2010Prop44ColorIndex
 90
        5
102
RTVSPost2010Prop44ColorRGB
 90
      255
102
RTVSPost2010PropOp44
 70
     1
102
RTVSPost2010Prop45
280
     0
102
RTVSPost2010PropOp45
 70
     1
102
RTVSPost2010Prop46
 90
       50
102
RTVSPost2010PropOp46
 70
     1
102
RTVSPost2010Prop47
 90
       50
102
RTVSPost2010PropOp47
 70
     1
102
RTVSPost2010Prop48
 90
       50
102
RTVSPost2010PropOp48
 70
     1
102
RTVSPost2010Prop49
280
     0
102
RTVSPost2010PropOp49
 70
     1
102
RTVSPost2010Prop50
 90
       50
102
RTVSPost2010PropOp50
 70
     1
102
RTVSPost2010Prop51ColorIndex
 90
      256
102
RTVSPost2010Prop51ColorRGB
 90
-16777216
102
RTVSPost2010PropOp51
 70
     0
102
RTVSPost2010Prop52
140
1.0
102
RTVSPost2010PropOp52
 70
     0
102
RTVSPost2010Prop53
 90
        2
102
RTVSPost2010PropOp53
 70
     1
102
RTVSPost2010Prop54
  1
strokes_ogs.tif
102
RTVSPost2010PropOp54
 70
     1
102
RTVSPost2010Prop55
280
     0
102
RTVSPost2010PropOp55
 70
     1
102
RTVSPost2010Prop56
140
1.0
102
RTVSPost2010PropOp56
 70
     1
102
RTVSPost2010Prop57
140
1.0
102
RTVSPost2010PropOp57
 70
     1
  0
XRECORD
  5
68C
102
{ACAD_REACTORS
330
68B
102
}
330
68B
100
AcDbXrecord
280
     1
102
RTVSPropertyOp0
 70
     1
102
RTVSPropertyOp1
 70
     1
102
RTVSPropertyOp2
 70
     1
102
RTVSPropertyOp3
 70
     1
102
RTVSPropertyOp4
 70
     1
102
RTVSPropertyOp5
 70
     1
102
RTVSPropertyOp6
 70
     1
102
RTVSPropertyOp7
 70
     1
102
RTVSPropertyOp8
 70
     1
102
RTVSPropertyOp9
 70
     1
102
RTVSPropertyOp10
 70
     1
102
RTVSPropertyOp11
 70
     1
102
RTVSPropertyOp12
 70
     1
102
RTVSPropertyOp13
 70
     1
102
RTVSPropertyOp14
 70
     1
102
RTVSPropertyOp15
 70
     1
102
RTVSPropertyOp16
 70
     1
102
RTVSPropertyOp17
 70
     1
102
RTVSPropertyOp18
 70
     1
102
RTVSPropertyOp19
 70
     1
102
RTVSPropertyOp20
 70
     1
102
RTVSPropertyOp21
 70
     1
102
RTVSPropertyOp22
 70
     1
102
RTVSPropertyOp23
 70
     1
102
RTVSPropertyOp24
 70
     1
102
RTVSPropertyOp25
 70
     1
102
RTVSPropertyOp26
 70
     1
102
RTVSPropertyOp27
 70
     1
102
RTVSPropertyOp28
 70
     1
102
RTVSPropertyOp29
 70
     1
102
RTVSPropertyOp30
 70
     1
102
RTVSPropertyOp31
 70
     1
102
RTVSPropertyOp32
 70
     1
102
RTVSPropertyOp33
 70
     1
102
RTVSPropertyOp34
 70
     1
102
RTVSPropertyOp35
 70
     1
102
RTVSPropertyOp36
 70
     1
102
RTVSPropertyOp37
 70
     1
102
RTVSPropertyOp38
 70
     1
102
RTVSPropertyOp39
 70
     1
102
RTVSPropertyOp40
 70
     1
102
RTVSPropertyOp41
 70
     1
102
RTVSPropertyOp42
 70
     1
102
RTVSPropertyOp43
 70
     1
102
RTVSPropertyOp44
 70
     1
102
RTVSPropertyOp45
 70
     1
102
RTVSPropertyOp46
 70
     1
102
RTVSPropertyOp47
 70
     1
102
RTVSPropertyOp48
 70
     1
102
RTVSPropertyOp49
 70
     1
102
RTVSPropertyOp50
 70
     1
102
RTVSPropertyOp51
 70
     0
102
RTVSPropertyOp52
 70
     0
102
RTVSPropertyOp53
 70
     1
102
RTVSPropertyOp54
 70
     1
102
RTVSPropertyOp55
 70
     1
102
RTVSPropertyOp56
 70
     1
102
RTVSPropertyOp57
 70
     1
102
RTVSPost2010Prop28
280
     0
102
RTVSPost2010PropOp28
 70
     1
102
RTVSPost2010Prop29
280
     1
102
RTVSPost2010PropOp29
 70
     1
102
RTVSPost2010Prop30
280
     1
102
RTVSPost2010PropOp30
 70
     1
102
RTVSPost2010Prop31
280
     0
102
RTVSPost2010PropOp31
 70
     1
102
RTVSPost2010Prop32
280
     0
102
RTVSPost2010PropOp32
 70
     1
102
RTVSPost2010Prop33
280
     0
102
RTVSPost2010PropOp33
 70
     1
102
RTVSPost2010Prop34
280
     0
102
RTVSPost2010PropOp34
 70
     1
102
RTVSPost2010Prop35
280
     0
102
RTVSPost2010PropOp35
 70
     1
102
RTVSPost2010Prop36
280
     0
102
RTVSPost2010PropOp36
 70
     1
102
RTVSPost2010Prop37
 90
       50
102
RTVSPost2010PropOp37
 70
     1
102
RTVSPost2010Prop38
140
0.0
102
RTVSPost2010PropOp38
 70
     1
102
RTVSPost2010Prop39
140
1.0
102
RTVSPost2010PropOp39
 70
     1
102
RTVSPost2010Prop40
 90
        0
102
RTVSPost2010PropOp40
 70
     1
102
RTVSPost2010Prop41ColorIndex
 90
       18
102
RTVSPost2010Prop41ColorRGB
 90
        0
102
RTVSPost2010PropOp41
 70
     1
102
RTVSPost2010Prop42
 90
       50
102
RTVSPost2010PropOp42
 70
     1
102
RTVSPost2010Prop43
 90
        3
102
RTVSPost2010PropOp43
 70
     1
102
RTVSPost2010Prop44ColorIndex
 90
        5
102
RTVSPost2010Prop44ColorRGB
 90
      255
102
RTVSPost2010PropOp44
 70
     1
102
RTVSPost2010Prop45
280
     0
102
RTVSPost2010PropOp45
 70
     1
102
RTVSPost2010Prop46
 90
       50
102
RTVSPost2010PropOp46
 70
     1
102
RTVSPost2010Prop47
 90
       50
102
RTVSPost2010PropOp47
 70
     1
102
RTVSPost2010Prop48
 90
       50
102
RTVSPost2010PropOp48
 70
     1
102
RTVSPost2010Prop49
280
     0
102
RTVSPost2010PropOp49
 70
     1
102
RTVSPost2010Prop50
 90
       50
102
RTVSPost2010PropOp50
 70
     1
102
RTVSPost2010Prop51ColorIndex
 90
      256
102
RTVSPost2010Prop51ColorRGB
 90
-16777216
102
RTVSPost2010PropOp51
 70
     0
102
RTVSPost2010Prop52
140
1.0
102
RTVSPost2010PropOp52
 70
     0
102
RTVSPost2010Prop53
 90
        2
102
RTVSPost2010PropOp53
 70
     1
102
RTVSPost2010Prop54
  1
strokes_ogs.tif
102
RTVSPost2010PropOp54
 70
     1
102
RTVSPost2010Prop55
280
     0
102
RTVSPost2010PropOp55
 70
     1
102
RTVSPost2010Prop56
140
1.0
102
RTVSPost2010PropOp56
 70
     1
102
RTVSPost2010Prop57
140
1.0
102
RTVSPost2010PropOp57
 70
     1
  0
XRECORD
  5
694
102
{ACAD_REACTORS
330
693
102
}
330
693
100
AcDbXrecord
280
     1
102
RTVSPropertyOp0
 70
     1
102
RTVSPropertyOp1
 70
     1
102
RTVSPropertyOp2
 70
     1
102
RTVSPropertyOp3
 70
     1
102
RTVSPropertyOp4
 70
     1
102
RTVSPropertyOp5
 70
     1
102
RTVSPropertyOp6
 70
     1
102
RTVSPropertyOp7
 70
     1
102
RTVSPropertyOp8
 70
     1
102
RTVSPropertyOp9
 70
     1
102
RTVSPropertyOp10
 70
     1
102
RTVSPropertyOp11
 70
     1
102
RTVSPropertyOp12
 70
     1
102
RTVSPropertyOp13
 70
     1
102
RTVSPropertyOp14
 70
     1
102
RTVSPropertyOp15
 70
     1
102
RTVSPropertyOp16
 70
     1
102
RTVSPropertyOp17
 70
     1
102
RTVSPropertyOp18
 70
     1
102
RTVSPropertyOp19
 70
     1
102
RTVSPropertyOp20
 70
     1
102
RTVSPropertyOp21
 70
     1
102
RTVSPropertyOp22
 70
     1
102
RTVSPropertyOp23
 70
     1
102
RTVSPropertyOp24
 70
     1
102
RTVSPropertyOp25
 70
     1
102
RTVSPropertyOp26
 70
     1
102
RTVSPropertyOp27
 70
     1
102
RTVSPropertyOp28
 70
     1
102
RTVSPropertyOp29
 70
     1
102
RTVSPropertyOp30
 70
     1
102
RTVSPropertyOp31
 70
     1
102
RTVSPropertyOp32
 70
     1
102
RTVSPropertyOp33
 70
     1
102
RTVSPropertyOp34
 70
     1
102
RTVSPropertyOp35
 70
     1
102
RTVSPropertyOp36
 70
     1
102
RTVSPropertyOp37
 70
     1
102
RTVSPropertyOp38
 70
     1
102
RTVSPropertyOp39
 70
     1
102
RTVSPropertyOp40
 70
     1
102
RTVSPropertyOp41
 70
     1
102
RTVSPropertyOp42
 70
     1
102
RTVSPropertyOp43
 70
     1
102
RTVSPropertyOp44
 70
     1
102
RTVSPropertyOp45
 70
     1
102
RTVSPropertyOp46
 70
     1
102
RTVSPropertyOp47
 70
     1
102
RTVSPropertyOp48
 70
     1
102
RTVSPropertyOp49
 70
     1
102
RTVSPropertyOp50
 70
     1
102
RTVSPropertyOp51
 70
     0
102
RTVSPropertyOp52
 70
     0
102
RTVSPropertyOp53
 70
     1
102
RTVSPropertyOp54
 70
     1
102
RTVSPropertyOp55
 70
     1
102
RTVSPropertyOp56
 70
     1
102
RTVSPropertyOp57
 70
     1
102
RTVSPost2010Prop28
280
     0
102
RTVSPost2010PropOp28
 70
     1
102
RTVSPost2010Prop29
280
     1
102
RTVSPost2010PropOp29
 70
     1
102
RTVSPost2010Prop30
280
     1
102
RTVSPost2010PropOp30
 70
     1
102
RTVSPost2010Prop31
280
     0
102
RTVSPost2010PropOp31
 70
     1
102
RTVSPost2010Prop32
280
     0
102
RTVSPost2010PropOp32
 70
     1
102
RTVSPost2010Prop33
280
     0
102
RTVSPost2010PropOp33
 70
     1
102
RTVSPost2010Prop34
280
     0
102
RTVSPost2010PropOp34
 70
     1
102
RTVSPost2010Prop35
280
     0
102
RTVSPost2010PropOp35
 70
     1
102
RTVSPost2010Prop36
280
     0
102
RTVSPost2010PropOp36
 70
     1
102
RTVSPost2010Prop37
 90
       50
102
RTVSPost2010PropOp37
 70
     1
102
RTVSPost2010Prop38
140
0.0
102
RTVSPost2010PropOp38
 70
     1
102
RTVSPost2010Prop39
140
1.0
102
RTVSPost2010PropOp39
 70
     1
102
RTVSPost2010Prop40
 90
        0
102
RTVSPost2010PropOp40
 70
     1
102
RTVSPost2010Prop41ColorIndex
 90
       18
102
RTVSPost2010Prop41ColorRGB
 90
        0
102
RTVSPost2010PropOp41
 70
     1
102
RTVSPost2010Prop42
 90
       50
102
RTVSPost2010PropOp42
 70
     1
102
RTVSPost2010Prop43
 90
        3
102
RTVSPost2010PropOp43
 70
     1
102
RTVSPost2010Prop44ColorIndex
 90
        5
102
RTVSPost2010Prop44ColorRGB
 90
      255
102
RTVSPost2010PropOp44
 70
     1
102
RTVSPost2010Prop45
280
     0
102
RTVSPost2010PropOp45
 70
     1
102
RTVSPost2010Prop46
 90
       50
102
RTVSPost2010PropOp46
 70
     1
102
RTVSPost2010Prop47
 90
       50
102
RTVSPost2010PropOp47
 70
     1
102
RTVSPost2010Prop48
 90
       50
102
RTVSPost2010PropOp48
 70
     1
102
RTVSPost2010Prop49
280
     0
102
RTVSPost2010PropOp49
 70
     1
102
RTVSPost2010Prop50
 90
       50
102
RTVSPost2010PropOp50
 70
     1
102
RTVSPost2010Prop51ColorIndex
 90
      256
102
RTVSPost2010Prop51ColorRGB
 90
-16777216
102
RTVSPost2010PropOp51
 70
     0
102
RTVSPost2010Prop52
140
1.0
102
RTVSPost2010PropOp52
 70
     0
102
RTVSPost2010Prop53
 90
        2
102
RTVSPost2010PropOp53
 70
     1
102
RTVSPost2010Prop54
  1
strokes_ogs.tif
102
RTVSPost2010PropOp54
 70
     1
102
RTVSPost2010Prop55
280
     0
102
RTVSPost2010PropOp55
 70
     1
102
RTVSPost2010Prop56
140
1.0
102
RTVSPost2010PropOp56
 70
     1
102
RTVSPost2010Prop57
140
1.0
102
RTVSPost2010PropOp57
 70
     1
  0
XRECORD
  5
688
102
{ACAD_REACTORS
330
687
102
}
330
687
100
AcDbXrecord
280
     1
102
RTVSPropertyOp0
 70
     1
102
RTVSPropertyOp1
 70
     1
102
RTVSPropertyOp2
 70
     1
102
RTVSPropertyOp3
 70
     1
102
RTVSPropertyOp4
 70
     1
102
RTVSPropertyOp5
 70
     1
102
RTVSPropertyOp6
 70
     1
102
RTVSPropertyOp7
 70
     1
102
RTVSPropertyOp8
 70
     1
102
RTVSPropertyOp9
 70
     1
102
RTVSPropertyOp10
 70
     1
102
RTVSPropertyOp11
 70
     1
102
RTVSPropertyOp12
 70
     1
102
RTVSPropertyOp13
 70
     1
102
RTVSPropertyOp14
 70
     1
102
RTVSPropertyOp15
 70
     1
102
RTVSPropertyOp16
 70
     1
102
RTVSPropertyOp17
 70
     1
102
RTVSPropertyOp18
 70
     1
102
RTVSPropertyOp19
 70
     1
102
RTVSPropertyOp20
 70
     1
102
RTVSPropertyOp21
 70
     1
102
RTVSPropertyOp22
 70
     1
102
RTVSPropertyOp23
 70
     1
102
RTVSPropertyOp24
 70
     1
102
RTVSPropertyOp25
 70
     1
102
RTVSPropertyOp26
 70
     1
102
RTVSPropertyOp27
 70
     1
102
RTVSPropertyOp28
 70
     1
102
RTVSPropertyOp29
 70
     1
102
RTVSPropertyOp30
 70
     1
102
RTVSPropertyOp31
 70
     1
102
RTVSPropertyOp32
 70
     1
102
RTVSPropertyOp33
 70
     1
102
RTVSPropertyOp34
 70
     1
102
RTVSPropertyOp35
 70
     1
102
RTVSPropertyOp36
 70
     1
102
RTVSPropertyOp37
 70
     1
102
RTVSPropertyOp38
 70
     1
102
RTVSPropertyOp39
 70
     1
102
RTVSPropertyOp40
 70
     1
102
RTVSPropertyOp41
 70
     1
102
RTVSPropertyOp42
 70
     1
102
RTVSPropertyOp43
 70
     1
102
RTVSPropertyOp44
 70
     1
102
RTVSPropertyOp45
 70
     1
102
RTVSPropertyOp46
 70
     1
102
RTVSPropertyOp47
 70
     1
102
RTVSPropertyOp48
 70
     1
102
RTVSPropertyOp49
 70
     1
102
RTVSPropertyOp50
 70
     1
102
RTVSPropertyOp51
 70
     0
102
RTVSPropertyOp52
 70
     0
102
RTVSPropertyOp53
 70
     1
102
RTVSPropertyOp54
 70
     1
102
RTVSPropertyOp55
 70
     1
102
RTVSPropertyOp56
 70
     1
102
RTVSPropertyOp57
 70
     1
102
RTVSPost2010Prop28
280
     0
102
RTVSPost2010PropOp28
 70
     1
102
RTVSPost2010Prop29
280
     1
102
RTVSPost2010PropOp29
 70
     1
102
RTVSPost2010Prop30
280
     1
102
RTVSPost2010PropOp30
 70
     1
102
RTVSPost2010Prop31
280
     0
102
RTVSPost2010PropOp31
 70
     1
102
RTVSPost2010Prop32
280
     0
102
RTVSPost2010PropOp32
 70
     1
102
RTVSPost2010Prop33
280
     0
102
RTVSPost2010PropOp33
 70
     1
102
RTVSPost2010Prop34
280
     0
102
RTVSPost2010PropOp34
 70
     1
102
RTVSPost2010Prop35
280
     0
102
RTVSPost2010PropOp35
 70
     1
102
RTVSPost2010Prop36
280
     0
102
RTVSPost2010PropOp36
 70
     1
102
RTVSPost2010Prop37
 90
       50
102
RTVSPost2010PropOp37
 70
     1
102
RTVSPost2010Prop38
140
0.0
102
RTVSPost2010PropOp38
 70
     1
102
RTVSPost2010Prop39
140
1.0
102
RTVSPost2010PropOp39
 70
     1
102
RTVSPost2010Prop40
 90
        0
102
RTVSPost2010PropOp40
 70
     1
102
RTVSPost2010Prop41ColorIndex
 90
       18
102
RTVSPost2010Prop41ColorRGB
 90
        0
102
RTVSPost2010PropOp41
 70
     1
102
RTVSPost2010Prop42
 90
       50
102
RTVSPost2010PropOp42
 70
     1
102
RTVSPost2010Prop43
 90
        3
102
RTVSPost2010PropOp43
 70
     1
102
RTVSPost2010Prop44ColorIndex
 90
        5
102
RTVSPost2010Prop44ColorRGB
 90
      255
102
RTVSPost2010PropOp44
 70
     1
102
RTVSPost2010Prop45
280
     0
102
RTVSPost2010PropOp45
 70
     1
102
RTVSPost2010Prop46
 90
       50
102
RTVSPost2010PropOp46
 70
     1
102
RTVSPost2010Prop47
 90
       50
102
RTVSPost2010PropOp47
 70
     1
102
RTVSPost2010Prop48
 90
       50
102
RTVSPost2010PropOp48
 70
     1
102
RTVSPost2010Prop49
280
     0
102
RTVSPost2010PropOp49
 70
     1
102
RTVSPost2010Prop50
 90
       50
102
RTVSPost2010PropOp50
 70
     1
102
RTVSPost2010Prop51ColorIndex
 90
      256
102
RTVSPost2010Prop51ColorRGB
 90
-16777216
102
RTVSPost2010PropOp51
 70
     0
102
RTVSPost2010Prop52
140
1.0
102
RTVSPost2010PropOp52
 70
     0
102
RTVSPost2010Prop53
 90
        2
102
RTVSPost2010PropOp53
 70
     1
102
RTVSPost2010Prop54
  1
strokes_ogs.tif
102
RTVSPost2010PropOp54
 70
     1
102
RTVSPost2010Prop55
280
     0
102
RTVSPost2010PropOp55
 70
     1
102
RTVSPost2010Prop56
140
1.0
102
RTVSPost2010PropOp56
 70
     1
102
RTVSPost2010Prop57
140
1.0
102
RTVSPost2010PropOp57
 70
     1
  0
XRECORD
  5
68A
102
{ACAD_REACTORS
330
689
102
}
330
689
100
AcDbXrecord
280
     1
102
RTVSPropertyOp0
 70
     1
102
RTVSPropertyOp1
 70
     1
102
RTVSPropertyOp2
 70
     1
102
RTVSPropertyOp3
 70
     1
102
RTVSPropertyOp4
 70
     1
102
RTVSPropertyOp5
 70
     1
102
RTVSPropertyOp6
 70
     1
102
RTVSPropertyOp7
 70
     1
102
RTVSPropertyOp8
 70
     1
102
RTVSPropertyOp9
 70
     1
102
RTVSPropertyOp10
 70
     1
102
RTVSPropertyOp11
 70
     1
102
RTVSPropertyOp12
 70
     1
102
RTVSPropertyOp13
 70
     1
102
RTVSPropertyOp14
 70
     1
102
RTVSPropertyOp15
 70
     1
102
RTVSPropertyOp16
 70
     1
102
RTVSPropertyOp17
 70
     1
102
RTVSPropertyOp18
 70
     1
102
RTVSPropertyOp19
 70
     1
102
RTVSPropertyOp20
 70
     1
102
RTVSPropertyOp21
 70
     1
102
RTVSPropertyOp22
 70
     1
102
RTVSPropertyOp23
 70
     1
102
RTVSPropertyOp24
 70
     1
102
RTVSPropertyOp25
 70
     1
102
RTVSPropertyOp26
 70
     1
102
RTVSPropertyOp27
 70
     1
102
RTVSPropertyOp28
 70
     1
102
RTVSPropertyOp29
 70
     1
102
RTVSPropertyOp30
 70
     1
102
RTVSPropertyOp31
 70
     1
102
RTVSPropertyOp32
 70
     1
102
RTVSPropertyOp33
 70
     1
102
RTVSPropertyOp34
 70
     1
102
RTVSPropertyOp35
 70
     1
102
RTVSPropertyOp36
 70
     1
102
RTVSPropertyOp37
 70
     1
102
RTVSPropertyOp38
 70
     1
102
RTVSPropertyOp39
 70
     1
102
RTVSPropertyOp40
 70
     1
102
RTVSPropertyOp41
 70
     1
102
RTVSPropertyOp42
 70
     1
102
RTVSPropertyOp43
 70
     1
102
RTVSPropertyOp44
 70
     1
102
RTVSPropertyOp45
 70
     1
102
RTVSPropertyOp46
 70
     1
102
RTVSPropertyOp47
 70
     1
102
RTVSPropertyOp48
 70
     1
102
RTVSPropertyOp49
 70
     1
102
RTVSPropertyOp50
 70
     1
102
RTVSPropertyOp51
 70
     0
102
RTVSPropertyOp52
 70
     0
102
RTVSPropertyOp53
 70
     1
102
RTVSPropertyOp54
 70
     1
102
RTVSPropertyOp55
 70
     1
102
RTVSPropertyOp56
 70
     1
102
RTVSPropertyOp57
 70
     1
102
RTVSPost2010Prop28
280
     0
102
RTVSPost2010PropOp28
 70
     1
102
RTVSPost2010Prop29
280
     1
102
RTVSPost2010PropOp29
 70
     1
102
RTVSPost2010Prop30
280
     1
102
RTVSPost2010PropOp30
 70
     1
102
RTVSPost2010Prop31
280
     0
102
RTVSPost2010PropOp31
 70
     1
102
RTVSPost2010Prop32
280
     0
102
RTVSPost2010PropOp32
 70
     1
102
RTVSPost2010Prop33
280
     0
102
RTVSPost2010PropOp33
 70
     1
102
RTVSPost2010Prop34
280
     0
102
RTVSPost2010PropOp34
 70
     1
102
RTVSPost2010Prop35
280
     0
102
RTVSPost2010PropOp35
 70
     1
102
RTVSPost2010Prop36
280
     0
102
RTVSPost2010PropOp36
 70
     1
102
RTVSPost2010Prop37
 90
       50
102
RTVSPost2010PropOp37
 70
     1
102
RTVSPost2010Prop38
140
0.0
102
RTVSPost2010PropOp38
 70
     1
102
RTVSPost2010Prop39
140
1.0
102
RTVSPost2010PropOp39
 70
     1
102
RTVSPost2010Prop40
 90
        0
102
RTVSPost2010PropOp40
 70
     1
102
RTVSPost2010Prop41ColorIndex
 90
       18
102
RTVSPost2010Prop41ColorRGB
 90
        0
102
RTVSPost2010PropOp41
 70
     1
102
RTVSPost2010Prop42
 90
       50
102
RTVSPost2010PropOp42
 70
     1
102
RTVSPost2010Prop43
 90
        3
102
RTVSPost2010PropOp43
 70
     1
102
RTVSPost2010Prop44ColorIndex
 90
        5
102
RTVSPost2010Prop44ColorRGB
 90
      255
102
RTVSPost2010PropOp44
 70
     1
102
RTVSPost2010Prop45
280
     0
102
RTVSPost2010PropOp45
 70
     1
102
RTVSPost2010Prop46
 90
       50
102
RTVSPost2010PropOp46
 70
     1
102
RTVSPost2010Prop47
 90
       50
102
RTVSPost2010PropOp47
 70
     1
102
RTVSPost2010Prop48
 90
       50
102
RTVSPost2010PropOp48
 70
     1
102
RTVSPost2010Prop49
280
     0
102
RTVSPost2010PropOp49
 70
     1
102
RTVSPost2010Prop50
 90
       50
102
RTVSPost2010PropOp50
 70
     1
102
RTVSPost2010Prop51ColorIndex
 90
      256
102
RTVSPost2010Prop51ColorRGB
 90
-16777216
102
RTVSPost2010PropOp51
 70
     0
102
RTVSPost2010Prop52
140
1.0
102
RTVSPost2010PropOp52
 70
     0
102
RTVSPost2010Prop53
 90
        2
102
RTVSPost2010PropOp53
 70
     1
102
RTVSPost2010Prop54
  1
strokes_ogs.tif
102
RTVSPost2010PropOp54
 70
     1
102
RTVSPost2010Prop55
280
     0
102
RTVSPost2010PropOp55
 70
     1
102
RTVSPost2010Prop56
140
1.0
102
RTVSPost2010PropOp56
 70
     1
102
RTVSPost2010Prop57
140
1.0
102
RTVSPost2010PropOp57
 70
     1
  0
XRECORD
  5
69A
102
{ACAD_REACTORS
330
699
102
}
330
699
100
AcDbXrecord
280
     1
102
RTVSPropertyOp0
 70
     0
102
RTVSPropertyOp1
 70
     0
102
RTVSPropertyOp2
 70
     0
102
RTVSPropertyOp3
 70
     0
102
RTVSPropertyOp4
 70
     0
102
RTVSPropertyOp5
 70
     0
102
RTVSPropertyOp6
 70
     0
102
RTVSPropertyOp7
 70
     0
102
RTVSPropertyOp8
 70
     0
102
RTVSPropertyOp9
 70
     0
102
RTVSPropertyOp10
 70
     0
102
RTVSPropertyOp11
 70
     0
102
RTVSPropertyOp12
 70
     0
102
RTVSPropertyOp13
 70
     0
102
RTVSPropertyOp14
 70
     0
102
RTVSPropertyOp15
 70
     0
102
RTVSPropertyOp16
 70
     0
102
RTVSPropertyOp17
 70
     0
102
RTVSPropertyOp18
 70
     0
102
RTVSPropertyOp19
 70
     0
102
RTVSPropertyOp20
 70
     0
102
RTVSPropertyOp21
 70
     0
102
RTVSPropertyOp22
 70
     0
102
RTVSPropertyOp23
 70
     0
102
RTVSPropertyOp24
 70
     0
102
RTVSPropertyOp25
 70
     0
102
RTVSPropertyOp26
 70
     0
102
RTVSPropertyOp27
 70
     0
102
RTVSPropertyOp28
 70
     1
102
RTVSPropertyOp29
 70
     1
102
RTVSPropertyOp30
 70
     1
102
RTVSPropertyOp31
 70
     1
102
RTVSPropertyOp32
 70
     1
102
RTVSPropertyOp33
 70
     1
102
RTVSPropertyOp34
 70
     1
102
RTVSPropertyOp35
 70
     1
102
RTVSPropertyOp36
 70
     1
102
RTVSPropertyOp37
 70
     1
102
RTVSPropertyOp38
 70
     1
102
RTVSPropertyOp39
 70
     1
102
RTVSPropertyOp40
 70
     1
102
RTVSPropertyOp41
 70
     1
102
RTVSPropertyOp42
 70
     1
102
RTVSPropertyOp43
 70
     1
102
RTVSPropertyOp44
 70
     1
102
RTVSPropertyOp45
 70
     1
102
RTVSPropertyOp46
 70
     1
102
RTVSPropertyOp47
 70
     1
102
RTVSPropertyOp48
 70
     1
102
RTVSPropertyOp49
 70
     1
102
RTVSPropertyOp50
 70
     1
102
RTVSPropertyOp51
 70
     0
102
RTVSPropertyOp52
 70
     0
102
RTVSPropertyOp53
 70
     1
102
RTVSPropertyOp54
 70
     1
102
RTVSPropertyOp55
 70
     1
102
RTVSPropertyOp56
 70
     1
102
RTVSPropertyOp57
 70
     1
102
RTVSPost2010Prop28
280
     0
102
RTVSPost2010PropOp28
 70
     1
102
RTVSPost2010Prop29
280
     1
102
RTVSPost2010PropOp29
 70
     1
102
RTVSPost2010Prop30
280
     1
102
RTVSPost2010PropOp30
 70
     1
102
RTVSPost2010Prop31
280
     0
102
RTVSPost2010PropOp31
 70
     1
102
RTVSPost2010Prop32
280
     0
102
RTVSPost2010PropOp32
 70
     1
102
RTVSPost2010Prop33
280
     0
102
RTVSPost2010PropOp33
 70
     1
102
RTVSPost2010Prop34
280
     0
102
RTVSPost2010PropOp34
 70
     1
102
RTVSPost2010Prop35
280
     0
102
RTVSPost2010PropOp35
 70
     1
102
RTVSPost2010Prop36
280
     0
102
RTVSPost2010PropOp36
 70
     1
102
RTVSPost2010Prop37
 90
       50
102
RTVSPost2010PropOp37
 70
     1
102
RTVSPost2010Prop38
140
0.0
102
RTVSPost2010PropOp38
 70
     1
102
RTVSPost2010Prop39
140
1.0
102
RTVSPost2010PropOp39
 70
     1
102
RTVSPost2010Prop40
 90
        0
102
RTVSPost2010PropOp40
 70
     1
102
RTVSPost2010Prop41ColorIndex
 90
       18
102
RTVSPost2010Prop41ColorRGB
 90
        0
102
RTVSPost2010PropOp41
 70
     1
102
RTVSPost2010Prop42
 90
       50
102
RTVSPost2010PropOp42
 70
     1
102
RTVSPost2010Prop43
 90
        3
102
RTVSPost2010PropOp43
 70
     1
102
RTVSPost2010Prop44ColorIndex
 90
        5
102
RTVSPost2010Prop44ColorRGB
 90
      255
102
RTVSPost2010PropOp44
 70
     1
102
RTVSPost2010Prop45
280
     0
102
RTVSPost2010PropOp45
 70
     1
102
RTVSPost2010Prop46
 90
       50
102
RTVSPost2010PropOp46
 70
     1
102
RTVSPost2010Prop47
 90
       50
102
RTVSPost2010PropOp47
 70
     1
102
RTVSPost2010Prop48
 90
       50
102
RTVSPost2010PropOp48
 70
     1
102
RTVSPost2010Prop49
280
     0
102
RTVSPost2010PropOp49
 70
     1
102
RTVSPost2010Prop50
 90
       50
102
RTVSPost2010PropOp50
 70
     1
102
RTVSPost2010Prop51ColorIndex
 90
      256
102
RTVSPost2010Prop51ColorRGB
 90
-16777216
102
RTVSPost2010PropOp51
 70
     0
102
RTVSPost2010Prop52
140
1.0
102
RTVSPost2010PropOp52
 70
     0
102
RTVSPost2010Prop53
 90
        2
102
RTVSPost2010PropOp53
 70
     1
102
RTVSPost2010Prop54
  1
strokes_ogs.tif
102
RTVSPost2010PropOp54
 70
     1
102
RTVSPost2010Prop55
280
     0
102
RTVSPost2010PropOp55
 70
     1
102
RTVSPost2010Prop56
140
1.0
102
RTVSPost2010PropOp56
 70
     1
102
RTVSPost2010Prop57
140
1.0
102
RTVSPost2010PropOp57
 70
     1
  0
XRECORD
  5
692
102
{ACAD_REACTORS
330
691
102
}
330
691
100
AcDbXrecord
280
     1
102
RTVSPropertyOp0
 70
     1
102
RTVSPropertyOp1
 70
     1
102
RTVSPropertyOp2
 70
     1
102
RTVSPropertyOp3
 70
     1
102
RTVSPropertyOp4
 70
     1
102
RTVSPropertyOp5
 70
     1
102
RTVSPropertyOp6
 70
     1
102
RTVSPropertyOp7
 70
     1
102
RTVSPropertyOp8
 70
     1
102
RTVSPropertyOp9
 70
     1
102
RTVSPropertyOp10
 70
     1
102
RTVSPropertyOp11
 70
     1
102
RTVSPropertyOp12
 70
     1
102
RTVSPropertyOp13
 70
     1
102
RTVSPropertyOp14
 70
     1
102
RTVSPropertyOp15
 70
     1
102
RTVSPropertyOp16
 70
     1
102
RTVSPropertyOp17
 70
     1
102
RTVSPropertyOp18
 70
     1
102
RTVSPropertyOp19
 70
     1
102
RTVSPropertyOp20
 70
     1
102
RTVSPropertyOp21
 70
     1
102
RTVSPropertyOp22
 70
     1
102
RTVSPropertyOp23
 70
     1
102
RTVSPropertyOp24
 70
     1
102
RTVSPropertyOp25
 70
     1
102
RTVSPropertyOp26
 70
     1
102
RTVSPropertyOp27
 70
     1
102
RTVSPropertyOp28
 70
     1
102
RTVSPropertyOp29
 70
     1
102
RTVSPropertyOp30
 70
     1
102
RTVSPropertyOp31
 70
     1
102
RTVSPropertyOp32
 70
     1
102
RTVSPropertyOp33
 70
     1
102
RTVSPropertyOp34
 70
     1
102
RTVSPropertyOp35
 70
     1
102
RTVSPropertyOp36
 70
     1
102
RTVSPropertyOp37
 70
     1
102
RTVSPropertyOp38
 70
     1
102
RTVSPropertyOp39
 70
     1
102
RTVSPropertyOp40
 70
     1
102
RTVSPropertyOp41
 70
     1
102
RTVSPropertyOp42
 70
     1
102
RTVSPropertyOp43
 70
     1
102
RTVSPropertyOp44
 70
     1
102
RTVSPropertyOp45
 70
     1
102
RTVSPropertyOp46
 70
     1
102
RTVSPropertyOp47
 70
     1
102
RTVSPropertyOp48
 70
     1
102
RTVSPropertyOp49
 70
     1
102
RTVSPropertyOp50
 70
     1
102
RTVSPropertyOp51
 70
     0
102
RTVSPropertyOp52
 70
     0
102
RTVSPropertyOp53
 70
     1
102
RTVSPropertyOp54
 70
     1
102
RTVSPropertyOp55
 70
     1
102
RTVSPropertyOp56
 70
     1
102
RTVSPropertyOp57
 70
     1
102
RTVSPost2010Prop28
280
     0
102
RTVSPost2010PropOp28
 70
     1
102
RTVSPost2010Prop29
280
     1
102
RTVSPost2010PropOp29
 70
     1
102
RTVSPost2010Prop30
280
     1
102
RTVSPost2010PropOp30
 70
     1
102
RTVSPost2010Prop31
280
     0
102
RTVSPost2010PropOp31
 70
     1
102
RTVSPost2010Prop32
280
     0
102
RTVSPost2010PropOp32
 70
     1
102
RTVSPost2010Prop33
280
     0
102
RTVSPost2010PropOp33
 70
     1
102
RTVSPost2010Prop34
280
     0
102
RTVSPost2010PropOp34
 70
     1
102
RTVSPost2010Prop35
280
     0
102
RTVSPost2010PropOp35
 70
     1
102
RTVSPost2010Prop36
280
     0
102
RTVSPost2010PropOp36
 70
     1
102
RTVSPost2010Prop37
 90
       50
102
RTVSPost2010PropOp37
 70
     1
102
RTVSPost2010Prop38
140
0.0
102
RTVSPost2010PropOp38
 70
     1
102
RTVSPost2010Prop39
140
1.0
102
RTVSPost2010PropOp39
 70
     1
102
RTVSPost2010Prop40
 90
        0
102
RTVSPost2010PropOp40
 70
     1
102
RTVSPost2010Prop41ColorIndex
 90
       18
102
RTVSPost2010Prop41ColorRGB
 90
        0
102
RTVSPost2010PropOp41
 70
     1
102
RTVSPost2010Prop42
 90
       50
102
RTVSPost2010PropOp42
 70
     1
102
RTVSPost2010Prop43
 90
        3
102
RTVSPost2010PropOp43
 70
     1
102
RTVSPost2010Prop44ColorIndex
 90
        5
102
RTVSPost2010Prop44ColorRGB
 90
      255
102
RTVSPost2010PropOp44
 70
     1
102
RTVSPost2010Prop45
280
     0
102
RTVSPost2010PropOp45
 70
     1
102
RTVSPost2010Prop46
 90
       50
102
RTVSPost2010PropOp46
 70
     1
102
RTVSPost2010Prop47
 90
       50
102
RTVSPost2010PropOp47
 70
     1
102
RTVSPost2010Prop48
 90
       50
102
RTVSPost2010PropOp48
 70
     1
102
RTVSPost2010Prop49
280
     0
102
RTVSPost2010PropOp49
 70
     1
102
RTVSPost2010Prop50
 90
       50
102
RTVSPost2010PropOp50
 70
     1
102
RTVSPost2010Prop51ColorIndex
 90
      256
102
RTVSPost2010Prop51ColorRGB
 90
-16777216
102
RTVSPost2010PropOp51
 70
     0
102
RTVSPost2010Prop52
140
1.0
102
RTVSPost2010PropOp52
 70
     0
102
RTVSPost2010Prop53
 90
        2
102
RTVSPost2010PropOp53
 70
     1
102
RTVSPost2010Prop54
  1
strokes_ogs.tif
102
RTVSPost2010PropOp54
 70
     1
102
RTVSPost2010Prop55
280
     0
102
RTVSPost2010PropOp55
 70
     1
102
RTVSPost2010Prop56
140
1.0
102
RTVSPost2010PropOp56
 70
     1
102
RTVSPost2010Prop57
140
1.0
102
RTVSPost2010PropOp57
 70
     1
  0
XRECORD
  5
67A
102
{ACAD_REACTORS
330
679
102
}
330
679
100
AcDbXrecord
280
     1
102
RTVSPropertyOp0
 70
     1
102
RTVSPropertyOp1
 70
     1
102
RTVSPropertyOp2
 70
     1
102
RTVSPropertyOp3
 70
     1
102
RTVSPropertyOp4
 70
     1
102
RTVSPropertyOp5
 70
     1
102
RTVSPropertyOp6
 70
     1
102
RTVSPropertyOp7
 70
     1
102
RTVSPropertyOp8
 70
     1
102
RTVSPropertyOp9
 70
     1
102
RTVSPropertyOp10
 70
     1
102
RTVSPropertyOp11
 70
     1
102
RTVSPropertyOp12
 70
     1
102
RTVSPropertyOp13
 70
     1
102
RTVSPropertyOp14
 70
     1
102
RTVSPropertyOp15
 70
     1
102
RTVSPropertyOp16
 70
     1
102
RTVSPropertyOp17
 70
     1
102
RTVSPropertyOp18
 70
     1
102
RTVSPropertyOp19
 70
     1
102
RTVSPropertyOp20
 70
     1
102
RTVSPropertyOp21
 70
     1
102
RTVSPropertyOp22
 70
     1
102
RTVSPropertyOp23
 70
     1
102
RTVSPropertyOp24
 70
     1
102
RTVSPropertyOp25
 70
     1
102
RTVSPropertyOp26
 70
     1
102
RTVSPropertyOp27
 70
     1
102
RTVSPropertyOp28
 70
     1
102
RTVSPropertyOp29
 70
     1
102
RTVSPropertyOp30
 70
     1
102
RTVSPropertyOp31
 70
     1
102
RTVSPropertyOp32
 70
     1
102
RTVSPropertyOp33
 70
     1
102
RTVSPropertyOp34
 70
     1
102
RTVSPropertyOp35
 70
     1
102
RTVSPropertyOp36
 70
     1
102
RTVSPropertyOp37
 70
     1
102
RTVSPropertyOp38
 70
     1
102
RTVSPropertyOp39
 70
     1
102
RTVSPropertyOp40
 70
     1
102
RTVSPropertyOp41
 70
     1
102
RTVSPropertyOp42
 70
     1
102
RTVSPropertyOp43
 70
     1
102
RTVSPropertyOp44
 70
     1
102
RTVSPropertyOp45
 70
     1
102
RTVSPropertyOp46
 70
     1
102
RTVSPropertyOp47
 70
     1
102
RTVSPropertyOp48
 70
     1
102
RTVSPropertyOp49
 70
     1
102
RTVSPropertyOp50
 70
     1
102
RTVSPropertyOp51
 70
     0
102
RTVSPropertyOp52
 70
     0
102
RTVSPropertyOp53
 70
     1
102
RTVSPropertyOp54
 70
     1
102
RTVSPropertyOp55
 70
     1
102
RTVSPropertyOp56
 70
     1
102
RTVSPropertyOp57
 70
     1
102
RTVSPost2010Prop28
280
     0
102
RTVSPost2010PropOp28
 70
     1
102
RTVSPost2010Prop29
280
     1
102
RTVSPost2010PropOp29
 70
     1
102
RTVSPost2010Prop30
280
     1
102
RTVSPost2010PropOp30
 70
     1
102
RTVSPost2010Prop31
280
     0
102
RTVSPost2010PropOp31
 70
     1
102
RTVSPost2010Prop32
280
     0
102
RTVSPost2010PropOp32
 70
     1
102
RTVSPost2010Prop33
280
     0
102
RTVSPost2010PropOp33
 70
     1
102
RTVSPost2010Prop34
280
     0
102
RTVSPost2010PropOp34
 70
     1
102
RTVSPost2010Prop35
280
     0
102
RTVSPost2010PropOp35
 70
     1
102
RTVSPost2010Prop36
280
     0
102
RTVSPost2010PropOp36
 70
     1
102
RTVSPost2010Prop37
 90
       50
102
RTVSPost2010PropOp37
 70
     1
102
RTVSPost2010Prop38
140
0.0
102
RTVSPost2010PropOp38
 70
     1
102
RTVSPost2010Prop39
140
1.0
102
RTVSPost2010PropOp39
 70
     1
102
RTVSPost2010Prop40
 90
        0
102
RTVSPost2010PropOp40
 70
     1
102
RTVSPost2010Prop41ColorIndex
 90
       18
102
RTVSPost2010Prop41ColorRGB
 90
        0
102
RTVSPost2010PropOp41
 70
     1
102
RTVSPost2010Prop42
 90
       50
102
RTVSPost2010PropOp42
 70
     1
102
RTVSPost2010Prop43
 90
        3
102
RTVSPost2010PropOp43
 70
     1
102
RTVSPost2010Prop44ColorIndex
 90
        5
102
RTVSPost2010Prop44ColorRGB
 90
      255
102
RTVSPost2010PropOp44
 70
     1
102
RTVSPost2010Prop45
280
     0
102
RTVSPost2010PropOp45
 70
     1
102
RTVSPost2010Prop46
 90
       50
102
RTVSPost2010PropOp46
 70
     1
102
RTVSPost2010Prop47
 90
       50
102
RTVSPost2010PropOp47
 70
     1
102
RTVSPost2010Prop48
 90
       50
102
RTVSPost2010PropOp48
 70
     1
102
RTVSPost2010Prop49
280
     0
102
RTVSPost2010PropOp49
 70
     1
102
RTVSPost2010Prop50
 90
       50
102
RTVSPost2010PropOp50
 70
     1
102
RTVSPost2010Prop51ColorIndex
 90
      256
102
RTVSPost2010Prop51ColorRGB
 90
-16777216
102
RTVSPost2010PropOp51
 70
     0
102
RTVSPost2010Prop52
140
1.0
102
RTVSPost2010PropOp52
 70
     0
102
RTVSPost2010Prop53
 90
        2
102
RTVSPost2010PropOp53
 70
     1
102
RTVSPost2010Prop54
  1
strokes_ogs.tif
102
RTVSPost2010PropOp54
 70
     1
102
RTVSPost2010Prop55
280
     0
102
RTVSPost2010PropOp55
 70
     1
102
RTVSPost2010Prop56
140
1.0
102
RTVSPost2010PropOp56
 70
     1
102
RTVSPost2010Prop57
140
1.0
102
RTVSPost2010PropOp57
 70
     1
  0
XRECORD
  5
67C
102
{ACAD_REACTORS
330
67B
102
}
330
67B
100
AcDbXrecord
280
     1
102
RTVSPropertyOp0
 70
     1
102
RTVSPropertyOp1
 70
     1
102
RTVSPropertyOp2
 70
     1
102
RTVSPropertyOp3
 70
     1
102
RTVSPropertyOp4
 70
     1
102
RTVSPropertyOp5
 70
     1
102
RTVSPropertyOp6
 70
     1
102
RTVSPropertyOp7
 70
     1
102
RTVSPropertyOp8
 70
     1
102
RTVSPropertyOp9
 70
     1
102
RTVSPropertyOp10
 70
     1
102
RTVSPropertyOp11
 70
     1
102
RTVSPropertyOp12
 70
     1
102
RTVSPropertyOp13
 70
     1
102
RTVSPropertyOp14
 70
     1
102
RTVSPropertyOp15
 70
     1
102
RTVSPropertyOp16
 70
     1
102
RTVSPropertyOp17
 70
     1
102
RTVSPropertyOp18
 70
     1
102
RTVSPropertyOp19
 70
     1
102
RTVSPropertyOp20
 70
     1
102
RTVSPropertyOp21
 70
     1
102
RTVSPropertyOp22
 70
     1
102
RTVSPropertyOp23
 70
     1
102
RTVSPropertyOp24
 70
     1
102
RTVSPropertyOp25
 70
     1
102
RTVSPropertyOp26
 70
     1
102
RTVSPropertyOp27
 70
     1
102
RTVSPropertyOp28
 70
     1
102
RTVSPropertyOp29
 70
     1
102
RTVSPropertyOp30
 70
     1
102
RTVSPropertyOp31
 70
     1
102
RTVSPropertyOp32
 70
     1
102
RTVSPropertyOp33
 70
     1
102
RTVSPropertyOp34
 70
     1
102
RTVSPropertyOp35
 70
     1
102
RTVSPropertyOp36
 70
     1
102
RTVSPropertyOp37
 70
     1
102
RTVSPropertyOp38
 70
     1
102
RTVSPropertyOp39
 70
     1
102
RTVSPropertyOp40
 70
     1
102
RTVSPropertyOp41
 70
     1
102
RTVSPropertyOp42
 70
     1
102
RTVSPropertyOp43
 70
     1
102
RTVSPropertyOp44
 70
     1
102
RTVSPropertyOp45
 70
     1
102
RTVSPropertyOp46
 70
     1
102
RTVSPropertyOp47
 70
     1
102
RTVSPropertyOp48
 70
     1
102
RTVSPropertyOp49
 70
     1
102
RTVSPropertyOp50
 70
     1
102
RTVSPropertyOp51
 70
     0
102
RTVSPropertyOp52
 70
     0
102
RTVSPropertyOp53
 70
     1
102
RTVSPropertyOp54
 70
     1
102
RTVSPropertyOp55
 70
     1
102
RTVSPropertyOp56
 70
     1
102
RTVSPropertyOp57
 70
     1
102
RTVSPost2010Prop28
280
     0
102
RTVSPost2010PropOp28
 70
     1
102
RTVSPost2010Prop29
280
     1
102
RTVSPost2010PropOp29
 70
     1
102
RTVSPost2010Prop30
280
     1
102
RTVSPost2010PropOp30
 70
     1
102
RTVSPost2010Prop31
280
     0
102
RTVSPost2010PropOp31
 70
     1
102
RTVSPost2010Prop32
280
     0
102
RTVSPost2010PropOp32
 70
     1
102
RTVSPost2010Prop33
280
     0
102
RTVSPost2010PropOp33
 70
     1
102
RTVSPost2010Prop34
280
     0
102
RTVSPost2010PropOp34
 70
     1
102
RTVSPost2010Prop35
280
     0
102
RTVSPost2010PropOp35
 70
     1
102
RTVSPost2010Prop36
280
     0
102
RTVSPost2010PropOp36
 70
     1
102
RTVSPost2010Prop37
 90
       50
102
RTVSPost2010PropOp37
 70
     1
102
RTVSPost2010Prop38
140
0.0
102
RTVSPost2010PropOp38
 70
     1
102
RTVSPost2010Prop39
140
1.0
102
RTVSPost2010PropOp39
 70
     1
102
RTVSPost2010Prop40
 90
        0
102
RTVSPost2010PropOp40
 70
     1
102
RTVSPost2010Prop41ColorIndex
 90
       18
102
RTVSPost2010Prop41ColorRGB
 90
        0
102
RTVSPost2010PropOp41
 70
     1
102
RTVSPost2010Prop42
 90
       50
102
RTVSPost2010PropOp42
 70
     1
102
RTVSPost2010Prop43
 90
        3
102
RTVSPost2010PropOp43
 70
     1
102
RTVSPost2010Prop44ColorIndex
 90
        5
102
RTVSPost2010Prop44ColorRGB
 90
      255
102
RTVSPost2010PropOp44
 70
     1
102
RTVSPost2010Prop45
280
     0
102
RTVSPost2010PropOp45
 70
     1
102
RTVSPost2010Prop46
 90
       50
102
RTVSPost2010PropOp46
 70
     1
102
RTVSPost2010Prop47
 90
       50
102
RTVSPost2010PropOp47
 70
     1
102
RTVSPost2010Prop48
 90
       50
102
RTVSPost2010PropOp48
 70
     1
102
RTVSPost2010Prop49
280
     0
102
RTVSPost2010PropOp49
 70
     1
102
RTVSPost2010Prop50
 90
       50
102
RTVSPost2010PropOp50
 70
     1
102
RTVSPost2010Prop51ColorIndex
 90
      256
102
RTVSPost2010Prop51ColorRGB
 90
-16777216
102
RTVSPost2010PropOp51
 70
     0
102
RTVSPost2010Prop52
140
1.0
102
RTVSPost2010PropOp52
 70
     0
102
RTVSPost2010Prop53
 90
        2
102
RTVSPost2010PropOp53
 70
     1
102
RTVSPost2010Prop54
  1
strokes_ogs.tif
102
RTVSPost2010PropOp54
 70
     1
102
RTVSPost2010Prop55
280
     0
102
RTVSPost2010PropOp55
 70
     1
102
RTVSPost2010Prop56
140
1.0
102
RTVSPost2010PropOp56
 70
     1
102
RTVSPost2010Prop57
140
1.0
102
RTVSPost2010PropOp57
 70
     1
  0
XRECORD
  5
67E
102
{ACAD_REACTORS
330
67D
102
}
330
67D
100
AcDbXrecord
280
     1
102
RTVSPropertyOp0
 70
     1
102
RTVSPropertyOp1
 70
     1
102
RTVSPropertyOp2
 70
     1
102
RTVSPropertyOp3
 70
     1
102
RTVSPropertyOp4
 70
     1
102
RTVSPropertyOp5
 70
     1
102
RTVSPropertyOp6
 70
     1
102
RTVSPropertyOp7
 70
     1
102
RTVSPropertyOp8
 70
     1
102
RTVSPropertyOp9
 70
     1
102
RTVSPropertyOp10
 70
     1
102
RTVSPropertyOp11
 70
     1
102
RTVSPropertyOp12
 70
     1
102
RTVSPropertyOp13
 70
     1
102
RTVSPropertyOp14
 70
     1
102
RTVSPropertyOp15
 70
     1
102
RTVSPropertyOp16
 70
     1
102
RTVSPropertyOp17
 70
     1
102
RTVSPropertyOp18
 70
     1
102
RTVSPropertyOp19
 70
     1
102
RTVSPropertyOp20
 70
     1
102
RTVSPropertyOp21
 70
     1
102
RTVSPropertyOp22
 70
     1
102
RTVSPropertyOp23
 70
     1
102
RTVSPropertyOp24
 70
     1
102
RTVSPropertyOp25
 70
     1
102
RTVSPropertyOp26
 70
     1
102
RTVSPropertyOp27
 70
     1
102
RTVSPropertyOp28
 70
     1
102
RTVSPropertyOp29
 70
     1
102
RTVSPropertyOp30
 70
     1
102
RTVSPropertyOp31
 70
     1
102
RTVSPropertyOp32
 70
     1
102
RTVSPropertyOp33
 70
     1
102
RTVSPropertyOp34
 70
     1
102
RTVSPropertyOp35
 70
     1
102
RTVSPropertyOp36
 70
     1
102
RTVSPropertyOp37
 70
     1
102
RTVSPropertyOp38
 70
     1
102
RTVSPropertyOp39
 70
     1
102
RTVSPropertyOp40
 70
     1
102
RTVSPropertyOp41
 70
     1
102
RTVSPropertyOp42
 70
     1
102
RTVSPropertyOp43
 70
     1
102
RTVSPropertyOp44
 70
     1
102
RTVSPropertyOp45
 70
     1
102
RTVSPropertyOp46
 70
     1
102
RTVSPropertyOp47
 70
     1
102
RTVSPropertyOp48
 70
     1
102
RTVSPropertyOp49
 70
     1
102
RTVSPropertyOp50
 70
     1
102
RTVSPropertyOp51
 70
     0
102
RTVSPropertyOp52
 70
     0
102
RTVSPropertyOp53
 70
     1
102
RTVSPropertyOp54
 70
     1
102
RTVSPropertyOp55
 70
     1
102
RTVSPropertyOp56
 70
     1
102
RTVSPropertyOp57
 70
     1
102
RTVSPost2010Prop28
280
     0
102
RTVSPost2010PropOp28
 70
     1
102
RTVSPost2010Prop29
280
     1
102
RTVSPost2010PropOp29
 70
     1
102
RTVSPost2010Prop30
280
     1
102
RTVSPost2010PropOp30
 70
     1
102
RTVSPost2010Prop31
280
     0
102
RTVSPost2010PropOp31
 70
     1
102
RTVSPost2010Prop32
280
     0
102
RTVSPost2010PropOp32
 70
     1
102
RTVSPost2010Prop33
280
     0
102
RTVSPost2010PropOp33
 70
     1
102
RTVSPost2010Prop34
280
     0
102
RTVSPost2010PropOp34
 70
     1
102
RTVSPost2010Prop35
280
     0
102
RTVSPost2010PropOp35
 70
     1
102
RTVSPost2010Prop36
280
     0
102
RTVSPost2010PropOp36
 70
     1
102
RTVSPost2010Prop37
 90
       50
102
RTVSPost2010PropOp37
 70
     1
102
RTVSPost2010Prop38
140
0.0
102
RTVSPost2010PropOp38
 70
     1
102
RTVSPost2010Prop39
140
1.0
102
RTVSPost2010PropOp39
 70
     1
102
RTVSPost2010Prop40
 90
        0
102
RTVSPost2010PropOp40
 70
     1
102
RTVSPost2010Prop41ColorIndex
 90
       18
102
RTVSPost2010Prop41ColorRGB
 90
        0
102
RTVSPost2010PropOp41
 70
     1
102
RTVSPost2010Prop42
 90
       50
102
RTVSPost2010PropOp42
 70
     1
102
RTVSPost2010Prop43
 90
        3
102
RTVSPost2010PropOp43
 70
     1
102
RTVSPost2010Prop44ColorIndex
 90
        5
102
RTVSPost2010Prop44ColorRGB
 90
      255
102
RTVSPost2010PropOp44
 70
     1
102
RTVSPost2010Prop45
280
     0
102
RTVSPost2010PropOp45
 70
     1
102
RTVSPost2010Prop46
 90
       50
102
RTVSPost2010PropOp46
 70
     1
102
RTVSPost2010Prop47
 90
       50
102
RTVSPost2010PropOp47
 70
     1
102
RTVSPost2010Prop48
 90
       50
102
RTVSPost2010PropOp48
 70
     1
102
RTVSPost2010Prop49
280
     0
102
RTVSPost2010PropOp49
 70
     1
102
RTVSPost2010Prop50
 90
       50
102
RTVSPost2010PropOp50
 70
     1
102
RTVSPost2010Prop51ColorIndex
 90
      256
102
RTVSPost2010Prop51ColorRGB
 90
-16777216
102
RTVSPost2010PropOp51
 70
     0
102
RTVSPost2010Prop52
140
1.0
102
RTVSPost2010PropOp52
 70
     0
102
RTVSPost2010Prop53
 90
        2
102
RTVSPost2010PropOp53
 70
     1
102
RTVSPost2010Prop54
  1
strokes_ogs.tif
102
RTVSPost2010PropOp54
 70
     1
102
RTVSPost2010Prop55
280
     0
102
RTVSPost2010PropOp55
 70
     1
102
RTVSPost2010Prop56
140
1.0
102
RTVSPost2010PropOp56
 70
     1
102
RTVSPost2010Prop57
140
1.0
102
RTVSPost2010PropOp57
 70
     1
  0
XRECORD
  5
680
102
{ACAD_REACTORS
330
67F
102
}
330
67F
100
AcDbXrecord
280
     1
102
RTVSPropertyOp0
 70
     1
102
RTVSPropertyOp1
 70
     1
102
RTVSPropertyOp2
 70
     1
102
RTVSPropertyOp3
 70
     1
102
RTVSPropertyOp4
 70
     1
102
RTVSPropertyOp5
 70
     1
102
RTVSPropertyOp6
 70
     1
102
RTVSPropertyOp7
 70
     1
102
RTVSPropertyOp8
 70
     1
102
RTVSPropertyOp9
 70
     1
102
RTVSPropertyOp10
 70
     1
102
RTVSPropertyOp11
 70
     1
102
RTVSPropertyOp12
 70
     1
102
RTVSPropertyOp13
 70
     1
102
RTVSPropertyOp14
 70
     1
102
RTVSPropertyOp15
 70
     1
102
RTVSPropertyOp16
 70
     1
102
RTVSPropertyOp17
 70
     1
102
RTVSPropertyOp18
 70
     1
102
RTVSPropertyOp19
 70
     1
102
RTVSPropertyOp20
 70
     1
102
RTVSPropertyOp21
 70
     1
102
RTVSPropertyOp22
 70
     1
102
RTVSPropertyOp23
 70
     1
102
RTVSPropertyOp24
 70
     1
102
RTVSPropertyOp25
 70
     1
102
RTVSPropertyOp26
 70
     1
102
RTVSPropertyOp27
 70
     1
102
RTVSPropertyOp28
 70
     1
102
RTVSPropertyOp29
 70
     1
102
RTVSPropertyOp30
 70
     1
102
RTVSPropertyOp31
 70
     1
102
RTVSPropertyOp32
 70
     1
102
RTVSPropertyOp33
 70
     1
102
RTVSPropertyOp34
 70
     1
102
RTVSPropertyOp35
 70
     1
102
RTVSPropertyOp36
 70
     1
102
RTVSPropertyOp37
 70
     1
102
RTVSPropertyOp38
 70
     1
102
RTVSPropertyOp39
 70
     1
102
RTVSPropertyOp40
 70
     1
102
RTVSPropertyOp41
 70
     1
102
RTVSPropertyOp42
 70
     1
102
RTVSPropertyOp43
 70
     1
102
RTVSPropertyOp44
 70
     1
102
RTVSPropertyOp45
 70
     1
102
RTVSPropertyOp46
 70
     1
102
RTVSPropertyOp47
 70
     1
102
RTVSPropertyOp48
 70
     1
102
RTVSPropertyOp49
 70
     1
102
RTVSPropertyOp50
 70
     1
102
RTVSPropertyOp51
 70
     0
102
RTVSPropertyOp52
 70
     0
102
RTVSPropertyOp53
 70
     1
102
RTVSPropertyOp54
 70
     1
102
RTVSPropertyOp55
 70
     1
102
RTVSPropertyOp56
 70
     1
102
RTVSPropertyOp57
 70
     1
102
RTVSPost2010Prop28
280
     0
102
RTVSPost2010PropOp28
 70
     1
102
RTVSPost2010Prop29
280
     1
102
RTVSPost2010PropOp29
 70
     1
102
RTVSPost2010Prop30
280
     1
102
RTVSPost2010PropOp30
 70
     1
102
RTVSPost2010Prop31
280
     0
102
RTVSPost2010PropOp31
 70
     1
102
RTVSPost2010Prop32
280
     0
102
RTVSPost2010PropOp32
 70
     1
102
RTVSPost2010Prop33
280
     0
102
RTVSPost2010PropOp33
 70
     1
102
RTVSPost2010Prop34
280
     0
102
RTVSPost2010PropOp34
 70
     1
102
RTVSPost2010Prop35
280
     0
102
RTVSPost2010PropOp35
 70
     1
102
RTVSPost2010Prop36
280
     0
102
RTVSPost2010PropOp36
 70
     1
102
RTVSPost2010Prop37
 90
       50
102
RTVSPost2010PropOp37
 70
     1
102
RTVSPost2010Prop38
140
0.0
102
RTVSPost2010PropOp38
 70
     1
102
RTVSPost2010Prop39
140
1.0
102
RTVSPost2010PropOp39
 70
     1
102
RTVSPost2010Prop40
 90
        0
102
RTVSPost2010PropOp40
 70
     1
102
RTVSPost2010Prop41ColorIndex
 90
       18
102
RTVSPost2010Prop41ColorRGB
 90
        0
102
RTVSPost2010PropOp41
 70
     1
102
RTVSPost2010Prop42
 90
       50
102
RTVSPost2010PropOp42
 70
     1
102
RTVSPost2010Prop43
 90
        3
102
RTVSPost2010PropOp43
 70
     1
102
RTVSPost2010Prop44ColorIndex
 90
        5
102
RTVSPost2010Prop44ColorRGB
 90
      255
102
RTVSPost2010PropOp44
 70
     1
102
RTVSPost2010Prop45
280
     0
102
RTVSPost2010PropOp45
 70
     1
102
RTVSPost2010Prop46
 90
       50
102
RTVSPost2010PropOp46
 70
     1
102
RTVSPost2010Prop47
 90
       50
102
RTVSPost2010PropOp47
 70
     1
102
RTVSPost2010Prop48
 90
       50
102
RTVSPost2010PropOp48
 70
     1
102
RTVSPost2010Prop49
280
     0
102
RTVSPost2010PropOp49
 70
     1
102
RTVSPost2010Prop50
 90
       50
102
RTVSPost2010PropOp50
 70
     1
102
RTVSPost2010Prop51ColorIndex
 90
      256
102
RTVSPost2010Prop51ColorRGB
 90
-16777216
102
RTVSPost2010PropOp51
 70
     0
102
RTVSPost2010Prop52
140
1.0
102
RTVSPost2010PropOp52
 70
     0
102
RTVSPost2010Prop53
 90
        2
102
RTVSPost2010PropOp53
 70
     1
102
RTVSPost2010Prop54
  1
strokes_ogs.tif
102
RTVSPost2010PropOp54
 70
     1
102
RTVSPost2010Prop55
280
     0
102
RTVSPost2010PropOp55
 70
     1
102
RTVSPost2010Prop56
140
1.0
102
RTVSPost2010PropOp56
 70
     1
102
RTVSPost2010Prop57
140
1.0
102
RTVSPost2010PropOp57
 70
     1
  0
XRECORD
  5
684
102
{ACAD_REACTORS
330
683
102
}
330
683
100
AcDbXrecord
280
     1
102
RTVSPropertyOp0
 70
     1
102
RTVSPropertyOp1
 70
     1
102
RTVSPropertyOp2
 70
     1
102
RTVSPropertyOp3
 70
     1
102
RTVSPropertyOp4
 70
     1
102
RTVSPropertyOp5
 70
     1
102
RTVSPropertyOp6
 70
     1
102
RTVSPropertyOp7
 70
     1
102
RTVSPropertyOp8
 70
     1
102
RTVSPropertyOp9
 70
     1
102
RTVSPropertyOp10
 70
     1
102
RTVSPropertyOp11
 70
     1
102
RTVSPropertyOp12
 70
     1
102
RTVSPropertyOp13
 70
     1
102
RTVSPropertyOp14
 70
     1
102
RTVSPropertyOp15
 70
     1
102
RTVSPropertyOp16
 70
     1
102
RTVSPropertyOp17
 70
     1
102
RTVSPropertyOp18
 70
     1
102
RTVSPropertyOp19
 70
     1
102
RTVSPropertyOp20
 70
     1
102
RTVSPropertyOp21
 70
     1
102
RTVSPropertyOp22
 70
     1
102
RTVSPropertyOp23
 70
     1
102
RTVSPropertyOp24
 70
     1
102
RTVSPropertyOp25
 70
     1
102
RTVSPropertyOp26
 70
     1
102
RTVSPropertyOp27
 70
     1
102
RTVSPropertyOp28
 70
     1
102
RTVSPropertyOp29
 70
     1
102
RTVSPropertyOp30
 70
     1
102
RTVSPropertyOp31
 70
     1
102
RTVSPropertyOp32
 70
     1
102
RTVSPropertyOp33
 70
     1
102
RTVSPropertyOp34
 70
     1
102
RTVSPropertyOp35
 70
     1
102
RTVSPropertyOp36
 70
     1
102
RTVSPropertyOp37
 70
     1
102
RTVSPropertyOp38
 70
     1
102
RTVSPropertyOp39
 70
     1
102
RTVSPropertyOp40
 70
     1
102
RTVSPropertyOp41
 70
     1
102
RTVSPropertyOp42
 70
     1
102
RTVSPropertyOp43
 70
     1
102
RTVSPropertyOp44
 70
     1
102
RTVSPropertyOp45
 70
     1
102
RTVSPropertyOp46
 70
     1
102
RTVSPropertyOp47
 70
     1
102
RTVSPropertyOp48
 70
     1
102
RTVSPropertyOp49
 70
     1
102
RTVSPropertyOp50
 70
     1
102
RTVSPropertyOp51
 70
     0
102
RTVSPropertyOp52
 70
     0
102
RTVSPropertyOp53
 70
     1
102
RTVSPropertyOp54
 70
     1
102
RTVSPropertyOp55
 70
     1
102
RTVSPropertyOp56
 70
     1
102
RTVSPropertyOp57
 70
     1
102
RTVSPost2010Prop28
280
     0
102
RTVSPost2010PropOp28
 70
     1
102
RTVSPost2010Prop29
280
     1
102
RTVSPost2010PropOp29
 70
     1
102
RTVSPost2010Prop30
280
     1
102
RTVSPost2010PropOp30
 70
     1
102
RTVSPost2010Prop31
280
     0
102
RTVSPost2010PropOp31
 70
     1
102
RTVSPost2010Prop32
280
     0
102
RTVSPost2010PropOp32
 70
     1
102
RTVSPost2010Prop33
280
     0
102
RTVSPost2010PropOp33
 70
     1
102
RTVSPost2010Prop34
280
     0
102
RTVSPost2010PropOp34
 70
     1
102
RTVSPost2010Prop35
280
     0
102
RTVSPost2010PropOp35
 70
     1
102
RTVSPost2010Prop36
280
     0
102
RTVSPost2010PropOp36
 70
     1
102
RTVSPost2010Prop37
 90
       50
102
RTVSPost2010PropOp37
 70
     1
102
RTVSPost2010Prop38
140
0.0
102
RTVSPost2010PropOp38
 70
     1
102
RTVSPost2010Prop39
140
1.0
102
RTVSPost2010PropOp39
 70
     1
102
RTVSPost2010Prop40
 90
        0
102
RTVSPost2010PropOp40
 70
     1
102
RTVSPost2010Prop41ColorIndex
 90
       18
102
RTVSPost2010Prop41ColorRGB
 90
        0
102
RTVSPost2010PropOp41
 70
     1
102
RTVSPost2010Prop42
 90
       50
102
RTVSPost2010PropOp42
 70
     1
102
RTVSPost2010Prop43
 90
        3
102
RTVSPost2010PropOp43
 70
     1
102
RTVSPost2010Prop44ColorIndex
 90
        5
102
RTVSPost2010Prop44ColorRGB
 90
      255
102
RTVSPost2010PropOp44
 70
     1
102
RTVSPost2010Prop45
280
     0
102
RTVSPost2010PropOp45
 70
     1
102
RTVSPost2010Prop46
 90
       50
102
RTVSPost2010PropOp46
 70
     1
102
RTVSPost2010Prop47
 90
       50
102
RTVSPost2010PropOp47
 70
     1
102
RTVSPost2010Prop48
 90
       50
102
RTVSPost2010PropOp48
 70
     1
102
RTVSPost2010Prop49
280
     0
102
RTVSPost2010PropOp49
 70
     1
102
RTVSPost2010Prop50
 90
       50
102
RTVSPost2010PropOp50
 70
     1
102
RTVSPost2010Prop51ColorIndex
 90
      256
102
RTVSPost2010Prop51ColorRGB
 90
-16777216
102
RTVSPost2010PropOp51
 70
     0
102
RTVSPost2010Prop52
140
1.0
102
RTVSPost2010PropOp52
 70
     0
102
RTVSPost2010Prop53
 90
        2
102
RTVSPost2010PropOp53
 70
     1
102
RTVSPost2010Prop54
  1
strokes_ogs.tif
102
RTVSPost2010PropOp54
 70
     1
102
RTVSPost2010Prop55
280
     0
102
RTVSPost2010PropOp55
 70
     1
102
RTVSPost2010Prop56
140
1.0
102
RTVSPost2010PropOp56
 70
     1
102
RTVSPost2010Prop57
140
1.0
102
RTVSPost2010PropOp57
 70
     1
  0
XRECORD
  5
696
102
{ACAD_REACTORS
330
695
102
}
330
695
100
AcDbXrecord
280
     1
102
RTVSPropertyOp0
 70
     0
102
RTVSPropertyOp1
 70
     0
102
RTVSPropertyOp2
 70
     0
102
RTVSPropertyOp3
 70
     0
102
RTVSPropertyOp4
 70
     0
102
RTVSPropertyOp5
 70
     0
102
RTVSPropertyOp6
 70
     0
102
RTVSPropertyOp7
 70
     0
102
RTVSPropertyOp8
 70
     0
102
RTVSPropertyOp9
 70
     0
102
RTVSPropertyOp10
 70
     0
102
RTVSPropertyOp11
 70
     0
102
RTVSPropertyOp12
 70
     0
102
RTVSPropertyOp13
 70
     0
102
RTVSPropertyOp14
 70
     0
102
RTVSPropertyOp15
 70
     0
102
RTVSPropertyOp16
 70
     0
102
RTVSPropertyOp17
 70
     0
102
RTVSPropertyOp18
 70
     0
102
RTVSPropertyOp19
 70
     0
102
RTVSPropertyOp20
 70
     0
102
RTVSPropertyOp21
 70
     0
102
RTVSPropertyOp22
 70
     0
102
RTVSPropertyOp23
 70
     0
102
RTVSPropertyOp24
 70
     0
102
RTVSPropertyOp25
 70
     0
102
RTVSPropertyOp26
 70
     0
102
RTVSPropertyOp27
 70
     0
102
RTVSPropertyOp28
 70
     1
102
RTVSPropertyOp29
 70
     1
102
RTVSPropertyOp30
 70
     1
102
RTVSPropertyOp31
 70
     1
102
RTVSPropertyOp32
 70
     1
102
RTVSPropertyOp33
 70
     1
102
RTVSPropertyOp34
 70
     1
102
RTVSPropertyOp35
 70
     1
102
RTVSPropertyOp36
 70
     1
102
RTVSPropertyOp37
 70
     1
102
RTVSPropertyOp38
 70
     1
102
RTVSPropertyOp39
 70
     1
102
RTVSPropertyOp40
 70
     1
102
RTVSPropertyOp41
 70
     1
102
RTVSPropertyOp42
 70
     1
102
RTVSPropertyOp43
 70
     1
102
RTVSPropertyOp44
 70
     1
102
RTVSPropertyOp45
 70
     1
102
RTVSPropertyOp46
 70
     1
102
RTVSPropertyOp47
 70
     1
102
RTVSPropertyOp48
 70
     1
102
RTVSPropertyOp49
 70
     1
102
RTVSPropertyOp50
 70
     1
102
RTVSPropertyOp51
 70
     0
102
RTVSPropertyOp52
 70
     0
102
RTVSPropertyOp53
 70
     1
102
RTVSPropertyOp54
 70
     1
102
RTVSPropertyOp55
 70
     1
102
RTVSPropertyOp56
 70
     1
102
RTVSPropertyOp57
 70
     1
102
RTVSPost2010Prop28
280
     0
102
RTVSPost2010PropOp28
 70
     1
102
RTVSPost2010Prop29
280
     1
102
RTVSPost2010PropOp29
 70
     1
102
RTVSPost2010Prop30
280
     1
102
RTVSPost2010PropOp30
 70
     1
102
RTVSPost2010Prop31
280
     0
102
RTVSPost2010PropOp31
 70
     1
102
RTVSPost2010Prop32
280
     0
102
RTVSPost2010PropOp32
 70
     1
102
RTVSPost2010Prop33
280
     0
102
RTVSPost2010PropOp33
 70
     1
102
RTVSPost2010Prop34
280
     0
102
RTVSPost2010PropOp34
 70
     1
102
RTVSPost2010Prop35
280
     0
102
RTVSPost2010PropOp35
 70
     1
102
RTVSPost2010Prop36
280
     0
102
RTVSPost2010PropOp36
 70
     1
102
RTVSPost2010Prop37
 90
       50
102
RTVSPost2010PropOp37
 70
     1
102
RTVSPost2010Prop38
140
0.0
102
RTVSPost2010PropOp38
 70
     1
102
RTVSPost2010Prop39
140
1.0
102
RTVSPost2010PropOp39
 70
     1
102
RTVSPost2010Prop40
 90
        0
102
RTVSPost2010PropOp40
 70
     1
102
RTVSPost2010Prop41ColorIndex
 90
       18
102
RTVSPost2010Prop41ColorRGB
 90
        0
102
RTVSPost2010PropOp41
 70
     1
102
RTVSPost2010Prop42
 90
       50
102
RTVSPost2010PropOp42
 70
     1
102
RTVSPost2010Prop43
 90
        3
102
RTVSPost2010PropOp43
 70
     1
102
RTVSPost2010Prop44ColorIndex
 90
        5
102
RTVSPost2010Prop44ColorRGB
 90
      255
102
RTVSPost2010PropOp44
 70
     1
102
RTVSPost2010Prop45
280
     0
102
RTVSPost2010PropOp45
 70
     1
102
RTVSPost2010Prop46
 90
       50
102
RTVSPost2010PropOp46
 70
     1
102
RTVSPost2010Prop47
 90
       50
102
RTVSPost2010PropOp47
 70
     1
102
RTVSPost2010Prop48
 90
       50
102
RTVSPost2010PropOp48
 70
     1
102
RTVSPost2010Prop49
280
     0
102
RTVSPost2010PropOp49
 70
     1
102
RTVSPost2010Prop50
 90
       50
102
RTVSPost2010PropOp50
 70
     1
102
RTVSPost2010Prop51ColorIndex
 90
      256
102
RTVSPost2010Prop51ColorRGB
 90
-16777216
102
RTVSPost2010PropOp51
 70
     0
102
RTVSPost2010Prop52
140
1.0
102
RTVSPost2010PropOp52
 70
     0
102
RTVSPost2010Prop53
 90
        2
102
RTVSPost2010PropOp53
 70
     1
102
RTVSPost2010Prop54
  1
strokes_ogs.tif
102
RTVSPost2010PropOp54
 70
     1
102
RTVSPost2010Prop55
280
     0
102
RTVSPost2010PropOp55
 70
     1
102
RTVSPost2010Prop56
140
1.0
102
RTVSPost2010PropOp56
 70
     1
102
RTVSPost2010Prop57
140
1.0
102
RTVSPost2010PropOp57
 70
     1
  0
XRECORD
  5
690
102
{ACAD_REACTORS
330
68F
102
}
330
68F
100
AcDbXrecord
280
     1
102
RTVSPropertyOp0
 70
     1
102
RTVSPropertyOp1
 70
     1
102
RTVSPropertyOp2
 70
     1
102
RTVSPropertyOp3
 70
     1
102
RTVSPropertyOp4
 70
     1
102
RTVSPropertyOp5
 70
     1
102
RTVSPropertyOp6
 70
     1
102
RTVSPropertyOp7
 70
     1
102
RTVSPropertyOp8
 70
     1
102
RTVSPropertyOp9
 70
     1
102
RTVSPropertyOp10
 70
     1
102
RTVSPropertyOp11
 70
     1
102
RTVSPropertyOp12
 70
     1
102
RTVSPropertyOp13
 70
     1
102
RTVSPropertyOp14
 70
     1
102
RTVSPropertyOp15
 70
     1
102
RTVSPropertyOp16
 70
     1
102
RTVSPropertyOp17
 70
     1
102
RTVSPropertyOp18
 70
     1
102
RTVSPropertyOp19
 70
     1
102
RTVSPropertyOp20
 70
     1
102
RTVSPropertyOp21
 70
     1
102
RTVSPropertyOp22
 70
     1
102
RTVSPropertyOp23
 70
     1
102
RTVSPropertyOp24
 70
     1
102
RTVSPropertyOp25
 70
     1
102
RTVSPropertyOp26
 70
     1
102
RTVSPropertyOp27
 70
     1
102
RTVSPropertyOp28
 70
     1
102
RTVSPropertyOp29
 70
     1
102
RTVSPropertyOp30
 70
     1
102
RTVSPropertyOp31
 70
     1
102
RTVSPropertyOp32
 70
     1
102
RTVSPropertyOp33
 70
     1
102
RTVSPropertyOp34
 70
     1
102
RTVSPropertyOp35
 70
     1
102
RTVSPropertyOp36
 70
     1
102
RTVSPropertyOp37
 70
     1
102
RTVSPropertyOp38
 70
     1
102
RTVSPropertyOp39
 70
     1
102
RTVSPropertyOp40
 70
     1
102
RTVSPropertyOp41
 70
     1
102
RTVSPropertyOp42
 70
     1
102
RTVSPropertyOp43
 70
     1
102
RTVSPropertyOp44
 70
     1
102
RTVSPropertyOp45
 70
     1
102
RTVSPropertyOp46
 70
     1
102
RTVSPropertyOp47
 70
     1
102
RTVSPropertyOp48
 70
     1
102
RTVSPropertyOp49
 70
     1
102
RTVSPropertyOp50
 70
     1
102
RTVSPropertyOp51
 70
     0
102
RTVSPropertyOp52
 70
     0
102
RTVSPropertyOp53
 70
     1
102
RTVSPropertyOp54
 70
     1
102
RTVSPropertyOp55
 70
     1
102
RTVSPropertyOp56
 70
     1
102
RTVSPropertyOp57
 70
     1
102
RTVSPost2010Prop28
280
     0
102
RTVSPost2010PropOp28
 70
     1
102
RTVSPost2010Prop29
280
     1
102
RTVSPost2010PropOp29
 70
     1
102
RTVSPost2010Prop30
280
     1
102
RTVSPost2010PropOp30
 70
     1
102
RTVSPost2010Prop31
280
     0
102
RTVSPost2010PropOp31
 70
     1
102
RTVSPost2010Prop32
280
     0
102
RTVSPost2010PropOp32
 70
     1
102
RTVSPost2010Prop33
280
     0
102
RTVSPost2010PropOp33
 70
     1
102
RTVSPost2010Prop34
280
     0
102
RTVSPost2010PropOp34
 70
     1
102
RTVSPost2010Prop35
280
     0
102
RTVSPost2010PropOp35
 70
     1
102
RTVSPost2010Prop36
280
     0
102
RTVSPost2010PropOp36
 70
     1
102
RTVSPost2010Prop37
 90
       50
102
RTVSPost2010PropOp37
 70
     1
102
RTVSPost2010Prop38
140
0.0
102
RTVSPost2010PropOp38
 70
     1
102
RTVSPost2010Prop39
140
1.0
102
RTVSPost2010PropOp39
 70
     1
102
RTVSPost2010Prop40
 90
        0
102
RTVSPost2010PropOp40
 70
     1
102
RTVSPost2010Prop41ColorIndex
 90
       18
102
RTVSPost2010Prop41ColorRGB
 90
        0
102
RTVSPost2010PropOp41
 70
     1
102
RTVSPost2010Prop42
 90
       50
102
RTVSPost2010PropOp42
 70
     1
102
RTVSPost2010Prop43
 90
        3
102
RTVSPost2010PropOp43
 70
     1
102
RTVSPost2010Prop44ColorIndex
 90
        5
102
RTVSPost2010Prop44ColorRGB
 90
      255
102
RTVSPost2010PropOp44
 70
     1
102
RTVSPost2010Prop45
280
     0
102
RTVSPost2010PropOp45
 70
     1
102
RTVSPost2010Prop46
 90
       50
102
RTVSPost2010PropOp46
 70
     1
102
RTVSPost2010Prop47
 90
       50
102
RTVSPost2010PropOp47
 70
     1
102
RTVSPost2010Prop48
 90
       50
102
RTVSPost2010PropOp48
 70
     1
102
RTVSPost2010Prop49
280
     0
102
RTVSPost2010PropOp49
 70
     1
102
RTVSPost2010Prop50
 90
       50
102
RTVSPost2010PropOp50
 70
     1
102
RTVSPost2010Prop51ColorIndex
 90
      256
102
RTVSPost2010Prop51ColorRGB
 90
-16777216
102
RTVSPost2010PropOp51
 70
     0
102
RTVSPost2010Prop52
140
1.0
102
RTVSPost2010PropOp52
 70
     0
102
RTVSPost2010Prop53
 90
        2
102
RTVSPost2010PropOp53
 70
     1
102
RTVSPost2010Prop54
  1
strokes_ogs.tif
102
RTVSPost2010PropOp54
 70
     1
102
RTVSPost2010Prop55
280
     0
102
RTVSPost2010PropOp55
 70
     1
102
RTVSPost2010Prop56
140
1.0
102
RTVSPost2010PropOp56
 70
     1
102
RTVSPost2010Prop57
140
1.0
102
RTVSPost2010PropOp57
 70
     1
  0
XRECORD
  5
698
102
{ACAD_REACTORS
330
697
102
}
330
697
100
AcDbXrecord
280
     1
102
RTVSPropertyOp0
 70
     0
102
RTVSPropertyOp1
 70
     0
102
RTVSPropertyOp2
 70
     0
102
RTVSPropertyOp3
 70
     0
102
RTVSPropertyOp4
 70
     0
102
RTVSPropertyOp5
 70
     0
102
RTVSPropertyOp6
 70
     0
102
RTVSPropertyOp7
 70
     0
102
RTVSPropertyOp8
 70
     0
102
RTVSPropertyOp9
 70
     0
102
RTVSPropertyOp10
 70
     0
102
RTVSPropertyOp11
 70
     0
102
RTVSPropertyOp12
 70
     0
102
RTVSPropertyOp13
 70
     0
102
RTVSPropertyOp14
 70
     0
102
RTVSPropertyOp15
 70
     0
102
RTVSPropertyOp16
 70
     0
102
RTVSPropertyOp17
 70
     0
102
RTVSPropertyOp18
 70
     0
102
RTVSPropertyOp19
 70
     0
102
RTVSPropertyOp20
 70
     0
102
RTVSPropertyOp21
 70
     0
102
RTVSPropertyOp22
 70
     0
102
RTVSPropertyOp23
 70
     0
102
RTVSPropertyOp24
 70
     0
102
RTVSPropertyOp25
 70
     0
102
RTVSPropertyOp26
 70
     0
102
RTVSPropertyOp27
 70
     0
102
RTVSPropertyOp28
 70
     1
102
RTVSPropertyOp29
 70
     1
102
RTVSPropertyOp30
 70
     1
102
RTVSPropertyOp31
 70
     1
102
RTVSPropertyOp32
 70
     1
102
RTVSPropertyOp33
 70
     1
102
RTVSPropertyOp34
 70
     1
102
RTVSPropertyOp35
 70
     1
102
RTVSPropertyOp36
 70
     1
102
RTVSPropertyOp37
 70
     1
102
RTVSPropertyOp38
 70
     1
102
RTVSPropertyOp39
 70
     1
102
RTVSPropertyOp40
 70
     1
102
RTVSPropertyOp41
 70
     1
102
RTVSPropertyOp42
 70
     1
102
RTVSPropertyOp43
 70
     1
102
RTVSPropertyOp44
 70
     1
102
RTVSPropertyOp45
 70
     1
102
RTVSPropertyOp46
 70
     1
102
RTVSPropertyOp47
 70
     1
102
RTVSPropertyOp48
 70
     1
102
RTVSPropertyOp49
 70
     1
102
RTVSPropertyOp50
 70
     1
102
RTVSPropertyOp51
 70
     0
102
RTVSPropertyOp52
 70
     0
102
RTVSPropertyOp53
 70
     1
102
RTVSPropertyOp54
 70
     1
102
RTVSPropertyOp55
 70
     1
102
RTVSPropertyOp56
 70
     1
102
RTVSPropertyOp57
 70
     1
102
RTVSPost2010Prop28
280
     0
102
RTVSPost2010PropOp28
 70
     1
102
RTVSPost2010Prop29
280
     1
102
RTVSPost2010PropOp29
 70
     1
102
RTVSPost2010Prop30
280
     1
102
RTVSPost2010PropOp30
 70
     1
102
RTVSPost2010Prop31
280
     0
102
RTVSPost2010PropOp31
 70
     1
102
RTVSPost2010Prop32
280
     0
102
RTVSPost2010PropOp32
 70
     1
102
RTVSPost2010Prop33
280
     0
102
RTVSPost2010PropOp33
 70
     1
102
RTVSPost2010Prop34
280
     0
102
RTVSPost2010PropOp34
 70
     1
102
RTVSPost2010Prop35
280
     0
102
RTVSPost2010PropOp35
 70
     1
102
RTVSPost2010Prop36
280
     0
102
RTVSPost2010PropOp36
 70
     1
102
RTVSPost2010Prop37
 90
       50
102
RTVSPost2010PropOp37
 70
     1
102
RTVSPost2010Prop38
140
0.0
102
RTVSPost2010PropOp38
 70
     1
102
RTVSPost2010Prop39
140
1.0
102
RTVSPost2010PropOp39
 70
     1
102
RTVSPost2010Prop40
 90
        0
102
RTVSPost2010PropOp40
 70
     1
102
RTVSPost2010Prop41ColorIndex
 90
       18
102
RTVSPost2010Prop41ColorRGB
 90
        0
102
RTVSPost2010PropOp41
 70
     1
102
RTVSPost2010Prop42
 90
       50
102
RTVSPost2010PropOp42
 70
     1
102
RTVSPost2010Prop43
 90
        3
102
RTVSPost2010PropOp43
 70
     1
102
RTVSPost2010Prop44ColorIndex
 90
        5
102
RTVSPost2010Prop44ColorRGB
 90
      255
102
RTVSPost2010PropOp44
 70
     1
102
RTVSPost2010Prop45
280
     0
102
RTVSPost2010PropOp45
 70
     1
102
RTVSPost2010Prop46
 90
       50
102
RTVSPost2010PropOp46
 70
     1
102
RTVSPost2010Prop47
 90
       50
102
RTVSPost2010PropOp47
 70
     1
102
RTVSPost2010Prop48
 90
       50
102
RTVSPost2010PropOp48
 70
     1
102
RTVSPost2010Prop49
280
     0
102
RTVSPost2010PropOp49
 70
     1
102
RTVSPost2010Prop50
 90
       50
102
RTVSPost2010PropOp50
 70
     1
102
RTVSPost2010Prop51ColorIndex
 90
      256
102
RTVSPost2010Prop51ColorRGB
 90
-16777216
102
RTVSPost2010PropOp51
 70
     0
102
RTVSPost2010Prop52
140
1.0
102
RTVSPost2010PropOp52
 70
     0
102
RTVSPost2010Prop53
 90
        2
102
RTVSPost2010PropOp53
 70
     1
102
RTVSPost2010Prop54
  1
strokes_ogs.tif
102
RTVSPost2010PropOp54
 70
     1
102
RTVSPost2010Prop55
280
     0
102
RTVSPost2010PropOp55
 70
     1
102
RTVSPost2010Prop56
140
1.0
102
RTVSPost2010PropOp56
 70
     1
102
RTVSPost2010Prop57
140
1.0
102
RTVSPost2010PropOp57
 70
     1
  0
XRECORD
  5
676
102
{ACAD_REACTORS
330
675
102
}
330
675
100
AcDbXrecord
280
     1
102
RTVSPropertyOp0
 70
     1
102
RTVSPropertyOp1
 70
     1
102
RTVSPropertyOp2
 70
     1
102
RTVSPropertyOp3
 70
     1
102
RTVSPropertyOp4
 70
     1
102
RTVSPropertyOp5
 70
     1
102
RTVSPropertyOp6
 70
     1
102
RTVSPropertyOp7
 70
     1
102
RTVSPropertyOp8
 70
     1
102
RTVSPropertyOp9
 70
     1
102
RTVSPropertyOp10
 70
     1
102
RTVSPropertyOp11
 70
     1
102
RTVSPropertyOp12
 70
     1
102
RTVSPropertyOp13
 70
     1
102
RTVSPropertyOp14
 70
     1
102
RTVSPropertyOp15
 70
     1
102
RTVSPropertyOp16
 70
     1
102
RTVSPropertyOp17
 70
     1
102
RTVSPropertyOp18
 70
     1
102
RTVSPropertyOp19
 70
     1
102
RTVSPropertyOp20
 70
     1
102
RTVSPropertyOp21
 70
     1
102
RTVSPropertyOp22
 70
     1
102
RTVSPropertyOp23
 70
     1
102
RTVSPropertyOp24
 70
     1
102
RTVSPropertyOp25
 70
     1
102
RTVSPropertyOp26
 70
     1
102
RTVSPropertyOp27
 70
     1
102
RTVSPropertyOp28
 70
     1
102
RTVSPropertyOp29
 70
     1
102
RTVSPropertyOp30
 70
     1
102
RTVSPropertyOp31
 70
     1
102
RTVSPropertyOp32
 70
     1
102
RTVSPropertyOp33
 70
     1
102
RTVSPropertyOp34
 70
     1
102
RTVSPropertyOp35
 70
     1
102
RTVSPropertyOp36
 70
     1
102
RTVSPropertyOp37
 70
     1
102
RTVSPropertyOp38
 70
     1
102
RTVSPropertyOp39
 70
     1
102
RTVSPropertyOp40
 70
     1
102
RTVSPropertyOp41
 70
     1
102
RTVSPropertyOp42
 70
     1
102
RTVSPropertyOp43
 70
     1
102
RTVSPropertyOp44
 70
     1
102
RTVSPropertyOp45
 70
     1
102
RTVSPropertyOp46
 70
     1
102
RTVSPropertyOp47
 70
     1
102
RTVSPropertyOp48
 70
     1
102
RTVSPropertyOp49
 70
     1
102
RTVSPropertyOp50
 70
     1
102
RTVSPropertyOp51
 70
     0
102
RTVSPropertyOp52
 70
     0
102
RTVSPropertyOp53
 70
     1
102
RTVSPropertyOp54
 70
     1
102
RTVSPropertyOp55
 70
     1
102
RTVSPropertyOp56
 70
     1
102
RTVSPropertyOp57
 70
     1
102
RTVSPost2010Prop28
280
     0
102
RTVSPost2010PropOp28
 70
     1
102
RTVSPost2010Prop29
280
     1
102
RTVSPost2010PropOp29
 70
     1
102
RTVSPost2010Prop30
280
     1
102
RTVSPost2010PropOp30
 70
     1
102
RTVSPost2010Prop31
280
     0
102
RTVSPost2010PropOp31
 70
     1
102
RTVSPost2010Prop32
280
     0
102
RTVSPost2010PropOp32
 70
     1
102
RTVSPost2010Prop33
280
     0
102
RTVSPost2010PropOp33
 70
     1
102
RTVSPost2010Prop34
280
     0
102
RTVSPost2010PropOp34
 70
     1
102
RTVSPost2010Prop35
280
     0
102
RTVSPost2010PropOp35
 70
     1
102
RTVSPost2010Prop36
280
     0
102
RTVSPost2010PropOp36
 70
     1
102
RTVSPost2010Prop37
 90
       50
102
RTVSPost2010PropOp37
 70
     1
102
RTVSPost2010Prop38
140
0.0
102
RTVSPost2010PropOp38
 70
     1
102
RTVSPost2010Prop39
140
1.0
102
RTVSPost2010PropOp39
 70
     1
102
RTVSPost2010Prop40
 90
        0
102
RTVSPost2010PropOp40
 70
     1
102
RTVSPost2010Prop41ColorIndex
 90
       18
102
RTVSPost2010Prop41ColorRGB
 90
        0
102
RTVSPost2010PropOp41
 70
     1
102
RTVSPost2010Prop42
 90
       50
102
RTVSPost2010PropOp42
 70
     1
102
RTVSPost2010Prop43
 90
        3
102
RTVSPost2010PropOp43
 70
     1
102
RTVSPost2010Prop44ColorIndex
 90
        5
102
RTVSPost2010Prop44ColorRGB
 90
      255
102
RTVSPost2010PropOp44
 70
     1
102
RTVSPost2010Prop45
280
     0
102
RTVSPost2010PropOp45
 70
     1
102
RTVSPost2010Prop46
 90
       50
102
RTVSPost2010PropOp46
 70
     1
102
RTVSPost2010Prop47
 90
       50
102
RTVSPost2010PropOp47
 70
     1
102
RTVSPost2010Prop48
 90
       50
102
RTVSPost2010PropOp48
 70
     1
102
RTVSPost2010Prop49
280
     0
102
RTVSPost2010PropOp49
 70
     1
102
RTVSPost2010Prop50
 90
       50
102
RTVSPost2010PropOp50
 70
     1
102
RTVSPost2010Prop51ColorIndex
 90
      256
102
RTVSPost2010Prop51ColorRGB
 90
-16777216
102
RTVSPost2010PropOp51
 70
     0
102
RTVSPost2010Prop52
140
1.0
102
RTVSPost2010PropOp52
 70
     0
102
RTVSPost2010Prop53
 90
        2
102
RTVSPost2010PropOp53
 70
     1
102
RTVSPost2010Prop54
  1
strokes_ogs.tif
102
RTVSPost2010PropOp54
 70
     1
102
RTVSPost2010Prop55
280
     0
102
RTVSPost2010PropOp55
 70
     1
102
RTVSPost2010Prop56
140
1.0
102
RTVSPost2010PropOp56
 70
     1
102
RTVSPost2010Prop57
140
1.0
102
RTVSPost2010PropOp57
 70
     1
  0
XRECORD
  5
6A4
102
{ACAD_REACTORS
330
6A3
102
}
330
6A3
100
AcDbXrecord
280
     1
102
RTVSPropertyOp0
 70
     1
102
RTVSPropertyOp1
 70
     1
102
RTVSPropertyOp2
 70
     1
102
RTVSPropertyOp3
 70
     1
102
RTVSPropertyOp4
 70
     1
102
RTVSPropertyOp5
 70
     1
102
RTVSPropertyOp6
 70
     1
102
RTVSPropertyOp7
 70
     1
102
RTVSPropertyOp8
 70
     1
102
RTVSPropertyOp9
 70
     1
102
RTVSPropertyOp10
 70
     1
102
RTVSPropertyOp11
 70
     1
102
RTVSPropertyOp12
 70
     1
102
RTVSPropertyOp13
 70
     1
102
RTVSPropertyOp14
 70
     1
102
RTVSPropertyOp15
 70
     1
102
RTVSPropertyOp16
 70
     1
102
RTVSPropertyOp17
 70
     1
102
RTVSPropertyOp18
 70
     1
102
RTVSPropertyOp19
 70
     1
102
RTVSPropertyOp20
 70
     1
102
RTVSPropertyOp21
 70
     1
102
RTVSPropertyOp22
 70
     1
102
RTVSPropertyOp23
 70
     1
102
RTVSPropertyOp24
 70
     1
102
RTVSPropertyOp25
 70
     1
102
RTVSPropertyOp26
 70
     1
102
RTVSPropertyOp27
 70
     1
102
RTVSPropertyOp28
 70
     1
102
RTVSPropertyOp29
 70
     1
102
RTVSPropertyOp30
 70
     1
102
RTVSPropertyOp31
 70
     1
102
RTVSPropertyOp32
 70
     1
102
RTVSPropertyOp33
 70
     1
102
RTVSPropertyOp34
 70
     1
102
RTVSPropertyOp35
 70
     1
102
RTVSPropertyOp36
 70
     1
102
RTVSPropertyOp37
 70
     1
102
RTVSPropertyOp38
 70
     1
102
RTVSPropertyOp39
 70
     1
102
RTVSPropertyOp40
 70
     1
102
RTVSPropertyOp41
 70
     1
102
RTVSPropertyOp42
 70
     1
102
RTVSPropertyOp43
 70
     1
102
RTVSPropertyOp44
 70
     1
102
RTVSPropertyOp45
 70
     1
102
RTVSPropertyOp46
 70
     1
102
RTVSPropertyOp47
 70
     1
102
RTVSPropertyOp48
 70
     1
102
RTVSPropertyOp49
 70
     1
102
RTVSPropertyOp50
 70
     1
102
RTVSPropertyOp51
 70
     0
102
RTVSPropertyOp52
 70
     0
102
RTVSPropertyOp53
 70
     1
102
RTVSPropertyOp54
 70
     1
102
RTVSPropertyOp55
 70
     1
102
RTVSPropertyOp56
 70
     1
102
RTVSPropertyOp57
 70
     1
102
RTVSPost2010Prop28
280
     0
102
RTVSPost2010PropOp28
 70
     1
102
RTVSPost2010Prop29
280
     1
102
RTVSPost2010PropOp29
 70
     1
102
RTVSPost2010Prop30
280
     1
102
RTVSPost2010PropOp30
 70
     1
102
RTVSPost2010Prop31
280
     0
102
RTVSPost2010PropOp31
 70
     1
102
RTVSPost2010Prop32
280
     0
102
RTVSPost2010PropOp32
 70
     1
102
RTVSPost2010Prop33
280
     0
102
RTVSPost2010PropOp33
 70
     1
102
RTVSPost2010Prop34
280
     0
102
RTVSPost2010PropOp34
 70
     1
102
RTVSPost2010Prop35
280
     0
102
RTVSPost2010PropOp35
 70
     1
102
RTVSPost2010Prop36
280
     0
102
RTVSPost2010PropOp36
 70
     1
102
RTVSPost2010Prop37
 90
       50
102
RTVSPost2010PropOp37
 70
     1
102
RTVSPost2010Prop38
140
0.0
102
RTVSPost2010PropOp38
 70
     1
102
RTVSPost2010Prop39
140
1.0
102
RTVSPost2010PropOp39
 70
     1
102
RTVSPost2010Prop40
 90
        0
102
RTVSPost2010PropOp40
 70
     1
102
RTVSPost2010Prop41ColorIndex
 90
       18
102
RTVSPost2010Prop41ColorRGB
 90
        0
102
RTVSPost2010PropOp41
 70
     1
102
RTVSPost2010Prop42
 90
       50
102
RTVSPost2010PropOp42
 70
     1
102
RTVSPost2010Prop43
 90
        3
102
RTVSPost2010PropOp43
 70
     1
102
RTVSPost2010Prop44ColorIndex
 90
        5
102
RTVSPost2010Prop44ColorRGB
 90
      255
102
RTVSPost2010PropOp44
 70
     1
102
RTVSPost2010Prop45
280
     0
102
RTVSPost2010PropOp45
 70
     1
102
RTVSPost2010Prop46
 90
       50
102
RTVSPost2010PropOp46
 70
     1
102
RTVSPost2010Prop47
 90
       50
102
RTVSPost2010PropOp47
 70
     1
102
RTVSPost2010Prop48
 90
       50
102
RTVSPost2010PropOp48
 70
     1
102
RTVSPost2010Prop49
280
     0
102
RTVSPost2010PropOp49
 70
     1
102
RTVSPost2010Prop50
 90
       50
102
RTVSPost2010PropOp50
 70
     1
102
RTVSPost2010Prop51ColorIndex
 90
      256
102
RTVSPost2010Prop51ColorRGB
 90
-16777216
102
RTVSPost2010PropOp51
 70
     0
102
RTVSPost2010Prop52
140
1.0
102
RTVSPost2010PropOp52
 70
     0
102
RTVSPost2010Prop53
 90
        2
102
RTVSPost2010PropOp53
 70
     1
102
RTVSPost2010Prop54
  1
strokes_ogs.tif
102
RTVSPost2010PropOp54
 70
     1
102
RTVSPost2010Prop55
280
     0
102
RTVSPost2010PropOp55
 70
     1
102
RTVSPost2010Prop56
140
1.0
102
RTVSPost2010PropOp56
 70
     1
102
RTVSPost2010Prop57
140
1.0
102
RTVSPost2010PropOp57
 70
     1
  0
XRECORD
  5
6A2
102
{ACAD_REACTORS
330
6A1
102
}
330
6A1
100
AcDbXrecord
280
     1
102
RTVSPropertyOp0
 70
     1
102
RTVSPropertyOp1
 70
     1
102
RTVSPropertyOp2
 70
     1
102
RTVSPropertyOp3
 70
     1
102
RTVSPropertyOp4
 70
     1
102
RTVSPropertyOp5
 70
     1
102
RTVSPropertyOp6
 70
     1
102
RTVSPropertyOp7
 70
     1
102
RTVSPropertyOp8
 70
     1
102
RTVSPropertyOp9
 70
     1
102
RTVSPropertyOp10
 70
     1
102
RTVSPropertyOp11
 70
     1
102
RTVSPropertyOp12
 70
     1
102
RTVSPropertyOp13
 70
     1
102
RTVSPropertyOp14
 70
     1
102
RTVSPropertyOp15
 70
     1
102
RTVSPropertyOp16
 70
     1
102
RTVSPropertyOp17
 70
     1
102
RTVSPropertyOp18
 70
     1
102
RTVSPropertyOp19
 70
     1
102
RTVSPropertyOp20
 70
     1
102
RTVSPropertyOp21
 70
     1
102
RTVSPropertyOp22
 70
     1
102
RTVSPropertyOp23
 70
     1
102
RTVSPropertyOp24
 70
     1
102
RTVSPropertyOp25
 70
     1
102
RTVSPropertyOp26
 70
     1
102
RTVSPropertyOp27
 70
     1
102
RTVSPropertyOp28
 70
     1
102
RTVSPropertyOp29
 70
     1
102
RTVSPropertyOp30
 70
     1
102
RTVSPropertyOp31
 70
     1
102
RTVSPropertyOp32
 70
     1
102
RTVSPropertyOp33
 70
     1
102
RTVSPropertyOp34
 70
     1
102
RTVSPropertyOp35
 70
     1
102
RTVSPropertyOp36
 70
     1
102
RTVSPropertyOp37
 70
     1
102
RTVSPropertyOp38
 70
     1
102
RTVSPropertyOp39
 70
     1
102
RTVSPropertyOp40
 70
     1
102
RTVSPropertyOp41
 70
     1
102
RTVSPropertyOp42
 70
     1
102
RTVSPropertyOp43
 70
     1
102
RTVSPropertyOp44
 70
     1
102
RTVSPropertyOp45
 70
     1
102
RTVSPropertyOp46
 70
     1
102
RTVSPropertyOp47
 70
     1
102
RTVSPropertyOp48
 70
     1
102
RTVSPropertyOp49
 70
     1
102
RTVSPropertyOp50
 70
     1
102
RTVSPropertyOp51
 70
     0
102
RTVSPropertyOp52
 70
     0
102
RTVSPropertyOp53
 70
     1
102
RTVSPropertyOp54
 70
     1
102
RTVSPropertyOp55
 70
     1
102
RTVSPropertyOp56
 70
     1
102
RTVSPropertyOp57
 70
     1
102
RTVSPost2010Prop28
280
     0
102
RTVSPost2010PropOp28
 70
     1
102
RTVSPost2010Prop29
280
     1
102
RTVSPost2010PropOp29
 70
     1
102
RTVSPost2010Prop30
280
     1
102
RTVSPost2010PropOp30
 70
     1
102
RTVSPost2010Prop31
280
     0
102
RTVSPost2010PropOp31
 70
     1
102
RTVSPost2010Prop32
280
     0
102
RTVSPost2010PropOp32
 70
     1
102
RTVSPost2010Prop33
280
     0
102
RTVSPost2010PropOp33
 70
     1
102
RTVSPost2010Prop34
280
     0
102
RTVSPost2010PropOp34
 70
     1
102
RTVSPost2010Prop35
280
     0
102
RTVSPost2010PropOp35
 70
     1
102
RTVSPost2010Prop36
280
     0
102
RTVSPost2010PropOp36
 70
     1
102
RTVSPost2010Prop37
 90
       50
102
RTVSPost2010PropOp37
 70
     1
102
RTVSPost2010Prop38
140
0.0
102
RTVSPost2010PropOp38
 70
     1
102
RTVSPost2010Prop39
140
1.0
102
RTVSPost2010PropOp39
 70
     1
102
RTVSPost2010Prop40
 90
        0
102
RTVSPost2010PropOp40
 70
     1
102
RTVSPost2010Prop41ColorIndex
 90
       18
102
RTVSPost2010Prop41ColorRGB
 90
        0
102
RTVSPost2010PropOp41
 70
     1
102
RTVSPost2010Prop42
 90
       50
102
RTVSPost2010PropOp42
 70
     1
102
RTVSPost2010Prop43
 90
        3
102
RTVSPost2010PropOp43
 70
     1
102
RTVSPost2010Prop44ColorIndex
 90
        5
102
RTVSPost2010Prop44ColorRGB
 90
      255
102
RTVSPost2010PropOp44
 70
     1
102
RTVSPost2010Prop45
280
     0
102
RTVSPost2010PropOp45
 70
     1
102
RTVSPost2010Prop46
 90
       50
102
RTVSPost2010PropOp46
 70
     1
102
RTVSPost2010Prop47
 90
       50
102
RTVSPost2010PropOp47
 70
     1
102
RTVSPost2010Prop48
 90
       50
102
RTVSPost2010PropOp48
 70
     1
102
RTVSPost2010Prop49
280
     0
102
RTVSPost2010PropOp49
 70
     1
102
RTVSPost2010Prop50
 90
       50
102
RTVSPost2010PropOp50
 70
     1
102
RTVSPost2010Prop51ColorIndex
 90
      256
102
RTVSPost2010Prop51ColorRGB
 90
-16777216
102
RTVSPost2010PropOp51
 70
     0
102
RTVSPost2010Prop52
140
1.0
102
RTVSPost2010PropOp52
 70
     0
102
RTVSPost2010Prop53
 90
        2
102
RTVSPost2010PropOp53
 70
     1
102
RTVSPost2010Prop54
  1
strokes_ogs.tif
102
RTVSPost2010PropOp54
 70
     1
102
RTVSPost2010Prop55
280
     0
102
RTVSPost2010PropOp55
 70
     1
102
RTVSPost2010Prop56
140
1.0
102
RTVSPost2010PropOp56
 70
     1
102
RTVSPost2010Prop57
140
1.0
102
RTVSPost2010PropOp57
 70
     1
  0
XRECORD
  5
69C
102
{ACAD_REACTORS
330
69B
102
}
330
69B
100
AcDbXrecord
280
     1
102
RTVSPropertyOp0
 70
     1
102
RTVSPropertyOp1
 70
     1
102
RTVSPropertyOp2
 70
     1
102
RTVSPropertyOp3
 70
     1
102
RTVSPropertyOp4
 70
     1
102
RTVSPropertyOp5
 70
     1
102
RTVSPropertyOp6
 70
     1
102
RTVSPropertyOp7
 70
     1
102
RTVSPropertyOp8
 70
     1
102
RTVSPropertyOp9
 70
     1
102
RTVSPropertyOp10
 70
     1
102
RTVSPropertyOp11
 70
     1
102
RTVSPropertyOp12
 70
     1
102
RTVSPropertyOp13
 70
     1
102
RTVSPropertyOp14
 70
     1
102
RTVSPropertyOp15
 70
     1
102
RTVSPropertyOp16
 70
     1
102
RTVSPropertyOp17
 70
     1
102
RTVSPropertyOp18
 70
     1
102
RTVSPropertyOp19
 70
     1
102
RTVSPropertyOp20
 70
     1
102
RTVSPropertyOp21
 70
     1
102
RTVSPropertyOp22
 70
     1
102
RTVSPropertyOp23
 70
     1
102
RTVSPropertyOp24
 70
     1
102
RTVSPropertyOp25
 70
     1
102
RTVSPropertyOp26
 70
     1
102
RTVSPropertyOp27
 70
     1
102
RTVSPropertyOp28
 70
     1
102
RTVSPropertyOp29
 70
     1
102
RTVSPropertyOp30
 70
     1
102
RTVSPropertyOp31
 70
     1
102
RTVSPropertyOp32
 70
     1
102
RTVSPropertyOp33
 70
     1
102
RTVSPropertyOp34
 70
     1
102
RTVSPropertyOp35
 70
     1
102
RTVSPropertyOp36
 70
     1
102
RTVSPropertyOp37
 70
     1
102
RTVSPropertyOp38
 70
     1
102
RTVSPropertyOp39
 70
     1
102
RTVSPropertyOp40
 70
     1
102
RTVSPropertyOp41
 70
     1
102
RTVSPropertyOp42
 70
     1
102
RTVSPropertyOp43
 70
     1
102
RTVSPropertyOp44
 70
     1
102
RTVSPropertyOp45
 70
     1
102
RTVSPropertyOp46
 70
     1
102
RTVSPropertyOp47
 70
     1
102
RTVSPropertyOp48
 70
     1
102
RTVSPropertyOp49
 70
     1
102
RTVSPropertyOp50
 70
     1
102
RTVSPropertyOp51
 70
     0
102
RTVSPropertyOp52
 70
     0
102
RTVSPropertyOp53
 70
     1
102
RTVSPropertyOp54
 70
     1
102
RTVSPropertyOp55
 70
     1
102
RTVSPropertyOp56
 70
     1
102
RTVSPropertyOp57
 70
     1
102
RTVSPost2010Prop28
280
     0
102
RTVSPost2010PropOp28
 70
     1
102
RTVSPost2010Prop29
280
     1
102
RTVSPost2010PropOp29
 70
     1
102
RTVSPost2010Prop30
280
     1
102
RTVSPost2010PropOp30
 70
     1
102
RTVSPost2010Prop31
280
     0
102
RTVSPost2010PropOp31
 70
     1
102
RTVSPost2010Prop32
280
     0
102
RTVSPost2010PropOp32
 70
     1
102
RTVSPost2010Prop33
280
     0
102
RTVSPost2010PropOp33
 70
     1
102
RTVSPost2010Prop34
280
     0
102
RTVSPost2010PropOp34
 70
     1
102
RTVSPost2010Prop35
280
     0
102
RTVSPost2010PropOp35
 70
     1
102
RTVSPost2010Prop36
280
     0
102
RTVSPost2010PropOp36
 70
     1
102
RTVSPost2010Prop37
 90
       50
102
RTVSPost2010PropOp37
 70
     1
102
RTVSPost2010Prop38
140
0.0
102
RTVSPost2010PropOp38
 70
     1
102
RTVSPost2010Prop39
140
1.0
102
RTVSPost2010PropOp39
 70
     1
102
RTVSPost2010Prop40
 90
        0
102
RTVSPost2010PropOp40
 70
     1
102
RTVSPost2010Prop41ColorIndex
 90
       18
102
RTVSPost2010Prop41ColorRGB
 90
        0
102
RTVSPost2010PropOp41
 70
     1
102
RTVSPost2010Prop42
 90
       50
102
RTVSPost2010PropOp42
 70
     1
102
RTVSPost2010Prop43
 90
        3
102
RTVSPost2010PropOp43
 70
     1
102
RTVSPost2010Prop44ColorIndex
 90
        5
102
RTVSPost2010Prop44ColorRGB
 90
      255
102
RTVSPost2010PropOp44
 70
     1
102
RTVSPost2010Prop45
280
     0
102
RTVSPost2010PropOp45
 70
     1
102
RTVSPost2010Prop46
 90
       50
102
RTVSPost2010PropOp46
 70
     1
102
RTVSPost2010Prop47
 90
       50
102
RTVSPost2010PropOp47
 70
     1
102
RTVSPost2010Prop48
 90
       50
102
RTVSPost2010PropOp48
 70
     1
102
RTVSPost2010Prop49
280
     0
102
RTVSPost2010PropOp49
 70
     1
102
RTVSPost2010Prop50
 90
       50
102
RTVSPost2010PropOp50
 70
     1
102
RTVSPost2010Prop51ColorIndex
 90
      256
102
RTVSPost2010Prop51ColorRGB
 90
-16777216
102
RTVSPost2010PropOp51
 70
     0
102
RTVSPost2010Prop52
140
1.0
102
RTVSPost2010PropOp52
 70
     0
102
RTVSPost2010Prop53
 90
        2
102
RTVSPost2010PropOp53
 70
     1
102
RTVSPost2010Prop54
  1
strokes_ogs.tif
102
RTVSPost2010PropOp54
 70
     1
102
RTVSPost2010Prop55
280
     0
102
RTVSPost2010PropOp55
 70
     1
102
RTVSPost2010Prop56
140
1.0
102
RTVSPost2010PropOp56
 70
     1
102
RTVSPost2010Prop57
140
1.0
102
RTVSPost2010PropOp57
 70
     1
  0
XRECORD
  5
69E
102
{ACAD_REACTORS
330
69D
102
}
330
69D
100
AcDbXrecord
280
     1
102
RTVSPropertyOp0
 70
     1
102
RTVSPropertyOp1
 70
     1
102
RTVSPropertyOp2
 70
     1
102
RTVSPropertyOp3
 70
     1
102
RTVSPropertyOp4
 70
     1
102
RTVSPropertyOp5
 70
     1
102
RTVSPropertyOp6
 70
     1
102
RTVSPropertyOp7
 70
     1
102
RTVSPropertyOp8
 70
     1
102
RTVSPropertyOp9
 70
     1
102
RTVSPropertyOp10
 70
     1
102
RTVSPropertyOp11
 70
     1
102
RTVSPropertyOp12
 70
     1
102
RTVSPropertyOp13
 70
     1
102
RTVSPropertyOp14
 70
     1
102
RTVSPropertyOp15
 70
     1
102
RTVSPropertyOp16
 70
     1
102
RTVSPropertyOp17
 70
     1
102
RTVSPropertyOp18
 70
     1
102
RTVSPropertyOp19
 70
     1
102
RTVSPropertyOp20
 70
     1
102
RTVSPropertyOp21
 70
     1
102
RTVSPropertyOp22
 70
     1
102
RTVSPropertyOp23
 70
     1
102
RTVSPropertyOp24
 70
     1
102
RTVSPropertyOp25
 70
     1
102
RTVSPropertyOp26
 70
     1
102
RTVSPropertyOp27
 70
     1
102
RTVSPropertyOp28
 70
     1
102
RTVSPropertyOp29
 70
     1
102
RTVSPropertyOp30
 70
     1
102
RTVSPropertyOp31
 70
     1
102
RTVSPropertyOp32
 70
     1
102
RTVSPropertyOp33
 70
     1
102
RTVSPropertyOp34
 70
     1
102
RTVSPropertyOp35
 70
     1
102
RTVSPropertyOp36
 70
     1
102
RTVSPropertyOp37
 70
     1
102
RTVSPropertyOp38
 70
     1
102
RTVSPropertyOp39
 70
     1
102
RTVSPropertyOp40
 70
     1
102
RTVSPropertyOp41
 70
     1
102
RTVSPropertyOp42
 70
     1
102
RTVSPropertyOp43
 70
     1
102
RTVSPropertyOp44
 70
     1
102
RTVSPropertyOp45
 70
     1
102
RTVSPropertyOp46
 70
     1
102
RTVSPropertyOp47
 70
     1
102
RTVSPropertyOp48
 70
     1
102
RTVSPropertyOp49
 70
     1
102
RTVSPropertyOp50
 70
     1
102
RTVSPropertyOp51
 70
     0
102
RTVSPropertyOp52
 70
     0
102
RTVSPropertyOp53
 70
     1
102
RTVSPropertyOp54
 70
     1
102
RTVSPropertyOp55
 70
     1
102
RTVSPropertyOp56
 70
     1
102
RTVSPropertyOp57
 70
     1
102
RTVSPost2010Prop28
280
     0
102
RTVSPost2010PropOp28
 70
     1
102
RTVSPost2010Prop29
280
     1
102
RTVSPost2010PropOp29
 70
     1
102
RTVSPost2010Prop30
280
     1
102
RTVSPost2010PropOp30
 70
     1
102
RTVSPost2010Prop31
280
     0
102
RTVSPost2010PropOp31
 70
     1
102
RTVSPost2010Prop32
280
     0
102
RTVSPost2010PropOp32
 70
     1
102
RTVSPost2010Prop33
280
     0
102
RTVSPost2010PropOp33
 70
     1
102
RTVSPost2010Prop34
280
     0
102
RTVSPost2010PropOp34
 70
     1
102
RTVSPost2010Prop35
280
     0
102
RTVSPost2010PropOp35
 70
     1
102
RTVSPost2010Prop36
280
     0
102
RTVSPost2010PropOp36
 70
     1
102
RTVSPost2010Prop37
 90
       50
102
RTVSPost2010PropOp37
 70
     1
102
RTVSPost2010Prop38
140
0.0
102
RTVSPost2010PropOp38
 70
     1
102
RTVSPost2010Prop39
140
1.0
102
RTVSPost2010PropOp39
 70
     1
102
RTVSPost2010Prop40
 90
        0
102
RTVSPost2010PropOp40
 70
     1
102
RTVSPost2010Prop41ColorIndex
 90
       18
102
RTVSPost2010Prop41ColorRGB
 90
        0
102
RTVSPost2010PropOp41
 70
     1
102
RTVSPost2010Prop42
 90
       50
102
RTVSPost2010PropOp42
 70
     1
102
RTVSPost2010Prop43
 90
        3
102
RTVSPost2010PropOp43
 70
     1
102
RTVSPost2010Prop44ColorIndex
 90
        5
102
RTVSPost2010Prop44ColorRGB
 90
      255
102
RTVSPost2010PropOp44
 70
     1
102
RTVSPost2010Prop45
280
     0
102
RTVSPost2010PropOp45
 70
     1
102
RTVSPost2010Prop46
 90
       50
102
RTVSPost2010PropOp46
 70
     1
102
RTVSPost2010Prop47
 90
       50
102
RTVSPost2010PropOp47
 70
     1
102
RTVSPost2010Prop48
 90
       50
102
RTVSPost2010PropOp48
 70
     1
102
RTVSPost2010Prop49
280
     0
102
RTVSPost2010PropOp49
 70
     1
102
RTVSPost2010Prop50
 90
       50
102
RTVSPost2010PropOp50
 70
     1
102
RTVSPost2010Prop51ColorIndex
 90
      256
102
RTVSPost2010Prop51ColorRGB
 90
-16777216
102
RTVSPost2010PropOp51
 70
     0
102
RTVSPost2010Prop52
140
1.0
102
RTVSPost2010PropOp52
 70
     0
102
RTVSPost2010Prop53
 90
        2
102
RTVSPost2010PropOp53
 70
     1
102
RTVSPost2010Prop54
  1
strokes_ogs.tif
102
RTVSPost2010PropOp54
 70
     1
102
RTVSPost2010Prop55
280
     0
102
RTVSPost2010PropOp55
 70
     1
102
RTVSPost2010Prop56
140
1.0
102
RTVSPost2010PropOp56
 70
     1
102
RTVSPost2010Prop57
140
1.0
102
RTVSPost2010PropOp57
 70
     1
  0
XRECORD
  5
68E
102
{ACAD_REACTORS
330
68D
102
}
330
68D
100
AcDbXrecord
280
     1
102
RTVSPropertyOp0
 70
     1
102
RTVSPropertyOp1
 70
     1
102
RTVSPropertyOp2
 70
     1
102
RTVSPropertyOp3
 70
     1
102
RTVSPropertyOp4
 70
     1
102
RTVSPropertyOp5
 70
     1
102
RTVSPropertyOp6
 70
     1
102
RTVSPropertyOp7
 70
     1
102
RTVSPropertyOp8
 70
     1
102
RTVSPropertyOp9
 70
     1
102
RTVSPropertyOp10
 70
     1
102
RTVSPropertyOp11
 70
     1
102
RTVSPropertyOp12
 70
     1
102
RTVSPropertyOp13
 70
     1
102
RTVSPropertyOp14
 70
     1
102
RTVSPropertyOp15
 70
     1
102
RTVSPropertyOp16
 70
     1
102
RTVSPropertyOp17
 70
     1
102
RTVSPropertyOp18
 70
     1
102
RTVSPropertyOp19
 70
     1
102
RTVSPropertyOp20
 70
     1
102
RTVSPropertyOp21
 70
     1
102
RTVSPropertyOp22
 70
     1
102
RTVSPropertyOp23
 70
     1
102
RTVSPropertyOp24
 70
     1
102
RTVSPropertyOp25
 70
     1
102
RTVSPropertyOp26
 70
     1
102
RTVSPropertyOp27
 70
     1
102
RTVSPropertyOp28
 70
     1
102
RTVSPropertyOp29
 70
     1
102
RTVSPropertyOp30
 70
     1
102
RTVSPropertyOp31
 70
     1
102
RTVSPropertyOp32
 70
     1
102
RTVSPropertyOp33
 70
     1
102
RTVSPropertyOp34
 70
     1
102
RTVSPropertyOp35
 70
     1
102
RTVSPropertyOp36
 70
     1
102
RTVSPropertyOp37
 70
     1
102
RTVSPropertyOp38
 70
     1
102
RTVSPropertyOp39
 70
     1
102
RTVSPropertyOp40
 70
     1
102
RTVSPropertyOp41
 70
     1
102
RTVSPropertyOp42
 70
     1
102
RTVSPropertyOp43
 70
     1
102
RTVSPropertyOp44
 70
     1
102
RTVSPropertyOp45
 70
     1
102
RTVSPropertyOp46
 70
     1
102
RTVSPropertyOp47
 70
     1
102
RTVSPropertyOp48
 70
     1
102
RTVSPropertyOp49
 70
     1
102
RTVSPropertyOp50
 70
     1
102
RTVSPropertyOp51
 70
     0
102
RTVSPropertyOp52
 70
     0
102
RTVSPropertyOp53
 70
     1
102
RTVSPropertyOp54
 70
     1
102
RTVSPropertyOp55
 70
     1
102
RTVSPropertyOp56
 70
     1
102
RTVSPropertyOp57
 70
     1
102
RTVSPost2010Prop28
280
     0
102
RTVSPost2010PropOp28
 70
     1
102
RTVSPost2010Prop29
280
     1
102
RTVSPost2010PropOp29
 70
     1
102
RTVSPost2010Prop30
280
     1
102
RTVSPost2010PropOp30
 70
     1
102
RTVSPost2010Prop31
280
     0
102
RTVSPost2010PropOp31
 70
     1
102
RTVSPost2010Prop32
280
     0
102
RTVSPost2010PropOp32
 70
     1
102
RTVSPost2010Prop33
280
     0
102
RTVSPost2010PropOp33
 70
     1
102
RTVSPost2010Prop34
280
     0
102
RTVSPost2010PropOp34
 70
     1
102
RTVSPost2010Prop35
280
     0
102
RTVSPost2010PropOp35
 70
     1
102
RTVSPost2010Prop36
280
     0
102
RTVSPost2010PropOp36
 70
     1
102
RTVSPost2010Prop37
 90
       50
102
RTVSPost2010PropOp37
 70
     1
102
RTVSPost2010Prop38
140
0.0
102
RTVSPost2010PropOp38
 70
     1
102
RTVSPost2010Prop39
140
1.0
102
RTVSPost2010PropOp39
 70
     1
102
RTVSPost2010Prop40
 90
        0
102
RTVSPost2010PropOp40
 70
     1
102
RTVSPost2010Prop41ColorIndex
 90
       18
102
RTVSPost2010Prop41ColorRGB
 90
        0
102
RTVSPost2010PropOp41
 70
     1
102
RTVSPost2010Prop42
 90
       50
102
RTVSPost2010PropOp42
 70
     1
102
RTVSPost2010Prop43
 90
        3
102
RTVSPost2010PropOp43
 70
     1
102
RTVSPost2010Prop44ColorIndex
 90
        5
102
RTVSPost2010Prop44ColorRGB
 90
      255
102
RTVSPost2010PropOp44
 70
     1
102
RTVSPost2010Prop45
280
     0
102
RTVSPost2010PropOp45
 70
     1
102
RTVSPost2010Prop46
 90
       50
102
RTVSPost2010PropOp46
 70
     1
102
RTVSPost2010Prop47
 90
       50
102
RTVSPost2010PropOp47
 70
     1
102
RTVSPost2010Prop48
 90
       50
102
RTVSPost2010PropOp48
 70
     1
102
RTVSPost2010Prop49
280
     0
102
RTVSPost2010PropOp49
 70
     1
102
RTVSPost2010Prop50
 90
       50
102
RTVSPost2010PropOp50
 70
     1
102
RTVSPost2010Prop51ColorIndex
 90
      256
102
RTVSPost2010Prop51ColorRGB
 90
-16777216
102
RTVSPost2010PropOp51
 70
     0
102
RTVSPost2010Prop52
140
1.0
102
RTVSPost2010PropOp52
 70
     0
102
RTVSPost2010Prop53
 90
        2
102
RTVSPost2010PropOp53
 70
     1
102
RTVSPost2010Prop54
  1
strokes_ogs.tif
102
RTVSPost2010PropOp54
 70
     1
102
RTVSPost2010Prop55
280
     0
102
RTVSPost2010PropOp55
 70
     1
102
RTVSPost2010Prop56
140
1.0
102
RTVSPost2010PropOp56
 70
     1
102
RTVSPost2010Prop57
140
1.0
102
RTVSPost2010PropOp57
 70
     1
  0
XRECORD
  5
678
102
{ACAD_REACTORS
330
677
102
}
330
677
100
AcDbXrecord
280
     1
102
RTVSPropertyOp0
 70
     1
102
RTVSPropertyOp1
 70
     1
102
RTVSPropertyOp2
 70
     1
102
RTVSPropertyOp3
 70
     1
102
RTVSPropertyOp4
 70
     1
102
RTVSPropertyOp5
 70
     1
102
RTVSPropertyOp6
 70
     1
102
RTVSPropertyOp7
 70
     1
102
RTVSPropertyOp8
 70
     1
102
RTVSPropertyOp9
 70
     1
102
RTVSPropertyOp10
 70
     1
102
RTVSPropertyOp11
 70
     1
102
RTVSPropertyOp12
 70
     1
102
RTVSPropertyOp13
 70
     1
102
RTVSPropertyOp14
 70
     1
102
RTVSPropertyOp15
 70
     1
102
RTVSPropertyOp16
 70
     1
102
RTVSPropertyOp17
 70
     1
102
RTVSPropertyOp18
 70
     1
102
RTVSPropertyOp19
 70
     1
102
RTVSPropertyOp20
 70
     1
102
RTVSPropertyOp21
 70
     1
102
RTVSPropertyOp22
 70
     1
102
RTVSPropertyOp23
 70
     1
102
RTVSPropertyOp24
 70
     1
102
RTVSPropertyOp25
 70
     1
102
RTVSPropertyOp26
 70
     1
102
RTVSPropertyOp27
 70
     1
102
RTVSPropertyOp28
 70
     1
102
RTVSPropertyOp29
 70
     1
102
RTVSPropertyOp30
 70
     1
102
RTVSPropertyOp31
 70
     1
102
RTVSPropertyOp32
 70
     1
102
RTVSPropertyOp33
 70
     1
102
RTVSPropertyOp34
 70
     1
102
RTVSPropertyOp35
 70
     1
102
RTVSPropertyOp36
 70
     1
102
RTVSPropertyOp37
 70
     1
102
RTVSPropertyOp38
 70
     1
102
RTVSPropertyOp39
 70
     1
102
RTVSPropertyOp40
 70
     1
102
RTVSPropertyOp41
 70
     1
102
RTVSPropertyOp42
 70
     1
102
RTVSPropertyOp43
 70
     1
102
RTVSPropertyOp44
 70
     1
102
RTVSPropertyOp45
 70
     1
102
RTVSPropertyOp46
 70
     1
102
RTVSPropertyOp47
 70
     1
102
RTVSPropertyOp48
 70
     1
102
RTVSPropertyOp49
 70
     1
102
RTVSPropertyOp50
 70
     1
102
RTVSPropertyOp51
 70
     0
102
RTVSPropertyOp52
 70
     0
102
RTVSPropertyOp53
 70
     1
102
RTVSPropertyOp54
 70
     1
102
RTVSPropertyOp55
 70
     1
102
RTVSPropertyOp56
 70
     1
102
RTVSPropertyOp57
 70
     1
102
RTVSPost2010Prop28
280
     0
102
RTVSPost2010PropOp28
 70
     1
102
RTVSPost2010Prop29
280
     1
102
RTVSPost2010PropOp29
 70
     1
102
RTVSPost2010Prop30
280
     1
102
RTVSPost2010PropOp30
 70
     1
102
RTVSPost2010Prop31
280
     0
102
RTVSPost2010PropOp31
 70
     1
102
RTVSPost2010Prop32
280
     0
102
RTVSPost2010PropOp32
 70
     1
102
RTVSPost2010Prop33
280
     0
102
RTVSPost2010PropOp33
 70
     1
102
RTVSPost2010Prop34
280
     0
102
RTVSPost2010PropOp34
 70
     1
102
RTVSPost2010Prop35
280
     0
102
RTVSPost2010PropOp35
 70
     1
102
RTVSPost2010Prop36
280
     0
102
RTVSPost2010PropOp36
 70
     1
102
RTVSPost2010Prop37
 90
       50
102
RTVSPost2010PropOp37
 70
     1
102
RTVSPost2010Prop38
140
0.0
102
RTVSPost2010PropOp38
 70
     1
102
RTVSPost2010Prop39
140
1.0
102
RTVSPost2010PropOp39
 70
     1
102
RTVSPost2010Prop40
 90
        0
102
RTVSPost2010PropOp40
 70
     1
102
RTVSPost2010Prop41ColorIndex
 90
       18
102
RTVSPost2010Prop41ColorRGB
 90
        0
102
RTVSPost2010PropOp41
 70
     1
102
RTVSPost2010Prop42
 90
       50
102
RTVSPost2010PropOp42
 70
     1
102
RTVSPost2010Prop43
 90
        3
102
RTVSPost2010PropOp43
 70
     1
102
RTVSPost2010Prop44ColorIndex
 90
        5
102
RTVSPost2010Prop44ColorRGB
 90
      255
102
RTVSPost2010PropOp44
 70
     1
102
RTVSPost2010Prop45
280
     0
102
RTVSPost2010PropOp45
 70
     1
102
RTVSPost2010Prop46
 90
       50
102
RTVSPost2010PropOp46
 70
     1
102
RTVSPost2010Prop47
 90
       50
102
RTVSPost2010PropOp47
 70
     1
102
RTVSPost2010Prop48
 90
       50
102
RTVSPost2010PropOp48
 70
     1
102
RTVSPost2010Prop49
280
     0
102
RTVSPost2010PropOp49
 70
     1
102
RTVSPost2010Prop50
 90
       50
102
RTVSPost2010PropOp50
 70
     1
102
RTVSPost2010Prop51ColorIndex
 90
      256
102
RTVSPost2010Prop51ColorRGB
 90
-16777216
102
RTVSPost2010PropOp51
 70
     0
102
RTVSPost2010Prop52
140
1.0
102
RTVSPost2010PropOp52
 70
     0
102
RTVSPost2010Prop53
 90
        2
102
RTVSPost2010PropOp53
 70
     1
102
RTVSPost2010Prop54
  1
strokes_ogs.tif
102
RTVSPost2010PropOp54
 70
     1
102
RTVSPost2010Prop55
280
     0
102
RTVSPost2010PropOp55
 70
     1
102
RTVSPost2010Prop56
140
1.0
102
RTVSPost2010PropOp56
 70
     1
102
RTVSPost2010Prop57
140
1.0
102
RTVSPost2010PropOp57
 70
     1
  0
XRECORD
  5
6A0
102
{ACAD_REACTORS
330
69F
102
}
330
69F
100
AcDbXrecord
280
     1
102
RTVSPropertyOp0
 70
     1
102
RTVSPropertyOp1
 70
     1
102
RTVSPropertyOp2
 70
     1
102
RTVSPropertyOp3
 70
     1
102
RTVSPropertyOp4
 70
     1
102
RTVSPropertyOp5
 70
     1
102
RTVSPropertyOp6
 70
     1
102
RTVSPropertyOp7
 70
     1
102
RTVSPropertyOp8
 70
     1
102
RTVSPropertyOp9
 70
     1
102
RTVSPropertyOp10
 70
     1
102
RTVSPropertyOp11
 70
     1
102
RTVSPropertyOp12
 70
     1
102
RTVSPropertyOp13
 70
     1
102
RTVSPropertyOp14
 70
     1
102
RTVSPropertyOp15
 70
     1
102
RTVSPropertyOp16
 70
     1
102
RTVSPropertyOp17
 70
     1
102
RTVSPropertyOp18
 70
     1
102
RTVSPropertyOp19
 70
     1
102
RTVSPropertyOp20
 70
     1
102
RTVSPropertyOp21
 70
     1
102
RTVSPropertyOp22
 70
     1
102
RTVSPropertyOp23
 70
     1
102
RTVSPropertyOp24
 70
     1
102
RTVSPropertyOp25
 70
     1
102
RTVSPropertyOp26
 70
     1
102
RTVSPropertyOp27
 70
     1
102
RTVSPropertyOp28
 70
     1
102
RTVSPropertyOp29
 70
     1
102
RTVSPropertyOp30
 70
     1
102
RTVSPropertyOp31
 70
     1
102
RTVSPropertyOp32
 70
     1
102
RTVSPropertyOp33
 70
     1
102
RTVSPropertyOp34
 70
     1
102
RTVSPropertyOp35
 70
     1
102
RTVSPropertyOp36
 70
     1
102
RTVSPropertyOp37
 70
     1
102
RTVSPropertyOp38
 70
     1
102
RTVSPropertyOp39
 70
     1
102
RTVSPropertyOp40
 70
     1
102
RTVSPropertyOp41
 70
     1
102
RTVSPropertyOp42
 70
     1
102
RTVSPropertyOp43
 70
     1
102
RTVSPropertyOp44
 70
     1
102
RTVSPropertyOp45
 70
     1
102
RTVSPropertyOp46
 70
     1
102
RTVSPropertyOp47
 70
     1
102
RTVSPropertyOp48
 70
     1
102
RTVSPropertyOp49
 70
     1
102
RTVSPropertyOp50
 70
     1
102
RTVSPropertyOp51
 70
     0
102
RTVSPropertyOp52
 70
     0
102
RTVSPropertyOp53
 70
     1
102
RTVSPropertyOp54
 70
     1
102
RTVSPropertyOp55
 70
     1
102
RTVSPropertyOp56
 70
     1
102
RTVSPropertyOp57
 70
     1
102
RTVSPost2010Prop28
280
     0
102
RTVSPost2010PropOp28
 70
     1
102
RTVSPost2010Prop29
280
     1
102
RTVSPost2010PropOp29
 70
     1
102
RTVSPost2010Prop30
280
     1
102
RTVSPost2010PropOp30
 70
     1
102
RTVSPost2010Prop31
280
     0
102
RTVSPost2010PropOp31
 70
     1
102
RTVSPost2010Prop32
280
     0
102
RTVSPost2010PropOp32
 70
     1
102
RTVSPost2010Prop33
280
     0
102
RTVSPost2010PropOp33
 70
     1
102
RTVSPost2010Prop34
280
     0
102
RTVSPost2010PropOp34
 70
     1
102
RTVSPost2010Prop35
280
     0
102
RTVSPost2010PropOp35
 70
     1
102
RTVSPost2010Prop36
280
     0
102
RTVSPost2010PropOp36
 70
     1
102
RTVSPost2010Prop37
 90
       50
102
RTVSPost2010PropOp37
 70
     1
102
RTVSPost2010Prop38
140
0.0
102
RTVSPost2010PropOp38
 70
     1
102
RTVSPost2010Prop39
140
1.0
102
RTVSPost2010PropOp39
 70
     1
102
RTVSPost2010Prop40
 90
        0
102
RTVSPost2010PropOp40
 70
     1
102
RTVSPost2010Prop41ColorIndex
 90
       18
102
RTVSPost2010Prop41ColorRGB
 90
        0
102
RTVSPost2010PropOp41
 70
     1
102
RTVSPost2010Prop42
 90
       50
102
RTVSPost2010PropOp42
 70
     1
102
RTVSPost2010Prop43
 90
        3
102
RTVSPost2010PropOp43
 70
     1
102
RTVSPost2010Prop44ColorIndex
 90
        5
102
RTVSPost2010Prop44ColorRGB
 90
      255
102
RTVSPost2010PropOp44
 70
     1
102
RTVSPost2010Prop45
280
     0
102
RTVSPost2010PropOp45
 70
     1
102
RTVSPost2010Prop46
 90
       50
102
RTVSPost2010PropOp46
 70
     1
102
RTVSPost2010Prop47
 90
       50
102
RTVSPost2010PropOp47
 70
     1
102
RTVSPost2010Prop48
 90
       50
102
RTVSPost2010PropOp48
 70
     1
102
RTVSPost2010Prop49
280
     0
102
RTVSPost2010PropOp49
 70
     1
102
RTVSPost2010Prop50
 90
       50
102
RTVSPost2010PropOp50
 70
     1
102
RTVSPost2010Prop51ColorIndex
 90
      256
102
RTVSPost2010Prop51ColorRGB
 90
-16777216
102
RTVSPost2010PropOp51
 70
     0
102
RTVSPost2010Prop52
140
1.0
102
RTVSPost2010PropOp52
 70
     0
102
RTVSPost2010Prop53
 90
        2
102
RTVSPost2010PropOp53
 70
     1
102
RTVSPost2010Prop54
  1
strokes_ogs.tif
102
RTVSPost2010PropOp54
 70
     1
102
RTVSPost2010Prop55
280
     0
102
RTVSPost2010PropOp55
 70
     1
102
RTVSPost2010Prop56
140
1.0
102
RTVSPost2010PropOp56
 70
     1
102
RTVSPost2010Prop57
140
1.0
102
RTVSPost2010PropOp57
 70
     1
  0
ENDSEC
  0
EOF
