  0
SECTION
  2
HEADER
  9
$ACADVER
  1
AC1015
  9
$ACADMAINTVER
 70
     6
  9
$DWGCODEPAGE
  3
ANSI_932
  9
$INSBASE
 10
3758.638861446825
 20
1348.172587671936
 30
0.0
  9
$EXTMIN
 10
233.2232430432969
 20
64.12615488928441
 30
0.0
  9
$EXTMAX
 10
1985.115613097071
 20
1826.085594808895
 30
0.0
  9
$LIMMIN
 10
0.0
 20
0.0
  9
$LIMMAX
 10
816.5000000000001
 20
565.0
  9
$ORTHOMODE
 70
     0
  9
$REGENMODE
 70
     1
  9
$FILLMODE
 70
     1
  9
$QTEXTMODE
 70
     0
  9
$MIRRTEXT
 70
     1
  9
$LTSCALE
 40
20.0
  9
$ATTMODE
 70
     1
  9
$TEXTSIZE
 40
18.0
  9
$TRACEWID
 40
0.05
  9
$TEXTSTYLE
  7
KANJI
  9
$CLAYER
  8
2
  9
$CELTYPE
  6
BYLAYER
  9
$CECOLOR
 62
   256
  9
$CELTSCALE
 40
1.0
  9
$DISPSILH
 70
     0
  9
$DIMSCALE
 40
6.0
  9
$DIMASZ
 40
2.0
  9
$DIMEXO
 40
0.5
  9
$DIMDLI
 40
0.0
  9
$DIMRND
 40
0.0
  9
$DIMDLE
 40
0.0
  9
$DIMEXE
 40
1.0
  9
$DIMTP
 40
0.0
  9
$DIMTM
 40
0.0
  9
$DIMTXT
 40
3.0
  9
$DIMCEN
 40
0.09
  9
$DIMTSZ
 40
0.0
  9
$DIMTOL
 70
     0
  9
$DIMLIM
 70
     0
  9
$DIMTIH
 70
     0
  9
$DIMTOH
 70
     0
  9
$DIMSE1
 70
     0
  9
$DIMSE2
 70
     0
  9
$DIMTAD
 70
     0
  9
$DIMZIN
 70
     8
  9
$DIMBLK
  1

  9
$DIMASO
 70
     0
  9
$DIMSHO
 70
     0
  9
$DIMPOST
  1

  9
$DIMAPOST
  1

  9
$DIMALT
 70
     0
  9
$DIMALTD
 70
     2
  9
$DIMALTF
 40
25.4
  9
$DIMLFAC
 40
1.0
  9
$DIMTOFL
 70
     1
  9
$DIMTVP
 40
1.0
  9
$DIMTIX
 70
     1
  9
$DIMSOXD
 70
     1
  9
$DIMSAH
 70
     0
  9
$DIMBLK1
  1

  9
$DIMBLK2
  1

  9
$DIMSTYLE
  2
STANDARD
  9
$DIMCLRD
 70
   256
  9
$DIMCLRE
 70
   256
  9
$DIMCLRT
 70
   256
  9
$DIMTFAC
 40
1.0
  9
$DIMGAP
 40
0.09
  9
$DIMJUST
 70
     0
  9
$DIMSD1
 70
     0
  9
$DIMSD2
 70
     0
  9
$DIMTOLJ
 70
     1
  9
$DIMTZIN
 70
     0
  9
$DIMALTZ
 70
     0
  9
$DIMALTTZ
 70
     0
  9
$DIMUPT
 70
     0
  9
$DIMDEC
 70
     1
  9
$DIMTDEC
 70
     4
  9
$DIMALTU
 70
     2
  9
$DIMALTTD
 70
     2
  9
$DIMTXSTY
  7
STANDARD
  9
$DIMAUNIT
 70
     0
  9
$DIMADEC
 70
     0
  9
$DIMALTRND
 40
0.0
  9
$DIMAZIN
 70
     0
  9
$DIMDSEP
 70
    46
  9
$DIMATFIT
 70
     3
  9
$DIMFRAC
 70
     0
  9
$DIMLDRBLK
  1

  9
$DIMLUNIT
 70
     2
  9
$DIMLWD
 70
    -2
  9
$DIMLWE
 70
    -2
  9
$DIMTMOVE
 70
     0
  9
$LUNITS
 70
     2
  9
$LUPREC
 70
     3
  9
$SKETCHINC
 40
0.1
  9
$FILLETRAD
 40
2.0
  9
$AUNITS
 70
     0
  9
$AUPREC
 70
     3
  9
$MENU
  1
C:\R13\WIN\SUPPORT\ACADFULL
  9
$ELEVATION
 40
0.0
  9
$PELEVATION
 40
0.0
  9
$THICKNESS
 40
0.0
  9
$LIMCHECK
 70
     0
  9
$CHAMFERA
 40
0.0
  9
$CHAMFERB
 40
0.0
  9
$CHAMFERC
 40
0.0
  9
$CHAMFERD
 40
0.0
  9
$SKPOLY
 70
     0
  9
$TDCREATE
 40
2449812.756805555
  9
$TDUCREATE
 40
2449812.381805555
  9
$TDUPDATE
 40
2457871.833860521
  9
$TDUUPDATE
 40
2457871.458860521
  9
$TDINDWG
 40
1.2241627083
  9
$TDUSRTIMER
 40
1.2241625347
  9
$USRTIMER
 70
     1
  9
$ANGBASE
 50
0.0
  9
$ANGDIR
 70
     0
  9
$PDMODE
 70
     0
  9
$PDSIZE
 40
0.0
  9
$PLINEWID
 40
0.0
  9
$SPLFRAME
 70
     0
  9
$SPLINETYPE
 70
     6
  9
$SPLINESEGS
 70
     8
  9
$HANDSEED
  5
6B4
  9
$SURFTAB1
 70
     6
  9
$SURFTAB2
 70
     6
  9
$SURFTYPE
 70
     6
  9
$SURFU
 70
     6
  9
$SURFV
 70
     6
  9
$UCSBASE
  2

  9
$UCSNAME
  2

  9
$UCSORG
 10
0.0
 20
0.0
 30
0.0
  9
$UCSXDIR
 10
1.0
 20
0.0
 30
0.0
  9
$UCSYDIR
 10
0.0
 20
1.0
 30
0.0
  9
$UCSORTHOREF
  2

  9
$UCSORTHOVIEW
 70
     0
  9
$UCSORGTOP
 10
0.0
 20
0.0
 30
0.0
  9
$UCSORGBOTTOM
 10
0.0
 20
0.0
 30
0.0
  9
$UCSORGLEFT
 10
0.0
 20
0.0
 30
0.0
  9
$UCSORGRIGHT
 10
0.0
 20
0.0
 30
0.0
  9
$UCSORGFRONT
 10
0.0
 20
0.0
 30
0.0
  9
$UCSORGBACK
 10
0.0
 20
0.0
 30
0.0
  9
$PUCSBASE
  2

  9
$PUCSNAME
  2

  9
$PUCSORG
 10
0.0
 20
0.0
 30
0.0
  9
$PUCSXDIR
 10
1.0
 20
0.0
 30
0.0
  9
$PUCSYDIR
 10
0.0
 20
1.0
 30
0.0
  9
$PUCSORTHOREF
  2

  9
$PUCSORTHOVIEW
 70
     0
  9
$PUCSORGTOP
 10
0.0
 20
0.0
 30
0.0
  9
$PUCSORGBOTTOM
 10
0.0
 20
0.0
 30
0.0
  9
$PUCSORGLEFT
 10
0.0
 20
0.0
 30
0.0
  9
$PUCSORGRIGHT
 10
0.0
 20
0.0
 30
0.0
  9
$PUCSORGFRONT
 10
0.0
 20
0.0
 30
0.0
  9
$PUCSORGBACK
 10
0.0
 20
0.0
 30
0.0
  9
$USERI1
 70
     0
  9
$USERI2
 70
     0
  9
$USERI3
 70
     0
  9
$USERI4
 70
     0
  9
$USERI5
 70
     0
  9
$USERR1
 40
0.0
  9
$USERR2
 40
0.0
  9
$USERR3
 40
0.0
  9
$USERR4
 40
2448925.372986111
  9
$USERR5
 40
0.04166667
  9
$WORLDVIEW
 70
     1
  9
$SHADEDGE
 70
     3
  9
$SHADEDIF
 70
    70
  9
$TILEMODE
 70
     1
  9
$MAXACTVP
 70
    16
  9
$PINSBASE
 10
0.0
 20
0.0
 30
0.0
  9
$PLIMCHECK
 70
     0
  9
$PEXTMIN
 10
1.000000000000000E+20
 20
1.000000000000000E+20
 30
1.000000000000000E+20
  9
$PEXTMAX
 10
-1.000000000000000E+20
 20
-1.000000000000000E+20
 30
-1.000000000000000E+20
  9
$PLIMMIN
 10
0.0
 20
0.0
  9
$PLIMMAX
 10
12.0
 20
9.0
  9
$UNITMODE
 70
     0
  9
$VISRETAIN
 70
     0
  9
$PLINEGEN
 70
     0
  9
$PSLTSCALE
 70
     0
  9
$TREEDEPTH
 70
  3020
  9
$CMLSTYLE
  2
STANDARD
  9
$CMLJUST
 70
     0
  9
$CMLSCALE
 40
1.0
  9
$PROXYGRAPHICS
 70
     1
  9
$MEASUREMENT
 70
     0
  9
$CELWEIGHT
370
    -1
  9
$ENDCAPS
280
     0
  9
$JOINSTYLE
280
     0
  9
$LWDISPLAY
290
     0
  9
$INSUNITS
 70
     0
  9
$HYPERLINKBASE
  1

  9
$STYLESHEET
  1
monochrome.ctb
  9
$XEDIT
290
     1
  9
$CEPSNTYPE
380
     0
  9
$PSTYLEMODE
290
     1
  9
$FINGERPRINTGUID
  2
{90BCA920-1E4E-4417-AEB1-10B435284F28}
  9
$VERSIONGUID
  2
{6313224E-A8DF-45E2-A9FF-E86927C0721D}
  9
$EXTNAMES
290
     1
  9
$PSVPSCALE
 40
0.0
  9
$OLESTARTUP
290
     0
  0
ENDSEC
  0
SECTION
  2
CLASSES
  0
CLASS
  1
ACDBDICTIONARYWDFLT
  2
AcDbDictionaryWithDefault
  3
ObjectDBX Classes
 90
        0
280
     0
281
     0
  0
CLASS
  1
MATERIAL
  2
AcDbMaterial
  3
ObjectDBX Classes
 90
     1153
280
     0
281
     0
  0
CLASS
  1
SORTENTSTABLE
  2
AcDbSortentsTable
  3
ObjectDBX Classes
 90
        0
280
     0
281
     0
  0
CLASS
  1
VISUALSTYLE
  2
AcDbVisualStyle
  3
ObjectDBX Classes
 90
     4095
280
     0
281
     0
  0
CLASS
  1
SCALE
  2
AcDbScale
  3
ObjectDBX Classes
 90
     1153
280
     0
281
     0
  0
CLASS
  1
DICTIONARYVAR
  2
AcDbDictionaryVar
  3
ObjectDBX Classes
 90
        0
280
     0
281
     0
  0
CLASS
  1
MLEADERSTYLE
  2
AcDbMLeaderStyle
  3
ACDB_MLEADERSTYLE_CLASS
 90
     4095
280
     0
281
     0
  0
CLASS
  1
TABLESTYLE
  2
AcDbTableStyle
  3
ObjectDBX Classes
 90
     4095
280
     0
281
     0
  0
CLASS
  1
ACDBPLACEHOLDER
  2
AcDbPlaceHolder
  3
ObjectDBX Classes
 90
        0
280
     0
281
     0
  0
CLASS
  1
LAYOUT
  2
AcDbLayout
  3
ObjectDBX Classes
 90
        0
280
     0
281
     0
  0
ENDSEC
  0
SECTION
  2
TABLES
  0
TABLE
  2
VPORT
  5
2B
102
{ACAD_XDICTIONARY
360
679
102
}
330
0
100
AcDbSymbolTable
 70
     1
  0
VPORT
  5
33
330
2B
100
AcDbSymbolTableRecord
100
AcDbViewportTableRecord
  2
*Active
 70
     0
 10
0.0
 20
0.0
 11
1.0
 21
1.0
 12
1640.71693771754
 22
815.1203617140814
 13
0.0
 23
0.0
 14
1.0
 24
1.0
 15
50.0
 25
50.0
 16
0.0
 26
0.0
 36
1.0
 17
0.0
 27
0.0
 37
0.0
 40
2209.825121203261
 41
2.174107142857143
 42
50.0
 43
0.0
 44
0.0
 50
0.0
 51
0.0
 71
     0
 72
  5000
 73
     1
 74
     0
 75
     0
 76
     0
 77
     0
 78
     0
281
     0
 65
     1
110
0.0
120
0.0
130
0.0
111
1.0
121
0.0
131
0.0
112
0.0
122
1.0
132
0.0
 79
     0
146
0.0
1001
ACAD_NAV_VCDISPLAY
1070
     3
  0
ENDTAB
  0
TABLE
  2
LTYPE
  5
D
330
0
100
AcDbSymbolTable
 70
     4
  0
LTYPE
  5
E
330
D
100
AcDbSymbolTableRecord
100
AcDbLinetypeTableRecord
  2
BYBLOCK
 70
     0
  3

 72
    65
 73
     0
 40
0.0
  0
LTYPE
  5
F
330
D
100
AcDbSymbolTableRecord
100
AcDbLinetypeTableRecord
  2
BYLAYER
 70
     0
  3

 72
    65
 73
     0
 40
0.0
  0
LTYPE
  5
C
330
D
100
AcDbSymbolTableRecord
100
AcDbLinetypeTableRecord
  2
CONTINUOUS
 70
     0
  3
Solid line
 72
    65
 73
     0
 40
0.0
  0
LTYPE
  5
7D
330
D
100
AcDbSymbolTableRecord
100
AcDbLinetypeTableRecord
  2
CENTER
 70
     0
  3
____ _ ____ _ ____ _ ____ _ ____ _ ____ _ ____
 72
    65
 73
     4
 40
2.0
 49
1.25
 74
     0
 49
-0.25
 74
     0
 49
0.25
 74
     0
 49
-0.25
 74
     0
  0
LTYPE
  5
4DF
330
D
100
AcDbSymbolTableRecord
100
AcDbLinetypeTableRecord
  2
DASHED
 70
     0
  3
Dashed __ __ __ __ __ __ __ __ __ __ __ __ __ _
 72
    65
 73
     2
 40
0.75
 49
0.5
 74
     0
 49
-0.25
 74
     0
  0
ENDTAB
  0
TABLE
  2
LAYER
  5
2
102
{ACAD_XDICTIONARY
360
3
102
}
330
0
100
AcDbSymbolTable
 70
     8
  0
LAYER
  5
1D
102
{ACAD_XDICTIONARY
360
1E
102
}
330
2
100
AcDbSymbolTableRecord
100
AcDbLayerTableRecord
  2
0
 70
     0
 62
     7
  6
CONTINUOUS
370
    -3
390
7
  0
LAYER
  5
35A
102
{ACAD_XDICTIONARY
360
35B
102
}
330
2
100
AcDbSymbolTableRecord
100
AcDbLayerTableRecord
  2
1
 70
     0
 62
     9
  6
CONTINUOUS
370
    -3
390
7
  0
LAYER
  5
1
102
{ACAD_XDICTIONARY
360
5
102
}
330
2
100
AcDbSymbolTableRecord
100
AcDbLayerTableRecord
  2
2
 70
     0
 62
     4
  6
CONTINUOUS
370
    -3
390
7
  0
LAYER
  5
6D
102
{ACAD_XDICTIONARY
360
6E
102
}
330
2
100
AcDbSymbolTableRecord
100
AcDbLayerTableRecord
  2
4
 70
     0
 62
     3
  6
CONTINUOUS
370
    -3
390
7
  0
LAYER
  5
7A
102
{ACAD_XDICTIONARY
360
7B
102
}
330
2
100
AcDbSymbolTableRecord
100
AcDbLayerTableRecord
  2
L-CENTER
 70
     0
 62
     1
  6
CENTER
370
    -3
390
7
  0
LAYER
  5
89
102
{ACAD_XDICTIONARY
360
8A
102
}
330
2
100
AcDbSymbolTableRecord
100
AcDbLayerTableRecord
  2
3
 70
     0
 62
     2
  6
CONTINUOUS
370
    -3
390
7
  0
LAYER
  5
354
330
2
100
AcDbSymbolTableRecord
100
AcDbLayerTableRecord
  2
5
 70
     0
 62
     6
  6
CONTINUOUS
370
    -3
390
7
  0
LAYER
  5
664
330
2
100
AcDbSymbolTableRecord
100
AcDbLayerTableRecord
  2
Defpoints
 70
     0
 62
     7
  6
CONTINUOUS
290
     0
370
    -3
390
7
  0
ENDTAB
  0
TABLE
  2
STYLE
  5
11
330
0
100
AcDbSymbolTable
 70
     2
  0
STYLE
  5
15
330
11
100
AcDbSymbolTableRecord
100
AcDbTextStyleTableRecord
  2
STANDARD
 70
     0
 40
0.0
 41
1.0
 50
0.0
 71
     0
 42
10.79999999999999
  3
TXT
  4

  0
STYLE
  5
10
330
11
100
AcDbSymbolTableRecord
100
AcDbTextStyleTableRecord
  2
KANJI
 70
     0
 40
0.0
 41
1.0
 50
0.0
 71
     0
 42
18.0
  3
TXT
  4
BIGFONT
  0
ENDTAB
  0
TABLE
  2
VIEW
  5
29
330
0
100
AcDbSymbolTable
 70
     0
  0
ENDTAB
  0
TABLE
  2
UCS
  5
2A
330
0
100
AcDbSymbolTable
 70
     0
  0
ENDTAB
  0
TABLE
  2
APPID
  5
24
330
0
100
AcDbSymbolTable
 70
     4
  0
APPID
  5
32
330
24
100
AcDbSymbolTableRecord
100
AcDbRegAppTableRecord
  2
ACAD
 70
     0
  0
APPID
  5
34
330
24
100
AcDbSymbolTableRecord
100
AcDbRegAppTableRecord
  2
ACAD_NAV_VCDISPLAY
 70
     0
  0
APPID
  5
23
330
24
100
AcDbSymbolTableRecord
100
AcDbRegAppTableRecord
  2
ACAD_PSEXT
 70
     0
  0
APPID
  5
62E
330
24
100
AcDbSymbolTableRecord
100
AcDbRegAppTableRecord
  2
ACAD_MLEADERVER
 70
     0
  0
ENDTAB
  0
TABLE
  2
DIMSTYLE
  5
14
330
0
100
AcDbSymbolTable
 70
     1
100
AcDbDimStyleTable
  0
DIMSTYLE
105
13
330
14
100
AcDbSymbolTableRecord
100
AcDbDimStyleTableRecord
  2
STANDARD
 70
     0
178
     0
340
15
  0
ENDTAB
  0
TABLE
  2
BLOCK_RECORD
  5
18
330
0
100
AcDbSymbolTable
 70
     0
  0
BLOCK_RECORD
  5
19
102
{ACAD_XDICTIONARY
360
1A
102
}
330
18
100
AcDbSymbolTableRecord
100
AcDbBlockTableRecord
  2
*MODEL_SPACE
340
21
  0
BLOCK_RECORD
  5
25
330
18
100
AcDbSymbolTableRecord
100
AcDbBlockTableRecord
  2
*PAPER_SPACE
340
28
  0
ENDTAB
  0
ENDSEC
  0
SECTION
  2
BLOCKS
  0
BLOCK
  5
1C
330
19
100
AcDbEntity
  8
0
100
AcDbBlockBegin
  2
*MODEL_SPACE
 70
     0
 10
0.0
 20
0.0
 30
0.0
  3
*MODEL_SPACE
  1

  0
ENDBLK
  5
20
330
19
100
AcDbEntity
  8
0
100
AcDbBlockEnd
  0
BLOCK
  5
26
330
25
100
AcDbEntity
 67
     1
  8
0
100
AcDbBlockBegin
  2
*PAPER_SPACE
 70
     0
 10
0.0
 20
0.0
 30
0.0
  3
*PAPER_SPACE
  1

  0
ENDBLK
  5
27
330
25
100
AcDbEntity
 67
     1
  8
0
100
AcDbBlockEnd
  0
ENDSEC
  0
SECTION
  2
ENTITIES
  0
LINE
  5
6C
330
19
100
AcDbEntity
  8
4
100
AcDbLine
 10
769.6464228788791
 20
274.3895848892844
 30
0.0
 11
769.6464228788791
 21
149.1261548892844
 31
0.0
  0
LINE
  5
70
330
19
100
AcDbEntity
  8
4
100
AcDbLine
 10
464.5394878788793
 20
288.5472948892843
 30
0.0
 11
478.704282878879
 21
157.3634598892845
 31
0.0
  0
LINE
  5
71
330
19
100
AcDbEntity
  8
4
100
AcDbLine
 10
578.7533578788789
 20
288.5472948892843
 30
0.0
 11
564.5885628788792
 21
157.3634598892845
 31
0.0
  0
LINE
  5
72
330
19
100
AcDbEntity
  8
4
100
AcDbLine
 10
273.6464228788791
 20
274.3895848892844
 30
0.0
 11
273.6464228788791
 21
149.1261548892844
 31
0.0
  0
CIRCLE
  5
73
330
19
100
AcDbEntity
  8
4
100
AcDbCircle
 10
521.6464228788791
 20
369.1261548892844
 30
0.0
 40
250.0
  0
ARC
  5
74
330
19
100
AcDbEntity
  8
4
100
AcDbCircle
 10
521.6464228788791
 20
369.1261548892844
 30
0.0
 40
220.0
100
AcDbArc
 50
96.58510479247461
 51
83.41489520752539
  0
ARC
  5
75
330
19
100
AcDbEntity
  8
4
100
AcDbCircle
 10
546.6464228788792
 20
585.6879243685717
 30
0.0
 40
2.0
100
AcDbArc
 50
83.41489520752658
 51
180.0
  0
ARC
  5
76
330
19
100
AcDbEntity
  8
4
100
AcDbCircle
 10
496.646422878879
 20
585.6879243685717
 30
0.0
 40
2.0
100
AcDbArc
 50
0.0
 51
96.58510479247342
  0
ARC
  5
77
330
19
100
AcDbEntity
  8
4
100
AcDbCircle
 10
-125.3535771211209
 20
369.1261548892844
 30
0.0
 40
900.0
100
AcDbArc
 50
345.742695000007
 51
14.25813799999099
  0
ARC
  5
78
330
19
100
AcDbEntity
  8
4
100
AcDbCircle
 10
1168.646422878879
 20
369.1261548892844
 30
0.0
 40
900.00001
100
AcDbArc
 50
165.7423599999906
 51
194.2581229999902
  0
LINE
  5
79
330
19
100
AcDbEntity
  8
L-CENTER
 48
2.0
100
AcDbLine
 10
521.6464228788791
 20
810.7408998892843
 30
0.0
 11
521.6464228788791
 21
102.778595999037
 31
0.0
  0
LINE
  5
86
330
19
100
AcDbEntity
  8
4
100
AcDbLine
 10
348.6464228788791
 20
139.1261548892844
 30
0.0
 11
249.6464228788791
 21
139.1261548892844
 31
0.0
  0
LINE
  5
87
330
19
100
AcDbEntity
  8
4
100
AcDbLine
 10
381.6464228788791
 20
89.12615488928441
 30
0.0
 11
246.6464228788791
 21
89.12615488928441
 31
0.0
  0
LINE
  5
9F
330
19
100
AcDbEntity
  8
4
100
AcDbLine
 10
246.6464228788791
 20
89.12615488928441
 30
0.0
 11
246.6464228788791
 21
136.1261548892844
 31
0.0
  0
ARC
  5
A0
330
19
100
AcDbEntity
  8
4
100
AcDbCircle
 10
249.6464228788791
 20
136.1261548892844
 30
0.0
 40
3.0
100
AcDbArc
 50
90.0
 51
180.0
  0
ARC
  5
A7
330
19
100
AcDbEntity
  8
4
100
AcDbCircle
 10
521.6466678788793
 20
1016.126154889284
 30
0.0
 40
899.999985
100
AcDbArc
 50
259.1124609999979
 51
280.8884379999988
  0
LINE
  5
AA
330
19
100
AcDbEntity
  8
4
100
AcDbLine
 10
661.6464228788791
 20
89.12615488928441
 30
0.0
 11
796.6464228788791
 21
89.12615488928441
 31
0.0
  0
LINE
  5
D6
330
19
100
AcDbEntity
  8
4
100
AcDbLine
 10
421.6464228788791
 20
113.1261548892844
 30
0.0
 11
621.6464228788791
 21
113.1261548892844
 31
0.0
  0
LINE
  5
D9
330
19
100
AcDbEntity
  8
4
100
AcDbLine
 10
351.6464228788791
 20
89.12615488928441
 30
0.0
 11
351.6464228788791
 21
169.1261548892844
 31
0.0
  0
LINE
  5
DA
330
19
100
AcDbEntity
  8
L-CENTER
 48
2.0
100
AcDbLine
 10
286.6464228788791
 20
64.12615488928441
 30
0.0
 11
286.6464228788792
 21
164.1261548892844
 31
0.0
  0
ARC
  5
DB
330
19
100
AcDbEntity
  8
4
100
AcDbCircle
 10
521.6466678788793
 20
1016.126154889284
 30
0.0
 40
900.00002
100
AcDbArc
 50
255.7422799999995
 51
257.0189519999982
  0
ARC
  5
DC
330
19
100
AcDbEntity
  8
4
100
AcDbCircle
 10
301.216002878879
 20
148.6957348892843
 30
0.0
 40
4.999965
100
AcDbArc
 50
194.2581190000103
 51
255.7418670000024
  0
LINE
  5
DD
330
19
100
AcDbEntity
  8
4
100
AcDbLine
 10
268.6464228788791
 20
140.4658998892846
 30
0.0
 11
268.6464228788791
 21
146.1261548892844
 31
0.0
  0
LINE
  5
DE
330
19
100
AcDbEntity
  8
4
100
AcDbLine
 10
270.6464228788791
 20
141.9847248892843
 30
0.0
 11
270.6464228788791
 21
154.1261548892844
 31
0.0
  0
ARC
  5
DF
330
19
100
AcDbEntity
  8
4
100
AcDbCircle
 10
263.6464228788791
 20
149.1261548892844
 30
0.0
 40
10.0
100
AcDbArc
 50
270.0
 51
0.0
  0
LINE
  5
E0
330
19
100
AcDbEntity
  8
4
100
AcDbLine
 10
273.6464228788791
 20
154.1261548892844
 30
0.0
 11
270.6464228788791
 21
154.1261548892844
 31
0.0
  0
LINE
  5
E1
330
19
100
AcDbEntity
  8
4
100
AcDbLine
 10
268.6464228788791
 20
146.1261548892844
 30
0.0
 11
270.6464228788791
 21
146.1261548892844
 31
0.0
  0
LINE
  5
E2
330
19
100
AcDbEntity
  8
4
100
AcDbLine
 10
339.6464228788791
 20
142.1261548892844
 30
0.0
 11
339.6464228788791
 21
169.1261548892844
 31
0.0
  0
ARC
  5
E3
330
19
100
AcDbEntity
  8
4
100
AcDbCircle
 10
348.6464228788791
 20
136.1261548892844
 30
0.0
 40
3.0
100
AcDbArc
 50
0.0
 51
90.0
  0
ARC
  5
E4
330
19
100
AcDbEntity
  8
4
100
AcDbCircle
 10
336.6464228788791
 20
142.1261548892844
 30
0.0
 40
3.0
100
AcDbArc
 50
270.0
 51
0.0
  0
LINE
  5
E5
330
19
100
AcDbEntity
  8
4
100
AcDbLine
 10
339.6464228788791
 20
169.1261548892844
 30
0.0
 11
351.6464228788791
 21
169.1261548892844
 31
0.0
  0
LINE
  5
E6
330
19
100
AcDbEntity
  8
4
100
AcDbLine
 10
389.4513028788792
 20
105.8822548892845
 30
0.0
 11
421.6464228788791
 21
113.1261548892844
 31
0.0
  0
ARC
  5
E7
330
19
100
AcDbEntity
  8
4
100
AcDbCircle
 10
391.6464228788791
 20
96.12615488928441
 30
0.0
 40
10.0
100
AcDbArc
 50
102.6803830000023
 51
180.0
  0
LINE
  5
E8
330
19
100
AcDbEntity
  8
4
100
AcDbLine
 10
381.6464228788791
 20
89.5143398892842
 30
0.0
 11
381.6464228788791
 21
89.12615488928441
 31
0.0
  0
LINE
  5
E9
330
19
100
AcDbEntity
  8
4
100
AcDbLine
 10
381.6464228788791
 20
89.12615488928441
 30
0.0
 11
381.6464228788791
 21
96.12615488928441
 31
0.0
  0
ARC
  5
EC
330
19
100
AcDbEntity
  8
4
100
AcDbCircle
 10
475.721617878879
 20
157.0414398892844
 30
0.0
 40
3.00005
100
AcDbArc
 50
257.7801900000009
 51
6.162021999997868
  0
ARC
  5
ED
330
19
100
AcDbEntity
  8
4
100
AcDbCircle
 10
567.5712278788792
 20
157.0414398892844
 30
0.0
 40
3.00005
100
AcDbArc
 50
173.8379780000021
 51
282.2198099999991
  0
LINE
  5
EE
330
19
100
AcDbEntity
  8
4
100
AcDbLine
 10
621.6464228788791
 20
113.1261548892844
 30
0.0
 11
653.841542878879
 21
105.8822548892845
 31
0.0
  0
ARC
  5
EF
330
19
100
AcDbEntity
  8
4
100
AcDbCircle
 10
651.6464228788791
 20
96.12615488928441
 30
0.0
 40
10.0
100
AcDbArc
 50
0.0
 51
77.31961699999778
  0
LINE
  5
F0
330
19
100
AcDbEntity
  8
4
100
AcDbLine
 10
661.6464228788791
 20
89.5143398892842
 30
0.0
 11
661.6464228788791
 21
89.12615488928441
 31
0.0
  0
LINE
  5
F1
330
19
100
AcDbEntity
  8
4
100
AcDbLine
 10
661.6464228788791
 20
89.12615488928441
 30
0.0
 11
661.6464228788791
 21
96.12615488928441
 31
0.0
  0
TEXT
  5
F3
330
19
100
AcDbEntity
  8
3
100
AcDbText
 10
967.2209083862051
 20
75.93391029656107
 30
0.0
 40
18.73821597033114
  1
LB9-05
  7
KANJI
100
AcDbText
  0
ARC
  5
F9
330
19
100
AcDbEntity
  8
4
100
AcDbCircle
 10
793.6464228788791
 20
136.1261548892844
 30
0.0
 40
3.0
100
AcDbArc
 50
0.0
 51
90.0
  0
LINE
  5
FA
330
19
100
AcDbEntity
  8
L-CENTER
 48
2.0
100
AcDbLine
 10
756.6464228788791
 20
64.12615488928441
 30
0.0
 11
756.646422878879
 21
164.1261548892844
 31
0.0
  0
LWPOLYLINE
  5
FB
330
19
100
AcDbEntity
  8
4
100
AcDbPolyline
 90
       44
 70
     0
 43
0.0
 10
731.8315278788791
 20
139.1271898892846
 10
732.6771078788788
 20
138.3600598892845
 10
733.4995278788792
 20
137.5924498892846
 10
734.2756178788791
 20
136.8238848892843
 10
736.0942728788791
 20
134.5076398892843
 10
736.4534028788794
 20
133.7304448892846
 10
736.650387878879
 20
132.9498948892842
 10
736.6620578788788
 20
132.1655098892843
 10
736.479157878879
 20
131.3881048892845
 10
736.1287178788789
 20
130.6063098892846
 10
735.6457928788791
 20
129.8199398892843
 10
733.7526128788791
 20
127.4313948892845
 10
731.9289278788792
 20
124.9946298892846
 10
731.500057878879
 20
124.1707498892843
 10
731.2191128788791
 20
123.3407348892842
 10
731.121152878879
 20
122.5043898892845
 10
731.201887878879
 20
121.7841648892845
 10
731.4209128788789
 20
121.0628998892844
 10
731.7568428788791
 20
120.3443298892844
 10
732.1883028788789
 20
119.6321948892846
 10
732.693912878879
 20
118.9302298892844
 10
733.252292878879
 20
118.2421698892845
 10
733.931062878879
 20
117.4708348892846
 10
734.6105928788793
 20
116.7192448892843
 10
735.2500678788792
 20
115.9837748892842
 10
735.8086828788792
 20
115.2607998892845
 10
736.2456078788791
 20
114.5466948892845
 10
736.5200378788791
 20
113.8378348892843
 10
736.5983578788791
 20
113.0439798892844
 10
736.4493728788793
 20
112.2512298892843
 10
736.102342878879
 20
111.4586498892845
 10
734.1656478788791
 20
109.0725398892846
 10
731.5001028788793
 20
106.6541798892845
 10
728.8958478788791
 20
104.1782498892844
 10
728.1779528788793
 20
103.3357748892845
 10
727.583927878879
 20
102.4831498892845
 10
727.1430378788791
 20
101.6194348892841
 10
726.8114528788792
 20
100.3273898892844
 10
726.8309078788789
 20
99.01220488928448
 10
727.1575178788789
 20
97.67677488928439
 10
729.5414928788791
 20
93.57792488928453
 10
730.6579328788794
 20
92.19042988928413
 10
731.862132878879
 20
90.79714988928436
 10
733.1102128788789
 20
89.40097988928437
  0
LINE
  5
FC
330
19
100
AcDbEntity
  8
4
100
AcDbLine
 10
744.6464228788791
 20
139.1261548892844
 30
0.0
 11
744.6464228788791
 21
89.12615488928441
 31
0.0
  0
LINE
  5
FD
330
19
100
AcDbEntity
  8
4
100
AcDbLine
 10
768.6464228788791
 20
139.1261548892844
 30
0.0
 11
768.6464228788791
 21
89.12615488928441
 31
0.0
  0
LINE
  5
FE
330
19
100
AcDbEntity
  8
4
100
AcDbLine
 10
691.6464228788791
 20
89.12615488928441
 30
0.0
 11
691.6464228788791
 21
169.1261548892844
 31
0.0
  0
ARC
  5
100
330
19
100
AcDbEntity
  8
4
100
AcDbCircle
 10
521.6461778788789
 20
1016.126154889284
 30
0.0
 40
900.0000699999999
100
AcDbArc
 50
282.9810610000005
 51
284.2586510000015
  0
LINE
  5
101
330
19
100
AcDbEntity
  8
4
100
AcDbLine
 10
694.6464228788791
 20
139.1261548892844
 30
0.0
 11
793.6464228788791
 21
139.1261548892844
 31
0.0
  0
LINE
  5
102
330
19
100
AcDbEntity
  8
4
100
AcDbLine
 10
703.6464228788791
 20
142.1261548892844
 30
0.0
 11
703.6464228788791
 21
169.1261548892844
 31
0.0
  0
ARC
  5
103
330
19
100
AcDbEntity
  8
4
100
AcDbCircle
 10
706.6464228788791
 20
142.1261548892844
 30
0.0
 40
3.0
100
AcDbArc
 50
180.0
 51
270.0
  0
ARC
  5
104
330
19
100
AcDbEntity
  8
4
100
AcDbCircle
 10
694.6464228788791
 20
136.1261548892844
 30
0.0
 40
3.0
100
AcDbArc
 50
90.0
 51
180.0
  0
LINE
  5
105
330
19
100
AcDbEntity
  8
4
100
AcDbLine
 10
703.6464228788791
 20
169.1261548892844
 30
0.0
 11
691.6464228788791
 21
169.1261548892844
 31
0.0
  0
ARC
  5
106
330
19
100
AcDbEntity
  8
4
100
AcDbCircle
 10
742.0768428788792
 20
148.6957348892843
 30
0.0
 40
4.999965
100
AcDbArc
 50
284.2581329999982
 51
345.7418809999897
  0
ARC
  5
107
330
19
100
AcDbEntity
  8
4
100
AcDbCircle
 10
779.6464228788791
 20
149.1261548892844
 30
0.0
 40
10.0
100
AcDbArc
 50
180.0
 51
270.0014040000001
  0
LINE
  5
10A
330
19
100
AcDbEntity
  8
4
100
AcDbLine
 10
796.6464228788791
 20
89.12615488928441
 30
0.0
 11
796.6464228788791
 21
136.1261548892844
 31
0.0
  0
LINE
  5
110
330
19
100
AcDbEntity
  8
4
100
AcDbLine
 10
268.6464228788791
 20
724.1261548892844
 30
0.0
 11
251.8465228788791
 21
724.1261548892844
 31
0.0
  0
LINE
  5
111
330
19
100
AcDbEntity
  8
L-CENTER
 48
2.0
100
AcDbLine
 10
233.8357386835978
 20
680.9979798892846
 30
0.0
 11
293.7698221546507
 21
680.9979798892846
 31
0.0
  0
LINE
  5
112
330
19
100
AcDbEntity
  8
4
100
AcDbLine
 10
251.8465228788791
 20
514.1261548892844
 30
0.0
 11
268.6464228788791
 21
514.1261548892844
 31
0.0
  0
LINE
  5
113
330
19
100
AcDbEntity
  8
L-CENTER
 48
2.0
100
AcDbLine
 10
250.4656728788791
 20
329.1261548892844
 30
0.0
 11
294.9756299271448
 21
329.1261548892844
 31
0.0
  0
LINE
  5
116
330
19
100
AcDbEntity
  8
L-CENTER
 48
2.0
100
AcDbLine
 10
934.8375726824511
 20
619.1261548892844
 30
0.0
 11
244.1717612454638
 21
619.1261548892844
 31
0.0
  0
LINE
  5
11F
330
19
100
AcDbEntity
  8
4
100
AcDbLine
 10
251.8465228788791
 20
724.1261548892844
 30
0.0
 11
251.8465228788791
 21
514.1261548892844
 31
0.0
  0
LINE
  5
122
330
19
100
AcDbEntity
  8
4
100
AcDbLine
 10
251.8465228788791
 20
545.2543298892842
 30
0.0
 11
251.8465228788791
 21
569.2543298892842
 31
0.0
  0
LINE
  5
123
330
19
100
AcDbEntity
  8
4
100
AcDbLine
 10
248.8465228788791
 20
569.2543298892842
 30
0.0
 11
248.8465228788791
 21
545.2543298892842
 31
0.0
  0
ARC
  5
124
330
19
100
AcDbEntity
  8
4
100
AcDbCircle
 10
244.4302628788791
 20
566.2543298892842
 30
0.0
 40
4.58369
100
AcDbArc
 50
139.1186700000087
 51
220.8813299999913
  0
LINE
  5
125
330
19
100
AcDbEntity
  8
4
100
AcDbLine
 10
239.8465228788791
 20
566.2543298892842
 30
0.0
 11
239.8465228788791
 21
548.2543298892842
 31
0.0
  0
LINE
  5
126
330
19
100
AcDbEntity
  8
4
100
AcDbLine
 10
251.8465228788791
 20
545.2543298892842
 30
0.0
 11
248.8465228788791
 21
545.2543298892842
 31
0.0
  0
ARC
  5
127
330
19
100
AcDbEntity
  8
4
100
AcDbCircle
 10
257.8465228788791
 20
557.2543298892842
 30
0.0
 40
18.00009
100
AcDbArc
 50
160.528928000001
 51
199.4703399999861
  0
ARC
  5
128
330
19
100
AcDbEntity
  8
4
100
AcDbCircle
 10
244.4302628788791
 20
548.2543298892842
 30
0.0
 40
4.58369
100
AcDbArc
 50
139.1186700000087
 51
220.8813299999913
  0
LINE
  5
129
330
19
100
AcDbEntity
  8
4
100
AcDbLine
 10
248.8465228788791
 20
563.2543298892842
 30
0.0
 11
240.8760628788791
 21
563.2543298892842
 31
0.0
  0
LINE
  5
12A
330
19
100
AcDbEntity
  8
4
100
AcDbLine
 10
248.8465228788791
 20
551.2543298892842
 30
0.0
 11
240.8760628788791
 21
551.2543298892842
 31
0.0
  0
LINE
  5
12B
330
19
100
AcDbEntity
  8
4
100
AcDbLine
 10
240.8760628788791
 20
545.2543298892842
 30
0.0
 11
248.8465228788791
 21
545.2543298892842
 31
0.0
  0
LINE
  5
12D
330
19
100
AcDbEntity
  8
4
100
AcDbLine
 10
251.8465228788791
 20
569.2543298892842
 30
0.0
 11
248.8465228788791
 21
569.2543298892842
 31
0.0
  0
LINE
  5
12F
330
19
100
AcDbEntity
  8
4
100
AcDbLine
 10
240.8760628788791
 20
569.2543298892842
 30
0.0
 11
248.8465228788791
 21
569.2543298892842
 31
0.0
  0
ARC
  5
134
330
19
100
AcDbEntity
  8
4
100
AcDbCircle
 10
244.4302628788791
 20
671.9979798892846
 30
0.0
 40
4.583600000000001
100
AcDbArc
 50
139.1186700000098
 51
220.8833260000132
  0
LINE
  5
135
330
19
100
AcDbEntity
  8
4
100
AcDbLine
 10
248.8465228788791
 20
668.9979798892846
 30
0.0
 11
248.8465228788791
 21
692.9979798892846
 31
0.0
  0
LINE
  5
136
330
19
100
AcDbEntity
  8
4
100
AcDbLine
 10
251.8465228788791
 20
692.9979798892846
 30
0.0
 11
251.8465228788791
 21
668.9979798892846
 31
0.0
  0
LINE
  5
138
330
19
100
AcDbEntity
  8
4
100
AcDbLine
 10
251.8465228788791
 20
668.9979798892846
 30
0.0
 11
248.8465228788791
 21
668.9979798892846
 31
0.0
  0
LINE
  5
13B
330
19
100
AcDbEntity
  8
4
100
AcDbLine
 10
240.8760628788791
 20
668.9979798892846
 30
0.0
 11
248.8465228788791
 21
668.9979798892846
 31
0.0
  0
LINE
  5
13C
330
19
100
AcDbEntity
  8
4
100
AcDbLine
 10
251.8465228788791
 20
692.9979798892846
 30
0.0
 11
248.8465228788791
 21
692.9979798892846
 31
0.0
  0
LINE
  5
13D
330
19
100
AcDbEntity
  8
4
100
AcDbLine
 10
239.8465228788791
 20
671.9979798892846
 30
0.0
 11
239.8465228788791
 21
689.9979798892846
 31
0.0
  0
ARC
  5
13E
330
19
100
AcDbEntity
  8
4
100
AcDbCircle
 10
257.8465228788791
 20
680.9979798892846
 30
0.0
 40
17.999975
100
AcDbArc
 50
160.5296600000135
 51
199.4713310000033
  0
ARC
  5
13F
330
19
100
AcDbEntity
  8
4
100
AcDbCircle
 10
244.4302628788791
 20
689.9979798892846
 30
0.0
 40
4.583600000000001
100
AcDbArc
 50
139.1186700000098
 51
220.8833260000132
  0
LINE
  5
140
330
19
100
AcDbEntity
  8
4
100
AcDbLine
 10
240.8760628788791
 20
692.9979798892846
 30
0.0
 11
248.8465228788791
 21
692.9979798892846
 31
0.0
  0
LINE
  5
141
330
19
100
AcDbEntity
  8
4
100
AcDbLine
 10
248.8465228788791
 20
686.9979798892846
 30
0.0
 11
240.8760628788791
 21
686.9979798892846
 31
0.0
  0
LINE
  5
142
330
19
100
AcDbEntity
  8
4
100
AcDbLine
 10
248.8465228788791
 20
674.9979798892846
 30
0.0
 11
240.8760628788791
 21
674.9979798892846
 31
0.0
  0
LINE
  5
14D
330
19
100
AcDbEntity
  8
L-CENTER
 48
2.0
100
AcDbLine
 10
760.6464228788791
 20
754.8165561540791
 30
0.0
 11
760.6464228788791
 21
701.5072311540789
 31
0.0
  0
LINE
  5
14E
330
19
100
AcDbEntity
  8
4
100
AcDbLine
 10
750.6464228788791
 20
735.1261548892844
 30
0.0
 11
750.6464228788791
 21
745.1261548892844
 31
0.0
  0
LINE
  5
14F
330
19
100
AcDbEntity
  8
4
100
AcDbLine
 10
770.6464228788791
 20
735.1261548892844
 30
0.0
 11
770.6464228788791
 21
745.1261548892844
 31
0.0
  0
LINE
  5
150
330
19
100
AcDbEntity
  8
4
100
AcDbLine
 10
536.4574578788788
 20
741.1107748892846
 30
0.0
 11
539.1464228788791
 21
729.1261548892844
 31
0.0
  0
LINE
  5
151
330
19
100
AcDbEntity
  8
4
100
AcDbLine
 10
506.8353878788794
 20
741.1107748892846
 30
0.0
 11
504.1464228788791
 21
729.1261548892844
 31
0.0
  0
ARC
  5
152
330
19
100
AcDbEntity
  8
4
100
AcDbCircle
 10
521.6464228788791
 20
764.1261548892844
 30
0.0
 40
35.99993499999999
100
AcDbArc
 50
305.3397909999953
 51
234.661611999998
  0
LINE
  5
153
330
19
100
AcDbEntity
  8
L-CENTER
 48
2.0
100
AcDbLine
 10
381.6464228788791
 20
747.0159198892843
 30
0.0
 11
381.6464228788791
 21
705.2685122572939
 31
0.0
  0
LINE
  5
154
330
19
100
AcDbEntity
  8
4
100
AcDbLine
 10
393.1464228788791
 20
735.1261548892844
 30
0.0
 11
393.1464228788791
 21
740.1261548892844
 31
0.0
  0
LINE
  5
155
330
19
100
AcDbEntity
  8
4
100
AcDbLine
 10
404.6464228788791
 20
731.1261548892844
 30
0.0
 11
404.6464228788791
 21
740.1261548892844
 31
0.0
  0
LINE
  5
156
330
19
100
AcDbEntity
  8
4
100
AcDbLine
 10
370.1464228788791
 20
735.1261548892844
 30
0.0
 11
370.1464228788791
 21
740.1261548892844
 31
0.0
  0
LINE
  5
157
330
19
100
AcDbEntity
  8
4
100
AcDbLine
 10
358.6464228788791
 20
731.1261548892844
 30
0.0
 11
358.6464228788791
 21
740.1261548892844
 31
0.0
  0
LINE
  5
158
330
19
100
AcDbEntity
  8
L-CENTER
 48
2.0
100
AcDbLine
 10
282.6464228788791
 20
754.8165561540791
 30
0.0
 11
282.6464228788791
 21
701.5072311540789
 31
0.0
  0
LINE
  5
159
330
19
100
AcDbEntity
  8
4
100
AcDbLine
 10
272.6464228788791
 20
735.1261548892844
 30
0.0
 11
272.6464228788791
 21
745.1261548892844
 31
0.0
  0
LINE
  5
15A
330
19
100
AcDbEntity
  8
4
100
AcDbLine
 10
292.6464228788791
 20
735.1261548892844
 30
0.0
 11
292.6464228788791
 21
745.1261548892844
 31
0.0
  0
LINE
  5
15B
330
19
100
AcDbEntity
  8
4
100
AcDbLine
 10
602.225522878879
 20
426.2330898892842
 30
0.0
 11
733.409117878879
 21
412.0680498892843
 31
0.0
  0
LINE
  5
15C
330
19
100
AcDbEntity
  8
4
100
AcDbLine
 10
602.225522878879
 20
312.0192198892846
 30
0.0
 11
733.409117878879
 21
326.1842598892845
 31
0.0
  0
ARC
  5
15D
330
19
100
AcDbEntity
  8
4
100
AcDbCircle
 10
521.6466678788793
 20
-277.8738451107156
 30
0.0
 40
900.00001
100
AcDbArc
 50
75.74190899999856
 51
104.2581399999966
  0
LINE
  5
15E
330
19
100
AcDbEntity
  8
4
100
AcDbLine
 10
273.6464228788791
 20
726.1261548892844
 30
0.0
 11
769.6464228788791
 21
726.1261548892844
 31
0.0
  0
LINE
  5
15F
330
19
100
AcDbEntity
  8
L-CENTER
 48
2.0
100
AcDbLine
 10
255.2988639886316
 20
369.1261548892844
 30
0.0
 11
787.9939817691265
 21
369.1261548892844
 31
0.0
  0
LINE
  5
160
330
19
100
AcDbEntity
  8
4
100
AcDbLine
 10
478.704334479175
 20
580.8888424295567
 30
0.0
 11
464.5394878788793
 21
449.7050098892842
 31
0.0
  0
ARC
  5
161
330
19
100
AcDbEntity
  8
4
100
AcDbCircle
 10
521.6464228788791
 20
146.6261548892844
 30
0.0
 40
299.99994
100
AcDbArc
 50
77.23053799999929
 51
102.7695530000017
  0
ARC
  5
162
330
19
100
AcDbEntity
  8
4
100
AcDbCircle
 10
521.6464228788791
 20
151.6261548892844
 30
0.0
 40
300.00009
100
AcDbArc
 50
76.42224300000157
 51
103.5778019999991
  0
ARC
  5
163
330
19
100
AcDbEntity
  8
4
100
AcDbCircle
 10
521.6464228788791
 20
591.6261548892844
 30
0.0
 40
300.00002
100
AcDbArc
 50
257.2307859999991
 51
282.7699380000017
  0
ARC
  5
164
330
19
100
AcDbEntity
  8
4
100
AcDbCircle
 10
521.6464228788791
 20
586.6261548892844
 30
0.0
 40
299.99997
100
AcDbArc
 50
256.4225260000024
 51
283.5780960000024
  0
ARC
  5
165
330
19
100
AcDbEntity
  8
4
100
AcDbCircle
 10
744.1461778788789
 20
369.1259098892842
 30
0.0
 40
300.000015
100
AcDbArc
 50
167.2307859999919
 51
192.7695079999879
  0
ARC
  5
166
330
19
100
AcDbEntity
  8
4
100
AcDbCircle
 10
739.1461778788789
 20
369.1259098892842
 30
0.0
 40
299.99995
100
AcDbArc
 50
166.4225710000112
 51
193.577712000009
  0
LINE
  5
167
330
19
100
AcDbEntity
  8
4
100
AcDbLine
 10
441.0673228788792
 20
312.0192198892846
 30
0.0
 11
309.8837278788792
 21
326.1842598892845
 31
0.0
  0
LINE
  5
168
330
19
100
AcDbEntity
  8
4
100
AcDbLine
 10
268.6468278788789
 20
349.1261548892844
 30
0.0
 11
268.6468278788789
 21
309.1261548892844
 31
0.0
  0
LINE
  5
169
330
19
100
AcDbEntity
  8
4
100
AcDbLine
 10
260.1468278788789
 20
311.1261548892844
 30
0.0
 11
260.1468278788789
 21
347.1261548892844
 31
0.0
  0
LINE
  5
16A
330
19
100
AcDbEntity
  8
4
100
AcDbLine
 10
268.6468278788789
 20
312.1261548892844
 30
0.0
 11
268.6468278788789
 21
346.1261548892844
 31
0.0
  0
LINE
  5
16B
330
19
100
AcDbEntity
  8
4
100
AcDbLine
 10
267.1468278788793
 20
311.1261548892844
 30
0.0
 11
267.1468278788793
 21
347.1261548892844
 31
0.0
  0
LINE
  5
16C
330
19
100
AcDbEntity
  8
4
100
AcDbLine
 10
265.1468278788789
 20
311.1261548892844
 30
0.0
 11
265.1468278788789
 21
347.1261548892844
 31
0.0
  0
LINE
  5
16D
330
19
100
AcDbEntity
  8
4
100
AcDbLine
 10
267.1468278788793
 20
312.1261548892844
 30
0.0
 11
268.6468278788789
 21
312.1261548892844
 31
0.0
  0
LINE
  5
16E
330
19
100
AcDbEntity
  8
4
100
AcDbLine
 10
268.6468278788789
 20
309.1261548892844
 30
0.0
 11
270.648622878879
 21
309.1261548892844
 31
0.0
  0
LINE
  5
16F
330
19
100
AcDbEntity
  8
4
100
AcDbLine
 10
267.1468278788793
 20
311.1261548892844
 30
0.0
 11
260.1468278788789
 21
311.1261548892844
 31
0.0
  0
ARC
  5
170
330
19
100
AcDbEntity
  8
4
100
AcDbCircle
 10
440.5304578788791
 20
307.0482748892846
 30
0.0
 40
5.0
100
AcDbArc
 50
11.74284000000842
 51
83.83621699999982
  0
ARC
  5
171
330
19
100
AcDbEntity
  8
4
100
AcDbCircle
 10
459.5682978788791
 20
288.0104298892843
 30
0.0
 40
5.000025
100
AcDbArc
 50
6.163781999989684
 51
78.25441300000107
  0
ARC
  5
172
330
19
100
AcDbEntity
  8
4
100
AcDbCircle
 10
456.4423228788792
 20
303.9225398892845
 30
0.0
 40
4.999904999999999
100
AcDbArc
 50
192.7706639999981
 51
257.2293359999965
  0
ARC
  5
173
330
19
100
AcDbEntity
  8
4
100
AcDbCircle
 10
452.3905628788789
 20
299.8707848892846
 30
0.0
 40
5.00009
100
AcDbArc
 50
193.5775609999982
 51
256.4224410000014
  0
LINE
  5
174
330
19
100
AcDbEntity
  8
4
100
AcDbLine
 10
441.0673228788792
 20
426.2330898892842
 30
0.0
 11
309.8837278788792
 21
412.0680498892843
 31
0.0
  0
ARC
  5
175
330
19
100
AcDbEntity
  8
4
100
AcDbCircle
 10
309.5617078788791
 20
323.2015948892845
 30
0.0
 40
3.00005
100
AcDbArc
 50
83.83797799999884
 51
192.219809999997
  0
LINE
  5
176
330
19
100
AcDbEntity
  8
4
100
AcDbLine
 10
268.8685928788791
 20
349.1261548892844
 30
0.0
 11
268.6468278788789
 21
349.1261548892844
 31
0.0
  0
LINE
  5
177
330
19
100
AcDbEntity
  8
4
100
AcDbLine
 10
268.6468278788789
 20
346.1261548892844
 30
0.0
 11
267.1468278788793
 21
346.1261548892844
 31
0.0
  0
LINE
  5
178
330
19
100
AcDbEntity
  8
4
100
AcDbLine
 10
267.1468278788793
 20
347.1261548892844
 30
0.0
 11
260.1468278788789
 21
347.1261548892844
 31
0.0
  0
LINE
  5
179
330
19
100
AcDbEntity
  8
4
100
AcDbLine
 10
265.1468278788789
 20
338.1261548892844
 30
0.0
 11
260.1468278788789
 21
338.1261548892844
 31
0.0
  0
LINE
  5
17A
330
19
100
AcDbEntity
  8
4
100
AcDbLine
 10
265.1468278788789
 20
320.1261548892844
 30
0.0
 11
260.1468278788789
 21
320.1261548892844
 31
0.0
  0
ARC
  5
17B
330
19
100
AcDbEntity
  8
4
100
AcDbCircle
 10
309.5617078788791
 20
415.0507148892843
 30
0.0
 40
3.00005
100
AcDbArc
 50
167.7801900000051
 51
276.1620220000013
  0
ARC
  5
17C
330
19
100
AcDbEntity
  8
4
100
AcDbCircle
 10
440.5304578788791
 20
431.2040348892842
 30
0.0
 40
5.0
100
AcDbArc
 50
276.1637819999996
 51
348.2571599999916
  0
ARC
  5
17D
330
19
100
AcDbEntity
  8
4
100
AcDbCircle
 10
459.5682978788791
 20
450.2418748892842
 30
0.0
 40
5.000025
100
AcDbArc
 50
281.745588999998
 51
353.8362180000103
  0
ARC
  5
17E
330
19
100
AcDbEntity
  8
4
100
AcDbCircle
 10
452.3908078788791
 20
438.3815248892843
 30
0.0
 40
5.00009
100
AcDbArc
 50
103.5775610000008
 51
166.4224390000005
  0
ARC
  5
17F
330
19
100
AcDbEntity
  8
4
100
AcDbCircle
 10
456.4423228788792
 20
434.3300098892842
 30
0.0
 40
5.00009
100
AcDbArc
 50
102.7673189999987
 51
167.2326809999896
  0
ARC
  5
180
330
19
100
AcDbEntity
  8
4
100
AcDbCircle
 10
299.1466678788793
 20
369.1259098892842
 30
0.0
 40
299.999975
100
AcDbArc
 50
347.2311140000005
 51
12.7695530000065
  0
ARC
  5
181
330
19
100
AcDbEntity
  8
4
100
AcDbCircle
 10
304.1466678788793
 20
369.1259098892842
 30
0.0
 40
300.000075
100
AcDbArc
 50
346.4230119999949
 51
13.57775700000587
  0
CIRCLE
  5
182
330
19
100
AcDbEntity
  8
4
100
AcDbCircle
 10
521.6464228788791
 20
369.1261548892844
 30
0.0
 40
50.0
  0
ARC
  5
183
330
19
100
AcDbEntity
  8
4
100
AcDbCircle
 10
602.762387878879
 20
307.0482748892846
 30
0.0
 40
5.0
100
AcDbArc
 50
96.16378300000021
 51
168.2571599999916
  0
ARC
  5
184
330
19
100
AcDbEntity
  8
4
100
AcDbCircle
 10
586.850522878879
 20
303.9225398892845
 30
0.0
 40
4.999904999999999
100
AcDbArc
 50
282.7706640000035
 51
347.2293360000019
  0
ARC
  5
185
330
19
100
AcDbEntity
  8
4
100
AcDbCircle
 10
583.7245478788791
 20
288.0104298892843
 30
0.0
 40
5.000025
100
AcDbArc
 50
101.7455749999984
 51
173.8362169999922
  0
ARC
  5
186
330
19
100
AcDbEntity
  8
4
100
AcDbCircle
 10
590.9022828788793
 20
299.8707848892846
 30
0.0
 40
5.00009
100
AcDbArc
 50
283.5775589999973
 51
346.4224390000018
  0
ARC
  5
187
330
19
100
AcDbEntity
  8
4
100
AcDbCircle
 10
521.6464228788791
 20
369.1261548892844
 30
0.0
 40
38.99999
100
AcDbArc
 50
104.8571694421997
 51
75.1428329999985
  0
LINE
  5
188
330
19
100
AcDbEntity
  8
4
100
AcDbLine
 10
511.6464228788791
 20
401.1261548892844
 30
0.0
 11
531.6464228788791
 21
401.1261548892844
 31
0.0
  0
LINE
  5
189
330
19
100
AcDbEntity
  8
4
100
AcDbLine
 10
531.6464228788791
 20
414.1261548892844
 30
0.0
 11
511.6464228788791
 21
414.1261548892844
 31
0.0
  0
LINE
  5
18A
330
19
100
AcDbEntity
  8
4
100
AcDbLine
 10
511.6464228788791
 20
401.1261548892844
 30
0.0
 11
511.6464228788791
 21
414.1261548892844
 31
0.0
  0
LINE
  5
18B
330
19
100
AcDbEntity
  8
4
100
AcDbLine
 10
531.6464228788791
 20
401.1261548892844
 30
0.0
 11
531.6464228788791
 21
414.1261548892844
 31
0.0
  0
ARC
  5
18C
330
19
100
AcDbEntity
  8
4
100
AcDbCircle
 10
602.762387878879
 20
431.2040348892842
 30
0.0
 40
5.0
100
AcDbArc
 50
191.7428400000084
 51
263.8362180000004
  0
ARC
  5
18D
330
19
100
AcDbEntity
  8
4
100
AcDbCircle
 10
586.850522878879
 20
434.3300098892842
 30
0.0
 40
5.00009
100
AcDbArc
 50
12.76731900001039
 51
77.23268100000132
  0
ARC
  5
18E
330
19
100
AcDbEntity
  8
4
100
AcDbCircle
 10
590.9020378788791
 20
438.3815248892843
 30
0.0
 40
5.00009
100
AcDbArc
 50
13.57756099999947
 51
76.42243899999924
  0
ARC
  5
18F
330
19
100
AcDbEntity
  8
4
100
AcDbCircle
 10
268.6464228788791
 20
599.1261548892844
 30
0.0
 40
5.0
100
AcDbArc
 50
0.0
 51
90.0
  0
LINE
  5
190
330
19
100
AcDbEntity
  8
4
100
AcDbLine
 10
268.6464228788791
 20
514.1261548892844
 30
0.0
 11
268.6464228788791
 21
724.1261548892844
 31
0.0
  0
LINE
  5
191
330
19
100
AcDbEntity
  8
4
100
AcDbLine
 10
273.6464228788791
 20
463.8627248892844
 30
0.0
 11
273.6464228788791
 21
599.1261548892844
 31
0.0
  0
ARC
  5
192
330
19
100
AcDbEntity
  8
4
100
AcDbCircle
 10
271.6464228788791
 20
512.1261548892844
 30
0.0
 40
2.0
100
AcDbArc
 50
0.0
 51
90.0
  0
LINE
  5
193
330
19
100
AcDbEntity
  8
4
100
AcDbLine
 10
271.6464228788791
 20
514.1261548892844
 30
0.0
 11
268.6464228788791
 21
514.1261548892844
 31
0.0
  0
ARC
  5
194
330
19
100
AcDbEntity
  8
4
100
AcDbCircle
 10
301.216002878879
 20
589.5565748892845
 30
0.0
 40
4.999965
100
AcDbArc
 50
104.2581329999973
 51
165.7418809999897
  0
LINE
  5
195
330
19
100
AcDbEntity
  8
4
100
AcDbLine
 10
356.6464228788791
 20
729.1261548892844
 30
0.0
 11
406.6464228788791
 21
729.1261548892844
 31
0.0
  0
LINE
  5
196
330
19
100
AcDbEntity
  8
4
100
AcDbLine
 10
358.6464228788791
 20
735.1261548892844
 30
0.0
 11
404.6464228788791
 21
735.1261548892844
 31
0.0
  0
LINE
  5
197
330
19
100
AcDbEntity
  8
4
100
AcDbLine
 10
358.6464228788791
 20
731.1261548892844
 30
0.0
 11
404.6464228788791
 21
731.1261548892844
 31
0.0
  0
LINE
  5
198
330
19
100
AcDbEntity
  8
4
100
AcDbLine
 10
359.6464228788791
 20
729.1261548892844
 30
0.0
 11
403.6464228788791
 21
729.1261548892844
 31
0.0
  0
LINE
  5
199
330
19
100
AcDbEntity
  8
4
100
AcDbLine
 10
273.6464228788791
 20
639.1261548892844
 30
0.0
 11
273.6464228788791
 21
726.1261548892844
 31
0.0
  0
ARC
  5
19A
330
19
100
AcDbEntity
  8
4
100
AcDbCircle
 10
268.6464228788791
 20
639.1261548892844
 30
0.0
 40
5.0
100
AcDbArc
 50
270.0
 51
0.0
  0
ARC
  5
19B
330
19
100
AcDbEntity
  8
4
100
AcDbCircle
 10
279.6464228788791
 20
726.1261548892844
 30
0.0
 40
5.0
100
AcDbArc
 50
53.13010199999781
 51
126.8698980000022
  0
LINE
  5
19C
330
19
100
AcDbEntity
  8
4
100
AcDbLine
 10
276.6464228788791
 20
726.1261548892844
 30
0.0
 11
282.6464228788791
 21
726.1261548892844
 31
0.0
  0
LINE
  5
19D
330
19
100
AcDbEntity
  8
4
100
AcDbLine
 10
272.6464228788791
 20
735.1261548892844
 30
0.0
 11
282.6464228788791
 21
735.1261548892844
 31
0.0
  0
LINE
  5
19E
330
19
100
AcDbEntity
  8
4
100
AcDbLine
 10
276.6464228788791
 20
726.1261548892844
 30
0.0
 11
276.6464228788791
 21
731.1261548892844
 31
0.0
  0
LINE
  5
19F
330
19
100
AcDbEntity
  8
4
100
AcDbLine
 10
268.6464228788791
 20
724.1261548892844
 30
0.0
 11
273.6464228788791
 21
724.1261548892844
 31
0.0
  0
ARC
  5
1A0
330
19
100
AcDbEntity
  8
4
100
AcDbCircle
 10
272.6464228788791
 20
731.1261548892844
 30
0.0
 40
4.0
100
AcDbArc
 50
0.0
 51
90.0
  0
LINE
  5
1A1
330
19
100
AcDbEntity
  8
4
100
AcDbLine
 10
288.6464228788791
 20
726.1261548892844
 30
0.0
 11
282.6464228788791
 21
726.1261548892844
 31
0.0
  0
LINE
  5
1A2
330
19
100
AcDbEntity
  8
4
100
AcDbLine
 10
288.6464228788791
 20
726.1261548892844
 30
0.0
 11
288.6464228788791
 21
731.1261548892844
 31
0.0
  0
ARC
  5
1A3
330
19
100
AcDbEntity
  8
4
100
AcDbCircle
 10
285.6464228788791
 20
726.1261548892844
 30
0.0
 40
5.0
100
AcDbArc
 50
53.13010199999781
 51
126.8698980000022
  0
LINE
  5
1A4
330
19
100
AcDbEntity
  8
4
100
AcDbLine
 10
292.6464228788791
 20
735.1261548892844
 30
0.0
 11
282.6464228788791
 21
735.1261548892844
 31
0.0
  0
ARC
  5
1A5
330
19
100
AcDbEntity
  8
4
100
AcDbCircle
 10
292.6464228788791
 20
731.1261548892844
 30
0.0
 40
4.0
100
AcDbArc
 50
90.0
 51
180.0
  0
LINE
  5
1A6
330
19
100
AcDbEntity
  8
4
100
AcDbLine
 10
285.6464228788791
 20
731.1261548892844
 30
0.0
 11
279.6464228788791
 21
731.1261548892844
 31
0.0
  0
LINE
  5
1A7
330
19
100
AcDbEntity
  8
4
100
AcDbLine
 10
356.6464228788791
 20
726.1261548892844
 30
0.0
 11
356.6464228788791
 21
729.1261548892844
 31
0.0
  0
LINE
  5
1A8
330
19
100
AcDbEntity
  8
4
100
AcDbLine
 10
359.6464228788791
 20
731.1261548892844
 30
0.0
 11
359.6464228788791
 21
729.1261548892844
 31
0.0
  0
LINE
  5
1A9
330
19
100
AcDbEntity
  8
4
100
AcDbLine
 10
406.6464228788791
 20
726.1261548892844
 30
0.0
 11
406.6464228788791
 21
729.1261548892844
 31
0.0
  0
LINE
  5
1AA
330
19
100
AcDbEntity
  8
4
100
AcDbLine
 10
403.6464228788791
 20
731.1261548892844
 30
0.0
 11
403.6464228788791
 21
729.1261548892844
 31
0.0
  0
ARC
  5
1AB
330
19
100
AcDbEntity
  8
4
100
AcDbCircle
 10
475.721617878879
 20
581.2108698892844
 30
0.0
 40
3.00005
100
AcDbArc
 50
353.8379589999892
 51
102.2198140000009
  0
LINE
  5
1AC
330
19
100
AcDbEntity
  8
4
100
AcDbLine
 10
501.6464228788791
 20
729.1261548892844
 30
0.0
 11
541.6464228788791
 21
729.1261548892844
 31
0.0
  0
LINE
  5
1AD
330
19
100
AcDbEntity
  8
4
100
AcDbLine
 10
501.6464228788791
 20
726.1261548892844
 30
0.0
 11
501.6464228788791
 21
729.1261548892844
 31
0.0
  0
ARC
  5
1AE
330
19
100
AcDbEntity
  8
4
100
AcDbCircle
 10
496.1964728788789
 20
728.2333348892844
 30
0.0
 40
7.999904999999999
100
AcDbArc
 50
6.407772999997083
 51
54.66131099999542
  0
LINE
  5
1AF
330
19
100
AcDbEntity
  8
4
100
AcDbLine
 10
541.6464228788791
 20
726.1261548892844
 30
0.0
 11
541.6464228788791
 21
729.1261548892844
 31
0.0
  0
ARC
  5
1B0
330
19
100
AcDbEntity
  8
4
100
AcDbCircle
 10
547.0963728788793
 20
728.2333348892844
 30
0.0
 40
7.999975
100
AcDbArc
 50
125.3401140000078
 51
173.5922279999914
  0
ARC
  5
1B2
330
19
100
AcDbEntity
  8
4
100
AcDbCircle
 10
733.731137878879
 20
323.2015948892845
 30
0.0
 40
3.00005
100
AcDbArc
 50
347.780190000003
 51
96.16202200000008
  0
ARC
  5
1B3
330
19
100
AcDbEntity
  8
4
100
AcDbCircle
 10
733.731137878879
 20
415.0507148892843
 30
0.0
 40
3.00005
100
AcDbArc
 50
263.8379779999997
 51
12.21980999999492
  0
LINE
  5
1B4
330
19
100
AcDbEntity
  8
4
100
AcDbLine
 10
806.6464228788791
 20
648.1261548892844
 30
0.0
 11
924.6464228788791
 21
648.1261548892844
 31
0.0
  0
LINE
  5
1B5
330
19
100
AcDbEntity
  8
4
100
AcDbLine
 10
926.6464228788791
 20
653.1261548892844
 30
0.0
 11
816.6464228788791
 21
653.1261548892844
 31
0.0
  0
LINE
  5
1B6
330
19
100
AcDbEntity
  8
4
100
AcDbLine
 10
806.6464228788791
 20
590.1261548892844
 30
0.0
 11
924.6464228788791
 21
590.1261548892844
 31
0.0
  0
ARC
  5
1B7
330
19
100
AcDbEntity
  8
4
100
AcDbCircle
 10
774.6464228788791
 20
599.1261548892844
 30
0.0
 40
5.0
100
AcDbArc
 50
90.0
 51
180.0
  0
LINE
  5
1B8
330
19
100
AcDbEntity
  8
4
100
AcDbLine
 10
806.6464228788791
 20
651.6261548892844
 30
0.0
 11
806.6464228788791
 21
586.6261548892844
 31
0.0
  0
LINE
  5
1B9
330
19
100
AcDbEntity
  8
4
100
AcDbLine
 10
792.446327878879
 20
664.1261548892844
 30
0.0
 11
792.446327878879
 21
574.1261548892844
 31
0.0
  0
LINE
  5
1BA
330
19
100
AcDbEntity
  8
4
100
AcDbLine
 10
774.6464228788791
 20
514.1261548892844
 30
0.0
 11
774.6464228788791
 21
724.1261548892844
 31
0.0
  0
LINE
  5
1BB
330
19
100
AcDbEntity
  8
4
100
AcDbLine
 10
791.446327878879
 20
724.1261548892844
 30
0.0
 11
791.446327878879
 21
514.1261548892844
 31
0.0
  0
LINE
  5
1BC
330
19
100
AcDbEntity
  8
4
100
AcDbLine
 10
802.4167828788791
 20
569.2543298892842
 30
0.0
 11
794.446327878879
 21
569.2543298892842
 31
0.0
  0
LINE
  5
1BD
330
19
100
AcDbEntity
  8
4
100
AcDbLine
 10
792.446327878879
 20
586.6261548892844
 30
0.0
 11
806.6464228788791
 21
586.6261548892844
 31
0.0
  0
LINE
  5
1BE
330
19
100
AcDbEntity
  8
4
100
AcDbLine
 10
794.446327878879
 20
563.2543298892842
 30
0.0
 11
802.4167828788791
 21
563.2543298892842
 31
0.0
  0
LINE
  5
1BF
330
19
100
AcDbEntity
  8
4
100
AcDbLine
 10
794.446327878879
 20
551.2543298892842
 30
0.0
 11
802.4167828788791
 21
551.2543298892842
 31
0.0
  0
LINE
  5
1C0
330
19
100
AcDbEntity
  8
4
100
AcDbLine
 10
802.4167828788791
 20
545.2543298892842
 30
0.0
 11
794.446327878879
 21
545.2543298892842
 31
0.0
  0
LINE
  5
1C1
330
19
100
AcDbEntity
  8
4
100
AcDbLine
 10
769.6464228788791
 20
463.8627248892844
 30
0.0
 11
769.6464228788791
 21
599.1261548892844
 31
0.0
  0
LINE
  5
1C2
330
19
100
AcDbEntity
  8
4
100
AcDbLine
 10
771.6464228788791
 20
514.1261548892844
 30
0.0
 11
774.6464228788791
 21
514.1261548892844
 31
0.0
  0
ARC
  5
1C3
330
19
100
AcDbEntity
  8
4
100
AcDbCircle
 10
771.6464228788791
 20
512.1261548892844
 30
0.0
 40
2.0
100
AcDbArc
 50
90.0
 51
180.0
  0
LINE
  5
1C4
330
19
100
AcDbEntity
  8
4
100
AcDbLine
 10
791.446327878879
 20
514.1261548892844
 30
0.0
 11
774.6464228788791
 21
514.1261548892844
 31
0.0
  0
LINE
  5
1C5
330
19
100
AcDbEntity
  8
4
100
AcDbLine
 10
794.446327878879
 20
545.2543298892842
 30
0.0
 11
794.446327878879
 21
569.2543298892842
 31
0.0
  0
LINE
  5
1C6
330
19
100
AcDbEntity
  8
4
100
AcDbLine
 10
791.446327878879
 20
569.2543298892842
 30
0.0
 11
791.446327878879
 21
545.2543298892842
 31
0.0
  0
LINE
  5
1C7
330
19
100
AcDbEntity
  8
4
100
AcDbLine
 10
791.446327878879
 20
545.2543298892842
 30
0.0
 11
794.446327878879
 21
545.2543298892842
 31
0.0
  0
ARC
  5
1C8
330
19
100
AcDbEntity
  8
4
100
AcDbCircle
 10
742.0768428788792
 20
589.5565748892845
 30
0.0
 40
4.999965
100
AcDbArc
 50
14.25811900001033
 51
75.74186700000212
  0
LINE
  5
1C9
330
19
100
AcDbEntity
  8
4
100
AcDbLine
 10
791.446327878879
 20
569.2543298892842
 30
0.0
 11
794.446327878879
 21
569.2543298892842
 31
0.0
  0
LINE
  5
1CA
330
19
100
AcDbEntity
  8
4
100
AcDbLine
 10
791.446327878879
 20
574.1261548892844
 30
0.0
 11
792.446327878879
 21
574.1261548892844
 31
0.0
  0
ARC
  5
1CB
330
19
100
AcDbEntity
  8
4
100
AcDbCircle
 10
798.8625878788789
 20
566.2543298892842
 30
0.0
 40
4.58369
100
AcDbArc
 50
319.1186700000086
 51
40.88132999999132
  0
LINE
  5
1CC
330
19
100
AcDbEntity
  8
4
100
AcDbLine
 10
803.446327878879
 20
548.2543298892842
 30
0.0
 11
803.446327878879
 21
566.2543298892842
 31
0.0
  0
ARC
  5
1CD
330
19
100
AcDbEntity
  8
4
100
AcDbCircle
 10
785.446327878879
 20
557.2543298892842
 30
0.0
 40
18.00009
100
AcDbArc
 50
340.528928000001
 51
19.47033699999144
  0
ARC
  5
1CE
330
19
100
AcDbEntity
  8
4
100
AcDbCircle
 10
798.8625878788789
 20
548.2543298892842
 30
0.0
 40
4.58369
100
AcDbArc
 50
319.1186700000086
 51
40.88132999999132
  0
LINE
  5
1CF
330
19
100
AcDbEntity
  8
4
100
AcDbLine
 10
802.4167828788791
 20
692.9979798892846
 30
0.0
 11
794.446327878879
 21
692.9979798892846
 31
0.0
  0
LINE
  5
1D0
330
19
100
AcDbEntity
  8
4
100
AcDbLine
 10
794.446327878879
 20
686.9979798892846
 30
0.0
 11
802.4167828788791
 21
686.9979798892846
 31
0.0
  0
LINE
  5
1D1
330
19
100
AcDbEntity
  8
4
100
AcDbLine
 10
794.446327878879
 20
674.9979798892846
 30
0.0
 11
802.4167828788791
 21
674.9979798892846
 31
0.0
  0
LINE
  5
1D2
330
19
100
AcDbEntity
  8
4
100
AcDbLine
 10
802.4167828788791
 20
668.9979798892846
 30
0.0
 11
794.446327878879
 21
668.9979798892846
 31
0.0
  0
LINE
  5
1D3
330
19
100
AcDbEntity
  8
4
100
AcDbLine
 10
806.6464228788791
 20
651.6261548892844
 30
0.0
 11
792.446327878879
 21
651.6261548892844
 31
0.0
  0
LINE
  5
1D4
330
19
100
AcDbEntity
  8
4
100
AcDbLine
 10
769.6464228788791
 20
639.1261548892844
 30
0.0
 11
769.6464228788791
 21
726.1261548892844
 31
0.0
  0
LINE
  5
1D5
330
19
100
AcDbEntity
  8
4
100
AcDbLine
 10
791.446327878879
 20
668.9979798892846
 30
0.0
 11
791.446327878879
 21
692.9979798892846
 31
0.0
  0
LINE
  5
1D6
330
19
100
AcDbEntity
  8
4
100
AcDbLine
 10
794.446327878879
 20
692.9979798892846
 30
0.0
 11
794.446327878879
 21
668.9979798892846
 31
0.0
  0
ARC
  5
1D7
330
19
100
AcDbEntity
  8
4
100
AcDbCircle
 10
774.6464228788791
 20
639.1261548892844
 30
0.0
 40
5.0
100
AcDbArc
 50
180.0
 51
270.0
  0
LINE
  5
1D8
330
19
100
AcDbEntity
  8
4
100
AcDbLine
 10
791.446327878879
 20
668.9979798892846
 30
0.0
 11
794.446327878879
 21
668.9979798892846
 31
0.0
  0
LINE
  5
1D9
330
19
100
AcDbEntity
  8
4
100
AcDbLine
 10
792.446327878879
 20
664.1261548892844
 30
0.0
 11
791.446327878879
 21
664.1261548892844
 31
0.0
  0
LINE
  5
1DA
330
19
100
AcDbEntity
  8
4
100
AcDbLine
 10
791.446327878879
 20
692.9979798892846
 30
0.0
 11
794.446327878879
 21
692.9979798892846
 31
0.0
  0
LINE
  5
1DB
330
19
100
AcDbEntity
  8
4
100
AcDbLine
 10
770.6464228788791
 20
735.1261548892844
 30
0.0
 11
760.6464228788791
 21
735.1261548892844
 31
0.0
  0
ARC
  5
1DC
330
19
100
AcDbEntity
  8
4
100
AcDbCircle
 10
770.6464228788791
 20
731.1261548892844
 30
0.0
 40
4.0
100
AcDbArc
 50
90.0
 51
180.0
  0
LINE
  5
1DD
330
19
100
AcDbEntity
  8
4
100
AcDbLine
 10
766.6464228788791
 20
726.1261548892844
 30
0.0
 11
766.6464228788791
 21
731.1261548892844
 31
0.0
  0
LINE
  5
1DE
330
19
100
AcDbEntity
  8
4
100
AcDbLine
 10
766.6464228788791
 20
726.1261548892844
 30
0.0
 11
760.6464228788791
 21
726.1261548892844
 31
0.0
  0
ARC
  5
1DF
330
19
100
AcDbEntity
  8
4
100
AcDbCircle
 10
763.6464228788791
 20
726.1261548892844
 30
0.0
 40
5.0
100
AcDbArc
 50
53.13010199999833
 51
126.8698980000017
  0
LINE
  5
1E0
330
19
100
AcDbEntity
  8
4
100
AcDbLine
 10
754.6464228788791
 20
726.1261548892844
 30
0.0
 11
754.6464228788791
 21
731.1261548892844
 31
0.0
  0
ARC
  5
1E1
330
19
100
AcDbEntity
  8
4
100
AcDbCircle
 10
757.6464228788791
 20
726.1261548892844
 30
0.0
 40
5.0
100
AcDbArc
 50
53.13010199999833
 51
126.8698980000017
  0
LINE
  5
1E2
330
19
100
AcDbEntity
  8
4
100
AcDbLine
 10
754.6464228788791
 20
726.1261548892844
 30
0.0
 11
760.6464228788791
 21
726.1261548892844
 31
0.0
  0
LINE
  5
1E3
330
19
100
AcDbEntity
  8
4
100
AcDbLine
 10
757.6464228788791
 20
731.1261548892844
 30
0.0
 11
763.6464228788791
 21
731.1261548892844
 31
0.0
  0
ARC
  5
1E4
330
19
100
AcDbEntity
  8
4
100
AcDbCircle
 10
750.6464228788791
 20
731.1261548892844
 30
0.0
 40
4.0
100
AcDbArc
 50
0.0
 51
90.0
  0
LINE
  5
1E5
330
19
100
AcDbEntity
  8
4
100
AcDbLine
 10
750.6464228788791
 20
735.1261548892844
 30
0.0
 11
760.6464228788791
 21
735.1261548892844
 31
0.0
  0
LINE
  5
1E6
330
19
100
AcDbEntity
  8
4
100
AcDbLine
 10
774.6464228788791
 20
724.1261548892844
 30
0.0
 11
769.6464228788791
 21
724.1261548892844
 31
0.0
  0
LINE
  5
1E7
330
19
100
AcDbEntity
  8
4
100
AcDbLine
 10
774.6464228788791
 20
724.1261548892844
 30
0.0
 11
791.446327878879
 21
724.1261548892844
 31
0.0
  0
ARC
  5
1E8
330
19
100
AcDbEntity
  8
4
100
AcDbCircle
 10
798.8625878788789
 20
671.9979798892846
 30
0.0
 40
4.583600000000001
100
AcDbArc
 50
319.1186700000099
 51
40.88332600001323
  0
LINE
  5
1E9
330
19
100
AcDbEntity
  8
4
100
AcDbLine
 10
816.6464228788791
 20
653.1261548892844
 30
0.0
 11
816.6464228788791
 21
648.1261548892844
 31
0.0
  0
ARC
  5
1EA
330
19
100
AcDbEntity
  8
4
100
AcDbCircle
 10
785.446327878879
 20
680.9979798892846
 30
0.0
 40
17.999975
100
AcDbArc
 50
340.5296600000133
 51
19.47133100000335
  0
LINE
  5
1EB
330
19
100
AcDbEntity
  8
4
100
AcDbLine
 10
803.446327878879
 20
689.9979798892846
 30
0.0
 11
803.446327878879
 21
671.9979798892846
 31
0.0
  0
ARC
  5
1EC
330
19
100
AcDbEntity
  8
4
100
AcDbCircle
 10
798.8625878788789
 20
689.9979798892846
 30
0.0
 40
4.583600000000001
100
AcDbArc
 50
319.1186700000099
 51
40.88332600001323
  0
LINE
  5
1ED
330
19
100
AcDbEntity
  8
4
100
AcDbLine
 10
926.6464228788791
 20
653.1261548892844
 30
0.0
 11
926.6464228788791
 21
592.1261548892844
 31
0.0
  0
LINE
  5
1EE
330
19
100
AcDbEntity
  8
4
100
AcDbLine
 10
924.6464228788791
 20
648.1261548892844
 30
0.0
 11
924.6464228788791
 21
590.1261548892844
 31
0.0
  0
LINE
  5
1EF
330
19
100
AcDbEntity
  8
4
100
AcDbLine
 10
924.6464228788791
 20
590.1261548892844
 30
0.0
 11
926.6464228788791
 21
592.1261548892844
 31
0.0
  0
LINE
  5
1F1
330
19
100
AcDbEntity
  8
4
100
AcDbLine
 10
926.6464228788791
 20
646.1261548892844
 30
0.0
 11
924.6464228788791
 21
648.1261548892844
 31
0.0
  0
LINE
  5
1F5
330
19
100
AcDbEntity
  8
4
100
AcDbLine
 10
358.6464228788791
 20
740.1261548892844
 30
0.0
 11
404.6464228788791
 21
740.1261548892844
 31
0.0
  0
LINE
  5
1F6
330
19
100
AcDbEntity
  8
4
100
AcDbLine
 10
271.6464228788791
 20
747.1261548892844
 30
0.0
 11
282.6464228788791
 21
747.1261548892844
 31
0.0
  0
LINE
  5
1F7
330
19
100
AcDbEntity
  8
4
100
AcDbLine
 10
273.6464228788791
 20
748.1261548892844
 30
0.0
 11
282.6464228788791
 21
748.1261548892844
 31
0.0
  0
LINE
  5
1F8
330
19
100
AcDbEntity
  8
4
100
AcDbLine
 10
282.6464228788791
 20
745.1261548892844
 30
0.0
 11
271.6464228788791
 21
745.1261548892844
 31
0.0
  0
LINE
  5
1F9
330
19
100
AcDbEntity
  8
4
100
AcDbLine
 10
271.6464228788791
 20
747.1261548892844
 30
0.0
 11
271.6464228788791
 21
745.1261548892844
 31
0.0
  0
LINE
  5
1FA
330
19
100
AcDbEntity
  8
4
100
AcDbLine
 10
273.6464228788791
 20
748.1261548892844
 30
0.0
 11
271.6464228788791
 21
747.1261548892844
 31
0.0
  0
LINE
  5
1FB
330
19
100
AcDbEntity
  8
4
100
AcDbLine
 10
291.6464228788791
 20
748.1261548892844
 30
0.0
 11
293.6464228788791
 21
747.1261548892844
 31
0.0
  0
LINE
  5
1FC
330
19
100
AcDbEntity
  8
4
100
AcDbLine
 10
293.6464228788791
 20
747.1261548892844
 30
0.0
 11
293.6464228788791
 21
745.1261548892844
 31
0.0
  0
LINE
  5
1FD
330
19
100
AcDbEntity
  8
4
100
AcDbLine
 10
282.6464228788791
 20
745.1261548892844
 30
0.0
 11
293.6464228788791
 21
745.1261548892844
 31
0.0
  0
LINE
  5
1FE
330
19
100
AcDbEntity
  8
4
100
AcDbLine
 10
291.6464228788791
 20
748.1261548892844
 30
0.0
 11
282.6464228788791
 21
748.1261548892844
 31
0.0
  0
LINE
  5
1FF
330
19
100
AcDbEntity
  8
4
100
AcDbLine
 10
293.6464228788791
 20
747.1261548892844
 30
0.0
 11
282.6464228788791
 21
747.1261548892844
 31
0.0
  0
LINE
  5
204
330
19
100
AcDbEntity
  8
4
100
AcDbLine
 10
521.6464228788791
 20
744.1261548892844
 30
0.0
 11
535.3776228788793
 21
742.1122398892844
 31
0.0
  0
LINE
  5
205
330
19
100
AcDbEntity
  8
L-CENTER
 48
2.0
100
AcDbLine
 10
475.0316778788792
 20
764.1261548892844
 30
0.0
 11
568.261167878879
 21
764.1261548892844
 31
0.0
  0
LINE
  5
206
330
19
100
AcDbEntity
  8
4
100
AcDbLine
 10
508.103942878879
 20
742.1261548892844
 30
0.0
 11
535.1889028788792
 21
742.1261548892844
 31
0.0
  0
CIRCLE
  5
207
330
19
100
AcDbEntity
  8
4
100
AcDbCircle
 10
521.6464228788791
 20
764.1261548892844
 30
0.0
 40
20.0
  0
ARC
  5
208
330
19
100
AcDbEntity
  8
4
100
AcDbCircle
 10
508.103942878879
 20
740.8261048892846
 30
0.0
 40
1.300075
100
AcDbArc
 50
90.0
 51
167.3521589999979
  0
LINE
  5
209
330
19
100
AcDbEntity
  8
4
100
AcDbLine
 10
521.6464228788791
 20
744.1261548892844
 30
0.0
 11
507.9152228788789
 21
742.1122398892844
 31
0.0
  0
ARC
  5
20A
330
19
100
AcDbEntity
  8
4
100
AcDbCircle
 10
535.1889028788792
 20
740.8261048892846
 30
0.0
 40
1.300075
100
AcDbArc
 50
12.6478410000021
 51
90.0
  0
LINE
  5
20E
330
19
100
AcDbEntity
  8
4
100
AcDbLine
 10
760.6464228788791
 20
745.1261548892844
 30
0.0
 11
771.6464228788791
 21
745.1261548892844
 31
0.0
  0
LINE
  5
20F
330
19
100
AcDbEntity
  8
4
100
AcDbLine
 10
769.6464228788791
 20
748.1261548892844
 30
0.0
 11
760.6464228788791
 21
748.1261548892844
 31
0.0
  0
LINE
  5
210
330
19
100
AcDbEntity
  8
4
100
AcDbLine
 10
771.6464228788791
 20
747.1261548892844
 30
0.0
 11
760.6464228788791
 21
747.1261548892844
 31
0.0
  0
LINE
  5
211
330
19
100
AcDbEntity
  8
4
100
AcDbLine
 10
749.6464228788791
 20
747.1261548892844
 30
0.0
 11
749.6464228788791
 21
745.1261548892844
 31
0.0
  0
LINE
  5
212
330
19
100
AcDbEntity
  8
4
100
AcDbLine
 10
751.6464228788791
 20
748.1261548892844
 30
0.0
 11
749.6464228788791
 21
747.1261548892844
 31
0.0
  0
LINE
  5
213
330
19
100
AcDbEntity
  8
4
100
AcDbLine
 10
749.6464228788791
 20
747.1261548892844
 30
0.0
 11
760.6464228788791
 21
747.1261548892844
 31
0.0
  0
LINE
  5
214
330
19
100
AcDbEntity
  8
4
100
AcDbLine
 10
751.6464228788791
 20
748.1261548892844
 30
0.0
 11
760.6464228788791
 21
748.1261548892844
 31
0.0
  0
LINE
  5
215
330
19
100
AcDbEntity
  8
4
100
AcDbLine
 10
760.6464228788791
 20
745.1261548892844
 30
0.0
 11
749.6464228788791
 21
745.1261548892844
 31
0.0
  0
LINE
  5
216
330
19
100
AcDbEntity
  8
4
100
AcDbLine
 10
771.6464228788791
 20
747.1261548892844
 30
0.0
 11
771.6464228788791
 21
745.1261548892844
 31
0.0
  0
LINE
  5
217
330
19
100
AcDbEntity
  8
4
100
AcDbLine
 10
769.6464228788791
 20
748.1261548892844
 30
0.0
 11
771.6464228788791
 21
747.1261548892844
 31
0.0
  0
LINE
  5
221
330
19
100
AcDbEntity
  8
4
100
AcDbLine
 10
1765.035530506646
 20
177.6100398892845
 30
0.0
 11
1791.864215506646
 21
286.6261548892844
 31
0.0
  0
LINE
  5
222
330
19
100
AcDbEntity
  8
4
100
AcDbLine
 10
1499.166095506646
 20
158.4905998892846
 30
0.0
 11
1468.564315506646
 21
286.6261548892844
 31
0.0
  0
LINE
  5
223
330
19
100
AcDbEntity
  8
4
100
AcDbLine
 10
1723.564315506646
 20
369.1261548892844
 30
0.0
 11
1723.564315506646
 21
149.1261548892844
 31
0.0
  0
LINE
  5
224
330
19
100
AcDbEntity
  8
4
100
AcDbLine
 10
1533.564315506646
 20
369.1261548892844
 30
0.0
 11
1533.564315506646
 21
149.1261548892844
 31
0.0
  0
LINE
  5
225
330
19
100
AcDbEntity
  8
L-CENTER
 48
2.0
100
AcDbLine
 10
1628.564315506646
 20
808.2557948892845
 30
0.0
 11
1628.564315506646
 21
75.58542414609383
 31
0.0
  0
LINE
  5
226
330
19
100
AcDbEntity
  8
4
100
AcDbLine
 10
1759.864215506646
 20
157.5807448892847
 30
0.0
 11
1759.864215506646
 21
619.1261548892844
 31
0.0
  0
LINE
  5
227
330
19
100
AcDbEntity
  8
4
100
AcDbLine
 10
1737.564315506646
 20
167.7625198892842
 30
0.0
 11
1737.564315506646
 21
619.1261548892844
 31
0.0
  0
LINE
  5
228
330
19
100
AcDbEntity
  8
4
100
AcDbLine
 10
1734.564315506646
 20
169.1261548892844
 30
0.0
 11
1734.564315506646
 21
622.1261548892844
 31
0.0
  0
LINE
  5
229
330
19
100
AcDbEntity
  8
4
100
AcDbLine
 10
1733.564315506646
 20
149.1261548892844
 30
0.0
 11
1733.564315506646
 21
619.1261548892844
 31
0.0
  0
LINE
  5
22A
330
19
100
AcDbEntity
  8
4
100
AcDbLine
 10
1522.564315506646
 20
169.1261548892844
 30
0.0
 11
1522.564315506646
 21
622.1261548892844
 31
0.0
  0
LINE
  5
22B
330
19
100
AcDbEntity
  8
4
100
AcDbLine
 10
1523.564315506646
 20
149.1261548892844
 30
0.0
 11
1523.564315506646
 21
619.1261548892844
 31
0.0
  0
LINE
  5
22C
330
19
100
AcDbEntity
  8
4
100
AcDbLine
 10
1499.564315506646
 20
617.1261548892844
 30
0.0
 11
1499.564315506646
 21
158.6716098892844
 31
0.0
  0
LINE
  5
231
330
19
100
AcDbEntity
  8
4
100
AcDbLine
 10
1803.564315506646
 20
89.12615488928441
 30
0.0
 11
1453.564315506646
 21
89.12615488928441
 31
0.0
  0
LINE
  5
232
330
19
100
AcDbEntity
  8
4
100
AcDbLine
 10
1800.564315506646
 20
139.1261548892844
 30
0.0
 11
1456.564315506646
 21
139.1261548892844
 31
0.0
  0
LINE
  5
23B
330
19
100
AcDbEntity
  8
L-CENTER
 48
2.0
100
AcDbLine
 10
1493.564315506646
 20
164.1261548892844
 30
0.0
 11
1493.564315506646
 21
64.12615488928441
 31
0.0
  0
LINE
  5
23C
330
19
100
AcDbEntity
  8
4
100
AcDbLine
 10
1453.564315506646
 20
89.12615488928441
 30
0.0
 11
1453.564315506646
 21
136.1261548892844
 31
0.0
  0
LINE
  5
23D
330
19
100
AcDbEntity
  8
4
100
AcDbLine
 10
1456.564315506646
 20
139.1261548892844
 30
0.0
 11
1523.564315506646
 21
169.5806998892845
 31
0.0
  0
ARC
  5
23E
330
19
100
AcDbEntity
  8
4
100
AcDbCircle
 10
1456.564315506646
 20
136.1261548892844
 30
0.0
 40
3.0
100
AcDbArc
 50
90.0
 51
180.0
  0
ARC
  5
23F
330
19
100
AcDbEntity
  8
4
100
AcDbCircle
 10
1523.564315506646
 20
149.1261548892844
 30
0.0
 40
10.0
100
AcDbArc
 50
270.0
 51
0.0
  0
ARC
  5
240
330
19
100
AcDbEntity
  8
4
100
AcDbCircle
 10
1513.564315506646
 20
149.1261548892844
 30
0.0
 40
10.0
100
AcDbArc
 50
270.0
 51
0.0
  0
ARC
  5
241
330
19
100
AcDbEntity
  8
4
100
AcDbCircle
 10
1767.280475506646
 20
174.6100398892845
 30
0.0
 40
4.58369
100
AcDbArc
 50
319.1186700000107
 51
40.88132999998932
  0
ARC
  5
242
330
19
100
AcDbEntity
  8
4
100
AcDbCircle
 10
1753.864215506646
 20
165.6100398892845
 30
0.0
 40
18.00009
100
AcDbArc
 50
340.528928000001
 51
19.47033699999144
  0
ARC
  5
243
330
19
100
AcDbEntity
  8
4
100
AcDbCircle
 10
1767.280475506646
 20
156.6100398892845
 30
0.0
 40
4.58369
100
AcDbArc
 50
319.1186700000107
 51
40.88132999998932
  0
LINE
  5
244
330
19
100
AcDbEntity
  8
4
100
AcDbLine
 10
1800.564315506646
 20
139.1261548892844
 30
0.0
 11
1733.564315506646
 21
169.5806998892845
 31
0.0
  0
LINE
  5
249
330
19
100
AcDbEntity
  8
L-CENTER
 48
2.0
100
AcDbLine
 10
1763.564315506646
 20
164.1261548892844
 30
0.0
 11
1763.564315506646
 21
64.12615488928441
 31
0.0
  0
ARC
  5
24A
330
19
100
AcDbEntity
  8
4
100
AcDbCircle
 10
1733.564315506646
 20
149.1261548892844
 30
0.0
 40
10.0
100
AcDbArc
 50
180.0
 51
270.0
  0
ARC
  5
24B
330
19
100
AcDbEntity
  8
4
100
AcDbCircle
 10
1743.564315506646
 20
149.1261548892844
 30
0.0
 40
10.0
100
AcDbArc
 50
180.0
 51
270.0
  0
LINE
  5
24C
330
19
100
AcDbEntity
  8
4
100
AcDbLine
 10
1762.864215506646
 20
171.6100398892845
 30
0.0
 11
1770.834675506647
 21
171.6100398892845
 31
0.0
  0
LINE
  5
24D
330
19
100
AcDbEntity
  8
4
100
AcDbLine
 10
1762.864215506646
 20
159.6100398892845
 30
0.0
 11
1770.834675506647
 21
159.6100398892845
 31
0.0
  0
LINE
  5
24E
330
19
100
AcDbEntity
  8
4
100
AcDbLine
 10
1770.834675506647
 20
177.6100398892845
 30
0.0
 11
1762.864215506646
 21
177.6100398892845
 31
0.0
  0
LINE
  5
24F
330
19
100
AcDbEntity
  8
4
100
AcDbLine
 10
1770.834675506647
 20
153.6100398892845
 30
0.0
 11
1768.599765506646
 21
153.6100398892845
 31
0.0
  0
LINE
  5
250
330
19
100
AcDbEntity
  8
4
100
AcDbLine
 10
1762.864215506646
 20
156.2171098892845
 30
0.0
 11
1762.864215506646
 21
177.6100398892845
 31
0.0
  0
LINE
  5
251
330
19
100
AcDbEntity
  8
4
100
AcDbLine
 10
1759.864215506646
 20
177.6100398892845
 30
0.0
 11
1759.864215506646
 21
157.5807448892847
 31
0.0
  0
LINE
  5
252
330
19
100
AcDbEntity
  8
4
100
AcDbLine
 10
1759.864215506646
 20
177.6100398892845
 30
0.0
 11
1762.864215506646
 21
177.6100398892845
 31
0.0
  0
LINE
  5
255
330
19
100
AcDbEntity
  8
4
100
AcDbLine
 10
1803.564315506646
 20
89.12615488928441
 30
0.0
 11
1803.564315506646
 21
136.1261548892844
 31
0.0
  0
ARC
  5
256
330
19
100
AcDbEntity
  8
4
100
AcDbCircle
 10
1800.564315506646
 20
136.1261548892844
 30
0.0
 40
3.0
100
AcDbArc
 50
0.0
 51
90.0
  0
LINE
  5
257
330
19
100
AcDbEntity
  8
4
100
AcDbLine
 10
1771.864215506646
 20
156.6100398892845
 30
0.0
 11
1771.864215506646
 21
174.6100398892845
 31
0.0
  0
LINE
  5
258
330
19
100
AcDbEntity
  8
L-CENTER
 48
2.0
100
AcDbLine
 10
1985.115613097071
 20
369.1261548892844
 30
0.0
 11
1272.013017916221
 21
369.1261548892844
 31
0.0
  0
LINE
  5
25A
330
19
100
AcDbEntity
  8
4
100
AcDbLine
 10
1618.564315506646
 20
735.1261548892844
 30
0.0
 11
1618.564315506646
 21
745.1261548892844
 31
0.0
  0
LINE
  5
25B
330
19
100
AcDbEntity
  8
4
100
AcDbLine
 10
1613.753035506646
 20
741.1107748892846
 30
0.0
 11
1611.064315506646
 21
729.1261548892844
 31
0.0
  0
LINE
  5
25C
330
19
100
AcDbEntity
  8
4
100
AcDbLine
 10
1608.645615506646
 20
735.1261548892844
 30
0.0
 11
1608.645615506646
 21
740.1261548892844
 31
0.0
  0
LINE
  5
25D
330
19
100
AcDbEntity
  8
4
100
AcDbLine
 10
1638.564315506646
 20
735.1261548892844
 30
0.0
 11
1638.564315506646
 21
745.1261548892844
 31
0.0
  0
LINE
  5
25E
330
19
100
AcDbEntity
  8
4
100
AcDbLine
 10
1643.375350506646
 20
741.1107748892846
 30
0.0
 11
1646.064315506646
 21
729.1261548892844
 31
0.0
  0
LINE
  5
25F
330
19
100
AcDbEntity
  8
4
100
AcDbLine
 10
1648.482770506646
 20
735.1261548892844
 30
0.0
 11
1648.482770506646
 21
740.1261548892844
 31
0.0
  0
LINE
  5
262
330
19
100
AcDbEntity
  8
L-CENTER
 48
2.0
100
AcDbLine
 10
1546.809190506646
 20
537.3712698892841
 30
0.0
 11
1586.575550506646
 21
577.1376298892844
 31
0.0
  0
LINE
  5
263
330
19
100
AcDbEntity
  8
L-CENTER
 48
2.0
100
AcDbLine
 10
1546.809548076425
 20
700.880907459785
 30
0.0
 11
1586.576044830142
 21
661.1146842128969
 31
0.0
  0
LINE
  5
264
330
19
100
AcDbEntity
  8
L-CENTER
 48
2.0
100
AcDbLine
 10
1747.074641396771
 20
619.1261548892844
 30
0.0
 11
1510.455272649878
 21
619.1261548892844
 31
0.0
  0
CIRCLE
  5
265
330
19
100
AcDbEntity
  8
4
100
AcDbCircle
 10
1628.564315506646
 20
619.1261548892844
 30
0.0
 40
105.0
  0
CIRCLE
  5
266
330
19
100
AcDbEntity
  8
L-CENTER
 48
2.0
100
AcDbCircle
 10
1628.564315506646
 20
619.1261548892844
 30
0.0
 40
87.5
  0
ARC
  5
267
330
19
100
AcDbEntity
  8
4
100
AcDbCircle
 10
1628.564315506646
 20
226.1261548892844
 30
0.0
 40
500.000005
100
AcDbArc
 50
79.39719200000197
 51
100.6030059999988
  0
LINE
  5
268
330
19
100
AcDbEntity
  8
4
100
AcDbLine
 10
1499.564315506646
 20
581.4291348892843
 30
0.0
 11
1468.564315506646
 21
451.6261548892844
 31
0.0
  0
LINE
  5
26C
330
19
100
AcDbEntity
  8
4
100
AcDbLine
 10
1278.564315506646
 20
414.1261548892844
 30
0.0
 11
1428.564315506646
 21
414.1261548892844
 31
0.0
  0
LINE
  5
26D
330
19
100
AcDbEntity
  8
4
100
AcDbLine
 10
1438.564315506646
 20
408.1261548892844
 30
0.0
 11
1280.564315506646
 21
408.1261548892844
 31
0.0
  0
LINE
  5
26E
330
19
100
AcDbEntity
  8
4
100
AcDbLine
 10
1438.564315506646
 20
330.1261548892844
 30
0.0
 11
1280.564315506646
 21
330.1261548892844
 31
0.0
  0
LINE
  5
276
330
19
100
AcDbEntity
  8
4
100
AcDbLine
 10
1278.564315506646
 20
414.1261548892844
 30
0.0
 11
1278.564315506646
 21
332.1261548892844
 31
0.0
  0
LINE
  5
277
330
19
100
AcDbEntity
  8
4
100
AcDbLine
 10
1280.564315506646
 20
408.1261548892844
 30
0.0
 11
1280.564315506646
 21
330.1261548892844
 31
0.0
  0
LINE
  5
278
330
19
100
AcDbEntity
  8
4
100
AcDbLine
 10
1280.564315506646
 20
330.1261548892844
 30
0.0
 11
1278.564315506646
 21
332.1261548892844
 31
0.0
  0
LINE
  5
27B
330
19
100
AcDbEntity
  8
4
100
AcDbLine
 10
1278.564315506646
 20
406.1261548892844
 30
0.0
 11
1280.564315506646
 21
408.1261548892844
 31
0.0
  0
LINE
  5
27C
330
19
100
AcDbEntity
  8
4
100
AcDbLine
 10
1499.564315506646
 20
326.6261548892844
 30
0.0
 11
1468.564315506646
 21
311.6261548892844
 31
0.0
  0
LINE
  5
27D
330
19
100
AcDbEntity
  8
4
100
AcDbLine
 10
1468.564315506646
 20
451.6261548892844
 30
0.0
 11
1468.564315506646
 21
286.6261548892844
 31
0.0
  0
LINE
  5
27E
330
19
100
AcDbEntity
  8
4
100
AcDbLine
 10
1445.564315506646
 20
446.6261548892844
 30
0.0
 11
1445.564315506646
 21
291.6261548892844
 31
0.0
  0
LINE
  5
27F
330
19
100
AcDbEntity
  8
4
100
AcDbLine
 10
1499.564315506646
 20
326.6261548892844
 30
0.0
 11
1468.564315506646
 21
311.6261548892844
 31
0.0
  0
LINE
  5
280
330
19
100
AcDbEntity
  8
4
100
AcDbLine
 10
1444.564315506646
 20
419.1261548892844
 30
0.0
 11
1444.564315506646
 21
319.1261548892844
 31
0.0
  0
LINE
  5
281
330
19
100
AcDbEntity
  8
4
100
AcDbLine
 10
1468.564315506646
 20
286.6261548892844
 30
0.0
 11
1445.564315506646
 21
291.6261548892844
 31
0.0
  0
LINE
  5
282
330
19
100
AcDbEntity
  8
4
100
AcDbLine
 10
1445.564315506646
 20
319.1261548892844
 30
0.0
 11
1444.564315506646
 21
319.1261548892844
 31
0.0
  0
LINE
  5
283
330
19
100
AcDbEntity
  8
4
100
AcDbLine
 10
1468.564315506646
 20
451.6261548892844
 30
0.0
 11
1445.564315506646
 21
446.6261548892844
 31
0.0
  0
LINE
  5
284
330
19
100
AcDbEntity
  8
4
100
AcDbLine
 10
1438.564315506646
 20
409.1261548892844
 30
0.0
 11
1438.564315506646
 21
329.1261548892844
 31
0.0
  0
LINE
  5
285
330
19
100
AcDbEntity
  8
4
100
AcDbLine
 10
1444.564315506646
 20
329.1261548892844
 30
0.0
 11
1438.564315506646
 21
329.1261548892844
 31
0.0
  0
LINE
  5
286
330
19
100
AcDbEntity
  8
4
100
AcDbLine
 10
1445.564315506646
 20
419.1261548892844
 30
0.0
 11
1444.564315506646
 21
419.1261548892844
 31
0.0
  0
LINE
  5
287
330
19
100
AcDbEntity
  8
4
100
AcDbLine
 10
1428.564315506646
 20
414.1261548892844
 30
0.0
 11
1428.564315506646
 21
408.1261548892844
 31
0.0
  0
LINE
  5
288
330
19
100
AcDbEntity
  8
4
100
AcDbLine
 10
1438.564315506646
 20
409.1261548892844
 30
0.0
 11
1444.564315506646
 21
409.1261548892844
 31
0.0
  0
LINE
  5
289
330
19
100
AcDbEntity
  8
4
100
AcDbLine
 10
1499.564315506646
 20
411.6261548892844
 30
0.0
 11
1468.564315506646
 21
426.6261548892844
 31
0.0
  0
ARC
  5
296
330
19
100
AcDbEntity
  8
4
100
AcDbCircle
 10
2023.564315506646
 20
619.1261548892844
 30
0.0
 40
500.00003
100
AcDbArc
 50
169.1068520000132
 51
180.0003920002005
  0
ARC
  5
297
330
19
100
AcDbEntity
  8
4
100
AcDbCircle
 10
1501.564315506646
 20
617.1261548892844
 30
0.0
 40
2.0
100
AcDbArc
 50
90.0
 51
180.0
  0
LINE
  5
298
330
19
100
AcDbEntity
  8
4
100
AcDbLine
 10
1523.607285506646
 20
622.1261548892844
 30
0.0
 11
1522.564315506646
 21
622.1261548892844
 31
0.0
  0
LINE
  5
299
330
19
100
AcDbEntity
  8
4
100
AcDbLine
 10
1501.564315506646
 20
619.1261548892844
 30
0.0
 11
1522.564315506646
 21
619.1261548892844
 31
0.0
  0
ARC
  5
29A
330
19
100
AcDbEntity
  8
4
100
AcDbCircle
 10
1537.484480506646
 20
712.6747398892844
 30
0.0
 40
4.99997
100
AcDbArc
 50
100.6048749999998
 51
169.1076069999868
  0
LINE
  5
29D
330
19
100
AcDbEntity
  8
4
100
AcDbLine
 10
1765.035530506646
 20
560.6422698892843
 30
0.0
 11
1791.864215506646
 21
451.6261548892844
 31
0.0
  0
ARC
  5
29E
330
19
100
AcDbEntity
  8
4
100
AcDbCircle
 10
1767.280475506646
 20
378.1261548892844
 30
0.0
 40
4.583600000000001
100
AcDbArc
 50
319.1186700000108
 51
40.88332600001215
  0
ARC
  5
29F
330
19
100
AcDbEntity
  8
4
100
AcDbCircle
 10
1767.280475506646
 20
360.1261548892844
 30
0.0
 40
4.583600000000001
100
AcDbArc
 50
319.1186700000108
 51
40.88332600001215
  0
ARC
  5
2A0
330
19
100
AcDbEntity
  8
4
100
AcDbCircle
 10
1753.864215506646
 20
369.1261548892844
 30
0.0
 40
17.999975
100
AcDbArc
 50
340.5296600000138
 51
19.471331000003
  0
LINE
  5
2A1
330
19
100
AcDbEntity
  8
4
100
AcDbLine
 10
1759.864215506646
 20
411.6261548892844
 30
0.0
 11
1791.864215506646
 21
426.6261548892844
 31
0.0
  0
LINE
  5
2A2
330
19
100
AcDbEntity
  8
4
100
AcDbLine
 10
1759.864215506646
 20
326.6261548892844
 30
0.0
 11
1791.864215506646
 21
311.6261548892844
 31
0.0
  0
LINE
  5
2A3
330
19
100
AcDbEntity
  8
4
100
AcDbLine
 10
1759.864215506646
 20
326.6261548892844
 30
0.0
 11
1791.864215506646
 21
311.6261548892844
 31
0.0
  0
LINE
  5
2A4
330
19
100
AcDbEntity
  8
4
100
AcDbLine
 10
1762.864215506646
 20
375.1261548892844
 30
0.0
 11
1770.834675506647
 21
375.1261548892844
 31
0.0
  0
LINE
  5
2A5
330
19
100
AcDbEntity
  8
4
100
AcDbLine
 10
1770.834675506647
 20
381.1261548892844
 30
0.0
 11
1762.864215506646
 21
381.1261548892844
 31
0.0
  0
LINE
  5
2A6
330
19
100
AcDbEntity
  8
4
100
AcDbLine
 10
1762.864215506646
 20
363.1261548892844
 30
0.0
 11
1770.834675506647
 21
363.1261548892844
 31
0.0
  0
LINE
  5
2A7
330
19
100
AcDbEntity
  8
4
100
AcDbLine
 10
1770.834675506647
 20
357.1261548892844
 30
0.0
 11
1762.864215506646
 21
357.1261548892844
 31
0.0
  0
LINE
  5
2A8
330
19
100
AcDbEntity
  8
4
100
AcDbLine
 10
1762.864215506646
 20
381.1261548892844
 30
0.0
 11
1762.864215506646
 21
357.1261548892844
 31
0.0
  0
LINE
  5
2A9
330
19
100
AcDbEntity
  8
4
100
AcDbLine
 10
1759.864215506646
 20
357.1261548892844
 30
0.0
 11
1759.864215506646
 21
381.1261548892844
 31
0.0
  0
LINE
  5
2AA
330
19
100
AcDbEntity
  8
4
100
AcDbLine
 10
1759.864215506646
 20
381.1261548892844
 30
0.0
 11
1762.864215506646
 21
381.1261548892844
 31
0.0
  0
LINE
  5
2AB
330
19
100
AcDbEntity
  8
4
100
AcDbLine
 10
1759.864215506646
 20
357.1261548892844
 30
0.0
 11
1762.864215506646
 21
357.1261548892844
 31
0.0
  0
LINE
  5
2AC
330
19
100
AcDbEntity
  8
4
100
AcDbLine
 10
1791.864215506646
 20
451.6261548892844
 30
0.0
 11
1791.864215506646
 21
286.6261548892844
 31
0.0
  0
LINE
  5
2AD
330
19
100
AcDbEntity
  8
4
100
AcDbLine
 10
1811.864215506646
 20
446.6261548892844
 30
0.0
 11
1811.864215506646
 21
291.6261548892844
 31
0.0
  0
LINE
  5
2AE
330
19
100
AcDbEntity
  8
4
100
AcDbLine
 10
1812.864215506646
 20
419.1261548892844
 30
0.0
 11
1812.864215506646
 21
319.1261548892844
 31
0.0
  0
LINE
  5
2AF
330
19
100
AcDbEntity
  8
4
100
AcDbLine
 10
1791.864215506646
 20
286.6261548892844
 30
0.0
 11
1811.864215506646
 21
291.6261548892844
 31
0.0
  0
LINE
  5
2B0
330
19
100
AcDbEntity
  8
4
100
AcDbLine
 10
1811.864215506646
 20
319.1261548892844
 30
0.0
 11
1812.864215506646
 21
319.1261548892844
 31
0.0
  0
LINE
  5
2B1
330
19
100
AcDbEntity
  8
4
100
AcDbLine
 10
1818.564315506646
 20
330.1261548892844
 30
0.0
 11
1976.564315506646
 21
330.1261548892844
 31
0.0
  0
LINE
  5
2B2
330
19
100
AcDbEntity
  8
4
100
AcDbLine
 10
1818.564315506646
 20
408.1261548892844
 30
0.0
 11
1976.564315506646
 21
408.1261548892844
 31
0.0
  0
LINE
  5
2B3
330
19
100
AcDbEntity
  8
4
100
AcDbLine
 10
1978.564315506646
 20
414.1261548892844
 30
0.0
 11
1828.564315506646
 21
414.1261548892844
 31
0.0
  0
LINE
  5
2B4
330
19
100
AcDbEntity
  8
4
100
AcDbLine
 10
1818.564315506646
 20
409.1261548892844
 30
0.0
 11
1818.564315506646
 21
329.1261548892844
 31
0.0
  0
LINE
  5
2B5
330
19
100
AcDbEntity
  8
4
100
AcDbLine
 10
1812.864215506646
 20
329.1261548892844
 30
0.0
 11
1818.564315506646
 21
329.1261548892844
 31
0.0
  0
LINE
  5
2B6
330
19
100
AcDbEntity
  8
4
100
AcDbLine
 10
1771.864215506646
 20
378.1261548892844
 30
0.0
 11
1771.864215506646
 21
360.1261548892844
 31
0.0
  0
LINE
  5
2B7
330
19
100
AcDbEntity
  8
4
100
AcDbLine
 10
1811.864215506646
 20
419.1261548892844
 30
0.0
 11
1812.864215506646
 21
419.1261548892844
 31
0.0
  0
LINE
  5
2B8
330
19
100
AcDbEntity
  8
4
100
AcDbLine
 10
1818.564315506646
 20
409.1261548892844
 30
0.0
 11
1812.864215506646
 21
409.1261548892844
 31
0.0
  0
LINE
  5
2B9
330
19
100
AcDbEntity
  8
4
100
AcDbLine
 10
1791.864215506646
 20
451.6261548892844
 30
0.0
 11
1811.864215506646
 21
446.6261548892844
 31
0.0
  0
LINE
  5
2BA
330
19
100
AcDbEntity
  8
4
100
AcDbLine
 10
1828.564315506646
 20
414.1261548892844
 30
0.0
 11
1828.564315506646
 21
408.1261548892844
 31
0.0
  0
LINE
  5
2BB
330
19
100
AcDbEntity
  8
4
100
AcDbLine
 10
1976.564315506646
 20
408.1261548892844
 30
0.0
 11
1976.564315506646
 21
330.1261548892844
 31
0.0
  0
LINE
  5
2BC
330
19
100
AcDbEntity
  8
4
100
AcDbLine
 10
1978.564315506646
 20
414.1261548892844
 30
0.0
 11
1978.564315506646
 21
332.1261548892844
 31
0.0
  0
LINE
  5
2BD
330
19
100
AcDbEntity
  8
4
100
AcDbLine
 10
1976.564315506646
 20
330.1261548892844
 30
0.0
 11
1978.564315506646
 21
332.1261548892844
 31
0.0
  0
LINE
  5
2BE
330
19
100
AcDbEntity
  8
4
100
AcDbLine
 10
1978.564315506646
 20
406.1261548892844
 30
0.0
 11
1976.564315506646
 21
408.1261548892844
 31
0.0
  0
ARC
  5
2BF
330
19
100
AcDbEntity
  8
4
100
AcDbCircle
 10
1767.280475506646
 20
581.6422698892843
 30
0.0
 40
4.583600000000001
100
AcDbArc
 50
319.1186700000108
 51
40.88332600001323
  0
ARC
  5
2C0
330
19
100
AcDbEntity
  8
4
100
AcDbCircle
 10
1753.864215506646
 20
572.6422698892843
 30
0.0
 40
17.999975
100
AcDbArc
 50
340.5296600000135
 51
19.47133100000335
  0
LINE
  5
2C1
330
19
100
AcDbEntity
  8
L-CENTER
 48
2.0
100
AcDbLine
 10
1713.765515280707
 20
572.6422698892843
 30
0.0
 11
1777.748537161704
 21
572.6422698892843
 31
0.0
  0
ARC
  5
2C2
330
19
100
AcDbEntity
  8
4
100
AcDbCircle
 10
1767.280475506646
 20
563.6422698892843
 30
0.0
 40
4.583600000000001
100
AcDbArc
 50
319.1186700000108
 51
40.88332600001323
  0
CIRCLE
  5
2C3
330
19
100
AcDbEntity
  8
4
100
AcDbCircle
 10
1628.564315506646
 20
619.1261548892844
 30
0.0
 40
45.0
  0
ARC
  5
2C4
330
19
100
AcDbEntity
  8
4
100
AcDbCircle
 10
1628.564315506646
 20
619.1261548892844
 30
0.0
 40
29.000035
100
AcDbArc
 50
104.9882150000025
 51
75.01178499999752
  0
LINE
  5
2C5
330
19
100
AcDbEntity
  8
4
100
AcDbLine
 10
1563.586775506647
 20
568.8456348892842
 30
0.0
 11
1555.101425506647
 21
560.3602848892842
 31
0.0
  0
LINE
  5
2C6
330
19
100
AcDbEntity
  8
4
100
AcDbLine
 10
1578.283795506646
 20
554.1486148892845
 30
0.0
 11
1575.178085506646
 21
565.7399248892843
 31
0.0
  0
CIRCLE
  5
2C7
330
19
100
AcDbEntity
  8
4
100
AcDbCircle
 10
1566.692490506646
 20
557.2543298892842
 30
0.0
 40
10.392335
  0
CIRCLE
  5
2C8
330
19
100
AcDbEntity
  8
4
100
AcDbCircle
 10
1566.692735506646
 20
557.2545748892844
 30
0.0
 40
12.0
  0
LINE
  5
2C9
330
19
100
AcDbEntity
  8
4
100
AcDbLine
 10
1558.207380506647
 20
548.7692198892846
 30
0.0
 11
1569.798445506646
 21
545.6632648892846
 31
0.0
  0
LINE
  5
2CA
330
19
100
AcDbEntity
  8
4
100
AcDbLine
 10
1555.101425506647
 20
560.3602848892842
 30
0.0
 11
1558.207380506647
 21
548.7692198892846
 31
0.0
  0
LINE
  5
2CB
330
19
100
AcDbEntity
  8
4
100
AcDbLine
 10
1569.798445506646
 20
545.6632648892846
 30
0.0
 11
1578.283795506646
 21
554.1486148892845
 31
0.0
  0
LINE
  5
2CC
330
19
100
AcDbEntity
  8
4
100
AcDbLine
 10
1575.178085506646
 20
565.7399248892843
 30
0.0
 11
1563.586775506647
 21
568.8456348892842
 31
0.0
  0
LINE
  5
2CD
330
19
100
AcDbEntity
  8
4
100
AcDbLine
 10
1693.541855506646
 20
568.8456348892842
 30
0.0
 11
1702.027205506646
 21
560.3602848892842
 31
0.0
  0
LINE
  5
2CE
330
19
100
AcDbEntity
  8
4
100
AcDbLine
 10
1678.844830506647
 20
554.1486148892845
 30
0.0
 11
1681.950545506646
 21
565.7399248892843
 31
0.0
  0
CIRCLE
  5
2CF
330
19
100
AcDbEntity
  8
4
100
AcDbCircle
 10
1690.436140506647
 20
557.2543298892842
 30
0.0
 40
10.392335
  0
CIRCLE
  5
2D0
330
19
100
AcDbEntity
  8
4
100
AcDbCircle
 10
1690.435895506646
 20
557.2545748892844
 30
0.0
 40
12.0
  0
LINE
  5
2D1
330
19
100
AcDbEntity
  8
L-CENTER
 48
2.0
100
AcDbLine
 10
1710.319440506646
 20
537.3712698892841
 30
0.0
 11
1670.552835506646
 21
577.1378748892844
 31
0.0
  0
LINE
  5
2D2
330
19
100
AcDbEntity
  8
4
100
AcDbLine
 10
1698.921250506646
 20
548.7692198892846
 30
0.0
 11
1687.330185506647
 21
545.6632648892846
 31
0.0
  0
LINE
  5
2D3
330
19
100
AcDbEntity
  8
4
100
AcDbLine
 10
1687.330185506647
 20
545.6632648892846
 30
0.0
 11
1678.844830506647
 21
554.1486148892845
 31
0.0
  0
LINE
  5
2D4
330
19
100
AcDbEntity
  8
4
100
AcDbLine
 10
1702.027205506646
 20
560.3602848892842
 30
0.0
 11
1698.921250506646
 21
548.7692198892846
 31
0.0
  0
LINE
  5
2D5
330
19
100
AcDbEntity
  8
4
100
AcDbLine
 10
1681.950545506646
 20
565.7399248892843
 30
0.0
 11
1693.541855506646
 21
568.8456348892842
 31
0.0
  0
LINE
  5
2D6
330
19
100
AcDbEntity
  8
4
100
AcDbLine
 10
1762.864215506646
 20
584.6422698892843
 30
0.0
 11
1762.864215506646
 21
560.6422698892843
 31
0.0
  0
LINE
  5
2D7
330
19
100
AcDbEntity
  8
4
100
AcDbLine
 10
1759.864215506646
 20
560.6422698892843
 30
0.0
 11
1759.864215506646
 21
584.6422698892843
 31
0.0
  0
LINE
  5
2D8
330
19
100
AcDbEntity
  8
4
100
AcDbLine
 10
1770.834675506647
 20
560.6422698892843
 30
0.0
 11
1762.864215506646
 21
560.6422698892843
 31
0.0
  0
LINE
  5
2D9
330
19
100
AcDbEntity
  8
4
100
AcDbLine
 10
1759.864215506646
 20
560.6422698892843
 30
0.0
 11
1762.864215506646
 21
560.6422698892843
 31
0.0
  0
LINE
  5
2DA
330
19
100
AcDbEntity
  8
4
100
AcDbLine
 10
1762.864215506646
 20
578.6422698892843
 30
0.0
 11
1770.834675506647
 21
578.6422698892843
 31
0.0
  0
LINE
  5
2DB
330
19
100
AcDbEntity
  8
4
100
AcDbLine
 10
1770.834675506647
 20
584.6422698892843
 30
0.0
 11
1762.864215506646
 21
584.6422698892843
 31
0.0
  0
LINE
  5
2DC
330
19
100
AcDbEntity
  8
4
100
AcDbLine
 10
1762.864215506646
 20
566.6422698892843
 30
0.0
 11
1770.834675506647
 21
566.6422698892843
 31
0.0
  0
LINE
  5
2DD
330
19
100
AcDbEntity
  8
4
100
AcDbLine
 10
1759.864215506646
 20
584.6422698892843
 30
0.0
 11
1762.864215506646
 21
584.6422698892843
 31
0.0
  0
LINE
  5
2DE
330
19
100
AcDbEntity
  8
4
100
AcDbLine
 10
1575.178085506646
 20
672.5123848892845
 30
0.0
 11
1563.586775506647
 21
669.4066698892843
 31
0.0
  0
LINE
  5
2DF
330
19
100
AcDbEntity
  8
4
100
AcDbLine
 10
1563.586775506647
 20
669.4066698892843
 30
0.0
 11
1555.101425506647
 21
677.8920248892846
 31
0.0
  0
CIRCLE
  5
2E0
330
19
100
AcDbEntity
  8
4
100
AcDbCircle
 10
1566.692735506646
 20
680.9977348892844
 30
0.0
 40
12.0
  0
LINE
  5
2E1
330
19
100
AcDbEntity
  8
4
100
AcDbLine
 10
1636.064315506646
 20
653.1261548892844
 30
0.0
 11
1621.064315506646
 21
653.1261548892844
 31
0.0
  0
LINE
  5
2E2
330
19
100
AcDbEntity
  8
4
100
AcDbLine
 10
1636.064315506646
 20
643.1261548892844
 30
0.0
 11
1621.064315506646
 21
643.1261548892844
 31
0.0
  0
LINE
  5
2E3
330
19
100
AcDbEntity
  8
4
100
AcDbLine
 10
1621.064315506646
 20
643.1261548892844
 30
0.0
 11
1621.064315506646
 21
653.1261548892844
 31
0.0
  0
LINE
  5
2E4
330
19
100
AcDbEntity
  8
4
100
AcDbLine
 10
1636.064315506646
 20
653.1261548892844
 30
0.0
 11
1636.064315506646
 21
643.1261548892844
 31
0.0
  0
LINE
  5
2E5
330
19
100
AcDbEntity
  8
4
100
AcDbLine
 10
1612.410505506647
 20
735.1261548892844
 30
0.0
 11
1605.564315506646
 21
735.1261548892844
 31
0.0
  0
LINE
  5
2E6
330
19
100
AcDbEntity
  8
4
100
AcDbLine
 10
1605.564315506646
 20
731.1261548892844
 30
0.0
 11
1611.513045506646
 21
731.1261548892844
 31
0.0
  0
LINE
  5
2E7
330
19
100
AcDbEntity
  8
4
100
AcDbLine
 10
1606.564315506646
 20
729.1261548892844
 30
0.0
 11
1622.064315506646
 21
729.1261548892844
 31
0.0
  0
LINE
  5
2E8
330
19
100
AcDbEntity
  8
4
100
AcDbLine
 10
1606.564315506646
 20
729.1261548892844
 30
0.0
 11
1622.064315506646
 21
729.1261548892844
 31
0.0
  0
LINE
  5
2E9
330
19
100
AcDbEntity
  8
4
100
AcDbLine
 10
1603.564315506646
 20
729.1261548892844
 30
0.0
 11
1622.064315506646
 21
729.1261548892844
 31
0.0
  0
LINE
  5
2EA
330
19
100
AcDbEntity
  8
4
100
AcDbLine
 10
1555.101425506647
 20
677.8920248892846
 30
0.0
 11
1558.207380506647
 21
689.4830898892842
 31
0.0
  0
LINE
  5
2EB
330
19
100
AcDbEntity
  8
4
100
AcDbLine
 10
1558.207380506647
 20
689.4830898892842
 30
0.0
 11
1569.798445506646
 21
692.5890448892842
 31
0.0
  0
LINE
  5
2EC
330
19
100
AcDbEntity
  8
4
100
AcDbLine
 10
1578.283795506646
 20
684.1036948892843
 30
0.0
 11
1575.178085506646
 21
672.5123848892845
 31
0.0
  0
CIRCLE
  5
2ED
330
19
100
AcDbEntity
  8
4
100
AcDbCircle
 10
1566.692490506646
 20
680.9979798892846
 30
0.0
 40
10.392335
  0
LINE
  5
2EE
330
19
100
AcDbEntity
  8
4
100
AcDbLine
 10
1569.798445506646
 20
692.5890448892842
 30
0.0
 11
1578.283795506646
 21
684.1036948892843
 31
0.0
  0
LINE
  5
2EF
330
19
100
AcDbEntity
  8
4
100
AcDbLine
 10
1605.564315506646
 20
731.1261548892844
 30
0.0
 11
1605.564315506646
 21
735.1261548892844
 31
0.0
  0
LINE
  5
2F0
330
19
100
AcDbEntity
  8
4
100
AcDbLine
 10
1608.564315506646
 20
725.7260098892843
 30
0.0
 11
1608.564315506646
 21
729.1261548892844
 31
0.0
  0
LINE
  5
2F1
330
19
100
AcDbEntity
  8
4
100
AcDbLine
 10
1606.564315506646
 20
729.1261548892844
 30
0.0
 11
1606.564315506646
 21
731.1261548892844
 31
0.0
  0
LINE
  5
2F2
330
19
100
AcDbEntity
  8
4
100
AcDbLine
 10
1603.564315506646
 20
725.5006648892845
 30
0.0
 11
1603.564315506646
 21
729.1261548892844
 31
0.0
  0
LINE
  5
2F3
330
19
100
AcDbEntity
  8
4
100
AcDbLine
 10
1635.064315506646
 20
729.1261548892844
 30
0.0
 11
1646.064315506646
 21
729.1261548892844
 31
0.0
  0
LINE
  5
2F4
330
19
100
AcDbEntity
  8
4
100
AcDbLine
 10
1635.064315506646
 20
729.1261548892844
 30
0.0
 11
1650.564315506646
 21
729.1261548892844
 31
0.0
  0
LINE
  5
2F5
330
19
100
AcDbEntity
  8
4
100
AcDbLine
 10
1635.064315506646
 20
729.1261548892844
 30
0.0
 11
1650.564315506646
 21
729.1261548892844
 31
0.0
  0
LINE
  5
2F6
330
19
100
AcDbEntity
  8
4
100
AcDbLine
 10
1635.064315506646
 20
729.1261548892844
 30
0.0
 11
1653.564315506646
 21
729.1261548892844
 31
0.0
  0
ARC
  5
2F7
330
19
100
AcDbEntity
  8
4
100
AcDbCircle
 10
1638.564315506646
 20
731.1261548892844
 30
0.0
 40
4.0
100
AcDbArc
 50
90.0
 51
180.0
  0
LINE
  5
2F8
330
19
100
AcDbEntity
  8
4
100
AcDbLine
 10
1638.564315506646
 20
735.1261548892844
 30
0.0
 11
1628.564315506646
 21
735.1261548892844
 31
0.0
  0
LINE
  5
2F9
330
19
100
AcDbEntity
  8
4
100
AcDbLine
 10
1635.064315506646
 20
726.1261548892844
 30
0.0
 11
1635.064315506646
 21
730.4259598892845
 31
0.0
  0
LINE
  5
2FA
330
19
100
AcDbEntity
  8
4
100
AcDbLine
 10
1631.814315506646
 20
726.1261548892844
 30
0.0
 11
1631.814315506646
 21
730.4259598892845
 31
0.0
  0
LINE
  5
2FB
330
19
100
AcDbEntity
  8
4
100
AcDbLine
 10
1634.564315506646
 20
731.1261548892844
 30
0.0
 11
1634.564315506646
 21
730.8224448892843
 31
0.0
  0
ARC
  5
2FC
330
19
100
AcDbEntity
  8
4
100
AcDbCircle
 10
1633.439315506646
 20
728.8903148892841
 30
0.0
 40
2.235805
100
AcDbArc
 50
43.38059600001328
 51
136.6194039999867
  0
LINE
  5
2FD
330
19
100
AcDbEntity
  8
4
100
AcDbLine
 10
1635.064315506646
 20
726.1261548892844
 30
0.0
 11
1628.564315506646
 21
726.1261548892844
 31
0.0
  0
LINE
  5
2FE
330
19
100
AcDbEntity
  8
4
100
AcDbLine
 10
1633.439315506646
 20
731.1261548892844
 30
0.0
 11
1628.564315506646
 21
731.1261548892844
 31
0.0
  0
LINE
  5
2FF
330
19
100
AcDbEntity
  8
4
100
AcDbLine
 10
1625.314315506646
 20
726.1261548892844
 30
0.0
 11
1625.314315506646
 21
730.4259598892845
 31
0.0
  0
LINE
  5
300
330
19
100
AcDbEntity
  8
4
100
AcDbLine
 10
1622.064315506646
 20
726.1261548892844
 30
0.0
 11
1622.064315506646
 21
730.4259598892845
 31
0.0
  0
ARC
  5
301
330
19
100
AcDbEntity
  8
4
100
AcDbCircle
 10
1623.689315506646
 20
728.8903148892841
 30
0.0
 40
2.235805
100
AcDbArc
 50
43.38059600001328
 51
136.6194039999867
  0
LINE
  5
302
330
19
100
AcDbEntity
  8
4
100
AcDbLine
 10
1622.564315506646
 20
731.1261548892844
 30
0.0
 11
1622.564315506646
 21
730.8224448892843
 31
0.0
  0
LINE
  5
303
330
19
100
AcDbEntity
  8
4
100
AcDbLine
 10
1611.064315506646
 20
729.1261548892844
 30
0.0
 11
1622.064315506646
 21
729.1261548892844
 31
0.0
  0
ARC
  5
304
330
19
100
AcDbEntity
  8
4
100
AcDbCircle
 10
1618.564315506646
 20
731.1261548892844
 30
0.0
 40
4.0
100
AcDbArc
 50
0.0
 51
90.0
  0
LINE
  5
305
330
19
100
AcDbEntity
  8
4
100
AcDbLine
 10
1623.689315506646
 20
731.1261548892844
 30
0.0
 11
1628.564315506646
 21
731.1261548892844
 31
0.0
  0
LINE
  5
306
330
19
100
AcDbEntity
  8
4
100
AcDbLine
 10
1622.064315506646
 20
726.1261548892844
 30
0.0
 11
1628.564315506646
 21
726.1261548892844
 31
0.0
  0
ARC
  5
307
330
19
100
AcDbEntity
  8
4
100
AcDbCircle
 10
1628.564315506646
 20
723.2345548892845
 30
0.0
 40
7.89147
100
AcDbArc
 50
65.67971300000504
 51
114.320286999995
  0
LINE
  5
308
330
19
100
AcDbEntity
  8
4
100
AcDbLine
 10
1618.564315506646
 20
735.1261548892844
 30
0.0
 11
1628.564315506646
 21
735.1261548892844
 31
0.0
  0
LINE
  5
309
330
19
100
AcDbEntity
  8
4
100
AcDbLine
 10
1651.564315506646
 20
731.1261548892844
 30
0.0
 11
1651.564315506646
 21
735.1261548892844
 31
0.0
  0
LINE
  5
30A
330
19
100
AcDbEntity
  8
4
100
AcDbLine
 10
1645.615585506646
 20
731.1261548892844
 30
0.0
 11
1651.564315506646
 21
731.1261548892844
 31
0.0
  0
LINE
  5
30B
330
19
100
AcDbEntity
  8
4
100
AcDbLine
 10
1653.564315506646
 20
725.5006648892845
 30
0.0
 11
1653.564315506646
 21
729.1261548892844
 31
0.0
  0
LINE
  5
30C
330
19
100
AcDbEntity
  8
4
100
AcDbLine
 10
1648.564315506646
 20
725.7260098892843
 30
0.0
 11
1648.564315506646
 21
729.1261548892844
 31
0.0
  0
LINE
  5
30D
330
19
100
AcDbEntity
  8
4
100
AcDbLine
 10
1650.564315506646
 20
731.1261548892844
 30
0.0
 11
1650.564315506646
 21
729.1261548892844
 31
0.0
  0
LINE
  5
30E
330
19
100
AcDbEntity
  8
4
100
AcDbLine
 10
1644.718125506646
 20
735.1261548892844
 30
0.0
 11
1651.564315506646
 21
735.1261548892844
 31
0.0
  0
LINE
  5
30F
330
19
100
AcDbEntity
  8
4
100
AcDbLine
 10
1693.541855506646
 20
669.4066698892843
 30
0.0
 11
1702.027205506646
 21
677.8920248892846
 31
0.0
  0
LINE
  5
310
330
19
100
AcDbEntity
  8
4
100
AcDbLine
 10
1681.950545506646
 20
672.5123848892845
 30
0.0
 11
1693.541855506646
 21
669.4066698892843
 31
0.0
  0
ARC
  5
311
330
19
100
AcDbEntity
  8
4
100
AcDbCircle
 10
1233.564315506646
 20
619.1261548892844
 30
0.0
 40
499.999945
100
AcDbArc
 50
0.0
 51
10.89363600001011
  0
LINE
  5
312
330
19
100
AcDbEntity
  8
L-CENTER
 48
2.0
100
AcDbLine
 10
1710.319082936867
 20
700.880907459785
 30
0.0
 11
1670.552586183151
 21
661.1146842128969
 31
0.0
  0
CIRCLE
  5
313
330
19
100
AcDbEntity
  8
4
100
AcDbCircle
 10
1690.435895506646
 20
680.9977348892844
 30
0.0
 40
12.0
  0
LINE
  5
314
330
19
100
AcDbEntity
  8
4
100
AcDbLine
 10
1759.864215506646
 20
619.1261548892844
 30
0.0
 11
1737.564315506646
 21
619.1261548892844
 31
0.0
  0
LINE
  5
315
330
19
100
AcDbEntity
  8
4
100
AcDbLine
 10
1734.564315506646
 20
619.1261548892844
 30
0.0
 11
1737.564315506646
 21
619.1261548892844
 31
0.0
  0
LINE
  5
316
330
19
100
AcDbEntity
  8
4
100
AcDbLine
 10
1733.521345506646
 20
622.1261548892844
 30
0.0
 11
1734.564315506646
 21
622.1261548892844
 31
0.0
  0
LINE
  5
317
330
19
100
AcDbEntity
  8
4
100
AcDbLine
 10
1698.921250506646
 20
689.4830898892842
 30
0.0
 11
1687.330185506647
 21
692.5890448892842
 31
0.0
  0
CIRCLE
  5
318
330
19
100
AcDbEntity
  8
4
100
AcDbCircle
 10
1690.436140506647
 20
680.9979798892846
 30
0.0
 40
10.392335
  0
LINE
  5
319
330
19
100
AcDbEntity
  8
4
100
AcDbLine
 10
1678.844830506647
 20
684.1036948892843
 30
0.0
 11
1681.950545506646
 21
672.5123848892845
 31
0.0
  0
LINE
  5
31A
330
19
100
AcDbEntity
  8
4
100
AcDbLine
 10
1687.330185506647
 20
692.5890448892842
 30
0.0
 11
1678.844830506647
 21
684.1036948892843
 31
0.0
  0
LINE
  5
31B
330
19
100
AcDbEntity
  8
4
100
AcDbLine
 10
1702.027205506646
 20
677.8920248892846
 30
0.0
 11
1698.921250506646
 21
689.4830898892842
 31
0.0
  0
ARC
  5
31C
330
19
100
AcDbEntity
  8
4
100
AcDbCircle
 10
1719.644150506647
 20
712.6747398892844
 30
0.0
 40
4.99997
100
AcDbArc
 50
10.89239300001324
 51
79.39512500000019
  0
LINE
  5
320
330
19
100
AcDbEntity
  8
4
100
AcDbLine
 10
1771.864215506646
 20
581.6422698892843
 30
0.0
 11
1771.864215506646
 21
563.6422698892843
 31
0.0
  0
LINE
  5
32E
330
19
100
AcDbEntity
  8
4
100
AcDbLine
 10
1608.645615506646
 20
740.1261548892844
 30
0.0
 11
1613.532140506646
 21
740.1261548892844
 31
0.0
  0
LINE
  5
32F
330
19
100
AcDbEntity
  8
4
100
AcDbLine
 10
1636.564315506646
 20
748.1261548892844
 30
0.0
 11
1636.564315506646
 21
792.1261548892844
 31
0.0
  0
LINE
  5
330
330
19
100
AcDbEntity
  8
4
100
AcDbLine
 10
1620.564315506646
 20
748.1261548892844
 30
0.0
 11
1620.564315506646
 21
792.1261548892844
 31
0.0
  0
LINE
  5
331
330
19
100
AcDbEntity
  8
4
100
AcDbLine
 10
1639.564315506646
 20
747.1261548892844
 30
0.0
 11
1628.564315506646
 21
747.1261548892844
 31
0.0
  0
LINE
  5
332
330
19
100
AcDbEntity
  8
4
100
AcDbLine
 10
1628.564315506646
 20
745.1261548892844
 30
0.0
 11
1639.564315506646
 21
745.1261548892844
 31
0.0
  0
LINE
  5
333
330
19
100
AcDbEntity
  8
4
100
AcDbLine
 10
1637.564315506646
 20
748.1261548892844
 30
0.0
 11
1619.564315506646
 21
748.1261548892844
 31
0.0
  0
LINE
  5
334
330
19
100
AcDbEntity
  8
L-CENTER
100
AcDbLine
 10
1644.564315506646
 20
764.1261548892844
 30
0.0
 11
1612.564315506646
 21
764.1261548892844
 31
0.0
  0
LINE
  5
335
330
19
100
AcDbEntity
  8
4
100
AcDbLine
 10
1619.564315506646
 20
748.1261548892844
 30
0.0
 11
1617.564315506646
 21
747.1261548892844
 31
0.0
  0
LINE
  5
336
330
19
100
AcDbEntity
  8
4
100
AcDbLine
 10
1617.564315506646
 20
747.1261548892844
 30
0.0
 11
1617.564315506646
 21
745.1261548892844
 31
0.0
  0
ARC
  5
337
330
19
100
AcDbEntity
  8
4
100
AcDbCircle
 10
1615.021590506646
 20
740.8261048892846
 30
0.0
 40
1.300075
100
AcDbArc
 50
90.0
 51
167.352158999999
  0
LINE
  5
338
330
19
100
AcDbEntity
  8
4
100
AcDbLine
 10
1618.564315506646
 20
742.1261548892844
 30
0.0
 11
1615.021590506646
 21
742.1261548892844
 31
0.0
  0
LINE
  5
339
330
19
100
AcDbEntity
  8
4
100
AcDbLine
 10
1618.564315506646
 20
742.6595998892844
 30
0.0
 11
1614.832870506647
 21
742.1122398892844
 31
0.0
  0
LINE
  5
33A
330
19
100
AcDbEntity
  8
4
100
AcDbLine
 10
1628.564315506646
 20
745.1261548892844
 30
0.0
 11
1617.564315506646
 21
745.1261548892844
 31
0.0
  0
LINE
  5
33B
330
19
100
AcDbEntity
  8
4
100
AcDbLine
 10
1617.564315506646
 20
747.1261548892844
 30
0.0
 11
1628.564315506646
 21
747.1261548892844
 31
0.0
  0
LINE
  5
33C
330
19
100
AcDbEntity
  8
4
100
AcDbLine
 10
1639.564315506646
 20
747.1261548892844
 30
0.0
 11
1639.564315506646
 21
745.1261548892844
 31
0.0
  0
LINE
  5
33D
330
19
100
AcDbEntity
  8
4
100
AcDbLine
 10
1637.564315506646
 20
748.1261548892844
 30
0.0
 11
1639.564315506646
 21
747.1261548892844
 31
0.0
  0
ARC
  5
33E
330
19
100
AcDbEntity
  8
4
100
AcDbCircle
 10
1642.106795506646
 20
740.8261048892846
 30
0.0
 40
1.300075
100
AcDbArc
 50
12.64784100000097
 51
90.0
  0
LINE
  5
33F
330
19
100
AcDbEntity
  8
4
100
AcDbLine
 10
1638.564315506646
 20
742.1261548892844
 30
0.0
 11
1642.106795506646
 21
742.1261548892844
 31
0.0
  0
LINE
  5
340
330
19
100
AcDbEntity
  8
4
100
AcDbLine
 10
1638.564315506646
 20
742.6595998892844
 30
0.0
 11
1642.295515506647
 21
742.1122398892844
 31
0.0
  0
LINE
  5
341
330
19
100
AcDbEntity
  8
4
100
AcDbLine
 10
1643.596265506647
 20
740.1261548892844
 30
0.0
 11
1648.482770506646
 21
740.1261548892844
 31
0.0
  0
ARC
  5
342
330
19
100
AcDbEntity
  8
4
100
AcDbCircle
 10
1628.564315506646
 20
792.1261548892844
 30
0.0
 40
8.0
100
AcDbArc
 50
0.0
 51
180.0
  0
LINE
  5
44D
330
19
100
AcDbEntity
  8
L-CENTER
 48
2.0
100
AcDbLine
 10
1713.765515280707
 20
165.6100398892845
 30
0.0
 11
1777.748537161704
 21
165.6100398892845
 31
0.0
  0
LINE
  5
44E
330
19
100
AcDbEntity
  8
L-CENTER
 48
2.0
100
AcDbLine
 10
233.8357386835978
 20
557.2543298892842
 30
0.0
 11
293.7698221546507
 21
557.2543298892842
 31
0.0
  0
LINE
  5
44F
330
19
100
AcDbEntity
  8
L-CENTER
 48
2.0
100
AcDbLine
 10
809.4571070741604
 20
680.9979798892846
 30
0.0
 11
749.5230236031075
 21
680.9979798892846
 31
0.0
  0
LINE
  5
450
330
19
100
AcDbEntity
  8
L-CENTER
 48
2.0
100
AcDbLine
 10
809.4571070741604
 20
557.2543298892842
 30
0.0
 11
749.5230236031075
 21
557.2543298892842
 31
0.0
  0
ARC
  5
48C
330
19
100
AcDbEntity
  8
4
100
AcDbCircle
 10
521.6464228788791
 20
559.1261548892842
 30
0.0
 40
23.0
100
AcDbArc
 50
180.0
 51
0.0
  0
LINE
  5
48D
330
19
100
AcDbEntity
  8
4
100
AcDbLine
 10
544.6464228788791
 20
559.1261548892842
 30
0.0
 11
544.6464228788791
 21
585.6879243685717
 31
0.0
  0
LINE
  5
48E
330
19
100
AcDbEntity
  8
4
100
AcDbLine
 10
606.1464228788768
 20
649.126154889284
 30
0.0
 11
631.1464228788764
 21
649.126154889284
 31
0.0
  0
LINE
  5
48F
330
19
100
AcDbEntity
  8
4
100
AcDbLine
 10
616.1464228788782
 20
659.1261548892835
 30
0.0
 11
631.1464228788768
 21
659.126154889284
 31
0.0
  0
LINE
  5
490
330
19
100
AcDbEntity
  8
4
100
AcDbLine
 10
603.6464228788764
 20
686.6261548892835
 30
0.0
 11
603.6464228788768
 21
651.626154889284
 31
0.0
  0
LINE
  5
491
330
19
100
AcDbEntity
  8
4
100
AcDbLine
 10
606.1464228788764
 20
689.1261548892835
 30
0.0
 11
611.1464228788782
 21
689.1261548892835
 31
0.0
  0
LINE
  5
492
330
19
100
AcDbEntity
  8
4
100
AcDbLine
 10
613.6464228788782
 20
686.6261548892835
 30
0.0
 11
613.6464228788782
 21
661.6261548892835
 31
0.0
  0
LINE
  5
493
330
19
100
AcDbEntity
  8
4
100
AcDbLine
 10
644.1464228788764
 20
649.126154889284
 30
0.0
 11
663.6464228788768
 21
649.126154889284
 31
0.0
  0
LINE
  5
494
330
19
100
AcDbEntity
  8
4
100
AcDbLine
 10
644.1464228788773
 20
689.126154889284
 30
0.0
 11
663.6464228788773
 21
689.126154889284
 31
0.0
  0
LINE
  5
495
330
19
100
AcDbEntity
  8
4
100
AcDbLine
 10
682.1464228788773
 20
664.126154889284
 30
0.0
 11
687.1464228788773
 21
664.126154889284
 31
0.0
  0
LINE
  5
496
330
19
100
AcDbEntity
  8
4
100
AcDbLine
 10
682.1464228788759
 20
674.126154889284
 30
0.0
 11
687.1464228788764
 21
674.126154889284
 31
0.0
  0
LINE
  5
497
330
19
100
AcDbEntity
  8
4
100
AcDbLine
 10
689.6464228788764
 20
671.6261548892844
 30
0.0
 11
689.6464228788773
 21
666.6261548892844
 31
0.0
  0
LINE
  5
498
330
19
100
AcDbEntity
  8
4
100
AcDbLine
 10
679.6464228788759
 20
671.626154889283
 30
0.0
 11
679.6464228788773
 21
666.626154889283
 31
0.0
  0
LINE
  5
499
330
19
100
AcDbEntity
  8
4
100
AcDbLine
 10
633.6464228788768
 20
656.626154889284
 30
0.0
 11
633.6464228788764
 21
651.626154889284
 31
0.0
  0
ARC
  5
49A
330
19
100
AcDbEntity
  8
4
100
AcDbCircle
 10
606.1464228788764
 20
686.6261548892835
 30
0.0
 40
2.5
100
AcDbArc
 50
90.0
 51
180.0
  0
ARC
  5
49B
330
19
100
AcDbEntity
  8
4
100
AcDbCircle
 10
611.1464228788782
 20
686.6261548892835
 30
0.0
 40
2.5
100
AcDbArc
 50
0.0
 51
90.0
  0
ARC
  5
49C
330
19
100
AcDbEntity
  8
4
100
AcDbCircle
 10
616.1464228788782
 20
661.6261548892835
 30
0.0
 40
2.5
100
AcDbArc
 50
180.0
 51
270.0
  0
ARC
  5
49D
330
19
100
AcDbEntity
  8
4
100
AcDbCircle
 10
631.1464228788768
 20
656.626154889284
 30
0.0
 40
2.5
100
AcDbArc
 50
0.0
 51
90.0
  0
ARC
  5
49E
330
19
100
AcDbEntity
  8
4
100
AcDbCircle
 10
631.1464228788764
 20
651.626154889284
 30
0.0
 40
2.5
100
AcDbArc
 50
270.0
 51
0.0
  0
ARC
  5
49F
330
19
100
AcDbEntity
  8
4
100
AcDbCircle
 10
606.1464228788768
 20
651.626154889284
 30
0.0
 40
2.5
100
AcDbArc
 50
180.0
 51
270.0
  0
LINE
  5
4A0
330
19
100
AcDbEntity
  8
4
100
AcDbLine
 10
641.6464228788773
 20
686.626154889284
 30
0.0
 11
641.6464228788764
 21
651.626154889284
 31
0.0
  0
LINE
  5
4A1
330
19
100
AcDbEntity
  8
4
100
AcDbLine
 10
671.6464228788773
 20
681.126154889284
 30
0.0
 11
671.6464228788773
 21
679.3731056552438
 31
0.0
  0
ARC
  5
4A2
330
19
100
AcDbEntity
  8
4
100
AcDbCircle
 10
644.1464228788764
 20
651.626154889284
 30
0.0
 40
2.5
100
AcDbArc
 50
180.0
 51
270.0
  0
ARC
  5
4A3
330
19
100
AcDbEntity
  8
4
100
AcDbCircle
 10
644.1464228788773
 20
686.626154889284
 30
0.0
 40
2.5
100
AcDbArc
 50
90.0
 51
180.0
  0
ARC
  5
4A4
330
19
100
AcDbEntity
  8
4
100
AcDbCircle
 10
663.6464228788768
 20
657.126154889284
 30
0.0
 40
8.0
100
AcDbArc
 50
270.0
 51
0.0
  0
ARC
  5
4A5
330
19
100
AcDbEntity
  8
4
100
AcDbCircle
 10
663.6464228788773
 20
681.126154889284
 30
0.0
 40
8.0
100
AcDbArc
 50
0.0
 51
90.0
  0
ARC
  5
4A6
330
19
100
AcDbEntity
  8
4
100
AcDbCircle
 10
671.6464228788773
 20
669.126154889284
 30
0.0
 40
5.0
100
AcDbArc
 50
127.9798724448621
 51
232.0201275551379
  0
LINE
  5
4A7
330
19
100
AcDbEntity
  8
4
100
AcDbLine
 10
671.6464228788768
 20
658.8792041233246
 30
0.0
 11
671.6464228788768
 21
657.1261548892835
 31
0.0
  0
ARC
  5
4A8
330
19
100
AcDbEntity
  8
4
100
AcDbCircle
 10
663.6464228788773
 20
679.3731056552438
 30
0.0
 40
8.0
100
AcDbArc
 50
307.9798724448621
 51
0.0
  0
ARC
  5
4A9
330
19
100
AcDbEntity
  8
4
100
AcDbCircle
 10
663.6464228788768
 20
658.8792041233246
 30
0.0
 40
8.0
100
AcDbArc
 50
0.0
 51
52.02012755513794
  0
ARC
  5
4AA
330
19
100
AcDbEntity
  8
4
100
AcDbCircle
 10
682.1464228788773
 20
666.626154889284
 30
0.0
 40
2.5
100
AcDbArc
 50
180.0
 51
270.0
  0
ARC
  5
4AB
330
19
100
AcDbEntity
  8
4
100
AcDbCircle
 10
682.1464228788759
 20
671.626154889284
 30
0.0
 40
2.5
100
AcDbArc
 50
90.0
 51
180.0
  0
ARC
  5
4AC
330
19
100
AcDbEntity
  8
4
100
AcDbCircle
 10
687.1464228788764
 20
671.626154889284
 30
0.0
 40
2.5
100
AcDbArc
 50
0.0
 51
90.0
  0
ARC
  5
4AD
330
19
100
AcDbEntity
  8
4
100
AcDbCircle
 10
687.1464228788773
 20
666.626154889284
 30
0.0
 40
2.5
100
AcDbArc
 50
270.0
 51
0.0
  0
LINE
  5
4AE
330
19
100
AcDbEntity
  8
4
100
AcDbLine
 10
711.2417054785283
 20
649.1261548892835
 30
0.0
 11
705.3876945772795
 21
649.1261548892835
 31
0.0
  0
LINE
  5
4AF
330
19
100
AcDbEntity
  8
4
100
AcDbLine
 10
715.6464228788786
 20
689.126154889284
 30
0.0
 11
709.6464228788786
 21
689.126154889284
 31
0.0
  0
ARC
  5
4B0
330
19
100
AcDbEntity
  8
4
100
AcDbCircle
 10
715.6464228788786
 20
677.126154889284
 30
0.0
 40
12.0
100
AcDbArc
 50
328.6621287348042
 51
90.0
  0
ARC
  5
4B1
330
19
100
AcDbEntity
  8
4
100
AcDbCircle
 10
709.6464228788786
 20
677.126154889284
 30
0.0
 40
12.0
100
AcDbArc
 50
90.0
 51
236.1537534422866
  0
LINE
  5
4B2
330
19
100
AcDbEntity
  8
4
100
AcDbLine
 10
713.3769936101808
 20
650.325945446607
 30
0.0
 11
725.8958059108095
 21
670.8851495644367
 31
0.0
  0
LINE
  5
4B3
330
19
100
AcDbEntity
  8
4
100
AcDbLine
 10
703.252406445627
 20
652.92636433196
 30
0.0
 11
705.3400215554702
 21
656.3547810325267
 31
0.0
  0
ARC
  5
4B4
330
19
100
AcDbEntity
  8
4
100
AcDbCircle
 10
698.507099534183
 20
660.5154512490913
 30
0.0
 40
8.0
100
AcDbArc
 50
328.662128734804
 51
56.15375344228622
  0
ARC
  5
4B5
330
19
100
AcDbEntity
  8
4
100
AcDbCircle
 10
711.2417054785283
 20
651.6261548892835
 30
0.0
 40
2.5
100
AcDbArc
 50
270.0
 51
328.6621287348021
  0
ARC
  5
4B6
330
19
100
AcDbEntity
  8
4
100
AcDbCircle
 10
705.3876945772795
 20
651.6261548892835
 30
0.0
 40
2.5
100
AcDbArc
 50
148.6621287348021
 51
270.0
  0
LINE
  5
4B7
330
19
100
AcDbEntity
  8
4
100
AcDbLine
 10
599.6464228788764
 20
701.126154889284
 30
0.0
 11
731.6464228788791
 21
701.126154889284
 31
0.0
  0
LINE
  5
4B8
330
19
100
AcDbEntity
  8
4
100
AcDbLine
 10
599.6464228788764
 20
637.1261548892844
 30
0.0
 11
731.6464228788791
 21
637.126154889283
 31
0.0
  0
LINE
  5
4B9
330
19
100
AcDbEntity
  8
4
100
AcDbLine
 10
739.6464228788791
 20
693.126154889284
 30
0.0
 11
739.6464228788791
 21
645.126154889283
 31
0.0
  0
LINE
  5
4BA
330
19
100
AcDbEntity
  8
4
100
AcDbLine
 10
591.6464228788764
 20
693.126154889284
 30
0.0
 11
591.6464228788764
 21
645.1261548892844
 31
0.0
  0
ARC
  5
4BB
330
19
100
AcDbEntity
  8
4
100
AcDbCircle
 10
599.6464228788764
 20
693.126154889284
 30
0.0
 40
8.0
100
AcDbArc
 50
90.0
 51
180.0
  0
ARC
  5
4BC
330
19
100
AcDbEntity
  8
4
100
AcDbCircle
 10
731.6464228788791
 20
693.126154889284
 30
0.0
 40
8.0
100
AcDbArc
 50
0.0
 51
90.0
  0
ARC
  5
4BD
330
19
100
AcDbEntity
  8
4
100
AcDbCircle
 10
731.6464228788791
 20
645.126154889283
 30
0.0
 40
8.0
100
AcDbArc
 50
270.0
 51
0.0
  0
ARC
  5
4BE
330
19
100
AcDbEntity
  8
4
100
AcDbCircle
 10
599.6464228788764
 20
645.1261548892844
 30
0.0
 40
8.0
100
AcDbArc
 50
180.0
 51
270.0
  0
LINE
  5
4BF
330
19
100
AcDbEntity
  8
4
100
AcDbLine
 10
1527.077636098683
 20
701.126154889284
 30
0.0
 11
1530.334115701321
 21
701.126154889284
 31
0.0
  0
ARC
  5
4C0
330
19
100
AcDbEntity
  8
4
100
AcDbCircle
 10
1527.077636098683
 20
699.126154889284
 30
0.0
 40
2.0
100
AcDbArc
 50
90.0
 51
174.2948654962331
  0
LINE
  5
4C1
330
19
100
AcDbEntity
  8
4
100
AcDbLine
 10
1521.083409474257
 20
637.1261548892846
 30
0.0
 11
1523.888390531267
 21
637.1261548892846
 31
0.0
  0
ARC
  5
4C2
330
19
100
AcDbEntity
  8
4
100
AcDbCircle
 10
1521.083409474257
 20
639.1261548892846
 30
0.0
 40
2.0
100
AcDbArc
 50
174.2948654962331
 51
270.0
  0
LINE
  5
4C3
330
19
100
AcDbEntity
  8
4
100
AcDbLine
 10
1525.087542767631
 20
699.3249727297855
 30
0.0
 11
1519.093316143205
 21
639.3249727297862
 31
0.0
  0
LINE
  5
4C4
330
19
100
AcDbEntity
  8
4
100
AcDbLine
 10
498.6464228788791
 20
559.1261548892842
 30
0.0
 11
498.6464228788789
 21
585.6879243685717
 31
0.0
  0
LINE
  5
4C5
330
19
100
AcDbEntity
  8
4
100
AcDbLine
 10
564.5885112785832
 20
580.8888424295567
 30
0.0
 11
578.7533578788789
 21
449.7050098892842
 31
0.0
  0
ARC
  5
4C6
330
19
100
AcDbEntity
  8
4
100
AcDbCircle
 10
583.7245478788791
 20
450.2418748892842
 30
0.0
 40
5.000025
100
AcDbArc
 50
186.1637819999897
 51
258.2544110000051
  0
ARC
  5
4C7
330
19
100
AcDbEntity
  8
4
100
AcDbCircle
 10
567.5712278788792
 20
581.2108698892844
 30
0.0
 40
3.00005
100
AcDbArc
 50
77.78018600000121
 51
186.1620410000109
  0
LINE
  5
4CB
330
19
100
AcDbEntity
  8
L-CENTER
 48
2.0
100
AcDbLine
 10
263.3488359055677
 20
1334.53429721847
 30
0.0
 11
309.9440098521904
 21
1334.53429721847
 31
0.0
  0
LINE
  5
4CC
330
19
100
AcDbEntity
  8
4
100
AcDbLine
 10
256.6464228788791
 20
1294.53429721847
 30
0.0
 11
341.6464228788791
 21
1294.53429721847
 31
0.0
  0
LINE
  5
4CD
330
19
100
AcDbEntity
  8
4
100
AcDbLine
 10
256.6464228788791
 20
1644.53429721847
 30
0.0
 11
341.6464228788791
 21
1644.53429721847
 31
0.0
  0
LINE
  5
4CE
330
19
100
AcDbEntity
  8
L-CENTER
 48
2.0
100
AcDbLine
 10
263.3488359055677
 20
1604.53429721847
 30
0.0
 11
309.9440098521904
 21
1604.53429721847
 31
0.0
  0
LINE
  5
4CF
330
19
100
AcDbEntity
  8
4
100
AcDbLine
 10
270.6464228788791
 20
1600.93429721847
 30
0.0
 11
772.6464228788791
 21
1600.93429721847
 31
0.0
  0
LINE
  5
4D0
330
19
100
AcDbEntity
  8
4
100
AcDbLine
 10
269.6464228788791
 20
1578.93429721847
 30
0.0
 11
773.6464228788791
 21
1578.93429721847
 31
0.0
  0
LINE
  5
4D1
330
19
100
AcDbEntity
  8
4
100
AcDbLine
 10
271.6464228788791
 20
1340.53429721847
 30
0.0
 11
771.6464228788791
 21
1340.53429721847
 31
0.0
  0
LINE
  5
4D2
330
19
100
AcDbEntity
  8
4
100
AcDbLine
 10
251.8464228788789
 20
1363.53429721847
 30
0.0
 11
591.6464228788764
 21
1363.53429721847
 31
0.0
  0
LINE
  5
4D3
330
19
100
AcDbEntity
  8
4
100
AcDbLine
 10
251.8464228788789
 20
1575.53429721847
 30
0.0
 11
791.4464228788793
 21
1575.53429721847
 31
0.0
  0
LINE
  5
4D4
330
19
100
AcDbEntity
  8
4
100
AcDbLine
 10
268.6464228788791
 20
1364.53429721847
 30
0.0
 11
774.6464228788791
 21
1364.53429721847
 31
0.0
  0
LINE
  5
4D5
330
19
100
AcDbEntity
  8
4
100
AcDbLine
 10
268.6464228788791
 20
1574.53429721847
 30
0.0
 11
774.6464228788791
 21
1574.53429721847
 31
0.0
  0
LINE
  5
4D6
330
19
100
AcDbEntity
  8
L-CENTER
 48
2.0
100
AcDbLine
 10
238.9816358596748
 20
1469.53429721847
 30
0.0
 11
934.8375726824511
 21
1469.53429721847
 31
0.0
  0
LINE
  5
4D7
330
19
100
AcDbEntity
  8
4
100
AcDbLine
 10
246.6464228788791
 20
1395.66247221847
 30
0.0
 11
246.6464228788791
 21
1304.53429721847
 31
0.0
  0
LINE
  5
4D8
330
19
100
AcDbEntity
  8
4
100
AcDbLine
 10
273.6464228788791
 20
1460.314752761177
 30
0.0
 11
273.6464228788791
 21
1364.53429721847
 31
0.0
  0
LINE
  5
4D9
330
19
100
AcDbEntity
  8
4
100
AcDbLine
 10
251.8464228788789
 20
1575.53429721847
 30
0.0
 11
251.8464228788789
 21
1363.53429721847
 31
0.0
  0
LINE
  5
4DA
330
19
100
AcDbEntity
  8
4
100
AcDbLine
 10
268.6464228788791
 20
1575.53429721847
 30
0.0
 11
268.6464228788791
 21
1363.53429721847
 31
0.0
  0
ARC
  5
4DB
330
19
100
AcDbEntity
  8
4
100
AcDbCircle
 10
256.6464228788791
 20
1304.53429721847
 30
0.0
 40
10.0
100
AcDbArc
 50
180.0
 51
270.0
  0
LINE
  5
4DC
330
19
100
AcDbEntity
  8
L-CENTER
 48
2.0
100
AcDbLine
 10
286.6464228788791
 20
1311.236710245158
 30
0.0
 11
286.6464228788791
 21
1357.831884191781
 31
0.0
  0
LINE
  5
4DD
330
19
100
AcDbEntity
  8
4
100
AcDbLine
 10
271.6464228788791
 20
1363.53429721847
 30
0.0
 11
271.6464228788791
 21
1340.53429721847
 31
0.0
  0
ARC
  5
4DE
330
19
100
AcDbEntity
  8
2
  6
DASHED
100
AcDbCircle
 10
286.6464228788791
 20
1334.53429721847
 30
0.0
 40
12.0
100
AcDbArc
 50
30.00000000000121
 51
149.9999999999988
  0
ARC
  5
4E0
330
19
100
AcDbEntity
  8
4
100
AcDbCircle
 10
286.6464228788791
 20
1334.53429721847
 30
0.0
 40
12.0
100
AcDbArc
 50
149.9999999999988
 51
30.00000000000121
  0
LINE
  5
4E1
330
19
100
AcDbEntity
  8
4
100
AcDbLine
 10
246.6464228788791
 20
1634.53429721847
 30
0.0
 11
246.6464228788791
 21
1543.40612221847
 31
0.0
  0
LINE
  5
4E2
330
19
100
AcDbEntity
  8
L-CENTER
 48
2.0
100
AcDbLine
 10
286.6464228788791
 20
1563.559544353365
 30
0.0
 11
286.6464228788791
 21
1618.73362815646
 31
0.0
  0
LINE
  5
4E3
330
19
100
AcDbEntity
  8
4
100
AcDbLine
 10
273.6464228788791
 20
1574.53429721847
 30
0.0
 11
273.6464228788791
 21
1478.753841675762
 31
0.0
  0
CIRCLE
  5
4E5
330
19
100
AcDbEntity
  8
4
100
AcDbCircle
 10
279.6464228788791
 20
1469.53429721847
 30
0.0
 40
11.0
  0
LINE
  5
4E6
330
19
100
AcDbEntity
  8
L-CENTER
 48
2.0
100
AcDbLine
 10
279.6464228788791
 20
1486.97412286255
 30
0.0
 11
279.6464228788791
 21
1453.228845256292
 31
0.0
  0
LINE
  5
4E7
330
19
100
AcDbEntity
  8
L-CENTER
 48
2.0
100
AcDbLine
 10
234.9952130432939
 20
1407.662472218476
 30
0.0
 11
283.4229281760518
 21
1407.662472218475
 31
0.0
  0
LINE
  5
4E8
330
19
100
AcDbEntity
  8
4
100
AcDbLine
 10
240.8760628788791
 20
1395.66247221847
 30
0.0
 11
248.8465228788791
 21
1395.66247221847
 31
0.0
  0
LINE
  5
4E9
330
19
100
AcDbEntity
  8
4
100
AcDbLine
 10
248.8465228788791
 20
1401.66247221847
 30
0.0
 11
240.8760628788791
 21
1401.66247221847
 31
0.0
  0
LINE
  5
4EA
330
19
100
AcDbEntity
  8
4
100
AcDbLine
 10
240.8760628788791
 20
1419.66247221847
 30
0.0
 11
248.8465228788791
 21
1419.66247221847
 31
0.0
  0
LINE
  5
4EB
330
19
100
AcDbEntity
  8
4
100
AcDbLine
 10
248.8465228788791
 20
1413.66247221847
 30
0.0
 11
240.8760628788791
 21
1413.66247221847
 31
0.0
  0
ARC
  5
4EC
330
19
100
AcDbEntity
  8
4
100
AcDbCircle
 10
244.4302628788791
 20
1416.66247221847
 30
0.0
 40
4.58369
100
AcDbArc
 50
139.1186700000007
 51
220.8813299999993
  0
ARC
  5
4ED
330
19
100
AcDbEntity
  8
4
100
AcDbCircle
 10
244.4302628788791
 20
1398.66247221847
 30
0.0
 40
4.58369
100
AcDbArc
 50
139.1186700000007
 51
220.8813299999993
  0
ARC
  5
4EE
330
19
100
AcDbEntity
  8
4
100
AcDbCircle
 10
257.8465228788791
 20
1407.662472218469
 30
0.0
 40
18.00009
100
AcDbArc
 50
160.5289280000003
 51
199.4703399999999
  0
LINE
  5
4EF
330
19
100
AcDbEntity
  8
4
100
AcDbLine
 10
239.8465228788791
 20
1416.66247221847
 30
0.0
 11
239.8465228788791
 21
1398.66247221847
 31
0.0
  0
LINE
  5
4F0
330
19
100
AcDbEntity
  8
4
100
AcDbLine
 10
248.8465228788791
 20
1419.66247221847
 30
0.0
 11
248.8465228788791
 21
1395.66247221847
 31
0.0
  0
LINE
  5
4F1
330
19
100
AcDbEntity
  8
4
100
AcDbLine
 10
251.8465228788791
 20
1395.66247221847
 30
0.0
 11
251.8465228788791
 21
1419.66247221847
 31
0.0
  0
LINE
  5
4F2
330
19
100
AcDbEntity
  8
4
100
AcDbLine
 10
251.8465228788791
 20
1395.66247221847
 30
0.0
 11
248.8465228788791
 21
1395.66247221847
 31
0.0
  0
LINE
  5
4F3
330
19
100
AcDbEntity
  8
4
100
AcDbLine
 10
251.8465228788791
 20
1419.66247221847
 30
0.0
 11
248.8465228788791
 21
1419.66247221847
 31
0.0
  0
LINE
  5
4F4
330
19
100
AcDbEntity
  8
L-CENTER
 48
2.0
100
AcDbLine
 10
233.2232430432969
 20
1531.406122218476
 30
0.0
 11
283.4229281760545
 21
1531.406122218475
 31
0.0
  0
LINE
  5
4F5
330
19
100
AcDbEntity
  8
4
100
AcDbLine
 10
248.8465228788791
 20
1525.40612221847
 30
0.0
 11
240.8760628788791
 21
1525.40612221847
 31
0.0
  0
LINE
  5
4F6
330
19
100
AcDbEntity
  8
4
100
AcDbLine
 10
248.8465228788791
 20
1537.40612221847
 30
0.0
 11
240.8760628788791
 21
1537.40612221847
 31
0.0
  0
LINE
  5
4F7
330
19
100
AcDbEntity
  8
4
100
AcDbLine
 10
240.8760628788791
 20
1543.40612221847
 30
0.0
 11
248.8465228788791
 21
1543.40612221847
 31
0.0
  0
LINE
  5
4F8
330
19
100
AcDbEntity
  8
4
100
AcDbLine
 10
240.8760628788791
 20
1519.40612221847
 30
0.0
 11
248.8465228788791
 21
1519.40612221847
 31
0.0
  0
ARC
  5
4F9
330
19
100
AcDbEntity
  8
4
100
AcDbCircle
 10
244.4302628788791
 20
1540.40612221847
 30
0.0
 40
4.583600000000001
100
AcDbArc
 50
139.1186700000054
 51
220.8833260000026
  0
ARC
  5
4FA
330
19
100
AcDbEntity
  8
4
100
AcDbCircle
 10
257.8465228788791
 20
1531.40612221847
 30
0.0
 40
17.999975
100
AcDbArc
 50
160.5296600000026
 51
199.4713310000026
  0
LINE
  5
4FB
330
19
100
AcDbEntity
  8
4
100
AcDbLine
 10
239.8465228788791
 20
1522.40612221847
 30
0.0
 11
239.8465228788791
 21
1540.40612221847
 31
0.0
  0
ARC
  5
4FC
330
19
100
AcDbEntity
  8
4
100
AcDbCircle
 10
244.4302628788791
 20
1522.40612221847
 30
0.0
 40
4.583600000000001
100
AcDbArc
 50
139.1186700000063
 51
220.8833260000026
  0
LINE
  5
4FD
330
19
100
AcDbEntity
  8
4
100
AcDbLine
 10
251.8465228788791
 20
1543.40612221847
 30
0.0
 11
248.8465228788791
 21
1543.40612221847
 31
0.0
  0
LINE
  5
4FE
330
19
100
AcDbEntity
  8
4
100
AcDbLine
 10
251.8465228788791
 20
1519.40612221847
 30
0.0
 11
248.8465228788791
 21
1519.40612221847
 31
0.0
  0
LINE
  5
4FF
330
19
100
AcDbEntity
  8
4
100
AcDbLine
 10
251.8465228788791
 20
1543.40612221847
 30
0.0
 11
251.8465228788791
 21
1519.40612221847
 31
0.0
  0
LINE
  5
500
330
19
100
AcDbEntity
  8
4
100
AcDbLine
 10
248.8465228788791
 20
1519.40612221847
 30
0.0
 11
248.8465228788791
 21
1543.40612221847
 31
0.0
  0
ARC
  5
501
330
19
100
AcDbEntity
  8
4
100
AcDbCircle
 10
256.6464228788791
 20
1634.53429721847
 30
0.0
 40
10.0
100
AcDbArc
 50
90.0
 51
180.0
  0
ARC
  5
502
330
19
100
AcDbEntity
  8
2
  6
DASHED
100
AcDbCircle
 10
286.6464228788791
 20
1604.53429721847
 30
0.0
 40
12.0
100
AcDbArc
 50
135.5729959991962
 51
44.42700400080382
  0
LINE
  5
503
330
19
100
AcDbEntity
  8
L-CENTER
 48
2.0
100
AcDbLine
 10
286.6464228788791
 20
1627.831884191781
 30
0.0
 11
286.6464228788791
 21
1581.236710245158
 31
0.0
  0
ARC
  5
504
330
19
100
AcDbEntity
  8
4
100
AcDbCircle
 10
277.6464228788791
 20
1608.350557218469
 30
0.0
 40
4.583600000000001
100
AcDbArc
 50
49.11667400001057
 51
130.8813299999989
  0
ARC
  5
505
330
19
100
AcDbEntity
  8
4
100
AcDbCircle
 10
295.6464228788791
 20
1608.350557218469
 30
0.0
 40
4.583600000000001
100
AcDbArc
 50
49.11667400001057
 51
130.8813299999989
  0
ARC
  5
506
330
19
100
AcDbEntity
  8
4
100
AcDbCircle
 10
286.6464228788791
 20
1594.93429721847
 30
0.0
 40
17.999975
100
AcDbArc
 50
70.5286690000005
 51
109.4703399999999
  0
ARC
  5
507
330
19
100
AcDbEntity
  8
4
100
AcDbCircle
 10
270.6464228788791
 20
1599.93429721847
 30
0.0
 40
1.0
100
AcDbArc
 50
90.0
 51
180.0
  0
LINE
  5
508
330
19
100
AcDbEntity
  8
4
100
AcDbLine
 10
269.6464228788791
 20
1599.93429721847
 30
0.0
 11
269.6464228788791
 21
1578.93429721847
 31
0.0
  0
LINE
  5
509
330
19
100
AcDbEntity
  8
4
100
AcDbLine
 10
271.6464228788791
 20
1578.93429721847
 30
0.0
 11
271.6464228788791
 21
1575.53429721847
 31
0.0
  0
LINE
  5
50A
330
19
100
AcDbEntity
  8
4
100
AcDbLine
 10
280.6464228788791
 20
1603.93429721847
 30
0.0
 11
280.6464228788791
 21
1611.90475721847
 31
0.0
  0
LINE
  5
50B
330
19
100
AcDbEntity
  8
4
100
AcDbLine
 10
274.6464228788791
 20
1611.90475721847
 30
0.0
 11
274.6464228788791
 21
1603.93429721847
 31
0.0
  0
LINE
  5
50C
330
19
100
AcDbEntity
  8
4
100
AcDbLine
 10
292.6464228788791
 20
1603.93429721847
 30
0.0
 11
292.6464228788791
 21
1611.90475721847
 31
0.0
  0
LINE
  5
50D
330
19
100
AcDbEntity
  8
4
100
AcDbLine
 10
298.6464228788791
 20
1611.90475721847
 30
0.0
 11
298.6464228788791
 21
1603.93429721847
 31
0.0
  0
LINE
  5
50E
330
19
100
AcDbEntity
  8
4
100
AcDbLine
 10
298.6464228788791
 20
1603.93429721847
 30
0.0
 11
274.6464228788791
 21
1603.93429721847
 31
0.0
  0
LINE
  5
50F
330
19
100
AcDbEntity
  8
4
100
AcDbLine
 10
274.6464228788791
 20
1600.93429721847
 30
0.0
 11
298.6464228788791
 21
1600.93429721847
 31
0.0
  0
LINE
  5
510
330
19
100
AcDbEntity
  8
4
100
AcDbLine
 10
298.6464228788791
 20
1600.93429721847
 30
0.0
 11
298.6464228788791
 21
1603.93429721847
 31
0.0
  0
LINE
  5
511
330
19
100
AcDbEntity
  8
4
100
AcDbLine
 10
274.6464228788791
 20
1600.93429721847
 30
0.0
 11
274.6464228788791
 21
1603.93429721847
 31
0.0
  0
ARC
  5
512
330
19
100
AcDbEntity
  8
4
100
AcDbCircle
 10
286.6464228788791
 20
1604.53429721847
 30
0.0
 40
12.0
100
AcDbArc
 50
44.42700400080382
 51
135.5729959991962
  0
LINE
  5
513
330
19
100
AcDbEntity
  8
4
100
AcDbLine
 10
295.6464228788791
 20
1612.93429721847
 30
0.0
 11
277.6464228788791
 21
1612.93429721847
 31
0.0
  0
LINE
  5
514
330
19
100
AcDbEntity
  8
4
100
AcDbLine
 10
796.6464228788791
 20
1395.66247221847
 30
0.0
 11
796.6464228788791
 21
1304.53429721847
 31
0.0
  0
LINE
  5
515
330
19
100
AcDbEntity
  8
4
100
AcDbLine
 10
769.6464228788791
 20
1460.314752761177
 30
0.0
 11
769.6464228788791
 21
1364.53429721847
 31
0.0
  0
LINE
  5
516
330
19
100
AcDbEntity
  8
4
100
AcDbLine
 10
791.4464228788793
 20
1575.53429721847
 30
0.0
 11
791.4464228788788
 21
1363.53429721847
 31
0.0
  0
LINE
  5
517
330
19
100
AcDbEntity
  8
L-CENTER
 48
2.0
100
AcDbLine
 10
521.6464228788791
 20
1826.085594808895
 30
0.0
 11
521.6464228788791
 21
1112.982999628045
 31
0.0
  0
LINE
  5
518
330
19
100
AcDbEntity
  8
4
100
AcDbLine
 10
774.6464228788791
 20
1575.53429721847
 30
0.0
 11
774.6464228788791
 21
1363.53429721847
 31
0.0
  0
LINE
  5
519
330
19
100
AcDbEntity
  8
4
100
AcDbLine
 10
786.6464228788791
 20
1294.53429721847
 30
0.0
 11
701.6464228788791
 21
1294.53429721847
 31
0.0
  0
LINE
  5
51A
330
19
100
AcDbEntity
  8
4
100
AcDbLine
 10
597.277549151504
 20
1307.539323668443
 30
0.0
 11
736.6631881725143
 21
1340.534297218469
 31
0.0
  0
LINE
  5
51B
330
19
100
AcDbEntity
  8
4
100
AcDbLine
 10
737.8459094808659
 20
1340.534297218469
 30
0.0
 11
603.6731020025763
 21
1307.357021187474
 31
0.0
  0
LINE
  5
51C
330
19
100
AcDbEntity
  8
4
100
AcDbLine
 10
597.277549151504
 20
1309.534297218469
 30
0.0
 11
728.2355207679966
 21
1340.534297218469
 31
0.0
  0
LINE
  5
525
330
19
100
AcDbEntity
  8
4
100
AcDbLine
 10
463.9842376912075
 20
1307.539323668443
 30
0.0
 11
579.3086080665503
 21
1307.539323668443
 31
0.0
  0
LINE
  5
526
330
19
100
AcDbEntity
  8
4
100
AcDbLine
 10
599.1464228788786
 20
1286.534297218469
 30
0.0
 11
444.1464228788786
 21
1286.534297218469
 31
0.0
  0
LINE
  5
527
330
19
100
AcDbEntity
  8
4
100
AcDbLine
 10
446.0152966062542
 20
1309.534297218469
 30
0.0
 11
315.0573249897616
 21
1340.534297218469
 31
0.0
  0
LINE
  5
528
330
19
100
AcDbEntity
  8
4
100
AcDbLine
 10
305.4469362768923
 20
1340.534297218469
 30
0.0
 11
439.6197437551818
 21
1307.357021187474
 31
0.0
  0
LINE
  5
529
330
19
100
AcDbEntity
  8
4
100
AcDbLine
 10
446.0152966062542
 20
1307.539323668443
 30
0.0
 11
306.6296575852439
 21
1340.534297218469
 31
0.0
  0
LINE
  5
52A
330
19
100
AcDbEntity
  8
4
100
AcDbLine
 10
351.6464228788791
 20
1329.110424167797
 30
0.0
 11
351.6464228788791
 21
1304.53429721847
 31
0.0
  0
ARC
  5
52B
330
19
100
AcDbEntity
  8
4
100
AcDbCircle
 10
341.6464228788791
 20
1304.53429721847
 30
0.0
 40
10.0
100
AcDbArc
 50
270.0
 51
0.0
  0
LINE
  5
530
330
19
100
AcDbEntity
  8
4
100
AcDbLine
 10
463.984237691207
 20
1309.534297218469
 30
0.0
 11
446.0152966062542
 21
1309.534297218469
 31
0.0
  0
ARC
  5
536
330
19
100
AcDbEntity
  8
4
100
AcDbCircle
 10
437.2513342734974
 20
1305.868440388764
 30
0.0
 40
2.0
100
AcDbArc
 50
14.03624346792646
 51
76.89891387042832
  0
LINE
  5
537
330
19
100
AcDbEntity
  8
4
100
AcDbLine
 10
446.0152966062542
 20
1307.539323668443
 30
0.0
 11
446.0152966062542
 21
1309.534297218469
 31
0.0
  0
LINE
  5
538
330
19
100
AcDbEntity
  8
4
100
AcDbLine
 10
446.0152966062542
 20
1307.539323668443
 30
0.0
 11
438.3504926177256
 21
1307.539323668443
 31
0.0
  0
LINE
  5
539
330
19
100
AcDbEntity
  8
4
100
AcDbLine
 10
444.1464228788791
 20
1286.534297218469
 30
0.0
 11
439.1916192737881
 21
1306.353511638835
 31
0.0
  0
LINE
  5
53E
330
19
100
AcDbEntity
  8
4
100
AcDbLine
 10
478.6621016854502
 20
1340.53429721847
 30
0.0
 11
463.9842376912075
 21
1307.539323668443
 31
0.0
  0
LINE
  5
53F
330
19
100
AcDbEntity
  8
4
100
AcDbLine
 10
477.7746346779375
 20
1340.53429721847
 30
0.0
 11
463.9842376912075
 21
1309.534297218469
 31
0.0
  0
LINE
  5
540
330
19
100
AcDbEntity
  8
4
100
AcDbLine
 10
463.9842376912075
 20
1307.539323668443
 30
0.0
 11
463.9842376912075
 21
1309.534297218469
 31
0.0
  0
LINE
  5
55A
330
19
100
AcDbEntity
  8
4
100
AcDbLine
 10
579.3086080665512
 20
1309.534297218469
 30
0.0
 11
597.277549151504
 21
1309.534297218469
 31
0.0
  0
LINE
  5
55B
330
19
100
AcDbEntity
  8
4
100
AcDbLine
 10
564.630744072308
 20
1340.53429721847
 30
0.0
 11
579.3086080665507
 21
1307.539323668443
 31
0.0
  0
LINE
  5
55C
330
19
100
AcDbEntity
  8
4
100
AcDbLine
 10
565.5182110798189
 20
1340.53429721847
 30
0.0
 11
579.3086080665507
 21
1309.534297218469
 31
0.0
  0
LINE
  5
55D
330
19
100
AcDbEntity
  8
4
100
AcDbLine
 10
579.3086080665507
 20
1307.539323668443
 30
0.0
 11
579.3086080665507
 21
1309.534297218469
 31
0.0
  0
LINE
  5
55F
330
19
100
AcDbEntity
  8
4
100
AcDbLine
 10
597.277549151504
 20
1307.539323668443
 30
0.0
 11
604.9423531400325
 21
1307.539323668443
 31
0.0
  0
LINE
  5
560
330
19
100
AcDbEntity
  8
4
100
AcDbLine
 10
597.277549151504
 20
1307.539323668443
 30
0.0
 11
597.277549151504
 21
1309.534297218469
 31
0.0
  0
ARC
  5
561
330
19
100
AcDbEntity
  8
4
100
AcDbCircle
 10
606.0415114842608
 20
1305.868440388764
 30
0.0
 40
2.0
100
AcDbArc
 50
103.1010861295717
 51
165.9637565320735
  0
LINE
  5
562
330
19
100
AcDbEntity
  8
4
100
AcDbLine
 10
599.1464228788791
 20
1286.534297218469
 30
0.0
 11
604.1012264839701
 21
1306.353511638835
 31
0.0
  0
LINE
  5
568
330
19
100
AcDbEntity
  8
4
100
AcDbLine
 10
691.6464228788791
 20
1329.110424167796
 30
0.0
 11
691.6464228788791
 21
1304.53429721847
 31
0.0
  0
ARC
  5
569
330
19
100
AcDbEntity
  8
4
100
AcDbCircle
 10
701.6464228788791
 20
1304.53429721847
 30
0.0
 40
10.0
100
AcDbArc
 50
180.0
 51
270.0
  0
LINE
  5
56A
330
19
100
AcDbEntity
  8
L-CENTER
 48
2.0
100
AcDbLine
 10
779.9440098521904
 20
1334.53429721847
 30
0.0
 11
733.3488359055677
 21
1334.53429721847
 31
0.0
  0
LINE
  5
56B
330
19
100
AcDbEntity
  8
L-CENTER
 48
2.0
100
AcDbLine
 10
756.6464228788791
 20
1311.236710245158
 30
0.0
 11
756.6464228788791
 21
1357.831884191781
 31
0.0
  0
ARC
  5
56C
330
19
100
AcDbEntity
  8
2
  6
DASHED
100
AcDbCircle
 10
756.6464228788791
 20
1334.53429721847
 30
0.0
 40
12.0
100
AcDbArc
 50
30.00000000000121
 51
149.9999999999988
  0
ARC
  5
56D
330
19
100
AcDbEntity
  8
4
100
AcDbCircle
 10
756.6464228788791
 20
1334.53429721847
 30
0.0
 40
12.0
100
AcDbArc
 50
149.9999999999988
 51
30.00000000000121
  0
LINE
  5
56E
330
19
100
AcDbEntity
  8
4
100
AcDbLine
 10
771.6464228788791
 20
1363.53429721847
 30
0.0
 11
771.6464228788791
 21
1340.53429721847
 31
0.0
  0
ARC
  5
56F
330
19
100
AcDbEntity
  8
4
100
AcDbCircle
 10
786.6464228788791
 20
1304.53429721847
 30
0.0
 40
10.0
100
AcDbArc
 50
270.0
 51
0.0
  0
LINE
  5
570
330
19
100
AcDbEntity
  8
4
100
AcDbLine
 10
786.6464228788791
 20
1644.53429721847
 30
0.0
 11
701.6464228788791
 21
1644.53429721847
 31
0.0
  0
LINE
  5
571
330
19
100
AcDbEntity
  8
4
100
AcDbLine
 10
605.303714365321
 20
1632.639713931018
 30
0.0
 11
729.8607085931667
 21
1600.934297218485
 31
0.0
  0
LINE
  5
572
330
19
100
AcDbEntity
  8
4
100
AcDbLine
 10
603.5954145828141
 20
1635.138330402735
 30
0.0
 11
737.9684020924037
 21
1600.934297218486
 31
0.0
  0
LINE
  5
573
330
19
100
AcDbEntity
  8
4
100
AcDbLine
 10
482.6464228788791
 20
1660.53429721847
 30
0.0
 11
482.6464228788791
 21
1817.53429721847
 31
0.0
  0
LINE
  5
574
330
19
100
AcDbEntity
  8
4
100
AcDbLine
 10
531.6464228788791
 20
1819.53429721847
 30
0.0
 11
531.6464228788791
 21
1679.53429721847
 31
0.0
  0
LINE
  5
575
330
19
100
AcDbEntity
  8
4
100
AcDbLine
 10
560.6464228788791
 20
1660.53429721847
 30
0.0
 11
560.6464228788791
 21
1817.53429721847
 31
0.0
  0
LINE
  5
576
330
19
100
AcDbEntity
  8
4
100
AcDbLine
 10
511.6464228788791
 20
1819.53429721847
 30
0.0
 11
511.6464228788791
 21
1679.53429721847
 31
0.0
  0
ARC
  5
577
330
19
100
AcDbEntity
  8
4
100
AcDbCircle
 10
521.6464228788791
 20
1469.53429721847
 30
0.0
 40
20.0
100
AcDbArc
 50
203.5781784782018
 51
336.4218215217981
  0
ARC
  5
578
330
19
100
AcDbEntity
  8
4
100
AcDbCircle
 10
521.6464228788791
 20
1469.53429721847
 30
0.0
 40
16.0
100
AcDbArc
 50
30.00000000000014
 51
150.0000000000001
  0
ARC
  5
579
330
19
100
AcDbEntity
  8
4
100
AcDbCircle
 10
521.6464228788791
 20
1469.53429721847
 30
0.0
 40
16.0
100
AcDbArc
 50
209.9999999999999
 51
330.0000000000001
  0
LINE
  5
57A
330
19
100
AcDbEntity
  8
4
100
AcDbLine
 10
493.6464228788791
 20
1477.53429721847
 30
0.0
 11
549.6464228788791
 21
1477.53429721847
 31
0.0
  0
LINE
  5
57B
330
19
100
AcDbEntity
  8
4
100
AcDbLine
 10
493.6464228788791
 20
1461.53429721847
 30
0.0
 11
549.6464228788791
 21
1461.53429721847
 31
0.0
  0
ARC
  5
57C
330
19
100
AcDbEntity
  8
4
100
AcDbCircle
 10
521.6464228788791
 20
1469.53429721847
 30
0.0
 40
17.5
100
AcDbArc
 50
27.20289441221446
 51
152.7971055877856
  0
ARC
  5
57D
330
19
100
AcDbEntity
  8
4
100
AcDbCircle
 10
521.6464228788791
 20
1469.53429721847
 30
0.0
 40
17.5
100
AcDbArc
 50
207.2028944122144
 51
332.7971055877855
  0
ARC
  5
57E
330
19
100
AcDbEntity
  8
4
100
AcDbCircle
 10
521.6464228788791
 20
1469.53429721847
 30
0.0
 40
20.0
100
AcDbArc
 50
23.57817847820185
 51
156.4218215217982
  0
ARC
  5
57F
330
19
100
AcDbEntity
  8
4
100
AcDbCircle
 10
521.6464228788791
 20
1679.53429721847
 30
0.0
 40
10.0
100
AcDbArc
 50
180.0
 51
0.0
  0
LINE
  5
580
330
19
100
AcDbEntity
  8
4
100
AcDbLine
 10
481.6464228788791
 20
1659.53429721847
 30
0.0
 11
561.6464228788791
 21
1659.53429721847
 31
0.0
  0
LINE
  5
581
330
19
100
AcDbEntity
  8
4
100
AcDbLine
 10
541.6464228788791
 20
1619.93429721847
 30
0.0
 11
501.6464228788791
 21
1619.93429721847
 31
0.0
  0
LINE
  5
582
330
19
100
AcDbEntity
  8
4
100
AcDbLine
 10
501.6464228788791
 20
1606.3617101092
 30
0.0
 11
541.6464228788791
 21
1606.361710109185
 31
0.0
  0
LINE
  5
583
330
19
100
AcDbEntity
  8
4
100
AcDbLine
 10
444.1464228788791
 20
1652.93429721847
 30
0.0
 11
599.1464228788786
 21
1652.93429721847
 31
0.0
  0
LINE
  5
584
330
19
100
AcDbEntity
  8
4
100
AcDbLine
 10
471.6464228788791
 20
1653.93429721847
 30
0.0
 11
571.6464228788791
 21
1653.93429721847
 31
0.0
  0
LINE
  5
585
330
19
100
AcDbEntity
  8
4
100
AcDbLine
 10
464.1464228788791
 20
1634.93429721847
 30
0.0
 11
579.1464228788791
 21
1634.93429721847
 31
0.0
  0
LINE
  5
586
330
19
100
AcDbEntity
  8
L-CENTER
 48
2.0
100
AcDbLine
 10
404.1464228788786
 20
1563.559544353365
 30
0.0
 11
404.1464228788786
 21
1618.73362815646
 31
0.0
  0
LWPOLYLINE
  5
587
330
19
100
AcDbEntity
  8
4
100
AcDbPolyline
 90
        6
 70
     1
 43
0.0
 10
404.6464228788791
 20
1469.53429721847
 10
393.1464228788791
 20
1489.452881505512
 10
370.1464228788791
 20
1489.452881505512
 10
358.6464228788791
 20
1469.53429721847
 10
370.1464228788791
 20
1449.615712931428
 10
393.1464228788791
 20
1449.615712931428
  0
CIRCLE
  5
588
330
19
100
AcDbEntity
  8
4
100
AcDbCircle
 10
381.6464228788791
 20
1469.53429721847
 30
0.0
 40
23.0
  0
CIRCLE
  5
589
330
19
100
AcDbEntity
  8
4
100
AcDbCircle
 10
381.6464228788791
 20
1469.53429721847
 30
0.0
 40
25.0
  0
LINE
  5
58A
330
19
100
AcDbEntity
  8
L-CENTER
 48
2.0
100
AcDbLine
 10
381.6464228788791
 20
1503.253685498853
 30
0.0
 11
381.6464228788791
 21
1435.300784379333
 31
0.0
  0
ARC
  5
58B
330
19
100
AcDbEntity
  8
4
100
AcDbCircle
 10
493.6464228788791
 20
1469.53429721847
 30
0.0
 40
8.0
100
AcDbArc
 50
90.0
 51
270.0
  0
ARC
  5
58C
330
19
100
AcDbEntity
  8
4
100
AcDbCircle
 10
404.1464228788786
 20
1594.93429721847
 30
0.0
 40
17.999975
100
AcDbArc
 50
70.52866900000068
 51
109.4703400000002
  0
LINE
  5
58D
330
19
100
AcDbEntity
  8
4
100
AcDbLine
 10
413.1464228788786
 20
1612.93429721847
 30
0.0
 11
395.1464228788786
 21
1612.93429721847
 31
0.0
  0
LINE
  5
58E
330
19
100
AcDbEntity
  8
4
100
AcDbLine
 10
416.1464228788786
 20
1603.93429721847
 30
0.0
 11
392.1464228788786
 21
1603.93429721847
 31
0.0
  0
LINE
  5
58F
330
19
100
AcDbEntity
  8
4
100
AcDbLine
 10
392.1464228788786
 20
1600.93429721847
 30
0.0
 11
416.1464228788786
 21
1600.93429721847
 31
0.0
  0
LINE
  5
590
330
19
100
AcDbEntity
  8
4
100
AcDbLine
 10
439.6974311749436
 20
1635.138330402729
 30
0.0
 11
305.3244436653563
 21
1600.93429721847
 31
0.0
  0
LINE
  5
591
330
19
100
AcDbEntity
  8
4
100
AcDbLine
 10
437.9891313924368
 20
1632.639713931012
 30
0.0
 11
313.4321371645933
 21
1600.93429721847
 31
0.0
  0
LINE
  5
592
330
19
100
AcDbEntity
  8
4
100
AcDbLine
 10
386.6464228788791
 20
1625.93429721847
 30
0.0
 11
336.6464228788791
 21
1625.93429721847
 31
0.0
  0
LINE
  5
593
330
19
100
AcDbEntity
  8
4
100
AcDbLine
 10
336.6464228788791
 20
1625.93429721847
 30
0.0
 11
336.6464228788791
 21
1609.079751763924
 31
0.0
  0
ARC
  5
594
330
19
100
AcDbEntity
  8
4
100
AcDbCircle
 10
341.6464228788791
 20
1634.53429721847
 30
0.0
 40
10.0
100
AcDbArc
 50
0.0
 51
90.0
  0
LINE
  5
595
330
19
100
AcDbEntity
  8
4
100
AcDbLine
 10
351.6464228788791
 20
1634.53429721847
 30
0.0
 11
351.6464228788791
 21
1625.93429721847
 31
0.0
  0
ARC
  5
596
330
19
100
AcDbEntity
  8
4
100
AcDbCircle
 10
395.1464228788786
 20
1608.350557218469
 30
0.0
 40
4.583600000000001
100
AcDbArc
 50
49.1166740000111
 51
130.8813299999994
  0
LINE
  5
597
330
19
100
AcDbEntity
  8
4
100
AcDbLine
 10
392.1464228788786
 20
1611.90475721847
 30
0.0
 11
392.1464228788786
 21
1603.93429721847
 31
0.0
  0
LINE
  5
598
330
19
100
AcDbEntity
  8
4
100
AcDbLine
 10
398.1464228788786
 20
1603.93429721847
 30
0.0
 11
398.1464228788786
 21
1611.90475721847
 31
0.0
  0
LINE
  5
599
330
19
100
AcDbEntity
  8
4
100
AcDbLine
 10
392.1464228788786
 20
1600.93429721847
 30
0.0
 11
392.1464228788786
 21
1603.93429721847
 31
0.0
  0
LINE
  5
59A
330
19
100
AcDbEntity
  8
4
100
AcDbLine
 10
386.6464228788791
 20
1625.93429721847
 30
0.0
 11
386.6464228788791
 21
1621.634437381912
 31
0.0
  0
LINE
  5
59B
330
19
100
AcDbEntity
  8
4
100
AcDbLine
 10
439.4591963866606
 20
1632.93429721847
 30
0.0
 11
464.1464228788791
 21
1632.93429721847
 31
0.0
  0
ARC
  5
59C
330
19
100
AcDbEntity
  8
4
100
AcDbCircle
 10
413.1464228788786
 20
1608.350557218469
 30
0.0
 40
4.583600000000001
100
AcDbArc
 50
49.1166740000111
 51
130.8813299999994
  0
LINE
  5
59D
330
19
100
AcDbEntity
  8
4
100
AcDbLine
 10
416.1464228788786
 20
1611.90475721847
 30
0.0
 11
416.1464228788786
 21
1603.93429721847
 31
0.0
  0
LINE
  5
59E
330
19
100
AcDbEntity
  8
4
100
AcDbLine
 10
410.1464228788786
 20
1603.93429721847
 30
0.0
 11
410.1464228788786
 21
1611.90475721847
 31
0.0
  0
LINE
  5
59F
330
19
100
AcDbEntity
  8
4
100
AcDbLine
 10
416.1464228788786
 20
1600.93429721847
 30
0.0
 11
416.1464228788786
 21
1603.93429721847
 31
0.0
  0
ARC
  5
5A0
330
19
100
AcDbEntity
  8
4
100
AcDbCircle
 10
437.495772831167
 20
1634.577908278858
 30
0.0
 40
2.0
100
AcDbArc
 50
284.2810957359712
 51
345.9637565320933
  0
LINE
  5
5A1
330
19
100
AcDbEntity
  8
4
100
AcDbLine
 10
444.1464228788791
 20
1652.93429721847
 30
0.0
 11
439.4360578314577
 21
1634.092837028785
 31
0.0
  0
LINE
  5
5A2
330
19
100
AcDbEntity
  8
4
100
AcDbLine
 10
501.6464228788791
 20
1619.93429721847
 30
0.0
 11
501.6464228788791
 21
1606.3617101092
 31
0.0
  0
LINE
  5
5A3
330
19
100
AcDbEntity
  8
4
100
AcDbLine
 10
464.1464228788791
 20
1634.93429721847
 30
0.0
 11
478.717851450308
 21
1600.93429721847
 31
0.0
  0
LINE
  5
5A4
330
19
100
AcDbEntity
  8
4
100
AcDbLine
 10
464.1464228788791
 20
1632.93429721847
 30
0.0
 11
477.8607085931649
 21
1600.93429721847
 31
0.0
  0
LINE
  5
5A5
330
19
100
AcDbEntity
  8
4
100
AcDbLine
 10
481.6464228788791
 20
1653.93429721847
 30
0.0
 11
481.6464228788791
 21
1659.53429721847
 31
0.0
  0
ARC
  5
5A6
330
19
100
AcDbEntity
  8
4
100
AcDbCircle
 10
481.6464228788791
 20
1660.53429721847
 30
0.0
 40
1.0
100
AcDbArc
 50
270.0
 51
0.0
  0
LINE
  5
5A7
330
19
100
AcDbEntity
  8
4
100
AcDbLine
 10
481.6464228788791
 20
1659.53429721847
 30
0.0
 11
481.6464228788791
 21
1659.53429721847
 31
0.0
  0
LINE
  5
5A8
330
19
100
AcDbEntity
  8
4
100
AcDbLine
 10
471.6464228788791
 20
1653.93429721847
 30
0.0
 11
471.6464228788791
 21
1652.93429721847
 31
0.0
  0
LINE
  5
5A9
330
19
100
AcDbEntity
  8
4
100
AcDbLine
 10
464.1464228788791
 20
1632.93429721847
 30
0.0
 11
464.1464228788791
 21
1634.93429721847
 31
0.0
  0
LINE
  5
5AA
330
19
100
AcDbEntity
  8
L-CENTER
 48
2.0
100
AcDbLine
 10
639.1464228788795
 20
1563.559544353365
 30
0.0
 11
639.1464228788795
 21
1618.73362815646
 31
0.0
  0
ARC
  5
5AB
330
19
100
AcDbEntity
  8
4
100
AcDbCircle
 10
549.6464228788791
 20
1469.53429721847
 30
0.0
 40
8.0
100
AcDbArc
 50
270.0
 51
90.0
  0
LINE
  5
5AC
330
19
100
AcDbEntity
  8
4
100
AcDbLine
 10
579.1464228788791
 20
1632.93429721847
 30
0.0
 11
565.4321371645933
 21
1600.93429721847
 31
0.0
  0
LINE
  5
5AD
330
19
100
AcDbEntity
  8
4
100
AcDbLine
 10
579.1464228788791
 20
1634.93429721847
 30
0.0
 11
564.5749943074502
 21
1600.93429721847
 31
0.0
  0
LINE
  5
5AE
330
19
100
AcDbEntity
  8
4
100
AcDbLine
 10
541.6464228788791
 20
1619.93429721847
 30
0.0
 11
541.6464228788791
 21
1606.361710109185
 31
0.0
  0
LINE
  5
5AF
330
19
100
AcDbEntity
  8
4
100
AcDbLine
 10
561.6464228788791
 20
1653.93429721847
 30
0.0
 11
561.6464228788791
 21
1659.53429721847
 31
0.0
  0
LINE
  5
5B0
330
19
100
AcDbEntity
  8
4
100
AcDbLine
 10
561.6464228788791
 20
1659.53429721847
 30
0.0
 11
561.6464228788791
 21
1659.53429721847
 31
0.0
  0
ARC
  5
5B1
330
19
100
AcDbEntity
  8
4
100
AcDbCircle
 10
561.6464228788791
 20
1660.53429721847
 30
0.0
 40
1.0
100
AcDbArc
 50
180.0
 51
270.0
  0
LINE
  5
5B2
330
19
100
AcDbEntity
  8
4
100
AcDbLine
 10
579.1464228788791
 20
1632.93429721847
 30
0.0
 11
603.7997144098663
 21
1632.93429721847
 31
0.0
  0
LINE
  5
5B3
330
19
100
AcDbEntity
  8
4
100
AcDbLine
 10
571.6464228788791
 20
1653.93429721847
 30
0.0
 11
571.6464228788795
 21
1652.93429721847
 31
0.0
  0
LINE
  5
5B4
330
19
100
AcDbEntity
  8
4
100
AcDbLine
 10
579.1464228788791
 20
1632.93429721847
 30
0.0
 11
579.1464228788791
 21
1634.93429721847
 31
0.0
  0
ARC
  5
5B5
330
19
100
AcDbEntity
  8
4
100
AcDbCircle
 10
605.7970729265908
 20
1634.577908278864
 30
0.0
 40
2.0
100
AcDbArc
 50
194.0362434679336
 51
255.7189042640288
  0
LINE
  5
5B6
330
19
100
AcDbEntity
  8
4
100
AcDbLine
 10
599.1464228788791
 20
1652.93429721847
 30
0.0
 11
603.8567879262987
 21
1634.092837028791
 31
0.0
  0
ARC
  5
5B7
330
19
100
AcDbEntity
  8
4
100
AcDbCircle
 10
639.1464228788795
 20
1594.93429721847
 30
0.0
 40
17.999975
100
AcDbArc
 50
70.52965999999977
 51
109.4713309999994
  0
ARC
  5
5B8
330
19
100
AcDbEntity
  8
4
100
AcDbCircle
 10
630.1464228788795
 20
1608.350557218469
 30
0.0
 40
4.583600000000001
100
AcDbArc
 50
49.1186700000006
 51
130.8833259999889
  0
ARC
  5
5B9
330
19
100
AcDbEntity
  8
4
100
AcDbCircle
 10
648.1464228788795
 20
1608.350557218469
 30
0.0
 40
4.583600000000001
100
AcDbArc
 50
49.1186700000006
 51
130.8833259999889
  0
LINE
  5
5BA
330
19
100
AcDbEntity
  8
4
100
AcDbLine
 10
651.1464228788795
 20
1600.93429721847
 30
0.0
 11
627.1464228788795
 21
1600.93429721847
 31
0.0
  0
LINE
  5
5BB
330
19
100
AcDbEntity
  8
4
100
AcDbLine
 10
627.1464228788795
 20
1603.93429721847
 30
0.0
 11
651.1464228788795
 21
1603.93429721847
 31
0.0
  0
LINE
  5
5BC
330
19
100
AcDbEntity
  8
4
100
AcDbLine
 10
645.1464228788795
 20
1603.93429721847
 30
0.0
 11
645.1464228788795
 21
1611.90475721847
 31
0.0
  0
LINE
  5
5BD
330
19
100
AcDbEntity
  8
4
100
AcDbLine
 10
627.1464228788795
 20
1611.90475721847
 30
0.0
 11
627.1464228788795
 21
1603.93429721847
 31
0.0
  0
LINE
  5
5BE
330
19
100
AcDbEntity
  8
4
100
AcDbLine
 10
633.1464228788795
 20
1603.93429721847
 30
0.0
 11
633.1464228788795
 21
1611.90475721847
 31
0.0
  0
LINE
  5
5BF
330
19
100
AcDbEntity
  8
4
100
AcDbLine
 10
627.1464228788795
 20
1600.93429721847
 30
0.0
 11
627.1464228788795
 21
1603.93429721847
 31
0.0
  0
LINE
  5
5C0
330
19
100
AcDbEntity
  8
4
100
AcDbLine
 10
651.1464228788795
 20
1611.90475721847
 30
0.0
 11
651.1464228788795
 21
1603.93429721847
 31
0.0
  0
LINE
  5
5C1
330
19
100
AcDbEntity
  8
4
100
AcDbLine
 10
651.1464228788795
 20
1600.93429721847
 30
0.0
 11
651.1464228788795
 21
1603.93429721847
 31
0.0
  0
LINE
  5
5C2
330
19
100
AcDbEntity
  8
4
100
AcDbLine
 10
630.1464228788795
 20
1612.93429721847
 30
0.0
 11
648.1464228788795
 21
1612.93429721847
 31
0.0
  0
ARC
  5
5C3
330
19
100
AcDbEntity
  8
4
100
AcDbCircle
 10
701.6464228788791
 20
1634.53429721847
 30
0.0
 40
10.0
100
AcDbArc
 50
90.0
 51
180.0
  0
LINE
  5
5C4
330
19
100
AcDbEntity
  8
4
100
AcDbLine
 10
691.6464228788791
 20
1634.53429721847
 30
0.0
 11
691.6464228788791
 21
1612.725346472834
 31
0.0
  0
LINE
  5
5C5
330
19
100
AcDbEntity
  8
4
100
AcDbLine
 10
484.6464228788791
 20
1819.53429721847
 30
0.0
 11
558.6464228788791
 21
1819.53429721847
 31
0.0
  0
LINE
  5
5C6
330
19
100
AcDbEntity
  8
4
100
AcDbLine
 10
482.6464228788791
 20
1817.53429721847
 30
0.0
 11
511.6464228788791
 21
1817.53429721847
 31
0.0
  0
LINE
  5
5C7
330
19
100
AcDbEntity
  8
4
100
AcDbLine
 10
482.6464228788791
 20
1817.53429721847
 30
0.0
 11
484.6464228788791
 21
1819.53429721847
 31
0.0
  0
LINE
  5
5C8
330
19
100
AcDbEntity
  8
4
100
AcDbLine
 10
531.6464228788791
 20
1817.53429721847
 30
0.0
 11
560.6464228788791
 21
1817.53429721847
 31
0.0
  0
LINE
  5
5C9
330
19
100
AcDbEntity
  8
4
100
AcDbLine
 10
560.6464228788791
 20
1817.53429721847
 30
0.0
 11
558.6464228788791
 21
1819.53429721847
 31
0.0
  0
LINE
  5
5CA
330
19
100
AcDbEntity
  8
4
100
AcDbLine
 10
796.6464228788791
 20
1634.53429721847
 30
0.0
 11
796.6464228788791
 21
1543.406122218469
 31
0.0
  0
LINE
  5
5CB
330
19
100
AcDbEntity
  8
L-CENTER
 48
2.0
100
AcDbLine
 10
756.6464228788791
 20
1563.559544353365
 30
0.0
 11
756.6464228788791
 21
1618.73362815646
 31
0.0
  0
LINE
  5
5CC
330
19
100
AcDbEntity
  8
4
100
AcDbLine
 10
769.6464228788791
 20
1574.53429721847
 30
0.0
 11
769.6464228788791
 21
1478.753841675762
 31
0.0
  0
LINE
  5
5CD
330
19
100
AcDbEntity
  8
4
100
AcDbLine
 10
824.1464228788791
 20
1462.03429721847
 30
0.0
 11
926.6464228788791
 21
1462.03429721847
 31
0.0
  0
LINE
  5
5CE
330
19
100
AcDbEntity
  8
4
100
AcDbLine
 10
824.1464228788791
 20
1477.03429721847
 30
0.0
 11
926.6464228788791
 21
1477.03429721847
 31
0.0
  0
LINE
  5
5CF
330
19
100
AcDbEntity
  8
4
100
AcDbLine
 10
808.6464228788791
 20
1440.53429721847
 30
0.0
 11
924.6464228788791
 21
1440.53429721847
 31
0.0
  0
LINE
  5
5D0
330
19
100
AcDbEntity
  8
4
100
AcDbLine
 10
808.6464228788791
 20
1498.53429721847
 30
0.0
 11
924.6464228788791
 21
1498.53429721847
 31
0.0
  0
CIRCLE
  5
5D1
330
19
100
AcDbEntity
  8
4
100
AcDbCircle
 10
763.6464228788791
 20
1469.53429721847
 30
0.0
 40
11.0
  0
LINE
  5
5D2
330
19
100
AcDbEntity
  8
L-CENTER
 48
2.0
100
AcDbLine
 10
763.6464228788791
 20
1486.97412286255
 30
0.0
 11
763.6464228788791
 21
1453.228845256292
 31
0.0
  0
ARC
  5
5D3
330
19
100
AcDbEntity
  8
4
100
AcDbCircle
 10
824.1464228788791
 20
1469.53429721847
 30
0.0
 40
7.5
100
AcDbArc
 50
90.0
 51
270.0
  0
LINE
  5
5D4
330
19
100
AcDbEntity
  8
4
100
AcDbLine
 10
806.6464228788791
 20
1502.03429721847
 30
0.0
 11
806.6464228788791
 21
1437.03429721847
 31
0.0
  0
LINE
  5
5D5
330
19
100
AcDbEntity
  8
4
100
AcDbLine
 10
792.446327878879
 20
1514.53429721847
 30
0.0
 11
792.446327878879
 21
1424.53429721847
 31
0.0
  0
LINE
  5
5D6
330
19
100
AcDbEntity
  8
L-CENTER
 48
2.0
100
AcDbLine
 10
810.3413593522791
 20
1407.662472218469
 30
0.0
 11
761.9136442195213
 21
1407.662472218469
 31
0.0
  0
LINE
  5
5D7
330
19
100
AcDbEntity
  8
4
100
AcDbLine
 10
791.446327878879
 20
1419.66247221847
 30
0.0
 11
791.446327878879
 21
1395.66247221847
 31
0.0
  0
LINE
  5
5D8
330
19
100
AcDbEntity
  8
4
100
AcDbLine
 10
794.446327878879
 20
1395.66247221847
 30
0.0
 11
794.446327878879
 21
1419.66247221847
 31
0.0
  0
ARC
  5
5D9
330
19
100
AcDbEntity
  8
4
100
AcDbCircle
 10
798.8625878788789
 20
1416.66247221847
 30
0.0
 40
4.58369
100
AcDbArc
 50
319.1186700000006
 51
40.88132999999934
  0
ARC
  5
5DA
330
19
100
AcDbEntity
  8
4
100
AcDbCircle
 10
798.8625878788789
 20
1398.66247221847
 30
0.0
 40
4.58369
100
AcDbArc
 50
319.1186700000006
 51
40.88132999999934
  0
LINE
  5
5DB
330
19
100
AcDbEntity
  8
4
100
AcDbLine
 10
791.446327878879
 20
1395.66247221847
 30
0.0
 11
794.446327878879
 21
1395.66247221847
 31
0.0
  0
LINE
  5
5DC
330
19
100
AcDbEntity
  8
4
100
AcDbLine
 10
802.4167828788791
 20
1395.66247221847
 30
0.0
 11
794.446327878879
 21
1395.66247221847
 31
0.0
  0
ARC
  5
5DD
330
19
100
AcDbEntity
  8
4
100
AcDbCircle
 10
785.446327878879
 20
1407.662472218469
 30
0.0
 40
18.00009
100
AcDbArc
 50
340.5289280000003
 51
19.47033699999977
  0
LINE
  5
5DE
330
19
100
AcDbEntity
  8
4
100
AcDbLine
 10
794.446327878879
 20
1401.66247221847
 30
0.0
 11
802.4167828788791
 21
1401.66247221847
 31
0.0
  0
LINE
  5
5DF
330
19
100
AcDbEntity
  8
4
100
AcDbLine
 10
794.446327878879
 20
1413.66247221847
 30
0.0
 11
802.4167828788791
 21
1413.66247221847
 31
0.0
  0
LINE
  5
5E0
330
19
100
AcDbEntity
  8
4
100
AcDbLine
 10
803.446327878879
 20
1398.66247221847
 30
0.0
 11
803.446327878879
 21
1416.66247221847
 31
0.0
  0
LINE
  5
5E1
330
19
100
AcDbEntity
  8
4
100
AcDbLine
 10
792.446327878879
 20
1437.03429721847
 30
0.0
 11
806.6464228788791
 21
1437.03429721847
 31
0.0
  0
LINE
  5
5E2
330
19
100
AcDbEntity
  8
4
100
AcDbLine
 10
796.6464228788791
 20
1437.034297218469
 30
0.0
 11
796.6464228788791
 21
1419.66247221847
 31
0.0
  0
LINE
  5
5E3
330
19
100
AcDbEntity
  8
4
100
AcDbLine
 10
791.446327878879
 20
1424.53429721847
 30
0.0
 11
792.446327878879
 21
1424.53429721847
 31
0.0
  0
LINE
  5
5E4
330
19
100
AcDbEntity
  8
4
100
AcDbLine
 10
791.446327878879
 20
1419.66247221847
 30
0.0
 11
794.446327878879
 21
1419.66247221847
 31
0.0
  0
LINE
  5
5E5
330
19
100
AcDbEntity
  8
4
100
AcDbLine
 10
802.4167828788791
 20
1419.66247221847
 30
0.0
 11
794.446327878879
 21
1419.66247221847
 31
0.0
  0
ARC
  5
5E6
330
19
100
AcDbEntity
  8
4
100
AcDbCircle
 10
808.6464228788791
 20
1438.53429721847
 30
0.0
 40
2.0
100
AcDbArc
 50
90.0
 51
180.0
  0
LINE
  5
5E7
330
19
100
AcDbEntity
  8
L-CENTER
 48
2.0
100
AcDbLine
 10
810.3413593522787
 20
1531.40612221847
 30
0.0
 11
761.9136442195213
 21
1531.406122218469
 31
0.0
  0
LINE
  5
5E8
330
19
100
AcDbEntity
  8
4
100
AcDbLine
 10
796.6464228788791
 20
1519.40612221847
 30
0.0
 11
796.6464228788791
 21
1502.03429721847
 31
0.0
  0
LINE
  5
5E9
330
19
100
AcDbEntity
  8
4
100
AcDbLine
 10
792.446327878879
 20
1502.03429721847
 30
0.0
 11
806.6464228788791
 21
1502.03429721847
 31
0.0
  0
LINE
  5
5EA
330
19
100
AcDbEntity
  8
4
100
AcDbLine
 10
792.446327878879
 20
1514.53429721847
 30
0.0
 11
791.446327878879
 21
1514.53429721847
 31
0.0
  0
ARC
  5
5EB
330
19
100
AcDbEntity
  8
4
100
AcDbCircle
 10
808.6464228788791
 20
1500.53429721847
 30
0.0
 40
2.0
100
AcDbArc
 50
180.0
 51
270.0
  0
LINE
  5
5EC
330
19
100
AcDbEntity
  8
4
100
AcDbLine
 10
791.446327878879
 20
1543.40612221847
 30
0.0
 11
794.446327878879
 21
1543.40612221847
 31
0.0
  0
ARC
  5
5ED
330
19
100
AcDbEntity
  8
4
100
AcDbCircle
 10
798.8625878788789
 20
1540.40612221847
 30
0.0
 40
4.583600000000001
100
AcDbArc
 50
319.1186699999978
 51
40.88332600000215
  0
LINE
  5
5EE
330
19
100
AcDbEntity
  8
4
100
AcDbLine
 10
803.446327878879
 20
1540.40612221847
 30
0.0
 11
803.446327878879
 21
1522.40612221847
 31
0.0
  0
ARC
  5
5EF
330
19
100
AcDbEntity
  8
4
100
AcDbCircle
 10
785.446327878879
 20
1531.40612221847
 30
0.0
 40
17.999975
100
AcDbArc
 50
340.5296599999995
 51
19.47133099999955
  0
LINE
  5
5F0
330
19
100
AcDbEntity
  8
4
100
AcDbLine
 10
794.446327878879
 20
1525.40612221847
 30
0.0
 11
802.4167828788791
 21
1525.40612221847
 31
0.0
  0
LINE
  5
5F1
330
19
100
AcDbEntity
  8
4
100
AcDbLine
 10
794.446327878879
 20
1537.40612221847
 30
0.0
 11
802.4167828788791
 21
1537.40612221847
 31
0.0
  0
LINE
  5
5F2
330
19
100
AcDbEntity
  8
4
100
AcDbLine
 10
802.4167828788791
 20
1543.40612221847
 30
0.0
 11
794.446327878879
 21
1543.40612221847
 31
0.0
  0
LINE
  5
5F3
330
19
100
AcDbEntity
  8
4
100
AcDbLine
 10
791.446327878879
 20
1519.40612221847
 30
0.0
 11
794.446327878879
 21
1519.40612221847
 31
0.0
  0
LINE
  5
5F4
330
19
100
AcDbEntity
  8
4
100
AcDbLine
 10
802.4167828788791
 20
1519.40612221847
 30
0.0
 11
794.446327878879
 21
1519.40612221847
 31
0.0
  0
LINE
  5
5F5
330
19
100
AcDbEntity
  8
4
100
AcDbLine
 10
791.446327878879
 20
1519.40612221847
 30
0.0
 11
791.446327878879
 21
1543.40612221847
 31
0.0
  0
LINE
  5
5F6
330
19
100
AcDbEntity
  8
4
100
AcDbLine
 10
794.446327878879
 20
1543.40612221847
 30
0.0
 11
794.446327878879
 21
1519.40612221847
 31
0.0
  0
ARC
  5
5F7
330
19
100
AcDbEntity
  8
4
100
AcDbCircle
 10
798.8625878788789
 20
1522.40612221847
 30
0.0
 40
4.583600000000001
100
AcDbArc
 50
319.1186699999926
 51
40.88332599999319
  0
LINE
  5
5F8
330
19
100
AcDbEntity
  8
4
100
AcDbLine
 10
926.6464228788791
 20
1496.53429721847
 30
0.0
 11
926.6464228788791
 21
1442.53429721847
 31
0.0
  0
LINE
  5
5F9
330
19
100
AcDbEntity
  8
4
100
AcDbLine
 10
924.6464228788791
 20
1440.53429721847
 30
0.0
 11
926.6464228788791
 21
1442.53429721847
 31
0.0
  0
LINE
  5
5FA
330
19
100
AcDbEntity
  8
4
100
AcDbLine
 10
924.6464228788791
 20
1462.03429721847
 30
0.0
 11
924.6464228788791
 21
1440.53429721847
 31
0.0
  0
LINE
  5
5FB
330
19
100
AcDbEntity
  8
4
100
AcDbLine
 10
924.6464228788791
 20
1498.53429721847
 30
0.0
 11
926.6464228788791
 21
1496.53429721847
 31
0.0
  0
LINE
  5
5FC
330
19
100
AcDbEntity
  8
4
100
AcDbLine
 10
924.6464228788791
 20
1498.53429721847
 30
0.0
 11
924.6464228788791
 21
1477.03429721847
 31
0.0
  0
LINE
  5
5FD
330
19
100
AcDbEntity
  8
L-CENTER
 48
2.0
100
AcDbLine
 10
779.9440098521904
 20
1604.53429721847
 30
0.0
 11
733.3488359055677
 21
1604.53429721847
 31
0.0
  0
ARC
  5
5FE
330
19
100
AcDbEntity
  8
2
  6
DASHED
100
AcDbCircle
 10
756.6464228788791
 20
1604.53429721847
 30
0.0
 40
12.0
100
AcDbArc
 50
135.5729959991962
 51
44.42700400080382
  0
LINE
  5
5FF
330
19
100
AcDbEntity
  8
L-CENTER
 48
2.0
100
AcDbLine
 10
756.6464228788791
 20
1627.831884191781
 30
0.0
 11
756.6464228788791
 21
1581.236710245158
 31
0.0
  0
ARC
  5
600
330
19
100
AcDbEntity
  8
4
100
AcDbCircle
 10
756.6464228788791
 20
1594.93429721847
 30
0.0
 40
17.999975
100
AcDbArc
 50
70.52965999999977
 51
109.4713309999994
  0
ARC
  5
601
330
19
100
AcDbEntity
  8
4
100
AcDbCircle
 10
747.6464228788791
 20
1608.350557218469
 30
0.0
 40
4.583600000000001
100
AcDbArc
 50
49.1186700000006
 51
130.8833260000001
  0
ARC
  5
602
330
19
100
AcDbEntity
  8
4
100
AcDbCircle
 10
765.6464228788791
 20
1608.350557218469
 30
0.0
 40
4.583600000000001
100
AcDbArc
 50
49.1186700000006
 51
130.8833260000001
  0
LINE
  5
603
330
19
100
AcDbEntity
  8
4
100
AcDbLine
 10
744.6464228788791
 20
1603.93429721847
 30
0.0
 11
768.6464228788791
 21
1603.93429721847
 31
0.0
  0
LINE
  5
604
330
19
100
AcDbEntity
  8
4
100
AcDbLine
 10
768.6464228788791
 20
1600.93429721847
 30
0.0
 11
744.6464228788791
 21
1600.93429721847
 31
0.0
  0
LINE
  5
605
330
19
100
AcDbEntity
  8
4
100
AcDbLine
 10
744.6464228788791
 20
1611.90475721847
 30
0.0
 11
744.6464228788791
 21
1603.93429721847
 31
0.0
  0
LINE
  5
606
330
19
100
AcDbEntity
  8
4
100
AcDbLine
 10
750.6464228788791
 20
1603.93429721847
 30
0.0
 11
750.6464228788791
 21
1611.90475721847
 31
0.0
  0
LINE
  5
607
330
19
100
AcDbEntity
  8
4
100
AcDbLine
 10
744.6464228788791
 20
1600.93429721847
 30
0.0
 11
744.6464228788791
 21
1603.93429721847
 31
0.0
  0
LINE
  5
608
330
19
100
AcDbEntity
  8
4
100
AcDbLine
 10
768.6464228788791
 20
1611.90475721847
 30
0.0
 11
768.6464228788791
 21
1603.93429721847
 31
0.0
  0
LINE
  5
609
330
19
100
AcDbEntity
  8
4
100
AcDbLine
 10
762.6464228788791
 20
1603.93429721847
 30
0.0
 11
762.6464228788791
 21
1611.90475721847
 31
0.0
  0
LINE
  5
60A
330
19
100
AcDbEntity
  8
4
100
AcDbLine
 10
768.6464228788791
 20
1600.93429721847
 30
0.0
 11
768.6464228788791
 21
1603.93429721847
 31
0.0
  0
ARC
  5
60B
330
19
100
AcDbEntity
  8
4
100
AcDbCircle
 10
772.6464228788791
 20
1599.93429721847
 30
0.0
 40
1.0
100
AcDbArc
 50
0.0
 51
90.0
  0
LINE
  5
60C
330
19
100
AcDbEntity
  8
4
100
AcDbLine
 10
773.6464228788791
 20
1599.93429721847
 30
0.0
 11
773.6464228788791
 21
1578.93429721847
 31
0.0
  0
LINE
  5
60D
330
19
100
AcDbEntity
  8
4
100
AcDbLine
 10
771.6464228788791
 20
1578.93429721847
 30
0.0
 11
771.6464228788791
 21
1575.53429721847
 31
0.0
  0
ARC
  5
60E
330
19
100
AcDbEntity
  8
4
100
AcDbCircle
 10
756.6464228788791
 20
1604.53429721847
 30
0.0
 40
12.0
100
AcDbArc
 50
44.42700400080382
 51
135.5729959991962
  0
LINE
  5
60F
330
19
100
AcDbEntity
  8
4
100
AcDbLine
 10
747.6464228788791
 20
1612.93429721847
 30
0.0
 11
765.6464228788791
 21
1612.93429721847
 31
0.0
  0
ARC
  5
610
330
19
100
AcDbEntity
  8
4
100
AcDbCircle
 10
786.6464228788791
 20
1634.53429721847
 30
0.0
 40
10.0
100
AcDbArc
 50
0.0
 51
90.0
  0
LINE
  5
62F
330
19
100
AcDbEntity
  8
4
100
AcDbLine
 10
739.6464228788791
 20
1364.53429721847
 30
0.0
 11
739.6464228788791
 21
1362.53429721847
 31
0.0
  0
LINE
  5
630
330
19
100
AcDbEntity
  8
4
100
AcDbLine
 10
591.6464228788764
 20
1364.53429721847
 30
0.0
 11
591.6464228788764
 21
1362.53429721847
 31
0.0
  0
LINE
  5
632
330
19
100
AcDbEntity
  8
4
100
AcDbLine
 10
593.6464228788764
 20
1360.53429721847
 30
0.0
 11
737.6464228788791
 21
1360.53429721847
 31
0.0
  0
ARC
  5
633
330
19
100
AcDbEntity
  8
4
100
AcDbCircle
 10
593.6464228788764
 20
1362.53429721847
 30
0.0
 40
2.0
100
AcDbArc
 50
180.0
 51
270.0
  0
ARC
  5
634
330
19
100
AcDbEntity
  8
4
100
AcDbCircle
 10
737.6464228788791
 20
1362.53429721847
 30
0.0
 40
2.0
100
AcDbArc
 50
270.0
 51
0.0
  0
LINE
  5
635
330
19
100
AcDbEntity
  8
4
100
AcDbLine
 10
739.6464228788791
 20
1363.53429721847
 30
0.0
 11
791.4464228788793
 21
1363.53429721847
 31
0.0
  0
LINE
  5
64A
330
19
100
AcDbEntity
  8
4
100
AcDbLine
 10
246.6464228788791
 20
1519.40612221847
 30
0.0
 11
246.6464228788791
 21
1419.66247221847
 31
0.0
  0
LINE
  5
64B
330
19
100
AcDbEntity
  8
4
100
AcDbLine
 10
482.6464228788791
 20
1278.53429721847
 30
0.0
 11
482.6464228788791
 21
1121.53429721847
 31
0.0
  0
LINE
  5
64C
330
19
100
AcDbEntity
  8
4
100
AcDbLine
 10
531.6464228788791
 20
1119.53429721847
 30
0.0
 11
531.6464228788791
 21
1259.53429721847
 31
0.0
  0
LINE
  5
64D
330
19
100
AcDbEntity
  8
4
100
AcDbLine
 10
560.6464228788791
 20
1278.53429721847
 30
0.0
 11
560.6464228788791
 21
1121.53429721847
 31
0.0
  0
LINE
  5
64E
330
19
100
AcDbEntity
  8
4
100
AcDbLine
 10
511.6464228788791
 20
1119.53429721847
 30
0.0
 11
511.6464228788791
 21
1259.53429721847
 31
0.0
  0
ARC
  5
64F
330
19
100
AcDbEntity
  8
4
100
AcDbCircle
 10
521.6464228788791
 20
1259.53429721847
 30
0.0
 40
10.0
100
AcDbArc
 50
0.0
 51
180.0
  0
LINE
  5
650
330
19
100
AcDbEntity
  8
4
100
AcDbLine
 10
481.6464228788791
 20
1279.53429721847
 30
0.0
 11
561.6464228788791
 21
1279.53429721847
 31
0.0
  0
LINE
  5
651
330
19
100
AcDbEntity
  8
4
100
AcDbLine
 10
471.6464228788791
 20
1285.534297218469
 30
0.0
 11
571.6464228788791
 21
1285.534297218469
 31
0.0
  0
LINE
  5
652
330
19
100
AcDbEntity
  8
4
100
AcDbLine
 10
481.6464228788791
 20
1285.534297218469
 30
0.0
 11
481.6464228788791
 21
1279.53429721847
 31
0.0
  0
ARC
  5
653
330
19
100
AcDbEntity
  8
4
100
AcDbCircle
 10
481.6464228788791
 20
1278.53429721847
 30
0.0
 40
1.0
100
AcDbArc
 50
0.0
 51
90.0
  0
LINE
  5
654
330
19
100
AcDbEntity
  8
4
100
AcDbLine
 10
481.6464228788791
 20
1279.53429721847
 30
0.0
 11
481.6464228788791
 21
1279.53429721847
 31
0.0
  0
LINE
  5
655
330
19
100
AcDbEntity
  8
4
100
AcDbLine
 10
471.6464228788791
 20
1285.534297218469
 30
0.0
 11
471.6464228788791
 21
1286.534297218469
 31
0.0
  0
LINE
  5
656
330
19
100
AcDbEntity
  8
4
100
AcDbLine
 10
561.6464228788791
 20
1285.534297218469
 30
0.0
 11
561.6464228788791
 21
1279.53429721847
 31
0.0
  0
LINE
  5
657
330
19
100
AcDbEntity
  8
4
100
AcDbLine
 10
561.6464228788791
 20
1279.53429721847
 30
0.0
 11
561.6464228788791
 21
1279.53429721847
 31
0.0
  0
ARC
  5
658
330
19
100
AcDbEntity
  8
4
100
AcDbCircle
 10
561.6464228788791
 20
1278.53429721847
 30
0.0
 40
1.0
100
AcDbArc
 50
90.0
 51
180.0
  0
LINE
  5
659
330
19
100
AcDbEntity
  8
4
100
AcDbLine
 10
571.6464228788791
 20
1285.534297218469
 30
0.0
 11
571.6464228788795
 21
1286.534297218469
 31
0.0
  0
LINE
  5
65A
330
19
100
AcDbEntity
  8
4
100
AcDbLine
 10
484.6464228788791
 20
1119.53429721847
 30
0.0
 11
558.6464228788791
 21
1119.53429721847
 31
0.0
  0
LINE
  5
65B
330
19
100
AcDbEntity
  8
4
100
AcDbLine
 10
482.6464228788791
 20
1121.53429721847
 30
0.0
 11
511.6464228788791
 21
1121.53429721847
 31
0.0
  0
LINE
  5
65C
330
19
100
AcDbEntity
  8
4
100
AcDbLine
 10
482.6464228788791
 20
1121.53429721847
 30
0.0
 11
484.6464228788791
 21
1119.53429721847
 31
0.0
  0
LINE
  5
65D
330
19
100
AcDbEntity
  8
4
100
AcDbLine
 10
531.6464228788791
 20
1121.53429721847
 30
0.0
 11
560.6464228788791
 21
1121.53429721847
 31
0.0
  0
LINE
  5
65E
330
19
100
AcDbEntity
  8
4
100
AcDbLine
 10
560.6464228788791
 20
1121.53429721847
 30
0.0
 11
558.6464228788791
 21
1119.53429721847
 31
0.0
  0
ENDSEC
  0
SECTION
  2
OBJECTS
  0
DICTIONARY
  5
9
330
0
100
AcDbDictionary
281
     1
  3
ACAD_COLOR
350
2E
  3
ACAD_GROUP
350
2C
  3
ACAD_LAYOUT
350
22
  3
ACAD_MATERIAL
350
B
  3
ACAD_MLEADERSTYLE
350
614
  3
ACAD_MLINESTYLE
350
17
  3
ACAD_PLOTSETTINGS
350
2D
  3
ACAD_PLOTSTYLENAME
350
8
  3
ACAD_SCALELIST
350
36
  3
ACAD_TABLESTYLE
350
613
  3
ACAD_VISUALSTYLE
350
2F
  3
ACDBHEADERROUNDTRIPXREC
350
675
  3
AcDbVariableDictionary
350
611
  3
DWGPROPS
350
678
  0
DICTIONARY
  5
679
330
2B
100
AcDbDictionary
280
     1
281
     1
  3
ACAD_XREC_ROUNDTRIP
360
67A
  0
DICTIONARY
  5
3
330
2
100
AcDbDictionary
280
     1
281
     1
  3
ACAD_LAYERSTATES
360
4
  0
DICTIONARY
  5
1E
330
1D
100
AcDbDictionary
280
     1
281
     1
  3
ADSK_XREC_LAYER_RECONCILED
360
1F
  0
DICTIONARY
  5
35B
330
35A
100
AcDbDictionary
280
     1
281
     1
  3
ADSK_XREC_LAYER_RECONCILED
360
35C
  0
DICTIONARY
  5
5
330
1
100
AcDbDictionary
280
     1
281
     1
  3
ADSK_XREC_LAYER_RECONCILED
360
6
  0
DICTIONARY
  5
6E
330
6D
100
AcDbDictionary
280
     1
281
     1
  3
ADSK_XREC_LAYER_RECONCILED
360
6F
  0
DICTIONARY
  5
7B
330
7A
100
AcDbDictionary
280
     1
281
     1
  3
ADSK_XREC_LAYER_RECONCILED
360
7C
  0
DICTIONARY
  5
8A
330
89
100
AcDbDictionary
280
     1
281
     1
  3
ADSK_XREC_LAYER_RECONCILED
360
8B
  0
DICTIONARY
  5
1A
330
19
100
AcDbDictionary
280
     1
281
     1
  3
ACAD_SORTENTS
360
1B
  0
DICTIONARY
  5
2E
102
{ACAD_REACTORS
330
9
102
}
330
9
100
AcDbDictionary
281
     1
  0
DICTIONARY
  5
2C
102
{ACAD_REACTORS
330
9
102
}
330
9
100
AcDbDictionary
281
     1
  0
DICTIONARY
  5
22
102
{ACAD_REACTORS
330
9
102
}
330
9
100
AcDbDictionary
281
     1
  3
Model
350
21
  3
ﾚｲｱｳﾄ1
350
28
  0
DICTIONARY
  5
B
102
{ACAD_REACTORS
330
9
102
}
330
9
100
AcDbDictionary
281
     1
  3
ByBlock
350
69
  3
ByLayer
350
12
  3
Global
350
A
  0
DICTIONARY
  5
614
102
{ACAD_REACTORS
330
9
102
}
330
9
100
AcDbDictionary
281
     1
  3
Standard
350
62D
  0
DICTIONARY
  5
17
102
{ACAD_REACTORS
330
9
102
}
330
9
100
AcDbDictionary
281
     1
  3
STANDARD
350
16
  0
DICTIONARY
  5
2D
102
{ACAD_REACTORS
330
9
102
}
330
9
100
AcDbDictionary
281
     1
  0
ACDBDICTIONARYWDFLT
  5
8
102
{ACAD_REACTORS
330
9
102
}
330
9
100
AcDbDictionary
281
     1
  3
Normal
350
7
100
AcDbDictionaryWithDefault
340
7
  0
DICTIONARY
  5
36
102
{ACAD_REACTORS
330
9
102
}
330
9
100
AcDbDictionary
281
     1
  3
*A1
350
58
  3
*A10
350
61
  3
*A11
350
62
  3
*A12
350
63
  3
*A13
350
64
  3
*A14
350
65
  3
*A15
350
66
  3
*A16
350
67
  3
*A17
350
68
  3
*A2
350
59
  3
*A3
350
5A
  3
*A4
350
5B
  3
*A5
350
5C
  3
*A6
350
5D
  3
*A7
350
5E
  3
*A8
350
5F
  3
*A9
350
60
  0
DICTIONARY
  5
613
102
{ACAD_REACTORS
330
9
102
}
330
9
100
AcDbDictionary
281
     1
  3
Standard
350
671
  0
DICTIONARY
  5
2F
102
{ACAD_REACTORS
330
9
102
}
330
9
100
AcDbDictionary
281
     1
  3
2dWireframe
350
61B
  3
Basic
350
61D
  3
Brighten
350
620
  3
ColorChange
350
624
  3
Conceptual
350
61E
  3
Dim
350
61F
  3
EdgeColorOff
350
627
  3
Facepattern
350
623
  3
Flat
350
617
  3
FlatWithEdges
350
618
  3
Gouraud
350
619
  3
GouraudWithEdges
350
61A
  3
Hidden
350
61C
  3
JitterOff
350
625
  3
Linepattern
350
622
  3
OverhangOff
350
626
  3
Realistic
350
30
  3
Shaded
350
62C
  3
Shaded with edges
350
62B
  3
Shades of Gray
350
628
  3
Sketchy
350
629
  3
Thicken
350
621
  3
Wireframe
350
31
  3
X-Ray
350
62A
  0
DICTIONARY
  5
675
102
{ACAD_REACTORS
330
9
102
}
330
9
100
AcDbDictionary
281
     1
  3
COLORDICT
350
676
  3
MATERIALDICT
350
677
  0
DICTIONARY
  5
611
102
{ACAD_REACTORS
330
9
102
}
330
9
100
AcDbDictionary
281
     1
  3
CANNOSCALE
350
612
  3
CMLEADERSTYLE
350
663
  3
CTABLESTYLE
350
672
  3
DIMASSOC
350
673
  3
HIDETEXT
350
674
  3
MSLTSCALE
350
67B
  0
XRECORD
  5
678
102
{ACAD_REACTORS
330
9
102
}
330
9
100
AcDbXrecord
280
     1
  1
DWGPROPS COOKIE
  2

  3

  4

  6

  7

  8
sg-d04
  9

300
=
301
=
302
=
303
=
304
=
305
=
306
=
307
=
308
=
309
=
 40
0.0
 41
2449812.381805555
 42
2457871.458860521
  1

 90
        0
  0
XRECORD
  5
67A
102
{ACAD_REACTORS
330
679
102
}
330
679
100
AcDbXrecord
280
     1
102
VTR_0.000_0.000_1.000_1.000_VISUALSTYLE
340
61B
102
VTR_0.000_0.000_1.000_1.000_GRIDDISPLAY
 70
     3
102
VTR_0.000_0.000_1.000_1.000_GRIDMAJOR
 70
     5
102
VTR_0.000_0.000_1.000_1.000_DEFAULTLIGHTING
280
     1
102
VTR_0.000_0.000_1.000_1.000_DEFAULTLIGHTINGTYPE
 70
     1
102
VTR_0.000_0.000_1.000_1.000_BRIGHTNESS
141
0.0
102
VTR_0.000_0.000_1.000_1.000_CONTRAST
142
0.0
  0
DICTIONARY
  5
4
102
{ACAD_REACTORS
330
3
102
}
330
3
100
AcDbDictionary
281
     1
  0
XRECORD
  5
1F
102
{ACAD_REACTORS
330
1E
102
}
330
1E
100
AcDbXrecord
280
     1
290
     1
  0
XRECORD
  5
35C
102
{ACAD_REACTORS
330
35B
102
}
330
35B
100
AcDbXrecord
280
     1
290
     1
  0
XRECORD
  5
6
102
{ACAD_REACTORS
330
5
102
}
330
5
100
AcDbXrecord
280
     1
290
     1
  0
XRECORD
  5
6F
102
{ACAD_REACTORS
330
6E
102
}
330
6E
100
AcDbXrecord
280
     1
290
     1
  0
XRECORD
  5
7C
102
{ACAD_REACTORS
330
7B
102
}
330
7B
100
AcDbXrecord
280
     1
290
     1
  0
XRECORD
  5
8B
102
{ACAD_REACTORS
330
8A
102
}
330
8A
100
AcDbXrecord
280
     1
290
     1
  0
SORTENTSTABLE
  5
1B
102
{ACAD_REACTORS
330
1A
102
}
330
1A
100
AcDbSortentsTable
330
19
331
0
  5
520
331
4D3
  5
4D4
331
4D4
  5
4D5
331
4D5
  5
4D7
331
4D6
  5
4D8
331
4D7
  5
4D9
331
4D8
  5
4DA
331
4D9
  5
4DB
331
4DA
  5
4DC
331
4DB
  5
4DD
331
4DC
  5
4DE
331
4DD
  5
4E0
331
4DE
  5
4E1
331
4E0
  5
4E2
331
4E1
  5
4E3
331
4E2
  5
4E4
331
4E3
  5
4E5
331
4E5
  5
4E8
331
4E6
  5
4E9
331
4E7
  5
4EA
331
4E8
  5
4EB
331
4E9
  5
4EC
331
4EA
  5
4ED
331
4EB
  5
4EE
331
4EC
  5
4EF
331
4ED
  5
4F0
331
4EE
  5
4F1
331
4EF
  5
4F2
331
4F0
  5
4F3
331
4F1
  5
4F4
331
4F2
  5
4F5
331
4F3
  5
4F6
331
4F4
  5
4F7
331
4F5
  5
4F8
331
4F6
  5
4F9
331
4F7
  5
4FA
331
4F8
  5
4FB
331
4F9
  5
4FC
331
4FA
  5
4FD
331
4FB
  5
4FE
331
4FC
  5
4FF
331
4FD
  5
500
331
4FE
  5
501
331
4FF
  5
502
331
500
  5
503
331
501
  5
504
331
502
  5
505
331
503
  5
506
331
504
  5
507
331
505
  5
508
331
506
  5
509
331
507
  5
50A
331
508
  5
50B
331
509
  5
50C
331
50A
  5
50D
331
50B
  5
50E
331
50C
  5
50F
331
50D
  5
510
331
50E
  5
511
331
50F
  5
512
331
510
  5
513
331
511
  5
514
331
512
  5
515
331
513
  5
516
331
514
  5
517
331
515
  5
518
331
516
  5
519
331
517
  5
51A
331
518
  5
51B
331
519
  5
51C
331
51A
  5
51D
331
51B
  5
51E
331
51C
  5
51F
331
525
  5
528
331
526
  5
529
331
527
  5
52A
331
528
  5
52B
331
529
  5
52C
331
52A
  5
52D
331
52B
  5
52E
331
530
  5
533
331
536
  5
539
331
537
  5
53A
331
538
  5
53B
331
539
  5
53C
331
53E
  5
541
331
53F
  5
542
331
540
  5
543
331
55A
  5
55D
331
55B
  5
55E
331
55C
  5
55F
331
55D
  5
560
331
55F
  5
562
331
560
  5
563
331
561
  5
564
331
562
  5
565
331
568
  5
56B
331
569
  5
56C
331
56A
  5
56D
331
56B
  5
56E
331
56C
  5
56F
331
56D
  5
570
331
56E
  5
571
331
56F
  5
572
331
570
  5
573
331
571
  5
574
331
572
  5
575
331
573
  5
576
331
574
  5
577
331
575
  5
578
331
576
  5
579
331
577
  5
57A
331
578
  5
57B
331
579
  5
57C
331
57A
  5
57D
331
57B
  5
57E
331
57C
  5
57F
331
57D
  5
580
331
57E
  5
581
331
57F
  5
582
331
580
  5
583
331
581
  5
584
331
582
  5
585
331
583
  5
586
331
584
  5
587
331
585
  5
588
331
586
  5
589
331
587
  5
58A
331
588
  5
58B
331
589
  5
58C
331
58A
  5
58D
331
58B
  5
58E
331
58C
  5
58F
331
58D
  5
590
331
58E
  5
591
331
58F
  5
592
331
590
  5
593
331
591
  5
594
331
592
  5
595
331
593
  5
596
331
594
  5
597
331
595
  5
598
331
596
  5
599
331
597
  5
59A
331
598
  5
59B
331
599
  5
59C
331
59A
  5
59D
331
59B
  5
59E
331
59C
  5
59F
331
59D
  5
5A0
331
59E
  5
5A1
331
59F
  5
5A2
331
5A0
  5
5A3
331
5A1
  5
5A4
331
5A2
  5
5A5
331
5A3
  5
5A6
331
5A4
  5
5A7
331
5A5
  5
5A8
331
5A6
  5
5A9
331
5A7
  5
5AA
331
5A8
  5
5AB
331
5A9
  5
5AC
331
5AA
  5
5AD
331
5AB
  5
5AE
331
5AC
  5
5AF
331
5AD
  5
5B0
331
5AE
  5
5B1
331
5AF
  5
5B2
331
5B0
  5
5B3
331
5B1
  5
5B4
331
5B2
  5
5B5
331
5B3
  5
5B6
331
5B4
  5
5B7
331
5B5
  5
5B8
331
5B6
  5
5B9
331
5B7
  5
5BA
331
5B8
  5
5BB
331
5B9
  5
5BC
331
5BA
  5
5BD
331
5BB
  5
5BE
331
5BC
  5
5BF
331
5BD
  5
5C0
331
5BE
  5
5C1
331
5BF
  5
5C2
331
5C0
  5
5C3
331
5C1
  5
5C4
331
5C2
  5
5C5
331
5C3
  5
5C6
331
5C4
  5
5C7
331
5C5
  5
5C8
331
5C6
  5
5C9
331
5C7
  5
5CA
331
5C8
  5
5CB
331
5C9
  5
5CC
331
5CA
  5
5CD
331
5CB
  5
5CE
331
5CC
  5
5CF
331
5CD
  5
5D0
331
5CE
  5
5D1
331
5CF
  5
5D2
331
5D0
  5
5D3
331
5D1
  5
5D4
331
5D2
  5
5D5
331
5D3
  5
5D6
331
5D4
  5
5D7
331
5D5
  5
5D8
331
5D6
  5
5D9
331
5D7
  5
5DA
331
5D8
  5
5DB
331
5D9
  5
5DC
331
5DA
  5
5DD
331
5DB
  5
5DE
331
5DC
  5
5DF
331
5DD
  5
5E0
331
5DE
  5
5E1
331
5DF
  5
5E2
331
5E0
  5
5E3
331
5E1
  5
5E4
331
5E2
  5
5E5
331
5E3
  5
5E6
331
5E4
  5
5E7
331
5E5
  5
5E8
331
5E6
  5
5E9
331
5E7
  5
5EA
331
5E8
  5
5EB
331
5E9
  5
5EC
331
5EA
  5
5ED
331
5EB
  5
5EE
331
5EC
  5
5EF
331
5ED
  5
5F0
331
5EE
  5
5F1
331
5EF
  5
5F2
331
5F0
  5
5F3
331
5F1
  5
5F4
331
5F2
  5
5F5
331
5F3
  5
5F6
331
5F4
  5
5F7
331
5F5
  5
5F8
331
5F6
  5
5F9
331
5F7
  5
5FA
331
5F8
  5
5FB
331
5F9
  5
5FC
331
5FA
  5
5FD
331
5FB
  5
5FE
331
5FC
  5
5FF
331
5FD
  5
600
331
5FE
  5
601
331
5FF
  5
602
331
600
  5
603
331
601
  5
604
331
602
  5
605
331
603
  5
606
331
604
  5
607
331
605
  5
608
331
606
  5
609
331
607
  5
60A
331
608
  5
60B
331
609
  5
60C
331
60A
  5
60D
331
60B
  5
60E
331
60C
  5
60F
331
60D
  5
610
331
60E
  5
62F
331
60F
  5
630
331
610
  5
631
331
62F
  5
632
331
630
  5
633
331
632
  5
4D6
331
633
  5
635
331
634
  5
636
331
635
  5
4D3
331
64A
  5
4E7
  0
LAYOUT
  5
21
102
{ACAD_REACTORS
330
22
102
}
330
22
100
AcDbPlotSettings
  1

  2
Bullzip PDF Printer.pc3
  4
A3
  6

 40
0.2
 41
0.0
 42
0.0
 43
0.0
 44
420.2
 45
297.1
 46
25.0
 47
12.0
 48
131.9999998100004
 49
10.0
140
2423.999994560001
141
1644.999996185
142
1.0
143
6.0
 70
 11936
 72
     1
 73
     0
 74
     4
  7
monochrome.ctb
 75
     0
147
0.1744210990985904
148
-131.9999998100004
149
-10.0
100
AcDbLayout
  1
Model
 70
     0
 71
     0
 10
0.0
 20
0.0
 11
12.0
 21
9.0
 12
0.0
 22
0.0
 32
0.0
 14
233.2232430432969
 24
64.12615488928441
 34
0.0
 15
1985.115613097071
 25
1826.085594808895
 35
0.0
146
0.0
 13
0.0
 23
0.0
 33
0.0
 16
1.0
 26
0.0
 36
0.0
 17
0.0
 27
1.0
 37
0.0
 76
     0
330
19
331
33
1001
ACAD_PSEXT
1000
Bullzip PDF Printer.pc3
1000
Bullzip PDF Printer
1000
BULLZIP
1000
Bullzip PDF Printer 10.1.0.1871
1070
     0
  0
LAYOUT
  5
28
102
{ACAD_REACTORS
330
22
102
}
330
22
100
AcDbPlotSettings
  1

  2
SR-LP8300F
  4

  6

 40
0.0
 41
0.0
 42
0.0
 43
0.0
 44
0.0
 45
0.0
 46
0.0
 47
0.0
 48
0.0
 49
0.0
140
0.0
141
0.0
142
1.0
143
1.0
 70
   688
 72
     0
 73
     0
 74
     5
  7
monochrome.ctb
 75
    16
147
1.0
148
0.0
149
0.0
100
AcDbLayout
  1
ﾚｲｱｳﾄ1
 70
     0
 71
     1
 10
0.0
 20
0.0
 11
12.0
 21
9.0
 12
0.0
 22
0.0
 32
0.0
 14
1.000000000000000E+20
 24
1.000000000000000E+20
 34
1.000000000000000E+20
 15
-1.000000000000000E+20
 25
-1.000000000000000E+20
 35
-1.000000000000000E+20
146
0.0
 13
0.0
 23
0.0
 33
0.0
 16
1.0
 26
0.0
 36
0.0
 17
0.0
 27
1.0
 37
0.0
 76
     0
330
25
  0
MATERIAL
  5
69
102
{ACAD_REACTORS
330
B
102
}
102
{ACAD_XDICTIONARY
360
680
102
}
330
B
100
AcDbMaterial
  1
ByBlock
 72
     0
 73
     2
 43
0.0208333333333333
 43
0.0
 43
0.0
 43
0.0
 43
0.0
 43
0.0208333333333333
 43
0.0
 43
0.0
 43
0.0
 43
0.0
 43
1.0
 43
0.0
 43
0.0
 43
0.0
 43
0.0
 43
1.0
 77
     0
 78
     2
 47
0.0208333333333333
 47
0.0
 47
0.0
 47
0.0
 47
0.0
 47
0.0208333333333333
 47
0.0
 47
0.0
 47
0.0
 47
0.0
 47
1.0
 47
0.0
 47
0.0
 47
0.0
 47
0.0
 47
1.0
171
     0
172
     2
 49
0.0208333333333333
 49
0.0
 49
0.0
 49
0.0
 49
0.0
 49
0.0208333333333333
 49
0.0
 49
0.0
 49
0.0
 49
0.0
 49
1.0
 49
0.0
 49
0.0
 49
0.0
 49
0.0
 49
1.0
175
     0
176
     2
142
0.0208333333333333
142
0.0
142
0.0
142
0.0
142
0.0
142
0.0208333333333333
142
0.0
142
0.0
142
0.0
142
0.0
142
1.0
142
0.0
142
0.0
142
0.0
142
0.0
142
1.0
179
     0
270
     2
144
0.0208333333333333
144
0.0
144
0.0
144
0.0
144
0.0
144
0.0208333333333333
144
0.0
144
0.0
144
0.0
144
0.0
144
1.0
144
0.0
144
0.0
144
0.0
144
0.0
144
1.0
274
     2
147
0.0208333333333333
147
0.0
147
0.0
147
0.0
147
0.0
147
0.0208333333333333
147
0.0
147
0.0
147
0.0
147
0.0
147
1.0
147
0.0
147
0.0
147
0.0
147
0.0
147
1.0
  0
MATERIAL
  5
12
102
{ACAD_REACTORS
330
B
102
}
102
{ACAD_XDICTIONARY
360
67C
102
}
330
B
100
AcDbMaterial
  1
ByLayer
 72
     0
 73
     2
 43
0.0208333333333333
 43
0.0
 43
0.0
 43
0.0
 43
0.0
 43
0.0208333333333333
 43
0.0
 43
0.0
 43
0.0
 43
0.0
 43
1.0
 43
0.0
 43
0.0
 43
0.0
 43
0.0
 43
1.0
 77
     0
 78
     2
 47
0.0208333333333333
 47
0.0
 47
0.0
 47
0.0
 47
0.0
 47
0.0208333333333333
 47
0.0
 47
0.0
 47
0.0
 47
0.0
 47
1.0
 47
0.0
 47
0.0
 47
0.0
 47
0.0
 47
1.0
171
     0
172
     2
 49
0.0208333333333333
 49
0.0
 49
0.0
 49
0.0
 49
0.0
 49
0.0208333333333333
 49
0.0
 49
0.0
 49
0.0
 49
0.0
 49
1.0
 49
0.0
 49
0.0
 49
0.0
 49
0.0
 49
1.0
175
     0
176
     2
142
0.0208333333333333
142
0.0
142
0.0
142
0.0
142
0.0
142
0.0208333333333333
142
0.0
142
0.0
142
0.0
142
0.0
142
1.0
142
0.0
142
0.0
142
0.0
142
0.0
142
1.0
179
     0
270
     2
144
0.0208333333333333
144
0.0
144
0.0
144
0.0
144
0.0
144
0.0208333333333333
144
0.0
144
0.0
144
0.0
144
0.0
144
1.0
144
0.0
144
0.0
144
0.0
144
0.0
144
1.0
274
     2
147
0.0208333333333333
147
0.0
147
0.0
147
0.0
147
0.0
147
0.0208333333333333
147
0.0
147
0.0
147
0.0
147
0.0
147
1.0
147
0.0
147
0.0
147
0.0
147
0.0
147
1.0
  0
MATERIAL
  5
A
102
{ACAD_REACTORS
330
B
102
}
102
{ACAD_XDICTIONARY
360
67E
102
}
330
B
100
AcDbMaterial
  1
Global
 72
     0
 73
     2
 43
0.0208333333333333
 43
0.0
 43
0.0
 43
0.0
 43
0.0
 43
0.0208333333333333
 43
0.0
 43
0.0
 43
0.0
 43
0.0
 43
1.0
 43
0.0
 43
0.0
 43
0.0
 43
0.0
 43
1.0
 77
     0
 78
     2
 47
0.0208333333333333
 47
0.0
 47
0.0
 47
0.0
 47
0.0
 47
0.0208333333333333
 47
0.0
 47
0.0
 47
0.0
 47
0.0
 47
1.0
 47
0.0
 47
0.0
 47
0.0
 47
0.0
 47
1.0
171
     0
172
     2
 49
0.0208333333333333
 49
0.0
 49
0.0
 49
0.0
 49
0.0
 49
0.0208333333333333
 49
0.0
 49
0.0
 49
0.0
 49
0.0
 49
1.0
 49
0.0
 49
0.0
 49
0.0
 49
0.0
 49
1.0
175
     0
176
     2
142
0.0208333333333333
142
0.0
142
0.0
142
0.0
142
0.0
142
0.0208333333333333
142
0.0
142
0.0
142
0.0
142
0.0
142
1.0
142
0.0
142
0.0
142
0.0
142
0.0
142
1.0
179
     0
270
     2
144
0.0208333333333333
144
0.0
144
0.0
144
0.0
144
0.0
144
0.0208333333333333
144
0.0
144
0.0
144
0.0
144
0.0
144
1.0
144
0.0
144
0.0
144
0.0
144
0.0
144
1.0
274
     2
147
0.0208333333333333
147
0.0
147
0.0
147
0.0
147
0.0
147
0.0208333333333333
147
0.0
147
0.0
147
0.0
147
0.0
147
1.0
147
0.0
147
0.0
147
0.0
147
0.0
147
1.0
  0
MLEADERSTYLE
  5
62D
102
{ACAD_REACTORS
330
614
102
}
102
{ACAD_XDICTIONARY
360
6B2
102
}
330
614
100
AcDbMLeaderStyle
170
     2
171
     1
172
     0
 90
        2
 40
0.0
 41
0.0
173
     1
 91
-1056964608
340
F
 92
       -2
290
     1
 42
0.09
291
     1
 43
0.36
  3
Standard
341
0
 44
0.18
300

342
10
174
     1
178
     6
175
     1
176
     0
 93
-1056964608
 45
0.18
292
     0
297
     0
 46
0.18
343
0
 94
-1056964608
 47
1.0
 49
1.0
140
1.0
293
     1
141
0.0
294
     1
177
     0
142
1.0
295
     0
296
     0
143
0.125
1001
ACAD_MLEADERVER
1070
     2
  0
MLINESTYLE
  5
16
102
{ACAD_REACTORS
330
17
102
}
330
17
100
AcDbMlineStyle
  2
STANDARD
 70
     0
  3

 62
     0
 51
90.0
 52
90.0
 71
     2
 49
0.5
 62
   256
  6
BYLAYER
 49
-0.5
 62
   256
  6
BYLAYER
  0
ACDBPLACEHOLDER
  5
7
102
{ACAD_REACTORS
330
8
102
}
330
8
  0
SCALE
  5
58
102
{ACAD_REACTORS
330
36
102
}
330
36
100
AcDbScale
 70
     0
300
1:1
140
1.0
141
1.0
290
     1
  0
SCALE
  5
61
102
{ACAD_REACTORS
330
36
102
}
330
36
100
AcDbScale
 70
     0
300
3/8" = 1'-0"
140
0.375
141
12.0
290
     0
  0
SCALE
  5
62
102
{ACAD_REACTORS
330
36
102
}
330
36
100
AcDbScale
 70
     0
300
1/2" = 1'-0"
140
0.5
141
12.0
290
     0
  0
SCALE
  5
63
102
{ACAD_REACTORS
330
36
102
}
330
36
100
AcDbScale
 70
     0
300
3/4" = 1'-0"
140
0.75
141
12.0
290
     0
  0
SCALE
  5
64
102
{ACAD_REACTORS
330
36
102
}
330
36
100
AcDbScale
 70
     0
300
1" = 1'-0"
140
1.0
141
12.0
290
     0
  0
SCALE
  5
65
102
{ACAD_REACTORS
330
36
102
}
330
36
100
AcDbScale
 70
     0
300
1-1/2" = 1'-0"
140
1.5
141
12.0
290
     0
  0
SCALE
  5
66
102
{ACAD_REACTORS
330
36
102
}
330
36
100
AcDbScale
 70
     0
300
3" = 1'-0"
140
3.0
141
12.0
290
     0
  0
SCALE
  5
67
102
{ACAD_REACTORS
330
36
102
}
330
36
100
AcDbScale
 70
     0
300
6" = 1'-0"
140
6.0
141
12.0
290
     0
  0
SCALE
  5
68
102
{ACAD_REACTORS
330
36
102
}
330
36
100
AcDbScale
 70
     0
300
1'-0" = 1'-0"
140
12.0
141
12.0
290
     0
  0
SCALE
  5
59
102
{ACAD_REACTORS
330
36
102
}
330
36
100
AcDbScale
 70
     0
300
1/128" = 1'-0"
140
0.0078125
141
12.0
290
     0
  0
SCALE
  5
5A
102
{ACAD_REACTORS
330
36
102
}
330
36
100
AcDbScale
 70
     0
300
1/64" = 1'-0"
140
0.015625
141
12.0
290
     0
  0
SCALE
  5
5B
102
{ACAD_REACTORS
330
36
102
}
330
36
100
AcDbScale
 70
     0
300
1/32" = 1'-0"
140
0.03125
141
12.0
290
     0
  0
SCALE
  5
5C
102
{ACAD_REACTORS
330
36
102
}
330
36
100
AcDbScale
 70
     0
300
1/16" = 1'-0"
140
0.0625
141
12.0
290
     0
  0
SCALE
  5
5D
102
{ACAD_REACTORS
330
36
102
}
330
36
100
AcDbScale
 70
     0
300
3/32" = 1'-0"
140
0.09375
141
12.0
290
     0
  0
SCALE
  5
5E
102
{ACAD_REACTORS
330
36
102
}
330
36
100
AcDbScale
 70
     0
300
1/8" = 1'-0"
140
0.125
141
12.0
290
     0
  0
SCALE
  5
5F
102
{ACAD_REACTORS
330
36
102
}
330
36
100
AcDbScale
 70
     0
300
3/16" = 1'-0"
140
0.1875
141
12.0
290
     0
  0
SCALE
  5
60
102
{ACAD_REACTORS
330
36
102
}
330
36
100
AcDbScale
 70
     0
300
1/4" = 1'-0"
140
0.25
141
12.0
290
     0
  0
TABLESTYLE
  5
671
102
{ACAD_REACTORS
330
613
102
}
330
613
100
AcDbTableStyle
  3
Standard
 70
     0
 71
     0
 40
0.06
 41
0.06
280
     0
281
     0
  7
STANDARD
140
0.18
170
     2
 62
     0
 63
   257
283
     0
274
    -2
284
     1
 64
     0
275
    -2
285
     1
 65
     0
276
    -2
286
     1
 66
     0
277
    -2
287
     1
 67
     0
278
    -2
288
     1
 68
     0
279
    -2
289
     1
 69
     0
  7
STANDARD
140
0.25
170
     5
 62
     0
 63
   257
283
     0
274
    -2
284
     1
 64
     0
275
    -2
285
     1
 65
     0
276
    -2
286
     1
 66
     0
277
    -2
287
     1
 67
     0
278
    -2
288
     1
 68
     0
279
    -2
289
     1
 69
     0
  7
STANDARD
140
0.18
170
     5
 62
     0
 63
   257
283
     0
274
    -2
284
     1
 64
     0
275
    -2
285
     1
 65
     0
276
    -2
286
     1
 66
     0
277
    -2
287
     1
 67
     0
278
    -2
288
     1
 68
     0
279
    -2
289
     1
 69
     0
  0
VISUALSTYLE
  5
61B
102
{ACAD_REACTORS
330
2F
102
}
102
{ACAD_XDICTIONARY
360
68E
102
}
330
2F
100
AcDbVisualStyle
  2
2dWireframe
 70
     4
 71
     0
 72
     2
 73
     0
 90
        0
 40
0.6
 41
30.0
 62
     5
 63
     7
 74
     1
 91
        4
 64
     7
 65
   257
 75
     1
175
     1
 42
1.0
 92
        0
 66
   257
 43
1.0
 76
     1
 77
     6
 78
     2
 67
     7
 79
     5
170
     0
171
     0
290
     0
174
     0
 93
        1
 44
0.0
173
     0
291
     0
 45
0.0
1001
ACAD
1000
AcDbSavedByObjectVersion
1070
     0
  0
VISUALSTYLE
  5
61D
102
{ACAD_REACTORS
330
2F
102
}
102
{ACAD_XDICTIONARY
360
692
102
}
330
2F
100
AcDbVisualStyle
  2
Basic
 70
     7
 71
     1
 72
     0
 73
     1
 90
        0
 40
0.6
 41
30.0
 62
     5
 63
     7
 74
     0
 91
        4
 64
     7
 65
   257
 75
     1
175
     1
 42
1.0
 92
        8
 66
     7
 43
1.0
 76
     1
 77
     6
 78
     2
 67
     7
 79
     5
170
     0
171
     0
290
     0
174
     0
 93
        1
 44
0.0
173
     0
291
     1
 45
0.0
1001
ACAD
1000
AcDbSavedByObjectVersion
1070
     0
  0
VISUALSTYLE
  5
620
102
{ACAD_REACTORS
330
2F
102
}
102
{ACAD_XDICTIONARY
360
698
102
}
330
2F
100
AcDbVisualStyle
  2
Brighten
 70
    12
 71
     2
 72
     2
 73
     0
 90
        0
 40
0.6
 41
30.0
 62
     5
 63
     7
 74
     1
 91
        4
 64
     7
 65
   257
 75
     1
175
     1
 42
1.0
 92
        8
 66
     7
 43
1.0
 76
     1
 77
     6
 78
     2
 67
     7
 79
     5
170
     0
171
     0
290
     0
174
     0
 93
        1
 44
50.0
173
     0
291
     1
 45
0.0
1001
ACAD
1000
AcDbSavedByObjectVersion
1070
     0
  0
VISUALSTYLE
  5
624
102
{ACAD_REACTORS
330
2F
102
}
102
{ACAD_XDICTIONARY
360
6A0
102
}
330
2F
100
AcDbVisualStyle
  2
ColorChange
 70
    16
 71
     2
 72
     2
 73
     3
 90
        0
 40
0.6
 41
30.0
 62
     5
 63
     8
 74
     1
 91
        4
 64
     7
 65
   257
 75
     1
175
     1
 42
1.0
 92
        8
 66
     8
 43
1.0
 76
     1
 77
     6
 78
     2
 67
     7
 79
     5
170
     0
171
     0
290
     0
174
     0
 93
        1
 44
0.0
173
     0
291
     1
 45
0.0
1001
ACAD
1000
AcDbSavedByObjectVersion
1070
     0
  0
VISUALSTYLE
  5
61E
102
{ACAD_REACTORS
330
2F
102
}
102
{ACAD_XDICTIONARY
360
694
102
}
330
2F
100
AcDbVisualStyle
  2
Conceptual
 70
     9
 71
     3
 72
     2
 73
     0
 90
        0
 40
0.6
 41
30.0
 62
     5
 63
     7
 74
     2
 91
        2
 64
     7
 65
   257
 75
     1
175
     1
 42
40.0
 92
        8
 66
     7
 43
1.0
 76
     1
 77
     6
 78
     2
 67
     7
 79
     3
170
     0
171
     0
290
     0
174
     0
 93
        1
 44
0.0
173
     0
291
     0
 45
0.0
1001
ACAD
1000
AcDbSavedByObjectVersion
1070
     0
  0
VISUALSTYLE
  5
61F
102
{ACAD_REACTORS
330
2F
102
}
102
{ACAD_XDICTIONARY
360
696
102
}
330
2F
100
AcDbVisualStyle
  2
Dim
 70
    11
 71
     2
 72
     2
 73
     0
 90
        0
 40
0.6
 41
30.0
 62
     5
 63
     7
 74
     1
 91
        4
 64
     7
 65
   257
 75
     1
175
     1
 42
1.0
 92
        8
 66
     7
 43
1.0
 76
     1
 77
     6
 78
     2
 67
     7
 79
     5
170
     0
171
     0
290
     0
174
     0
 93
        1
 44
-50.0
173
     0
291
     1
 45
0.0
1001
ACAD
1000
AcDbSavedByObjectVersion
1070
     0
  0
VISUALSTYLE
  5
627
102
{ACAD_REACTORS
330
2F
102
}
102
{ACAD_XDICTIONARY
360
6A6
102
}
330
2F
100
AcDbVisualStyle
  2
EdgeColorOff
 70
    22
 71
     2
 72
     2
 73
     0
 90
        0
 40
0.6
 41
30.0
 62
     5
 63
     7
 74
     1
 91
        4
 64
     7
 65
   257
 75
     1
175
     1
 42
1.0
 92
        8
 66
     7
 43
1.0
 76
     1
 77
     6
 78
     2
 67
     7
 79
     5
170
     0
171
     0
290
     0
174
     0
 93
        1
 44
0.0
173
     0
291
     1
 45
0.0
1001
ACAD
1000
AcDbSavedByObjectVersion
1070
     0
  0
VISUALSTYLE
  5
623
102
{ACAD_REACTORS
330
2F
102
}
102
{ACAD_XDICTIONARY
360
69E
102
}
330
2F
100
AcDbVisualStyle
  2
Facepattern
 70
    15
 71
     2
 72
     2
 73
     0
 90
        0
 40
0.6
 41
30.0
 62
     5
 63
     7
 74
     1
 91
        4
 64
     7
 65
   257
 75
     1
175
     1
 42
1.0
 92
        8
 66
     7
 43
1.0
 76
     1
 77
     6
 78
     2
 67
     7
 79
     5
170
     0
171
     0
290
     0
174
     0
 93
        1
 44
0.0
173
     0
291
     1
 45
0.0
1001
ACAD
1000
AcDbSavedByObjectVersion
1070
     0
  0
VISUALSTYLE
  5
617
102
{ACAD_REACTORS
330
2F
102
}
102
{ACAD_XDICTIONARY
360
686
102
}
330
2F
100
AcDbVisualStyle
  2
Flat
 70
     0
 71
     2
 72
     1
 73
     1
 90
        2
 40
0.6
 41
30.0
 62
     5
 63
     7
 74
     0
 91
        4
 64
     7
 65
   257
 75
     1
175
     1
 42
1.0
 92
        8
 66
     7
 43
1.0
 76
     1
 77
     6
 78
     2
 67
     7
 79
     5
170
     0
171
     0
290
     0
174
     0
 93
       13
 44
0.0
173
     0
291
     1
 45
0.0
1001
ACAD
1000
AcDbSavedByObjectVersion
1070
     0
  0
VISUALSTYLE
  5
618
102
{ACAD_REACTORS
330
2F
102
}
102
{ACAD_XDICTIONARY
360
688
102
}
330
2F
100
AcDbVisualStyle
  2
FlatWithEdges
 70
     1
 71
     2
 72
     1
 73
     1
 90
        2
 40
0.6
 41
30.0
 62
     5
 63
     7
 74
     1
 91
        4
 64
     7
 65
   257
 75
     1
175
     1
 42
1.0
 92
        0
 66
   257
 43
1.0
 76
     1
 77
     6
 78
     2
 67
     7
 79
     5
170
     0
171
     0
290
     0
174
     0
 93
       13
 44
0.0
173
     0
291
     1
 45
0.0
1001
ACAD
1000
AcDbSavedByObjectVersion
1070
     0
  0
VISUALSTYLE
  5
619
102
{ACAD_REACTORS
330
2F
102
}
102
{ACAD_XDICTIONARY
360
68A
102
}
330
2F
100
AcDbVisualStyle
  2
Gouraud
 70
     2
 71
     2
 72
     2
 73
     1
 90
        2
 40
0.6
 41
30.0
 62
     5
 63
     7
 74
     0
 91
        4
 64
     7
 65
   257
 75
     1
175
     1
 42
1.0
 92
        0
 66
     7
 43
1.0
 76
     1
 77
     6
 78
     2
 67
     7
 79
     5
170
     0
171
     0
290
     0
174
     0
 93
       13
 44
0.0
173
     0
291
     1
 45
0.0
1001
ACAD
1000
AcDbSavedByObjectVersion
1070
     0
  0
VISUALSTYLE
  5
61A
102
{ACAD_REACTORS
330
2F
102
}
102
{ACAD_XDICTIONARY
360
68C
102
}
330
2F
100
AcDbVisualStyle
  2
GouraudWithEdges
 70
     3
 71
     2
 72
     2
 73
     1
 90
        2
 40
0.6
 41
30.0
 62
     5
 63
     7
 74
     1
 91
        4
 64
     7
 65
   257
 75
     1
175
     1
 42
1.0
 92
        0
 66
   257
 43
1.0
 76
     1
 77
     6
 78
     2
 67
     7
 79
     5
170
     0
171
     0
290
     0
174
     0
 93
       13
 44
0.0
173
     0
291
     1
 45
0.0
1001
ACAD
1000
AcDbSavedByObjectVersion
1070
     0
  0
VISUALSTYLE
  5
61C
102
{ACAD_REACTORS
330
2F
102
}
102
{ACAD_XDICTIONARY
360
690
102
}
330
2F
100
AcDbVisualStyle
  2
Hidden
 70
     6
 71
     1
 72
     2
 73
     2
 90
        0
 40
0.6
 41
30.0
 62
     5
 63
     7
 74
     2
 91
        2
 64
     7
 65
   257
 75
     2
175
     1
 42
40.0
 92
        0
 66
   257
 43
1.0
 76
     1
 77
     6
 78
     2
 67
     7
 79
     3
170
     0
171
     0
290
     0
174
     0
 93
        1
 44
0.0
173
     0
291
     0
 45
0.0
1001
ACAD
1000
AcDbSavedByObjectVersion
1070
     0
  0
VISUALSTYLE
  5
625
102
{ACAD_REACTORS
330
2F
102
}
102
{ACAD_XDICTIONARY
360
6A2
102
}
330
2F
100
AcDbVisualStyle
  2
JitterOff
 70
    20
 71
     2
 72
     2
 73
     0
 90
        0
 40
0.6
 41
30.0
 62
     5
 63
     7
 74
     1
 91
        4
 64
     7
 65
   257
 75
     1
175
     1
 42
1.0
 92
       10
 66
     7
 43
1.0
 76
     1
 77
     6
 78
     2
 67
     7
 79
     5
170
     0
171
     0
290
     0
174
     0
 93
        1
 44
0.0
173
     0
291
     1
 45
0.0
1001
ACAD
1000
AcDbSavedByObjectVersion
1070
     0
  0
VISUALSTYLE
  5
622
102
{ACAD_REACTORS
330
2F
102
}
102
{ACAD_XDICTIONARY
360
69C
102
}
330
2F
100
AcDbVisualStyle
  2
Linepattern
 70
    14
 71
     2
 72
     2
 73
     0
 90
        0
 40
0.6
 41
30.0
 62
     5
 63
     7
 74
     1
 91
        4
 64
     7
 65
   257
 75
     7
175
     7
 42
1.0
 92
        8
 66
     7
 43
1.0
 76
     1
 77
     6
 78
     2
 67
     7
 79
     5
170
     0
171
     0
290
     0
174
     0
 93
        1
 44
0.0
173
     0
291
     1
 45
0.0
1001
ACAD
1000
AcDbSavedByObjectVersion
1070
     0
  0
VISUALSTYLE
  5
626
102
{ACAD_REACTORS
330
2F
102
}
102
{ACAD_XDICTIONARY
360
6A4
102
}
330
2F
100
AcDbVisualStyle
  2
OverhangOff
 70
    21
 71
     2
 72
     2
 73
     0
 90
        0
 40
0.6
 41
30.0
 62
     5
 63
     7
 74
     1
 91
        4
 64
     7
 65
   257
 75
     1
175
     1
 42
1.0
 92
        9
 66
     7
 43
1.0
 76
     1
 77
     6
 78
     2
 67
     7
 79
     5
170
     0
171
     0
290
     0
174
     0
 93
        1
 44
0.0
173
     0
291
     1
 45
0.0
1001
ACAD
1000
AcDbSavedByObjectVersion
1070
     0
  0
VISUALSTYLE
  5
30
102
{ACAD_REACTORS
330
2F
102
}
102
{ACAD_XDICTIONARY
360
682
102
}
330
2F
100
AcDbVisualStyle
  2
Realistic
 70
     8
 71
     2
 72
     3
 73
     0
 90
        2
 40
0.6
 41
30.0
 62
     5
 63
     7
 74
     0
 91
        0
 64
     7
 65
   257
 75
     1
175
     1
 42
1.0
 92
        8
 66
   257
 43
1.0
 76
     1
 77
     6
 78
     2
 67
     7
 79
     3
170
     0
171
     0
290
     0
174
     0
 93
       13
 44
0.0
173
     0
291
     0
 45
0.0
1001
ACAD
1000
AcDbSavedByObjectVersion
1070
     0
  0
VISUALSTYLE
  5
62C
102
{ACAD_REACTORS
330
2F
102
}
102
{ACAD_XDICTIONARY
360
6B0
102
}
330
2F
100
AcDbVisualStyle
  2
Shaded
 70
    27
 71
     2
 72
     2
 73
     1
 90
        2
 40
0.6
 41
30.0
 62
     5
 63
     7
 74
     0
 91
        4
 64
     7
 65
   257
 75
     1
175
     1
 42
1.0
 92
        8
 66
   257
 43
1.0
 76
     1
 77
     6
 78
     2
 67
   251
 79
     3
170
     0
171
     0
290
     0
174
     0
 93
        5
 44
0.0
173
     0
291
     0
 45
0.0
1001
ACAD
1000
AcDbSavedByObjectVersion
1070
     0
  0
VISUALSTYLE
  5
62B
102
{ACAD_REACTORS
330
2F
102
}
102
{ACAD_XDICTIONARY
360
6AE
102
}
330
2F
100
AcDbVisualStyle
  2
Shaded with edges
 70
    26
 71
     2
 72
     2
 73
     1
 90
        2
 40
0.6
 41
30.0
 62
     5
 63
     7
 74
     1
 91
       10
 64
     7
 65
   257
 75
     2
175
     1
 42
1.0
 92
        8
 66
   257
 43
1.0
 76
     1
 77
     6
 78
     2
 67
     7
 79
     3
170
     0
171
     0
290
     0
174
     0
 93
        5
 44
0.0
173
     0
291
     0
 45
0.0
1001
ACAD
1000
AcDbSavedByObjectVersion
1070
     0
  0
VISUALSTYLE
  5
628
102
{ACAD_REACTORS
330
2F
102
}
102
{ACAD_XDICTIONARY
360
6A8
102
}
330
2F
100
AcDbVisualStyle
  2
Shades of Gray
 70
    23
 71
     2
 72
     2
 73
     3
 90
        0
 40
0.6
 41
30.0
 62
     5
 63
     7
 74
     2
 91
        2
 64
     7
 65
     7
 75
     1
175
     1
 42
40.0
 92
        8
 66
     7
 43
1.0
 76
     1
 77
     6
 78
     2
 67
     7
 79
     3
170
     0
171
     0
290
     0
174
     0
 93
        1
 44
0.0
173
     0
291
     0
 45
0.0
1001
ACAD
1000
AcDbSavedByObjectVersion
1070
     0
  0
VISUALSTYLE
  5
629
102
{ACAD_REACTORS
330
2F
102
}
102
{ACAD_XDICTIONARY
360
6AA
102
}
330
2F
100
AcDbVisualStyle
  2
Sketchy
 70
    24
 71
     1
 72
     2
 73
     2
 90
        0
 40
0.6
 41
30.0
 62
     5
 63
     7
 74
     2
 91
        2
 64
     7
 65
     7
 75
     1
175
     1
 42
40.0
 92
       11
 66
     7
 43
1.0
 76
     1
 77
     6
 78
     2
 67
     7
 79
     6
170
     0
171
     0
290
     0
174
     0
 93
        1
 44
0.0
173
     0
291
     0
 45
0.0
1001
ACAD
1000
AcDbSavedByObjectVersion
1070
     0
  0
VISUALSTYLE
  5
621
102
{ACAD_REACTORS
330
2F
102
}
102
{ACAD_XDICTIONARY
360
69A
102
}
330
2F
100
AcDbVisualStyle
  2
Thicken
 70
    13
 71
     2
 72
     2
 73
     0
 90
        0
 40
0.6
 41
30.0
 62
     5
 63
     7
 74
     1
 91
        4
 64
     7
 65
   257
 75
     1
175
     1
 42
1.0
 92
       12
 66
     7
 43
1.0
 76
     1
 77
     6
 78
     2
 67
     7
 79
     5
170
     0
171
     0
290
     0
174
     0
 93
        1
 44
0.0
173
     0
291
     1
 45
0.0
1001
ACAD
1000
AcDbSavedByObjectVersion
1070
     0
  0
VISUALSTYLE
  5
31
102
{ACAD_REACTORS
330
2F
102
}
102
{ACAD_XDICTIONARY
360
684
102
}
330
2F
100
AcDbVisualStyle
  2
Wireframe
 70
     5
 71
     0
 72
     2
 73
     0
 90
        0
 40
0.6
 41
30.0
 62
     5
 63
     7
 74
     1
 91
        4
 64
     7
 65
   257
 75
     1
175
     1
 42
1.0
 92
        0
 66
   257
 43
1.0
 76
     1
 77
     6
 78
     2
 67
     7
 79
     3
170
     0
171
     0
290
     0
174
     0
 93
        1
 44
0.0
173
     0
291
     0
 45
0.0
1001
ACAD
1000
AcDbSavedByObjectVersion
1070
     0
  0
VISUALSTYLE
  5
62A
102
{ACAD_REACTORS
330
2F
102
}
102
{ACAD_XDICTIONARY
360
6AC
102
}
330
2F
100
AcDbVisualStyle
  2
X-Ray
 70
    25
 71
     2
 72
     2
 73
     1
 90
        1
 40
0.5
 41
30.0
 62
     5
 63
     7
 74
     1
 91
        0
 64
     7
 65
   257
 75
     1
175
     1
 42
1.0
 92
        8
 66
     7
 43
1.0
 76
     1
 77
     6
 78
     2
 67
     7
 79
     3
170
     0
171
     0
290
     0
174
     0
 93
       13
 44
0.0
173
     0
291
     0
 45
0.0
1001
ACAD
1000
AcDbSavedByObjectVersion
1070
     0
  0
XRECORD
  5
676
102
{ACAD_REACTORS
330
675
102
}
330
675
100
AcDbXrecord
280
     1
340
2E
  0
XRECORD
  5
677
102
{ACAD_REACTORS
330
675
102
}
330
675
100
AcDbXrecord
280
     1
340
B
  0
DICTIONARYVAR
  5
612
102
{ACAD_REACTORS
330
611
102
}
330
611
100
DictionaryVariables
280
     0
  1
1:1
  0
DICTIONARYVAR
  5
663
102
{ACAD_REACTORS
330
611
102
}
330
611
100
DictionaryVariables
280
     0
  1
Standard
  0
DICTIONARYVAR
  5
672
102
{ACAD_REACTORS
330
611
102
}
330
611
100
DictionaryVariables
280
     0
  1
Standard
  0
DICTIONARYVAR
  5
673
102
{ACAD_REACTORS
330
611
102
}
330
611
100
DictionaryVariables
280
     0
  1
0
  0
DICTIONARYVAR
  5
674
102
{ACAD_REACTORS
330
611
102
}
330
611
100
DictionaryVariables
280
     0
  1
1
  0
DICTIONARYVAR
  5
67B
102
{ACAD_REACTORS
330
611
102
}
330
611
100
DictionaryVariables
280
     0
  1
1
  0
DICTIONARY
  5
680
330
69
100
AcDbDictionary
280
     1
281
     1
  3
ACAD_XREC_ROUNDTRIP
360
681
  0
DICTIONARY
  5
67C
330
12
100
AcDbDictionary
280
     1
281
     1
  3
ACAD_XREC_ROUNDTRIP
360
67D
  0
DICTIONARY
  5
67E
330
A
100
AcDbDictionary
280
     1
281
     1
  3
ACAD_XREC_ROUNDTRIP
360
67F
  0
DICTIONARY
  5
6B2
330
62D
100
AcDbDictionary
280
     1
281
     1
  3
ACAD_XREC_ROUNDTRIP
360
6B3
  0
DICTIONARY
  5
68E
330
61B
100
AcDbDictionary
280
     1
281
     1
  3
ACAD_XREC_ROUNDTRIP
360
68F
  0
DICTIONARY
  5
692
330
61D
100
AcDbDictionary
280
     1
281
     1
  3
ACAD_XREC_ROUNDTRIP
360
693
  0
DICTIONARY
  5
698
330
620
100
AcDbDictionary
280
     1
281
     1
  3
ACAD_XREC_ROUNDTRIP
360
699
  0
DICTIONARY
  5
6A0
330
624
100
AcDbDictionary
280
     1
281
     1
  3
ACAD_XREC_ROUNDTRIP
360
6A1
  0
DICTIONARY
  5
694
330
61E
100
AcDbDictionary
280
     1
281
     1
  3
ACAD_XREC_ROUNDTRIP
360
695
  0
DICTIONARY
  5
696
330
61F
100
AcDbDictionary
280
     1
281
     1
  3
ACAD_XREC_ROUNDTRIP
360
697
  0
DICTIONARY
  5
6A6
330
627
100
AcDbDictionary
280
     1
281
     1
  3
ACAD_XREC_ROUNDTRIP
360
6A7
  0
DICTIONARY
  5
69E
330
623
100
AcDbDictionary
280
     1
281
     1
  3
ACAD_XREC_ROUNDTRIP
360
69F
  0
DICTIONARY
  5
686
330
617
100
AcDbDictionary
280
     1
281
     1
  3
ACAD_XREC_ROUNDTRIP
360
687
  0
DICTIONARY
  5
688
330
618
100
AcDbDictionary
280
     1
281
     1
  3
ACAD_XREC_ROUNDTRIP
360
689
  0
DICTIONARY
  5
68A
330
619
100
AcDbDictionary
280
     1
281
     1
  3
ACAD_XREC_ROUNDTRIP
360
68B
  0
DICTIONARY
  5
68C
330
61A
100
AcDbDictionary
280
     1
281
     1
  3
ACAD_XREC_ROUNDTRIP
360
68D
  0
DICTIONARY
  5
690
330
61C
100
AcDbDictionary
280
     1
281
     1
  3
ACAD_XREC_ROUNDTRIP
360
691
  0
DICTIONARY
  5
6A2
330
625
100
AcDbDictionary
280
     1
281
     1
  3
ACAD_XREC_ROUNDTRIP
360
6A3
  0
DICTIONARY
  5
69C
330
622
100
AcDbDictionary
280
     1
281
     1
  3
ACAD_XREC_ROUNDTRIP
360
69D
  0
DICTIONARY
  5
6A4
330
626
100
AcDbDictionary
280
     1
281
     1
  3
ACAD_XREC_ROUNDTRIP
360
6A5
  0
DICTIONARY
  5
682
330
30
100
AcDbDictionary
280
     1
281
     1
  3
ACAD_XREC_ROUNDTRIP
360
683
  0
DICTIONARY
  5
6B0
330
62C
100
AcDbDictionary
280
     1
281
     1
  3
ACAD_XREC_ROUNDTRIP
360
6B1
  0
DICTIONARY
  5
6AE
330
62B
100
AcDbDictionary
280
     1
281
     1
  3
ACAD_XREC_ROUNDTRIP
360
6AF
  0
DICTIONARY
  5
6A8
330
628
100
AcDbDictionary
280
     1
281
     1
  3
ACAD_XREC_ROUNDTRIP
360
6A9
  0
DICTIONARY
  5
6AA
330
629
100
AcDbDictionary
280
     1
281
     1
  3
ACAD_XREC_ROUNDTRIP
360
6AB
  0
DICTIONARY
  5
69A
330
621
100
AcDbDictionary
280
     1
281
     1
  3
ACAD_XREC_ROUNDTRIP
360
69B
  0
DICTIONARY
  5
684
330
31
100
AcDbDictionary
280
     1
281
     1
  3
ACAD_XREC_ROUNDTRIP
360
685
  0
DICTIONARY
  5
6AC
330
62A
100
AcDbDictionary
280
     1
281
     1
  3
ACAD_XREC_ROUNDTRIP
360
6AD
  0
XRECORD
  5
681
102
{ACAD_REACTORS
330
680
102
}
330
680
100
AcDbXrecord
280
     1
102
MATERIAL
148
0.0
149
0.0
149
0.0
 93
        0
 94
      127
282
     0
 72
     0
 77
     0
171
     0
175
     0
179
     0
273
     0
  0
XRECORD
  5
67D
102
{ACAD_REACTORS
330
67C
102
}
330
67C
100
AcDbXrecord
280
     1
102
MATERIAL
148
0.0
149
0.0
149
0.0
 93
        0
 94
      127
282
     0
 72
     0
 77
     0
171
     0
175
     0
179
     0
273
     0
  0
XRECORD
  5
67F
102
{ACAD_REACTORS
330
67E
102
}
330
67E
100
AcDbXrecord
280
     1
102
MATERIAL
148
0.0
149
0.0
149
0.0
 93
        0
 94
      127
282
     0
 72
     0
 77
     0
171
     0
175
     0
179
     0
273
     0
  0
XRECORD
  5
6B3
102
{ACAD_REACTORS
330
6B2
102
}
330
6B2
100
AcDbXrecord
280
     1
102
ACAD_ROUNDTRIP_2010_MLEADER_STYLE
  0
XRECORD
  5
68F
102
{ACAD_REACTORS
330
68E
102
}
330
68E
100
AcDbXrecord
280
     1
102
RTVSPropertyOp0
 70
     1
102
RTVSPropertyOp1
 70
     1
102
RTVSPropertyOp2
 70
     1
102
RTVSPropertyOp3
 70
     1
102
RTVSPropertyOp4
 70
     1
102
RTVSPropertyOp5
 70
     1
102
RTVSPropertyOp6
 70
     1
102
RTVSPropertyOp7
 70
     1
102
RTVSPropertyOp8
 70
     1
102
RTVSPropertyOp9
 70
     1
102
RTVSPropertyOp10
 70
     1
102
RTVSPropertyOp11
 70
     1
102
RTVSPropertyOp12
 70
     1
102
RTVSPropertyOp13
 70
     1
102
RTVSPropertyOp14
 70
     1
102
RTVSPropertyOp15
 70
     1
102
RTVSPropertyOp16
 70
     1
102
RTVSPropertyOp17
 70
     1
102
RTVSPropertyOp18
 70
     1
102
RTVSPropertyOp19
 70
     1
102
RTVSPropertyOp20
 70
     1
102
RTVSPropertyOp21
 70
     1
102
RTVSPropertyOp22
 70
     1
102
RTVSPropertyOp23
 70
     1
102
RTVSPropertyOp24
 70
     1
102
RTVSPropertyOp25
 70
     1
102
RTVSPropertyOp26
 70
     1
102
RTVSPropertyOp27
 70
     1
102
RTVSPropertyOp28
 70
     1
102
RTVSPropertyOp29
 70
     1
102
RTVSPropertyOp30
 70
     1
102
RTVSPropertyOp31
 70
     1
102
RTVSPropertyOp32
 70
     1
102
RTVSPropertyOp33
 70
     1
102
RTVSPropertyOp34
 70
     1
102
RTVSPropertyOp35
 70
     1
102
RTVSPropertyOp36
 70
     1
102
RTVSPropertyOp37
 70
     1
102
RTVSPropertyOp38
 70
     1
102
RTVSPropertyOp39
 70
     1
102
RTVSPropertyOp40
 70
     1
102
RTVSPropertyOp41
 70
     1
102
RTVSPropertyOp42
 70
     1
102
RTVSPropertyOp43
 70
     1
102
RTVSPropertyOp44
 70
     1
102
RTVSPropertyOp45
 70
     1
102
RTVSPropertyOp46
 70
     1
102
RTVSPropertyOp47
 70
     1
102
RTVSPropertyOp48
 70
     1
102
RTVSPropertyOp49
 70
     1
102
RTVSPropertyOp50
 70
     1
102
RTVSPropertyOp51
 70
     0
102
RTVSPropertyOp52
 70
     0
102
RTVSPropertyOp53
 70
     1
102
RTVSPropertyOp54
 70
     1
102
RTVSPropertyOp55
 70
     1
102
RTVSPropertyOp56
 70
     1
102
RTVSPropertyOp57
 70
     1
102
RTVSPost2010Prop28
280
     1
102
RTVSPost2010PropOp28
 70
     1
102
RTVSPost2010Prop29
280
     1
102
RTVSPost2010PropOp29
 70
     1
102
RTVSPost2010Prop30
280
     0
102
RTVSPost2010PropOp30
 70
     1
102
RTVSPost2010Prop31
280
     0
102
RTVSPost2010PropOp31
 70
     1
102
RTVSPost2010Prop32
280
     0
102
RTVSPost2010PropOp32
 70
     1
102
RTVSPost2010Prop33
280
     0
102
RTVSPost2010PropOp33
 70
     1
102
RTVSPost2010Prop34
280
     0
102
RTVSPost2010PropOp34
 70
     1
102
RTVSPost2010Prop35
280
     0
102
RTVSPost2010PropOp35
 70
     1
102
RTVSPost2010Prop36
280
     0
102
RTVSPost2010PropOp36
 70
     1
102
RTVSPost2010Prop37
 90
       50
102
RTVSPost2010PropOp37
 70
     1
102
RTVSPost2010Prop38
140
0.0
102
RTVSPost2010PropOp38
 70
     1
102
RTVSPost2010Prop39
140
1.0
102
RTVSPost2010PropOp39
 70
     1
102
RTVSPost2010Prop40
 90
        0
102
RTVSPost2010PropOp40
 70
     1
102
RTVSPost2010Prop41ColorIndex
 90
       18
102
RTVSPost2010Prop41ColorRGB
 90
        0
102
RTVSPost2010PropOp41
 70
     1
102
RTVSPost2010Prop42
 90
       50
102
RTVSPost2010PropOp42
 70
     1
102
RTVSPost2010Prop43
 90
        3
102
RTVSPost2010PropOp43
 70
     1
102
RTVSPost2010Prop44ColorIndex
 90
        5
102
RTVSPost2010Prop44ColorRGB
 90
      255
102
RTVSPost2010PropOp44
 70
     1
102
RTVSPost2010Prop45
280
     0
102
RTVSPost2010PropOp45
 70
     1
102
RTVSPost2010Prop46
 90
       50
102
RTVSPost2010PropOp46
 70
     1
102
RTVSPost2010Prop47
 90
       50
102
RTVSPost2010PropOp47
 70
     1
102
RTVSPost2010Prop48
 90
       50
102
RTVSPost2010PropOp48
 70
     1
102
RTVSPost2010Prop49
280
     0
102
RTVSPost2010PropOp49
 70
     1
102
RTVSPost2010Prop50
 90
       50
102
RTVSPost2010PropOp50
 70
     1
102
RTVSPost2010Prop51ColorIndex
 90
      256
102
RTVSPost2010Prop51ColorRGB
 90
-16777216
102
RTVSPost2010PropOp51
 70
     0
102
RTVSPost2010Prop52
140
1.0
102
RTVSPost2010PropOp52
 70
     0
102
RTVSPost2010Prop53
 90
        2
102
RTVSPost2010PropOp53
 70
     1
102
RTVSPost2010Prop54
  1
strokes_ogs.tif
102
RTVSPost2010PropOp54
 70
     1
102
RTVSPost2010Prop55
280
     0
102
RTVSPost2010PropOp55
 70
     1
102
RTVSPost2010Prop56
140
1.0
102
RTVSPost2010PropOp56
 70
     1
102
RTVSPost2010Prop57
140
1.0
102
RTVSPost2010PropOp57
 70
     1
  0
XRECORD
  5
693
102
{ACAD_REACTORS
330
692
102
}
330
692
100
AcDbXrecord
280
     1
102
RTVSPropertyOp0
 70
     1
102
RTVSPropertyOp1
 70
     1
102
RTVSPropertyOp2
 70
     1
102
RTVSPropertyOp3
 70
     1
102
RTVSPropertyOp4
 70
     1
102
RTVSPropertyOp5
 70
     1
102
RTVSPropertyOp6
 70
     1
102
RTVSPropertyOp7
 70
     1
102
RTVSPropertyOp8
 70
     1
102
RTVSPropertyOp9
 70
     1
102
RTVSPropertyOp10
 70
     1
102
RTVSPropertyOp11
 70
     1
102
RTVSPropertyOp12
 70
     1
102
RTVSPropertyOp13
 70
     1
102
RTVSPropertyOp14
 70
     1
102
RTVSPropertyOp15
 70
     1
102
RTVSPropertyOp16
 70
     1
102
RTVSPropertyOp17
 70
     1
102
RTVSPropertyOp18
 70
     1
102
RTVSPropertyOp19
 70
     1
102
RTVSPropertyOp20
 70
     1
102
RTVSPropertyOp21
 70
     1
102
RTVSPropertyOp22
 70
     1
102
RTVSPropertyOp23
 70
     1
102
RTVSPropertyOp24
 70
     1
102
RTVSPropertyOp25
 70
     1
102
RTVSPropertyOp26
 70
     1
102
RTVSPropertyOp27
 70
     1
102
RTVSPropertyOp28
 70
     1
102
RTVSPropertyOp29
 70
     1
102
RTVSPropertyOp30
 70
     1
102
RTVSPropertyOp31
 70
     1
102
RTVSPropertyOp32
 70
     1
102
RTVSPropertyOp33
 70
     1
102
RTVSPropertyOp34
 70
     1
102
RTVSPropertyOp35
 70
     1
102
RTVSPropertyOp36
 70
     1
102
RTVSPropertyOp37
 70
     1
102
RTVSPropertyOp38
 70
     1
102
RTVSPropertyOp39
 70
     1
102
RTVSPropertyOp40
 70
     1
102
RTVSPropertyOp41
 70
     1
102
RTVSPropertyOp42
 70
     1
102
RTVSPropertyOp43
 70
     1
102
RTVSPropertyOp44
 70
     1
102
RTVSPropertyOp45
 70
     1
102
RTVSPropertyOp46
 70
     1
102
RTVSPropertyOp47
 70
     1
102
RTVSPropertyOp48
 70
     1
102
RTVSPropertyOp49
 70
     1
102
RTVSPropertyOp50
 70
     1
102
RTVSPropertyOp51
 70
     0
102
RTVSPropertyOp52
 70
     0
102
RTVSPropertyOp53
 70
     1
102
RTVSPropertyOp54
 70
     1
102
RTVSPropertyOp55
 70
     1
102
RTVSPropertyOp56
 70
     1
102
RTVSPropertyOp57
 70
     1
102
RTVSPost2010Prop28
280
     0
102
RTVSPost2010PropOp28
 70
     1
102
RTVSPost2010Prop29
280
     1
102
RTVSPost2010PropOp29
 70
     1
102
RTVSPost2010Prop30
280
     1
102
RTVSPost2010PropOp30
 70
     1
102
RTVSPost2010Prop31
280
     0
102
RTVSPost2010PropOp31
 70
     1
102
RTVSPost2010Prop32
280
     0
102
RTVSPost2010PropOp32
 70
     1
102
RTVSPost2010Prop33
280
     0
102
RTVSPost2010PropOp33
 70
     1
102
RTVSPost2010Prop34
280
     0
102
RTVSPost2010PropOp34
 70
     1
102
RTVSPost2010Prop35
280
     0
102
RTVSPost2010PropOp35
 70
     1
102
RTVSPost2010Prop36
280
     0
102
RTVSPost2010PropOp36
 70
     1
102
RTVSPost2010Prop37
 90
       50
102
RTVSPost2010PropOp37
 70
     1
102
RTVSPost2010Prop38
140
0.0
102
RTVSPost2010PropOp38
 70
     1
102
RTVSPost2010Prop39
140
1.0
102
RTVSPost2010PropOp39
 70
     1
102
RTVSPost2010Prop40
 90
        0
102
RTVSPost2010PropOp40
 70
     1
102
RTVSPost2010Prop41ColorIndex
 90
       18
102
RTVSPost2010Prop41ColorRGB
 90
        0
102
RTVSPost2010PropOp41
 70
     1
102
RTVSPost2010Prop42
 90
       50
102
RTVSPost2010PropOp42
 70
     1
102
RTVSPost2010Prop43
 90
        3
102
RTVSPost2010PropOp43
 70
     1
102
RTVSPost2010Prop44ColorIndex
 90
        5
102
RTVSPost2010Prop44ColorRGB
 90
      255
102
RTVSPost2010PropOp44
 70
     1
102
RTVSPost2010Prop45
280
     0
102
RTVSPost2010PropOp45
 70
     1
102
RTVSPost2010Prop46
 90
       50
102
RTVSPost2010PropOp46
 70
     1
102
RTVSPost2010Prop47
 90
       50
102
RTVSPost2010PropOp47
 70
     1
102
RTVSPost2010Prop48
 90
       50
102
RTVSPost2010PropOp48
 70
     1
102
RTVSPost2010Prop49
280
     0
102
RTVSPost2010PropOp49
 70
     1
102
RTVSPost2010Prop50
 90
       50
102
RTVSPost2010PropOp50
 70
     1
102
RTVSPost2010Prop51ColorIndex
 90
      256
102
RTVSPost2010Prop51ColorRGB
 90
-16777216
102
RTVSPost2010PropOp51
 70
     0
102
RTVSPost2010Prop52
140
1.0
102
RTVSPost2010PropOp52
 70
     0
102
RTVSPost2010Prop53
 90
        2
102
RTVSPost2010PropOp53
 70
     1
102
RTVSPost2010Prop54
  1
strokes_ogs.tif
102
RTVSPost2010PropOp54
 70
     1
102
RTVSPost2010Prop55
280
     0
102
RTVSPost2010PropOp55
 70
     1
102
RTVSPost2010Prop56
140
1.0
102
RTVSPost2010PropOp56
 70
     1
102
RTVSPost2010Prop57
140
1.0
102
RTVSPost2010PropOp57
 70
     1
  0
XRECORD
  5
699
102
{ACAD_REACTORS
330
698
102
}
330
698
100
AcDbXrecord
280
     1
102
RTVSPropertyOp0
 70
     1
102
RTVSPropertyOp1
 70
     1
102
RTVSPropertyOp2
 70
     1
102
RTVSPropertyOp3
 70
     1
102
RTVSPropertyOp4
 70
     1
102
RTVSPropertyOp5
 70
     1
102
RTVSPropertyOp6
 70
     1
102
RTVSPropertyOp7
 70
     1
102
RTVSPropertyOp8
 70
     1
102
RTVSPropertyOp9
 70
     1
102
RTVSPropertyOp10
 70
     1
102
RTVSPropertyOp11
 70
     1
102
RTVSPropertyOp12
 70
     1
102
RTVSPropertyOp13
 70
     1
102
RTVSPropertyOp14
 70
     1
102
RTVSPropertyOp15
 70
     1
102
RTVSPropertyOp16
 70
     1
102
RTVSPropertyOp17
 70
     1
102
RTVSPropertyOp18
 70
     1
102
RTVSPropertyOp19
 70
     1
102
RTVSPropertyOp20
 70
     1
102
RTVSPropertyOp21
 70
     1
102
RTVSPropertyOp22
 70
     1
102
RTVSPropertyOp23
 70
     1
102
RTVSPropertyOp24
 70
     1
102
RTVSPropertyOp25
 70
     1
102
RTVSPropertyOp26
 70
     1
102
RTVSPropertyOp27
 70
     1
102
RTVSPropertyOp28
 70
     1
102
RTVSPropertyOp29
 70
     1
102
RTVSPropertyOp30
 70
     1
102
RTVSPropertyOp31
 70
     1
102
RTVSPropertyOp32
 70
     1
102
RTVSPropertyOp33
 70
     1
102
RTVSPropertyOp34
 70
     1
102
RTVSPropertyOp35
 70
     1
102
RTVSPropertyOp36
 70
     1
102
RTVSPropertyOp37
 70
     1
102
RTVSPropertyOp38
 70
     1
102
RTVSPropertyOp39
 70
     1
102
RTVSPropertyOp40
 70
     1
102
RTVSPropertyOp41
 70
     1
102
RTVSPropertyOp42
 70
     1
102
RTVSPropertyOp43
 70
     1
102
RTVSPropertyOp44
 70
     1
102
RTVSPropertyOp45
 70
     1
102
RTVSPropertyOp46
 70
     1
102
RTVSPropertyOp47
 70
     1
102
RTVSPropertyOp48
 70
     1
102
RTVSPropertyOp49
 70
     1
102
RTVSPropertyOp50
 70
     1
102
RTVSPropertyOp51
 70
     0
102
RTVSPropertyOp52
 70
     0
102
RTVSPropertyOp53
 70
     1
102
RTVSPropertyOp54
 70
     1
102
RTVSPropertyOp55
 70
     1
102
RTVSPropertyOp56
 70
     1
102
RTVSPropertyOp57
 70
     1
102
RTVSPost2010Prop28
280
     0
102
RTVSPost2010PropOp28
 70
     1
102
RTVSPost2010Prop29
280
     1
102
RTVSPost2010PropOp29
 70
     1
102
RTVSPost2010Prop30
280
     1
102
RTVSPost2010PropOp30
 70
     1
102
RTVSPost2010Prop31
280
     0
102
RTVSPost2010PropOp31
 70
     1
102
RTVSPost2010Prop32
280
     0
102
RTVSPost2010PropOp32
 70
     1
102
RTVSPost2010Prop33
280
     0
102
RTVSPost2010PropOp33
 70
     1
102
RTVSPost2010Prop34
280
     0
102
RTVSPost2010PropOp34
 70
     1
102
RTVSPost2010Prop35
280
     0
102
RTVSPost2010PropOp35
 70
     1
102
RTVSPost2010Prop36
280
     0
102
RTVSPost2010PropOp36
 70
     1
102
RTVSPost2010Prop37
 90
       50
102
RTVSPost2010PropOp37
 70
     1
102
RTVSPost2010Prop38
140
0.0
102
RTVSPost2010PropOp38
 70
     1
102
RTVSPost2010Prop39
140
1.0
102
RTVSPost2010PropOp39
 70
     1
102
RTVSPost2010Prop40
 90
        0
102
RTVSPost2010PropOp40
 70
     1
102
RTVSPost2010Prop41ColorIndex
 90
       18
102
RTVSPost2010Prop41ColorRGB
 90
        0
102
RTVSPost2010PropOp41
 70
     1
102
RTVSPost2010Prop42
 90
       50
102
RTVSPost2010PropOp42
 70
     1
102
RTVSPost2010Prop43
 90
        3
102
RTVSPost2010PropOp43
 70
     1
102
RTVSPost2010Prop44ColorIndex
 90
        5
102
RTVSPost2010Prop44ColorRGB
 90
      255
102
RTVSPost2010PropOp44
 70
     1
102
RTVSPost2010Prop45
280
     0
102
RTVSPost2010PropOp45
 70
     1
102
RTVSPost2010Prop46
 90
       50
102
RTVSPost2010PropOp46
 70
     1
102
RTVSPost2010Prop47
 90
       50
102
RTVSPost2010PropOp47
 70
     1
102
RTVSPost2010Prop48
 90
       50
102
RTVSPost2010PropOp48
 70
     1
102
RTVSPost2010Prop49
280
     0
102
RTVSPost2010PropOp49
 70
     1
102
RTVSPost2010Prop50
 90
       50
102
RTVSPost2010PropOp50
 70
     1
102
RTVSPost2010Prop51ColorIndex
 90
      256
102
RTVSPost2010Prop51ColorRGB
 90
-16777216
102
RTVSPost2010PropOp51
 70
     0
102
RTVSPost2010Prop52
140
1.0
102
RTVSPost2010PropOp52
 70
     0
102
RTVSPost2010Prop53
 90
        2
102
RTVSPost2010PropOp53
 70
     1
102
RTVSPost2010Prop54
  1
strokes_ogs.tif
102
RTVSPost2010PropOp54
 70
     1
102
RTVSPost2010Prop55
280
     0
102
RTVSPost2010PropOp55
 70
     1
102
RTVSPost2010Prop56
140
1.0
102
RTVSPost2010PropOp56
 70
     1
102
RTVSPost2010Prop57
140
1.0
102
RTVSPost2010PropOp57
 70
     1
  0
XRECORD
  5
6A1
102
{ACAD_REACTORS
330
6A0
102
}
330
6A0
100
AcDbXrecord
280
     1
102
RTVSPropertyOp0
 70
     1
102
RTVSPropertyOp1
 70
     1
102
RTVSPropertyOp2
 70
     1
102
RTVSPropertyOp3
 70
     1
102
RTVSPropertyOp4
 70
     1
102
RTVSPropertyOp5
 70
     1
102
RTVSPropertyOp6
 70
     1
102
RTVSPropertyOp7
 70
     1
102
RTVSPropertyOp8
 70
     1
102
RTVSPropertyOp9
 70
     1
102
RTVSPropertyOp10
 70
     1
102
RTVSPropertyOp11
 70
     1
102
RTVSPropertyOp12
 70
     1
102
RTVSPropertyOp13
 70
     1
102
RTVSPropertyOp14
 70
     1
102
RTVSPropertyOp15
 70
     1
102
RTVSPropertyOp16
 70
     1
102
RTVSPropertyOp17
 70
     1
102
RTVSPropertyOp18
 70
     1
102
RTVSPropertyOp19
 70
     1
102
RTVSPropertyOp20
 70
     1
102
RTVSPropertyOp21
 70
     1
102
RTVSPropertyOp22
 70
     1
102
RTVSPropertyOp23
 70
     1
102
RTVSPropertyOp24
 70
     1
102
RTVSPropertyOp25
 70
     1
102
RTVSPropertyOp26
 70
     1
102
RTVSPropertyOp27
 70
     1
102
RTVSPropertyOp28
 70
     1
102
RTVSPropertyOp29
 70
     1
102
RTVSPropertyOp30
 70
     1
102
RTVSPropertyOp31
 70
     1
102
RTVSPropertyOp32
 70
     1
102
RTVSPropertyOp33
 70
     1
102
RTVSPropertyOp34
 70
     1
102
RTVSPropertyOp35
 70
     1
102
RTVSPropertyOp36
 70
     1
102
RTVSPropertyOp37
 70
     1
102
RTVSPropertyOp38
 70
     1
102
RTVSPropertyOp39
 70
     1
102
RTVSPropertyOp40
 70
     1
102
RTVSPropertyOp41
 70
     1
102
RTVSPropertyOp42
 70
     1
102
RTVSPropertyOp43
 70
     1
102
RTVSPropertyOp44
 70
     1
102
RTVSPropertyOp45
 70
     1
102
RTVSPropertyOp46
 70
     1
102
RTVSPropertyOp47
 70
     1
102
RTVSPropertyOp48
 70
     1
102
RTVSPropertyOp49
 70
     1
102
RTVSPropertyOp50
 70
     1
102
RTVSPropertyOp51
 70
     0
102
RTVSPropertyOp52
 70
     0
102
RTVSPropertyOp53
 70
     1
102
RTVSPropertyOp54
 70
     1
102
RTVSPropertyOp55
 70
     1
102
RTVSPropertyOp56
 70
     1
102
RTVSPropertyOp57
 70
     1
102
RTVSPost2010Prop28
280
     0
102
RTVSPost2010PropOp28
 70
     1
102
RTVSPost2010Prop29
280
     1
102
RTVSPost2010PropOp29
 70
     1
102
RTVSPost2010Prop30
280
     1
102
RTVSPost2010PropOp30
 70
     1
102
RTVSPost2010Prop31
280
     0
102
RTVSPost2010PropOp31
 70
     1
102
RTVSPost2010Prop32
280
     0
102
RTVSPost2010PropOp32
 70
     1
102
RTVSPost2010Prop33
280
     0
102
RTVSPost2010PropOp33
 70
     1
102
RTVSPost2010Prop34
280
     0
102
RTVSPost2010PropOp34
 70
     1
102
RTVSPost2010Prop35
280
     0
102
RTVSPost2010PropOp35
 70
     1
102
RTVSPost2010Prop36
280
     0
102
RTVSPost2010PropOp36
 70
     1
102
RTVSPost2010Prop37
 90
       50
102
RTVSPost2010PropOp37
 70
     1
102
RTVSPost2010Prop38
140
0.0
102
RTVSPost2010PropOp38
 70
     1
102
RTVSPost2010Prop39
140
1.0
102
RTVSPost2010PropOp39
 70
     1
102
RTVSPost2010Prop40
 90
        0
102
RTVSPost2010PropOp40
 70
     1
102
RTVSPost2010Prop41ColorIndex
 90
       18
102
RTVSPost2010Prop41ColorRGB
 90
        0
102
RTVSPost2010PropOp41
 70
     1
102
RTVSPost2010Prop42
 90
       50
102
RTVSPost2010PropOp42
 70
     1
102
RTVSPost2010Prop43
 90
        3
102
RTVSPost2010PropOp43
 70
     1
102
RTVSPost2010Prop44ColorIndex
 90
        5
102
RTVSPost2010Prop44ColorRGB
 90
      255
102
RTVSPost2010PropOp44
 70
     1
102
RTVSPost2010Prop45
280
     0
102
RTVSPost2010PropOp45
 70
     1
102
RTVSPost2010Prop46
 90
       50
102
RTVSPost2010PropOp46
 70
     1
102
RTVSPost2010Prop47
 90
       50
102
RTVSPost2010PropOp47
 70
     1
102
RTVSPost2010Prop48
 90
       50
102
RTVSPost2010PropOp48
 70
     1
102
RTVSPost2010Prop49
280
     0
102
RTVSPost2010PropOp49
 70
     1
102
RTVSPost2010Prop50
 90
       50
102
RTVSPost2010PropOp50
 70
     1
102
RTVSPost2010Prop51ColorIndex
 90
      256
102
RTVSPost2010Prop51ColorRGB
 90
-16777216
102
RTVSPost2010PropOp51
 70
     0
102
RTVSPost2010Prop52
140
1.0
102
RTVSPost2010PropOp52
 70
     0
102
RTVSPost2010Prop53
 90
        2
102
RTVSPost2010PropOp53
 70
     1
102
RTVSPost2010Prop54
  1
strokes_ogs.tif
102
RTVSPost2010PropOp54
 70
     1
102
RTVSPost2010Prop55
280
     0
102
RTVSPost2010PropOp55
 70
     1
102
RTVSPost2010Prop56
140
1.0
102
RTVSPost2010PropOp56
 70
     1
102
RTVSPost2010Prop57
140
1.0
102
RTVSPost2010PropOp57
 70
     1
  0
XRECORD
  5
695
102
{ACAD_REACTORS
330
694
102
}
330
694
100
AcDbXrecord
280
     1
102
RTVSPropertyOp0
 70
     1
102
RTVSPropertyOp1
 70
     1
102
RTVSPropertyOp2
 70
     1
102
RTVSPropertyOp3
 70
     1
102
RTVSPropertyOp4
 70
     1
102
RTVSPropertyOp5
 70
     1
102
RTVSPropertyOp6
 70
     1
102
RTVSPropertyOp7
 70
     1
102
RTVSPropertyOp8
 70
     1
102
RTVSPropertyOp9
 70
     1
102
RTVSPropertyOp10
 70
     1
102
RTVSPropertyOp11
 70
     1
102
RTVSPropertyOp12
 70
     1
102
RTVSPropertyOp13
 70
     1
102
RTVSPropertyOp14
 70
     1
102
RTVSPropertyOp15
 70
     1
102
RTVSPropertyOp16
 70
     1
102
RTVSPropertyOp17
 70
     1
102
RTVSPropertyOp18
 70
     1
102
RTVSPropertyOp19
 70
     1
102
RTVSPropertyOp20
 70
     1
102
RTVSPropertyOp21
 70
     1
102
RTVSPropertyOp22
 70
     1
102
RTVSPropertyOp23
 70
     1
102
RTVSPropertyOp24
 70
     1
102
RTVSPropertyOp25
 70
     1
102
RTVSPropertyOp26
 70
     1
102
RTVSPropertyOp27
 70
     1
102
RTVSPropertyOp28
 70
     1
102
RTVSPropertyOp29
 70
     1
102
RTVSPropertyOp30
 70
     1
102
RTVSPropertyOp31
 70
     1
102
RTVSPropertyOp32
 70
     1
102
RTVSPropertyOp33
 70
     1
102
RTVSPropertyOp34
 70
     1
102
RTVSPropertyOp35
 70
     1
102
RTVSPropertyOp36
 70
     1
102
RTVSPropertyOp37
 70
     1
102
RTVSPropertyOp38
 70
     1
102
RTVSPropertyOp39
 70
     1
102
RTVSPropertyOp40
 70
     1
102
RTVSPropertyOp41
 70
     1
102
RTVSPropertyOp42
 70
     1
102
RTVSPropertyOp43
 70
     1
102
RTVSPropertyOp44
 70
     1
102
RTVSPropertyOp45
 70
     1
102
RTVSPropertyOp46
 70
     1
102
RTVSPropertyOp47
 70
     1
102
RTVSPropertyOp48
 70
     1
102
RTVSPropertyOp49
 70
     1
102
RTVSPropertyOp50
 70
     1
102
RTVSPropertyOp51
 70
     0
102
RTVSPropertyOp52
 70
     0
102
RTVSPropertyOp53
 70
     1
102
RTVSPropertyOp54
 70
     1
102
RTVSPropertyOp55
 70
     1
102
RTVSPropertyOp56
 70
     1
102
RTVSPropertyOp57
 70
     1
102
RTVSPost2010Prop28
280
     0
102
RTVSPost2010PropOp28
 70
     1
102
RTVSPost2010Prop29
280
     1
102
RTVSPost2010PropOp29
 70
     1
102
RTVSPost2010Prop30
280
     1
102
RTVSPost2010PropOp30
 70
     1
102
RTVSPost2010Prop31
280
     0
102
RTVSPost2010PropOp31
 70
     1
102
RTVSPost2010Prop32
280
     0
102
RTVSPost2010PropOp32
 70
     1
102
RTVSPost2010Prop33
280
     0
102
RTVSPost2010PropOp33
 70
     1
102
RTVSPost2010Prop34
280
     0
102
RTVSPost2010PropOp34
 70
     1
102
RTVSPost2010Prop35
280
     0
102
RTVSPost2010PropOp35
 70
     1
102
RTVSPost2010Prop36
280
     0
102
RTVSPost2010PropOp36
 70
     1
102
RTVSPost2010Prop37
 90
       50
102
RTVSPost2010PropOp37
 70
     1
102
RTVSPost2010Prop38
140
0.0
102
RTVSPost2010PropOp38
 70
     1
102
RTVSPost2010Prop39
140
1.0
102
RTVSPost2010PropOp39
 70
     1
102
RTVSPost2010Prop40
 90
        0
102
RTVSPost2010PropOp40
 70
     1
102
RTVSPost2010Prop41ColorIndex
 90
       18
102
RTVSPost2010Prop41ColorRGB
 90
        0
102
RTVSPost2010PropOp41
 70
     1
102
RTVSPost2010Prop42
 90
       50
102
RTVSPost2010PropOp42
 70
     1
102
RTVSPost2010Prop43
 90
        3
102
RTVSPost2010PropOp43
 70
     1
102
RTVSPost2010Prop44ColorIndex
 90
        5
102
RTVSPost2010Prop44ColorRGB
 90
      255
102
RTVSPost2010PropOp44
 70
     1
102
RTVSPost2010Prop45
280
     0
102
RTVSPost2010PropOp45
 70
     1
102
RTVSPost2010Prop46
 90
       50
102
RTVSPost2010PropOp46
 70
     1
102
RTVSPost2010Prop47
 90
       50
102
RTVSPost2010PropOp47
 70
     1
102
RTVSPost2010Prop48
 90
       50
102
RTVSPost2010PropOp48
 70
     1
102
RTVSPost2010Prop49
280
     0
102
RTVSPost2010PropOp49
 70
     1
102
RTVSPost2010Prop50
 90
       50
102
RTVSPost2010PropOp50
 70
     1
102
RTVSPost2010Prop51ColorIndex
 90
      256
102
RTVSPost2010Prop51ColorRGB
 90
-16777216
102
RTVSPost2010PropOp51
 70
     0
102
RTVSPost2010Prop52
140
1.0
102
RTVSPost2010PropOp52
 70
     0
102
RTVSPost2010Prop53
 90
        2
102
RTVSPost2010PropOp53
 70
     1
102
RTVSPost2010Prop54
  1
strokes_ogs.tif
102
RTVSPost2010PropOp54
 70
     1
102
RTVSPost2010Prop55
280
     0
102
RTVSPost2010PropOp55
 70
     1
102
RTVSPost2010Prop56
140
1.0
102
RTVSPost2010PropOp56
 70
     1
102
RTVSPost2010Prop57
140
1.0
102
RTVSPost2010PropOp57
 70
     1
  0
XRECORD
  5
697
102
{ACAD_REACTORS
330
696
102
}
330
696
100
AcDbXrecord
280
     1
102
RTVSPropertyOp0
 70
     1
102
RTVSPropertyOp1
 70
     1
102
RTVSPropertyOp2
 70
     1
102
RTVSPropertyOp3
 70
     1
102
RTVSPropertyOp4
 70
     1
102
RTVSPropertyOp5
 70
     1
102
RTVSPropertyOp6
 70
     1
102
RTVSPropertyOp7
 70
     1
102
RTVSPropertyOp8
 70
     1
102
RTVSPropertyOp9
 70
     1
102
RTVSPropertyOp10
 70
     1
102
RTVSPropertyOp11
 70
     1
102
RTVSPropertyOp12
 70
     1
102
RTVSPropertyOp13
 70
     1
102
RTVSPropertyOp14
 70
     1
102
RTVSPropertyOp15
 70
     1
102
RTVSPropertyOp16
 70
     1
102
RTVSPropertyOp17
 70
     1
102
RTVSPropertyOp18
 70
     1
102
RTVSPropertyOp19
 70
     1
102
RTVSPropertyOp20
 70
     1
102
RTVSPropertyOp21
 70
     1
102
RTVSPropertyOp22
 70
     1
102
RTVSPropertyOp23
 70
     1
102
RTVSPropertyOp24
 70
     1
102
RTVSPropertyOp25
 70
     1
102
RTVSPropertyOp26
 70
     1
102
RTVSPropertyOp27
 70
     1
102
RTVSPropertyOp28
 70
     1
102
RTVSPropertyOp29
 70
     1
102
RTVSPropertyOp30
 70
     1
102
RTVSPropertyOp31
 70
     1
102
RTVSPropertyOp32
 70
     1
102
RTVSPropertyOp33
 70
     1
102
RTVSPropertyOp34
 70
     1
102
RTVSPropertyOp35
 70
     1
102
RTVSPropertyOp36
 70
     1
102
RTVSPropertyOp37
 70
     1
102
RTVSPropertyOp38
 70
     1
102
RTVSPropertyOp39
 70
     1
102
RTVSPropertyOp40
 70
     1
102
RTVSPropertyOp41
 70
     1
102
RTVSPropertyOp42
 70
     1
102
RTVSPropertyOp43
 70
     1
102
RTVSPropertyOp44
 70
     1
102
RTVSPropertyOp45
 70
     1
102
RTVSPropertyOp46
 70
     1
102
RTVSPropertyOp47
 70
     1
102
RTVSPropertyOp48
 70
     1
102
RTVSPropertyOp49
 70
     1
102
RTVSPropertyOp50
 70
     1
102
RTVSPropertyOp51
 70
     0
102
RTVSPropertyOp52
 70
     0
102
RTVSPropertyOp53
 70
     1
102
RTVSPropertyOp54
 70
     1
102
RTVSPropertyOp55
 70
     1
102
RTVSPropertyOp56
 70
     1
102
RTVSPropertyOp57
 70
     1
102
RTVSPost2010Prop28
280
     0
102
RTVSPost2010PropOp28
 70
     1
102
RTVSPost2010Prop29
280
     1
102
RTVSPost2010PropOp29
 70
     1
102
RTVSPost2010Prop30
280
     1
102
RTVSPost2010PropOp30
 70
     1
102
RTVSPost2010Prop31
280
     0
102
RTVSPost2010PropOp31
 70
     1
102
RTVSPost2010Prop32
280
     0
102
RTVSPost2010PropOp32
 70
     1
102
RTVSPost2010Prop33
280
     0
102
RTVSPost2010PropOp33
 70
     1
102
RTVSPost2010Prop34
280
     0
102
RTVSPost2010PropOp34
 70
     1
102
RTVSPost2010Prop35
280
     0
102
RTVSPost2010PropOp35
 70
     1
102
RTVSPost2010Prop36
280
     0
102
RTVSPost2010PropOp36
 70
     1
102
RTVSPost2010Prop37
 90
       50
102
RTVSPost2010PropOp37
 70
     1
102
RTVSPost2010Prop38
140
0.0
102
RTVSPost2010PropOp38
 70
     1
102
RTVSPost2010Prop39
140
1.0
102
RTVSPost2010PropOp39
 70
     1
102
RTVSPost2010Prop40
 90
        0
102
RTVSPost2010PropOp40
 70
     1
102
RTVSPost2010Prop41ColorIndex
 90
       18
102
RTVSPost2010Prop41ColorRGB
 90
        0
102
RTVSPost2010PropOp41
 70
     1
102
RTVSPost2010Prop42
 90
       50
102
RTVSPost2010PropOp42
 70
     1
102
RTVSPost2010Prop43
 90
        3
102
RTVSPost2010PropOp43
 70
     1
102
RTVSPost2010Prop44ColorIndex
 90
        5
102
RTVSPost2010Prop44ColorRGB
 90
      255
102
RTVSPost2010PropOp44
 70
     1
102
RTVSPost2010Prop45
280
     0
102
RTVSPost2010PropOp45
 70
     1
102
RTVSPost2010Prop46
 90
       50
102
RTVSPost2010PropOp46
 70
     1
102
RTVSPost2010Prop47
 90
       50
102
RTVSPost2010PropOp47
 70
     1
102
RTVSPost2010Prop48
 90
       50
102
RTVSPost2010PropOp48
 70
     1
102
RTVSPost2010Prop49
280
     0
102
RTVSPost2010PropOp49
 70
     1
102
RTVSPost2010Prop50
 90
       50
102
RTVSPost2010PropOp50
 70
     1
102
RTVSPost2010Prop51ColorIndex
 90
      256
102
RTVSPost2010Prop51ColorRGB
 90
-16777216
102
RTVSPost2010PropOp51
 70
     0
102
RTVSPost2010Prop52
140
1.0
102
RTVSPost2010PropOp52
 70
     0
102
RTVSPost2010Prop53
 90
        2
102
RTVSPost2010PropOp53
 70
     1
102
RTVSPost2010Prop54
  1
strokes_ogs.tif
102
RTVSPost2010PropOp54
 70
     1
102
RTVSPost2010Prop55
280
     0
102
RTVSPost2010PropOp55
 70
     1
102
RTVSPost2010Prop56
140
1.0
102
RTVSPost2010PropOp56
 70
     1
102
RTVSPost2010Prop57
140
1.0
102
RTVSPost2010PropOp57
 70
     1
  0
XRECORD
  5
6A7
102
{ACAD_REACTORS
330
6A6
102
}
330
6A6
100
AcDbXrecord
280
     1
102
RTVSPropertyOp0
 70
     0
102
RTVSPropertyOp1
 70
     0
102
RTVSPropertyOp2
 70
     0
102
RTVSPropertyOp3
 70
     0
102
RTVSPropertyOp4
 70
     0
102
RTVSPropertyOp5
 70
     0
102
RTVSPropertyOp6
 70
     0
102
RTVSPropertyOp7
 70
     0
102
RTVSPropertyOp8
 70
     0
102
RTVSPropertyOp9
 70
     0
102
RTVSPropertyOp10
 70
     0
102
RTVSPropertyOp11
 70
     0
102
RTVSPropertyOp12
 70
     0
102
RTVSPropertyOp13
 70
     0
102
RTVSPropertyOp14
 70
     0
102
RTVSPropertyOp15
 70
     0
102
RTVSPropertyOp16
 70
     0
102
RTVSPropertyOp17
 70
     0
102
RTVSPropertyOp18
 70
     0
102
RTVSPropertyOp19
 70
     0
102
RTVSPropertyOp20
 70
     0
102
RTVSPropertyOp21
 70
     0
102
RTVSPropertyOp22
 70
     0
102
RTVSPropertyOp23
 70
     0
102
RTVSPropertyOp24
 70
     0
102
RTVSPropertyOp25
 70
     0
102
RTVSPropertyOp26
 70
     0
102
RTVSPropertyOp27
 70
     0
102
RTVSPropertyOp28
 70
     1
102
RTVSPropertyOp29
 70
     1
102
RTVSPropertyOp30
 70
     1
102
RTVSPropertyOp31
 70
     1
102
RTVSPropertyOp32
 70
     1
102
RTVSPropertyOp33
 70
     1
102
RTVSPropertyOp34
 70
     1
102
RTVSPropertyOp35
 70
     1
102
RTVSPropertyOp36
 70
     1
102
RTVSPropertyOp37
 70
     1
102
RTVSPropertyOp38
 70
     1
102
RTVSPropertyOp39
 70
     1
102
RTVSPropertyOp40
 70
     1
102
RTVSPropertyOp41
 70
     1
102
RTVSPropertyOp42
 70
     1
102
RTVSPropertyOp43
 70
     1
102
RTVSPropertyOp44
 70
     1
102
RTVSPropertyOp45
 70
     1
102
RTVSPropertyOp46
 70
     1
102
RTVSPropertyOp47
 70
     1
102
RTVSPropertyOp48
 70
     1
102
RTVSPropertyOp49
 70
     1
102
RTVSPropertyOp50
 70
     1
102
RTVSPropertyOp51
 70
     0
102
RTVSPropertyOp52
 70
     0
102
RTVSPropertyOp53
 70
     1
102
RTVSPropertyOp54
 70
     1
102
RTVSPropertyOp55
 70
     1
102
RTVSPropertyOp56
 70
     1
102
RTVSPropertyOp57
 70
     1
102
RTVSPost2010Prop28
280
     0
102
RTVSPost2010PropOp28
 70
     1
102
RTVSPost2010Prop29
280
     1
102
RTVSPost2010PropOp29
 70
     1
102
RTVSPost2010Prop30
280
     1
102
RTVSPost2010PropOp30
 70
     1
102
RTVSPost2010Prop31
280
     0
102
RTVSPost2010PropOp31
 70
     1
102
RTVSPost2010Prop32
280
     0
102
RTVSPost2010PropOp32
 70
     1
102
RTVSPost2010Prop33
280
     0
102
RTVSPost2010PropOp33
 70
     1
102
RTVSPost2010Prop34
280
     0
102
RTVSPost2010PropOp34
 70
     1
102
RTVSPost2010Prop35
280
     0
102
RTVSPost2010PropOp35
 70
     1
102
RTVSPost2010Prop36
280
     0
102
RTVSPost2010PropOp36
 70
     1
102
RTVSPost2010Prop37
 90
       50
102
RTVSPost2010PropOp37
 70
     1
102
RTVSPost2010Prop38
140
0.0
102
RTVSPost2010PropOp38
 70
     1
102
RTVSPost2010Prop39
140
1.0
102
RTVSPost2010PropOp39
 70
     1
102
RTVSPost2010Prop40
 90
        0
102
RTVSPost2010PropOp40
 70
     1
102
RTVSPost2010Prop41ColorIndex
 90
       18
102
RTVSPost2010Prop41ColorRGB
 90
        0
102
RTVSPost2010PropOp41
 70
     1
102
RTVSPost2010Prop42
 90
       50
102
RTVSPost2010PropOp42
 70
     1
102
RTVSPost2010Prop43
 90
        3
102
RTVSPost2010PropOp43
 70
     1
102
RTVSPost2010Prop44ColorIndex
 90
        5
102
RTVSPost2010Prop44ColorRGB
 90
      255
102
RTVSPost2010PropOp44
 70
     1
102
RTVSPost2010Prop45
280
     0
102
RTVSPost2010PropOp45
 70
     1
102
RTVSPost2010Prop46
 90
       50
102
RTVSPost2010PropOp46
 70
     1
102
RTVSPost2010Prop47
 90
       50
102
RTVSPost2010PropOp47
 70
     1
102
RTVSPost2010Prop48
 90
       50
102
RTVSPost2010PropOp48
 70
     1
102
RTVSPost2010Prop49
280
     0
102
RTVSPost2010PropOp49
 70
     1
102
RTVSPost2010Prop50
 90
       50
102
RTVSPost2010PropOp50
 70
     1
102
RTVSPost2010Prop51ColorIndex
 90
      256
102
RTVSPost2010Prop51ColorRGB
 90
-16777216
102
RTVSPost2010PropOp51
 70
     0
102
RTVSPost2010Prop52
140
1.0
102
RTVSPost2010PropOp52
 70
     0
102
RTVSPost2010Prop53
 90
        2
102
RTVSPost2010PropOp53
 70
     1
102
RTVSPost2010Prop54
  1
strokes_ogs.tif
102
RTVSPost2010PropOp54
 70
     1
102
RTVSPost2010Prop55
280
     0
102
RTVSPost2010PropOp55
 70
     1
102
RTVSPost2010Prop56
140
1.0
102
RTVSPost2010PropOp56
 70
     1
102
RTVSPost2010Prop57
140
1.0
102
RTVSPost2010PropOp57
 70
     1
  0
XRECORD
  5
69F
102
{ACAD_REACTORS
330
69E
102
}
330
69E
100
AcDbXrecord
280
     1
102
RTVSPropertyOp0
 70
     1
102
RTVSPropertyOp1
 70
     1
102
RTVSPropertyOp2
 70
     1
102
RTVSPropertyOp3
 70
     1
102
RTVSPropertyOp4
 70
     1
102
RTVSPropertyOp5
 70
     1
102
RTVSPropertyOp6
 70
     1
102
RTVSPropertyOp7
 70
     1
102
RTVSPropertyOp8
 70
     1
102
RTVSPropertyOp9
 70
     1
102
RTVSPropertyOp10
 70
     1
102
RTVSPropertyOp11
 70
     1
102
RTVSPropertyOp12
 70
     1
102
RTVSPropertyOp13
 70
     1
102
RTVSPropertyOp14
 70
     1
102
RTVSPropertyOp15
 70
     1
102
RTVSPropertyOp16
 70
     1
102
RTVSPropertyOp17
 70
     1
102
RTVSPropertyOp18
 70
     1
102
RTVSPropertyOp19
 70
     1
102
RTVSPropertyOp20
 70
     1
102
RTVSPropertyOp21
 70
     1
102
RTVSPropertyOp22
 70
     1
102
RTVSPropertyOp23
 70
     1
102
RTVSPropertyOp24
 70
     1
102
RTVSPropertyOp25
 70
     1
102
RTVSPropertyOp26
 70
     1
102
RTVSPropertyOp27
 70
     1
102
RTVSPropertyOp28
 70
     1
102
RTVSPropertyOp29
 70
     1
102
RTVSPropertyOp30
 70
     1
102
RTVSPropertyOp31
 70
     1
102
RTVSPropertyOp32
 70
     1
102
RTVSPropertyOp33
 70
     1
102
RTVSPropertyOp34
 70
     1
102
RTVSPropertyOp35
 70
     1
102
RTVSPropertyOp36
 70
     1
102
RTVSPropertyOp37
 70
     1
102
RTVSPropertyOp38
 70
     1
102
RTVSPropertyOp39
 70
     1
102
RTVSPropertyOp40
 70
     1
102
RTVSPropertyOp41
 70
     1
102
RTVSPropertyOp42
 70
     1
102
RTVSPropertyOp43
 70
     1
102
RTVSPropertyOp44
 70
     1
102
RTVSPropertyOp45
 70
     1
102
RTVSPropertyOp46
 70
     1
102
RTVSPropertyOp47
 70
     1
102
RTVSPropertyOp48
 70
     1
102
RTVSPropertyOp49
 70
     1
102
RTVSPropertyOp50
 70
     1
102
RTVSPropertyOp51
 70
     0
102
RTVSPropertyOp52
 70
     0
102
RTVSPropertyOp53
 70
     1
102
RTVSPropertyOp54
 70
     1
102
RTVSPropertyOp55
 70
     1
102
RTVSPropertyOp56
 70
     1
102
RTVSPropertyOp57
 70
     1
102
RTVSPost2010Prop28
280
     0
102
RTVSPost2010PropOp28
 70
     1
102
RTVSPost2010Prop29
280
     1
102
RTVSPost2010PropOp29
 70
     1
102
RTVSPost2010Prop30
280
     1
102
RTVSPost2010PropOp30
 70
     1
102
RTVSPost2010Prop31
280
     0
102
RTVSPost2010PropOp31
 70
     1
102
RTVSPost2010Prop32
280
     0
102
RTVSPost2010PropOp32
 70
     1
102
RTVSPost2010Prop33
280
     0
102
RTVSPost2010PropOp33
 70
     1
102
RTVSPost2010Prop34
280
     0
102
RTVSPost2010PropOp34
 70
     1
102
RTVSPost2010Prop35
280
     0
102
RTVSPost2010PropOp35
 70
     1
102
RTVSPost2010Prop36
280
     0
102
RTVSPost2010PropOp36
 70
     1
102
RTVSPost2010Prop37
 90
       50
102
RTVSPost2010PropOp37
 70
     1
102
RTVSPost2010Prop38
140
0.0
102
RTVSPost2010PropOp38
 70
     1
102
RTVSPost2010Prop39
140
1.0
102
RTVSPost2010PropOp39
 70
     1
102
RTVSPost2010Prop40
 90
        0
102
RTVSPost2010PropOp40
 70
     1
102
RTVSPost2010Prop41ColorIndex
 90
       18
102
RTVSPost2010Prop41ColorRGB
 90
        0
102
RTVSPost2010PropOp41
 70
     1
102
RTVSPost2010Prop42
 90
       50
102
RTVSPost2010PropOp42
 70
     1
102
RTVSPost2010Prop43
 90
        3
102
RTVSPost2010PropOp43
 70
     1
102
RTVSPost2010Prop44ColorIndex
 90
        5
102
RTVSPost2010Prop44ColorRGB
 90
      255
102
RTVSPost2010PropOp44
 70
     1
102
RTVSPost2010Prop45
280
     0
102
RTVSPost2010PropOp45
 70
     1
102
RTVSPost2010Prop46
 90
       50
102
RTVSPost2010PropOp46
 70
     1
102
RTVSPost2010Prop47
 90
       50
102
RTVSPost2010PropOp47
 70
     1
102
RTVSPost2010Prop48
 90
       50
102
RTVSPost2010PropOp48
 70
     1
102
RTVSPost2010Prop49
280
     0
102
RTVSPost2010PropOp49
 70
     1
102
RTVSPost2010Prop50
 90
       50
102
RTVSPost2010PropOp50
 70
     1
102
RTVSPost2010Prop51ColorIndex
 90
      256
102
RTVSPost2010Prop51ColorRGB
 90
-16777216
102
RTVSPost2010PropOp51
 70
     0
102
RTVSPost2010Prop52
140
1.0
102
RTVSPost2010PropOp52
 70
     0
102
RTVSPost2010Prop53
 90
        2
102
RTVSPost2010PropOp53
 70
     1
102
RTVSPost2010Prop54
  1
strokes_ogs.tif
102
RTVSPost2010PropOp54
 70
     1
102
RTVSPost2010Prop55
280
     0
102
RTVSPost2010PropOp55
 70
     1
102
RTVSPost2010Prop56
140
1.0
102
RTVSPost2010PropOp56
 70
     1
102
RTVSPost2010Prop57
140
1.0
102
RTVSPost2010PropOp57
 70
     1
  0
XRECORD
  5
687
102
{ACAD_REACTORS
330
686
102
}
330
686
100
AcDbXrecord
280
     1
102
RTVSPropertyOp0
 70
     1
102
RTVSPropertyOp1
 70
     1
102
RTVSPropertyOp2
 70
     1
102
RTVSPropertyOp3
 70
     1
102
RTVSPropertyOp4
 70
     1
102
RTVSPropertyOp5
 70
     1
102
RTVSPropertyOp6
 70
     1
102
RTVSPropertyOp7
 70
     1
102
RTVSPropertyOp8
 70
     1
102
RTVSPropertyOp9
 70
     1
102
RTVSPropertyOp10
 70
     1
102
RTVSPropertyOp11
 70
     1
102
RTVSPropertyOp12
 70
     1
102
RTVSPropertyOp13
 70
     1
102
RTVSPropertyOp14
 70
     1
102
RTVSPropertyOp15
 70
     1
102
RTVSPropertyOp16
 70
     1
102
RTVSPropertyOp17
 70
     1
102
RTVSPropertyOp18
 70
     1
102
RTVSPropertyOp19
 70
     1
102
RTVSPropertyOp20
 70
     1
102
RTVSPropertyOp21
 70
     1
102
RTVSPropertyOp22
 70
     1
102
RTVSPropertyOp23
 70
     1
102
RTVSPropertyOp24
 70
     1
102
RTVSPropertyOp25
 70
     1
102
RTVSPropertyOp26
 70
     1
102
RTVSPropertyOp27
 70
     1
102
RTVSPropertyOp28
 70
     1
102
RTVSPropertyOp29
 70
     1
102
RTVSPropertyOp30
 70
     1
102
RTVSPropertyOp31
 70
     1
102
RTVSPropertyOp32
 70
     1
102
RTVSPropertyOp33
 70
     1
102
RTVSPropertyOp34
 70
     1
102
RTVSPropertyOp35
 70
     1
102
RTVSPropertyOp36
 70
     1
102
RTVSPropertyOp37
 70
     1
102
RTVSPropertyOp38
 70
     1
102
RTVSPropertyOp39
 70
     1
102
RTVSPropertyOp40
 70
     1
102
RTVSPropertyOp41
 70
     1
102
RTVSPropertyOp42
 70
     1
102
RTVSPropertyOp43
 70
     1
102
RTVSPropertyOp44
 70
     1
102
RTVSPropertyOp45
 70
     1
102
RTVSPropertyOp46
 70
     1
102
RTVSPropertyOp47
 70
     1
102
RTVSPropertyOp48
 70
     1
102
RTVSPropertyOp49
 70
     1
102
RTVSPropertyOp50
 70
     1
102
RTVSPropertyOp51
 70
     0
102
RTVSPropertyOp52
 70
     0
102
RTVSPropertyOp53
 70
     1
102
RTVSPropertyOp54
 70
     1
102
RTVSPropertyOp55
 70
     1
102
RTVSPropertyOp56
 70
     1
102
RTVSPropertyOp57
 70
     1
102
RTVSPost2010Prop28
280
     0
102
RTVSPost2010PropOp28
 70
     1
102
RTVSPost2010Prop29
280
     1
102
RTVSPost2010PropOp29
 70
     1
102
RTVSPost2010Prop30
280
     1
102
RTVSPost2010PropOp30
 70
     1
102
RTVSPost2010Prop31
280
     0
102
RTVSPost2010PropOp31
 70
     1
102
RTVSPost2010Prop32
280
     0
102
RTVSPost2010PropOp32
 70
     1
102
RTVSPost2010Prop33
280
     0
102
RTVSPost2010PropOp33
 70
     1
102
RTVSPost2010Prop34
280
     0
102
RTVSPost2010PropOp34
 70
     1
102
RTVSPost2010Prop35
280
     0
102
RTVSPost2010PropOp35
 70
     1
102
RTVSPost2010Prop36
280
     0
102
RTVSPost2010PropOp36
 70
     1
102
RTVSPost2010Prop37
 90
       50
102
RTVSPost2010PropOp37
 70
     1
102
RTVSPost2010Prop38
140
0.0
102
RTVSPost2010PropOp38
 70
     1
102
RTVSPost2010Prop39
140
1.0
102
RTVSPost2010PropOp39
 70
     1
102
RTVSPost2010Prop40
 90
        0
102
RTVSPost2010PropOp40
 70
     1
102
RTVSPost2010Prop41ColorIndex
 90
       18
102
RTVSPost2010Prop41ColorRGB
 90
        0
102
RTVSPost2010PropOp41
 70
     1
102
RTVSPost2010Prop42
 90
       50
102
RTVSPost2010PropOp42
 70
     1
102
RTVSPost2010Prop43
 90
        3
102
RTVSPost2010PropOp43
 70
     1
102
RTVSPost2010Prop44ColorIndex
 90
        5
102
RTVSPost2010Prop44ColorRGB
 90
      255
102
RTVSPost2010PropOp44
 70
     1
102
RTVSPost2010Prop45
280
     0
102
RTVSPost2010PropOp45
 70
     1
102
RTVSPost2010Prop46
 90
       50
102
RTVSPost2010PropOp46
 70
     1
102
RTVSPost2010Prop47
 90
       50
102
RTVSPost2010PropOp47
 70
     1
102
RTVSPost2010Prop48
 90
       50
102
RTVSPost2010PropOp48
 70
     1
102
RTVSPost2010Prop49
280
     0
102
RTVSPost2010PropOp49
 70
     1
102
RTVSPost2010Prop50
 90
       50
102
RTVSPost2010PropOp50
 70
     1
102
RTVSPost2010Prop51ColorIndex
 90
      256
102
RTVSPost2010Prop51ColorRGB
 90
-16777216
102
RTVSPost2010PropOp51
 70
     0
102
RTVSPost2010Prop52
140
1.0
102
RTVSPost2010PropOp52
 70
     0
102
RTVSPost2010Prop53
 90
        2
102
RTVSPost2010PropOp53
 70
     1
102
RTVSPost2010Prop54
  1
strokes_ogs.tif
102
RTVSPost2010PropOp54
 70
     1
102
RTVSPost2010Prop55
280
     0
102
RTVSPost2010PropOp55
 70
     1
102
RTVSPost2010Prop56
140
1.0
102
RTVSPost2010PropOp56
 70
     1
102
RTVSPost2010Prop57
140
1.0
102
RTVSPost2010PropOp57
 70
     1
  0
XRECORD
  5
689
102
{ACAD_REACTORS
330
688
102
}
330
688
100
AcDbXrecord
280
     1
102
RTVSPropertyOp0
 70
     1
102
RTVSPropertyOp1
 70
     1
102
RTVSPropertyOp2
 70
     1
102
RTVSPropertyOp3
 70
     1
102
RTVSPropertyOp4
 70
     1
102
RTVSPropertyOp5
 70
     1
102
RTVSPropertyOp6
 70
     1
102
RTVSPropertyOp7
 70
     1
102
RTVSPropertyOp8
 70
     1
102
RTVSPropertyOp9
 70
     1
102
RTVSPropertyOp10
 70
     1
102
RTVSPropertyOp11
 70
     1
102
RTVSPropertyOp12
 70
     1
102
RTVSPropertyOp13
 70
     1
102
RTVSPropertyOp14
 70
     1
102
RTVSPropertyOp15
 70
     1
102
RTVSPropertyOp16
 70
     1
102
RTVSPropertyOp17
 70
     1
102
RTVSPropertyOp18
 70
     1
102
RTVSPropertyOp19
 70
     1
102
RTVSPropertyOp20
 70
     1
102
RTVSPropertyOp21
 70
     1
102
RTVSPropertyOp22
 70
     1
102
RTVSPropertyOp23
 70
     1
102
RTVSPropertyOp24
 70
     1
102
RTVSPropertyOp25
 70
     1
102
RTVSPropertyOp26
 70
     1
102
RTVSPropertyOp27
 70
     1
102
RTVSPropertyOp28
 70
     1
102
RTVSPropertyOp29
 70
     1
102
RTVSPropertyOp30
 70
     1
102
RTVSPropertyOp31
 70
     1
102
RTVSPropertyOp32
 70
     1
102
RTVSPropertyOp33
 70
     1
102
RTVSPropertyOp34
 70
     1
102
RTVSPropertyOp35
 70
     1
102
RTVSPropertyOp36
 70
     1
102
RTVSPropertyOp37
 70
     1
102
RTVSPropertyOp38
 70
     1
102
RTVSPropertyOp39
 70
     1
102
RTVSPropertyOp40
 70
     1
102
RTVSPropertyOp41
 70
     1
102
RTVSPropertyOp42
 70
     1
102
RTVSPropertyOp43
 70
     1
102
RTVSPropertyOp44
 70
     1
102
RTVSPropertyOp45
 70
     1
102
RTVSPropertyOp46
 70
     1
102
RTVSPropertyOp47
 70
     1
102
RTVSPropertyOp48
 70
     1
102
RTVSPropertyOp49
 70
     1
102
RTVSPropertyOp50
 70
     1
102
RTVSPropertyOp51
 70
     0
102
RTVSPropertyOp52
 70
     0
102
RTVSPropertyOp53
 70
     1
102
RTVSPropertyOp54
 70
     1
102
RTVSPropertyOp55
 70
     1
102
RTVSPropertyOp56
 70
     1
102
RTVSPropertyOp57
 70
     1
102
RTVSPost2010Prop28
280
     0
102
RTVSPost2010PropOp28
 70
     1
102
RTVSPost2010Prop29
280
     1
102
RTVSPost2010PropOp29
 70
     1
102
RTVSPost2010Prop30
280
     1
102
RTVSPost2010PropOp30
 70
     1
102
RTVSPost2010Prop31
280
     0
102
RTVSPost2010PropOp31
 70
     1
102
RTVSPost2010Prop32
280
     0
102
RTVSPost2010PropOp32
 70
     1
102
RTVSPost2010Prop33
280
     0
102
RTVSPost2010PropOp33
 70
     1
102
RTVSPost2010Prop34
280
     0
102
RTVSPost2010PropOp34
 70
     1
102
RTVSPost2010Prop35
280
     0
102
RTVSPost2010PropOp35
 70
     1
102
RTVSPost2010Prop36
280
     0
102
RTVSPost2010PropOp36
 70
     1
102
RTVSPost2010Prop37
 90
       50
102
RTVSPost2010PropOp37
 70
     1
102
RTVSPost2010Prop38
140
0.0
102
RTVSPost2010PropOp38
 70
     1
102
RTVSPost2010Prop39
140
1.0
102
RTVSPost2010PropOp39
 70
     1
102
RTVSPost2010Prop40
 90
        0
102
RTVSPost2010PropOp40
 70
     1
102
RTVSPost2010Prop41ColorIndex
 90
       18
102
RTVSPost2010Prop41ColorRGB
 90
        0
102
RTVSPost2010PropOp41
 70
     1
102
RTVSPost2010Prop42
 90
       50
102
RTVSPost2010PropOp42
 70
     1
102
RTVSPost2010Prop43
 90
        3
102
RTVSPost2010PropOp43
 70
     1
102
RTVSPost2010Prop44ColorIndex
 90
        5
102
RTVSPost2010Prop44ColorRGB
 90
      255
102
RTVSPost2010PropOp44
 70
     1
102
RTVSPost2010Prop45
280
     0
102
RTVSPost2010PropOp45
 70
     1
102
RTVSPost2010Prop46
 90
       50
102
RTVSPost2010PropOp46
 70
     1
102
RTVSPost2010Prop47
 90
       50
102
RTVSPost2010PropOp47
 70
     1
102
RTVSPost2010Prop48
 90
       50
102
RTVSPost2010PropOp48
 70
     1
102
RTVSPost2010Prop49
280
     0
102
RTVSPost2010PropOp49
 70
     1
102
RTVSPost2010Prop50
 90
       50
102
RTVSPost2010PropOp50
 70
     1
102
RTVSPost2010Prop51ColorIndex
 90
      256
102
RTVSPost2010Prop51ColorRGB
 90
-16777216
102
RTVSPost2010PropOp51
 70
     0
102
RTVSPost2010Prop52
140
1.0
102
RTVSPost2010PropOp52
 70
     0
102
RTVSPost2010Prop53
 90
        2
102
RTVSPost2010PropOp53
 70
     1
102
RTVSPost2010Prop54
  1
strokes_ogs.tif
102
RTVSPost2010PropOp54
 70
     1
102
RTVSPost2010Prop55
280
     0
102
RTVSPost2010PropOp55
 70
     1
102
RTVSPost2010Prop56
140
1.0
102
RTVSPost2010PropOp56
 70
     1
102
RTVSPost2010Prop57
140
1.0
102
RTVSPost2010PropOp57
 70
     1
  0
XRECORD
  5
68B
102
{ACAD_REACTORS
330
68A
102
}
330
68A
100
AcDbXrecord
280
     1
102
RTVSPropertyOp0
 70
     1
102
RTVSPropertyOp1
 70
     1
102
RTVSPropertyOp2
 70
     1
102
RTVSPropertyOp3
 70
     1
102
RTVSPropertyOp4
 70
     1
102
RTVSPropertyOp5
 70
     1
102
RTVSPropertyOp6
 70
     1
102
RTVSPropertyOp7
 70
     1
102
RTVSPropertyOp8
 70
     1
102
RTVSPropertyOp9
 70
     1
102
RTVSPropertyOp10
 70
     1
102
RTVSPropertyOp11
 70
     1
102
RTVSPropertyOp12
 70
     1
102
RTVSPropertyOp13
 70
     1
102
RTVSPropertyOp14
 70
     1
102
RTVSPropertyOp15
 70
     1
102
RTVSPropertyOp16
 70
     1
102
RTVSPropertyOp17
 70
     1
102
RTVSPropertyOp18
 70
     1
102
RTVSPropertyOp19
 70
     1
102
RTVSPropertyOp20
 70
     1
102
RTVSPropertyOp21
 70
     1
102
RTVSPropertyOp22
 70
     1
102
RTVSPropertyOp23
 70
     1
102
RTVSPropertyOp24
 70
     1
102
RTVSPropertyOp25
 70
     1
102
RTVSPropertyOp26
 70
     1
102
RTVSPropertyOp27
 70
     1
102
RTVSPropertyOp28
 70
     1
102
RTVSPropertyOp29
 70
     1
102
RTVSPropertyOp30
 70
     1
102
RTVSPropertyOp31
 70
     1
102
RTVSPropertyOp32
 70
     1
102
RTVSPropertyOp33
 70
     1
102
RTVSPropertyOp34
 70
     1
102
RTVSPropertyOp35
 70
     1
102
RTVSPropertyOp36
 70
     1
102
RTVSPropertyOp37
 70
     1
102
RTVSPropertyOp38
 70
     1
102
RTVSPropertyOp39
 70
     1
102
RTVSPropertyOp40
 70
     1
102
RTVSPropertyOp41
 70
     1
102
RTVSPropertyOp42
 70
     1
102
RTVSPropertyOp43
 70
     1
102
RTVSPropertyOp44
 70
     1
102
RTVSPropertyOp45
 70
     1
102
RTVSPropertyOp46
 70
     1
102
RTVSPropertyOp47
 70
     1
102
RTVSPropertyOp48
 70
     1
102
RTVSPropertyOp49
 70
     1
102
RTVSPropertyOp50
 70
     1
102
RTVSPropertyOp51
 70
     0
102
RTVSPropertyOp52
 70
     0
102
RTVSPropertyOp53
 70
     1
102
RTVSPropertyOp54
 70
     1
102
RTVSPropertyOp55
 70
     1
102
RTVSPropertyOp56
 70
     1
102
RTVSPropertyOp57
 70
     1
102
RTVSPost2010Prop28
280
     0
102
RTVSPost2010PropOp28
 70
     1
102
RTVSPost2010Prop29
280
     1
102
RTVSPost2010PropOp29
 70
     1
102
RTVSPost2010Prop30
280
     1
102
RTVSPost2010PropOp30
 70
     1
102
RTVSPost2010Prop31
280
     0
102
RTVSPost2010PropOp31
 70
     1
102
RTVSPost2010Prop32
280
     0
102
RTVSPost2010PropOp32
 70
     1
102
RTVSPost2010Prop33
280
     0
102
RTVSPost2010PropOp33
 70
     1
102
RTVSPost2010Prop34
280
     0
102
RTVSPost2010PropOp34
 70
     1
102
RTVSPost2010Prop35
280
     0
102
RTVSPost2010PropOp35
 70
     1
102
RTVSPost2010Prop36
280
     0
102
RTVSPost2010PropOp36
 70
     1
102
RTVSPost2010Prop37
 90
       50
102
RTVSPost2010PropOp37
 70
     1
102
RTVSPost2010Prop38
140
0.0
102
RTVSPost2010PropOp38
 70
     1
102
RTVSPost2010Prop39
140
1.0
102
RTVSPost2010PropOp39
 70
     1
102
RTVSPost2010Prop40
 90
        0
102
RTVSPost2010PropOp40
 70
     1
102
RTVSPost2010Prop41ColorIndex
 90
       18
102
RTVSPost2010Prop41ColorRGB
 90
        0
102
RTVSPost2010PropOp41
 70
     1
102
RTVSPost2010Prop42
 90
       50
102
RTVSPost2010PropOp42
 70
     1
102
RTVSPost2010Prop43
 90
        3
102
RTVSPost2010PropOp43
 70
     1
102
RTVSPost2010Prop44ColorIndex
 90
        5
102
RTVSPost2010Prop44ColorRGB
 90
      255
102
RTVSPost2010PropOp44
 70
     1
102
RTVSPost2010Prop45
280
     0
102
RTVSPost2010PropOp45
 70
     1
102
RTVSPost2010Prop46
 90
       50
102
RTVSPost2010PropOp46
 70
     1
102
RTVSPost2010Prop47
 90
       50
102
RTVSPost2010PropOp47
 70
     1
102
RTVSPost2010Prop48
 90
       50
102
RTVSPost2010PropOp48
 70
     1
102
RTVSPost2010Prop49
280
     0
102
RTVSPost2010PropOp49
 70
     1
102
RTVSPost2010Prop50
 90
       50
102
RTVSPost2010PropOp50
 70
     1
102
RTVSPost2010Prop51ColorIndex
 90
      256
102
RTVSPost2010Prop51ColorRGB
 90
-16777216
102
RTVSPost2010PropOp51
 70
     0
102
RTVSPost2010Prop52
140
1.0
102
RTVSPost2010PropOp52
 70
     0
102
RTVSPost2010Prop53
 90
        2
102
RTVSPost2010PropOp53
 70
     1
102
RTVSPost2010Prop54
  1
strokes_ogs.tif
102
RTVSPost2010PropOp54
 70
     1
102
RTVSPost2010Prop55
280
     0
102
RTVSPost2010PropOp55
 70
     1
102
RTVSPost2010Prop56
140
1.0
102
RTVSPost2010PropOp56
 70
     1
102
RTVSPost2010Prop57
140
1.0
102
RTVSPost2010PropOp57
 70
     1
  0
XRECORD
  5
68D
102
{ACAD_REACTORS
330
68C
102
}
330
68C
100
AcDbXrecord
280
     1
102
RTVSPropertyOp0
 70
     1
102
RTVSPropertyOp1
 70
     1
102
RTVSPropertyOp2
 70
     1
102
RTVSPropertyOp3
 70
     1
102
RTVSPropertyOp4
 70
     1
102
RTVSPropertyOp5
 70
     1
102
RTVSPropertyOp6
 70
     1
102
RTVSPropertyOp7
 70
     1
102
RTVSPropertyOp8
 70
     1
102
RTVSPropertyOp9
 70
     1
102
RTVSPropertyOp10
 70
     1
102
RTVSPropertyOp11
 70
     1
102
RTVSPropertyOp12
 70
     1
102
RTVSPropertyOp13
 70
     1
102
RTVSPropertyOp14
 70
     1
102
RTVSPropertyOp15
 70
     1
102
RTVSPropertyOp16
 70
     1
102
RTVSPropertyOp17
 70
     1
102
RTVSPropertyOp18
 70
     1
102
RTVSPropertyOp19
 70
     1
102
RTVSPropertyOp20
 70
     1
102
RTVSPropertyOp21
 70
     1
102
RTVSPropertyOp22
 70
     1
102
RTVSPropertyOp23
 70
     1
102
RTVSPropertyOp24
 70
     1
102
RTVSPropertyOp25
 70
     1
102
RTVSPropertyOp26
 70
     1
102
RTVSPropertyOp27
 70
     1
102
RTVSPropertyOp28
 70
     1
102
RTVSPropertyOp29
 70
     1
102
RTVSPropertyOp30
 70
     1
102
RTVSPropertyOp31
 70
     1
102
RTVSPropertyOp32
 70
     1
102
RTVSPropertyOp33
 70
     1
102
RTVSPropertyOp34
 70
     1
102
RTVSPropertyOp35
 70
     1
102
RTVSPropertyOp36
 70
     1
102
RTVSPropertyOp37
 70
     1
102
RTVSPropertyOp38
 70
     1
102
RTVSPropertyOp39
 70
     1
102
RTVSPropertyOp40
 70
     1
102
RTVSPropertyOp41
 70
     1
102
RTVSPropertyOp42
 70
     1
102
RTVSPropertyOp43
 70
     1
102
RTVSPropertyOp44
 70
     1
102
RTVSPropertyOp45
 70
     1
102
RTVSPropertyOp46
 70
     1
102
RTVSPropertyOp47
 70
     1
102
RTVSPropertyOp48
 70
     1
102
RTVSPropertyOp49
 70
     1
102
RTVSPropertyOp50
 70
     1
102
RTVSPropertyOp51
 70
     0
102
RTVSPropertyOp52
 70
     0
102
RTVSPropertyOp53
 70
     1
102
RTVSPropertyOp54
 70
     1
102
RTVSPropertyOp55
 70
     1
102
RTVSPropertyOp56
 70
     1
102
RTVSPropertyOp57
 70
     1
102
RTVSPost2010Prop28
280
     0
102
RTVSPost2010PropOp28
 70
     1
102
RTVSPost2010Prop29
280
     1
102
RTVSPost2010PropOp29
 70
     1
102
RTVSPost2010Prop30
280
     1
102
RTVSPost2010PropOp30
 70
     1
102
RTVSPost2010Prop31
280
     0
102
RTVSPost2010PropOp31
 70
     1
102
RTVSPost2010Prop32
280
     0
102
RTVSPost2010PropOp32
 70
     1
102
RTVSPost2010Prop33
280
     0
102
RTVSPost2010PropOp33
 70
     1
102
RTVSPost2010Prop34
280
     0
102
RTVSPost2010PropOp34
 70
     1
102
RTVSPost2010Prop35
280
     0
102
RTVSPost2010PropOp35
 70
     1
102
RTVSPost2010Prop36
280
     0
102
RTVSPost2010PropOp36
 70
     1
102
RTVSPost2010Prop37
 90
       50
102
RTVSPost2010PropOp37
 70
     1
102
RTVSPost2010Prop38
140
0.0
102
RTVSPost2010PropOp38
 70
     1
102
RTVSPost2010Prop39
140
1.0
102
RTVSPost2010PropOp39
 70
     1
102
RTVSPost2010Prop40
 90
        0
102
RTVSPost2010PropOp40
 70
     1
102
RTVSPost2010Prop41ColorIndex
 90
       18
102
RTVSPost2010Prop41ColorRGB
 90
        0
102
RTVSPost2010PropOp41
 70
     1
102
RTVSPost2010Prop42
 90
       50
102
RTVSPost2010PropOp42
 70
     1
102
RTVSPost2010Prop43
 90
        3
102
RTVSPost2010PropOp43
 70
     1
102
RTVSPost2010Prop44ColorIndex
 90
        5
102
RTVSPost2010Prop44ColorRGB
 90
      255
102
RTVSPost2010PropOp44
 70
     1
102
RTVSPost2010Prop45
280
     0
102
RTVSPost2010PropOp45
 70
     1
102
RTVSPost2010Prop46
 90
       50
102
RTVSPost2010PropOp46
 70
     1
102
RTVSPost2010Prop47
 90
       50
102
RTVSPost2010PropOp47
 70
     1
102
RTVSPost2010Prop48
 90
       50
102
RTVSPost2010PropOp48
 70
     1
102
RTVSPost2010Prop49
280
     0
102
RTVSPost2010PropOp49
 70
     1
102
RTVSPost2010Prop50
 90
       50
102
RTVSPost2010PropOp50
 70
     1
102
RTVSPost2010Prop51ColorIndex
 90
      256
102
RTVSPost2010Prop51ColorRGB
 90
-16777216
102
RTVSPost2010PropOp51
 70
     0
102
RTVSPost2010Prop52
140
1.0
102
RTVSPost2010PropOp52
 70
     0
102
RTVSPost2010Prop53
 90
        2
102
RTVSPost2010PropOp53
 70
     1
102
RTVSPost2010Prop54
  1
strokes_ogs.tif
102
RTVSPost2010PropOp54
 70
     1
102
RTVSPost2010Prop55
280
     0
102
RTVSPost2010PropOp55
 70
     1
102
RTVSPost2010Prop56
140
1.0
102
RTVSPost2010PropOp56
 70
     1
102
RTVSPost2010Prop57
140
1.0
102
RTVSPost2010PropOp57
 70
     1
  0
XRECORD
  5
691
102
{ACAD_REACTORS
330
690
102
}
330
690
100
AcDbXrecord
280
     1
102
RTVSPropertyOp0
 70
     1
102
RTVSPropertyOp1
 70
     1
102
RTVSPropertyOp2
 70
     1
102
RTVSPropertyOp3
 70
     1
102
RTVSPropertyOp4
 70
     1
102
RTVSPropertyOp5
 70
     1
102
RTVSPropertyOp6
 70
     1
102
RTVSPropertyOp7
 70
     1
102
RTVSPropertyOp8
 70
     1
102
RTVSPropertyOp9
 70
     1
102
RTVSPropertyOp10
 70
     1
102
RTVSPropertyOp11
 70
     1
102
RTVSPropertyOp12
 70
     1
102
RTVSPropertyOp13
 70
     1
102
RTVSPropertyOp14
 70
     1
102
RTVSPropertyOp15
 70
     1
102
RTVSPropertyOp16
 70
     1
102
RTVSPropertyOp17
 70
     1
102
RTVSPropertyOp18
 70
     1
102
RTVSPropertyOp19
 70
     1
102
RTVSPropertyOp20
 70
     1
102
RTVSPropertyOp21
 70
     1
102
RTVSPropertyOp22
 70
     1
102
RTVSPropertyOp23
 70
     1
102
RTVSPropertyOp24
 70
     1
102
RTVSPropertyOp25
 70
     1
102
RTVSPropertyOp26
 70
     1
102
RTVSPropertyOp27
 70
     1
102
RTVSPropertyOp28
 70
     1
102
RTVSPropertyOp29
 70
     1
102
RTVSPropertyOp30
 70
     1
102
RTVSPropertyOp31
 70
     1
102
RTVSPropertyOp32
 70
     1
102
RTVSPropertyOp33
 70
     1
102
RTVSPropertyOp34
 70
     1
102
RTVSPropertyOp35
 70
     1
102
RTVSPropertyOp36
 70
     1
102
RTVSPropertyOp37
 70
     1
102
RTVSPropertyOp38
 70
     1
102
RTVSPropertyOp39
 70
     1
102
RTVSPropertyOp40
 70
     1
102
RTVSPropertyOp41
 70
     1
102
RTVSPropertyOp42
 70
     1
102
RTVSPropertyOp43
 70
     1
102
RTVSPropertyOp44
 70
     1
102
RTVSPropertyOp45
 70
     1
102
RTVSPropertyOp46
 70
     1
102
RTVSPropertyOp47
 70
     1
102
RTVSPropertyOp48
 70
     1
102
RTVSPropertyOp49
 70
     1
102
RTVSPropertyOp50
 70
     1
102
RTVSPropertyOp51
 70
     0
102
RTVSPropertyOp52
 70
     0
102
RTVSPropertyOp53
 70
     1
102
RTVSPropertyOp54
 70
     1
102
RTVSPropertyOp55
 70
     1
102
RTVSPropertyOp56
 70
     1
102
RTVSPropertyOp57
 70
     1
102
RTVSPost2010Prop28
280
     0
102
RTVSPost2010PropOp28
 70
     1
102
RTVSPost2010Prop29
280
     1
102
RTVSPost2010PropOp29
 70
     1
102
RTVSPost2010Prop30
280
     1
102
RTVSPost2010PropOp30
 70
     1
102
RTVSPost2010Prop31
280
     0
102
RTVSPost2010PropOp31
 70
     1
102
RTVSPost2010Prop32
280
     0
102
RTVSPost2010PropOp32
 70
     1
102
RTVSPost2010Prop33
280
     0
102
RTVSPost2010PropOp33
 70
     1
102
RTVSPost2010Prop34
280
     0
102
RTVSPost2010PropOp34
 70
     1
102
RTVSPost2010Prop35
280
     0
102
RTVSPost2010PropOp35
 70
     1
102
RTVSPost2010Prop36
280
     0
102
RTVSPost2010PropOp36
 70
     1
102
RTVSPost2010Prop37
 90
       50
102
RTVSPost2010PropOp37
 70
     1
102
RTVSPost2010Prop38
140
0.0
102
RTVSPost2010PropOp38
 70
     1
102
RTVSPost2010Prop39
140
1.0
102
RTVSPost2010PropOp39
 70
     1
102
RTVSPost2010Prop40
 90
        0
102
RTVSPost2010PropOp40
 70
     1
102
RTVSPost2010Prop41ColorIndex
 90
       18
102
RTVSPost2010Prop41ColorRGB
 90
        0
102
RTVSPost2010PropOp41
 70
     1
102
RTVSPost2010Prop42
 90
       50
102
RTVSPost2010PropOp42
 70
     1
102
RTVSPost2010Prop43
 90
        3
102
RTVSPost2010PropOp43
 70
     1
102
RTVSPost2010Prop44ColorIndex
 90
        5
102
RTVSPost2010Prop44ColorRGB
 90
      255
102
RTVSPost2010PropOp44
 70
     1
102
RTVSPost2010Prop45
280
     0
102
RTVSPost2010PropOp45
 70
     1
102
RTVSPost2010Prop46
 90
       50
102
RTVSPost2010PropOp46
 70
     1
102
RTVSPost2010Prop47
 90
       50
102
RTVSPost2010PropOp47
 70
     1
102
RTVSPost2010Prop48
 90
       50
102
RTVSPost2010PropOp48
 70
     1
102
RTVSPost2010Prop49
280
     0
102
RTVSPost2010PropOp49
 70
     1
102
RTVSPost2010Prop50
 90
       50
102
RTVSPost2010PropOp50
 70
     1
102
RTVSPost2010Prop51ColorIndex
 90
      256
102
RTVSPost2010Prop51ColorRGB
 90
-16777216
102
RTVSPost2010PropOp51
 70
     0
102
RTVSPost2010Prop52
140
1.0
102
RTVSPost2010PropOp52
 70
     0
102
RTVSPost2010Prop53
 90
        2
102
RTVSPost2010PropOp53
 70
     1
102
RTVSPost2010Prop54
  1
strokes_ogs.tif
102
RTVSPost2010PropOp54
 70
     1
102
RTVSPost2010Prop55
280
     0
102
RTVSPost2010PropOp55
 70
     1
102
RTVSPost2010Prop56
140
1.0
102
RTVSPost2010PropOp56
 70
     1
102
RTVSPost2010Prop57
140
1.0
102
RTVSPost2010PropOp57
 70
     1
  0
XRECORD
  5
6A3
102
{ACAD_REACTORS
330
6A2
102
}
330
6A2
100
AcDbXrecord
280
     1
102
RTVSPropertyOp0
 70
     0
102
RTVSPropertyOp1
 70
     0
102
RTVSPropertyOp2
 70
     0
102
RTVSPropertyOp3
 70
     0
102
RTVSPropertyOp4
 70
     0
102
RTVSPropertyOp5
 70
     0
102
RTVSPropertyOp6
 70
     0
102
RTVSPropertyOp7
 70
     0
102
RTVSPropertyOp8
 70
     0
102
RTVSPropertyOp9
 70
     0
102
RTVSPropertyOp10
 70
     0
102
RTVSPropertyOp11
 70
     0
102
RTVSPropertyOp12
 70
     0
102
RTVSPropertyOp13
 70
     0
102
RTVSPropertyOp14
 70
     0
102
RTVSPropertyOp15
 70
     0
102
RTVSPropertyOp16
 70
     0
102
RTVSPropertyOp17
 70
     0
102
RTVSPropertyOp18
 70
     0
102
RTVSPropertyOp19
 70
     0
102
RTVSPropertyOp20
 70
     0
102
RTVSPropertyOp21
 70
     0
102
RTVSPropertyOp22
 70
     0
102
RTVSPropertyOp23
 70
     0
102
RTVSPropertyOp24
 70
     0
102
RTVSPropertyOp25
 70
     0
102
RTVSPropertyOp26
 70
     0
102
RTVSPropertyOp27
 70
     0
102
RTVSPropertyOp28
 70
     1
102
RTVSPropertyOp29
 70
     1
102
RTVSPropertyOp30
 70
     1
102
RTVSPropertyOp31
 70
     1
102
RTVSPropertyOp32
 70
     1
102
RTVSPropertyOp33
 70
     1
102
RTVSPropertyOp34
 70
     1
102
RTVSPropertyOp35
 70
     1
102
RTVSPropertyOp36
 70
     1
102
RTVSPropertyOp37
 70
     1
102
RTVSPropertyOp38
 70
     1
102
RTVSPropertyOp39
 70
     1
102
RTVSPropertyOp40
 70
     1
102
RTVSPropertyOp41
 70
     1
102
RTVSPropertyOp42
 70
     1
102
RTVSPropertyOp43
 70
     1
102
RTVSPropertyOp44
 70
     1
102
RTVSPropertyOp45
 70
     1
102
RTVSPropertyOp46
 70
     1
102
RTVSPropertyOp47
 70
     1
102
RTVSPropertyOp48
 70
     1
102
RTVSPropertyOp49
 70
     1
102
RTVSPropertyOp50
 70
     1
102
RTVSPropertyOp51
 70
     0
102
RTVSPropertyOp52
 70
     0
102
RTVSPropertyOp53
 70
     1
102
RTVSPropertyOp54
 70
     1
102
RTVSPropertyOp55
 70
     1
102
RTVSPropertyOp56
 70
     1
102
RTVSPropertyOp57
 70
     1
102
RTVSPost2010Prop28
280
     0
102
RTVSPost2010PropOp28
 70
     1
102
RTVSPost2010Prop29
280
     1
102
RTVSPost2010PropOp29
 70
     1
102
RTVSPost2010Prop30
280
     1
102
RTVSPost2010PropOp30
 70
     1
102
RTVSPost2010Prop31
280
     0
102
RTVSPost2010PropOp31
 70
     1
102
RTVSPost2010Prop32
280
     0
102
RTVSPost2010PropOp32
 70
     1
102
RTVSPost2010Prop33
280
     0
102
RTVSPost2010PropOp33
 70
     1
102
RTVSPost2010Prop34
280
     0
102
RTVSPost2010PropOp34
 70
     1
102
RTVSPost2010Prop35
280
     0
102
RTVSPost2010PropOp35
 70
     1
102
RTVSPost2010Prop36
280
     0
102
RTVSPost2010PropOp36
 70
     1
102
RTVSPost2010Prop37
 90
       50
102
RTVSPost2010PropOp37
 70
     1
102
RTVSPost2010Prop38
140
0.0
102
RTVSPost2010PropOp38
 70
     1
102
RTVSPost2010Prop39
140
1.0
102
RTVSPost2010PropOp39
 70
     1
102
RTVSPost2010Prop40
 90
        0
102
RTVSPost2010PropOp40
 70
     1
102
RTVSPost2010Prop41ColorIndex
 90
       18
102
RTVSPost2010Prop41ColorRGB
 90
        0
102
RTVSPost2010PropOp41
 70
     1
102
RTVSPost2010Prop42
 90
       50
102
RTVSPost2010PropOp42
 70
     1
102
RTVSPost2010Prop43
 90
        3
102
RTVSPost2010PropOp43
 70
     1
102
RTVSPost2010Prop44ColorIndex
 90
        5
102
RTVSPost2010Prop44ColorRGB
 90
      255
102
RTVSPost2010PropOp44
 70
     1
102
RTVSPost2010Prop45
280
     0
102
RTVSPost2010PropOp45
 70
     1
102
RTVSPost2010Prop46
 90
       50
102
RTVSPost2010PropOp46
 70
     1
102
RTVSPost2010Prop47
 90
       50
102
RTVSPost2010PropOp47
 70
     1
102
RTVSPost2010Prop48
 90
       50
102
RTVSPost2010PropOp48
 70
     1
102
RTVSPost2010Prop49
280
     0
102
RTVSPost2010PropOp49
 70
     1
102
RTVSPost2010Prop50
 90
       50
102
RTVSPost2010PropOp50
 70
     1
102
RTVSPost2010Prop51ColorIndex
 90
      256
102
RTVSPost2010Prop51ColorRGB
 90
-16777216
102
RTVSPost2010PropOp51
 70
     0
102
RTVSPost2010Prop52
140
1.0
102
RTVSPost2010PropOp52
 70
     0
102
RTVSPost2010Prop53
 90
        2
102
RTVSPost2010PropOp53
 70
     1
102
RTVSPost2010Prop54
  1
strokes_ogs.tif
102
RTVSPost2010PropOp54
 70
     1
102
RTVSPost2010Prop55
280
     0
102
RTVSPost2010PropOp55
 70
     1
102
RTVSPost2010Prop56
140
1.0
102
RTVSPost2010PropOp56
 70
     1
102
RTVSPost2010Prop57
140
1.0
102
RTVSPost2010PropOp57
 70
     1
  0
XRECORD
  5
69D
102
{ACAD_REACTORS
330
69C
102
}
330
69C
100
AcDbXrecord
280
     1
102
RTVSPropertyOp0
 70
     1
102
RTVSPropertyOp1
 70
     1
102
RTVSPropertyOp2
 70
     1
102
RTVSPropertyOp3
 70
     1
102
RTVSPropertyOp4
 70
     1
102
RTVSPropertyOp5
 70
     1
102
RTVSPropertyOp6
 70
     1
102
RTVSPropertyOp7
 70
     1
102
RTVSPropertyOp8
 70
     1
102
RTVSPropertyOp9
 70
     1
102
RTVSPropertyOp10
 70
     1
102
RTVSPropertyOp11
 70
     1
102
RTVSPropertyOp12
 70
     1
102
RTVSPropertyOp13
 70
     1
102
RTVSPropertyOp14
 70
     1
102
RTVSPropertyOp15
 70
     1
102
RTVSPropertyOp16
 70
     1
102
RTVSPropertyOp17
 70
     1
102
RTVSPropertyOp18
 70
     1
102
RTVSPropertyOp19
 70
     1
102
RTVSPropertyOp20
 70
     1
102
RTVSPropertyOp21
 70
     1
102
RTVSPropertyOp22
 70
     1
102
RTVSPropertyOp23
 70
     1
102
RTVSPropertyOp24
 70
     1
102
RTVSPropertyOp25
 70
     1
102
RTVSPropertyOp26
 70
     1
102
RTVSPropertyOp27
 70
     1
102
RTVSPropertyOp28
 70
     1
102
RTVSPropertyOp29
 70
     1
102
RTVSPropertyOp30
 70
     1
102
RTVSPropertyOp31
 70
     1
102
RTVSPropertyOp32
 70
     1
102
RTVSPropertyOp33
 70
     1
102
RTVSPropertyOp34
 70
     1
102
RTVSPropertyOp35
 70
     1
102
RTVSPropertyOp36
 70
     1
102
RTVSPropertyOp37
 70
     1
102
RTVSPropertyOp38
 70
     1
102
RTVSPropertyOp39
 70
     1
102
RTVSPropertyOp40
 70
     1
102
RTVSPropertyOp41
 70
     1
102
RTVSPropertyOp42
 70
     1
102
RTVSPropertyOp43
 70
     1
102
RTVSPropertyOp44
 70
     1
102
RTVSPropertyOp45
 70
     1
102
RTVSPropertyOp46
 70
     1
102
RTVSPropertyOp47
 70
     1
102
RTVSPropertyOp48
 70
     1
102
RTVSPropertyOp49
 70
     1
102
RTVSPropertyOp50
 70
     1
102
RTVSPropertyOp51
 70
     0
102
RTVSPropertyOp52
 70
     0
102
RTVSPropertyOp53
 70
     1
102
RTVSPropertyOp54
 70
     1
102
RTVSPropertyOp55
 70
     1
102
RTVSPropertyOp56
 70
     1
102
RTVSPropertyOp57
 70
     1
102
RTVSPost2010Prop28
280
     0
102
RTVSPost2010PropOp28
 70
     1
102
RTVSPost2010Prop29
280
     1
102
RTVSPost2010PropOp29
 70
     1
102
RTVSPost2010Prop30
280
     1
102
RTVSPost2010PropOp30
 70
     1
102
RTVSPost2010Prop31
280
     0
102
RTVSPost2010PropOp31
 70
     1
102
RTVSPost2010Prop32
280
     0
102
RTVSPost2010PropOp32
 70
     1
102
RTVSPost2010Prop33
280
     0
102
RTVSPost2010PropOp33
 70
     1
102
RTVSPost2010Prop34
280
     0
102
RTVSPost2010PropOp34
 70
     1
102
RTVSPost2010Prop35
280
     0
102
RTVSPost2010PropOp35
 70
     1
102
RTVSPost2010Prop36
280
     0
102
RTVSPost2010PropOp36
 70
     1
102
RTVSPost2010Prop37
 90
       50
102
RTVSPost2010PropOp37
 70
     1
102
RTVSPost2010Prop38
140
0.0
102
RTVSPost2010PropOp38
 70
     1
102
RTVSPost2010Prop39
140
1.0
102
RTVSPost2010PropOp39
 70
     1
102
RTVSPost2010Prop40
 90
        0
102
RTVSPost2010PropOp40
 70
     1
102
RTVSPost2010Prop41ColorIndex
 90
       18
102
RTVSPost2010Prop41ColorRGB
 90
        0
102
RTVSPost2010PropOp41
 70
     1
102
RTVSPost2010Prop42
 90
       50
102
RTVSPost2010PropOp42
 70
     1
102
RTVSPost2010Prop43
 90
        3
102
RTVSPost2010PropOp43
 70
     1
102
RTVSPost2010Prop44ColorIndex
 90
        5
102
RTVSPost2010Prop44ColorRGB
 90
      255
102
RTVSPost2010PropOp44
 70
     1
102
RTVSPost2010Prop45
280
     0
102
RTVSPost2010PropOp45
 70
     1
102
RTVSPost2010Prop46
 90
       50
102
RTVSPost2010PropOp46
 70
     1
102
RTVSPost2010Prop47
 90
       50
102
RTVSPost2010PropOp47
 70
     1
102
RTVSPost2010Prop48
 90
       50
102
RTVSPost2010PropOp48
 70
     1
102
RTVSPost2010Prop49
280
     0
102
RTVSPost2010PropOp49
 70
     1
102
RTVSPost2010Prop50
 90
       50
102
RTVSPost2010PropOp50
 70
     1
102
RTVSPost2010Prop51ColorIndex
 90
      256
102
RTVSPost2010Prop51ColorRGB
 90
-16777216
102
RTVSPost2010PropOp51
 70
     0
102
RTVSPost2010Prop52
140
1.0
102
RTVSPost2010PropOp52
 70
     0
102
RTVSPost2010Prop53
 90
        2
102
RTVSPost2010PropOp53
 70
     1
102
RTVSPost2010Prop54
  1
strokes_ogs.tif
102
RTVSPost2010PropOp54
 70
     1
102
RTVSPost2010Prop55
280
     0
102
RTVSPost2010PropOp55
 70
     1
102
RTVSPost2010Prop56
140
1.0
102
RTVSPost2010PropOp56
 70
     1
102
RTVSPost2010Prop57
140
1.0
102
RTVSPost2010PropOp57
 70
     1
  0
XRECORD
  5
6A5
102
{ACAD_REACTORS
330
6A4
102
}
330
6A4
100
AcDbXrecord
280
     1
102
RTVSPropertyOp0
 70
     0
102
RTVSPropertyOp1
 70
     0
102
RTVSPropertyOp2
 70
     0
102
RTVSPropertyOp3
 70
     0
102
RTVSPropertyOp4
 70
     0
102
RTVSPropertyOp5
 70
     0
102
RTVSPropertyOp6
 70
     0
102
RTVSPropertyOp7
 70
     0
102
RTVSPropertyOp8
 70
     0
102
RTVSPropertyOp9
 70
     0
102
RTVSPropertyOp10
 70
     0
102
RTVSPropertyOp11
 70
     0
102
RTVSPropertyOp12
 70
     0
102
RTVSPropertyOp13
 70
     0
102
RTVSPropertyOp14
 70
     0
102
RTVSPropertyOp15
 70
     0
102
RTVSPropertyOp16
 70
     0
102
RTVSPropertyOp17
 70
     0
102
RTVSPropertyOp18
 70
     0
102
RTVSPropertyOp19
 70
     0
102
RTVSPropertyOp20
 70
     0
102
RTVSPropertyOp21
 70
     0
102
RTVSPropertyOp22
 70
     0
102
RTVSPropertyOp23
 70
     0
102
RTVSPropertyOp24
 70
     0
102
RTVSPropertyOp25
 70
     0
102
RTVSPropertyOp26
 70
     0
102
RTVSPropertyOp27
 70
     0
102
RTVSPropertyOp28
 70
     1
102
RTVSPropertyOp29
 70
     1
102
RTVSPropertyOp30
 70
     1
102
RTVSPropertyOp31
 70
     1
102
RTVSPropertyOp32
 70
     1
102
RTVSPropertyOp33
 70
     1
102
RTVSPropertyOp34
 70
     1
102
RTVSPropertyOp35
 70
     1
102
RTVSPropertyOp36
 70
     1
102
RTVSPropertyOp37
 70
     1
102
RTVSPropertyOp38
 70
     1
102
RTVSPropertyOp39
 70
     1
102
RTVSPropertyOp40
 70
     1
102
RTVSPropertyOp41
 70
     1
102
RTVSPropertyOp42
 70
     1
102
RTVSPropertyOp43
 70
     1
102
RTVSPropertyOp44
 70
     1
102
RTVSPropertyOp45
 70
     1
102
RTVSPropertyOp46
 70
     1
102
RTVSPropertyOp47
 70
     1
102
RTVSPropertyOp48
 70
     1
102
RTVSPropertyOp49
 70
     1
102
RTVSPropertyOp50
 70
     1
102
RTVSPropertyOp51
 70
     0
102
RTVSPropertyOp52
 70
     0
102
RTVSPropertyOp53
 70
     1
102
RTVSPropertyOp54
 70
     1
102
RTVSPropertyOp55
 70
     1
102
RTVSPropertyOp56
 70
     1
102
RTVSPropertyOp57
 70
     1
102
RTVSPost2010Prop28
280
     0
102
RTVSPost2010PropOp28
 70
     1
102
RTVSPost2010Prop29
280
     1
102
RTVSPost2010PropOp29
 70
     1
102
RTVSPost2010Prop30
280
     1
102
RTVSPost2010PropOp30
 70
     1
102
RTVSPost2010Prop31
280
     0
102
RTVSPost2010PropOp31
 70
     1
102
RTVSPost2010Prop32
280
     0
102
RTVSPost2010PropOp32
 70
     1
102
RTVSPost2010Prop33
280
     0
102
RTVSPost2010PropOp33
 70
     1
102
RTVSPost2010Prop34
280
     0
102
RTVSPost2010PropOp34
 70
     1
102
RTVSPost2010Prop35
280
     0
102
RTVSPost2010PropOp35
 70
     1
102
RTVSPost2010Prop36
280
     0
102
RTVSPost2010PropOp36
 70
     1
102
RTVSPost2010Prop37
 90
       50
102
RTVSPost2010PropOp37
 70
     1
102
RTVSPost2010Prop38
140
0.0
102
RTVSPost2010PropOp38
 70
     1
102
RTVSPost2010Prop39
140
1.0
102
RTVSPost2010PropOp39
 70
     1
102
RTVSPost2010Prop40
 90
        0
102
RTVSPost2010PropOp40
 70
     1
102
RTVSPost2010Prop41ColorIndex
 90
       18
102
RTVSPost2010Prop41ColorRGB
 90
        0
102
RTVSPost2010PropOp41
 70
     1
102
RTVSPost2010Prop42
 90
       50
102
RTVSPost2010PropOp42
 70
     1
102
RTVSPost2010Prop43
 90
        3
102
RTVSPost2010PropOp43
 70
     1
102
RTVSPost2010Prop44ColorIndex
 90
        5
102
RTVSPost2010Prop44ColorRGB
 90
      255
102
RTVSPost2010PropOp44
 70
     1
102
RTVSPost2010Prop45
280
     0
102
RTVSPost2010PropOp45
 70
     1
102
RTVSPost2010Prop46
 90
       50
102
RTVSPost2010PropOp46
 70
     1
102
RTVSPost2010Prop47
 90
       50
102
RTVSPost2010PropOp47
 70
     1
102
RTVSPost2010Prop48
 90
       50
102
RTVSPost2010PropOp48
 70
     1
102
RTVSPost2010Prop49
280
     0
102
RTVSPost2010PropOp49
 70
     1
102
RTVSPost2010Prop50
 90
       50
102
RTVSPost2010PropOp50
 70
     1
102
RTVSPost2010Prop51ColorIndex
 90
      256
102
RTVSPost2010Prop51ColorRGB
 90
-16777216
102
RTVSPost2010PropOp51
 70
     0
102
RTVSPost2010Prop52
140
1.0
102
RTVSPost2010PropOp52
 70
     0
102
RTVSPost2010Prop53
 90
        2
102
RTVSPost2010PropOp53
 70
     1
102
RTVSPost2010Prop54
  1
strokes_ogs.tif
102
RTVSPost2010PropOp54
 70
     1
102
RTVSPost2010Prop55
280
     0
102
RTVSPost2010PropOp55
 70
     1
102
RTVSPost2010Prop56
140
1.0
102
RTVSPost2010PropOp56
 70
     1
102
RTVSPost2010Prop57
140
1.0
102
RTVSPost2010PropOp57
 70
     1
  0
XRECORD
  5
683
102
{ACAD_REACTORS
330
682
102
}
330
682
100
AcDbXrecord
280
     1
102
RTVSPropertyOp0
 70
     1
102
RTVSPropertyOp1
 70
     1
102
RTVSPropertyOp2
 70
     1
102
RTVSPropertyOp3
 70
     1
102
RTVSPropertyOp4
 70
     1
102
RTVSPropertyOp5
 70
     1
102
RTVSPropertyOp6
 70
     1
102
RTVSPropertyOp7
 70
     1
102
RTVSPropertyOp8
 70
     1
102
RTVSPropertyOp9
 70
     1
102
RTVSPropertyOp10
 70
     1
102
RTVSPropertyOp11
 70
     1
102
RTVSPropertyOp12
 70
     1
102
RTVSPropertyOp13
 70
     1
102
RTVSPropertyOp14
 70
     1
102
RTVSPropertyOp15
 70
     1
102
RTVSPropertyOp16
 70
     1
102
RTVSPropertyOp17
 70
     1
102
RTVSPropertyOp18
 70
     1
102
RTVSPropertyOp19
 70
     1
102
RTVSPropertyOp20
 70
     1
102
RTVSPropertyOp21
 70
     1
102
RTVSPropertyOp22
 70
     1
102
RTVSPropertyOp23
 70
     1
102
RTVSPropertyOp24
 70
     1
102
RTVSPropertyOp25
 70
     1
102
RTVSPropertyOp26
 70
     1
102
RTVSPropertyOp27
 70
     1
102
RTVSPropertyOp28
 70
     1
102
RTVSPropertyOp29
 70
     1
102
RTVSPropertyOp30
 70
     1
102
RTVSPropertyOp31
 70
     1
102
RTVSPropertyOp32
 70
     1
102
RTVSPropertyOp33
 70
     1
102
RTVSPropertyOp34
 70
     1
102
RTVSPropertyOp35
 70
     1
102
RTVSPropertyOp36
 70
     1
102
RTVSPropertyOp37
 70
     1
102
RTVSPropertyOp38
 70
     1
102
RTVSPropertyOp39
 70
     1
102
RTVSPropertyOp40
 70
     1
102
RTVSPropertyOp41
 70
     1
102
RTVSPropertyOp42
 70
     1
102
RTVSPropertyOp43
 70
     1
102
RTVSPropertyOp44
 70
     1
102
RTVSPropertyOp45
 70
     1
102
RTVSPropertyOp46
 70
     1
102
RTVSPropertyOp47
 70
     1
102
RTVSPropertyOp48
 70
     1
102
RTVSPropertyOp49
 70
     1
102
RTVSPropertyOp50
 70
     1
102
RTVSPropertyOp51
 70
     0
102
RTVSPropertyOp52
 70
     0
102
RTVSPropertyOp53
 70
     1
102
RTVSPropertyOp54
 70
     1
102
RTVSPropertyOp55
 70
     1
102
RTVSPropertyOp56
 70
     1
102
RTVSPropertyOp57
 70
     1
102
RTVSPost2010Prop28
280
     0
102
RTVSPost2010PropOp28
 70
     1
102
RTVSPost2010Prop29
280
     1
102
RTVSPost2010PropOp29
 70
     1
102
RTVSPost2010Prop30
280
     1
102
RTVSPost2010PropOp30
 70
     1
102
RTVSPost2010Prop31
280
     0
102
RTVSPost2010PropOp31
 70
     1
102
RTVSPost2010Prop32
280
     0
102
RTVSPost2010PropOp32
 70
     1
102
RTVSPost2010Prop33
280
     0
102
RTVSPost2010PropOp33
 70
     1
102
RTVSPost2010Prop34
280
     0
102
RTVSPost2010PropOp34
 70
     1
102
RTVSPost2010Prop35
280
     0
102
RTVSPost2010PropOp35
 70
     1
102
RTVSPost2010Prop36
280
     0
102
RTVSPost2010PropOp36
 70
     1
102
RTVSPost2010Prop37
 90
       50
102
RTVSPost2010PropOp37
 70
     1
102
RTVSPost2010Prop38
140
0.0
102
RTVSPost2010PropOp38
 70
     1
102
RTVSPost2010Prop39
140
1.0
102
RTVSPost2010PropOp39
 70
     1
102
RTVSPost2010Prop40
 90
        0
102
RTVSPost2010PropOp40
 70
     1
102
RTVSPost2010Prop41ColorIndex
 90
       18
102
RTVSPost2010Prop41ColorRGB
 90
        0
102
RTVSPost2010PropOp41
 70
     1
102
RTVSPost2010Prop42
 90
       50
102
RTVSPost2010PropOp42
 70
     1
102
RTVSPost2010Prop43
 90
        3
102
RTVSPost2010PropOp43
 70
     1
102
RTVSPost2010Prop44ColorIndex
 90
        5
102
RTVSPost2010Prop44ColorRGB
 90
      255
102
RTVSPost2010PropOp44
 70
     1
102
RTVSPost2010Prop45
280
     0
102
RTVSPost2010PropOp45
 70
     1
102
RTVSPost2010Prop46
 90
       50
102
RTVSPost2010PropOp46
 70
     1
102
RTVSPost2010Prop47
 90
       50
102
RTVSPost2010PropOp47
 70
     1
102
RTVSPost2010Prop48
 90
       50
102
RTVSPost2010PropOp48
 70
     1
102
RTVSPost2010Prop49
280
     0
102
RTVSPost2010PropOp49
 70
     1
102
RTVSPost2010Prop50
 90
       50
102
RTVSPost2010PropOp50
 70
     1
102
RTVSPost2010Prop51ColorIndex
 90
      256
102
RTVSPost2010Prop51ColorRGB
 90
-16777216
102
RTVSPost2010PropOp51
 70
     0
102
RTVSPost2010Prop52
140
1.0
102
RTVSPost2010PropOp52
 70
     0
102
RTVSPost2010Prop53
 90
        2
102
RTVSPost2010PropOp53
 70
     1
102
RTVSPost2010Prop54
  1
strokes_ogs.tif
102
RTVSPost2010PropOp54
 70
     1
102
RTVSPost2010Prop55
280
     0
102
RTVSPost2010PropOp55
 70
     1
102
RTVSPost2010Prop56
140
1.0
102
RTVSPost2010PropOp56
 70
     1
102
RTVSPost2010Prop57
140
1.0
102
RTVSPost2010PropOp57
 70
     1
  0
XRECORD
  5
6B1
102
{ACAD_REACTORS
330
6B0
102
}
330
6B0
100
AcDbXrecord
280
     1
102
RTVSPropertyOp0
 70
     1
102
RTVSPropertyOp1
 70
     1
102
RTVSPropertyOp2
 70
     1
102
RTVSPropertyOp3
 70
     1
102
RTVSPropertyOp4
 70
     1
102
RTVSPropertyOp5
 70
     1
102
RTVSPropertyOp6
 70
     1
102
RTVSPropertyOp7
 70
     1
102
RTVSPropertyOp8
 70
     1
102
RTVSPropertyOp9
 70
     1
102
RTVSPropertyOp10
 70
     1
102
RTVSPropertyOp11
 70
     1
102
RTVSPropertyOp12
 70
     1
102
RTVSPropertyOp13
 70
     1
102
RTVSPropertyOp14
 70
     1
102
RTVSPropertyOp15
 70
     1
102
RTVSPropertyOp16
 70
     1
102
RTVSPropertyOp17
 70
     1
102
RTVSPropertyOp18
 70
     1
102
RTVSPropertyOp19
 70
     1
102
RTVSPropertyOp20
 70
     1
102
RTVSPropertyOp21
 70
     1
102
RTVSPropertyOp22
 70
     1
102
RTVSPropertyOp23
 70
     1
102
RTVSPropertyOp24
 70
     1
102
RTVSPropertyOp25
 70
     1
102
RTVSPropertyOp26
 70
     1
102
RTVSPropertyOp27
 70
     1
102
RTVSPropertyOp28
 70
     1
102
RTVSPropertyOp29
 70
     1
102
RTVSPropertyOp30
 70
     1
102
RTVSPropertyOp31
 70
     1
102
RTVSPropertyOp32
 70
     1
102
RTVSPropertyOp33
 70
     1
102
RTVSPropertyOp34
 70
     1
102
RTVSPropertyOp35
 70
     1
102
RTVSPropertyOp36
 70
     1
102
RTVSPropertyOp37
 70
     1
102
RTVSPropertyOp38
 70
     1
102
RTVSPropertyOp39
 70
     1
102
RTVSPropertyOp40
 70
     1
102
RTVSPropertyOp41
 70
     1
102
RTVSPropertyOp42
 70
     1
102
RTVSPropertyOp43
 70
     1
102
RTVSPropertyOp44
 70
     1
102
RTVSPropertyOp45
 70
     1
102
RTVSPropertyOp46
 70
     1
102
RTVSPropertyOp47
 70
     1
102
RTVSPropertyOp48
 70
     1
102
RTVSPropertyOp49
 70
     1
102
RTVSPropertyOp50
 70
     1
102
RTVSPropertyOp51
 70
     0
102
RTVSPropertyOp52
 70
     0
102
RTVSPropertyOp53
 70
     1
102
RTVSPropertyOp54
 70
     1
102
RTVSPropertyOp55
 70
     1
102
RTVSPropertyOp56
 70
     1
102
RTVSPropertyOp57
 70
     1
102
RTVSPost2010Prop28
280
     0
102
RTVSPost2010PropOp28
 70
     1
102
RTVSPost2010Prop29
280
     1
102
RTVSPost2010PropOp29
 70
     1
102
RTVSPost2010Prop30
280
     1
102
RTVSPost2010PropOp30
 70
     1
102
RTVSPost2010Prop31
280
     0
102
RTVSPost2010PropOp31
 70
     1
102
RTVSPost2010Prop32
280
     0
102
RTVSPost2010PropOp32
 70
     1
102
RTVSPost2010Prop33
280
     0
102
RTVSPost2010PropOp33
 70
     1
102
RTVSPost2010Prop34
280
     0
102
RTVSPost2010PropOp34
 70
     1
102
RTVSPost2010Prop35
280
     0
102
RTVSPost2010PropOp35
 70
     1
102
RTVSPost2010Prop36
280
     0
102
RTVSPost2010PropOp36
 70
     1
102
RTVSPost2010Prop37
 90
       50
102
RTVSPost2010PropOp37
 70
     1
102
RTVSPost2010Prop38
140
0.0
102
RTVSPost2010PropOp38
 70
     1
102
RTVSPost2010Prop39
140
1.0
102
RTVSPost2010PropOp39
 70
     1
102
RTVSPost2010Prop40
 90
        0
102
RTVSPost2010PropOp40
 70
     1
102
RTVSPost2010Prop41ColorIndex
 90
       18
102
RTVSPost2010Prop41ColorRGB
 90
        0
102
RTVSPost2010PropOp41
 70
     1
102
RTVSPost2010Prop42
 90
       50
102
RTVSPost2010PropOp42
 70
     1
102
RTVSPost2010Prop43
 90
        3
102
RTVSPost2010PropOp43
 70
     1
102
RTVSPost2010Prop44ColorIndex
 90
        5
102
RTVSPost2010Prop44ColorRGB
 90
      255
102
RTVSPost2010PropOp44
 70
     1
102
RTVSPost2010Prop45
280
     0
102
RTVSPost2010PropOp45
 70
     1
102
RTVSPost2010Prop46
 90
       50
102
RTVSPost2010PropOp46
 70
     1
102
RTVSPost2010Prop47
 90
       50
102
RTVSPost2010PropOp47
 70
     1
102
RTVSPost2010Prop48
 90
       50
102
RTVSPost2010PropOp48
 70
     1
102
RTVSPost2010Prop49
280
     0
102
RTVSPost2010PropOp49
 70
     1
102
RTVSPost2010Prop50
 90
       50
102
RTVSPost2010PropOp50
 70
     1
102
RTVSPost2010Prop51ColorIndex
 90
      256
102
RTVSPost2010Prop51ColorRGB
 90
-16777216
102
RTVSPost2010PropOp51
 70
     0
102
RTVSPost2010Prop52
140
1.0
102
RTVSPost2010PropOp52
 70
     0
102
RTVSPost2010Prop53
 90
        2
102
RTVSPost2010PropOp53
 70
     1
102
RTVSPost2010Prop54
  1
strokes_ogs.tif
102
RTVSPost2010PropOp54
 70
     1
102
RTVSPost2010Prop55
280
     0
102
RTVSPost2010PropOp55
 70
     1
102
RTVSPost2010Prop56
140
1.0
102
RTVSPost2010PropOp56
 70
     1
102
RTVSPost2010Prop57
140
1.0
102
RTVSPost2010PropOp57
 70
     1
  0
XRECORD
  5
6AF
102
{ACAD_REACTORS
330
6AE
102
}
330
6AE
100
AcDbXrecord
280
     1
102
RTVSPropertyOp0
 70
     1
102
RTVSPropertyOp1
 70
     1
102
RTVSPropertyOp2
 70
     1
102
RTVSPropertyOp3
 70
     1
102
RTVSPropertyOp4
 70
     1
102
RTVSPropertyOp5
 70
     1
102
RTVSPropertyOp6
 70
     1
102
RTVSPropertyOp7
 70
     1
102
RTVSPropertyOp8
 70
     1
102
RTVSPropertyOp9
 70
     1
102
RTVSPropertyOp10
 70
     1
102
RTVSPropertyOp11
 70
     1
102
RTVSPropertyOp12
 70
     1
102
RTVSPropertyOp13
 70
     1
102
RTVSPropertyOp14
 70
     1
102
RTVSPropertyOp15
 70
     1
102
RTVSPropertyOp16
 70
     1
102
RTVSPropertyOp17
 70
     1
102
RTVSPropertyOp18
 70
     1
102
RTVSPropertyOp19
 70
     1
102
RTVSPropertyOp20
 70
     1
102
RTVSPropertyOp21
 70
     1
102
RTVSPropertyOp22
 70
     1
102
RTVSPropertyOp23
 70
     1
102
RTVSPropertyOp24
 70
     1
102
RTVSPropertyOp25
 70
     1
102
RTVSPropertyOp26
 70
     1
102
RTVSPropertyOp27
 70
     1
102
RTVSPropertyOp28
 70
     1
102
RTVSPropertyOp29
 70
     1
102
RTVSPropertyOp30
 70
     1
102
RTVSPropertyOp31
 70
     1
102
RTVSPropertyOp32
 70
     1
102
RTVSPropertyOp33
 70
     1
102
RTVSPropertyOp34
 70
     1
102
RTVSPropertyOp35
 70
     1
102
RTVSPropertyOp36
 70
     1
102
RTVSPropertyOp37
 70
     1
102
RTVSPropertyOp38
 70
     1
102
RTVSPropertyOp39
 70
     1
102
RTVSPropertyOp40
 70
     1
102
RTVSPropertyOp41
 70
     1
102
RTVSPropertyOp42
 70
     1
102
RTVSPropertyOp43
 70
     1
102
RTVSPropertyOp44
 70
     1
102
RTVSPropertyOp45
 70
     1
102
RTVSPropertyOp46
 70
     1
102
RTVSPropertyOp47
 70
     1
102
RTVSPropertyOp48
 70
     1
102
RTVSPropertyOp49
 70
     1
102
RTVSPropertyOp50
 70
     1
102
RTVSPropertyOp51
 70
     0
102
RTVSPropertyOp52
 70
     0
102
RTVSPropertyOp53
 70
     1
102
RTVSPropertyOp54
 70
     1
102
RTVSPropertyOp55
 70
     1
102
RTVSPropertyOp56
 70
     1
102
RTVSPropertyOp57
 70
     1
102
RTVSPost2010Prop28
280
     0
102
RTVSPost2010PropOp28
 70
     1
102
RTVSPost2010Prop29
280
     1
102
RTVSPost2010PropOp29
 70
     1
102
RTVSPost2010Prop30
280
     1
102
RTVSPost2010PropOp30
 70
     1
102
RTVSPost2010Prop31
280
     0
102
RTVSPost2010PropOp31
 70
     1
102
RTVSPost2010Prop32
280
     0
102
RTVSPost2010PropOp32
 70
     1
102
RTVSPost2010Prop33
280
     0
102
RTVSPost2010PropOp33
 70
     1
102
RTVSPost2010Prop34
280
     0
102
RTVSPost2010PropOp34
 70
     1
102
RTVSPost2010Prop35
280
     0
102
RTVSPost2010PropOp35
 70
     1
102
RTVSPost2010Prop36
280
     0
102
RTVSPost2010PropOp36
 70
     1
102
RTVSPost2010Prop37
 90
       50
102
RTVSPost2010PropOp37
 70
     1
102
RTVSPost2010Prop38
140
0.0
102
RTVSPost2010PropOp38
 70
     1
102
RTVSPost2010Prop39
140
1.0
102
RTVSPost2010PropOp39
 70
     1
102
RTVSPost2010Prop40
 90
        0
102
RTVSPost2010PropOp40
 70
     1
102
RTVSPost2010Prop41ColorIndex
 90
       18
102
RTVSPost2010Prop41ColorRGB
 90
        0
102
RTVSPost2010PropOp41
 70
     1
102
RTVSPost2010Prop42
 90
       50
102
RTVSPost2010PropOp42
 70
     1
102
RTVSPost2010Prop43
 90
        3
102
RTVSPost2010PropOp43
 70
     1
102
RTVSPost2010Prop44ColorIndex
 90
        5
102
RTVSPost2010Prop44ColorRGB
 90
      255
102
RTVSPost2010PropOp44
 70
     1
102
RTVSPost2010Prop45
280
     0
102
RTVSPost2010PropOp45
 70
     1
102
RTVSPost2010Prop46
 90
       50
102
RTVSPost2010PropOp46
 70
     1
102
RTVSPost2010Prop47
 90
       50
102
RTVSPost2010PropOp47
 70
     1
102
RTVSPost2010Prop48
 90
       50
102
RTVSPost2010PropOp48
 70
     1
102
RTVSPost2010Prop49
280
     0
102
RTVSPost2010PropOp49
 70
     1
102
RTVSPost2010Prop50
 90
       50
102
RTVSPost2010PropOp50
 70
     1
102
RTVSPost2010Prop51ColorIndex
 90
      256
102
RTVSPost2010Prop51ColorRGB
 90
-16777216
102
RTVSPost2010PropOp51
 70
     0
102
RTVSPost2010Prop52
140
1.0
102
RTVSPost2010PropOp52
 70
     0
102
RTVSPost2010Prop53
 90
        2
102
RTVSPost2010PropOp53
 70
     1
102
RTVSPost2010Prop54
  1
strokes_ogs.tif
102
RTVSPost2010PropOp54
 70
     1
102
RTVSPost2010Prop55
280
     0
102
RTVSPost2010PropOp55
 70
     1
102
RTVSPost2010Prop56
140
1.0
102
RTVSPost2010PropOp56
 70
     1
102
RTVSPost2010Prop57
140
1.0
102
RTVSPost2010PropOp57
 70
     1
  0
XRECORD
  5
6A9
102
{ACAD_REACTORS
330
6A8
102
}
330
6A8
100
AcDbXrecord
280
     1
102
RTVSPropertyOp0
 70
     1
102
RTVSPropertyOp1
 70
     1
102
RTVSPropertyOp2
 70
     1
102
RTVSPropertyOp3
 70
     1
102
RTVSPropertyOp4
 70
     1
102
RTVSPropertyOp5
 70
     1
102
RTVSPropertyOp6
 70
     1
102
RTVSPropertyOp7
 70
     1
102
RTVSPropertyOp8
 70
     1
102
RTVSPropertyOp9
 70
     1
102
RTVSPropertyOp10
 70
     1
102
RTVSPropertyOp11
 70
     1
102
RTVSPropertyOp12
 70
     1
102
RTVSPropertyOp13
 70
     1
102
RTVSPropertyOp14
 70
     1
102
RTVSPropertyOp15
 70
     1
102
RTVSPropertyOp16
 70
     1
102
RTVSPropertyOp17
 70
     1
102
RTVSPropertyOp18
 70
     1
102
RTVSPropertyOp19
 70
     1
102
RTVSPropertyOp20
 70
     1
102
RTVSPropertyOp21
 70
     1
102
RTVSPropertyOp22
 70
     1
102
RTVSPropertyOp23
 70
     1
102
RTVSPropertyOp24
 70
     1
102
RTVSPropertyOp25
 70
     1
102
RTVSPropertyOp26
 70
     1
102
RTVSPropertyOp27
 70
     1
102
RTVSPropertyOp28
 70
     1
102
RTVSPropertyOp29
 70
     1
102
RTVSPropertyOp30
 70
     1
102
RTVSPropertyOp31
 70
     1
102
RTVSPropertyOp32
 70
     1
102
RTVSPropertyOp33
 70
     1
102
RTVSPropertyOp34
 70
     1
102
RTVSPropertyOp35
 70
     1
102
RTVSPropertyOp36
 70
     1
102
RTVSPropertyOp37
 70
     1
102
RTVSPropertyOp38
 70
     1
102
RTVSPropertyOp39
 70
     1
102
RTVSPropertyOp40
 70
     1
102
RTVSPropertyOp41
 70
     1
102
RTVSPropertyOp42
 70
     1
102
RTVSPropertyOp43
 70
     1
102
RTVSPropertyOp44
 70
     1
102
RTVSPropertyOp45
 70
     1
102
RTVSPropertyOp46
 70
     1
102
RTVSPropertyOp47
 70
     1
102
RTVSPropertyOp48
 70
     1
102
RTVSPropertyOp49
 70
     1
102
RTVSPropertyOp50
 70
     1
102
RTVSPropertyOp51
 70
     0
102
RTVSPropertyOp52
 70
     0
102
RTVSPropertyOp53
 70
     1
102
RTVSPropertyOp54
 70
     1
102
RTVSPropertyOp55
 70
     1
102
RTVSPropertyOp56
 70
     1
102
RTVSPropertyOp57
 70
     1
102
RTVSPost2010Prop28
280
     0
102
RTVSPost2010PropOp28
 70
     1
102
RTVSPost2010Prop29
280
     1
102
RTVSPost2010PropOp29
 70
     1
102
RTVSPost2010Prop30
280
     1
102
RTVSPost2010PropOp30
 70
     1
102
RTVSPost2010Prop31
280
     0
102
RTVSPost2010PropOp31
 70
     1
102
RTVSPost2010Prop32
280
     0
102
RTVSPost2010PropOp32
 70
     1
102
RTVSPost2010Prop33
280
     0
102
RTVSPost2010PropOp33
 70
     1
102
RTVSPost2010Prop34
280
     0
102
RTVSPost2010PropOp34
 70
     1
102
RTVSPost2010Prop35
280
     0
102
RTVSPost2010PropOp35
 70
     1
102
RTVSPost2010Prop36
280
     0
102
RTVSPost2010PropOp36
 70
     1
102
RTVSPost2010Prop37
 90
       50
102
RTVSPost2010PropOp37
 70
     1
102
RTVSPost2010Prop38
140
0.0
102
RTVSPost2010PropOp38
 70
     1
102
RTVSPost2010Prop39
140
1.0
102
RTVSPost2010PropOp39
 70
     1
102
RTVSPost2010Prop40
 90
        0
102
RTVSPost2010PropOp40
 70
     1
102
RTVSPost2010Prop41ColorIndex
 90
       18
102
RTVSPost2010Prop41ColorRGB
 90
        0
102
RTVSPost2010PropOp41
 70
     1
102
RTVSPost2010Prop42
 90
       50
102
RTVSPost2010PropOp42
 70
     1
102
RTVSPost2010Prop43
 90
        3
102
RTVSPost2010PropOp43
 70
     1
102
RTVSPost2010Prop44ColorIndex
 90
        5
102
RTVSPost2010Prop44ColorRGB
 90
      255
102
RTVSPost2010PropOp44
 70
     1
102
RTVSPost2010Prop45
280
     0
102
RTVSPost2010PropOp45
 70
     1
102
RTVSPost2010Prop46
 90
       50
102
RTVSPost2010PropOp46
 70
     1
102
RTVSPost2010Prop47
 90
       50
102
RTVSPost2010PropOp47
 70
     1
102
RTVSPost2010Prop48
 90
       50
102
RTVSPost2010PropOp48
 70
     1
102
RTVSPost2010Prop49
280
     0
102
RTVSPost2010PropOp49
 70
     1
102
RTVSPost2010Prop50
 90
       50
102
RTVSPost2010PropOp50
 70
     1
102
RTVSPost2010Prop51ColorIndex
 90
      256
102
RTVSPost2010Prop51ColorRGB
 90
-16777216
102
RTVSPost2010PropOp51
 70
     0
102
RTVSPost2010Prop52
140
1.0
102
RTVSPost2010PropOp52
 70
     0
102
RTVSPost2010Prop53
 90
        2
102
RTVSPost2010PropOp53
 70
     1
102
RTVSPost2010Prop54
  1
strokes_ogs.tif
102
RTVSPost2010PropOp54
 70
     1
102
RTVSPost2010Prop55
280
     0
102
RTVSPost2010PropOp55
 70
     1
102
RTVSPost2010Prop56
140
1.0
102
RTVSPost2010PropOp56
 70
     1
102
RTVSPost2010Prop57
140
1.0
102
RTVSPost2010PropOp57
 70
     1
  0
XRECORD
  5
6AB
102
{ACAD_REACTORS
330
6AA
102
}
330
6AA
100
AcDbXrecord
280
     1
102
RTVSPropertyOp0
 70
     1
102
RTVSPropertyOp1
 70
     1
102
RTVSPropertyOp2
 70
     1
102
RTVSPropertyOp3
 70
     1
102
RTVSPropertyOp4
 70
     1
102
RTVSPropertyOp5
 70
     1
102
RTVSPropertyOp6
 70
     1
102
RTVSPropertyOp7
 70
     1
102
RTVSPropertyOp8
 70
     1
102
RTVSPropertyOp9
 70
     1
102
RTVSPropertyOp10
 70
     1
102
RTVSPropertyOp11
 70
     1
102
RTVSPropertyOp12
 70
     1
102
RTVSPropertyOp13
 70
     1
102
RTVSPropertyOp14
 70
     1
102
RTVSPropertyOp15
 70
     1
102
RTVSPropertyOp16
 70
     1
102
RTVSPropertyOp17
 70
     1
102
RTVSPropertyOp18
 70
     1
102
RTVSPropertyOp19
 70
     1
102
RTVSPropertyOp20
 70
     1
102
RTVSPropertyOp21
 70
     1
102
RTVSPropertyOp22
 70
     1
102
RTVSPropertyOp23
 70
     1
102
RTVSPropertyOp24
 70
     1
102
RTVSPropertyOp25
 70
     1
102
RTVSPropertyOp26
 70
     1
102
RTVSPropertyOp27
 70
     1
102
RTVSPropertyOp28
 70
     1
102
RTVSPropertyOp29
 70
     1
102
RTVSPropertyOp30
 70
     1
102
RTVSPropertyOp31
 70
     1
102
RTVSPropertyOp32
 70
     1
102
RTVSPropertyOp33
 70
     1
102
RTVSPropertyOp34
 70
     1
102
RTVSPropertyOp35
 70
     1
102
RTVSPropertyOp36
 70
     1
102
RTVSPropertyOp37
 70
     1
102
RTVSPropertyOp38
 70
     1
102
RTVSPropertyOp39
 70
     1
102
RTVSPropertyOp40
 70
     1
102
RTVSPropertyOp41
 70
     1
102
RTVSPropertyOp42
 70
     1
102
RTVSPropertyOp43
 70
     1
102
RTVSPropertyOp44
 70
     1
102
RTVSPropertyOp45
 70
     1
102
RTVSPropertyOp46
 70
     1
102
RTVSPropertyOp47
 70
     1
102
RTVSPropertyOp48
 70
     1
102
RTVSPropertyOp49
 70
     1
102
RTVSPropertyOp50
 70
     1
102
RTVSPropertyOp51
 70
     0
102
RTVSPropertyOp52
 70
     0
102
RTVSPropertyOp53
 70
     1
102
RTVSPropertyOp54
 70
     1
102
RTVSPropertyOp55
 70
     1
102
RTVSPropertyOp56
 70
     1
102
RTVSPropertyOp57
 70
     1
102
RTVSPost2010Prop28
280
     0
102
RTVSPost2010PropOp28
 70
     1
102
RTVSPost2010Prop29
280
     1
102
RTVSPost2010PropOp29
 70
     1
102
RTVSPost2010Prop30
280
     1
102
RTVSPost2010PropOp30
 70
     1
102
RTVSPost2010Prop31
280
     0
102
RTVSPost2010PropOp31
 70
     1
102
RTVSPost2010Prop32
280
     0
102
RTVSPost2010PropOp32
 70
     1
102
RTVSPost2010Prop33
280
     0
102
RTVSPost2010PropOp33
 70
     1
102
RTVSPost2010Prop34
280
     0
102
RTVSPost2010PropOp34
 70
     1
102
RTVSPost2010Prop35
280
     0
102
RTVSPost2010PropOp35
 70
     1
102
RTVSPost2010Prop36
280
     0
102
RTVSPost2010PropOp36
 70
     1
102
RTVSPost2010Prop37
 90
       50
102
RTVSPost2010PropOp37
 70
     1
102
RTVSPost2010Prop38
140
0.0
102
RTVSPost2010PropOp38
 70
     1
102
RTVSPost2010Prop39
140
1.0
102
RTVSPost2010PropOp39
 70
     1
102
RTVSPost2010Prop40
 90
        0
102
RTVSPost2010PropOp40
 70
     1
102
RTVSPost2010Prop41ColorIndex
 90
       18
102
RTVSPost2010Prop41ColorRGB
 90
        0
102
RTVSPost2010PropOp41
 70
     1
102
RTVSPost2010Prop42
 90
       50
102
RTVSPost2010PropOp42
 70
     1
102
RTVSPost2010Prop43
 90
        3
102
RTVSPost2010PropOp43
 70
     1
102
RTVSPost2010Prop44ColorIndex
 90
        5
102
RTVSPost2010Prop44ColorRGB
 90
      255
102
RTVSPost2010PropOp44
 70
     1
102
RTVSPost2010Prop45
280
     0
102
RTVSPost2010PropOp45
 70
     1
102
RTVSPost2010Prop46
 90
       50
102
RTVSPost2010PropOp46
 70
     1
102
RTVSPost2010Prop47
 90
       50
102
RTVSPost2010PropOp47
 70
     1
102
RTVSPost2010Prop48
 90
       50
102
RTVSPost2010PropOp48
 70
     1
102
RTVSPost2010Prop49
280
     0
102
RTVSPost2010PropOp49
 70
     1
102
RTVSPost2010Prop50
 90
       50
102
RTVSPost2010PropOp50
 70
     1
102
RTVSPost2010Prop51ColorIndex
 90
      256
102
RTVSPost2010Prop51ColorRGB
 90
-16777216
102
RTVSPost2010PropOp51
 70
     0
102
RTVSPost2010Prop52
140
1.0
102
RTVSPost2010PropOp52
 70
     0
102
RTVSPost2010Prop53
 90
        2
102
RTVSPost2010PropOp53
 70
     1
102
RTVSPost2010Prop54
  1
strokes_ogs.tif
102
RTVSPost2010PropOp54
 70
     1
102
RTVSPost2010Prop55
280
     0
102
RTVSPost2010PropOp55
 70
     1
102
RTVSPost2010Prop56
140
1.0
102
RTVSPost2010PropOp56
 70
     1
102
RTVSPost2010Prop57
140
1.0
102
RTVSPost2010PropOp57
 70
     1
  0
XRECORD
  5
69B
102
{ACAD_REACTORS
330
69A
102
}
330
69A
100
AcDbXrecord
280
     1
102
RTVSPropertyOp0
 70
     1
102
RTVSPropertyOp1
 70
     1
102
RTVSPropertyOp2
 70
     1
102
RTVSPropertyOp3
 70
     1
102
RTVSPropertyOp4
 70
     1
102
RTVSPropertyOp5
 70
     1
102
RTVSPropertyOp6
 70
     1
102
RTVSPropertyOp7
 70
     1
102
RTVSPropertyOp8
 70
     1
102
RTVSPropertyOp9
 70
     1
102
RTVSPropertyOp10
 70
     1
102
RTVSPropertyOp11
 70
     1
102
RTVSPropertyOp12
 70
     1
102
RTVSPropertyOp13
 70
     1
102
RTVSPropertyOp14
 70
     1
102
RTVSPropertyOp15
 70
     1
102
RTVSPropertyOp16
 70
     1
102
RTVSPropertyOp17
 70
     1
102
RTVSPropertyOp18
 70
     1
102
RTVSPropertyOp19
 70
     1
102
RTVSPropertyOp20
 70
     1
102
RTVSPropertyOp21
 70
     1
102
RTVSPropertyOp22
 70
     1
102
RTVSPropertyOp23
 70
     1
102
RTVSPropertyOp24
 70
     1
102
RTVSPropertyOp25
 70
     1
102
RTVSPropertyOp26
 70
     1
102
RTVSPropertyOp27
 70
     1
102
RTVSPropertyOp28
 70
     1
102
RTVSPropertyOp29
 70
     1
102
RTVSPropertyOp30
 70
     1
102
RTVSPropertyOp31
 70
     1
102
RTVSPropertyOp32
 70
     1
102
RTVSPropertyOp33
 70
     1
102
RTVSPropertyOp34
 70
     1
102
RTVSPropertyOp35
 70
     1
102
RTVSPropertyOp36
 70
     1
102
RTVSPropertyOp37
 70
     1
102
RTVSPropertyOp38
 70
     1
102
RTVSPropertyOp39
 70
     1
102
RTVSPropertyOp40
 70
     1
102
RTVSPropertyOp41
 70
     1
102
RTVSPropertyOp42
 70
     1
102
RTVSPropertyOp43
 70
     1
102
RTVSPropertyOp44
 70
     1
102
RTVSPropertyOp45
 70
     1
102
RTVSPropertyOp46
 70
     1
102
RTVSPropertyOp47
 70
     1
102
RTVSPropertyOp48
 70
     1
102
RTVSPropertyOp49
 70
     1
102
RTVSPropertyOp50
 70
     1
102
RTVSPropertyOp51
 70
     0
102
RTVSPropertyOp52
 70
     0
102
RTVSPropertyOp53
 70
     1
102
RTVSPropertyOp54
 70
     1
102
RTVSPropertyOp55
 70
     1
102
RTVSPropertyOp56
 70
     1
102
RTVSPropertyOp57
 70
     1
102
RTVSPost2010Prop28
280
     0
102
RTVSPost2010PropOp28
 70
     1
102
RTVSPost2010Prop29
280
     1
102
RTVSPost2010PropOp29
 70
     1
102
RTVSPost2010Prop30
280
     1
102
RTVSPost2010PropOp30
 70
     1
102
RTVSPost2010Prop31
280
     0
102
RTVSPost2010PropOp31
 70
     1
102
RTVSPost2010Prop32
280
     0
102
RTVSPost2010PropOp32
 70
     1
102
RTVSPost2010Prop33
280
     0
102
RTVSPost2010PropOp33
 70
     1
102
RTVSPost2010Prop34
280
     0
102
RTVSPost2010PropOp34
 70
     1
102
RTVSPost2010Prop35
280
     0
102
RTVSPost2010PropOp35
 70
     1
102
RTVSPost2010Prop36
280
     0
102
RTVSPost2010PropOp36
 70
     1
102
RTVSPost2010Prop37
 90
       50
102
RTVSPost2010PropOp37
 70
     1
102
RTVSPost2010Prop38
140
0.0
102
RTVSPost2010PropOp38
 70
     1
102
RTVSPost2010Prop39
140
1.0
102
RTVSPost2010PropOp39
 70
     1
102
RTVSPost2010Prop40
 90
        0
102
RTVSPost2010PropOp40
 70
     1
102
RTVSPost2010Prop41ColorIndex
 90
       18
102
RTVSPost2010Prop41ColorRGB
 90
        0
102
RTVSPost2010PropOp41
 70
     1
102
RTVSPost2010Prop42
 90
       50
102
RTVSPost2010PropOp42
 70
     1
102
RTVSPost2010Prop43
 90
        3
102
RTVSPost2010PropOp43
 70
     1
102
RTVSPost2010Prop44ColorIndex
 90
        5
102
RTVSPost2010Prop44ColorRGB
 90
      255
102
RTVSPost2010PropOp44
 70
     1
102
RTVSPost2010Prop45
280
     0
102
RTVSPost2010PropOp45
 70
     1
102
RTVSPost2010Prop46
 90
       50
102
RTVSPost2010PropOp46
 70
     1
102
RTVSPost2010Prop47
 90
       50
102
RTVSPost2010PropOp47
 70
     1
102
RTVSPost2010Prop48
 90
       50
102
RTVSPost2010PropOp48
 70
     1
102
RTVSPost2010Prop49
280
     0
102
RTVSPost2010PropOp49
 70
     1
102
RTVSPost2010Prop50
 90
       50
102
RTVSPost2010PropOp50
 70
     1
102
RTVSPost2010Prop51ColorIndex
 90
      256
102
RTVSPost2010Prop51ColorRGB
 90
-16777216
102
RTVSPost2010PropOp51
 70
     0
102
RTVSPost2010Prop52
140
1.0
102
RTVSPost2010PropOp52
 70
     0
102
RTVSPost2010Prop53
 90
        2
102
RTVSPost2010PropOp53
 70
     1
102
RTVSPost2010Prop54
  1
strokes_ogs.tif
102
RTVSPost2010PropOp54
 70
     1
102
RTVSPost2010Prop55
280
     0
102
RTVSPost2010PropOp55
 70
     1
102
RTVSPost2010Prop56
140
1.0
102
RTVSPost2010PropOp56
 70
     1
102
RTVSPost2010Prop57
140
1.0
102
RTVSPost2010PropOp57
 70
     1
  0
XRECORD
  5
685
102
{ACAD_REACTORS
330
684
102
}
330
684
100
AcDbXrecord
280
     1
102
RTVSPropertyOp0
 70
     1
102
RTVSPropertyOp1
 70
     1
102
RTVSPropertyOp2
 70
     1
102
RTVSPropertyOp3
 70
     1
102
RTVSPropertyOp4
 70
     1
102
RTVSPropertyOp5
 70
     1
102
RTVSPropertyOp6
 70
     1
102
RTVSPropertyOp7
 70
     1
102
RTVSPropertyOp8
 70
     1
102
RTVSPropertyOp9
 70
     1
102
RTVSPropertyOp10
 70
     1
102
RTVSPropertyOp11
 70
     1
102
RTVSPropertyOp12
 70
     1
102
RTVSPropertyOp13
 70
     1
102
RTVSPropertyOp14
 70
     1
102
RTVSPropertyOp15
 70
     1
102
RTVSPropertyOp16
 70
     1
102
RTVSPropertyOp17
 70
     1
102
RTVSPropertyOp18
 70
     1
102
RTVSPropertyOp19
 70
     1
102
RTVSPropertyOp20
 70
     1
102
RTVSPropertyOp21
 70
     1
102
RTVSPropertyOp22
 70
     1
102
RTVSPropertyOp23
 70
     1
102
RTVSPropertyOp24
 70
     1
102
RTVSPropertyOp25
 70
     1
102
RTVSPropertyOp26
 70
     1
102
RTVSPropertyOp27
 70
     1
102
RTVSPropertyOp28
 70
     1
102
RTVSPropertyOp29
 70
     1
102
RTVSPropertyOp30
 70
     1
102
RTVSPropertyOp31
 70
     1
102
RTVSPropertyOp32
 70
     1
102
RTVSPropertyOp33
 70
     1
102
RTVSPropertyOp34
 70
     1
102
RTVSPropertyOp35
 70
     1
102
RTVSPropertyOp36
 70
     1
102
RTVSPropertyOp37
 70
     1
102
RTVSPropertyOp38
 70
     1
102
RTVSPropertyOp39
 70
     1
102
RTVSPropertyOp40
 70
     1
102
RTVSPropertyOp41
 70
     1
102
RTVSPropertyOp42
 70
     1
102
RTVSPropertyOp43
 70
     1
102
RTVSPropertyOp44
 70
     1
102
RTVSPropertyOp45
 70
     1
102
RTVSPropertyOp46
 70
     1
102
RTVSPropertyOp47
 70
     1
102
RTVSPropertyOp48
 70
     1
102
RTVSPropertyOp49
 70
     1
102
RTVSPropertyOp50
 70
     1
102
RTVSPropertyOp51
 70
     0
102
RTVSPropertyOp52
 70
     0
102
RTVSPropertyOp53
 70
     1
102
RTVSPropertyOp54
 70
     1
102
RTVSPropertyOp55
 70
     1
102
RTVSPropertyOp56
 70
     1
102
RTVSPropertyOp57
 70
     1
102
RTVSPost2010Prop28
280
     0
102
RTVSPost2010PropOp28
 70
     1
102
RTVSPost2010Prop29
280
     1
102
RTVSPost2010PropOp29
 70
     1
102
RTVSPost2010Prop30
280
     1
102
RTVSPost2010PropOp30
 70
     1
102
RTVSPost2010Prop31
280
     0
102
RTVSPost2010PropOp31
 70
     1
102
RTVSPost2010Prop32
280
     0
102
RTVSPost2010PropOp32
 70
     1
102
RTVSPost2010Prop33
280
     0
102
RTVSPost2010PropOp33
 70
     1
102
RTVSPost2010Prop34
280
     0
102
RTVSPost2010PropOp34
 70
     1
102
RTVSPost2010Prop35
280
     0
102
RTVSPost2010PropOp35
 70
     1
102
RTVSPost2010Prop36
280
     0
102
RTVSPost2010PropOp36
 70
     1
102
RTVSPost2010Prop37
 90
       50
102
RTVSPost2010PropOp37
 70
     1
102
RTVSPost2010Prop38
140
0.0
102
RTVSPost2010PropOp38
 70
     1
102
RTVSPost2010Prop39
140
1.0
102
RTVSPost2010PropOp39
 70
     1
102
RTVSPost2010Prop40
 90
        0
102
RTVSPost2010PropOp40
 70
     1
102
RTVSPost2010Prop41ColorIndex
 90
       18
102
RTVSPost2010Prop41ColorRGB
 90
        0
102
RTVSPost2010PropOp41
 70
     1
102
RTVSPost2010Prop42
 90
       50
102
RTVSPost2010PropOp42
 70
     1
102
RTVSPost2010Prop43
 90
        3
102
RTVSPost2010PropOp43
 70
     1
102
RTVSPost2010Prop44ColorIndex
 90
        5
102
RTVSPost2010Prop44ColorRGB
 90
      255
102
RTVSPost2010PropOp44
 70
     1
102
RTVSPost2010Prop45
280
     0
102
RTVSPost2010PropOp45
 70
     1
102
RTVSPost2010Prop46
 90
       50
102
RTVSPost2010PropOp46
 70
     1
102
RTVSPost2010Prop47
 90
       50
102
RTVSPost2010PropOp47
 70
     1
102
RTVSPost2010Prop48
 90
       50
102
RTVSPost2010PropOp48
 70
     1
102
RTVSPost2010Prop49
280
     0
102
RTVSPost2010PropOp49
 70
     1
102
RTVSPost2010Prop50
 90
       50
102
RTVSPost2010PropOp50
 70
     1
102
RTVSPost2010Prop51ColorIndex
 90
      256
102
RTVSPost2010Prop51ColorRGB
 90
-16777216
102
RTVSPost2010PropOp51
 70
     0
102
RTVSPost2010Prop52
140
1.0
102
RTVSPost2010PropOp52
 70
     0
102
RTVSPost2010Prop53
 90
        2
102
RTVSPost2010PropOp53
 70
     1
102
RTVSPost2010Prop54
  1
strokes_ogs.tif
102
RTVSPost2010PropOp54
 70
     1
102
RTVSPost2010Prop55
280
     0
102
RTVSPost2010PropOp55
 70
     1
102
RTVSPost2010Prop56
140
1.0
102
RTVSPost2010PropOp56
 70
     1
102
RTVSPost2010Prop57
140
1.0
102
RTVSPost2010PropOp57
 70
     1
  0
XRECORD
  5
6AD
102
{ACAD_REACTORS
330
6AC
102
}
330
6AC
100
AcDbXrecord
280
     1
102
RTVSPropertyOp0
 70
     1
102
RTVSPropertyOp1
 70
     1
102
RTVSPropertyOp2
 70
     1
102
RTVSPropertyOp3
 70
     1
102
RTVSPropertyOp4
 70
     1
102
RTVSPropertyOp5
 70
     1
102
RTVSPropertyOp6
 70
     1
102
RTVSPropertyOp7
 70
     1
102
RTVSPropertyOp8
 70
     1
102
RTVSPropertyOp9
 70
     1
102
RTVSPropertyOp10
 70
     1
102
RTVSPropertyOp11
 70
     1
102
RTVSPropertyOp12
 70
     1
102
RTVSPropertyOp13
 70
     1
102
RTVSPropertyOp14
 70
     1
102
RTVSPropertyOp15
 70
     1
102
RTVSPropertyOp16
 70
     1
102
RTVSPropertyOp17
 70
     1
102
RTVSPropertyOp18
 70
     1
102
RTVSPropertyOp19
 70
     1
102
RTVSPropertyOp20
 70
     1
102
RTVSPropertyOp21
 70
     1
102
RTVSPropertyOp22
 70
     1
102
RTVSPropertyOp23
 70
     1
102
RTVSPropertyOp24
 70
     1
102
RTVSPropertyOp25
 70
     1
102
RTVSPropertyOp26
 70
     1
102
RTVSPropertyOp27
 70
     1
102
RTVSPropertyOp28
 70
     1
102
RTVSPropertyOp29
 70
     1
102
RTVSPropertyOp30
 70
     1
102
RTVSPropertyOp31
 70
     1
102
RTVSPropertyOp32
 70
     1
102
RTVSPropertyOp33
 70
     1
102
RTVSPropertyOp34
 70
     1
102
RTVSPropertyOp35
 70
     1
102
RTVSPropertyOp36
 70
     1
102
RTVSPropertyOp37
 70
     1
102
RTVSPropertyOp38
 70
     1
102
RTVSPropertyOp39
 70
     1
102
RTVSPropertyOp40
 70
     1
102
RTVSPropertyOp41
 70
     1
102
RTVSPropertyOp42
 70
     1
102
RTVSPropertyOp43
 70
     1
102
RTVSPropertyOp44
 70
     1
102
RTVSPropertyOp45
 70
     1
102
RTVSPropertyOp46
 70
     1
102
RTVSPropertyOp47
 70
     1
102
RTVSPropertyOp48
 70
     1
102
RTVSPropertyOp49
 70
     1
102
RTVSPropertyOp50
 70
     1
102
RTVSPropertyOp51
 70
     0
102
RTVSPropertyOp52
 70
     0
102
RTVSPropertyOp53
 70
     1
102
RTVSPropertyOp54
 70
     1
102
RTVSPropertyOp55
 70
     1
102
RTVSPropertyOp56
 70
     1
102
RTVSPropertyOp57
 70
     1
102
RTVSPost2010Prop28
280
     0
102
RTVSPost2010PropOp28
 70
     1
102
RTVSPost2010Prop29
280
     1
102
RTVSPost2010PropOp29
 70
     1
102
RTVSPost2010Prop30
280
     1
102
RTVSPost2010PropOp30
 70
     1
102
RTVSPost2010Prop31
280
     0
102
RTVSPost2010PropOp31
 70
     1
102
RTVSPost2010Prop32
280
     0
102
RTVSPost2010PropOp32
 70
     1
102
RTVSPost2010Prop33
280
     0
102
RTVSPost2010PropOp33
 70
     1
102
RTVSPost2010Prop34
280
     0
102
RTVSPost2010PropOp34
 70
     1
102
RTVSPost2010Prop35
280
     0
102
RTVSPost2010PropOp35
 70
     1
102
RTVSPost2010Prop36
280
     0
102
RTVSPost2010PropOp36
 70
     1
102
RTVSPost2010Prop37
 90
       50
102
RTVSPost2010PropOp37
 70
     1
102
RTVSPost2010Prop38
140
0.0
102
RTVSPost2010PropOp38
 70
     1
102
RTVSPost2010Prop39
140
1.0
102
RTVSPost2010PropOp39
 70
     1
102
RTVSPost2010Prop40
 90
        0
102
RTVSPost2010PropOp40
 70
     1
102
RTVSPost2010Prop41ColorIndex
 90
       18
102
RTVSPost2010Prop41ColorRGB
 90
        0
102
RTVSPost2010PropOp41
 70
     1
102
RTVSPost2010Prop42
 90
       50
102
RTVSPost2010PropOp42
 70
     1
102
RTVSPost2010Prop43
 90
        3
102
RTVSPost2010PropOp43
 70
     1
102
RTVSPost2010Prop44ColorIndex
 90
        5
102
RTVSPost2010Prop44ColorRGB
 90
      255
102
RTVSPost2010PropOp44
 70
     1
102
RTVSPost2010Prop45
280
     0
102
RTVSPost2010PropOp45
 70
     1
102
RTVSPost2010Prop46
 90
       50
102
RTVSPost2010PropOp46
 70
     1
102
RTVSPost2010Prop47
 90
       50
102
RTVSPost2010PropOp47
 70
     1
102
RTVSPost2010Prop48
 90
       50
102
RTVSPost2010PropOp48
 70
     1
102
RTVSPost2010Prop49
280
     0
102
RTVSPost2010PropOp49
 70
     1
102
RTVSPost2010Prop50
 90
       50
102
RTVSPost2010PropOp50
 70
     1
102
RTVSPost2010Prop51ColorIndex
 90
      256
102
RTVSPost2010Prop51ColorRGB
 90
-16777216
102
RTVSPost2010PropOp51
 70
     0
102
RTVSPost2010Prop52
140
1.0
102
RTVSPost2010PropOp52
 70
     0
102
RTVSPost2010Prop53
 90
        2
102
RTVSPost2010PropOp53
 70
     1
102
RTVSPost2010Prop54
  1
strokes_ogs.tif
102
RTVSPost2010PropOp54
 70
     1
102
RTVSPost2010Prop55
280
     0
102
RTVSPost2010PropOp55
 70
     1
102
RTVSPost2010Prop56
140
1.0
102
RTVSPost2010PropOp56
 70
     1
102
RTVSPost2010Prop57
140
1.0
102
RTVSPost2010PropOp57
 70
     1
  0
ENDSEC
  0
EOF
