  0
SECTION
  2
HEADER
  9
$ACADVER
  1
AC1015
  9
$ACADMAINTVER
 70
     6
  9
$DWGCODEPAGE
  3
ANSI_932
  9
$INSBASE
 10
3758.638861446825
 20
1348.172587671936
 30
0.0
  9
$EXTMIN
 10
175.4004820504761
 20
34.66181993990676
 30
0.0
  9
$EXTMAX
 10
2137.57418188441
 20
1670.345538647902
 30
0.0
  9
$LIMMIN
 10
0.0
 20
0.0
  9
$LIMMAX
 10
816.5000000000001
 20
565.0
  9
$ORTHOMODE
 70
     1
  9
$REGENMODE
 70
     1
  9
$FILLMODE
 70
     1
  9
$QTEXTMODE
 70
     0
  9
$MIRRTEXT
 70
     1
  9
$LTSCALE
 40
20.0
  9
$ATTMODE
 70
     1
  9
$TEXTSIZE
 40
18.0
  9
$TRACEWID
 40
0.05
  9
$TEXTSTYLE
  7
KANJI
  9
$CLAYER
  8
2
  9
$CELTYPE
  6
BYLAYER
  9
$CECOLOR
 62
   256
  9
$CELTSCALE
 40
1.0
  9
$DISPSILH
 70
     0
  9
$DIMSCALE
 40
6.0
  9
$DIMASZ
 40
2.0
  9
$DIMEXO
 40
0.5
  9
$DIMDLI
 40
0.0
  9
$DIMRND
 40
0.0
  9
$DIMDLE
 40
0.0
  9
$DIMEXE
 40
1.0
  9
$DIMTP
 40
0.0
  9
$DIMTM
 40
0.0
  9
$DIMTXT
 40
3.0
  9
$DIMCEN
 40
0.09
  9
$DIMTSZ
 40
0.0
  9
$DIMTOL
 70
     0
  9
$DIMLIM
 70
     0
  9
$DIMTIH
 70
     0
  9
$DIMTOH
 70
     0
  9
$DIMSE1
 70
     0
  9
$DIMSE2
 70
     0
  9
$DIMTAD
 70
     0
  9
$DIMZIN
 70
     8
  9
$DIMBLK
  1

  9
$DIMASO
 70
     0
  9
$DIMSHO
 70
     0
  9
$DIMPOST
  1

  9
$DIMAPOST
  1

  9
$DIMALT
 70
     0
  9
$DIMALTD
 70
     2
  9
$DIMALTF
 40
25.4
  9
$DIMLFAC
 40
1.0
  9
$DIMTOFL
 70
     1
  9
$DIMTVP
 40
1.0
  9
$DIMTIX
 70
     1
  9
$DIMSOXD
 70
     1
  9
$DIMSAH
 70
     0
  9
$DIMBLK1
  1

  9
$DIMBLK2
  1

  9
$DIMSTYLE
  2
STANDARD
  9
$DIMCLRD
 70
   256
  9
$DIMCLRE
 70
   256
  9
$DIMCLRT
 70
   256
  9
$DIMTFAC
 40
1.0
  9
$DIMGAP
 40
0.09
  9
$DIMJUST
 70
     0
  9
$DIMSD1
 70
     0
  9
$DIMSD2
 70
     0
  9
$DIMTOLJ
 70
     1
  9
$DIMTZIN
 70
     0
  9
$DIMALTZ
 70
     0
  9
$DIMALTTZ
 70
     0
  9
$DIMUPT
 70
     0
  9
$DIMDEC
 70
     1
  9
$DIMTDEC
 70
     4
  9
$DIMALTU
 70
     2
  9
$DIMALTTD
 70
     2
  9
$DIMTXSTY
  7
STANDARD
  9
$DIMAUNIT
 70
     0
  9
$DIMADEC
 70
     0
  9
$DIMALTRND
 40
0.0
  9
$DIMAZIN
 70
     0
  9
$DIMDSEP
 70
    46
  9
$DIMATFIT
 70
     3
  9
$DIMFRAC
 70
     0
  9
$DIMLDRBLK
  1

  9
$DIMLUNIT
 70
     2
  9
$DIMLWD
 70
    -2
  9
$DIMLWE
 70
    -2
  9
$DIMTMOVE
 70
     0
  9
$LUNITS
 70
     2
  9
$LUPREC
 70
     3
  9
$SKETCHINC
 40
0.1
  9
$FILLETRAD
 40
2.0
  9
$AUNITS
 70
     0
  9
$AUPREC
 70
     3
  9
$MENU
  1
C:\R13\WIN\SUPPORT\ACADFULL
  9
$ELEVATION
 40
0.0
  9
$PELEVATION
 40
0.0
  9
$THICKNESS
 40
0.0
  9
$LIMCHECK
 70
     0
  9
$CHAMFERA
 40
0.0
  9
$CHAMFERB
 40
0.0
  9
$CHAMFERC
 40
0.0
  9
$CHAMFERD
 40
0.0
  9
$SKPOLY
 70
     0
  9
$TDCREATE
 40
2449812.756805555
  9
$TDUCREATE
 40
2449812.381805555
  9
$TDUPDATE
 40
2457871.83305596
  9
$TDUUPDATE
 40
2457871.45805596
  9
$TDINDWG
 40
1.2335918403
  9
$TDUSRTIMER
 40
1.2335910301
  9
$USRTIMER
 70
     1
  9
$ANGBASE
 50
0.0
  9
$ANGDIR
 70
     0
  9
$PDMODE
 70
     0
  9
$PDSIZE
 40
0.0
  9
$PLINEWID
 40
0.0
  9
$SPLFRAME
 70
     0
  9
$SPLINETYPE
 70
     6
  9
$SPLINESEGS
 70
     8
  9
$HANDSEED
  5
6DF
  9
$SURFTAB1
 70
     6
  9
$SURFTAB2
 70
     6
  9
$SURFTYPE
 70
     6
  9
$SURFU
 70
     6
  9
$SURFV
 70
     6
  9
$UCSBASE
  2

  9
$UCSNAME
  2

  9
$UCSORG
 10
0.0
 20
0.0
 30
0.0
  9
$UCSXDIR
 10
1.0
 20
0.0
 30
0.0
  9
$UCSYDIR
 10
0.0
 20
1.0
 30
0.0
  9
$UCSORTHOREF
  2

  9
$UCSORTHOVIEW
 70
     0
  9
$UCSORGTOP
 10
0.0
 20
0.0
 30
0.0
  9
$UCSORGBOTTOM
 10
0.0
 20
0.0
 30
0.0
  9
$UCSORGLEFT
 10
0.0
 20
0.0
 30
0.0
  9
$UCSORGRIGHT
 10
0.0
 20
0.0
 30
0.0
  9
$UCSORGFRONT
 10
0.0
 20
0.0
 30
0.0
  9
$UCSORGBACK
 10
0.0
 20
0.0
 30
0.0
  9
$PUCSBASE
  2

  9
$PUCSNAME
  2

  9
$PUCSORG
 10
0.0
 20
0.0
 30
0.0
  9
$PUCSXDIR
 10
1.0
 20
0.0
 30
0.0
  9
$PUCSYDIR
 10
0.0
 20
1.0
 30
0.0
  9
$PUCSORTHOREF
  2

  9
$PUCSORTHOVIEW
 70
     0
  9
$PUCSORGTOP
 10
0.0
 20
0.0
 30
0.0
  9
$PUCSORGBOTTOM
 10
0.0
 20
0.0
 30
0.0
  9
$PUCSORGLEFT
 10
0.0
 20
0.0
 30
0.0
  9
$PUCSORGRIGHT
 10
0.0
 20
0.0
 30
0.0
  9
$PUCSORGFRONT
 10
0.0
 20
0.0
 30
0.0
  9
$PUCSORGBACK
 10
0.0
 20
0.0
 30
0.0
  9
$USERI1
 70
     0
  9
$USERI2
 70
     0
  9
$USERI3
 70
     0
  9
$USERI4
 70
     0
  9
$USERI5
 70
     0
  9
$USERR1
 40
0.0
  9
$USERR2
 40
0.0
  9
$USERR3
 40
0.0
  9
$USERR4
 40
2448925.372986111
  9
$USERR5
 40
0.04166667
  9
$WORLDVIEW
 70
     1
  9
$SHADEDGE
 70
     3
  9
$SHADEDIF
 70
    70
  9
$TILEMODE
 70
     1
  9
$MAXACTVP
 70
    16
  9
$PINSBASE
 10
0.0
 20
0.0
 30
0.0
  9
$PLIMCHECK
 70
     0
  9
$PEXTMIN
 10
1.000000000000000E+20
 20
1.000000000000000E+20
 30
1.000000000000000E+20
  9
$PEXTMAX
 10
-1.000000000000000E+20
 20
-1.000000000000000E+20
 30
-1.000000000000000E+20
  9
$PLIMMIN
 10
0.0
 20
0.0
  9
$PLIMMAX
 10
12.0
 20
9.0
  9
$UNITMODE
 70
     0
  9
$VISRETAIN
 70
     0
  9
$PLINEGEN
 70
     0
  9
$PSLTSCALE
 70
     0
  9
$TREEDEPTH
 70
  3020
  9
$CMLSTYLE
  2
STANDARD
  9
$CMLJUST
 70
     0
  9
$CMLSCALE
 40
1.0
  9
$PROXYGRAPHICS
 70
     1
  9
$MEASUREMENT
 70
     0
  9
$CELWEIGHT
370
    -1
  9
$ENDCAPS
280
     0
  9
$JOINSTYLE
280
     0
  9
$LWDISPLAY
290
     0
  9
$INSUNITS
 70
     0
  9
$HYPERLINKBASE
  1

  9
$STYLESHEET
  1
monochrome.ctb
  9
$XEDIT
290
     1
  9
$CEPSNTYPE
380
     0
  9
$PSTYLEMODE
290
     1
  9
$FINGERPRINTGUID
  2
{90BCA920-1E4E-4417-AEB1-10B435284F28}
  9
$VERSIONGUID
  2
{6313224E-A8DF-45E2-A9FF-E86927C0721D}
  9
$EXTNAMES
290
     1
  9
$PSVPSCALE
 40
0.0
  9
$OLESTARTUP
290
     0
  0
ENDSEC
  0
SECTION
  2
CLASSES
  0
CLASS
  1
ACDBDICTIONARYWDFLT
  2
AcDbDictionaryWithDefault
  3
ObjectDBX Classes
 90
        0
280
     0
281
     0
  0
CLASS
  1
MATERIAL
  2
AcDbMaterial
  3
ObjectDBX Classes
 90
     1153
280
     0
281
     0
  0
CLASS
  1
SORTENTSTABLE
  2
AcDbSortentsTable
  3
ObjectDBX Classes
 90
        0
280
     0
281
     0
  0
CLASS
  1
VISUALSTYLE
  2
AcDbVisualStyle
  3
ObjectDBX Classes
 90
     4095
280
     0
281
     0
  0
CLASS
  1
SCALE
  2
AcDbScale
  3
ObjectDBX Classes
 90
     1153
280
     0
281
     0
  0
CLASS
  1
DICTIONARYVAR
  2
AcDbDictionaryVar
  3
ObjectDBX Classes
 90
        0
280
     0
281
     0
  0
CLASS
  1
MLEADERSTYLE
  2
AcDbMLeaderStyle
  3
ACDB_MLEADERSTYLE_CLASS
 90
     4095
280
     0
281
     0
  0
CLASS
  1
TABLESTYLE
  2
AcDbTableStyle
  3
ObjectDBX Classes
 90
     4095
280
     0
281
     0
  0
CLASS
  1
ACDBPLACEHOLDER
  2
AcDbPlaceHolder
  3
ObjectDBX Classes
 90
        0
280
     0
281
     0
  0
CLASS
  1
LAYOUT
  2
AcDbLayout
  3
ObjectDBX Classes
 90
        0
280
     0
281
     0
  0
ENDSEC
  0
SECTION
  2
TABLES
  0
TABLE
  2
VPORT
  5
2B
102
{ACAD_XDICTIONARY
360
6A4
102
}
330
0
100
AcDbSymbolTable
 70
     1
  0
VPORT
  5
33
330
2B
100
AcDbSymbolTableRecord
100
AcDbViewportTableRecord
  2
*Active
 70
     0
 10
0.0
 20
0.0
 11
1.0
 21
1.0
 12
1935.230702724938
 22
868.744534409545
 13
0.0
 23
0.0
 14
1.0
 24
1.0
 15
50.0
 25
50.0
 16
0.0
 26
0.0
 36
1.0
 17
0.0
 27
0.0
 37
0.0
 40
2209.825121203265
 41
2.174107142857143
 42
50.0
 43
0.0
 44
0.0
 50
0.0
 51
0.0
 71
     0
 72
  5000
 73
     1
 74
     0
 75
     0
 76
     0
 77
     0
 78
     0
281
     0
 65
     1
110
0.0
120
0.0
130
0.0
111
1.0
121
0.0
131
0.0
112
0.0
122
1.0
132
0.0
 79
     0
146
0.0
1001
ACAD_NAV_VCDISPLAY
1070
     3
  0
ENDTAB
  0
TABLE
  2
LTYPE
  5
D
330
0
100
AcDbSymbolTable
 70
     4
  0
LTYPE
  5
E
330
D
100
AcDbSymbolTableRecord
100
AcDbLinetypeTableRecord
  2
BYBLOCK
 70
     0
  3

 72
    65
 73
     0
 40
0.0
  0
LTYPE
  5
F
330
D
100
AcDbSymbolTableRecord
100
AcDbLinetypeTableRecord
  2
BYLAYER
 70
     0
  3

 72
    65
 73
     0
 40
0.0
  0
LTYPE
  5
C
330
D
100
AcDbSymbolTableRecord
100
AcDbLinetypeTableRecord
  2
CONTINUOUS
 70
     0
  3
Solid line
 72
    65
 73
     0
 40
0.0
  0
LTYPE
  5
7D
330
D
100
AcDbSymbolTableRecord
100
AcDbLinetypeTableRecord
  2
CENTER
 70
     0
  3
____ _ ____ _ ____ _ ____ _ ____ _ ____ _ ____
 72
    65
 73
     4
 40
2.0
 49
1.25
 74
     0
 49
-0.25
 74
     0
 49
0.25
 74
     0
 49
-0.25
 74
     0
  0
LTYPE
  5
4DF
330
D
100
AcDbSymbolTableRecord
100
AcDbLinetypeTableRecord
  2
DASHED
 70
     0
  3
Dashed __ __ __ __ __ __ __ __ __ __ __ __ __ _
 72
    65
 73
     2
 40
0.75
 49
0.5
 74
     0
 49
-0.25
 74
     0
  0
ENDTAB
  0
TABLE
  2
LAYER
  5
2
102
{ACAD_XDICTIONARY
360
3
102
}
330
0
100
AcDbSymbolTable
 70
     8
  0
LAYER
  5
1D
102
{ACAD_XDICTIONARY
360
1E
102
}
330
2
100
AcDbSymbolTableRecord
100
AcDbLayerTableRecord
  2
0
 70
     0
 62
     7
  6
CONTINUOUS
370
    -3
390
7
  0
LAYER
  5
35A
102
{ACAD_XDICTIONARY
360
35B
102
}
330
2
100
AcDbSymbolTableRecord
100
AcDbLayerTableRecord
  2
1
 70
     0
 62
     9
  6
CONTINUOUS
370
    -3
390
7
  0
LAYER
  5
1
102
{ACAD_XDICTIONARY
360
5
102
}
330
2
100
AcDbSymbolTableRecord
100
AcDbLayerTableRecord
  2
2
 70
     0
 62
     4
  6
CONTINUOUS
370
    -3
390
7
  0
LAYER
  5
6D
102
{ACAD_XDICTIONARY
360
6E
102
}
330
2
100
AcDbSymbolTableRecord
100
AcDbLayerTableRecord
  2
4
 70
     0
 62
     3
  6
CONTINUOUS
370
    -3
390
7
  0
LAYER
  5
7A
102
{ACAD_XDICTIONARY
360
7B
102
}
330
2
100
AcDbSymbolTableRecord
100
AcDbLayerTableRecord
  2
L-CENTER
 70
     0
 62
     1
  6
CENTER
370
    -3
390
7
  0
LAYER
  5
89
102
{ACAD_XDICTIONARY
360
8A
102
}
330
2
100
AcDbSymbolTableRecord
100
AcDbLayerTableRecord
  2
3
 70
     0
 62
     2
  6
CONTINUOUS
370
    -3
390
7
  0
LAYER
  5
354
330
2
100
AcDbSymbolTableRecord
100
AcDbLayerTableRecord
  2
5
 70
     0
 62
     6
  6
CONTINUOUS
370
    -3
390
7
  0
LAYER
  5
664
330
2
100
AcDbSymbolTableRecord
100
AcDbLayerTableRecord
  2
Defpoints
 70
     0
 62
     7
  6
CONTINUOUS
290
     0
370
    -3
390
7
  0
ENDTAB
  0
TABLE
  2
STYLE
  5
11
330
0
100
AcDbSymbolTable
 70
     2
  0
STYLE
  5
15
330
11
100
AcDbSymbolTableRecord
100
AcDbTextStyleTableRecord
  2
STANDARD
 70
     0
 40
0.0
 41
1.0
 50
0.0
 71
     0
 42
10.79999999999999
  3
TXT
  4

  0
STYLE
  5
10
330
11
100
AcDbSymbolTableRecord
100
AcDbTextStyleTableRecord
  2
KANJI
 70
     0
 40
0.0
 41
1.0
 50
0.0
 71
     0
 42
18.0
  3
TXT
  4
BIGFONT
  0
ENDTAB
  0
TABLE
  2
VIEW
  5
29
330
0
100
AcDbSymbolTable
 70
     0
  0
ENDTAB
  0
TABLE
  2
UCS
  5
2A
330
0
100
AcDbSymbolTable
 70
     0
  0
ENDTAB
  0
TABLE
  2
APPID
  5
24
330
0
100
AcDbSymbolTable
 70
     4
  0
APPID
  5
32
330
24
100
AcDbSymbolTableRecord
100
AcDbRegAppTableRecord
  2
ACAD
 70
     0
  0
APPID
  5
34
330
24
100
AcDbSymbolTableRecord
100
AcDbRegAppTableRecord
  2
ACAD_NAV_VCDISPLAY
 70
     0
  0
APPID
  5
23
330
24
100
AcDbSymbolTableRecord
100
AcDbRegAppTableRecord
  2
ACAD_PSEXT
 70
     0
  0
APPID
  5
62E
330
24
100
AcDbSymbolTableRecord
100
AcDbRegAppTableRecord
  2
ACAD_MLEADERVER
 70
     0
  0
ENDTAB
  0
TABLE
  2
DIMSTYLE
  5
14
330
0
100
AcDbSymbolTable
 70
     1
100
AcDbDimStyleTable
  0
DIMSTYLE
105
13
330
14
100
AcDbSymbolTableRecord
100
AcDbDimStyleTableRecord
  2
STANDARD
 70
     0
178
     0
340
15
  0
ENDTAB
  0
TABLE
  2
BLOCK_RECORD
  5
18
330
0
100
AcDbSymbolTable
 70
     0
  0
BLOCK_RECORD
  5
19
102
{ACAD_XDICTIONARY
360
1A
102
}
330
18
100
AcDbSymbolTableRecord
100
AcDbBlockTableRecord
  2
*MODEL_SPACE
340
21
  0
BLOCK_RECORD
  5
25
330
18
100
AcDbSymbolTableRecord
100
AcDbBlockTableRecord
  2
*PAPER_SPACE
340
28
  0
ENDTAB
  0
ENDSEC
  0
SECTION
  2
BLOCKS
  0
BLOCK
  5
1C
330
19
100
AcDbEntity
  8
0
100
AcDbBlockBegin
  2
*MODEL_SPACE
 70
     0
 10
0.0
 20
0.0
 30
0.0
  3
*MODEL_SPACE
  1

  0
ENDBLK
  5
20
330
19
100
AcDbEntity
  8
0
100
AcDbBlockEnd
  0
BLOCK
  5
26
330
25
100
AcDbEntity
 67
     1
  8
0
100
AcDbBlockBegin
  2
*PAPER_SPACE
 70
     0
 10
0.0
 20
0.0
 30
0.0
  3
*PAPER_SPACE
  1

  0
ENDBLK
  5
27
330
25
100
AcDbEntity
 67
     1
  8
0
100
AcDbBlockEnd
  0
ENDSEC
  0
SECTION
  2
ENTITIES
  0
LINE
  5
6C
330
19
100
AcDbEntity
  8
4
100
AcDbLine
 10
971.6875768174632
 20
244.9252499399067
 30
0.0
 11
971.6875768174632
 21
119.6618199399068
 31
0.0
  0
LINE
  5
70
330
19
100
AcDbEntity
  8
4
100
AcDbLine
 10
666.5806418174634
 20
259.0829599399067
 30
0.0
 11
680.7454368174631
 21
127.8991249399069
 31
0.0
  0
LINE
  5
71
330
19
100
AcDbEntity
  8
4
100
AcDbLine
 10
780.794511817463
 20
259.0829599399067
 30
0.0
 11
766.6297168174633
 21
127.8991249399069
 31
0.0
  0
LINE
  5
72
330
19
100
AcDbEntity
  8
4
100
AcDbLine
 10
475.6875768174632
 20
244.9252499399067
 30
0.0
 11
475.6875768174632
 21
119.6618199399068
 31
0.0
  0
CIRCLE
  5
73
330
19
100
AcDbEntity
  8
4
100
AcDbCircle
 10
723.6875768174632
 20
339.6618199399068
 30
0.0
 40
250.0
  0
ARC
  5
74
330
19
100
AcDbEntity
  8
4
100
AcDbCircle
 10
723.6875768174632
 20
339.6618199399068
 30
0.0
 40
220.0
100
AcDbArc
 50
96.58510479247461
 51
83.41489520752539
  0
ARC
  5
75
330
19
100
AcDbEntity
  8
4
100
AcDbCircle
 10
748.6875768174633
 20
556.223589419194
 30
0.0
 40
2.0
100
AcDbArc
 50
83.41489520752658
 51
180.0
  0
ARC
  5
76
330
19
100
AcDbEntity
  8
4
100
AcDbCircle
 10
698.6875768174631
 20
556.223589419194
 30
0.0
 40
2.0
100
AcDbArc
 50
0.0
 51
96.58510479247342
  0
ARC
  5
77
330
19
100
AcDbEntity
  8
4
100
AcDbCircle
 10
76.6875768174632
 20
339.6618199399068
 30
0.0
 40
900.0
100
AcDbArc
 50
345.742695000007
 51
14.25813799999099
  0
ARC
  5
78
330
19
100
AcDbEntity
  8
4
100
AcDbCircle
 10
1370.687576817463
 20
339.6618199399068
 30
0.0
 40
900.00001
100
AcDbArc
 50
165.7423599999906
 51
194.2581229999902
  0
LINE
  5
79
330
19
100
AcDbEntity
  8
L-CENTER
 48
2.0
100
AcDbLine
 10
723.6875768174632
 20
781.2765649399066
 30
0.0
 11
723.6875768174632
 21
73.31426104965931
 31
0.0
  0
LINE
  5
86
330
19
100
AcDbEntity
  8
4
100
AcDbLine
 10
550.6875768174632
 20
109.6618199399068
 30
0.0
 11
451.6875768174632
 21
109.6618199399068
 31
0.0
  0
LINE
  5
87
330
19
100
AcDbEntity
  8
4
100
AcDbLine
 10
583.6875768174632
 20
59.66181993990676
 30
0.0
 11
448.6875768174632
 21
59.66181993990676
 31
0.0
  0
LINE
  5
9F
330
19
100
AcDbEntity
  8
4
100
AcDbLine
 10
448.6875768174632
 20
59.66181993990676
 30
0.0
 11
448.6875768174632
 21
106.6618199399068
 31
0.0
  0
ARC
  5
A0
330
19
100
AcDbEntity
  8
4
100
AcDbCircle
 10
451.6875768174632
 20
106.6618199399068
 30
0.0
 40
3.0
100
AcDbArc
 50
90.0
 51
180.0
  0
ARC
  5
A7
330
19
100
AcDbEntity
  8
4
100
AcDbCircle
 10
723.6878218174634
 20
986.6618199399068
 30
0.0
 40
899.999985
100
AcDbArc
 50
259.1124609999979
 51
280.8884379999988
  0
LINE
  5
AA
330
19
100
AcDbEntity
  8
4
100
AcDbLine
 10
863.6875768174632
 20
59.66181993990676
 30
0.0
 11
998.6875768174632
 21
59.66181993990676
 31
0.0
  0
LINE
  5
D6
330
19
100
AcDbEntity
  8
4
100
AcDbLine
 10
623.6875768174632
 20
83.66181993990676
 30
0.0
 11
823.6875768174632
 21
83.66181993990676
 31
0.0
  0
LINE
  5
D9
330
19
100
AcDbEntity
  8
4
100
AcDbLine
 10
553.6875768174632
 20
59.66181993990676
 30
0.0
 11
553.6875768174632
 21
139.6618199399068
 31
0.0
  0
LINE
  5
DA
330
19
100
AcDbEntity
  8
L-CENTER
 48
2.0
100
AcDbLine
 10
488.6875768174632
 20
34.66181993990676
 30
0.0
 11
488.6875768174633
 21
134.6618199399068
 31
0.0
  0
ARC
  5
DB
330
19
100
AcDbEntity
  8
4
100
AcDbCircle
 10
723.6878218174634
 20
986.6618199399068
 30
0.0
 40
900.00002
100
AcDbArc
 50
255.7422799999995
 51
257.0189519999982
  0
ARC
  5
DC
330
19
100
AcDbEntity
  8
4
100
AcDbCircle
 10
503.2571568174631
 20
119.2313999399066
 30
0.0
 40
4.999965
100
AcDbArc
 50
194.2581190000103
 51
255.7418670000024
  0
LINE
  5
DD
330
19
100
AcDbEntity
  8
4
100
AcDbLine
 10
470.6875768174632
 20
111.001564939907
 30
0.0
 11
470.6875768174632
 21
116.6618199399068
 31
0.0
  0
LINE
  5
DE
330
19
100
AcDbEntity
  8
4
100
AcDbLine
 10
472.6875768174632
 20
112.5203899399066
 30
0.0
 11
472.6875768174632
 21
124.6618199399068
 31
0.0
  0
ARC
  5
DF
330
19
100
AcDbEntity
  8
4
100
AcDbCircle
 10
465.6875768174632
 20
119.6618199399068
 30
0.0
 40
10.0
100
AcDbArc
 50
270.0
 51
0.0
  0
LINE
  5
E0
330
19
100
AcDbEntity
  8
4
100
AcDbLine
 10
475.6875768174632
 20
124.6618199399068
 30
0.0
 11
472.6875768174632
 21
124.6618199399068
 31
0.0
  0
LINE
  5
E1
330
19
100
AcDbEntity
  8
4
100
AcDbLine
 10
470.6875768174632
 20
116.6618199399068
 30
0.0
 11
472.6875768174632
 21
116.6618199399068
 31
0.0
  0
LINE
  5
E2
330
19
100
AcDbEntity
  8
4
100
AcDbLine
 10
541.6875768174632
 20
112.6618199399068
 30
0.0
 11
541.6875768174632
 21
139.6618199399068
 31
0.0
  0
ARC
  5
E3
330
19
100
AcDbEntity
  8
4
100
AcDbCircle
 10
550.6875768174632
 20
106.6618199399068
 30
0.0
 40
3.0
100
AcDbArc
 50
0.0
 51
90.0
  0
ARC
  5
E4
330
19
100
AcDbEntity
  8
4
100
AcDbCircle
 10
538.6875768174632
 20
112.6618199399068
 30
0.0
 40
3.0
100
AcDbArc
 50
270.0
 51
0.0
  0
LINE
  5
E5
330
19
100
AcDbEntity
  8
4
100
AcDbLine
 10
541.6875768174632
 20
139.6618199399068
 30
0.0
 11
553.6875768174632
 21
139.6618199399068
 31
0.0
  0
LINE
  5
E6
330
19
100
AcDbEntity
  8
4
100
AcDbLine
 10
591.4924568174633
 20
76.41791993990682
 30
0.0
 11
623.6875768174632
 21
83.66181993990676
 31
0.0
  0
ARC
  5
E7
330
19
100
AcDbEntity
  8
4
100
AcDbCircle
 10
593.6875768174632
 20
66.66181993990676
 30
0.0
 40
10.0
100
AcDbArc
 50
102.6803830000023
 51
180.0
  0
LINE
  5
E8
330
19
100
AcDbEntity
  8
4
100
AcDbLine
 10
583.6875768174632
 20
60.05000493990656
 30
0.0
 11
583.6875768174632
 21
59.66181993990676
 31
0.0
  0
LINE
  5
E9
330
19
100
AcDbEntity
  8
4
100
AcDbLine
 10
583.6875768174632
 20
59.66181993990676
 30
0.0
 11
583.6875768174632
 21
66.66181993990676
 31
0.0
  0
ARC
  5
EC
330
19
100
AcDbEntity
  8
4
100
AcDbCircle
 10
677.7627718174631
 20
127.5771049399068
 30
0.0
 40
3.00005
100
AcDbArc
 50
257.7801900000009
 51
6.162021999997868
  0
ARC
  5
ED
330
19
100
AcDbEntity
  8
4
100
AcDbCircle
 10
769.6123818174633
 20
127.5771049399068
 30
0.0
 40
3.00005
100
AcDbArc
 50
173.8379780000021
 51
282.2198099999991
  0
LINE
  5
EE
330
19
100
AcDbEntity
  8
4
100
AcDbLine
 10
823.6875768174632
 20
83.66181993990676
 30
0.0
 11
855.882696817463
 21
76.41791993990682
 31
0.0
  0
ARC
  5
EF
330
19
100
AcDbEntity
  8
4
100
AcDbCircle
 10
853.6875768174632
 20
66.66181993990676
 30
0.0
 40
10.0
100
AcDbArc
 50
0.0
 51
77.31961699999778
  0
LINE
  5
F0
330
19
100
AcDbEntity
  8
4
100
AcDbLine
 10
863.6875768174632
 20
60.05000493990656
 30
0.0
 11
863.6875768174632
 21
59.66181993990676
 31
0.0
  0
LINE
  5
F1
330
19
100
AcDbEntity
  8
4
100
AcDbLine
 10
863.6875768174632
 20
59.66181993990676
 30
0.0
 11
863.6875768174632
 21
66.66181993990676
 31
0.0
  0
TEXT
  5
F3
330
19
100
AcDbEntity
  8
3
100
AcDbText
 10
1133.294856576038
 20
54.17683372191584
 30
0.0
 40
18.73821597033114
  1
LB9-01
  7
KANJI
100
AcDbText
  0
ARC
  5
F9
330
19
100
AcDbEntity
  8
4
100
AcDbCircle
 10
995.6875768174632
 20
106.6618199399068
 30
0.0
 40
3.0
100
AcDbArc
 50
0.0
 51
90.0
  0
LINE
  5
FA
330
19
100
AcDbEntity
  8
L-CENTER
 48
2.0
100
AcDbLine
 10
958.6875768174632
 20
34.66181993990676
 30
0.0
 11
958.6875768174631
 21
134.6618199399068
 31
0.0
  0
LWPOLYLINE
  5
FB
330
19
100
AcDbEntity
  8
4
100
AcDbPolyline
 90
       44
 70
     0
 43
0.0
 10
933.8726818174632
 20
109.662854939907
 10
934.7182618174629
 20
108.8957249399068
 10
935.5406818174633
 20
108.1281149399069
 10
936.3167718174632
 20
107.3595499399066
 10
938.1354268174632
 20
105.0433049399066
 10
938.4945568174635
 20
104.266109939907
 10
938.6915418174631
 20
103.4855599399066
 10
938.7032118174629
 20
102.7011749399067
 10
938.5203118174632
 20
101.9237699399068
 10
938.169871817463
 20
101.141974939907
 10
937.6869468174632
 20
100.3556049399067
 10
935.7937668174632
 20
97.9670599399069
 10
933.9700818174633
 20
95.53029493990698
 10
933.5412118174631
 20
94.70641493990661
 10
933.2602668174632
 20
93.8763999399066
 10
933.1623068174631
 20
93.0400549399069
 10
933.2430418174631
 20
92.31982993990687
 10
933.462066817463
 20
91.59856493990674
 10
933.7979968174632
 20
90.87999493990674
 10
934.229456817463
 20
90.16785993990698
 10
934.7350668174631
 20
89.46589493990678
 10
935.2934468174631
 20
88.77783493990682
 10
935.972216817463
 20
88.00649993990692
 10
936.6517468174634
 20
87.25490993990661
 10
937.2912218174633
 20
86.51943993990653
 10
937.8498368174633
 20
85.79646493990685
 10
938.2867618174632
 20
85.08235993990684
 10
938.5611918174632
 20
84.37349993990665
 10
938.6395118174632
 20
83.57964493990676
 10
938.4905268174634
 20
82.78689493990669
 10
938.1434968174631
 20
81.99431493990687
 10
936.2068018174632
 20
79.60820493990695
 10
933.5412568174634
 20
77.18984493990683
 10
930.9370018174632
 20
74.71391493990677
 10
930.2191068174634
 20
73.87143993990685
 10
929.6250818174631
 20
73.01881493990686
 10
929.1841918174632
 20
72.15509993990645
 10
928.8526068174633
 20
70.86305493990676
 10
928.872061817463
 20
69.54786993990683
 10
929.198671817463
 20
68.21243993990674
 10
931.5826468174632
 20
64.11358993990689
 10
932.6990868174635
 20
62.72609493990649
 10
933.9032868174631
 20
61.33281493990671
 10
935.151366817463
 20
59.93664493990673
  0
LINE
  5
FC
330
19
100
AcDbEntity
  8
4
100
AcDbLine
 10
946.6875768174632
 20
109.6618199399068
 30
0.0
 11
946.6875768174632
 21
59.66181993990676
 31
0.0
  0
LINE
  5
FD
330
19
100
AcDbEntity
  8
4
100
AcDbLine
 10
970.6875768174632
 20
109.6618199399068
 30
0.0
 11
970.6875768174632
 21
59.66181993990676
 31
0.0
  0
LINE
  5
FE
330
19
100
AcDbEntity
  8
4
100
AcDbLine
 10
893.6875768174632
 20
59.66181993990676
 30
0.0
 11
893.6875768174632
 21
139.6618199399068
 31
0.0
  0
ARC
  5
100
330
19
100
AcDbEntity
  8
4
100
AcDbCircle
 10
723.687331817463
 20
986.6618199399068
 30
0.0
 40
900.0000699999999
100
AcDbArc
 50
282.9810610000005
 51
284.2586510000015
  0
LINE
  5
101
330
19
100
AcDbEntity
  8
4
100
AcDbLine
 10
896.6875768174632
 20
109.6618199399068
 30
0.0
 11
995.6875768174632
 21
109.6618199399068
 31
0.0
  0
LINE
  5
102
330
19
100
AcDbEntity
  8
4
100
AcDbLine
 10
905.6875768174632
 20
112.6618199399068
 30
0.0
 11
905.6875768174632
 21
139.6618199399068
 31
0.0
  0
ARC
  5
103
330
19
100
AcDbEntity
  8
4
100
AcDbCircle
 10
908.6875768174632
 20
112.6618199399068
 30
0.0
 40
3.0
100
AcDbArc
 50
180.0
 51
270.0
  0
ARC
  5
104
330
19
100
AcDbEntity
  8
4
100
AcDbCircle
 10
896.6875768174632
 20
106.6618199399068
 30
0.0
 40
3.0
100
AcDbArc
 50
90.0
 51
180.0
  0
LINE
  5
105
330
19
100
AcDbEntity
  8
4
100
AcDbLine
 10
905.6875768174632
 20
139.6618199399068
 30
0.0
 11
893.6875768174632
 21
139.6618199399068
 31
0.0
  0
ARC
  5
106
330
19
100
AcDbEntity
  8
4
100
AcDbCircle
 10
944.1179968174633
 20
119.2313999399066
 30
0.0
 40
4.999965
100
AcDbArc
 50
284.2581329999982
 51
345.7418809999897
  0
ARC
  5
107
330
19
100
AcDbEntity
  8
4
100
AcDbCircle
 10
981.6875768174632
 20
119.6618199399068
 30
0.0
 40
10.0
100
AcDbArc
 50
180.0
 51
270.0014040000001
  0
LINE
  5
10A
330
19
100
AcDbEntity
  8
4
100
AcDbLine
 10
998.6875768174632
 20
59.66181993990676
 30
0.0
 11
998.6875768174632
 21
106.6618199399068
 31
0.0
  0
LINE
  5
110
330
19
100
AcDbEntity
  8
4
100
AcDbLine
 10
470.6875768174632
 20
694.6618199399068
 30
0.0
 11
453.8876768174632
 21
694.6618199399068
 31
0.0
  0
LINE
  5
111
330
19
100
AcDbEntity
  8
L-CENTER
 48
2.0
100
AcDbLine
 10
435.8768926221819
 20
651.5336449399069
 30
0.0
 11
495.8109760932348
 21
651.5336449399069
 31
0.0
  0
LINE
  5
112
330
19
100
AcDbEntity
  8
4
100
AcDbLine
 10
453.8876768174632
 20
484.6618199399068
 30
0.0
 11
470.6875768174632
 21
484.6618199399068
 31
0.0
  0
LINE
  5
113
330
19
100
AcDbEntity
  8
L-CENTER
 48
2.0
100
AcDbLine
 10
452.5068268174632
 20
299.6618199399068
 30
0.0
 11
497.0167838657289
 21
299.6618199399068
 31
0.0
  0
LINE
  5
116
330
19
100
AcDbEntity
  8
L-CENTER
 48
2.0
100
AcDbLine
 10
1000.386728723857
 20
589.6618199399068
 30
0.0
 11
310.4964270138912
 21
589.6618199399068
 31
0.0
  0
LINE
  5
11B
330
19
100
AcDbEntity
  8
4
100
AcDbLine
 10
452.8876718174633
 20
634.6618199399068
 30
0.0
 11
452.8876718174633
 21
544.6618199399068
 31
0.0
  0
LINE
  5
11C
330
19
100
AcDbEntity
  8
4
100
AcDbLine
 10
438.6875768174632
 20
622.1618199399068
 30
0.0
 11
438.6875768174632
 21
557.1618199399068
 31
0.0
  0
LINE
  5
11D
330
19
100
AcDbEntity
  8
4
100
AcDbLine
 10
320.6875768174632
 20
618.6618199399068
 30
0.0
 11
320.6875768174632
 21
560.6618199399068
 31
0.0
  0
LINE
  5
11E
330
19
100
AcDbEntity
  8
4
100
AcDbLine
 10
318.6875768174632
 20
623.6618199399068
 30
0.0
 11
318.6875768174632
 21
562.6618199399068
 31
0.0
  0
LINE
  5
11F
330
19
100
AcDbEntity
  8
4
100
AcDbLine
 10
453.8876768174632
 20
694.6618199399068
 30
0.0
 11
453.8876768174632
 21
484.6618199399068
 31
0.0
  0
LINE
  5
120
330
19
100
AcDbEntity
  8
4
100
AcDbLine
 10
438.6875768174632
 20
560.6618199399068
 30
0.0
 11
320.6875768174632
 21
560.6618199399068
 31
0.0
  0
LINE
  5
121
330
19
100
AcDbEntity
  8
4
100
AcDbLine
 10
320.6875768174632
 20
560.6618199399068
 30
0.0
 11
318.6875768174632
 21
562.6618199399068
 31
0.0
  0
LINE
  5
122
330
19
100
AcDbEntity
  8
4
100
AcDbLine
 10
453.8876768174632
 20
515.7899949399066
 30
0.0
 11
453.8876768174632
 21
539.7899949399066
 31
0.0
  0
LINE
  5
123
330
19
100
AcDbEntity
  8
4
100
AcDbLine
 10
450.8876768174632
 20
539.7899949399066
 30
0.0
 11
450.8876768174632
 21
515.7899949399066
 31
0.0
  0
ARC
  5
124
330
19
100
AcDbEntity
  8
4
100
AcDbCircle
 10
446.4714168174633
 20
536.7899949399066
 30
0.0
 40
4.58369
100
AcDbArc
 50
139.1186700000087
 51
220.8813299999913
  0
LINE
  5
125
330
19
100
AcDbEntity
  8
4
100
AcDbLine
 10
441.8876768174632
 20
536.7899949399066
 30
0.0
 11
441.8876768174632
 21
518.7899949399066
 31
0.0
  0
LINE
  5
126
330
19
100
AcDbEntity
  8
4
100
AcDbLine
 10
453.8876768174632
 20
515.7899949399066
 30
0.0
 11
450.8876768174632
 21
515.7899949399066
 31
0.0
  0
ARC
  5
127
330
19
100
AcDbEntity
  8
4
100
AcDbCircle
 10
459.8876768174632
 20
527.7899949399066
 30
0.0
 40
18.00009
100
AcDbArc
 50
160.528928000001
 51
199.4703399999861
  0
ARC
  5
128
330
19
100
AcDbEntity
  8
4
100
AcDbCircle
 10
446.4714168174633
 20
518.7899949399066
 30
0.0
 40
4.58369
100
AcDbArc
 50
139.1186700000087
 51
220.8813299999913
  0
LINE
  5
129
330
19
100
AcDbEntity
  8
4
100
AcDbLine
 10
450.8876768174632
 20
533.7899949399066
 30
0.0
 11
442.9172168174632
 21
533.7899949399066
 31
0.0
  0
LINE
  5
12A
330
19
100
AcDbEntity
  8
4
100
AcDbLine
 10
450.8876768174632
 20
521.7899949399066
 30
0.0
 11
442.9172168174632
 21
521.7899949399066
 31
0.0
  0
LINE
  5
12B
330
19
100
AcDbEntity
  8
4
100
AcDbLine
 10
442.9172168174632
 20
515.7899949399066
 30
0.0
 11
450.8876768174632
 21
515.7899949399066
 31
0.0
  0
LINE
  5
12C
330
19
100
AcDbEntity
  8
4
100
AcDbLine
 10
453.8876718174633
 20
544.6618199399068
 30
0.0
 11
452.8876718174633
 21
544.6618199399068
 31
0.0
  0
LINE
  5
12D
330
19
100
AcDbEntity
  8
4
100
AcDbLine
 10
453.8876768174632
 20
539.7899949399066
 30
0.0
 11
450.8876768174632
 21
539.7899949399066
 31
0.0
  0
LINE
  5
12E
330
19
100
AcDbEntity
  8
4
100
AcDbLine
 10
452.8876718174633
 20
557.1618199399068
 30
0.0
 11
438.6875768174632
 21
557.1618199399068
 31
0.0
  0
LINE
  5
12F
330
19
100
AcDbEntity
  8
4
100
AcDbLine
 10
442.9172168174632
 20
539.7899949399066
 30
0.0
 11
450.8876768174632
 21
539.7899949399066
 31
0.0
  0
LINE
  5
130
330
19
100
AcDbEntity
  8
4
100
AcDbLine
 10
438.6875768174632
 20
618.6618199399068
 30
0.0
 11
320.6875768174632
 21
618.6618199399068
 31
0.0
  0
LINE
  5
131
330
19
100
AcDbEntity
  8
4
100
AcDbLine
 10
318.6875768174632
 20
623.6618199399068
 30
0.0
 11
428.6875768174632
 21
623.6618199399068
 31
0.0
  0
LINE
  5
133
330
19
100
AcDbEntity
  8
4
100
AcDbLine
 10
318.6875768174632
 20
616.6618199399068
 30
0.0
 11
320.6875768174632
 21
618.6618199399068
 31
0.0
  0
ARC
  5
134
330
19
100
AcDbEntity
  8
4
100
AcDbCircle
 10
446.4714168174633
 20
642.5336449399069
 30
0.0
 40
4.583600000000001
100
AcDbArc
 50
139.1186700000098
 51
220.8833260000132
  0
LINE
  5
135
330
19
100
AcDbEntity
  8
4
100
AcDbLine
 10
450.8876768174632
 20
639.5336449399069
 30
0.0
 11
450.8876768174632
 21
663.5336449399069
 31
0.0
  0
LINE
  5
136
330
19
100
AcDbEntity
  8
4
100
AcDbLine
 10
453.8876768174632
 20
663.5336449399069
 30
0.0
 11
453.8876768174632
 21
639.5336449399069
 31
0.0
  0
LINE
  5
137
330
19
100
AcDbEntity
  8
4
100
AcDbLine
 10
452.8876718174633
 20
634.6618199399068
 30
0.0
 11
453.8876718174633
 21
634.6618199399068
 31
0.0
  0
LINE
  5
138
330
19
100
AcDbEntity
  8
4
100
AcDbLine
 10
453.8876768174632
 20
639.5336449399069
 30
0.0
 11
450.8876768174632
 21
639.5336449399069
 31
0.0
  0
LINE
  5
139
330
19
100
AcDbEntity
  8
4
100
AcDbLine
 10
428.6875768174632
 20
623.6618199399068
 30
0.0
 11
428.6875768174632
 21
618.6618199399068
 31
0.0
  0
LINE
  5
13A
330
19
100
AcDbEntity
  8
4
100
AcDbLine
 10
438.6875768174632
 20
622.1618199399068
 30
0.0
 11
452.8876718174633
 21
622.1618199399068
 31
0.0
  0
LINE
  5
13B
330
19
100
AcDbEntity
  8
4
100
AcDbLine
 10
442.9172168174632
 20
639.5336449399069
 30
0.0
 11
450.8876768174632
 21
639.5336449399069
 31
0.0
  0
LINE
  5
13C
330
19
100
AcDbEntity
  8
4
100
AcDbLine
 10
453.8876768174632
 20
663.5336449399069
 30
0.0
 11
450.8876768174632
 21
663.5336449399069
 31
0.0
  0
LINE
  5
13D
330
19
100
AcDbEntity
  8
4
100
AcDbLine
 10
441.8876768174632
 20
642.5336449399069
 30
0.0
 11
441.8876768174632
 21
660.5336449399069
 31
0.0
  0
ARC
  5
13E
330
19
100
AcDbEntity
  8
4
100
AcDbCircle
 10
459.8876768174632
 20
651.5336449399069
 30
0.0
 40
17.999975
100
AcDbArc
 50
160.5296600000135
 51
199.4713310000033
  0
ARC
  5
13F
330
19
100
AcDbEntity
  8
4
100
AcDbCircle
 10
446.4714168174633
 20
660.5336449399069
 30
0.0
 40
4.583600000000001
100
AcDbArc
 50
139.1186700000098
 51
220.8833260000132
  0
LINE
  5
140
330
19
100
AcDbEntity
  8
4
100
AcDbLine
 10
442.9172168174632
 20
663.5336449399069
 30
0.0
 11
450.8876768174632
 21
663.5336449399069
 31
0.0
  0
LINE
  5
141
330
19
100
AcDbEntity
  8
4
100
AcDbLine
 10
450.8876768174632
 20
657.5336449399069
 30
0.0
 11
442.9172168174632
 21
657.5336449399069
 31
0.0
  0
LINE
  5
142
330
19
100
AcDbEntity
  8
4
100
AcDbLine
 10
450.8876768174632
 20
645.5336449399069
 30
0.0
 11
442.9172168174632
 21
645.5336449399069
 31
0.0
  0
LINE
  5
14D
330
19
100
AcDbEntity
  8
L-CENTER
 48
2.0
100
AcDbLine
 10
962.6875768174632
 20
725.3522212047014
 30
0.0
 11
962.6875768174632
 21
672.0428962047013
 31
0.0
  0
LINE
  5
14E
330
19
100
AcDbEntity
  8
4
100
AcDbLine
 10
952.6875768174632
 20
705.6618199399068
 30
0.0
 11
952.6875768174632
 21
715.6618199399068
 31
0.0
  0
LINE
  5
14F
330
19
100
AcDbEntity
  8
4
100
AcDbLine
 10
972.6875768174632
 20
705.6618199399068
 30
0.0
 11
972.6875768174632
 21
715.6618199399068
 31
0.0
  0
LINE
  5
150
330
19
100
AcDbEntity
  8
4
100
AcDbLine
 10
738.4986118174629
 20
711.6464399399069
 30
0.0
 11
741.1875768174632
 21
699.6618199399068
 31
0.0
  0
LINE
  5
151
330
19
100
AcDbEntity
  8
4
100
AcDbLine
 10
708.8765418174635
 20
711.6464399399069
 30
0.0
 11
706.1875768174632
 21
699.6618199399068
 31
0.0
  0
ARC
  5
152
330
19
100
AcDbEntity
  8
4
100
AcDbCircle
 10
723.6875768174632
 20
734.6618199399068
 30
0.0
 40
35.99993499999999
100
AcDbArc
 50
305.3397909999953
 51
234.661611999998
  0
LINE
  5
153
330
19
100
AcDbEntity
  8
L-CENTER
 48
2.0
100
AcDbLine
 10
583.6875768174632
 20
717.5515849399067
 30
0.0
 11
583.6875768174632
 21
675.8041773079162
 31
0.0
  0
LINE
  5
154
330
19
100
AcDbEntity
  8
4
100
AcDbLine
 10
595.1875768174632
 20
705.6618199399068
 30
0.0
 11
595.1875768174632
 21
710.6618199399068
 31
0.0
  0
LINE
  5
155
330
19
100
AcDbEntity
  8
4
100
AcDbLine
 10
606.6875768174632
 20
701.6618199399068
 30
0.0
 11
606.6875768174632
 21
710.6618199399068
 31
0.0
  0
LINE
  5
156
330
19
100
AcDbEntity
  8
4
100
AcDbLine
 10
572.1875768174632
 20
705.6618199399068
 30
0.0
 11
572.1875768174632
 21
710.6618199399068
 31
0.0
  0
LINE
  5
157
330
19
100
AcDbEntity
  8
4
100
AcDbLine
 10
560.6875768174632
 20
701.6618199399068
 30
0.0
 11
560.6875768174632
 21
710.6618199399068
 31
0.0
  0
LINE
  5
158
330
19
100
AcDbEntity
  8
L-CENTER
 48
2.0
100
AcDbLine
 10
484.6875768174632
 20
725.3522212047014
 30
0.0
 11
484.6875768174632
 21
672.0428962047013
 31
0.0
  0
LINE
  5
159
330
19
100
AcDbEntity
  8
4
100
AcDbLine
 10
474.6875768174632
 20
705.6618199399068
 30
0.0
 11
474.6875768174632
 21
715.6618199399068
 31
0.0
  0
LINE
  5
15A
330
19
100
AcDbEntity
  8
4
100
AcDbLine
 10
494.6875768174632
 20
705.6618199399068
 30
0.0
 11
494.6875768174632
 21
715.6618199399068
 31
0.0
  0
LINE
  5
15B
330
19
100
AcDbEntity
  8
4
100
AcDbLine
 10
804.2666768174631
 20
396.7687549399066
 30
0.0
 11
935.4502718174631
 21
382.6037149399067
 31
0.0
  0
LINE
  5
15C
330
19
100
AcDbEntity
  8
4
100
AcDbLine
 10
804.2666768174631
 20
282.554884939907
 30
0.0
 11
935.4502718174631
 21
296.7199249399068
 31
0.0
  0
ARC
  5
15D
330
19
100
AcDbEntity
  8
4
100
AcDbCircle
 10
723.6878218174634
 20
-307.3381800600932
 30
0.0
 40
900.00001
100
AcDbArc
 50
75.74190899999856
 51
104.2581399999966
  0
LINE
  5
15E
330
19
100
AcDbEntity
  8
4
100
AcDbLine
 10
475.6875768174632
 20
696.6618199399068
 30
0.0
 11
971.6875768174632
 21
696.6618199399068
 31
0.0
  0
LINE
  5
15F
330
19
100
AcDbEntity
  8
L-CENTER
 48
2.0
100
AcDbLine
 10
457.3400179272157
 20
339.6618199399068
 30
0.0
 11
990.0351357077107
 21
339.6618199399068
 31
0.0
  0
LINE
  5
160
330
19
100
AcDbEntity
  8
4
100
AcDbLine
 10
680.7454884177591
 20
551.424507480179
 30
0.0
 11
666.5806418174634
 21
420.2406749399065
 31
0.0
  0
ARC
  5
161
330
19
100
AcDbEntity
  8
4
100
AcDbCircle
 10
723.6875768174632
 20
117.1618199399068
 30
0.0
 40
299.99994
100
AcDbArc
 50
77.23053799999929
 51
102.7695530000017
  0
ARC
  5
162
330
19
100
AcDbEntity
  8
4
100
AcDbCircle
 10
723.6875768174632
 20
122.1618199399068
 30
0.0
 40
300.00009
100
AcDbArc
 50
76.42224300000157
 51
103.5778019999991
  0
ARC
  5
163
330
19
100
AcDbEntity
  8
4
100
AcDbCircle
 10
723.6875768174632
 20
562.1618199399068
 30
0.0
 40
300.00002
100
AcDbArc
 50
257.2307859999991
 51
282.7699380000017
  0
ARC
  5
164
330
19
100
AcDbEntity
  8
4
100
AcDbCircle
 10
723.6875768174632
 20
557.1618199399068
 30
0.0
 40
299.99997
100
AcDbArc
 50
256.4225260000024
 51
283.5780960000024
  0
ARC
  5
165
330
19
100
AcDbEntity
  8
4
100
AcDbCircle
 10
946.187331817463
 20
339.6615749399066
 30
0.0
 40
300.000015
100
AcDbArc
 50
167.2307859999919
 51
192.7695079999879
  0
ARC
  5
166
330
19
100
AcDbEntity
  8
4
100
AcDbCircle
 10
941.187331817463
 20
339.6615749399066
 30
0.0
 40
299.99995
100
AcDbArc
 50
166.4225710000112
 51
193.577712000009
  0
LINE
  5
167
330
19
100
AcDbEntity
  8
4
100
AcDbLine
 10
643.1084768174633
 20
282.554884939907
 30
0.0
 11
511.9248818174633
 21
296.7199249399068
 31
0.0
  0
LINE
  5
168
330
19
100
AcDbEntity
  8
4
100
AcDbLine
 10
470.687981817463
 20
319.6618199399068
 30
0.0
 11
470.687981817463
 21
279.6618199399068
 31
0.0
  0
LINE
  5
169
330
19
100
AcDbEntity
  8
4
100
AcDbLine
 10
462.187981817463
 20
281.6618199399068
 30
0.0
 11
462.187981817463
 21
317.6618199399068
 31
0.0
  0
LINE
  5
16A
330
19
100
AcDbEntity
  8
4
100
AcDbLine
 10
470.687981817463
 20
282.6618199399068
 30
0.0
 11
470.687981817463
 21
316.6618199399068
 31
0.0
  0
LINE
  5
16B
330
19
100
AcDbEntity
  8
4
100
AcDbLine
 10
469.1879818174634
 20
281.6618199399068
 30
0.0
 11
469.1879818174634
 21
317.6618199399068
 31
0.0
  0
LINE
  5
16C
330
19
100
AcDbEntity
  8
4
100
AcDbLine
 10
467.187981817463
 20
281.6618199399068
 30
0.0
 11
467.187981817463
 21
317.6618199399068
 31
0.0
  0
LINE
  5
16D
330
19
100
AcDbEntity
  8
4
100
AcDbLine
 10
469.1879818174634
 20
282.6618199399068
 30
0.0
 11
470.687981817463
 21
282.6618199399068
 31
0.0
  0
LINE
  5
16E
330
19
100
AcDbEntity
  8
4
100
AcDbLine
 10
470.687981817463
 20
279.6618199399068
 30
0.0
 11
472.6897768174631
 21
279.6618199399068
 31
0.0
  0
LINE
  5
16F
330
19
100
AcDbEntity
  8
4
100
AcDbLine
 10
469.1879818174634
 20
281.6618199399068
 30
0.0
 11
462.187981817463
 21
281.6618199399068
 31
0.0
  0
ARC
  5
170
330
19
100
AcDbEntity
  8
4
100
AcDbCircle
 10
642.5716118174632
 20
277.5839399399069
 30
0.0
 40
5.0
100
AcDbArc
 50
11.74284000000842
 51
83.83621699999982
  0
ARC
  5
171
330
19
100
AcDbEntity
  8
4
100
AcDbCircle
 10
661.6094518174632
 20
258.5460949399067
 30
0.0
 40
5.000025
100
AcDbArc
 50
6.163781999989684
 51
78.25441300000107
  0
ARC
  5
172
330
19
100
AcDbEntity
  8
4
100
AcDbCircle
 10
658.4834768174633
 20
274.4582049399069
 30
0.0
 40
4.999904999999999
100
AcDbArc
 50
192.7706639999981
 51
257.2293359999965
  0
ARC
  5
173
330
19
100
AcDbEntity
  8
4
100
AcDbCircle
 10
654.431716817463
 20
270.4064499399069
 30
0.0
 40
5.00009
100
AcDbArc
 50
193.5775609999982
 51
256.4224410000014
  0
LINE
  5
174
330
19
100
AcDbEntity
  8
4
100
AcDbLine
 10
643.1084768174633
 20
396.7687549399066
 30
0.0
 11
511.9248818174633
 21
382.6037149399067
 31
0.0
  0
ARC
  5
175
330
19
100
AcDbEntity
  8
4
100
AcDbCircle
 10
511.6028618174632
 20
293.7372599399068
 30
0.0
 40
3.00005
100
AcDbArc
 50
83.83797799999884
 51
192.219809999997
  0
LINE
  5
176
330
19
100
AcDbEntity
  8
4
100
AcDbLine
 10
470.9097468174632
 20
319.6618199399068
 30
0.0
 11
470.687981817463
 21
319.6618199399068
 31
0.0
  0
LINE
  5
177
330
19
100
AcDbEntity
  8
4
100
AcDbLine
 10
470.687981817463
 20
316.6618199399068
 30
0.0
 11
469.1879818174634
 21
316.6618199399068
 31
0.0
  0
LINE
  5
178
330
19
100
AcDbEntity
  8
4
100
AcDbLine
 10
469.1879818174634
 20
317.6618199399068
 30
0.0
 11
462.187981817463
 21
317.6618199399068
 31
0.0
  0
LINE
  5
179
330
19
100
AcDbEntity
  8
4
100
AcDbLine
 10
467.187981817463
 20
308.6618199399068
 30
0.0
 11
462.187981817463
 21
308.6618199399068
 31
0.0
  0
LINE
  5
17A
330
19
100
AcDbEntity
  8
4
100
AcDbLine
 10
467.187981817463
 20
290.6618199399068
 30
0.0
 11
462.187981817463
 21
290.6618199399068
 31
0.0
  0
ARC
  5
17B
330
19
100
AcDbEntity
  8
4
100
AcDbCircle
 10
511.6028618174632
 20
385.5863799399067
 30
0.0
 40
3.00005
100
AcDbArc
 50
167.7801900000051
 51
276.1620220000013
  0
ARC
  5
17C
330
19
100
AcDbEntity
  8
4
100
AcDbCircle
 10
642.5716118174632
 20
401.7396999399066
 30
0.0
 40
5.0
100
AcDbArc
 50
276.1637819999996
 51
348.2571599999916
  0
ARC
  5
17D
330
19
100
AcDbEntity
  8
4
100
AcDbCircle
 10
661.6094518174632
 20
420.7775399399065
 30
0.0
 40
5.000025
100
AcDbArc
 50
281.745588999998
 51
353.8362180000103
  0
ARC
  5
17E
330
19
100
AcDbEntity
  8
4
100
AcDbCircle
 10
654.4319618174632
 20
408.9171899399066
 30
0.0
 40
5.00009
100
AcDbArc
 50
103.5775610000008
 51
166.4224390000005
  0
ARC
  5
17F
330
19
100
AcDbEntity
  8
4
100
AcDbCircle
 10
658.4834768174633
 20
404.8656749399065
 30
0.0
 40
5.00009
100
AcDbArc
 50
102.7673189999987
 51
167.2326809999896
  0
ARC
  5
180
330
19
100
AcDbEntity
  8
4
100
AcDbCircle
 10
501.1878218174634
 20
339.6615749399066
 30
0.0
 40
299.999975
100
AcDbArc
 50
347.2311140000005
 51
12.7695530000065
  0
ARC
  5
181
330
19
100
AcDbEntity
  8
4
100
AcDbCircle
 10
506.1878218174634
 20
339.6615749399066
 30
0.0
 40
300.000075
100
AcDbArc
 50
346.4230119999949
 51
13.57775700000587
  0
ARC
  5
183
330
19
100
AcDbEntity
  8
4
100
AcDbCircle
 10
804.8035418174632
 20
277.5839399399069
 30
0.0
 40
5.0
100
AcDbArc
 50
96.16378300000021
 51
168.2571599999916
  0
ARC
  5
184
330
19
100
AcDbEntity
  8
4
100
AcDbCircle
 10
788.8916768174631
 20
274.4582049399069
 30
0.0
 40
4.999904999999999
100
AcDbArc
 50
282.7706640000035
 51
347.2293360000019
  0
ARC
  5
185
330
19
100
AcDbEntity
  8
4
100
AcDbCircle
 10
785.7657018174632
 20
258.5460949399067
 30
0.0
 40
5.000025
100
AcDbArc
 50
101.7455749999984
 51
173.8362169999922
  0
ARC
  5
186
330
19
100
AcDbEntity
  8
4
100
AcDbCircle
 10
792.9434368174634
 20
270.4064499399069
 30
0.0
 40
5.00009
100
AcDbArc
 50
283.5775589999973
 51
346.4224390000018
  0
ARC
  5
18C
330
19
100
AcDbEntity
  8
4
100
AcDbCircle
 10
804.8035418174632
 20
401.7396999399066
 30
0.0
 40
5.0
100
AcDbArc
 50
191.7428400000084
 51
263.8362180000004
  0
ARC
  5
18D
330
19
100
AcDbEntity
  8
4
100
AcDbCircle
 10
788.8916768174631
 20
404.8656749399065
 30
0.0
 40
5.00009
100
AcDbArc
 50
12.76731900001039
 51
77.23268100000132
  0
ARC
  5
18E
330
19
100
AcDbEntity
  8
4
100
AcDbCircle
 10
792.9431918174632
 20
408.9171899399066
 30
0.0
 40
5.00009
100
AcDbArc
 50
13.57756099999947
 51
76.42243899999924
  0
ARC
  5
18F
330
19
100
AcDbEntity
  8
4
100
AcDbCircle
 10
470.6875768174632
 20
569.6618199399068
 30
0.0
 40
5.0
100
AcDbArc
 50
0.0
 51
90.0
  0
LINE
  5
190
330
19
100
AcDbEntity
  8
4
100
AcDbLine
 10
470.6875768174632
 20
484.6618199399068
 30
0.0
 11
470.6875768174632
 21
694.6618199399068
 31
0.0
  0
LINE
  5
191
330
19
100
AcDbEntity
  8
4
100
AcDbLine
 10
475.6875768174632
 20
434.3983899399068
 30
0.0
 11
475.6875768174632
 21
569.6618199399068
 31
0.0
  0
ARC
  5
192
330
19
100
AcDbEntity
  8
4
100
AcDbCircle
 10
473.6875768174632
 20
482.6618199399068
 30
0.0
 40
2.0
100
AcDbArc
 50
0.0
 51
90.0
  0
LINE
  5
193
330
19
100
AcDbEntity
  8
4
100
AcDbLine
 10
473.6875768174632
 20
484.6618199399068
 30
0.0
 11
470.6875768174632
 21
484.6618199399068
 31
0.0
  0
ARC
  5
194
330
19
100
AcDbEntity
  8
4
100
AcDbCircle
 10
503.2571568174631
 20
560.0922399399069
 30
0.0
 40
4.999965
100
AcDbArc
 50
104.2581329999973
 51
165.7418809999897
  0
LINE
  5
195
330
19
100
AcDbEntity
  8
4
100
AcDbLine
 10
558.6875768174632
 20
699.6618199399068
 30
0.0
 11
608.6875768174632
 21
699.6618199399068
 31
0.0
  0
LINE
  5
196
330
19
100
AcDbEntity
  8
4
100
AcDbLine
 10
560.6875768174632
 20
705.6618199399068
 30
0.0
 11
606.6875768174632
 21
705.6618199399068
 31
0.0
  0
LINE
  5
197
330
19
100
AcDbEntity
  8
4
100
AcDbLine
 10
560.6875768174632
 20
701.6618199399068
 30
0.0
 11
606.6875768174632
 21
701.6618199399068
 31
0.0
  0
LINE
  5
198
330
19
100
AcDbEntity
  8
4
100
AcDbLine
 10
561.6875768174632
 20
699.6618199399068
 30
0.0
 11
605.6875768174632
 21
699.6618199399068
 31
0.0
  0
LINE
  5
199
330
19
100
AcDbEntity
  8
4
100
AcDbLine
 10
475.6875768174632
 20
609.6618199399068
 30
0.0
 11
475.6875768174632
 21
696.6618199399068
 31
0.0
  0
ARC
  5
19A
330
19
100
AcDbEntity
  8
4
100
AcDbCircle
 10
470.6875768174632
 20
609.6618199399068
 30
0.0
 40
5.0
100
AcDbArc
 50
270.0
 51
0.0
  0
ARC
  5
19B
330
19
100
AcDbEntity
  8
4
100
AcDbCircle
 10
481.6875768174632
 20
696.6618199399068
 30
0.0
 40
5.0
100
AcDbArc
 50
53.13010199999781
 51
126.8698980000022
  0
LINE
  5
19C
330
19
100
AcDbEntity
  8
4
100
AcDbLine
 10
478.6875768174632
 20
696.6618199399068
 30
0.0
 11
484.6875768174632
 21
696.6618199399068
 31
0.0
  0
LINE
  5
19D
330
19
100
AcDbEntity
  8
4
100
AcDbLine
 10
474.6875768174632
 20
705.6618199399068
 30
0.0
 11
484.6875768174632
 21
705.6618199399068
 31
0.0
  0
LINE
  5
19E
330
19
100
AcDbEntity
  8
4
100
AcDbLine
 10
478.6875768174632
 20
696.6618199399068
 30
0.0
 11
478.6875768174632
 21
701.6618199399068
 31
0.0
  0
LINE
  5
19F
330
19
100
AcDbEntity
  8
4
100
AcDbLine
 10
470.6875768174632
 20
694.6618199399068
 30
0.0
 11
475.6875768174632
 21
694.6618199399068
 31
0.0
  0
ARC
  5
1A0
330
19
100
AcDbEntity
  8
4
100
AcDbCircle
 10
474.6875768174632
 20
701.6618199399068
 30
0.0
 40
4.0
100
AcDbArc
 50
0.0
 51
90.0
  0
LINE
  5
1A1
330
19
100
AcDbEntity
  8
4
100
AcDbLine
 10
490.6875768174632
 20
696.6618199399068
 30
0.0
 11
484.6875768174632
 21
696.6618199399068
 31
0.0
  0
LINE
  5
1A2
330
19
100
AcDbEntity
  8
4
100
AcDbLine
 10
490.6875768174632
 20
696.6618199399068
 30
0.0
 11
490.6875768174632
 21
701.6618199399068
 31
0.0
  0
ARC
  5
1A3
330
19
100
AcDbEntity
  8
4
100
AcDbCircle
 10
487.6875768174632
 20
696.6618199399068
 30
0.0
 40
5.0
100
AcDbArc
 50
53.13010199999781
 51
126.8698980000022
  0
LINE
  5
1A4
330
19
100
AcDbEntity
  8
4
100
AcDbLine
 10
494.6875768174632
 20
705.6618199399068
 30
0.0
 11
484.6875768174632
 21
705.6618199399068
 31
0.0
  0
ARC
  5
1A5
330
19
100
AcDbEntity
  8
4
100
AcDbCircle
 10
494.6875768174632
 20
701.6618199399068
 30
0.0
 40
4.0
100
AcDbArc
 50
90.0
 51
180.0
  0
LINE
  5
1A6
330
19
100
AcDbEntity
  8
4
100
AcDbLine
 10
487.6875768174632
 20
701.6618199399068
 30
0.0
 11
481.6875768174632
 21
701.6618199399068
 31
0.0
  0
LINE
  5
1A7
330
19
100
AcDbEntity
  8
4
100
AcDbLine
 10
558.6875768174632
 20
696.6618199399068
 30
0.0
 11
558.6875768174632
 21
699.6618199399068
 31
0.0
  0
LINE
  5
1A8
330
19
100
AcDbEntity
  8
4
100
AcDbLine
 10
561.6875768174632
 20
701.6618199399068
 30
0.0
 11
561.6875768174632
 21
699.6618199399068
 31
0.0
  0
LINE
  5
1A9
330
19
100
AcDbEntity
  8
4
100
AcDbLine
 10
608.6875768174632
 20
696.6618199399068
 30
0.0
 11
608.6875768174632
 21
699.6618199399068
 31
0.0
  0
LINE
  5
1AA
330
19
100
AcDbEntity
  8
4
100
AcDbLine
 10
605.6875768174632
 20
701.6618199399068
 30
0.0
 11
605.6875768174632
 21
699.6618199399068
 31
0.0
  0
ARC
  5
1AB
330
19
100
AcDbEntity
  8
4
100
AcDbCircle
 10
677.7627718174631
 20
551.7465349399067
 30
0.0
 40
3.00005
100
AcDbArc
 50
353.8379589999892
 51
102.2198140000009
  0
LINE
  5
1AC
330
19
100
AcDbEntity
  8
4
100
AcDbLine
 10
703.6875768174632
 20
699.6618199399068
 30
0.0
 11
743.6875768174632
 21
699.6618199399068
 31
0.0
  0
LINE
  5
1AD
330
19
100
AcDbEntity
  8
4
100
AcDbLine
 10
703.6875768174632
 20
696.6618199399068
 30
0.0
 11
703.6875768174632
 21
699.6618199399068
 31
0.0
  0
ARC
  5
1AE
330
19
100
AcDbEntity
  8
4
100
AcDbCircle
 10
698.237626817463
 20
698.7689999399067
 30
0.0
 40
7.999904999999999
100
AcDbArc
 50
6.407772999997083
 51
54.66131099999542
  0
LINE
  5
1AF
330
19
100
AcDbEntity
  8
4
100
AcDbLine
 10
743.6875768174632
 20
696.6618199399068
 30
0.0
 11
743.6875768174632
 21
699.6618199399068
 31
0.0
  0
ARC
  5
1B0
330
19
100
AcDbEntity
  8
4
100
AcDbCircle
 10
749.1375268174634
 20
698.7689999399067
 30
0.0
 40
7.999975
100
AcDbArc
 50
125.3401140000078
 51
173.5922279999914
  0
ARC
  5
1B2
330
19
100
AcDbEntity
  8
4
100
AcDbCircle
 10
935.7722918174632
 20
293.7372599399068
 30
0.0
 40
3.00005
100
AcDbArc
 50
347.780190000003
 51
96.16202200000008
  0
ARC
  5
1B3
330
19
100
AcDbEntity
  8
4
100
AcDbCircle
 10
935.7722918174632
 20
385.5863799399067
 30
0.0
 40
3.00005
100
AcDbArc
 50
263.8379779999997
 51
12.21980999999492
  0
ARC
  5
1B7
330
19
100
AcDbEntity
  8
4
100
AcDbCircle
 10
976.6875768174632
 20
569.6618199399068
 30
0.0
 40
5.0
100
AcDbArc
 50
90.0
 51
180.0
  0
LINE
  5
1BA
330
19
100
AcDbEntity
  8
4
100
AcDbLine
 10
976.6875768174632
 20
484.6618199399068
 30
0.0
 11
976.6875768174632
 21
694.6618199399068
 31
0.0
  0
LINE
  5
1BB
330
19
100
AcDbEntity
  8
4
100
AcDbLine
 10
993.487481817463
 20
694.6618199399068
 30
0.0
 11
993.487481817463
 21
484.6618199399068
 31
0.0
  0
LINE
  5
1BC
330
19
100
AcDbEntity
  8
4
100
AcDbLine
 10
1004.457936817463
 20
539.7899949399066
 30
0.0
 11
996.487481817463
 21
539.7899949399066
 31
0.0
  0
LINE
  5
1BE
330
19
100
AcDbEntity
  8
4
100
AcDbLine
 10
996.487481817463
 20
533.7899949399066
 30
0.0
 11
1004.457936817463
 21
533.7899949399066
 31
0.0
  0
LINE
  5
1BF
330
19
100
AcDbEntity
  8
4
100
AcDbLine
 10
996.487481817463
 20
521.7899949399066
 30
0.0
 11
1004.457936817463
 21
521.7899949399066
 31
0.0
  0
LINE
  5
1C0
330
19
100
AcDbEntity
  8
4
100
AcDbLine
 10
1004.457936817463
 20
515.7899949399066
 30
0.0
 11
996.487481817463
 21
515.7899949399066
 31
0.0
  0
LINE
  5
1C1
330
19
100
AcDbEntity
  8
4
100
AcDbLine
 10
971.6875768174632
 20
434.3983899399068
 30
0.0
 11
971.6875768174632
 21
569.6618199399068
 31
0.0
  0
LINE
  5
1C2
330
19
100
AcDbEntity
  8
4
100
AcDbLine
 10
973.6875768174632
 20
484.6618199399068
 30
0.0
 11
976.6875768174632
 21
484.6618199399068
 31
0.0
  0
ARC
  5
1C3
330
19
100
AcDbEntity
  8
4
100
AcDbCircle
 10
973.6875768174632
 20
482.6618199399068
 30
0.0
 40
2.0
100
AcDbArc
 50
90.0
 51
180.0
  0
LINE
  5
1C4
330
19
100
AcDbEntity
  8
4
100
AcDbLine
 10
993.487481817463
 20
484.6618199399068
 30
0.0
 11
976.6875768174632
 21
484.6618199399068
 31
0.0
  0
LINE
  5
1C5
330
19
100
AcDbEntity
  8
4
100
AcDbLine
 10
996.487481817463
 20
515.7899949399066
 30
0.0
 11
996.487481817463
 21
539.7899949399066
 31
0.0
  0
LINE
  5
1C6
330
19
100
AcDbEntity
  8
4
100
AcDbLine
 10
993.487481817463
 20
539.7899949399066
 30
0.0
 11
993.487481817463
 21
515.7899949399066
 31
0.0
  0
LINE
  5
1C7
330
19
100
AcDbEntity
  8
4
100
AcDbLine
 10
993.487481817463
 20
515.7899949399066
 30
0.0
 11
996.487481817463
 21
515.7899949399066
 31
0.0
  0
ARC
  5
1C8
330
19
100
AcDbEntity
  8
4
100
AcDbCircle
 10
944.1179968174633
 20
560.0922399399069
 30
0.0
 40
4.999965
100
AcDbArc
 50
14.25811900001033
 51
75.74186700000212
  0
LINE
  5
1C9
330
19
100
AcDbEntity
  8
4
100
AcDbLine
 10
993.487481817463
 20
539.7899949399066
 30
0.0
 11
996.487481817463
 21
539.7899949399066
 31
0.0
  0
ARC
  5
1CB
330
19
100
AcDbEntity
  8
4
100
AcDbCircle
 10
1000.903741817463
 20
536.7899949399066
 30
0.0
 40
4.58369
100
AcDbArc
 50
319.1186700000086
 51
40.88132999999132
  0
LINE
  5
1CC
330
19
100
AcDbEntity
  8
4
100
AcDbLine
 10
1005.487481817463
 20
518.7899949399066
 30
0.0
 11
1005.487481817463
 21
536.7899949399066
 31
0.0
  0
ARC
  5
1CD
330
19
100
AcDbEntity
  8
4
100
AcDbCircle
 10
987.487481817463
 20
527.7899949399066
 30
0.0
 40
18.00009
100
AcDbArc
 50
340.528928000001
 51
19.47033699999144
  0
ARC
  5
1CE
330
19
100
AcDbEntity
  8
4
100
AcDbCircle
 10
1000.903741817463
 20
518.7899949399066
 30
0.0
 40
4.58369
100
AcDbArc
 50
319.1186700000086
 51
40.88132999999132
  0
LINE
  5
1CF
330
19
100
AcDbEntity
  8
4
100
AcDbLine
 10
1004.457936817463
 20
663.5336449399069
 30
0.0
 11
996.487481817463
 21
663.5336449399069
 31
0.0
  0
LINE
  5
1D0
330
19
100
AcDbEntity
  8
4
100
AcDbLine
 10
996.487481817463
 20
657.5336449399069
 30
0.0
 11
1004.457936817463
 21
657.5336449399069
 31
0.0
  0
LINE
  5
1D1
330
19
100
AcDbEntity
  8
4
100
AcDbLine
 10
996.487481817463
 20
645.5336449399069
 30
0.0
 11
1004.457936817463
 21
645.5336449399069
 31
0.0
  0
LINE
  5
1D2
330
19
100
AcDbEntity
  8
4
100
AcDbLine
 10
1004.457936817463
 20
639.5336449399069
 30
0.0
 11
996.487481817463
 21
639.5336449399069
 31
0.0
  0
LINE
  5
1D4
330
19
100
AcDbEntity
  8
4
100
AcDbLine
 10
971.6875768174632
 20
609.6618199399068
 30
0.0
 11
971.6875768174632
 21
696.6618199399068
 31
0.0
  0
LINE
  5
1D5
330
19
100
AcDbEntity
  8
4
100
AcDbLine
 10
993.487481817463
 20
639.5336449399069
 30
0.0
 11
993.487481817463
 21
663.5336449399069
 31
0.0
  0
LINE
  5
1D6
330
19
100
AcDbEntity
  8
4
100
AcDbLine
 10
996.487481817463
 20
663.5336449399069
 30
0.0
 11
996.487481817463
 21
639.5336449399069
 31
0.0
  0
ARC
  5
1D7
330
19
100
AcDbEntity
  8
4
100
AcDbCircle
 10
976.6875768174632
 20
609.6618199399068
 30
0.0
 40
5.0
100
AcDbArc
 50
180.0
 51
270.0
  0
LINE
  5
1D8
330
19
100
AcDbEntity
  8
4
100
AcDbLine
 10
993.487481817463
 20
639.5336449399069
 30
0.0
 11
996.487481817463
 21
639.5336449399069
 31
0.0
  0
LINE
  5
1DA
330
19
100
AcDbEntity
  8
4
100
AcDbLine
 10
993.487481817463
 20
663.5336449399069
 30
0.0
 11
996.487481817463
 21
663.5336449399069
 31
0.0
  0
LINE
  5
1DB
330
19
100
AcDbEntity
  8
4
100
AcDbLine
 10
972.6875768174632
 20
705.6618199399068
 30
0.0
 11
962.6875768174632
 21
705.6618199399068
 31
0.0
  0
ARC
  5
1DC
330
19
100
AcDbEntity
  8
4
100
AcDbCircle
 10
972.6875768174632
 20
701.6618199399068
 30
0.0
 40
4.0
100
AcDbArc
 50
90.0
 51
180.0
  0
LINE
  5
1DD
330
19
100
AcDbEntity
  8
4
100
AcDbLine
 10
968.6875768174632
 20
696.6618199399068
 30
0.0
 11
968.6875768174632
 21
701.6618199399068
 31
0.0
  0
LINE
  5
1DE
330
19
100
AcDbEntity
  8
4
100
AcDbLine
 10
968.6875768174632
 20
696.6618199399068
 30
0.0
 11
962.6875768174632
 21
696.6618199399068
 31
0.0
  0
ARC
  5
1DF
330
19
100
AcDbEntity
  8
4
100
AcDbCircle
 10
965.6875768174632
 20
696.6618199399068
 30
0.0
 40
5.0
100
AcDbArc
 50
53.13010199999833
 51
126.8698980000017
  0
LINE
  5
1E0
330
19
100
AcDbEntity
  8
4
100
AcDbLine
 10
956.6875768174632
 20
696.6618199399068
 30
0.0
 11
956.6875768174632
 21
701.6618199399068
 31
0.0
  0
ARC
  5
1E1
330
19
100
AcDbEntity
  8
4
100
AcDbCircle
 10
959.6875768174632
 20
696.6618199399068
 30
0.0
 40
5.0
100
AcDbArc
 50
53.13010199999833
 51
126.8698980000017
  0
LINE
  5
1E2
330
19
100
AcDbEntity
  8
4
100
AcDbLine
 10
956.6875768174632
 20
696.6618199399068
 30
0.0
 11
962.6875768174632
 21
696.6618199399068
 31
0.0
  0
LINE
  5
1E3
330
19
100
AcDbEntity
  8
4
100
AcDbLine
 10
959.6875768174632
 20
701.6618199399068
 30
0.0
 11
965.6875768174632
 21
701.6618199399068
 31
0.0
  0
ARC
  5
1E4
330
19
100
AcDbEntity
  8
4
100
AcDbCircle
 10
952.6875768174632
 20
701.6618199399068
 30
0.0
 40
4.0
100
AcDbArc
 50
0.0
 51
90.0
  0
LINE
  5
1E5
330
19
100
AcDbEntity
  8
4
100
AcDbLine
 10
952.6875768174632
 20
705.6618199399068
 30
0.0
 11
962.6875768174632
 21
705.6618199399068
 31
0.0
  0
LINE
  5
1E6
330
19
100
AcDbEntity
  8
4
100
AcDbLine
 10
976.6875768174632
 20
694.6618199399068
 30
0.0
 11
971.6875768174632
 21
694.6618199399068
 31
0.0
  0
LINE
  5
1E7
330
19
100
AcDbEntity
  8
4
100
AcDbLine
 10
976.6875768174632
 20
694.6618199399068
 30
0.0
 11
993.487481817463
 21
694.6618199399068
 31
0.0
  0
ARC
  5
1E8
330
19
100
AcDbEntity
  8
4
100
AcDbCircle
 10
1000.903741817463
 20
642.5336449399069
 30
0.0
 40
4.583600000000001
100
AcDbArc
 50
319.1186700000099
 51
40.88332600001323
  0
ARC
  5
1EA
330
19
100
AcDbEntity
  8
4
100
AcDbCircle
 10
987.487481817463
 20
651.5336449399069
 30
0.0
 40
17.999975
100
AcDbArc
 50
340.5296600000133
 51
19.47133100000335
  0
LINE
  5
1EB
330
19
100
AcDbEntity
  8
4
100
AcDbLine
 10
1005.487481817463
 20
660.5336449399069
 30
0.0
 11
1005.487481817463
 21
642.5336449399069
 31
0.0
  0
ARC
  5
1EC
330
19
100
AcDbEntity
  8
4
100
AcDbCircle
 10
1000.903741817463
 20
660.5336449399069
 30
0.0
 40
4.583600000000001
100
AcDbArc
 50
319.1186700000099
 51
40.88332600001323
  0
LINE
  5
1F5
330
19
100
AcDbEntity
  8
4
100
AcDbLine
 10
560.6875768174632
 20
710.6618199399068
 30
0.0
 11
606.6875768174632
 21
710.6618199399068
 31
0.0
  0
LINE
  5
1F6
330
19
100
AcDbEntity
  8
4
100
AcDbLine
 10
473.6875768174632
 20
717.6618199399068
 30
0.0
 11
484.6875768174632
 21
717.6618199399068
 31
0.0
  0
LINE
  5
1F7
330
19
100
AcDbEntity
  8
4
100
AcDbLine
 10
475.6875768174632
 20
718.6618199399068
 30
0.0
 11
484.6875768174632
 21
718.6618199399068
 31
0.0
  0
LINE
  5
1F8
330
19
100
AcDbEntity
  8
4
100
AcDbLine
 10
484.6875768174632
 20
715.6618199399068
 30
0.0
 11
473.6875768174632
 21
715.6618199399068
 31
0.0
  0
LINE
  5
1F9
330
19
100
AcDbEntity
  8
4
100
AcDbLine
 10
473.6875768174632
 20
717.6618199399068
 30
0.0
 11
473.6875768174632
 21
715.6618199399068
 31
0.0
  0
LINE
  5
1FA
330
19
100
AcDbEntity
  8
4
100
AcDbLine
 10
475.6875768174632
 20
718.6618199399068
 30
0.0
 11
473.6875768174632
 21
717.6618199399068
 31
0.0
  0
LINE
  5
1FB
330
19
100
AcDbEntity
  8
4
100
AcDbLine
 10
493.6875768174632
 20
718.6618199399068
 30
0.0
 11
495.6875768174632
 21
717.6618199399068
 31
0.0
  0
LINE
  5
1FC
330
19
100
AcDbEntity
  8
4
100
AcDbLine
 10
495.6875768174632
 20
717.6618199399068
 30
0.0
 11
495.6875768174632
 21
715.6618199399068
 31
0.0
  0
LINE
  5
1FD
330
19
100
AcDbEntity
  8
4
100
AcDbLine
 10
484.6875768174632
 20
715.6618199399068
 30
0.0
 11
495.6875768174632
 21
715.6618199399068
 31
0.0
  0
LINE
  5
1FE
330
19
100
AcDbEntity
  8
4
100
AcDbLine
 10
493.6875768174632
 20
718.6618199399068
 30
0.0
 11
484.6875768174632
 21
718.6618199399068
 31
0.0
  0
LINE
  5
1FF
330
19
100
AcDbEntity
  8
4
100
AcDbLine
 10
495.6875768174632
 20
717.6618199399068
 30
0.0
 11
484.6875768174632
 21
717.6618199399068
 31
0.0
  0
LINE
  5
204
330
19
100
AcDbEntity
  8
4
100
AcDbLine
 10
723.6875768174632
 20
714.6618199399068
 30
0.0
 11
737.4187768174634
 21
712.6479049399068
 31
0.0
  0
LINE
  5
205
330
19
100
AcDbEntity
  8
L-CENTER
 48
2.0
100
AcDbLine
 10
677.0728318174633
 20
734.6618199399068
 30
0.0
 11
770.302321817463
 21
734.6618199399068
 31
0.0
  0
LINE
  5
206
330
19
100
AcDbEntity
  8
4
100
AcDbLine
 10
710.1450968174631
 20
712.6618199399068
 30
0.0
 11
737.2300568174633
 21
712.6618199399068
 31
0.0
  0
CIRCLE
  5
207
330
19
100
AcDbEntity
  8
4
100
AcDbCircle
 10
723.6875768174632
 20
734.6618199399068
 30
0.0
 40
20.0
  0
ARC
  5
208
330
19
100
AcDbEntity
  8
4
100
AcDbCircle
 10
710.1450968174631
 20
711.3617699399069
 30
0.0
 40
1.300075
100
AcDbArc
 50
90.0
 51
167.3521589999979
  0
LINE
  5
209
330
19
100
AcDbEntity
  8
4
100
AcDbLine
 10
723.6875768174632
 20
714.6618199399068
 30
0.0
 11
709.956376817463
 21
712.6479049399068
 31
0.0
  0
ARC
  5
20A
330
19
100
AcDbEntity
  8
4
100
AcDbCircle
 10
737.2300568174633
 20
711.3617699399069
 30
0.0
 40
1.300075
100
AcDbArc
 50
12.6478410000021
 51
90.0
  0
LINE
  5
20E
330
19
100
AcDbEntity
  8
4
100
AcDbLine
 10
962.6875768174632
 20
715.6618199399068
 30
0.0
 11
973.6875768174632
 21
715.6618199399068
 31
0.0
  0
LINE
  5
20F
330
19
100
AcDbEntity
  8
4
100
AcDbLine
 10
971.6875768174632
 20
718.6618199399068
 30
0.0
 11
962.6875768174632
 21
718.6618199399068
 31
0.0
  0
LINE
  5
210
330
19
100
AcDbEntity
  8
4
100
AcDbLine
 10
973.6875768174632
 20
717.6618199399068
 30
0.0
 11
962.6875768174632
 21
717.6618199399068
 31
0.0
  0
LINE
  5
211
330
19
100
AcDbEntity
  8
4
100
AcDbLine
 10
951.6875768174632
 20
717.6618199399068
 30
0.0
 11
951.6875768174632
 21
715.6618199399068
 31
0.0
  0
LINE
  5
212
330
19
100
AcDbEntity
  8
4
100
AcDbLine
 10
953.6875768174632
 20
718.6618199399068
 30
0.0
 11
951.6875768174632
 21
717.6618199399068
 31
0.0
  0
LINE
  5
213
330
19
100
AcDbEntity
  8
4
100
AcDbLine
 10
951.6875768174632
 20
717.6618199399068
 30
0.0
 11
962.6875768174632
 21
717.6618199399068
 31
0.0
  0
LINE
  5
214
330
19
100
AcDbEntity
  8
4
100
AcDbLine
 10
953.6875768174632
 20
718.6618199399068
 30
0.0
 11
962.6875768174632
 21
718.6618199399068
 31
0.0
  0
LINE
  5
215
330
19
100
AcDbEntity
  8
4
100
AcDbLine
 10
962.6875768174632
 20
715.6618199399068
 30
0.0
 11
951.6875768174632
 21
715.6618199399068
 31
0.0
  0
LINE
  5
216
330
19
100
AcDbEntity
  8
4
100
AcDbLine
 10
973.6875768174632
 20
717.6618199399068
 30
0.0
 11
973.6875768174632
 21
715.6618199399068
 31
0.0
  0
LINE
  5
217
330
19
100
AcDbEntity
  8
4
100
AcDbLine
 10
971.6875768174632
 20
718.6618199399068
 30
0.0
 11
973.6875768174632
 21
717.6618199399068
 31
0.0
  0
LINE
  5
221
330
19
100
AcDbEntity
  8
4
100
AcDbLine
 10
1720.444416453794
 20
148.1457049399069
 30
0.0
 11
1747.273101453795
 21
257.1618199399068
 31
0.0
  0
LINE
  5
222
330
19
100
AcDbEntity
  8
4
100
AcDbLine
 10
1454.574981453795
 20
129.0262649399069
 30
0.0
 11
1423.973201453795
 21
257.1618199399068
 31
0.0
  0
LINE
  5
223
330
19
100
AcDbEntity
  8
4
100
AcDbLine
 10
1678.973201453795
 20
339.6618199399068
 30
0.0
 11
1678.973201453795
 21
119.6618199399068
 31
0.0
  0
LINE
  5
224
330
19
100
AcDbEntity
  8
4
100
AcDbLine
 10
1488.973201453795
 20
339.6618199399068
 30
0.0
 11
1488.973201453795
 21
119.6618199399068
 31
0.0
  0
LINE
  5
225
330
19
100
AcDbEntity
  8
L-CENTER
 48
2.0
100
AcDbLine
 10
1583.973201453795
 20
778.7914599399069
 30
0.0
 11
1583.973201453794
 21
46.12108919671618
 31
0.0
  0
LINE
  5
226
330
19
100
AcDbEntity
  8
4
100
AcDbLine
 10
1715.273101453795
 20
128.116409939907
 30
0.0
 11
1715.273101453795
 21
589.6618199399068
 31
0.0
  0
LINE
  5
227
330
19
100
AcDbEntity
  8
4
100
AcDbLine
 10
1692.973201453795
 20
138.2981849399066
 30
0.0
 11
1692.973201453795
 21
589.6618199399068
 31
0.0
  0
LINE
  5
228
330
19
100
AcDbEntity
  8
4
100
AcDbLine
 10
1689.973201453795
 20
139.6618199399068
 30
0.0
 11
1689.973201453795
 21
592.6618199399068
 31
0.0
  0
LINE
  5
229
330
19
100
AcDbEntity
  8
4
100
AcDbLine
 10
1688.973201453795
 20
119.6618199399068
 30
0.0
 11
1688.973201453795
 21
589.6618199399068
 31
0.0
  0
LINE
  5
22A
330
19
100
AcDbEntity
  8
4
100
AcDbLine
 10
1477.973201453795
 20
139.6618199399068
 30
0.0
 11
1477.973201453795
 21
592.6618199399068
 31
0.0
  0
LINE
  5
22B
330
19
100
AcDbEntity
  8
4
100
AcDbLine
 10
1478.973201453795
 20
119.6618199399068
 30
0.0
 11
1478.973201453795
 21
589.6618199399068
 31
0.0
  0
LINE
  5
22C
330
19
100
AcDbEntity
  8
4
100
AcDbLine
 10
1454.973201453795
 20
587.6618199399068
 30
0.0
 11
1454.973201453795
 21
129.2072749399067
 31
0.0
  0
LINE
  5
231
330
19
100
AcDbEntity
  8
4
100
AcDbLine
 10
1758.973201453795
 20
59.66181993990676
 30
0.0
 11
1408.973201453795
 21
59.66181993990676
 31
0.0
  0
LINE
  5
232
330
19
100
AcDbEntity
  8
4
100
AcDbLine
 10
1755.973201453795
 20
109.6618199399068
 30
0.0
 11
1411.973201453795
 21
109.6618199399068
 31
0.0
  0
LINE
  5
23B
330
19
100
AcDbEntity
  8
L-CENTER
 48
2.0
100
AcDbLine
 10
1448.973201453794
 20
134.6618199399068
 30
0.0
 11
1448.973201453795
 21
34.66181993990676
 31
0.0
  0
LINE
  5
23C
330
19
100
AcDbEntity
  8
4
100
AcDbLine
 10
1408.973201453795
 20
59.66181993990676
 30
0.0
 11
1408.973201453795
 21
106.6618199399068
 31
0.0
  0
LINE
  5
23D
330
19
100
AcDbEntity
  8
4
100
AcDbLine
 10
1411.973201453795
 20
109.6618199399068
 30
0.0
 11
1478.973201453795
 21
140.1163649399068
 31
0.0
  0
ARC
  5
23E
330
19
100
AcDbEntity
  8
4
100
AcDbCircle
 10
1411.973201453795
 20
106.6618199399068
 30
0.0
 40
3.0
100
AcDbArc
 50
90.0
 51
180.0
  0
ARC
  5
23F
330
19
100
AcDbEntity
  8
4
100
AcDbCircle
 10
1478.973201453795
 20
119.6618199399068
 30
0.0
 40
10.0
100
AcDbArc
 50
270.0
 51
0.0
  0
ARC
  5
240
330
19
100
AcDbEntity
  8
4
100
AcDbCircle
 10
1468.973201453795
 20
119.6618199399068
 30
0.0
 40
10.0
100
AcDbArc
 50
270.0
 51
0.0
  0
ARC
  5
241
330
19
100
AcDbEntity
  8
4
100
AcDbCircle
 10
1722.689361453795
 20
145.1457049399069
 30
0.0
 40
4.58369
100
AcDbArc
 50
319.1186700000107
 51
40.88132999998932
  0
ARC
  5
242
330
19
100
AcDbEntity
  8
4
100
AcDbCircle
 10
1709.273101453795
 20
136.1457049399069
 30
0.0
 40
18.00009
100
AcDbArc
 50
340.528928000001
 51
19.47033699999144
  0
ARC
  5
243
330
19
100
AcDbEntity
  8
4
100
AcDbCircle
 10
1722.689361453795
 20
127.1457049399069
 30
0.0
 40
4.58369
100
AcDbArc
 50
319.1186700000107
 51
40.88132999998932
  0
LINE
  5
244
330
19
100
AcDbEntity
  8
4
100
AcDbLine
 10
1755.973201453795
 20
109.6618199399068
 30
0.0
 11
1688.973201453795
 21
140.1163649399068
 31
0.0
  0
LINE
  5
249
330
19
100
AcDbEntity
  8
L-CENTER
 48
2.0
100
AcDbLine
 10
1718.973201453794
 20
134.6618199399068
 30
0.0
 11
1718.973201453795
 21
34.66181993990676
 31
0.0
  0
ARC
  5
24A
330
19
100
AcDbEntity
  8
4
100
AcDbCircle
 10
1688.973201453795
 20
119.6618199399068
 30
0.0
 40
10.0
100
AcDbArc
 50
180.0
 51
270.0
  0
ARC
  5
24B
330
19
100
AcDbEntity
  8
4
100
AcDbCircle
 10
1698.973201453795
 20
119.6618199399068
 30
0.0
 40
10.0
100
AcDbArc
 50
180.0
 51
270.0
  0
LINE
  5
24C
330
19
100
AcDbEntity
  8
4
100
AcDbLine
 10
1718.273101453795
 20
142.1457049399069
 30
0.0
 11
1726.243561453795
 21
142.1457049399069
 31
0.0
  0
LINE
  5
24D
330
19
100
AcDbEntity
  8
4
100
AcDbLine
 10
1718.273101453795
 20
130.1457049399069
 30
0.0
 11
1726.243561453795
 21
130.1457049399069
 31
0.0
  0
LINE
  5
24E
330
19
100
AcDbEntity
  8
4
100
AcDbLine
 10
1726.243561453795
 20
148.1457049399069
 30
0.0
 11
1718.273101453795
 21
148.1457049399069
 31
0.0
  0
LINE
  5
24F
330
19
100
AcDbEntity
  8
4
100
AcDbLine
 10
1726.243561453795
 20
124.1457049399069
 30
0.0
 11
1724.008651453794
 21
124.1457049399069
 31
0.0
  0
LINE
  5
250
330
19
100
AcDbEntity
  8
4
100
AcDbLine
 10
1718.273101453795
 20
126.7527749399069
 30
0.0
 11
1718.273101453795
 21
148.1457049399069
 31
0.0
  0
LINE
  5
251
330
19
100
AcDbEntity
  8
4
100
AcDbLine
 10
1715.273101453795
 20
148.1457049399069
 30
0.0
 11
1715.273101453795
 21
128.116409939907
 31
0.0
  0
LINE
  5
252
330
19
100
AcDbEntity
  8
4
100
AcDbLine
 10
1715.273101453795
 20
148.1457049399069
 30
0.0
 11
1718.273101453795
 21
148.1457049399069
 31
0.0
  0
LINE
  5
255
330
19
100
AcDbEntity
  8
4
100
AcDbLine
 10
1758.973201453795
 20
59.66181993990676
 30
0.0
 11
1758.973201453795
 21
106.6618199399068
 31
0.0
  0
ARC
  5
256
330
19
100
AcDbEntity
  8
4
100
AcDbCircle
 10
1755.973201453795
 20
106.6618199399068
 30
0.0
 40
3.0
100
AcDbArc
 50
0.0
 51
90.0
  0
LINE
  5
257
330
19
100
AcDbEntity
  8
4
100
AcDbLine
 10
1727.273101453795
 20
127.1457049399069
 30
0.0
 11
1727.273101453795
 21
145.1457049399069
 31
0.0
  0
LINE
  5
258
330
19
100
AcDbEntity
  8
L-CENTER
 48
2.0
100
AcDbLine
 10
1940.52449904422
 20
339.6618199399068
 30
0.0
 11
1391.601444762649
 21
339.6618199399068
 31
0.0
  0
LINE
  5
25A
330
19
100
AcDbEntity
  8
4
100
AcDbLine
 10
1573.973201453795
 20
705.6618199399068
 30
0.0
 11
1573.973201453795
 21
715.6618199399068
 31
0.0
  0
LINE
  5
25B
330
19
100
AcDbEntity
  8
4
100
AcDbLine
 10
1569.161921453795
 20
711.6464399399069
 30
0.0
 11
1566.473201453795
 21
699.6618199399068
 31
0.0
  0
LINE
  5
25C
330
19
100
AcDbEntity
  8
4
100
AcDbLine
 10
1564.054501453795
 20
705.6618199399068
 30
0.0
 11
1564.054501453795
 21
710.6618199399068
 31
0.0
  0
LINE
  5
25D
330
19
100
AcDbEntity
  8
4
100
AcDbLine
 10
1593.973201453795
 20
705.6618199399068
 30
0.0
 11
1593.973201453795
 21
715.6618199399068
 31
0.0
  0
LINE
  5
25E
330
19
100
AcDbEntity
  8
4
100
AcDbLine
 10
1598.784236453794
 20
711.6464399399069
 30
0.0
 11
1601.473201453795
 21
699.6618199399068
 31
0.0
  0
LINE
  5
25F
330
19
100
AcDbEntity
  8
4
100
AcDbLine
 10
1603.891656453795
 20
705.6618199399068
 30
0.0
 11
1603.891656453795
 21
710.6618199399068
 31
0.0
  0
LINE
  5
262
330
19
100
AcDbEntity
  8
L-CENTER
 48
2.0
100
AcDbLine
 10
1502.218076453795
 20
507.9069349399065
 30
0.0
 11
1541.984436453794
 21
547.6732949399068
 31
0.0
  0
LINE
  5
263
330
19
100
AcDbEntity
  8
L-CENTER
 48
2.0
100
AcDbLine
 10
1502.218434023574
 20
671.4165725104074
 30
0.0
 11
1541.98493077729
 21
631.6503492635193
 31
0.0
  0
LINE
  5
264
330
19
100
AcDbEntity
  8
L-CENTER
 48
2.0
100
AcDbLine
 10
1702.483527343919
 20
589.6618199399068
 30
0.0
 11
1465.864158597026
 21
589.6618199399068
 31
0.0
  0
CIRCLE
  5
265
330
19
100
AcDbEntity
  8
4
100
AcDbCircle
 10
1583.973201453795
 20
589.6618199399068
 30
0.0
 40
105.0
  0
CIRCLE
  5
266
330
19
100
AcDbEntity
  8
L-CENTER
 48
2.0
100
AcDbCircle
 10
1583.973201453795
 20
589.6618199399068
 30
0.0
 40
87.5
  0
ARC
  5
267
330
19
100
AcDbEntity
  8
4
100
AcDbCircle
 10
1583.973201453795
 20
196.6618199399068
 30
0.0
 40
500.000005
100
AcDbArc
 50
79.39719200000197
 51
100.6030059999988
  0
LINE
  5
268
330
19
100
AcDbEntity
  8
4
100
AcDbLine
 10
1454.973201453795
 20
551.9647999399067
 30
0.0
 11
1423.973201453795
 21
422.1618199399068
 31
0.0
  0
LINE
  5
27C
330
19
100
AcDbEntity
  8
4
100
AcDbLine
 10
1454.973201453795
 20
297.1618199399068
 30
0.0
 11
1423.973201453795
 21
282.1618199399068
 31
0.0
  0
LINE
  5
27D
330
19
100
AcDbEntity
  8
4
100
AcDbLine
 10
1423.973201453795
 20
422.1618199399068
 30
0.0
 11
1423.973201453795
 21
257.1618199399068
 31
0.0
  0
LINE
  5
27E
330
19
100
AcDbEntity
  8
4
100
AcDbLine
 10
1400.973201453795
 20
417.1618199399068
 30
0.0
 11
1400.973201453795
 21
262.1618199399068
 31
0.0
  0
LINE
  5
27F
330
19
100
AcDbEntity
  8
4
100
AcDbLine
 10
1454.973201453795
 20
297.1618199399068
 30
0.0
 11
1423.973201453795
 21
282.1618199399068
 31
0.0
  0
LINE
  5
281
330
19
100
AcDbEntity
  8
4
100
AcDbLine
 10
1423.973201453795
 20
257.1618199399068
 30
0.0
 11
1400.973201453795
 21
262.1618199399068
 31
0.0
  0
LINE
  5
283
330
19
100
AcDbEntity
  8
4
100
AcDbLine
 10
1423.973201453795
 20
422.1618199399068
 30
0.0
 11
1400.973201453795
 21
417.1618199399068
 31
0.0
  0
LINE
  5
289
330
19
100
AcDbEntity
  8
4
100
AcDbLine
 10
1454.973201453795
 20
382.1618199399068
 30
0.0
 11
1423.973201453795
 21
397.1618199399068
 31
0.0
  0
ARC
  5
296
330
19
100
AcDbEntity
  8
4
100
AcDbCircle
 10
1978.973201453795
 20
589.6618199399068
 30
0.0
 40
500.00003
100
AcDbArc
 50
169.1068520000132
 51
180.0003920002005
  0
ARC
  5
297
330
19
100
AcDbEntity
  8
4
100
AcDbCircle
 10
1456.973201453795
 20
587.6618199399068
 30
0.0
 40
2.0
100
AcDbArc
 50
90.0
 51
180.0
  0
LINE
  5
298
330
19
100
AcDbEntity
  8
4
100
AcDbLine
 10
1479.016171453795
 20
592.6618199399068
 30
0.0
 11
1477.973201453795
 21
592.6618199399068
 31
0.0
  0
LINE
  5
299
330
19
100
AcDbEntity
  8
4
100
AcDbLine
 10
1456.973201453795
 20
589.6618199399068
 30
0.0
 11
1477.973201453795
 21
589.6618199399068
 31
0.0
  0
ARC
  5
29A
330
19
100
AcDbEntity
  8
4
100
AcDbCircle
 10
1492.893366453795
 20
683.2104049399068
 30
0.0
 40
4.99997
100
AcDbArc
 50
100.6048749999998
 51
169.1076069999868
  0
LINE
  5
29D
330
19
100
AcDbEntity
  8
4
100
AcDbLine
 10
1720.444416453794
 20
531.1779349399067
 30
0.0
 11
1747.273101453795
 21
422.1618199399068
 31
0.0
  0
ARC
  5
29E
330
19
100
AcDbEntity
  8
4
100
AcDbCircle
 10
1722.689361453795
 20
348.6618199399068
 30
0.0
 40
4.583600000000001
100
AcDbArc
 50
319.1186700000108
 51
40.88332600001215
  0
ARC
  5
29F
330
19
100
AcDbEntity
  8
4
100
AcDbCircle
 10
1722.689361453795
 20
330.6618199399068
 30
0.0
 40
4.583600000000001
100
AcDbArc
 50
319.1186700000108
 51
40.88332600001215
  0
ARC
  5
2A0
330
19
100
AcDbEntity
  8
4
100
AcDbCircle
 10
1709.273101453795
 20
339.6618199399068
 30
0.0
 40
17.999975
100
AcDbArc
 50
340.5296600000138
 51
19.471331000003
  0
LINE
  5
2A1
330
19
100
AcDbEntity
  8
4
100
AcDbLine
 10
1715.273101453795
 20
382.1618199399068
 30
0.0
 11
1747.273101453795
 21
397.1618199399068
 31
0.0
  0
LINE
  5
2A2
330
19
100
AcDbEntity
  8
4
100
AcDbLine
 10
1715.273101453795
 20
297.1618199399068
 30
0.0
 11
1747.273101453795
 21
282.1618199399068
 31
0.0
  0
LINE
  5
2A3
330
19
100
AcDbEntity
  8
4
100
AcDbLine
 10
1715.273101453795
 20
297.1618199399068
 30
0.0
 11
1747.273101453795
 21
282.1618199399068
 31
0.0
  0
LINE
  5
2A4
330
19
100
AcDbEntity
  8
4
100
AcDbLine
 10
1718.273101453795
 20
345.6618199399068
 30
0.0
 11
1726.243561453795
 21
345.6618199399068
 31
0.0
  0
LINE
  5
2A5
330
19
100
AcDbEntity
  8
4
100
AcDbLine
 10
1726.243561453795
 20
351.6618199399068
 30
0.0
 11
1718.273101453795
 21
351.6618199399068
 31
0.0
  0
LINE
  5
2A6
330
19
100
AcDbEntity
  8
4
100
AcDbLine
 10
1718.273101453795
 20
333.6618199399068
 30
0.0
 11
1726.243561453795
 21
333.6618199399068
 31
0.0
  0
LINE
  5
2A7
330
19
100
AcDbEntity
  8
4
100
AcDbLine
 10
1726.243561453795
 20
327.6618199399068
 30
0.0
 11
1718.273101453795
 21
327.6618199399068
 31
0.0
  0
LINE
  5
2A8
330
19
100
AcDbEntity
  8
4
100
AcDbLine
 10
1718.273101453795
 20
351.6618199399068
 30
0.0
 11
1718.273101453795
 21
327.6618199399068
 31
0.0
  0
LINE
  5
2A9
330
19
100
AcDbEntity
  8
4
100
AcDbLine
 10
1715.273101453795
 20
327.6618199399068
 30
0.0
 11
1715.273101453795
 21
351.6618199399068
 31
0.0
  0
LINE
  5
2AA
330
19
100
AcDbEntity
  8
4
100
AcDbLine
 10
1715.273101453795
 20
351.6618199399068
 30
0.0
 11
1718.273101453795
 21
351.6618199399068
 31
0.0
  0
LINE
  5
2AB
330
19
100
AcDbEntity
  8
4
100
AcDbLine
 10
1715.273101453795
 20
327.6618199399068
 30
0.0
 11
1718.273101453795
 21
327.6618199399068
 31
0.0
  0
LINE
  5
2AC
330
19
100
AcDbEntity
  8
4
100
AcDbLine
 10
1747.273101453795
 20
422.1618199399068
 30
0.0
 11
1747.273101453795
 21
257.1618199399068
 31
0.0
  0
LINE
  5
2AD
330
19
100
AcDbEntity
  8
4
100
AcDbLine
 10
1767.273101453795
 20
417.1618199399068
 30
0.0
 11
1767.273101453795
 21
262.1618199399068
 31
0.0
  0
LINE
  5
2AE
330
19
100
AcDbEntity
  8
4
100
AcDbLine
 10
1768.273101453795
 20
389.6618199399068
 30
0.0
 11
1768.273101453795
 21
289.6618199399068
 31
0.0
  0
LINE
  5
2AF
330
19
100
AcDbEntity
  8
4
100
AcDbLine
 10
1747.273101453795
 20
257.1618199399068
 30
0.0
 11
1767.273101453795
 21
262.1618199399068
 31
0.0
  0
LINE
  5
2B0
330
19
100
AcDbEntity
  8
4
100
AcDbLine
 10
1767.273101453795
 20
289.6618199399068
 30
0.0
 11
1768.273101453795
 21
289.6618199399068
 31
0.0
  0
LINE
  5
2B1
330
19
100
AcDbEntity
  8
4
100
AcDbLine
 10
1773.973201453795
 20
300.6618199399068
 30
0.0
 11
1931.973201453795
 21
300.6618199399068
 31
0.0
  0
LINE
  5
2B2
330
19
100
AcDbEntity
  8
4
100
AcDbLine
 10
1773.973201453795
 20
378.6618199399068
 30
0.0
 11
1931.973201453795
 21
378.6618199399068
 31
0.0
  0
LINE
  5
2B3
330
19
100
AcDbEntity
  8
4
100
AcDbLine
 10
1933.973201453795
 20
384.6618199399068
 30
0.0
 11
1783.973201453795
 21
384.6618199399068
 31
0.0
  0
LINE
  5
2B4
330
19
100
AcDbEntity
  8
4
100
AcDbLine
 10
1773.973201453795
 20
379.6618199399068
 30
0.0
 11
1773.973201453795
 21
299.6618199399068
 31
0.0
  0
LINE
  5
2B5
330
19
100
AcDbEntity
  8
4
100
AcDbLine
 10
1768.273101453795
 20
299.6618199399068
 30
0.0
 11
1773.973201453795
 21
299.6618199399068
 31
0.0
  0
LINE
  5
2B6
330
19
100
AcDbEntity
  8
4
100
AcDbLine
 10
1727.273101453795
 20
348.6618199399068
 30
0.0
 11
1727.273101453795
 21
330.6618199399068
 31
0.0
  0
LINE
  5
2B7
330
19
100
AcDbEntity
  8
4
100
AcDbLine
 10
1767.273101453795
 20
389.6618199399068
 30
0.0
 11
1768.273101453795
 21
389.6618199399068
 31
0.0
  0
LINE
  5
2B8
330
19
100
AcDbEntity
  8
4
100
AcDbLine
 10
1773.973201453795
 20
379.6618199399068
 30
0.0
 11
1768.273101453795
 21
379.6618199399068
 31
0.0
  0
LINE
  5
2B9
330
19
100
AcDbEntity
  8
4
100
AcDbLine
 10
1747.273101453795
 20
422.1618199399068
 30
0.0
 11
1767.273101453795
 21
417.1618199399068
 31
0.0
  0
LINE
  5
2BA
330
19
100
AcDbEntity
  8
4
100
AcDbLine
 10
1783.973201453795
 20
384.6618199399068
 30
0.0
 11
1783.973201453795
 21
378.6618199399068
 31
0.0
  0
LINE
  5
2BB
330
19
100
AcDbEntity
  8
4
100
AcDbLine
 10
1931.973201453795
 20
378.6618199399068
 30
0.0
 11
1931.973201453795
 21
300.6618199399068
 31
0.0
  0
LINE
  5
2BC
330
19
100
AcDbEntity
  8
4
100
AcDbLine
 10
1933.973201453795
 20
384.6618199399068
 30
0.0
 11
1933.973201453795
 21
302.6618199399068
 31
0.0
  0
LINE
  5
2BD
330
19
100
AcDbEntity
  8
4
100
AcDbLine
 10
1931.973201453795
 20
300.6618199399068
 30
0.0
 11
1933.973201453795
 21
302.6618199399068
 31
0.0
  0
LINE
  5
2BE
330
19
100
AcDbEntity
  8
4
100
AcDbLine
 10
1933.973201453795
 20
376.6618199399068
 30
0.0
 11
1931.973201453795
 21
378.6618199399068
 31
0.0
  0
ARC
  5
2BF
330
19
100
AcDbEntity
  8
4
100
AcDbCircle
 10
1722.689361453795
 20
552.1779349399067
 30
0.0
 40
4.583600000000001
100
AcDbArc
 50
319.1186700000108
 51
40.88332600001323
  0
ARC
  5
2C0
330
19
100
AcDbEntity
  8
4
100
AcDbCircle
 10
1709.273101453795
 20
543.1779349399067
 30
0.0
 40
17.999975
100
AcDbArc
 50
340.5296600000135
 51
19.47133100000335
  0
LINE
  5
2C1
330
19
100
AcDbEntity
  8
L-CENTER
 48
2.0
100
AcDbLine
 10
1669.174401227856
 20
543.1779349399067
 30
0.0
 11
1733.157423108852
 21
543.1779349399067
 31
0.0
  0
ARC
  5
2C2
330
19
100
AcDbEntity
  8
4
100
AcDbCircle
 10
1722.689361453795
 20
534.1779349399067
 30
0.0
 40
4.583600000000001
100
AcDbArc
 50
319.1186700000108
 51
40.88332600001323
  0
LINE
  5
2C5
330
19
100
AcDbEntity
  8
4
100
AcDbLine
 10
1518.995661453795
 20
539.3812999399065
 30
0.0
 11
1510.510311453795
 21
530.8959499399066
 31
0.0
  0
LINE
  5
2C6
330
19
100
AcDbEntity
  8
4
100
AcDbLine
 10
1533.692681453794
 20
524.6842799399069
 30
0.0
 11
1530.586971453795
 21
536.2755899399067
 31
0.0
  0
CIRCLE
  5
2C7
330
19
100
AcDbEntity
  8
4
100
AcDbCircle
 10
1522.101376453795
 20
527.7899949399066
 30
0.0
 40
10.392335
  0
CIRCLE
  5
2C8
330
19
100
AcDbEntity
  8
4
100
AcDbCircle
 10
1522.101621453795
 20
527.7902399399068
 30
0.0
 40
12.0
  0
LINE
  5
2C9
330
19
100
AcDbEntity
  8
4
100
AcDbLine
 10
1513.616266453795
 20
519.304884939907
 30
0.0
 11
1525.207331453794
 21
516.198929939907
 31
0.0
  0
LINE
  5
2CA
330
19
100
AcDbEntity
  8
4
100
AcDbLine
 10
1510.510311453795
 20
530.8959499399066
 30
0.0
 11
1513.616266453795
 21
519.304884939907
 31
0.0
  0
LINE
  5
2CB
330
19
100
AcDbEntity
  8
4
100
AcDbLine
 10
1525.207331453794
 20
516.198929939907
 30
0.0
 11
1533.692681453794
 21
524.6842799399069
 31
0.0
  0
LINE
  5
2CC
330
19
100
AcDbEntity
  8
4
100
AcDbLine
 10
1530.586971453795
 20
536.2755899399067
 30
0.0
 11
1518.995661453795
 21
539.3812999399065
 31
0.0
  0
LINE
  5
2CD
330
19
100
AcDbEntity
  8
4
100
AcDbLine
 10
1648.950741453795
 20
539.3812999399065
 30
0.0
 11
1657.436091453794
 21
530.8959499399066
 31
0.0
  0
LINE
  5
2CE
330
19
100
AcDbEntity
  8
4
100
AcDbLine
 10
1634.253716453795
 20
524.6842799399069
 30
0.0
 11
1637.359431453795
 21
536.2755899399067
 31
0.0
  0
CIRCLE
  5
2CF
330
19
100
AcDbEntity
  8
4
100
AcDbCircle
 10
1645.845026453795
 20
527.7899949399066
 30
0.0
 40
10.392335
  0
CIRCLE
  5
2D0
330
19
100
AcDbEntity
  8
4
100
AcDbCircle
 10
1645.844781453795
 20
527.7902399399068
 30
0.0
 40
12.0
  0
LINE
  5
2D1
330
19
100
AcDbEntity
  8
L-CENTER
 48
2.0
100
AcDbLine
 10
1665.728326453794
 20
507.9069349399065
 30
0.0
 11
1625.961721453795
 21
547.6735399399067
 31
0.0
  0
LINE
  5
2D2
330
19
100
AcDbEntity
  8
4
100
AcDbLine
 10
1654.330136453794
 20
519.304884939907
 30
0.0
 11
1642.739071453795
 21
516.198929939907
 31
0.0
  0
LINE
  5
2D3
330
19
100
AcDbEntity
  8
4
100
AcDbLine
 10
1642.739071453795
 20
516.198929939907
 30
0.0
 11
1634.253716453795
 21
524.6842799399069
 31
0.0
  0
LINE
  5
2D4
330
19
100
AcDbEntity
  8
4
100
AcDbLine
 10
1657.436091453794
 20
530.8959499399066
 30
0.0
 11
1654.330136453794
 21
519.304884939907
 31
0.0
  0
LINE
  5
2D5
330
19
100
AcDbEntity
  8
4
100
AcDbLine
 10
1637.359431453795
 20
536.2755899399067
 30
0.0
 11
1648.950741453795
 21
539.3812999399065
 31
0.0
  0
LINE
  5
2D6
330
19
100
AcDbEntity
  8
4
100
AcDbLine
 10
1718.273101453795
 20
555.1779349399067
 30
0.0
 11
1718.273101453795
 21
531.1779349399067
 31
0.0
  0
LINE
  5
2D7
330
19
100
AcDbEntity
  8
4
100
AcDbLine
 10
1715.273101453795
 20
531.1779349399067
 30
0.0
 11
1715.273101453795
 21
555.1779349399067
 31
0.0
  0
LINE
  5
2D8
330
19
100
AcDbEntity
  8
4
100
AcDbLine
 10
1726.243561453795
 20
531.1779349399067
 30
0.0
 11
1718.273101453795
 21
531.1779349399067
 31
0.0
  0
LINE
  5
2D9
330
19
100
AcDbEntity
  8
4
100
AcDbLine
 10
1715.273101453795
 20
531.1779349399067
 30
0.0
 11
1718.273101453795
 21
531.1779349399067
 31
0.0
  0
LINE
  5
2DA
330
19
100
AcDbEntity
  8
4
100
AcDbLine
 10
1718.273101453795
 20
549.1779349399067
 30
0.0
 11
1726.243561453795
 21
549.1779349399067
 31
0.0
  0
LINE
  5
2DB
330
19
100
AcDbEntity
  8
4
100
AcDbLine
 10
1726.243561453795
 20
555.1779349399067
 30
0.0
 11
1718.273101453795
 21
555.1779349399067
 31
0.0
  0
LINE
  5
2DC
330
19
100
AcDbEntity
  8
4
100
AcDbLine
 10
1718.273101453795
 20
537.1779349399067
 30
0.0
 11
1726.243561453795
 21
537.1779349399067
 31
0.0
  0
LINE
  5
2DD
330
19
100
AcDbEntity
  8
4
100
AcDbLine
 10
1715.273101453795
 20
555.1779349399067
 30
0.0
 11
1718.273101453795
 21
555.1779349399067
 31
0.0
  0
LINE
  5
2DE
330
19
100
AcDbEntity
  8
4
100
AcDbLine
 10
1530.586971453795
 20
643.0480499399068
 30
0.0
 11
1518.995661453795
 21
639.9423349399067
 31
0.0
  0
LINE
  5
2DF
330
19
100
AcDbEntity
  8
4
100
AcDbLine
 10
1518.995661453795
 20
639.9423349399067
 30
0.0
 11
1510.510311453795
 21
648.4276899399069
 31
0.0
  0
CIRCLE
  5
2E0
330
19
100
AcDbEntity
  8
4
100
AcDbCircle
 10
1522.101621453795
 20
651.5333999399068
 30
0.0
 40
12.0
  0
LINE
  5
2E5
330
19
100
AcDbEntity
  8
4
100
AcDbLine
 10
1567.819391453795
 20
705.6618199399068
 30
0.0
 11
1560.973201453795
 21
705.6618199399068
 31
0.0
  0
LINE
  5
2E6
330
19
100
AcDbEntity
  8
4
100
AcDbLine
 10
1560.973201453795
 20
701.6618199399068
 30
0.0
 11
1566.921931453795
 21
701.6618199399068
 31
0.0
  0
LINE
  5
2E7
330
19
100
AcDbEntity
  8
4
100
AcDbLine
 10
1561.973201453795
 20
699.6618199399068
 30
0.0
 11
1577.473201453795
 21
699.6618199399068
 31
0.0
  0
LINE
  5
2E8
330
19
100
AcDbEntity
  8
4
100
AcDbLine
 10
1561.973201453795
 20
699.6618199399068
 30
0.0
 11
1577.473201453795
 21
699.6618199399068
 31
0.0
  0
LINE
  5
2E9
330
19
100
AcDbEntity
  8
4
100
AcDbLine
 10
1558.973201453795
 20
699.6618199399068
 30
0.0
 11
1577.473201453795
 21
699.6618199399068
 31
0.0
  0
LINE
  5
2EA
330
19
100
AcDbEntity
  8
4
100
AcDbLine
 10
1510.510311453795
 20
648.4276899399069
 30
0.0
 11
1513.616266453795
 21
660.0187549399066
 31
0.0
  0
LINE
  5
2EB
330
19
100
AcDbEntity
  8
4
100
AcDbLine
 10
1513.616266453795
 20
660.0187549399066
 30
0.0
 11
1525.207331453794
 21
663.1247099399066
 31
0.0
  0
LINE
  5
2EC
330
19
100
AcDbEntity
  8
4
100
AcDbLine
 10
1533.692681453794
 20
654.6393599399066
 30
0.0
 11
1530.586971453795
 21
643.0480499399068
 31
0.0
  0
CIRCLE
  5
2ED
330
19
100
AcDbEntity
  8
4
100
AcDbCircle
 10
1522.101376453795
 20
651.5336449399069
 30
0.0
 40
10.392335
  0
LINE
  5
2EE
330
19
100
AcDbEntity
  8
4
100
AcDbLine
 10
1525.207331453794
 20
663.1247099399066
 30
0.0
 11
1533.692681453794
 21
654.6393599399066
 31
0.0
  0
LINE
  5
2EF
330
19
100
AcDbEntity
  8
4
100
AcDbLine
 10
1560.973201453795
 20
701.6618199399068
 30
0.0
 11
1560.973201453795
 21
705.6618199399068
 31
0.0
  0
LINE
  5
2F0
330
19
100
AcDbEntity
  8
4
100
AcDbLine
 10
1563.973201453795
 20
696.2616749399067
 30
0.0
 11
1563.973201453795
 21
699.6618199399068
 31
0.0
  0
LINE
  5
2F1
330
19
100
AcDbEntity
  8
4
100
AcDbLine
 10
1561.973201453795
 20
699.6618199399068
 30
0.0
 11
1561.973201453795
 21
701.6618199399068
 31
0.0
  0
LINE
  5
2F2
330
19
100
AcDbEntity
  8
4
100
AcDbLine
 10
1558.973201453795
 20
696.0363299399069
 30
0.0
 11
1558.973201453795
 21
699.6618199399068
 31
0.0
  0
LINE
  5
2F3
330
19
100
AcDbEntity
  8
4
100
AcDbLine
 10
1590.473201453795
 20
699.6618199399068
 30
0.0
 11
1601.473201453795
 21
699.6618199399068
 31
0.0
  0
LINE
  5
2F4
330
19
100
AcDbEntity
  8
4
100
AcDbLine
 10
1590.473201453795
 20
699.6618199399068
 30
0.0
 11
1605.973201453795
 21
699.6618199399068
 31
0.0
  0
LINE
  5
2F5
330
19
100
AcDbEntity
  8
4
100
AcDbLine
 10
1590.473201453795
 20
699.6618199399068
 30
0.0
 11
1605.973201453795
 21
699.6618199399068
 31
0.0
  0
LINE
  5
2F6
330
19
100
AcDbEntity
  8
4
100
AcDbLine
 10
1590.473201453795
 20
699.6618199399068
 30
0.0
 11
1608.973201453795
 21
699.6618199399068
 31
0.0
  0
ARC
  5
2F7
330
19
100
AcDbEntity
  8
4
100
AcDbCircle
 10
1593.973201453795
 20
701.6618199399068
 30
0.0
 40
4.0
100
AcDbArc
 50
90.0
 51
180.0
  0
LINE
  5
2F8
330
19
100
AcDbEntity
  8
4
100
AcDbLine
 10
1593.973201453795
 20
705.6618199399068
 30
0.0
 11
1583.973201453795
 21
705.6618199399068
 31
0.0
  0
LINE
  5
2F9
330
19
100
AcDbEntity
  8
4
100
AcDbLine
 10
1590.473201453795
 20
696.6618199399068
 30
0.0
 11
1590.473201453795
 21
700.9616249399069
 31
0.0
  0
LINE
  5
2FA
330
19
100
AcDbEntity
  8
4
100
AcDbLine
 10
1587.223201453795
 20
696.6618199399068
 30
0.0
 11
1587.223201453795
 21
700.9616249399069
 31
0.0
  0
LINE
  5
2FB
330
19
100
AcDbEntity
  8
4
100
AcDbLine
 10
1589.973201453795
 20
701.6618199399068
 30
0.0
 11
1589.973201453795
 21
701.3581099399066
 31
0.0
  0
ARC
  5
2FC
330
19
100
AcDbEntity
  8
4
100
AcDbCircle
 10
1588.848201453795
 20
699.4259799399065
 30
0.0
 40
2.235805
100
AcDbArc
 50
43.38059600001328
 51
136.6194039999867
  0
LINE
  5
2FD
330
19
100
AcDbEntity
  8
4
100
AcDbLine
 10
1590.473201453795
 20
696.6618199399068
 30
0.0
 11
1583.973201453795
 21
696.6618199399068
 31
0.0
  0
LINE
  5
2FE
330
19
100
AcDbEntity
  8
4
100
AcDbLine
 10
1588.848201453795
 20
701.6618199399068
 30
0.0
 11
1583.973201453795
 21
701.6618199399068
 31
0.0
  0
LINE
  5
2FF
330
19
100
AcDbEntity
  8
4
100
AcDbLine
 10
1580.723201453795
 20
696.6618199399068
 30
0.0
 11
1580.723201453795
 21
700.9616249399069
 31
0.0
  0
LINE
  5
300
330
19
100
AcDbEntity
  8
4
100
AcDbLine
 10
1577.473201453795
 20
696.6618199399068
 30
0.0
 11
1577.473201453795
 21
700.9616249399069
 31
0.0
  0
ARC
  5
301
330
19
100
AcDbEntity
  8
4
100
AcDbCircle
 10
1579.098201453795
 20
699.4259799399065
 30
0.0
 40
2.235805
100
AcDbArc
 50
43.38059600001328
 51
136.6194039999867
  0
LINE
  5
302
330
19
100
AcDbEntity
  8
4
100
AcDbLine
 10
1577.973201453795
 20
701.6618199399068
 30
0.0
 11
1577.973201453795
 21
701.3581099399066
 31
0.0
  0
LINE
  5
303
330
19
100
AcDbEntity
  8
4
100
AcDbLine
 10
1566.473201453795
 20
699.6618199399068
 30
0.0
 11
1577.473201453795
 21
699.6618199399068
 31
0.0
  0
ARC
  5
304
330
19
100
AcDbEntity
  8
4
100
AcDbCircle
 10
1573.973201453795
 20
701.6618199399068
 30
0.0
 40
4.0
100
AcDbArc
 50
0.0
 51
90.0
  0
LINE
  5
305
330
19
100
AcDbEntity
  8
4
100
AcDbLine
 10
1579.098201453795
 20
701.6618199399068
 30
0.0
 11
1583.973201453795
 21
701.6618199399068
 31
0.0
  0
LINE
  5
306
330
19
100
AcDbEntity
  8
4
100
AcDbLine
 10
1577.473201453795
 20
696.6618199399068
 30
0.0
 11
1583.973201453795
 21
696.6618199399068
 31
0.0
  0
ARC
  5
307
330
19
100
AcDbEntity
  8
4
100
AcDbCircle
 10
1583.973201453795
 20
693.7702199399068
 30
0.0
 40
7.89147
100
AcDbArc
 50
65.67971300000504
 51
114.320286999995
  0
LINE
  5
308
330
19
100
AcDbEntity
  8
4
100
AcDbLine
 10
1573.973201453795
 20
705.6618199399068
 30
0.0
 11
1583.973201453795
 21
705.6618199399068
 31
0.0
  0
LINE
  5
309
330
19
100
AcDbEntity
  8
4
100
AcDbLine
 10
1606.973201453795
 20
701.6618199399068
 30
0.0
 11
1606.973201453795
 21
705.6618199399068
 31
0.0
  0
LINE
  5
30A
330
19
100
AcDbEntity
  8
4
100
AcDbLine
 10
1601.024471453795
 20
701.6618199399068
 30
0.0
 11
1606.973201453795
 21
701.6618199399068
 31
0.0
  0
LINE
  5
30B
330
19
100
AcDbEntity
  8
4
100
AcDbLine
 10
1608.973201453795
 20
696.0363299399069
 30
0.0
 11
1608.973201453795
 21
699.6618199399068
 31
0.0
  0
LINE
  5
30C
330
19
100
AcDbEntity
  8
4
100
AcDbLine
 10
1603.973201453795
 20
696.2616749399067
 30
0.0
 11
1603.973201453795
 21
699.6618199399068
 31
0.0
  0
LINE
  5
30D
330
19
100
AcDbEntity
  8
4
100
AcDbLine
 10
1605.973201453795
 20
701.6618199399068
 30
0.0
 11
1605.973201453795
 21
699.6618199399068
 31
0.0
  0
LINE
  5
30E
330
19
100
AcDbEntity
  8
4
100
AcDbLine
 10
1600.127011453794
 20
705.6618199399068
 30
0.0
 11
1606.973201453795
 21
705.6618199399068
 31
0.0
  0
LINE
  5
30F
330
19
100
AcDbEntity
  8
4
100
AcDbLine
 10
1648.950741453795
 20
639.9423349399067
 30
0.0
 11
1657.436091453794
 21
648.4276899399069
 31
0.0
  0
LINE
  5
310
330
19
100
AcDbEntity
  8
4
100
AcDbLine
 10
1637.359431453795
 20
643.0480499399068
 30
0.0
 11
1648.950741453795
 21
639.9423349399067
 31
0.0
  0
ARC
  5
311
330
19
100
AcDbEntity
  8
4
100
AcDbCircle
 10
1188.973201453795
 20
589.6618199399068
 30
0.0
 40
499.999945
100
AcDbArc
 50
0.0
 51
10.89363600001011
  0
LINE
  5
312
330
19
100
AcDbEntity
  8
L-CENTER
 48
2.0
100
AcDbLine
 10
1665.727968884016
 20
671.4165725104074
 30
0.0
 11
1625.961472130299
 21
631.6503492635193
 31
0.0
  0
CIRCLE
  5
313
330
19
100
AcDbEntity
  8
4
100
AcDbCircle
 10
1645.844781453795
 20
651.5333999399068
 30
0.0
 40
12.0
  0
LINE
  5
314
330
19
100
AcDbEntity
  8
4
100
AcDbLine
 10
1715.273101453795
 20
589.6618199399068
 30
0.0
 11
1692.973201453795
 21
589.6618199399068
 31
0.0
  0
LINE
  5
315
330
19
100
AcDbEntity
  8
4
100
AcDbLine
 10
1689.973201453795
 20
589.6618199399068
 30
0.0
 11
1692.973201453795
 21
589.6618199399068
 31
0.0
  0
LINE
  5
316
330
19
100
AcDbEntity
  8
4
100
AcDbLine
 10
1688.930231453794
 20
592.6618199399068
 30
0.0
 11
1689.973201453795
 21
592.6618199399068
 31
0.0
  0
LINE
  5
317
330
19
100
AcDbEntity
  8
4
100
AcDbLine
 10
1654.330136453794
 20
660.0187549399066
 30
0.0
 11
1642.739071453795
 21
663.1247099399066
 31
0.0
  0
CIRCLE
  5
318
330
19
100
AcDbEntity
  8
4
100
AcDbCircle
 10
1645.845026453795
 20
651.5336449399069
 30
0.0
 40
10.392335
  0
LINE
  5
319
330
19
100
AcDbEntity
  8
4
100
AcDbLine
 10
1634.253716453795
 20
654.6393599399066
 30
0.0
 11
1637.359431453795
 21
643.0480499399068
 31
0.0
  0
LINE
  5
31A
330
19
100
AcDbEntity
  8
4
100
AcDbLine
 10
1642.739071453795
 20
663.1247099399066
 30
0.0
 11
1634.253716453795
 21
654.6393599399066
 31
0.0
  0
LINE
  5
31B
330
19
100
AcDbEntity
  8
4
100
AcDbLine
 10
1657.436091453794
 20
648.4276899399069
 30
0.0
 11
1654.330136453794
 21
660.0187549399066
 31
0.0
  0
ARC
  5
31C
330
19
100
AcDbEntity
  8
4
100
AcDbCircle
 10
1675.053036453795
 20
683.2104049399068
 30
0.0
 40
4.99997
100
AcDbArc
 50
10.89239300001324
 51
79.39512500000019
  0
LINE
  5
320
330
19
100
AcDbEntity
  8
4
100
AcDbLine
 10
1727.273101453795
 20
552.1779349399067
 30
0.0
 11
1727.273101453795
 21
534.1779349399067
 31
0.0
  0
LINE
  5
32E
330
19
100
AcDbEntity
  8
4
100
AcDbLine
 10
1564.054501453795
 20
710.6618199399068
 30
0.0
 11
1568.941026453794
 21
710.6618199399068
 31
0.0
  0
LINE
  5
32F
330
19
100
AcDbEntity
  8
4
100
AcDbLine
 10
1591.973201453795
 20
718.6618199399068
 30
0.0
 11
1591.973201453795
 21
762.6618199399068
 31
0.0
  0
LINE
  5
330
330
19
100
AcDbEntity
  8
4
100
AcDbLine
 10
1575.973201453795
 20
718.6618199399068
 30
0.0
 11
1575.973201453795
 21
762.6618199399068
 31
0.0
  0
LINE
  5
331
330
19
100
AcDbEntity
  8
4
100
AcDbLine
 10
1594.973201453795
 20
717.6618199399068
 30
0.0
 11
1583.973201453795
 21
717.6618199399068
 31
0.0
  0
LINE
  5
332
330
19
100
AcDbEntity
  8
4
100
AcDbLine
 10
1583.973201453795
 20
715.6618199399068
 30
0.0
 11
1594.973201453795
 21
715.6618199399068
 31
0.0
  0
LINE
  5
333
330
19
100
AcDbEntity
  8
4
100
AcDbLine
 10
1592.973201453795
 20
718.6618199399068
 30
0.0
 11
1574.973201453795
 21
718.6618199399068
 31
0.0
  0
LINE
  5
334
330
19
100
AcDbEntity
  8
L-CENTER
 48
2.0
100
AcDbLine
 10
1599.973201453795
 20
734.6618199399068
 30
0.0
 11
1567.973201453795
 21
734.6618199399068
 31
0.0
  0
LINE
  5
335
330
19
100
AcDbEntity
  8
4
100
AcDbLine
 10
1574.973201453795
 20
718.6618199399068
 30
0.0
 11
1572.973201453795
 21
717.6618199399068
 31
0.0
  0
LINE
  5
336
330
19
100
AcDbEntity
  8
4
100
AcDbLine
 10
1572.973201453795
 20
717.6618199399068
 30
0.0
 11
1572.973201453795
 21
715.6618199399068
 31
0.0
  0
ARC
  5
337
330
19
100
AcDbEntity
  8
4
100
AcDbCircle
 10
1570.430476453794
 20
711.3617699399069
 30
0.0
 40
1.300075
100
AcDbArc
 50
90.0
 51
167.352158999999
  0
LINE
  5
338
330
19
100
AcDbEntity
  8
4
100
AcDbLine
 10
1573.973201453795
 20
712.6618199399068
 30
0.0
 11
1570.430476453794
 21
712.6618199399068
 31
0.0
  0
LINE
  5
339
330
19
100
AcDbEntity
  8
4
100
AcDbLine
 10
1573.973201453795
 20
713.1952649399068
 30
0.0
 11
1570.241756453795
 21
712.6479049399068
 31
0.0
  0
LINE
  5
33A
330
19
100
AcDbEntity
  8
4
100
AcDbLine
 10
1583.973201453795
 20
715.6618199399068
 30
0.0
 11
1572.973201453795
 21
715.6618199399068
 31
0.0
  0
LINE
  5
33B
330
19
100
AcDbEntity
  8
4
100
AcDbLine
 10
1572.973201453795
 20
717.6618199399068
 30
0.0
 11
1583.973201453795
 21
717.6618199399068
 31
0.0
  0
LINE
  5
33C
330
19
100
AcDbEntity
  8
4
100
AcDbLine
 10
1594.973201453795
 20
717.6618199399068
 30
0.0
 11
1594.973201453795
 21
715.6618199399068
 31
0.0
  0
LINE
  5
33D
330
19
100
AcDbEntity
  8
4
100
AcDbLine
 10
1592.973201453795
 20
718.6618199399068
 30
0.0
 11
1594.973201453795
 21
717.6618199399068
 31
0.0
  0
ARC
  5
33E
330
19
100
AcDbEntity
  8
4
100
AcDbCircle
 10
1597.515681453795
 20
711.3617699399069
 30
0.0
 40
1.300075
100
AcDbArc
 50
12.64784100000097
 51
90.0
  0
LINE
  5
33F
330
19
100
AcDbEntity
  8
4
100
AcDbLine
 10
1593.973201453795
 20
712.6618199399068
 30
0.0
 11
1597.515681453795
 21
712.6618199399068
 31
0.0
  0
LINE
  5
340
330
19
100
AcDbEntity
  8
4
100
AcDbLine
 10
1593.973201453795
 20
713.1952649399068
 30
0.0
 11
1597.704401453795
 21
712.6479049399068
 31
0.0
  0
LINE
  5
341
330
19
100
AcDbEntity
  8
4
100
AcDbLine
 10
1599.005151453795
 20
710.6618199399068
 30
0.0
 11
1603.891656453795
 21
710.6618199399068
 31
0.0
  0
ARC
  5
342
330
19
100
AcDbEntity
  8
4
100
AcDbCircle
 10
1583.973201453795
 20
762.6618199399068
 30
0.0
 40
8.0
100
AcDbArc
 50
0.0
 51
180.0
  0
LINE
  5
44D
330
19
100
AcDbEntity
  8
L-CENTER
 48
2.0
100
AcDbLine
 10
1669.174401227856
 20
136.1457049399069
 30
0.0
 11
1733.157423108852
 21
136.1457049399069
 31
0.0
  0
LINE
  5
44E
330
19
100
AcDbEntity
  8
L-CENTER
 48
2.0
100
AcDbLine
 10
435.8768926221819
 20
527.7899949399066
 30
0.0
 11
495.8109760932348
 21
527.7899949399066
 31
0.0
  0
LINE
  5
44F
330
19
100
AcDbEntity
  8
L-CENTER
 48
2.0
100
AcDbLine
 10
1011.498261012744
 20
651.5336449399069
 30
0.0
 11
951.5641775416916
 21
651.5336449399069
 31
0.0
  0
LINE
  5
450
330
19
100
AcDbEntity
  8
L-CENTER
 48
2.0
100
AcDbLine
 10
1011.498261012744
 20
527.7899949399066
 30
0.0
 11
951.5641775416916
 21
527.7899949399066
 31
0.0
  0
ARC
  5
48C
330
19
100
AcDbEntity
  8
4
100
AcDbCircle
 10
723.6875768174632
 20
529.6618199399065
 30
0.0
 40
23.0
100
AcDbArc
 50
180.0
 51
0.0
  0
LINE
  5
48D
330
19
100
AcDbEntity
  8
4
100
AcDbLine
 10
746.6875768174632
 20
529.6618199399065
 30
0.0
 11
746.6875768174632
 21
556.223589419194
 31
0.0
  0
LINE
  5
48E
330
19
100
AcDbEntity
  8
4
100
AcDbLine
 10
808.1875768174609
 20
619.6618199399063
 30
0.0
 11
833.1875768174605
 21
619.6618199399063
 31
0.0
  0
LINE
  5
48F
330
19
100
AcDbEntity
  8
4
100
AcDbLine
 10
818.1875768174623
 20
629.6618199399059
 30
0.0
 11
833.1875768174609
 21
629.6618199399063
 31
0.0
  0
LINE
  5
490
330
19
100
AcDbEntity
  8
4
100
AcDbLine
 10
805.6875768174605
 20
657.1618199399059
 30
0.0
 11
805.6875768174609
 21
622.1618199399063
 31
0.0
  0
LINE
  5
491
330
19
100
AcDbEntity
  8
4
100
AcDbLine
 10
808.1875768174605
 20
659.6618199399059
 30
0.0
 11
813.1875768174623
 21
659.6618199399059
 31
0.0
  0
LINE
  5
492
330
19
100
AcDbEntity
  8
4
100
AcDbLine
 10
815.6875768174623
 20
657.1618199399059
 30
0.0
 11
815.6875768174623
 21
632.1618199399059
 31
0.0
  0
LINE
  5
493
330
19
100
AcDbEntity
  8
4
100
AcDbLine
 10
846.1875768174605
 20
619.6618199399063
 30
0.0
 11
865.6875768174609
 21
619.6618199399063
 31
0.0
  0
LINE
  5
494
330
19
100
AcDbEntity
  8
4
100
AcDbLine
 10
846.1875768174614
 20
659.6618199399063
 30
0.0
 11
865.6875768174614
 21
659.6618199399063
 31
0.0
  0
LINE
  5
495
330
19
100
AcDbEntity
  8
4
100
AcDbLine
 10
884.1875768174614
 20
634.6618199399063
 30
0.0
 11
889.1875768174614
 21
634.6618199399063
 31
0.0
  0
LINE
  5
496
330
19
100
AcDbEntity
  8
4
100
AcDbLine
 10
884.18757681746
 20
644.6618199399063
 30
0.0
 11
889.1875768174605
 21
644.6618199399063
 31
0.0
  0
LINE
  5
497
330
19
100
AcDbEntity
  8
4
100
AcDbLine
 10
891.6875768174605
 20
642.1618199399068
 30
0.0
 11
891.6875768174614
 21
637.1618199399068
 31
0.0
  0
LINE
  5
498
330
19
100
AcDbEntity
  8
4
100
AcDbLine
 10
881.68757681746
 20
642.1618199399054
 30
0.0
 11
881.6875768174614
 21
637.1618199399054
 31
0.0
  0
LINE
  5
499
330
19
100
AcDbEntity
  8
4
100
AcDbLine
 10
835.6875768174609
 20
627.1618199399063
 30
0.0
 11
835.6875768174605
 21
622.1618199399063
 31
0.0
  0
ARC
  5
49A
330
19
100
AcDbEntity
  8
4
100
AcDbCircle
 10
808.1875768174605
 20
657.1618199399059
 30
0.0
 40
2.5
100
AcDbArc
 50
90.0
 51
180.0
  0
ARC
  5
49B
330
19
100
AcDbEntity
  8
4
100
AcDbCircle
 10
813.1875768174623
 20
657.1618199399059
 30
0.0
 40
2.5
100
AcDbArc
 50
0.0
 51
90.0
  0
ARC
  5
49C
330
19
100
AcDbEntity
  8
4
100
AcDbCircle
 10
818.1875768174623
 20
632.1618199399059
 30
0.0
 40
2.5
100
AcDbArc
 50
180.0
 51
270.0
  0
ARC
  5
49D
330
19
100
AcDbEntity
  8
4
100
AcDbCircle
 10
833.1875768174609
 20
627.1618199399063
 30
0.0
 40
2.5
100
AcDbArc
 50
0.0
 51
90.0
  0
ARC
  5
49E
330
19
100
AcDbEntity
  8
4
100
AcDbCircle
 10
833.1875768174605
 20
622.1618199399063
 30
0.0
 40
2.5
100
AcDbArc
 50
270.0
 51
0.0
  0
ARC
  5
49F
330
19
100
AcDbEntity
  8
4
100
AcDbCircle
 10
808.1875768174609
 20
622.1618199399063
 30
0.0
 40
2.5
100
AcDbArc
 50
180.0
 51
270.0
  0
LINE
  5
4A0
330
19
100
AcDbEntity
  8
4
100
AcDbLine
 10
843.6875768174614
 20
657.1618199399063
 30
0.0
 11
843.6875768174605
 21
622.1618199399063
 31
0.0
  0
LINE
  5
4A1
330
19
100
AcDbEntity
  8
4
100
AcDbLine
 10
873.6875768174614
 20
651.6618199399063
 30
0.0
 11
873.6875768174614
 21
649.9087707058661
 31
0.0
  0
ARC
  5
4A2
330
19
100
AcDbEntity
  8
4
100
AcDbCircle
 10
846.1875768174605
 20
622.1618199399063
 30
0.0
 40
2.5
100
AcDbArc
 50
180.0
 51
270.0
  0
ARC
  5
4A3
330
19
100
AcDbEntity
  8
4
100
AcDbCircle
 10
846.1875768174614
 20
657.1618199399063
 30
0.0
 40
2.5
100
AcDbArc
 50
90.0
 51
180.0
  0
ARC
  5
4A4
330
19
100
AcDbEntity
  8
4
100
AcDbCircle
 10
865.6875768174609
 20
627.6618199399063
 30
0.0
 40
8.0
100
AcDbArc
 50
270.0
 51
0.0
  0
ARC
  5
4A5
330
19
100
AcDbEntity
  8
4
100
AcDbCircle
 10
865.6875768174614
 20
651.6618199399063
 30
0.0
 40
8.0
100
AcDbArc
 50
0.0
 51
90.0
  0
ARC
  5
4A6
330
19
100
AcDbEntity
  8
4
100
AcDbCircle
 10
873.6875768174614
 20
639.6618199399063
 30
0.0
 40
5.0
100
AcDbArc
 50
127.9798724448621
 51
232.0201275551379
  0
LINE
  5
4A7
330
19
100
AcDbEntity
  8
4
100
AcDbLine
 10
873.6875768174609
 20
629.414869173947
 30
0.0
 11
873.6875768174609
 21
627.6618199399059
 31
0.0
  0
ARC
  5
4A8
330
19
100
AcDbEntity
  8
4
100
AcDbCircle
 10
865.6875768174614
 20
649.9087707058661
 30
0.0
 40
8.0
100
AcDbArc
 50
307.9798724448621
 51
0.0
  0
ARC
  5
4A9
330
19
100
AcDbEntity
  8
4
100
AcDbCircle
 10
865.6875768174609
 20
629.414869173947
 30
0.0
 40
8.0
100
AcDbArc
 50
0.0
 51
52.02012755513794
  0
ARC
  5
4AA
330
19
100
AcDbEntity
  8
4
100
AcDbCircle
 10
884.1875768174614
 20
637.1618199399063
 30
0.0
 40
2.5
100
AcDbArc
 50
180.0
 51
270.0
  0
ARC
  5
4AB
330
19
100
AcDbEntity
  8
4
100
AcDbCircle
 10
884.18757681746
 20
642.1618199399063
 30
0.0
 40
2.5
100
AcDbArc
 50
90.0
 51
180.0
  0
ARC
  5
4AC
330
19
100
AcDbEntity
  8
4
100
AcDbCircle
 10
889.1875768174605
 20
642.1618199399063
 30
0.0
 40
2.5
100
AcDbArc
 50
0.0
 51
90.0
  0
ARC
  5
4AD
330
19
100
AcDbEntity
  8
4
100
AcDbCircle
 10
889.1875768174614
 20
637.1618199399063
 30
0.0
 40
2.5
100
AcDbArc
 50
270.0
 51
0.0
  0
LINE
  5
4AE
330
19
100
AcDbEntity
  8
4
100
AcDbLine
 10
913.2828594171124
 20
619.6618199399059
 30
0.0
 11
907.4288485158636
 21
619.6618199399059
 31
0.0
  0
LINE
  5
4AF
330
19
100
AcDbEntity
  8
4
100
AcDbLine
 10
917.6875768174627
 20
659.6618199399063
 30
0.0
 11
911.6875768174627
 21
659.6618199399063
 31
0.0
  0
ARC
  5
4B0
330
19
100
AcDbEntity
  8
4
100
AcDbCircle
 10
917.6875768174627
 20
647.6618199399063
 30
0.0
 40
12.0
100
AcDbArc
 50
328.6621287348042
 51
90.0
  0
ARC
  5
4B1
330
19
100
AcDbEntity
  8
4
100
AcDbCircle
 10
911.6875768174627
 20
647.6618199399063
 30
0.0
 40
12.0
100
AcDbArc
 50
90.0
 51
236.1537534422866
  0
LINE
  5
4B2
330
19
100
AcDbEntity
  8
4
100
AcDbLine
 10
915.4181475487649
 20
620.8616104972293
 30
0.0
 11
927.9369598493936
 21
641.420814615059
 31
0.0
  0
LINE
  5
4B3
330
19
100
AcDbEntity
  8
4
100
AcDbLine
 10
905.2935603842111
 20
623.4620293825824
 30
0.0
 11
907.3811754940543
 21
626.8904460831491
 31
0.0
  0
ARC
  5
4B4
330
19
100
AcDbEntity
  8
4
100
AcDbCircle
 10
900.5482534727671
 20
631.0511162997136
 30
0.0
 40
8.0
100
AcDbArc
 50
328.662128734804
 51
56.15375344228622
  0
ARC
  5
4B5
330
19
100
AcDbEntity
  8
4
100
AcDbCircle
 10
913.2828594171124
 20
622.1618199399059
 30
0.0
 40
2.5
100
AcDbArc
 50
270.0
 51
328.6621287348021
  0
ARC
  5
4B6
330
19
100
AcDbEntity
  8
4
100
AcDbCircle
 10
907.4288485158636
 20
622.1618199399059
 30
0.0
 40
2.5
100
AcDbArc
 50
148.6621287348021
 51
270.0
  0
LINE
  5
4B7
330
19
100
AcDbEntity
  8
4
100
AcDbLine
 10
801.6875768174605
 20
671.6618199399063
 30
0.0
 11
933.6875768174632
 21
671.6618199399063
 31
0.0
  0
LINE
  5
4B8
330
19
100
AcDbEntity
  8
4
100
AcDbLine
 10
801.6875768174605
 20
607.6618199399068
 30
0.0
 11
933.6875768174632
 21
607.6618199399054
 31
0.0
  0
LINE
  5
4B9
330
19
100
AcDbEntity
  8
4
100
AcDbLine
 10
941.6875768174632
 20
663.6618199399063
 30
0.0
 11
941.6875768174632
 21
615.6618199399054
 31
0.0
  0
LINE
  5
4BA
330
19
100
AcDbEntity
  8
4
100
AcDbLine
 10
793.6875768174605
 20
663.6618199399063
 30
0.0
 11
793.6875768174605
 21
615.6618199399068
 31
0.0
  0
ARC
  5
4BB
330
19
100
AcDbEntity
  8
4
100
AcDbCircle
 10
801.6875768174605
 20
663.6618199399063
 30
0.0
 40
8.0
100
AcDbArc
 50
90.0
 51
180.0
  0
ARC
  5
4BC
330
19
100
AcDbEntity
  8
4
100
AcDbCircle
 10
933.6875768174632
 20
663.6618199399063
 30
0.0
 40
8.0
100
AcDbArc
 50
0.0
 51
90.0
  0
ARC
  5
4BD
330
19
100
AcDbEntity
  8
4
100
AcDbCircle
 10
933.6875768174632
 20
615.6618199399054
 30
0.0
 40
8.0
100
AcDbArc
 50
270.0
 51
0.0
  0
ARC
  5
4BE
330
19
100
AcDbEntity
  8
4
100
AcDbCircle
 10
801.6875768174605
 20
615.6618199399068
 30
0.0
 40
8.0
100
AcDbArc
 50
180.0
 51
270.0
  0
LINE
  5
4BF
330
19
100
AcDbEntity
  8
4
100
AcDbLine
 10
1482.486522045832
 20
671.6618199399063
 30
0.0
 11
1485.74300164847
 21
671.6618199399063
 31
0.0
  0
ARC
  5
4C0
330
19
100
AcDbEntity
  8
4
100
AcDbCircle
 10
1482.486522045832
 20
669.6618199399063
 30
0.0
 40
2.0
100
AcDbArc
 50
90.0
 51
174.2948654962331
  0
LINE
  5
4C1
330
19
100
AcDbEntity
  8
4
100
AcDbLine
 10
1476.492295421405
 20
607.661819939907
 30
0.0
 11
1479.297276478415
 21
607.661819939907
 31
0.0
  0
ARC
  5
4C2
330
19
100
AcDbEntity
  8
4
100
AcDbCircle
 10
1476.492295421405
 20
609.661819939907
 30
0.0
 40
2.0
100
AcDbArc
 50
174.2948654962331
 51
270.0
  0
LINE
  5
4C3
330
19
100
AcDbEntity
  8
4
100
AcDbLine
 10
1480.49642871478
 20
669.8606377804078
 30
0.0
 11
1474.502202090353
 21
609.8606377804085
 31
0.0
  0
LINE
  5
4C4
330
19
100
AcDbEntity
  8
4
100
AcDbLine
 10
700.6875768174632
 20
529.6618199399065
 30
0.0
 11
700.687576817463
 21
556.223589419194
 31
0.0
  0
LINE
  5
4C5
330
19
100
AcDbEntity
  8
4
100
AcDbLine
 10
766.6296652171673
 20
551.424507480179
 30
0.0
 11
780.794511817463
 21
420.2406749399065
 31
0.0
  0
ARC
  5
4C6
330
19
100
AcDbEntity
  8
4
100
AcDbCircle
 10
785.7657018174632
 20
420.7775399399065
 30
0.0
 40
5.000025
100
AcDbArc
 50
186.1637819999897
 51
258.2544110000051
  0
ARC
  5
4C7
330
19
100
AcDbEntity
  8
4
100
AcDbCircle
 10
769.6123818174633
 20
551.7465349399067
 30
0.0
 40
3.00005
100
AcDbArc
 50
77.78018600000121
 51
186.1620410000109
  0
LINE
  5
4CB
330
19
100
AcDbEntity
  8
L-CENTER
 48
2.0
100
AcDbLine
 10
465.3899898441518
 20
1178.794241057477
 30
0.0
 11
511.9851637907745
 21
1178.794241057477
 31
0.0
  0
LINE
  5
4CC
330
19
100
AcDbEntity
  8
4
100
AcDbLine
 10
458.6875768174632
 20
1138.794241057477
 30
0.0
 11
543.6875768174632
 21
1138.794241057477
 31
0.0
  0
LINE
  5
4CD
330
19
100
AcDbEntity
  8
4
100
AcDbLine
 10
458.6875768174632
 20
1488.794241057477
 30
0.0
 11
543.6875768174632
 21
1488.794241057477
 31
0.0
  0
LINE
  5
4CE
330
19
100
AcDbEntity
  8
L-CENTER
 48
2.0
100
AcDbLine
 10
465.3899898441518
 20
1448.794241057477
 30
0.0
 11
511.9851637907745
 21
1448.794241057477
 31
0.0
  0
LINE
  5
4CF
330
19
100
AcDbEntity
  8
4
100
AcDbLine
 10
472.6875768174632
 20
1445.194241057477
 30
0.0
 11
974.6875768174632
 21
1445.194241057477
 31
0.0
  0
LINE
  5
4D0
330
19
100
AcDbEntity
  8
4
100
AcDbLine
 10
471.6875768174632
 20
1423.194241057477
 30
0.0
 11
975.6875768174632
 21
1423.194241057477
 31
0.0
  0
LINE
  5
4D1
330
19
100
AcDbEntity
  8
4
100
AcDbLine
 10
473.6875768174632
 20
1184.794241057477
 30
0.0
 11
973.6875768174632
 21
1184.794241057477
 31
0.0
  0
LINE
  5
4D2
330
19
100
AcDbEntity
  8
4
100
AcDbLine
 10
453.887576817463
 20
1207.794241057477
 30
0.0
 11
793.6875768174605
 21
1207.794241057477
 31
0.0
  0
LINE
  5
4D3
330
19
100
AcDbEntity
  8
4
100
AcDbLine
 10
453.887576817463
 20
1419.794241057477
 30
0.0
 11
993.4875768174634
 21
1419.794241057477
 31
0.0
  0
LINE
  5
4D4
330
19
100
AcDbEntity
  8
4
100
AcDbLine
 10
470.6875768174632
 20
1208.794241057477
 30
0.0
 11
976.6875768174632
 21
1208.794241057477
 31
0.0
  0
LINE
  5
4D5
330
19
100
AcDbEntity
  8
4
100
AcDbLine
 10
470.6875768174632
 20
1418.794241057477
 30
0.0
 11
976.6875768174632
 21
1418.794241057477
 31
0.0
  0
LINE
  5
4D6
330
19
100
AcDbEntity
  8
L-CENTER
 48
2.0
100
AcDbLine
 10
310.4964270138912
 20
1313.794241057477
 30
0.0
 11
1008.000596891916
 21
1313.794241057477
 31
0.0
  0
LINE
  5
4D7
330
19
100
AcDbEntity
  8
4
100
AcDbLine
 10
448.6875768174632
 20
1239.922416057477
 30
0.0
 11
448.6875768174632
 21
1148.794241057477
 31
0.0
  0
LINE
  5
4D8
330
19
100
AcDbEntity
  8
4
100
AcDbLine
 10
475.6875768174632
 20
1304.574696600184
 30
0.0
 11
475.6875768174632
 21
1208.794241057477
 31
0.0
  0
LINE
  5
4D9
330
19
100
AcDbEntity
  8
4
100
AcDbLine
 10
453.887576817463
 20
1419.794241057477
 30
0.0
 11
453.887576817463
 21
1207.794241057477
 31
0.0
  0
LINE
  5
4DA
330
19
100
AcDbEntity
  8
4
100
AcDbLine
 10
470.6875768174632
 20
1419.794241057477
 30
0.0
 11
470.6875768174632
 21
1207.794241057477
 31
0.0
  0
ARC
  5
4DB
330
19
100
AcDbEntity
  8
4
100
AcDbCircle
 10
458.6875768174632
 20
1148.794241057477
 30
0.0
 40
10.0
100
AcDbArc
 50
180.0
 51
270.0
  0
LINE
  5
4DC
330
19
100
AcDbEntity
  8
L-CENTER
 48
2.0
100
AcDbLine
 10
488.6875768174632
 20
1155.496654084166
 30
0.0
 11
488.6875768174632
 21
1202.091828030789
 31
0.0
  0
LINE
  5
4DD
330
19
100
AcDbEntity
  8
4
100
AcDbLine
 10
473.6875768174632
 20
1207.794241057477
 30
0.0
 11
473.6875768174632
 21
1184.794241057477
 31
0.0
  0
ARC
  5
4DE
330
19
100
AcDbEntity
  8
2
  6
DASHED
100
AcDbCircle
 10
488.6875768174632
 20
1178.794241057477
 30
0.0
 40
12.0
100
AcDbArc
 50
30.00000000000121
 51
149.9999999999988
  0
ARC
  5
4E0
330
19
100
AcDbEntity
  8
4
100
AcDbCircle
 10
488.6875768174632
 20
1178.794241057477
 30
0.0
 40
12.0
100
AcDbArc
 50
149.9999999999988
 51
30.00000000000121
  0
LINE
  5
4E1
330
19
100
AcDbEntity
  8
4
100
AcDbLine
 10
448.6875768174632
 20
1478.794241057477
 30
0.0
 11
448.6875768174632
 21
1387.666066057478
 31
0.0
  0
LINE
  5
4E2
330
19
100
AcDbEntity
  8
L-CENTER
 48
2.0
100
AcDbLine
 10
488.6875768174632
 20
1407.819488192372
 30
0.0
 11
488.6875768174632
 21
1462.993571995468
 31
0.0
  0
LINE
  5
4E3
330
19
100
AcDbEntity
  8
4
100
AcDbLine
 10
475.6875768174632
 20
1418.794241057477
 30
0.0
 11
475.6875768174632
 21
1323.01378551477
 31
0.0
  0
LINE
  5
4E4
330
19
100
AcDbEntity
  8
4
100
AcDbLine
 10
448.6875768174632
 20
1363.666066057478
 30
0.0
 11
448.6875768174632
 21
1346.294241057477
 31
0.0
  0
CIRCLE
  5
4E5
330
19
100
AcDbEntity
  8
4
100
AcDbCircle
 10
481.6875768174632
 20
1313.794241057477
 30
0.0
 40
11.0
  0
LINE
  5
4E6
330
19
100
AcDbEntity
  8
L-CENTER
 48
2.0
100
AcDbLine
 10
481.6875768174632
 20
1331.234066701557
 30
0.0
 11
481.6875768174632
 21
1297.488789095299
 31
0.0
  0
LINE
  5
4E7
330
19
100
AcDbEntity
  8
L-CENTER
 48
2.0
100
AcDbLine
 10
437.036366981878
 20
1251.922416057483
 30
0.0
 11
485.4640821146359
 21
1251.922416057482
 31
0.0
  0
LINE
  5
4E8
330
19
100
AcDbEntity
  8
4
100
AcDbLine
 10
442.9172168174632
 20
1239.922416057477
 30
0.0
 11
450.8876768174632
 21
1239.922416057477
 31
0.0
  0
LINE
  5
4E9
330
19
100
AcDbEntity
  8
4
100
AcDbLine
 10
450.8876768174632
 20
1245.922416057477
 30
0.0
 11
442.9172168174632
 21
1245.922416057477
 31
0.0
  0
LINE
  5
4EA
330
19
100
AcDbEntity
  8
4
100
AcDbLine
 10
442.9172168174632
 20
1263.922416057477
 30
0.0
 11
450.8876768174632
 21
1263.922416057477
 31
0.0
  0
LINE
  5
4EB
330
19
100
AcDbEntity
  8
4
100
AcDbLine
 10
450.8876768174632
 20
1257.922416057477
 30
0.0
 11
442.9172168174632
 21
1257.922416057477
 31
0.0
  0
ARC
  5
4EC
330
19
100
AcDbEntity
  8
4
100
AcDbCircle
 10
446.4714168174633
 20
1260.922416057477
 30
0.0
 40
4.58369
100
AcDbArc
 50
139.1186700000007
 51
220.8813299999993
  0
ARC
  5
4ED
330
19
100
AcDbEntity
  8
4
100
AcDbCircle
 10
446.4714168174633
 20
1242.922416057477
 30
0.0
 40
4.58369
100
AcDbArc
 50
139.1186700000007
 51
220.8813299999993
  0
ARC
  5
4EE
330
19
100
AcDbEntity
  8
4
100
AcDbCircle
 10
459.8876768174632
 20
1251.922416057477
 30
0.0
 40
18.00009
100
AcDbArc
 50
160.5289280000003
 51
199.4703399999999
  0
LINE
  5
4EF
330
19
100
AcDbEntity
  8
4
100
AcDbLine
 10
441.8876768174632
 20
1260.922416057477
 30
0.0
 11
441.8876768174632
 21
1242.922416057477
 31
0.0
  0
LINE
  5
4F0
330
19
100
AcDbEntity
  8
4
100
AcDbLine
 10
450.8876768174632
 20
1263.922416057477
 30
0.0
 11
450.8876768174632
 21
1239.922416057477
 31
0.0
  0
LINE
  5
4F1
330
19
100
AcDbEntity
  8
4
100
AcDbLine
 10
453.8876768174632
 20
1239.922416057477
 30
0.0
 11
453.8876768174632
 21
1263.922416057477
 31
0.0
  0
LINE
  5
4F2
330
19
100
AcDbEntity
  8
4
100
AcDbLine
 10
453.8876768174632
 20
1239.922416057477
 30
0.0
 11
450.8876768174632
 21
1239.922416057477
 31
0.0
  0
LINE
  5
4F3
330
19
100
AcDbEntity
  8
4
100
AcDbLine
 10
453.8876768174632
 20
1263.922416057477
 30
0.0
 11
450.8876768174632
 21
1263.922416057477
 31
0.0
  0
LINE
  5
4F4
330
19
100
AcDbEntity
  8
L-CENTER
 48
2.0
100
AcDbLine
 10
435.264396981881
 20
1375.666066057484
 30
0.0
 11
485.4640821146386
 21
1375.666066057482
 31
0.0
  0
LINE
  5
4F5
330
19
100
AcDbEntity
  8
4
100
AcDbLine
 10
450.8876768174632
 20
1369.666066057478
 30
0.0
 11
442.9172168174632
 21
1369.666066057478
 31
0.0
  0
LINE
  5
4F6
330
19
100
AcDbEntity
  8
4
100
AcDbLine
 10
450.8876768174632
 20
1381.666066057478
 30
0.0
 11
442.9172168174632
 21
1381.666066057478
 31
0.0
  0
LINE
  5
4F7
330
19
100
AcDbEntity
  8
4
100
AcDbLine
 10
442.9172168174632
 20
1387.666066057478
 30
0.0
 11
450.8876768174632
 21
1387.666066057478
 31
0.0
  0
LINE
  5
4F8
330
19
100
AcDbEntity
  8
4
100
AcDbLine
 10
442.9172168174632
 20
1363.666066057478
 30
0.0
 11
450.8876768174632
 21
1363.666066057478
 31
0.0
  0
ARC
  5
4F9
330
19
100
AcDbEntity
  8
4
100
AcDbCircle
 10
446.4714168174633
 20
1384.666066057478
 30
0.0
 40
4.583600000000001
100
AcDbArc
 50
139.1186700000058
 51
220.8833260000026
  0
ARC
  5
4FA
330
19
100
AcDbEntity
  8
4
100
AcDbCircle
 10
459.8876768174632
 20
1375.666066057478
 30
0.0
 40
17.999975
100
AcDbArc
 50
160.5296600000026
 51
199.4713310000026
  0
LINE
  5
4FB
330
19
100
AcDbEntity
  8
4
100
AcDbLine
 10
441.8876768174632
 20
1366.666066057478
 30
0.0
 11
441.8876768174632
 21
1384.666066057478
 31
0.0
  0
ARC
  5
4FC
330
19
100
AcDbEntity
  8
4
100
AcDbCircle
 10
446.4714168174633
 20
1366.666066057478
 30
0.0
 40
4.583600000000001
100
AcDbArc
 50
139.1186700000063
 51
220.8833260000026
  0
LINE
  5
4FD
330
19
100
AcDbEntity
  8
4
100
AcDbLine
 10
453.8876768174632
 20
1387.666066057478
 30
0.0
 11
450.8876768174632
 21
1387.666066057478
 31
0.0
  0
LINE
  5
4FE
330
19
100
AcDbEntity
  8
4
100
AcDbLine
 10
453.8876768174632
 20
1363.666066057478
 30
0.0
 11
450.8876768174632
 21
1363.666066057478
 31
0.0
  0
LINE
  5
4FF
330
19
100
AcDbEntity
  8
4
100
AcDbLine
 10
453.8876768174632
 20
1387.666066057478
 30
0.0
 11
453.8876768174632
 21
1363.666066057478
 31
0.0
  0
LINE
  5
500
330
19
100
AcDbEntity
  8
4
100
AcDbLine
 10
450.8876768174632
 20
1363.666066057478
 30
0.0
 11
450.8876768174632
 21
1387.666066057478
 31
0.0
  0
ARC
  5
501
330
19
100
AcDbEntity
  8
4
100
AcDbCircle
 10
458.6875768174632
 20
1478.794241057477
 30
0.0
 40
10.0
100
AcDbArc
 50
90.0
 51
180.0
  0
ARC
  5
502
330
19
100
AcDbEntity
  8
2
  6
DASHED
100
AcDbCircle
 10
488.6875768174632
 20
1448.794241057477
 30
0.0
 40
12.0
100
AcDbArc
 50
135.5729959991965
 51
44.42700400080346
  0
LINE
  5
503
330
19
100
AcDbEntity
  8
L-CENTER
 48
2.0
100
AcDbLine
 10
488.6875768174632
 20
1472.091828030788
 30
0.0
 11
488.6875768174632
 21
1425.496654084166
 31
0.0
  0
ARC
  5
504
330
19
100
AcDbEntity
  8
4
100
AcDbCircle
 10
479.6875768174632
 20
1452.610501057477
 30
0.0
 40
4.583600000000001
100
AcDbArc
 50
49.11667400001003
 51
130.8813299999983
  0
ARC
  5
505
330
19
100
AcDbEntity
  8
4
100
AcDbCircle
 10
497.6875768174632
 20
1452.610501057477
 30
0.0
 40
4.583600000000001
100
AcDbArc
 50
49.11667400001003
 51
130.8813299999983
  0
ARC
  5
506
330
19
100
AcDbEntity
  8
4
100
AcDbCircle
 10
488.6875768174632
 20
1439.194241057477
 30
0.0
 40
17.999975
100
AcDbArc
 50
70.52866900000032
 51
109.4703399999997
  0
ARC
  5
507
330
19
100
AcDbEntity
  8
4
100
AcDbCircle
 10
472.6875768174632
 20
1444.194241057477
 30
0.0
 40
1.0
100
AcDbArc
 50
90.0
 51
180.0
  0
LINE
  5
508
330
19
100
AcDbEntity
  8
4
100
AcDbLine
 10
471.6875768174632
 20
1444.194241057477
 30
0.0
 11
471.6875768174632
 21
1423.194241057477
 31
0.0
  0
LINE
  5
509
330
19
100
AcDbEntity
  8
4
100
AcDbLine
 10
473.6875768174632
 20
1423.194241057477
 30
0.0
 11
473.6875768174632
 21
1419.794241057477
 31
0.0
  0
LINE
  5
50A
330
19
100
AcDbEntity
  8
4
100
AcDbLine
 10
482.6875768174632
 20
1448.194241057477
 30
0.0
 11
482.6875768174632
 21
1456.164701057477
 31
0.0
  0
LINE
  5
50B
330
19
100
AcDbEntity
  8
4
100
AcDbLine
 10
476.6875768174632
 20
1456.164701057477
 30
0.0
 11
476.6875768174632
 21
1448.194241057477
 31
0.0
  0
LINE
  5
50C
330
19
100
AcDbEntity
  8
4
100
AcDbLine
 10
494.6875768174632
 20
1448.194241057477
 30
0.0
 11
494.6875768174632
 21
1456.164701057477
 31
0.0
  0
LINE
  5
50D
330
19
100
AcDbEntity
  8
4
100
AcDbLine
 10
500.6875768174632
 20
1456.164701057477
 30
0.0
 11
500.6875768174632
 21
1448.194241057477
 31
0.0
  0
LINE
  5
50E
330
19
100
AcDbEntity
  8
4
100
AcDbLine
 10
500.6875768174632
 20
1448.194241057477
 30
0.0
 11
476.6875768174632
 21
1448.194241057477
 31
0.0
  0
LINE
  5
50F
330
19
100
AcDbEntity
  8
4
100
AcDbLine
 10
476.6875768174632
 20
1445.194241057477
 30
0.0
 11
500.6875768174632
 21
1445.194241057477
 31
0.0
  0
LINE
  5
510
330
19
100
AcDbEntity
  8
4
100
AcDbLine
 10
500.6875768174632
 20
1445.194241057477
 30
0.0
 11
500.6875768174632
 21
1448.194241057477
 31
0.0
  0
LINE
  5
511
330
19
100
AcDbEntity
  8
4
100
AcDbLine
 10
476.6875768174632
 20
1445.194241057477
 30
0.0
 11
476.6875768174632
 21
1448.194241057477
 31
0.0
  0
ARC
  5
512
330
19
100
AcDbEntity
  8
4
100
AcDbCircle
 10
488.6875768174632
 20
1448.794241057477
 30
0.0
 40
12.0
100
AcDbArc
 50
44.42700400080346
 51
135.5729959991965
  0
LINE
  5
513
330
19
100
AcDbEntity
  8
4
100
AcDbLine
 10
497.6875768174632
 20
1457.194241057477
 30
0.0
 11
479.6875768174632
 21
1457.194241057477
 31
0.0
  0
LINE
  5
514
330
19
100
AcDbEntity
  8
4
100
AcDbLine
 10
998.6875768174632
 20
1239.922416057477
 30
0.0
 11
998.6875768174632
 21
1148.794241057477
 31
0.0
  0
LINE
  5
515
330
19
100
AcDbEntity
  8
4
100
AcDbLine
 10
971.6875768174632
 20
1304.574696600184
 30
0.0
 11
971.6875768174632
 21
1208.794241057477
 31
0.0
  0
LINE
  5
516
330
19
100
AcDbEntity
  8
4
100
AcDbLine
 10
993.4875768174634
 20
1419.794241057477
 30
0.0
 11
993.4875768174629
 21
1207.794241057477
 31
0.0
  0
LINE
  5
517
330
19
100
AcDbEntity
  8
L-CENTER
 48
2.0
100
AcDbLine
 10
723.6875768174632
 20
1670.345538647902
 30
0.0
 11
723.6875768174632
 21
1120.102826341708
 31
0.0
  0
LINE
  5
518
330
19
100
AcDbEntity
  8
4
100
AcDbLine
 10
976.6875768174632
 20
1419.794241057477
 30
0.0
 11
976.6875768174632
 21
1207.794241057477
 31
0.0
  0
LINE
  5
519
330
19
100
AcDbEntity
  8
4
100
AcDbLine
 10
988.6875768174632
 20
1138.794241057477
 30
0.0
 11
903.6875768174632
 21
1138.794241057477
 31
0.0
  0
LINE
  5
51A
330
19
100
AcDbEntity
  8
4
100
AcDbLine
 10
799.3187030900881
 20
1151.79926750745
 30
0.0
 11
938.7043421110984
 21
1184.794241057477
 31
0.0
  0
LINE
  5
51B
330
19
100
AcDbEntity
  8
4
100
AcDbLine
 10
939.88706341945
 20
1184.794241057477
 30
0.0
 11
805.7142559411604
 21
1151.616965026482
 31
0.0
  0
LINE
  5
51C
330
19
100
AcDbEntity
  8
4
100
AcDbLine
 10
799.3187030900881
 20
1153.794241057477
 30
0.0
 11
930.2766747065807
 21
1184.794241057477
 31
0.0
  0
LINE
  5
525
330
19
100
AcDbEntity
  8
4
100
AcDbLine
 10
666.0253916297916
 20
1151.79926750745
 30
0.0
 11
781.3497620051344
 21
1151.79926750745
 31
0.0
  0
LINE
  5
526
330
19
100
AcDbEntity
  8
4
100
AcDbLine
 10
801.1875768174627
 20
1130.794241057477
 30
0.0
 11
646.1875768174627
 21
1130.794241057477
 31
0.0
  0
LINE
  5
527
330
19
100
AcDbEntity
  8
4
100
AcDbLine
 10
648.0564505448383
 20
1153.794241057477
 30
0.0
 11
517.0984789283457
 21
1184.794241057477
 31
0.0
  0
LINE
  5
528
330
19
100
AcDbEntity
  8
4
100
AcDbLine
 10
507.4880902154764
 20
1184.794241057477
 30
0.0
 11
641.660897693766
 21
1151.616965026482
 31
0.0
  0
LINE
  5
529
330
19
100
AcDbEntity
  8
4
100
AcDbLine
 10
648.0564505448383
 20
1151.79926750745
 30
0.0
 11
508.670811523828
 21
1184.794241057477
 31
0.0
  0
LINE
  5
52A
330
19
100
AcDbEntity
  8
4
100
AcDbLine
 10
553.6875768174632
 20
1173.370368006804
 30
0.0
 11
553.6875768174632
 21
1148.794241057477
 31
0.0
  0
ARC
  5
52B
330
19
100
AcDbEntity
  8
4
100
AcDbCircle
 10
543.6875768174632
 20
1148.794241057477
 30
0.0
 40
10.0
100
AcDbArc
 50
270.0
 51
0.0
  0
LINE
  5
530
330
19
100
AcDbEntity
  8
4
100
AcDbLine
 10
666.0253916297911
 20
1153.794241057477
 30
0.0
 11
648.0564505448383
 21
1153.794241057477
 31
0.0
  0
ARC
  5
536
330
19
100
AcDbEntity
  8
4
100
AcDbCircle
 10
639.2924882120815
 20
1150.128384227771
 30
0.0
 40
2.0
100
AcDbArc
 50
14.03624346792646
 51
76.89891387042832
  0
LINE
  5
537
330
19
100
AcDbEntity
  8
4
100
AcDbLine
 10
648.0564505448383
 20
1151.79926750745
 30
0.0
 11
648.0564505448383
 21
1153.794241057477
 31
0.0
  0
LINE
  5
538
330
19
100
AcDbEntity
  8
4
100
AcDbLine
 10
648.0564505448383
 20
1151.79926750745
 30
0.0
 11
640.3916465563098
 21
1151.79926750745
 31
0.0
  0
LINE
  5
539
330
19
100
AcDbEntity
  8
4
100
AcDbLine
 10
646.1875768174632
 20
1130.794241057477
 30
0.0
 11
641.2327732123722
 21
1150.613455477843
 31
0.0
  0
LINE
  5
53E
330
19
100
AcDbEntity
  8
4
100
AcDbLine
 10
680.7032556240343
 20
1184.794241057477
 30
0.0
 11
666.0253916297916
 21
1151.79926750745
 31
0.0
  0
LINE
  5
53F
330
19
100
AcDbEntity
  8
4
100
AcDbLine
 10
679.8157886165216
 20
1184.794241057477
 30
0.0
 11
666.0253916297916
 21
1153.794241057477
 31
0.0
  0
LINE
  5
540
330
19
100
AcDbEntity
  8
4
100
AcDbLine
 10
666.0253916297916
 20
1151.79926750745
 30
0.0
 11
666.0253916297916
 21
1153.794241057477
 31
0.0
  0
LINE
  5
55A
330
19
100
AcDbEntity
  8
4
100
AcDbLine
 10
781.3497620051353
 20
1153.794241057477
 30
0.0
 11
799.3187030900881
 21
1153.794241057477
 31
0.0
  0
LINE
  5
55B
330
19
100
AcDbEntity
  8
4
100
AcDbLine
 10
766.671898010892
 20
1184.794241057477
 30
0.0
 11
781.3497620051348
 21
1151.79926750745
 31
0.0
  0
LINE
  5
55C
330
19
100
AcDbEntity
  8
4
100
AcDbLine
 10
767.559365018403
 20
1184.794241057477
 30
0.0
 11
781.3497620051348
 21
1153.794241057477
 31
0.0
  0
LINE
  5
55D
330
19
100
AcDbEntity
  8
4
100
AcDbLine
 10
781.3497620051348
 20
1151.79926750745
 30
0.0
 11
781.3497620051348
 21
1153.794241057477
 31
0.0
  0
LINE
  5
55F
330
19
100
AcDbEntity
  8
4
100
AcDbLine
 10
799.3187030900881
 20
1151.79926750745
 30
0.0
 11
806.9835070786166
 21
1151.79926750745
 31
0.0
  0
LINE
  5
560
330
19
100
AcDbEntity
  8
4
100
AcDbLine
 10
799.3187030900881
 20
1151.79926750745
 30
0.0
 11
799.3187030900881
 21
1153.794241057477
 31
0.0
  0
ARC
  5
561
330
19
100
AcDbEntity
  8
4
100
AcDbCircle
 10
808.0826654228449
 20
1150.128384227771
 30
0.0
 40
2.0
100
AcDbArc
 50
103.1010861295717
 51
165.9637565320735
  0
LINE
  5
562
330
19
100
AcDbEntity
  8
4
100
AcDbLine
 10
801.1875768174632
 20
1130.794241057477
 30
0.0
 11
806.1423804225542
 21
1150.613455477843
 31
0.0
  0
LINE
  5
568
330
19
100
AcDbEntity
  8
4
100
AcDbLine
 10
893.6875768174632
 20
1173.370368006804
 30
0.0
 11
893.6875768174632
 21
1148.794241057477
 31
0.0
  0
ARC
  5
569
330
19
100
AcDbEntity
  8
4
100
AcDbCircle
 10
903.6875768174632
 20
1148.794241057477
 30
0.0
 40
10.0
100
AcDbArc
 50
180.0
 51
270.0
  0
LINE
  5
56A
330
19
100
AcDbEntity
  8
L-CENTER
 48
2.0
100
AcDbLine
 10
981.9851637907745
 20
1178.794241057477
 30
0.0
 11
935.3899898441518
 21
1178.794241057477
 31
0.0
  0
LINE
  5
56B
330
19
100
AcDbEntity
  8
L-CENTER
 48
2.0
100
AcDbLine
 10
958.6875768174632
 20
1155.496654084166
 30
0.0
 11
958.6875768174632
 21
1202.091828030789
 31
0.0
  0
ARC
  5
56C
330
19
100
AcDbEntity
  8
2
  6
DASHED
100
AcDbCircle
 10
958.6875768174632
 20
1178.794241057477
 30
0.0
 40
12.0
100
AcDbArc
 50
30.00000000000121
 51
149.9999999999988
  0
ARC
  5
56D
330
19
100
AcDbEntity
  8
4
100
AcDbCircle
 10
958.6875768174632
 20
1178.794241057477
 30
0.0
 40
12.0
100
AcDbArc
 50
149.9999999999988
 51
30.00000000000121
  0
LINE
  5
56E
330
19
100
AcDbEntity
  8
4
100
AcDbLine
 10
973.6875768174632
 20
1207.794241057477
 30
0.0
 11
973.6875768174632
 21
1184.794241057477
 31
0.0
  0
ARC
  5
56F
330
19
100
AcDbEntity
  8
4
100
AcDbCircle
 10
988.6875768174632
 20
1148.794241057477
 30
0.0
 40
10.0
100
AcDbArc
 50
270.0
 51
0.0
  0
LINE
  5
570
330
19
100
AcDbEntity
  8
4
100
AcDbLine
 10
988.6875768174632
 20
1488.794241057477
 30
0.0
 11
903.6875768174632
 21
1488.794241057477
 31
0.0
  0
LINE
  5
571
330
19
100
AcDbEntity
  8
4
100
AcDbLine
 10
807.3448683039051
 20
1476.899657770026
 30
0.0
 11
931.9018625317508
 21
1445.194241057492
 31
0.0
  0
LINE
  5
572
330
19
100
AcDbEntity
  8
4
100
AcDbLine
 10
805.6365685213982
 20
1479.398274241742
 30
0.0
 11
940.0095560309878
 21
1445.194241057493
 31
0.0
  0
LINE
  5
573
330
19
100
AcDbEntity
  8
4
100
AcDbLine
 10
684.6875768174632
 20
1504.794241057477
 30
0.0
 11
684.6875768174632
 21
1661.794241057477
 31
0.0
  0
LINE
  5
574
330
19
100
AcDbEntity
  8
4
100
AcDbLine
 10
733.6875768174632
 20
1663.794241057477
 30
0.0
 11
733.6875768174632
 21
1523.794241057477
 31
0.0
  0
LINE
  5
575
330
19
100
AcDbEntity
  8
4
100
AcDbLine
 10
762.6875768174632
 20
1504.794241057477
 30
0.0
 11
762.6875768174632
 21
1661.794241057477
 31
0.0
  0
LINE
  5
576
330
19
100
AcDbEntity
  8
4
100
AcDbLine
 10
713.6875768174632
 20
1663.794241057477
 30
0.0
 11
713.6875768174632
 21
1523.794241057477
 31
0.0
  0
ARC
  5
577
330
19
100
AcDbEntity
  8
4
100
AcDbCircle
 10
723.6875768174632
 20
1313.794241057477
 30
0.0
 40
20.0
100
AcDbArc
 50
203.5781784782018
 51
336.4218215217981
  0
ARC
  5
578
330
19
100
AcDbEntity
  8
4
100
AcDbCircle
 10
723.6875768174632
 20
1313.794241057477
 30
0.0
 40
16.0
100
AcDbArc
 50
30.00000000000014
 51
150.0000000000001
  0
ARC
  5
579
330
19
100
AcDbEntity
  8
4
100
AcDbCircle
 10
723.6875768174632
 20
1313.794241057477
 30
0.0
 40
16.0
100
AcDbArc
 50
209.9999999999999
 51
330.0000000000001
  0
LINE
  5
57A
330
19
100
AcDbEntity
  8
4
100
AcDbLine
 10
695.6875768174632
 20
1321.794241057477
 30
0.0
 11
751.6875768174632
 21
1321.794241057477
 31
0.0
  0
LINE
  5
57B
330
19
100
AcDbEntity
  8
4
100
AcDbLine
 10
695.6875768174632
 20
1305.794241057477
 30
0.0
 11
751.6875768174632
 21
1305.794241057477
 31
0.0
  0
ARC
  5
57C
330
19
100
AcDbEntity
  8
4
100
AcDbCircle
 10
723.6875768174632
 20
1313.794241057477
 30
0.0
 40
17.5
100
AcDbArc
 50
27.20289441221446
 51
152.7971055877856
  0
ARC
  5
57D
330
19
100
AcDbEntity
  8
4
100
AcDbCircle
 10
723.6875768174632
 20
1313.794241057477
 30
0.0
 40
17.5
100
AcDbArc
 50
207.2028944122144
 51
332.7971055877855
  0
ARC
  5
57E
330
19
100
AcDbEntity
  8
4
100
AcDbCircle
 10
723.6875768174632
 20
1313.794241057477
 30
0.0
 40
20.0
100
AcDbArc
 50
23.57817847820185
 51
156.4218215217982
  0
ARC
  5
57F
330
19
100
AcDbEntity
  8
4
100
AcDbCircle
 10
723.6875768174632
 20
1523.794241057477
 30
0.0
 40
10.0
100
AcDbArc
 50
180.0
 51
0.0
  0
LINE
  5
580
330
19
100
AcDbEntity
  8
4
100
AcDbLine
 10
683.6875768174632
 20
1503.794241057477
 30
0.0
 11
763.6875768174632
 21
1503.794241057477
 31
0.0
  0
LINE
  5
581
330
19
100
AcDbEntity
  8
4
100
AcDbLine
 10
743.6875768174632
 20
1464.194241057477
 30
0.0
 11
703.6875768174632
 21
1464.194241057477
 31
0.0
  0
LINE
  5
582
330
19
100
AcDbEntity
  8
4
100
AcDbLine
 10
703.6875768174632
 20
1450.621653948207
 30
0.0
 11
743.6875768174632
 21
1450.621653948192
 31
0.0
  0
LINE
  5
583
330
19
100
AcDbEntity
  8
4
100
AcDbLine
 10
646.1875768174632
 20
1497.194241057477
 30
0.0
 11
801.1875768174627
 21
1497.194241057477
 31
0.0
  0
LINE
  5
584
330
19
100
AcDbEntity
  8
4
100
AcDbLine
 10
673.6875768174632
 20
1498.194241057477
 30
0.0
 11
773.6875768174632
 21
1498.194241057477
 31
0.0
  0
LINE
  5
585
330
19
100
AcDbEntity
  8
4
100
AcDbLine
 10
666.1875768174632
 20
1479.194241057477
 30
0.0
 11
781.1875768174632
 21
1479.194241057477
 31
0.0
  0
LINE
  5
586
330
19
100
AcDbEntity
  8
L-CENTER
 48
2.0
100
AcDbLine
 10
606.1875768174627
 20
1407.819488192372
 30
0.0
 11
606.1875768174627
 21
1462.993571995468
 31
0.0
  0
LWPOLYLINE
  5
587
330
19
100
AcDbEntity
  8
4
100
AcDbPolyline
 90
        6
 70
     1
 43
0.0
 10
606.6875768174632
 20
1313.794241057477
 10
595.1875768174632
 20
1333.712825344519
 10
572.1875768174632
 20
1333.712825344519
 10
560.6875768174632
 20
1313.794241057477
 10
572.1875768174632
 20
1293.875656770435
 10
595.1875768174632
 20
1293.875656770435
  0
CIRCLE
  5
588
330
19
100
AcDbEntity
  8
4
100
AcDbCircle
 10
583.6875768174632
 20
1313.794241057477
 30
0.0
 40
23.0
  0
CIRCLE
  5
589
330
19
100
AcDbEntity
  8
4
100
AcDbCircle
 10
583.6875768174632
 20
1313.794241057477
 30
0.0
 40
25.0
  0
LINE
  5
58A
330
19
100
AcDbEntity
  8
L-CENTER
 48
2.0
100
AcDbLine
 10
583.6875768174632
 20
1347.51362933786
 30
0.0
 11
583.6875768174632
 21
1279.560728218341
 31
0.0
  0
ARC
  5
58B
330
19
100
AcDbEntity
  8
4
100
AcDbCircle
 10
695.6875768174632
 20
1313.794241057477
 30
0.0
 40
8.0
100
AcDbArc
 50
90.0
 51
270.0
  0
ARC
  5
58C
330
19
100
AcDbEntity
  8
4
100
AcDbCircle
 10
606.1875768174627
 20
1439.194241057477
 30
0.0
 40
17.999975
100
AcDbArc
 50
70.52866900000068
 51
109.4703400000002
  0
LINE
  5
58D
330
19
100
AcDbEntity
  8
4
100
AcDbLine
 10
615.1875768174627
 20
1457.194241057477
 30
0.0
 11
597.1875768174627
 21
1457.194241057477
 31
0.0
  0
LINE
  5
58E
330
19
100
AcDbEntity
  8
4
100
AcDbLine
 10
618.1875768174627
 20
1448.194241057477
 30
0.0
 11
594.1875768174627
 21
1448.194241057477
 31
0.0
  0
LINE
  5
58F
330
19
100
AcDbEntity
  8
4
100
AcDbLine
 10
594.1875768174627
 20
1445.194241057477
 30
0.0
 11
618.1875768174627
 21
1445.194241057477
 31
0.0
  0
LINE
  5
590
330
19
100
AcDbEntity
  8
4
100
AcDbLine
 10
641.7385851135277
 20
1479.398274241736
 30
0.0
 11
507.3655976039404
 21
1445.194241057477
 31
0.0
  0
LINE
  5
591
330
19
100
AcDbEntity
  8
4
100
AcDbLine
 10
640.0302853310209
 20
1476.89965777002
 30
0.0
 11
515.4732911031774
 21
1445.194241057477
 31
0.0
  0
LINE
  5
592
330
19
100
AcDbEntity
  8
4
100
AcDbLine
 10
588.6875768174632
 20
1470.194241057477
 30
0.0
 11
538.6875768174632
 21
1470.194241057477
 31
0.0
  0
LINE
  5
593
330
19
100
AcDbEntity
  8
4
100
AcDbLine
 10
538.6875768174632
 20
1470.194241057477
 30
0.0
 11
538.6875768174632
 21
1453.339695602931
 31
0.0
  0
ARC
  5
594
330
19
100
AcDbEntity
  8
4
100
AcDbCircle
 10
543.6875768174632
 20
1478.794241057477
 30
0.0
 40
10.0
100
AcDbArc
 50
0.0
 51
90.0
  0
LINE
  5
595
330
19
100
AcDbEntity
  8
4
100
AcDbLine
 10
553.6875768174632
 20
1478.794241057477
 30
0.0
 11
553.6875768174632
 21
1470.194241057477
 31
0.0
  0
ARC
  5
596
330
19
100
AcDbEntity
  8
4
100
AcDbCircle
 10
597.1875768174627
 20
1452.610501057477
 30
0.0
 40
4.583600000000001
100
AcDbArc
 50
49.11667400001003
 51
130.8813299999983
  0
LINE
  5
597
330
19
100
AcDbEntity
  8
4
100
AcDbLine
 10
594.1875768174627
 20
1456.164701057477
 30
0.0
 11
594.1875768174627
 21
1448.194241057477
 31
0.0
  0
LINE
  5
598
330
19
100
AcDbEntity
  8
4
100
AcDbLine
 10
600.1875768174627
 20
1448.194241057477
 30
0.0
 11
600.1875768174627
 21
1456.164701057477
 31
0.0
  0
LINE
  5
599
330
19
100
AcDbEntity
  8
4
100
AcDbLine
 10
594.1875768174627
 20
1445.194241057477
 30
0.0
 11
594.1875768174627
 21
1448.194241057477
 31
0.0
  0
LINE
  5
59A
330
19
100
AcDbEntity
  8
4
100
AcDbLine
 10
588.6875768174632
 20
1470.194241057477
 30
0.0
 11
588.6875768174632
 21
1465.89438122092
 31
0.0
  0
LINE
  5
59B
330
19
100
AcDbEntity
  8
4
100
AcDbLine
 10
641.5003503252447
 20
1477.194241057477
 30
0.0
 11
666.1875768174632
 21
1477.194241057477
 31
0.0
  0
ARC
  5
59C
330
19
100
AcDbEntity
  8
4
100
AcDbCircle
 10
615.1875768174627
 20
1452.610501057477
 30
0.0
 40
4.583600000000001
100
AcDbArc
 50
49.11667400001003
 51
130.8813299999983
  0
LINE
  5
59D
330
19
100
AcDbEntity
  8
4
100
AcDbLine
 10
618.1875768174627
 20
1456.164701057477
 30
0.0
 11
618.1875768174627
 21
1448.194241057477
 31
0.0
  0
LINE
  5
59E
330
19
100
AcDbEntity
  8
4
100
AcDbLine
 10
612.1875768174627
 20
1448.194241057477
 30
0.0
 11
612.1875768174627
 21
1456.164701057477
 31
0.0
  0
LINE
  5
59F
330
19
100
AcDbEntity
  8
4
100
AcDbLine
 10
618.1875768174627
 20
1445.194241057477
 30
0.0
 11
618.1875768174627
 21
1448.194241057477
 31
0.0
  0
ARC
  5
5A0
330
19
100
AcDbEntity
  8
4
100
AcDbCircle
 10
639.5369267697511
 20
1478.837852117865
 30
0.0
 40
2.0
100
AcDbArc
 50
284.2810957359712
 51
345.9637565320933
  0
LINE
  5
5A1
330
19
100
AcDbEntity
  8
4
100
AcDbLine
 10
646.1875768174632
 20
1497.194241057477
 30
0.0
 11
641.4772117700418
 21
1478.352780867792
 31
0.0
  0
LINE
  5
5A2
330
19
100
AcDbEntity
  8
4
100
AcDbLine
 10
703.6875768174632
 20
1464.194241057477
 30
0.0
 11
703.6875768174632
 21
1450.621653948207
 31
0.0
  0
LINE
  5
5A3
330
19
100
AcDbEntity
  8
4
100
AcDbLine
 10
666.1875768174632
 20
1479.194241057477
 30
0.0
 11
680.7590053888921
 21
1445.194241057477
 31
0.0
  0
LINE
  5
5A4
330
19
100
AcDbEntity
  8
4
100
AcDbLine
 10
666.1875768174632
 20
1477.194241057477
 30
0.0
 11
679.901862531749
 21
1445.194241057477
 31
0.0
  0
LINE
  5
5A5
330
19
100
AcDbEntity
  8
4
100
AcDbLine
 10
683.6875768174632
 20
1498.194241057477
 30
0.0
 11
683.6875768174632
 21
1503.794241057477
 31
0.0
  0
ARC
  5
5A6
330
19
100
AcDbEntity
  8
4
100
AcDbCircle
 10
683.6875768174632
 20
1504.794241057477
 30
0.0
 40
1.0
100
AcDbArc
 50
270.0
 51
0.0
  0
LINE
  5
5A7
330
19
100
AcDbEntity
  8
4
100
AcDbLine
 10
683.6875768174632
 20
1503.794241057477
 30
0.0
 11
683.6875768174632
 21
1503.794241057477
 31
0.0
  0
LINE
  5
5A8
330
19
100
AcDbEntity
  8
4
100
AcDbLine
 10
673.6875768174632
 20
1498.194241057477
 30
0.0
 11
673.6875768174632
 21
1497.194241057477
 31
0.0
  0
LINE
  5
5A9
330
19
100
AcDbEntity
  8
4
100
AcDbLine
 10
666.1875768174632
 20
1477.194241057477
 30
0.0
 11
666.1875768174632
 21
1479.194241057477
 31
0.0
  0
LINE
  5
5AA
330
19
100
AcDbEntity
  8
L-CENTER
 48
2.0
100
AcDbLine
 10
841.1875768174637
 20
1407.819488192372
 30
0.0
 11
841.1875768174637
 21
1462.993571995468
 31
0.0
  0
ARC
  5
5AB
330
19
100
AcDbEntity
  8
4
100
AcDbCircle
 10
751.6875768174632
 20
1313.794241057477
 30
0.0
 40
8.0
100
AcDbArc
 50
270.0
 51
90.0
  0
LINE
  5
5AC
330
19
100
AcDbEntity
  8
4
100
AcDbLine
 10
781.1875768174632
 20
1477.194241057477
 30
0.0
 11
767.4732911031774
 21
1445.194241057477
 31
0.0
  0
LINE
  5
5AD
330
19
100
AcDbEntity
  8
4
100
AcDbLine
 10
781.1875768174632
 20
1479.194241057477
 30
0.0
 11
766.6161482460343
 21
1445.194241057477
 31
0.0
  0
LINE
  5
5AE
330
19
100
AcDbEntity
  8
4
100
AcDbLine
 10
743.6875768174632
 20
1464.194241057477
 30
0.0
 11
743.6875768174632
 21
1450.621653948192
 31
0.0
  0
LINE
  5
5AF
330
19
100
AcDbEntity
  8
4
100
AcDbLine
 10
763.6875768174632
 20
1498.194241057477
 30
0.0
 11
763.6875768174632
 21
1503.794241057477
 31
0.0
  0
LINE
  5
5B0
330
19
100
AcDbEntity
  8
4
100
AcDbLine
 10
763.6875768174632
 20
1503.794241057477
 30
0.0
 11
763.6875768174632
 21
1503.794241057477
 31
0.0
  0
ARC
  5
5B1
330
19
100
AcDbEntity
  8
4
100
AcDbCircle
 10
763.6875768174632
 20
1504.794241057477
 30
0.0
 40
1.0
100
AcDbArc
 50
180.0
 51
270.0
  0
LINE
  5
5B2
330
19
100
AcDbEntity
  8
4
100
AcDbLine
 10
781.1875768174632
 20
1477.194241057477
 30
0.0
 11
805.8408683484504
 21
1477.194241057477
 31
0.0
  0
LINE
  5
5B3
330
19
100
AcDbEntity
  8
4
100
AcDbLine
 10
773.6875768174632
 20
1498.194241057477
 30
0.0
 11
773.6875768174637
 21
1497.194241057477
 31
0.0
  0
LINE
  5
5B4
330
19
100
AcDbEntity
  8
4
100
AcDbLine
 10
781.1875768174632
 20
1477.194241057477
 30
0.0
 11
781.1875768174632
 21
1479.194241057477
 31
0.0
  0
ARC
  5
5B5
330
19
100
AcDbEntity
  8
4
100
AcDbCircle
 10
807.8382268651749
 20
1478.837852117872
 30
0.0
 40
2.0
100
AcDbArc
 50
194.0362434679336
 51
255.7189042640288
  0
LINE
  5
5B6
330
19
100
AcDbEntity
  8
4
100
AcDbLine
 10
801.1875768174632
 20
1497.194241057477
 30
0.0
 11
805.8979418648828
 21
1478.352780867799
 31
0.0
  0
ARC
  5
5B7
330
19
100
AcDbEntity
  8
4
100
AcDbCircle
 10
841.1875768174637
 20
1439.194241057477
 30
0.0
 40
17.999975
100
AcDbArc
 50
70.52965999999977
 51
109.4713309999997
  0
ARC
  5
5B8
330
19
100
AcDbEntity
  8
4
100
AcDbCircle
 10
832.1875768174637
 20
1452.610501057477
 30
0.0
 40
4.583600000000001
100
AcDbArc
 50
49.11867000000167
 51
130.88332599999
  0
ARC
  5
5B9
330
19
100
AcDbEntity
  8
4
100
AcDbCircle
 10
850.1875768174637
 20
1452.610501057477
 30
0.0
 40
4.583600000000001
100
AcDbArc
 50
49.11867000000167
 51
130.88332599999
  0
LINE
  5
5BA
330
19
100
AcDbEntity
  8
4
100
AcDbLine
 10
853.1875768174637
 20
1445.194241057477
 30
0.0
 11
829.1875768174637
 21
1445.194241057477
 31
0.0
  0
LINE
  5
5BB
330
19
100
AcDbEntity
  8
4
100
AcDbLine
 10
829.1875768174637
 20
1448.194241057477
 30
0.0
 11
853.1875768174637
 21
1448.194241057477
 31
0.0
  0
LINE
  5
5BC
330
19
100
AcDbEntity
  8
4
100
AcDbLine
 10
847.1875768174637
 20
1448.194241057477
 30
0.0
 11
847.1875768174637
 21
1456.164701057477
 31
0.0
  0
LINE
  5
5BD
330
19
100
AcDbEntity
  8
4
100
AcDbLine
 10
829.1875768174637
 20
1456.164701057477
 30
0.0
 11
829.1875768174637
 21
1448.194241057477
 31
0.0
  0
LINE
  5
5BE
330
19
100
AcDbEntity
  8
4
100
AcDbLine
 10
835.1875768174637
 20
1448.194241057477
 30
0.0
 11
835.1875768174637
 21
1456.164701057477
 31
0.0
  0
LINE
  5
5BF
330
19
100
AcDbEntity
  8
4
100
AcDbLine
 10
829.1875768174637
 20
1445.194241057477
 30
0.0
 11
829.1875768174637
 21
1448.194241057477
 31
0.0
  0
LINE
  5
5C0
330
19
100
AcDbEntity
  8
4
100
AcDbLine
 10
853.1875768174637
 20
1456.164701057477
 30
0.0
 11
853.1875768174637
 21
1448.194241057477
 31
0.0
  0
LINE
  5
5C1
330
19
100
AcDbEntity
  8
4
100
AcDbLine
 10
853.1875768174637
 20
1445.194241057477
 30
0.0
 11
853.1875768174637
 21
1448.194241057477
 31
0.0
  0
LINE
  5
5C2
330
19
100
AcDbEntity
  8
4
100
AcDbLine
 10
832.1875768174637
 20
1457.194241057477
 30
0.0
 11
850.1875768174637
 21
1457.194241057477
 31
0.0
  0
ARC
  5
5C3
330
19
100
AcDbEntity
  8
4
100
AcDbCircle
 10
903.6875768174632
 20
1478.794241057477
 30
0.0
 40
10.0
100
AcDbArc
 50
90.0
 51
180.0
  0
LINE
  5
5C4
330
19
100
AcDbEntity
  8
4
100
AcDbLine
 10
893.6875768174632
 20
1478.794241057477
 30
0.0
 11
893.6875768174632
 21
1456.985290311841
 31
0.0
  0
LINE
  5
5C5
330
19
100
AcDbEntity
  8
4
100
AcDbLine
 10
686.6875768174632
 20
1663.794241057477
 30
0.0
 11
760.6875768174632
 21
1663.794241057477
 31
0.0
  0
LINE
  5
5C6
330
19
100
AcDbEntity
  8
4
100
AcDbLine
 10
684.6875768174632
 20
1661.794241057477
 30
0.0
 11
713.6875768174632
 21
1661.794241057477
 31
0.0
  0
LINE
  5
5C7
330
19
100
AcDbEntity
  8
4
100
AcDbLine
 10
684.6875768174632
 20
1661.794241057477
 30
0.0
 11
686.6875768174632
 21
1663.794241057477
 31
0.0
  0
LINE
  5
5C8
330
19
100
AcDbEntity
  8
4
100
AcDbLine
 10
733.6875768174632
 20
1661.794241057477
 30
0.0
 11
762.6875768174632
 21
1661.794241057477
 31
0.0
  0
LINE
  5
5C9
330
19
100
AcDbEntity
  8
4
100
AcDbLine
 10
762.6875768174632
 20
1661.794241057477
 30
0.0
 11
760.6875768174632
 21
1663.794241057477
 31
0.0
  0
LINE
  5
5CA
330
19
100
AcDbEntity
  8
4
100
AcDbLine
 10
998.6875768174632
 20
1478.794241057477
 30
0.0
 11
998.6875768174632
 21
1387.666066057477
 31
0.0
  0
LINE
  5
5CB
330
19
100
AcDbEntity
  8
L-CENTER
 48
2.0
100
AcDbLine
 10
958.6875768174632
 20
1407.819488192372
 30
0.0
 11
958.6875768174632
 21
1462.993571995468
 31
0.0
  0
LINE
  5
5CC
330
19
100
AcDbEntity
  8
4
100
AcDbLine
 10
971.6875768174632
 20
1418.794241057477
 30
0.0
 11
971.6875768174632
 21
1323.01378551477
 31
0.0
  0
CIRCLE
  5
5D1
330
19
100
AcDbEntity
  8
4
100
AcDbCircle
 10
965.6875768174632
 20
1313.794241057477
 30
0.0
 40
11.0
  0
LINE
  5
5D2
330
19
100
AcDbEntity
  8
L-CENTER
 48
2.0
100
AcDbLine
 10
965.6875768174632
 20
1331.234066701557
 30
0.0
 11
965.6875768174632
 21
1297.488789095299
 31
0.0
  0
LINE
  5
5D6
330
19
100
AcDbEntity
  8
L-CENTER
 48
2.0
100
AcDbLine
 10
1012.382513290863
 20
1251.922416057477
 30
0.0
 11
963.9547981581054
 21
1251.922416057477
 31
0.0
  0
LINE
  5
5D7
330
19
100
AcDbEntity
  8
4
100
AcDbLine
 10
993.487481817463
 20
1263.922416057477
 30
0.0
 11
993.487481817463
 21
1239.922416057477
 31
0.0
  0
LINE
  5
5D8
330
19
100
AcDbEntity
  8
4
100
AcDbLine
 10
996.487481817463
 20
1239.922416057477
 30
0.0
 11
996.487481817463
 21
1263.922416057477
 31
0.0
  0
ARC
  5
5D9
330
19
100
AcDbEntity
  8
4
100
AcDbCircle
 10
1000.903741817463
 20
1260.922416057477
 30
0.0
 40
4.58369
100
AcDbArc
 50
319.1186700000006
 51
40.88132999999934
  0
ARC
  5
5DA
330
19
100
AcDbEntity
  8
4
100
AcDbCircle
 10
1000.903741817463
 20
1242.922416057477
 30
0.0
 40
4.58369
100
AcDbArc
 50
319.1186700000006
 51
40.88132999999934
  0
LINE
  5
5DB
330
19
100
AcDbEntity
  8
4
100
AcDbLine
 10
993.487481817463
 20
1239.922416057477
 30
0.0
 11
996.487481817463
 21
1239.922416057477
 31
0.0
  0
LINE
  5
5DC
330
19
100
AcDbEntity
  8
4
100
AcDbLine
 10
1004.457936817463
 20
1239.922416057477
 30
0.0
 11
996.487481817463
 21
1239.922416057477
 31
0.0
  0
ARC
  5
5DD
330
19
100
AcDbEntity
  8
4
100
AcDbCircle
 10
987.487481817463
 20
1251.922416057477
 30
0.0
 40
18.00009
100
AcDbArc
 50
340.5289280000003
 51
19.47033699999977
  0
LINE
  5
5DE
330
19
100
AcDbEntity
  8
4
100
AcDbLine
 10
996.487481817463
 20
1245.922416057477
 30
0.0
 11
1004.457936817463
 21
1245.922416057477
 31
0.0
  0
LINE
  5
5DF
330
19
100
AcDbEntity
  8
4
100
AcDbLine
 10
996.487481817463
 20
1257.922416057477
 30
0.0
 11
1004.457936817463
 21
1257.922416057477
 31
0.0
  0
LINE
  5
5E0
330
19
100
AcDbEntity
  8
4
100
AcDbLine
 10
1005.487481817463
 20
1242.922416057477
 30
0.0
 11
1005.487481817463
 21
1260.922416057477
 31
0.0
  0
LINE
  5
5E2
330
19
100
AcDbEntity
  8
4
100
AcDbLine
 10
998.6875768174632
 20
1363.666066057478
 30
0.0
 11
998.6875768174632
 21
1263.922416057477
 31
0.0
  0
LINE
  5
5E4
330
19
100
AcDbEntity
  8
4
100
AcDbLine
 10
993.487481817463
 20
1263.922416057477
 30
0.0
 11
996.487481817463
 21
1263.922416057477
 31
0.0
  0
LINE
  5
5E5
330
19
100
AcDbEntity
  8
4
100
AcDbLine
 10
1004.457936817463
 20
1263.922416057477
 30
0.0
 11
996.487481817463
 21
1263.922416057477
 31
0.0
  0
LINE
  5
5E7
330
19
100
AcDbEntity
  8
L-CENTER
 48
2.0
100
AcDbLine
 10
1012.382513290863
 20
1375.666066057478
 30
0.0
 11
963.9547981581054
 21
1375.666066057477
 31
0.0
  0
LINE
  5
5EC
330
19
100
AcDbEntity
  8
4
100
AcDbLine
 10
993.487481817463
 20
1387.666066057478
 30
0.0
 11
996.487481817463
 21
1387.666066057478
 31
0.0
  0
ARC
  5
5ED
330
19
100
AcDbEntity
  8
4
100
AcDbCircle
 10
1000.903741817463
 20
1384.666066057478
 30
0.0
 40
4.583600000000001
100
AcDbArc
 50
319.1186699999987
 51
40.88332600000215
  0
LINE
  5
5EE
330
19
100
AcDbEntity
  8
4
100
AcDbLine
 10
1005.487481817463
 20
1384.666066057478
 30
0.0
 11
1005.487481817463
 21
1366.666066057478
 31
0.0
  0
ARC
  5
5EF
330
19
100
AcDbEntity
  8
4
100
AcDbCircle
 10
987.487481817463
 20
1375.666066057478
 30
0.0
 40
17.999975
100
AcDbArc
 50
340.5296599999995
 51
19.47133099999955
  0
LINE
  5
5F0
330
19
100
AcDbEntity
  8
4
100
AcDbLine
 10
996.487481817463
 20
1369.666066057478
 30
0.0
 11
1004.457936817463
 21
1369.666066057478
 31
0.0
  0
LINE
  5
5F1
330
19
100
AcDbEntity
  8
4
100
AcDbLine
 10
996.487481817463
 20
1381.666066057478
 30
0.0
 11
1004.457936817463
 21
1381.666066057478
 31
0.0
  0
LINE
  5
5F2
330
19
100
AcDbEntity
  8
4
100
AcDbLine
 10
1004.457936817463
 20
1387.666066057478
 30
0.0
 11
996.487481817463
 21
1387.666066057478
 31
0.0
  0
LINE
  5
5F3
330
19
100
AcDbEntity
  8
4
100
AcDbLine
 10
993.487481817463
 20
1363.666066057478
 30
0.0
 11
996.487481817463
 21
1363.666066057478
 31
0.0
  0
LINE
  5
5F4
330
19
100
AcDbEntity
  8
4
100
AcDbLine
 10
1004.457936817463
 20
1363.666066057478
 30
0.0
 11
996.487481817463
 21
1363.666066057478
 31
0.0
  0
LINE
  5
5F5
330
19
100
AcDbEntity
  8
4
100
AcDbLine
 10
993.487481817463
 20
1363.666066057478
 30
0.0
 11
993.487481817463
 21
1387.666066057478
 31
0.0
  0
LINE
  5
5F6
330
19
100
AcDbEntity
  8
4
100
AcDbLine
 10
996.487481817463
 20
1387.666066057478
 30
0.0
 11
996.487481817463
 21
1363.666066057478
 31
0.0
  0
ARC
  5
5F7
330
19
100
AcDbEntity
  8
4
100
AcDbCircle
 10
1000.903741817463
 20
1366.666066057478
 30
0.0
 40
4.583600000000001
100
AcDbArc
 50
319.1186699999917
 51
40.88332599999197
  0
LINE
  5
5FD
330
19
100
AcDbEntity
  8
L-CENTER
 48
2.0
100
AcDbLine
 10
981.9851637907745
 20
1448.794241057477
 30
0.0
 11
935.3899898441518
 21
1448.794241057477
 31
0.0
  0
ARC
  5
5FE
330
19
100
AcDbEntity
  8
2
  6
DASHED
100
AcDbCircle
 10
958.6875768174632
 20
1448.794241057477
 30
0.0
 40
12.0
100
AcDbArc
 50
135.5729959991965
 51
44.42700400080346
  0
LINE
  5
5FF
330
19
100
AcDbEntity
  8
L-CENTER
 48
2.0
100
AcDbLine
 10
958.6875768174632
 20
1472.091828030788
 30
0.0
 11
958.6875768174632
 21
1425.496654084166
 31
0.0
  0
ARC
  5
600
330
19
100
AcDbEntity
  8
4
100
AcDbCircle
 10
958.6875768174632
 20
1439.194241057477
 30
0.0
 40
17.999975
100
AcDbArc
 50
70.52965999999977
 51
109.4713309999997
  0
ARC
  5
601
330
19
100
AcDbEntity
  8
4
100
AcDbCircle
 10
949.6875768174632
 20
1452.610501057477
 30
0.0
 40
4.583600000000001
100
AcDbArc
 50
49.11867000000167
 51
130.8833260000001
  0
ARC
  5
602
330
19
100
AcDbEntity
  8
4
100
AcDbCircle
 10
967.6875768174632
 20
1452.610501057477
 30
0.0
 40
4.583600000000001
100
AcDbArc
 50
49.11867000000167
 51
130.8833260000001
  0
LINE
  5
603
330
19
100
AcDbEntity
  8
4
100
AcDbLine
 10
946.6875768174632
 20
1448.194241057477
 30
0.0
 11
970.6875768174632
 21
1448.194241057477
 31
0.0
  0
LINE
  5
604
330
19
100
AcDbEntity
  8
4
100
AcDbLine
 10
970.6875768174632
 20
1445.194241057477
 30
0.0
 11
946.6875768174632
 21
1445.194241057477
 31
0.0
  0
LINE
  5
605
330
19
100
AcDbEntity
  8
4
100
AcDbLine
 10
946.6875768174632
 20
1456.164701057477
 30
0.0
 11
946.6875768174632
 21
1448.194241057477
 31
0.0
  0
LINE
  5
606
330
19
100
AcDbEntity
  8
4
100
AcDbLine
 10
952.6875768174632
 20
1448.194241057477
 30
0.0
 11
952.6875768174632
 21
1456.164701057477
 31
0.0
  0
LINE
  5
607
330
19
100
AcDbEntity
  8
4
100
AcDbLine
 10
946.6875768174632
 20
1445.194241057477
 30
0.0
 11
946.6875768174632
 21
1448.194241057477
 31
0.0
  0
LINE
  5
608
330
19
100
AcDbEntity
  8
4
100
AcDbLine
 10
970.6875768174632
 20
1456.164701057477
 30
0.0
 11
970.6875768174632
 21
1448.194241057477
 31
0.0
  0
LINE
  5
609
330
19
100
AcDbEntity
  8
4
100
AcDbLine
 10
964.6875768174632
 20
1448.194241057477
 30
0.0
 11
964.6875768174632
 21
1456.164701057477
 31
0.0
  0
LINE
  5
60A
330
19
100
AcDbEntity
  8
4
100
AcDbLine
 10
970.6875768174632
 20
1445.194241057477
 30
0.0
 11
970.6875768174632
 21
1448.194241057477
 31
0.0
  0
ARC
  5
60B
330
19
100
AcDbEntity
  8
4
100
AcDbCircle
 10
974.6875768174632
 20
1444.194241057477
 30
0.0
 40
1.0
100
AcDbArc
 50
0.0
 51
90.0
  0
LINE
  5
60C
330
19
100
AcDbEntity
  8
4
100
AcDbLine
 10
975.6875768174632
 20
1444.194241057477
 30
0.0
 11
975.6875768174632
 21
1423.194241057477
 31
0.0
  0
LINE
  5
60D
330
19
100
AcDbEntity
  8
4
100
AcDbLine
 10
973.6875768174632
 20
1423.194241057477
 30
0.0
 11
973.6875768174632
 21
1419.794241057477
 31
0.0
  0
ARC
  5
60E
330
19
100
AcDbEntity
  8
4
100
AcDbCircle
 10
958.6875768174632
 20
1448.794241057477
 30
0.0
 40
12.0
100
AcDbArc
 50
44.42700400080346
 51
135.5729959991965
  0
LINE
  5
60F
330
19
100
AcDbEntity
  8
4
100
AcDbLine
 10
949.6875768174632
 20
1457.194241057477
 30
0.0
 11
967.6875768174632
 21
1457.194241057477
 31
0.0
  0
ARC
  5
610
330
19
100
AcDbEntity
  8
4
100
AcDbCircle
 10
988.6875768174632
 20
1478.794241057477
 30
0.0
 40
10.0
100
AcDbArc
 50
0.0
 51
90.0
  0
LINE
  5
62F
330
19
100
AcDbEntity
  8
4
100
AcDbLine
 10
941.6875768174632
 20
1208.794241057477
 30
0.0
 11
941.6875768174632
 21
1206.794241057477
 31
0.0
  0
LINE
  5
630
330
19
100
AcDbEntity
  8
4
100
AcDbLine
 10
793.6875768174605
 20
1208.794241057477
 30
0.0
 11
793.6875768174605
 21
1206.794241057477
 31
0.0
  0
LINE
  5
632
330
19
100
AcDbEntity
  8
4
100
AcDbLine
 10
795.6875768174605
 20
1204.794241057477
 30
0.0
 11
939.6875768174632
 21
1204.794241057477
 31
0.0
  0
ARC
  5
633
330
19
100
AcDbEntity
  8
4
100
AcDbCircle
 10
795.6875768174605
 20
1206.794241057477
 30
0.0
 40
2.0
100
AcDbArc
 50
180.0
 51
270.0
  0
ARC
  5
634
330
19
100
AcDbEntity
  8
4
100
AcDbCircle
 10
939.6875768174632
 20
1206.794241057477
 30
0.0
 40
2.0
100
AcDbArc
 50
270.0
 51
0.0
  0
LINE
  5
635
330
19
100
AcDbEntity
  8
4
100
AcDbLine
 10
941.6875768174632
 20
1207.794241057477
 30
0.0
 11
993.4875768174634
 21
1207.794241057477
 31
0.0
  0
LINE
  5
636
330
19
100
AcDbEntity
  8
4
100
AcDbLine
 10
421.1875768174632
 20
1306.294241057477
 30
0.0
 11
318.6875768174632
 21
1306.294241057477
 31
0.0
  0
LINE
  5
637
330
19
100
AcDbEntity
  8
4
100
AcDbLine
 10
421.1875768174632
 20
1321.294241057477
 30
0.0
 11
318.6875768174632
 21
1321.294241057477
 31
0.0
  0
LINE
  5
638
330
19
100
AcDbEntity
  8
4
100
AcDbLine
 10
436.6875768174632
 20
1284.794241057477
 30
0.0
 11
320.6875768174632
 21
1284.794241057477
 31
0.0
  0
LINE
  5
639
330
19
100
AcDbEntity
  8
4
100
AcDbLine
 10
436.6875768174632
 20
1342.794241057477
 30
0.0
 11
320.6875768174632
 21
1342.794241057477
 31
0.0
  0
ARC
  5
63A
330
19
100
AcDbEntity
  8
4
100
AcDbCircle
 10
421.1875768174632
 20
1313.794241057477
 30
0.0
 40
7.5
100
AcDbArc
 50
270.0
 51
90.0
  0
LINE
  5
63B
330
19
100
AcDbEntity
  8
4
100
AcDbLine
 10
438.6875768174632
 20
1346.294241057477
 30
0.0
 11
438.6875768174632
 21
1281.294241057477
 31
0.0
  0
LINE
  5
63C
330
19
100
AcDbEntity
  8
4
100
AcDbLine
 10
452.8876718174633
 20
1358.794241057477
 30
0.0
 11
452.8876718174633
 21
1268.794241057477
 31
0.0
  0
LINE
  5
63D
330
19
100
AcDbEntity
  8
4
100
AcDbLine
 10
452.8876718174633
 20
1281.294241057477
 30
0.0
 11
438.6875768174632
 21
1281.294241057477
 31
0.0
  0
LINE
  5
63E
330
19
100
AcDbEntity
  8
4
100
AcDbLine
 10
453.8876718174633
 20
1268.794241057477
 30
0.0
 11
452.8876718174633
 21
1268.794241057477
 31
0.0
  0
ARC
  5
63F
330
19
100
AcDbEntity
  8
4
100
AcDbCircle
 10
436.6875768174632
 20
1282.794241057477
 30
0.0
 40
2.0
100
AcDbArc
 50
0.0
 51
90.0
  0
LINE
  5
640
330
19
100
AcDbEntity
  8
4
100
AcDbLine
 10
452.8876718174633
 20
1346.294241057477
 30
0.0
 11
438.6875768174632
 21
1346.294241057477
 31
0.0
  0
LINE
  5
641
330
19
100
AcDbEntity
  8
4
100
AcDbLine
 10
452.8876718174633
 20
1358.794241057477
 30
0.0
 11
453.8876718174633
 21
1358.794241057477
 31
0.0
  0
ARC
  5
642
330
19
100
AcDbEntity
  8
4
100
AcDbCircle
 10
436.6875768174632
 20
1344.794241057477
 30
0.0
 40
2.0
100
AcDbArc
 50
270.0
 51
0.0
  0
LINE
  5
643
330
19
100
AcDbEntity
  8
4
100
AcDbLine
 10
318.6875768174632
 20
1340.794241057477
 30
0.0
 11
318.6875768174632
 21
1286.794241057477
 31
0.0
  0
LINE
  5
644
330
19
100
AcDbEntity
  8
4
100
AcDbLine
 10
320.6875768174632
 20
1284.794241057477
 30
0.0
 11
318.6875768174632
 21
1286.794241057477
 31
0.0
  0
LINE
  5
645
330
19
100
AcDbEntity
  8
4
100
AcDbLine
 10
320.6875768174632
 20
1306.294241057477
 30
0.0
 11
320.6875768174632
 21
1284.794241057477
 31
0.0
  0
LINE
  5
646
330
19
100
AcDbEntity
  8
4
100
AcDbLine
 10
320.6875768174632
 20
1342.794241057477
 30
0.0
 11
318.6875768174632
 21
1340.794241057477
 31
0.0
  0
LINE
  5
647
330
19
100
AcDbEntity
  8
4
100
AcDbLine
 10
320.6875768174632
 20
1342.794241057477
 30
0.0
 11
320.6875768174632
 21
1321.294241057477
 31
0.0
  0
LINE
  5
64A
330
19
100
AcDbEntity
  8
4
100
AcDbLine
 10
448.6875768174632
 20
1281.294241057477
 30
0.0
 11
448.6875768174632
 21
1263.922416057477
 31
0.0
  0
CIRCLE
  5
67D
330
19
100
AcDbEntity
  8
4
100
AcDbCircle
 10
1583.973201453795
 20
589.6618199399068
 30
0.0
 40
68.0
  0
LINE
  5
686
330
19
100
AcDbEntity
  8
L-CENTER
 48
2.0
100
AcDbLine
 10
175.4004820504762
 20
589.6618199399068
 30
0.0
 11
258.8014733448646
 21
589.6618199399068
 31
0.0
  0
LINE
  5
687
330
19
100
AcDbEntity
  8
4
100
AcDbLine
 10
224.6009776976704
 20
623.6618199399068
 30
0.0
 11
209.6009776976704
 21
623.6618199399068
 31
0.0
  0
LINE
  5
688
330
19
100
AcDbEntity
  8
4
100
AcDbLine
 10
209.6009776976704
 20
613.6618199399068
 30
0.0
 11
224.6009776976704
 21
613.6618199399068
 31
0.0
  0
ARC
  5
689
330
19
100
AcDbEntity
  8
4
100
AcDbCircle
 10
217.1009776976704
 20
589.6618199399068
 30
0.0
 40
29.0
100
AcDbArc
 50
104.9882344823051
 51
75.01176900000095
  0
LINE
  5
68A
330
19
100
AcDbEntity
  8
L-CENTER
 48
2.0
100
AcDbLine
 10
217.1009776976704
 20
547.9613242927126
 30
0.0
 11
217.1009776976704
 21
631.362315587101
 31
0.0
  0
LINE
  5
68C
330
19
100
AcDbEntity
  8
4
100
AcDbLine
 10
209.6009776976704
 20
613.6618199399068
 30
0.0
 11
209.6009776976704
 21
623.6618199399068
 31
0.0
  0
LINE
  5
68E
330
19
100
AcDbEntity
  8
4
100
AcDbLine
 10
224.6009776976704
 20
613.6618199399068
 30
0.0
 11
224.6009776976704
 21
623.6618199399068
 31
0.0
  0
LINE
  5
691
330
19
100
AcDbEntity
  8
L-CENTER
 48
2.0
100
AcDbLine
 10
2081.02699688441
 20
283.1146349399069
 30
0.0
 11
2081.02699688441
 21
396.2090049399067
 31
0.0
  0
LINE
  5
692
330
19
100
AcDbEntity
  8
4
100
AcDbLine
 10
2091.02699688441
 20
371.6618199399068
 30
0.0
 11
2091.02699688441
 21
384.6618199399068
 31
0.0
  0
LINE
  5
693
330
19
100
AcDbEntity
  8
4
100
AcDbLine
 10
2071.02699688441
 20
371.6618199399068
 30
0.0
 11
2071.02699688441
 21
384.6618199399068
 31
0.0
  0
ARC
  5
696
330
19
100
AcDbEntity
  8
4
100
AcDbCircle
 10
2081.02699688441
 20
339.6618199399068
 30
0.0
 40
38.99999
100
AcDbArc
 50
104.8571694421992
 51
75.14283299999987
  0
LINE
  5
697
330
19
100
AcDbEntity
  8
L-CENTER
 48
2.0
100
AcDbLine
 10
2137.57418188441
 20
339.6618199399068
 30
0.0
 11
2024.47981188441
 21
339.6618199399068
 31
0.0
  0
LINE
  5
699
330
19
100
AcDbEntity
  8
4
100
AcDbLine
 10
2071.02699688441
 20
371.6618199399068
 30
0.0
 11
2091.02699688441
 21
371.6618199399068
 31
0.0
  0
LINE
  5
69B
330
19
100
AcDbEntity
  8
4
100
AcDbLine
 10
2091.02699688441
 20
384.6618199399068
 30
0.0
 11
2071.02699688441
 21
384.6618199399068
 31
0.0
  0
ENDSEC
  0
SECTION
  2
OBJECTS
  0
DICTIONARY
  5
9
330
0
100
AcDbDictionary
281
     1
  3
ACAD_COLOR
350
2E
  3
ACAD_GROUP
350
2C
  3
ACAD_LAYOUT
350
22
  3
ACAD_MATERIAL
350
B
  3
ACAD_MLEADERSTYLE
350
614
  3
ACAD_MLINESTYLE
350
17
  3
ACAD_PLOTSETTINGS
350
2D
  3
ACAD_PLOTSTYLENAME
350
8
  3
ACAD_SCALELIST
350
36
  3
ACAD_TABLESTYLE
350
613
  3
ACAD_VISUALSTYLE
350
2F
  3
ACDBHEADERROUNDTRIPXREC
350
6A0
  3
AcDbVariableDictionary
350
611
  3
DWGPROPS
350
6A3
  0
DICTIONARY
  5
6A4
330
2B
100
AcDbDictionary
280
     1
281
     1
  3
ACAD_XREC_ROUNDTRIP
360
6A5
  0
DICTIONARY
  5
3
330
2
100
AcDbDictionary
280
     1
281
     1
  3
ACAD_LAYERSTATES
360
4
  0
DICTIONARY
  5
1E
330
1D
100
AcDbDictionary
280
     1
281
     1
  3
ADSK_XREC_LAYER_RECONCILED
360
1F
  0
DICTIONARY
  5
35B
330
35A
100
AcDbDictionary
280
     1
281
     1
  3
ADSK_XREC_LAYER_RECONCILED
360
35C
  0
DICTIONARY
  5
5
330
1
100
AcDbDictionary
280
     1
281
     1
  3
ADSK_XREC_LAYER_RECONCILED
360
6
  0
DICTIONARY
  5
6E
330
6D
100
AcDbDictionary
280
     1
281
     1
  3
ADSK_XREC_LAYER_RECONCILED
360
6F
  0
DICTIONARY
  5
7B
330
7A
100
AcDbDictionary
280
     1
281
     1
  3
ADSK_XREC_LAYER_RECONCILED
360
7C
  0
DICTIONARY
  5
8A
330
89
100
AcDbDictionary
280
     1
281
     1
  3
ADSK_XREC_LAYER_RECONCILED
360
8B
  0
DICTIONARY
  5
1A
330
19
100
AcDbDictionary
280
     1
281
     1
  3
ACAD_SORTENTS
360
1B
  0
DICTIONARY
  5
2E
102
{ACAD_REACTORS
330
9
102
}
330
9
100
AcDbDictionary
281
     1
  0
DICTIONARY
  5
2C
102
{ACAD_REACTORS
330
9
102
}
330
9
100
AcDbDictionary
281
     1
  0
DICTIONARY
  5
22
102
{ACAD_REACTORS
330
9
102
}
330
9
100
AcDbDictionary
281
     1
  3
Model
350
21
  3
ﾚｲｱｳﾄ1
350
28
  0
DICTIONARY
  5
B
102
{ACAD_REACTORS
330
9
102
}
330
9
100
AcDbDictionary
281
     1
  3
ByBlock
350
69
  3
ByLayer
350
12
  3
Global
350
A
  0
DICTIONARY
  5
614
102
{ACAD_REACTORS
330
9
102
}
330
9
100
AcDbDictionary
281
     1
  3
Standard
350
62D
  0
DICTIONARY
  5
17
102
{ACAD_REACTORS
330
9
102
}
330
9
100
AcDbDictionary
281
     1
  3
STANDARD
350
16
  0
DICTIONARY
  5
2D
102
{ACAD_REACTORS
330
9
102
}
330
9
100
AcDbDictionary
281
     1
  0
ACDBDICTIONARYWDFLT
  5
8
102
{ACAD_REACTORS
330
9
102
}
330
9
100
AcDbDictionary
281
     1
  3
Normal
350
7
100
AcDbDictionaryWithDefault
340
7
  0
DICTIONARY
  5
36
102
{ACAD_REACTORS
330
9
102
}
330
9
100
AcDbDictionary
281
     1
  3
*A1
350
58
  3
*A10
350
61
  3
*A11
350
62
  3
*A12
350
63
  3
*A13
350
64
  3
*A14
350
65
  3
*A15
350
66
  3
*A16
350
67
  3
*A17
350
68
  3
*A2
350
59
  3
*A3
350
5A
  3
*A4
350
5B
  3
*A5
350
5C
  3
*A6
350
5D
  3
*A7
350
5E
  3
*A8
350
5F
  3
*A9
350
60
  0
DICTIONARY
  5
613
102
{ACAD_REACTORS
330
9
102
}
330
9
100
AcDbDictionary
281
     1
  3
Standard
350
69C
  0
DICTIONARY
  5
2F
102
{ACAD_REACTORS
330
9
102
}
330
9
100
AcDbDictionary
281
     1
  3
2dWireframe
350
61B
  3
Basic
350
61D
  3
Brighten
350
620
  3
ColorChange
350
624
  3
Conceptual
350
61E
  3
Dim
350
61F
  3
EdgeColorOff
350
627
  3
Facepattern
350
623
  3
Flat
350
617
  3
FlatWithEdges
350
618
  3
Gouraud
350
619
  3
GouraudWithEdges
350
61A
  3
Hidden
350
61C
  3
JitterOff
350
625
  3
Linepattern
350
622
  3
OverhangOff
350
626
  3
Realistic
350
30
  3
Shaded
350
62C
  3
Shaded with edges
350
62B
  3
Shades of Gray
350
628
  3
Sketchy
350
629
  3
Thicken
350
621
  3
Wireframe
350
31
  3
X-Ray
350
62A
  0
DICTIONARY
  5
6A0
102
{ACAD_REACTORS
330
9
102
}
330
9
100
AcDbDictionary
281
     1
  3
COLORDICT
350
6A1
  3
MATERIALDICT
350
6A2
  0
DICTIONARY
  5
611
102
{ACAD_REACTORS
330
9
102
}
330
9
100
AcDbDictionary
281
     1
  3
CANNOSCALE
350
612
  3
CMLEADERSTYLE
350
663
  3
CTABLESTYLE
350
69D
  3
DIMASSOC
350
69E
  3
HIDETEXT
350
69F
  3
MSLTSCALE
350
6A6
  0
XRECORD
  5
6A3
102
{ACAD_REACTORS
330
9
102
}
330
9
100
AcDbXrecord
280
     1
  1
DWGPROPS COOKIE
  2

  3

  4

  6

  7

  8
sg-d04
  9

300
=
301
=
302
=
303
=
304
=
305
=
306
=
307
=
308
=
309
=
 40
0.0
 41
2449812.381805555
 42
2457871.45805596
  1

 90
        0
  0
XRECORD
  5
6A5
102
{ACAD_REACTORS
330
6A4
102
}
330
6A4
100
AcDbXrecord
280
     1
102
VTR_0.000_0.000_1.000_1.000_VISUALSTYLE
340
61B
102
VTR_0.000_0.000_1.000_1.000_GRIDDISPLAY
 70
     3
102
VTR_0.000_0.000_1.000_1.000_GRIDMAJOR
 70
     5
102
VTR_0.000_0.000_1.000_1.000_DEFAULTLIGHTING
280
     1
102
VTR_0.000_0.000_1.000_1.000_DEFAULTLIGHTINGTYPE
 70
     1
102
VTR_0.000_0.000_1.000_1.000_BRIGHTNESS
141
0.0
102
VTR_0.000_0.000_1.000_1.000_CONTRAST
142
0.0
  0
DICTIONARY
  5
4
102
{ACAD_REACTORS
330
3
102
}
330
3
100
AcDbDictionary
281
     1
  0
XRECORD
  5
1F
102
{ACAD_REACTORS
330
1E
102
}
330
1E
100
AcDbXrecord
280
     1
290
     1
  0
XRECORD
  5
35C
102
{ACAD_REACTORS
330
35B
102
}
330
35B
100
AcDbXrecord
280
     1
290
     1
  0
XRECORD
  5
6
102
{ACAD_REACTORS
330
5
102
}
330
5
100
AcDbXrecord
280
     1
290
     1
  0
XRECORD
  5
6F
102
{ACAD_REACTORS
330
6E
102
}
330
6E
100
AcDbXrecord
280
     1
290
     1
  0
XRECORD
  5
7C
102
{ACAD_REACTORS
330
7B
102
}
330
7B
100
AcDbXrecord
280
     1
290
     1
  0
XRECORD
  5
8B
102
{ACAD_REACTORS
330
8A
102
}
330
8A
100
AcDbXrecord
280
     1
290
     1
  0
SORTENTSTABLE
  5
1B
102
{ACAD_REACTORS
330
1A
102
}
330
1A
100
AcDbSortentsTable
330
19
331
0
  5
14C
331
11B
  5
11C
331
11C
  5
11D
331
11D
  5
120
331
11E
  5
121
331
11F
  5
122
331
120
  5
123
331
121
  5
124
331
122
  5
125
331
123
  5
126
331
124
  5
127
331
125
  5
128
331
126
  5
129
331
127
  5
12A
331
128
  5
12B
331
129
  5
12C
331
12A
  5
12D
331
12B
  5
12E
331
12C
  5
12F
331
12D
  5
130
331
12E
  5
131
331
12F
  5
132
331
130
  5
133
331
131
  5
134
331
133
  5
136
331
134
  5
137
331
135
  5
138
331
136
  5
139
331
137
  5
13A
331
138
  5
13B
331
139
  5
13C
331
13A
  5
13D
331
13B
  5
13E
331
13C
  5
13F
331
13D
  5
140
331
13E
  5
141
331
13F
  5
142
331
140
  5
143
331
141
  5
144
331
142
  5
145
331
14D
  5
150
331
14E
  5
151
331
14F
  5
152
331
150
  5
153
331
151
  5
154
331
152
  5
155
331
153
  5
156
331
154
  5
157
331
155
  5
158
331
156
  5
159
331
157
  5
15A
331
158
  5
15B
331
159
  5
15C
331
15A
  5
15D
331
15B
  5
15E
331
15C
  5
15F
331
15D
  5
160
331
15E
  5
161
331
15F
  5
162
331
160
  5
163
331
161
  5
164
331
162
  5
165
331
163
  5
166
331
164
  5
167
331
165
  5
168
331
166
  5
169
331
167
  5
16A
331
168
  5
16B
331
169
  5
16C
331
16A
  5
16D
331
16B
  5
16E
331
16C
  5
16F
331
16D
  5
170
331
16E
  5
171
331
16F
  5
172
331
170
  5
173
331
171
  5
174
331
172
  5
175
331
173
  5
176
331
174
  5
177
331
175
  5
178
331
176
  5
179
331
177
  5
17A
331
178
  5
17B
331
179
  5
17C
331
17A
  5
17D
331
17B
  5
17E
331
17C
  5
17F
331
17D
  5
180
331
17E
  5
181
331
17F
  5
183
331
180
  5
184
331
181
  5
185
331
183
  5
186
331
184
  5
18C
331
185
  5
18D
331
186
  5
18E
331
18C
  5
18F
331
18D
  5
190
331
18E
  5
191
331
18F
  5
192
331
190
  5
193
331
191
  5
194
331
192
  5
195
331
193
  5
196
331
194
  5
197
331
195
  5
198
331
196
  5
199
331
197
  5
19A
331
198
  5
19B
331
199
  5
19C
331
19A
  5
19D
331
19B
  5
19E
331
19C
  5
19F
331
19D
  5
1A0
331
19E
  5
1A1
331
19F
  5
1A2
331
1A0
  5
1A3
331
1A1
  5
1A4
331
1A2
  5
1A5
331
1A3
  5
1A6
331
1A4
  5
1A7
331
1A5
  5
1A8
331
1A6
  5
1A9
331
1A7
  5
1AA
331
1A8
  5
1AB
331
1A9
  5
1AC
331
1AA
  5
1AD
331
1AB
  5
1AE
331
1AC
  5
1AF
331
1AD
  5
1B0
331
1AE
  5
1B1
331
1AF
  5
1B2
331
1B0
  5
1B3
331
1B2
  5
1B5
331
1B3
  5
1B6
331
1B7
  5
1BA
331
1BA
  5
1BD
331
1BB
  5
1BE
331
1BC
  5
1BF
331
1BE
  5
1C1
331
1BF
  5
1C2
331
1C0
  5
1C3
331
1C1
  5
1C4
331
1C2
  5
1C5
331
1C3
  5
1C6
331
1C4
  5
1C7
331
1C5
  5
1C8
331
1C6
  5
1C9
331
1C7
  5
1CA
331
1C8
  5
1CB
331
1C9
  5
1CC
331
1CB
  5
1CE
331
1CC
  5
1CF
331
1CD
  5
1D0
331
1CE
  5
1D1
331
1CF
  5
1D2
331
1D0
  5
1D3
331
1D1
  5
1D4
331
1D2
  5
1D5
331
1D4
  5
1D7
331
1D5
  5
1D8
331
1D6
  5
1D9
331
1D7
  5
1DA
331
1D8
  5
1DB
331
1DA
  5
1DD
331
1DB
  5
1DE
331
1DC
  5
1DF
331
1DD
  5
1E0
331
1DE
  5
1E1
331
1DF
  5
1E2
331
1E0
  5
1E3
331
1E1
  5
1E4
331
1E2
  5
1E5
331
1E3
  5
1E6
331
1E4
  5
1E7
331
1E5
  5
1E8
331
1E6
  5
1E9
331
1E7
  5
1EA
331
1E8
  5
1EB
331
1EA
  5
1ED
331
1EB
  5
1EE
331
1EC
  5
1EF
331
1F5
  5
1F8
331
1F6
  5
1F9
331
1F7
  5
1FA
331
1F8
  5
1FB
331
1F9
  5
1FC
331
1FA
  5
1FD
331
1FB
  5
1FE
331
1FC
  5
1FF
331
1FD
  5
200
331
1FE
  5
201
331
1FF
  5
202
331
204
  5
207
331
205
  5
208
331
206
  5
209
331
207
  5
20A
331
208
  5
20B
331
209
  5
20C
331
20A
  5
20D
331
20E
  5
211
331
20F
  5
212
331
210
  5
213
331
211
  5
214
331
212
  5
215
331
213
  5
216
331
214
  5
217
331
215
  5
218
331
216
  5
219
331
217
  5
21A
331
221
  5
224
331
222
  5
225
331
223
  5
226
331
224
  5
227
331
225
  5
228
331
226
  5
229
331
227
  5
22A
331
228
  5
22B
331
229
  5
22C
331
22A
  5
22D
331
22B
  5
22E
331
22C
  5
22F
331
231
  5
234
331
232
  5
235
331
23B
  5
23E
331
23C
  5
23F
331
23D
  5
240
331
23E
  5
241
331
23F
  5
242
331
240
  5
243
331
241
  5
244
331
242
  5
245
331
243
  5
246
331
244
  5
247
331
249
  5
24C
331
24A
  5
24D
331
24B
  5
24E
331
24C
  5
24F
331
24D
  5
250
331
24E
  5
251
331
24F
  5
252
331
250
  5
253
331
251
  5
254
331
252
  5
255
331
255
  5
258
331
256
  5
259
331
257
  5
25A
331
258
  5
25B
331
25A
  5
25D
331
25B
  5
25E
331
25C
  5
25F
331
25D
  5
261
331
25E
  5
262
331
25F
  5
263
331
262
  5
265
331
263
  5
266
331
264
  5
267
331
265
  5
268
331
266
  5
26B
331
267
  5
26F
331
268
  5
271
331
27C
  5
27F
331
27D
  5
281
331
27E
  5
283
331
27F
  5
289
331
281
  5
28B
331
283
  5
28C
331
289
  5
28E
331
296
  5
299
331
297
  5
29A
331
298
  5
29B
331
299
  5
29C
331
29A
  5
29D
331
29D
  5
2A0
331
29E
  5
2A1
331
29F
  5
2A2
331
2A0
  5
2A3
331
2A1
  5
2A4
331
2A2
  5
2A5
331
2A3
  5
2A6
331
2A4
  5
2A7
331
2A5
  5
2A8
331
2A6
  5
2A9
331
2A7
  5
2AA
331
2A8
  5
2AB
331
2A9
  5
2AC
331
2AA
  5
2AD
331
2AB
  5
2AE
331
2AC
  5
2AF
331
2AD
  5
2B0
331
2AE
  5
2B1
331
2AF
  5
2B2
331
2B0
  5
2B3
331
2B1
  5
2B4
331
2B2
  5
2B5
331
2B3
  5
2B6
331
2B4
  5
2B7
331
2B5
  5
2B8
331
2B6
  5
2B9
331
2B7
  5
2BA
331
2B8
  5
2BB
331
2B9
  5
2BC
331
2BA
  5
2BD
331
2BB
  5
2BE
331
2BC
  5
2BF
331
2BD
  5
2C0
331
2BE
  5
2C1
331
2BF
  5
2C2
331
2C0
  5
2C3
331
2C1
  5
2C4
331
2C2
  5
2C5
331
2C5
  5
2C8
331
2C6
  5
2C9
331
2C7
  5
2CA
331
2C8
  5
2CB
331
2C9
  5
2CC
331
2CA
  5
2CD
331
2CB
  5
2CE
331
2CC
  5
2CF
331
2CD
  5
2D0
331
2CE
  5
2D1
331
2CF
  5
2D2
331
2D0
  5
2D3
331
2D1
  5
2D4
331
2D2
  5
2D5
331
2D3
  5
2D6
331
2D4
  5
2D7
331
2D5
  5
2D8
331
2D6
  5
2D9
331
2D7
  5
2DA
331
2D8
  5
2DB
331
2D9
  5
2DC
331
2DA
  5
2DD
331
2DB
  5
2DE
331
2DC
  5
2DF
331
2DD
  5
2E0
331
2DE
  5
2E1
331
2DF
  5
2E2
331
2E0
  5
2E3
331
2E5
  5
2E8
331
2E6
  5
2E9
331
2E7
  5
2EA
331
2E8
  5
2EB
331
2E9
  5
2EC
331
2EA
  5
2ED
331
2EB
  5
2EE
331
2EC
  5
2EF
331
2ED
  5
2F0
331
2EE
  5
2F1
331
2EF
  5
2F2
331
2F0
  5
2F3
331
2F1
  5
2F4
331
2F2
  5
2F5
331
2F3
  5
2F6
331
2F4
  5
2F7
331
2F5
  5
2F8
331
2F6
  5
2F9
331
2F7
  5
2FA
331
2F8
  5
2FB
331
2F9
  5
2FC
331
2FA
  5
2FD
331
2FB
  5
2FE
331
2FC
  5
2FF
331
2FD
  5
300
331
2FE
  5
301
331
2FF
  5
302
331
300
  5
303
331
301
  5
304
331
302
  5
305
331
303
  5
306
331
304
  5
307
331
305
  5
308
331
306
  5
309
331
307
  5
30A
331
308
  5
30B
331
309
  5
30C
331
30A
  5
30D
331
30B
  5
30E
331
30C
  5
30F
331
30D
  5
310
331
30E
  5
311
331
30F
  5
312
331
310
  5
313
331
311
  5
314
331
312
  5
315
331
313
  5
316
331
314
  5
317
331
315
  5
318
331
316
  5
319
331
317
  5
31A
331
318
  5
31B
331
319
  5
31C
331
31A
  5
31D
331
31B
  5
31E
331
31C
  5
31F
331
320
  5
326
331
32E
  5
331
331
32F
  5
332
331
330
  5
333
331
331
  5
334
331
332
  5
335
331
333
  5
336
331
334
  5
337
331
335
  5
338
331
336
  5
339
331
337
  5
33A
331
338
  5
33B
331
339
  5
33C
331
33A
  5
33D
331
33B
  5
33E
331
33C
  5
33F
331
33D
  5
340
331
33E
  5
341
331
33F
  5
342
331
340
  5
344
331
341
  5
345
331
342
  5
346
331
44D
  5
450
331
44E
  5
451
331
44F
  5
452
331
450
  5
453
331
48C
  5
48F
331
48D
  5
490
331
48E
  5
491
331
48F
  5
492
331
490
  5
493
331
491
  5
494
331
492
  5
495
331
493
  5
496
331
494
  5
497
331
495
  5
498
331
496
  5
499
331
497
  5
49A
331
498
  5
49B
331
499
  5
49C
331
49A
  5
49D
331
49B
  5
49E
331
49C
  5
49F
331
49D
  5
4A0
331
49E
  5
4A1
331
49F
  5
4A2
331
4A0
  5
4A3
331
4A1
  5
4A4
331
4A2
  5
4A5
331
4A3
  5
4A6
331
4A4
  5
4A7
331
4A5
  5
4A8
331
4A6
  5
4A9
331
4A7
  5
4AA
331
4A8
  5
4AB
331
4A9
  5
4AC
331
4AA
  5
4AD
331
4AB
  5
4AE
331
4AC
  5
4AF
331
4AD
  5
4B0
331
4AE
  5
4B1
331
4AF
  5
4B2
331
4B0
  5
4B3
331
4B1
  5
4B4
331
4B2
  5
4B5
331
4B3
  5
4B6
331
4B4
  5
4B7
331
4B5
  5
4B8
331
4B6
  5
4B9
331
4B7
  5
4BA
331
4B8
  5
4BB
331
4B9
  5
4BC
331
4BA
  5
4BD
331
4BB
  5
4BE
331
4BC
  5
4BF
331
4BD
  5
4C0
331
4BE
  5
4C1
331
4BF
  5
4C2
331
4C0
  5
4C3
331
4C1
  5
4C4
331
4C2
  5
4C5
331
4C3
  5
4C6
331
4C4
  5
4C7
331
4C5
  5
4C8
331
4C6
  5
4CB
331
4C7
  5
4CC
331
4CB
  5
4CE
331
4CC
  5
4CF
331
4CD
  5
4D0
331
4CE
  5
4D1
331
4CF
  5
4D2
331
4D0
  5
4D3
331
4D1
  5
4D4
331
4D2
  5
4D5
331
4D3
  5
4D7
331
4D4
  5
4D8
331
4D5
  5
4DA
331
4D6
  5
4DB
331
4D7
  5
4DC
331
4D8
  5
4DD
331
4D9
  5
4DE
331
4DA
  5
4E0
331
4DB
  5
4E1
331
4DC
  5
4E2
331
4DD
  5
4E3
331
4DE
  5
4E4
331
4E0
  5
4E5
331
4E1
  5
4E6
331
4E2
  5
4E7
331
4E3
  5
4E8
331
4E4
  5
4E9
331
4E5
  5
4EB
331
4E6
  5
4EC
331
4E7
  5
4ED
331
4E8
  5
4EE
331
4E9
  5
4EF
331
4EA
  5
4F0
331
4EB
  5
4F1
331
4EC
  5
4F2
331
4ED
  5
4F3
331
4EE
  5
4F4
331
4EF
  5
4F5
331
4F0
  5
4F6
331
4F1
  5
4F7
331
4F2
  5
4F8
331
4F3
  5
4F9
331
4F4
  5
4FA
331
4F5
  5
4FB
331
4F6
  5
4FC
331
4F7
  5
4FD
331
4F8
  5
4FE
331
4F9
  5
4FF
331
4FA
  5
500
331
4FB
  5
501
331
4FC
  5
502
331
4FD
  5
503
331
4FE
  5
504
331
4FF
  5
505
331
500
  5
506
331
501
  5
507
331
502
  5
508
331
503
  5
509
331
504
  5
50A
331
505
  5
50B
331
506
  5
50C
331
507
  5
50D
331
508
  5
50E
331
509
  5
50F
331
50A
  5
510
331
50B
  5
511
331
50C
  5
512
331
50D
  5
513
331
50E
  5
514
331
50F
  5
515
331
510
  5
516
331
511
  5
517
331
512
  5
518
331
513
  5
519
331
514
  5
51A
331
515
  5
51B
331
516
  5
51C
331
517
  5
51D
331
518
  5
51E
331
519
  5
51F
331
51A
  5
528
331
51B
  5
529
331
51C
  5
52A
331
525
  5
52B
331
526
  5
52C
331
527
  5
52D
331
528
  5
52E
331
529
  5
533
331
52A
  5
539
331
52B
  5
53A
331
530
  5
53B
331
536
  5
53C
331
537
  5
541
331
538
  5
542
331
539
  5
543
331
53E
  5
55D
331
53F
  5
55E
331
540
  5
55F
331
55A
  5
560
331
55B
  5
562
331
55C
  5
563
331
55D
  5
564
331
55F
  5
565
331
560
  5
56B
331
561
  5
56C
331
562
  5
56D
331
568
  5
56E
331
569
  5
56F
331
56A
  5
570
331
56B
  5
571
331
56C
  5
572
331
56D
  5
573
331
56E
  5
574
331
56F
  5
575
331
570
  5
576
331
571
  5
577
331
572
  5
578
331
573
  5
579
331
574
  5
57A
331
575
  5
57B
331
576
  5
57C
331
577
  5
57D
331
578
  5
57E
331
579
  5
57F
331
57A
  5
580
331
57B
  5
581
331
57C
  5
582
331
57D
  5
583
331
57E
  5
584
331
57F
  5
585
331
580
  5
586
331
581
  5
587
331
582
  5
588
331
583
  5
589
331
584
  5
58A
331
585
  5
58B
331
586
  5
58C
331
587
  5
58D
331
588
  5
58E
331
589
  5
58F
331
58A
  5
590
331
58B
  5
591
331
58C
  5
592
331
58D
  5
593
331
58E
  5
594
331
58F
  5
595
331
590
  5
596
331
591
  5
597
331
592
  5
598
331
593
  5
599
331
594
  5
59A
331
595
  5
59B
331
596
  5
59C
331
597
  5
59D
331
598
  5
59E
331
599
  5
59F
331
59A
  5
5A0
331
59B
  5
5A1
331
59C
  5
5A2
331
59D
  5
5A3
331
59E
  5
5A4
331
59F
  5
5A5
331
5A0
  5
5A6
331
5A1
  5
5A7
331
5A2
  5
5A8
331
5A3
  5
5A9
331
5A4
  5
5AA
331
5A5
  5
5AB
331
5A6
  5
5AC
331
5A7
  5
5AD
331
5A8
  5
5AE
331
5A9
  5
5AF
331
5AA
  5
5B0
331
5AB
  5
5B1
331
5AC
  5
5B2
331
5AD
  5
5B3
331
5AE
  5
5B4
331
5AF
  5
5B5
331
5B0
  5
5B6
331
5B1
  5
5B7
331
5B2
  5
5B8
331
5B3
  5
5B9
331
5B4
  5
5BA
331
5B5
  5
5BB
331
5B6
  5
5BC
331
5B7
  5
5BD
331
5B8
  5
5BE
331
5B9
  5
5BF
331
5BA
  5
5C0
331
5BB
  5
5C1
331
5BC
  5
5C2
331
5BD
  5
5C3
331
5BE
  5
5C4
331
5BF
  5
5C5
331
5C0
  5
5C6
331
5C1
  5
5C7
331
5C2
  5
5C8
331
5C3
  5
5C9
331
5C4
  5
5CA
331
5C5
  5
5CB
331
5C6
  5
5CC
331
5C7
  5
5CD
331
5C8
  5
5CE
331
5C9
  5
5CF
331
5CA
  5
5D0
331
5CB
  5
5D1
331
5CC
  5
5D2
331
5D1
  5
5D7
331
5D2
  5
5D8
331
5D6
  5
5DC
331
5D7
  5
5DD
331
5D8
  5
5DE
331
5D9
  5
5DF
331
5DA
  5
5E0
331
5DB
  5
5E1
331
5DC
  5
5E2
331
5DD
  5
5E3
331
5DE
  5
5E4
331
5DF
  5
5E5
331
5E0
  5
5E6
331
5E2
  5
5E8
331
5E4
  5
5EA
331
5E5
  5
5EB
331
5E7
  5
5ED
331
5EC
  5
5F2
331
5ED
  5
5F3
331
5EE
  5
5F4
331
5EF
  5
5F5
331
5F0
  5
5F6
331
5F1
  5
5F7
331
5F2
  5
5F8
331
5F3
  5
5F9
331
5F4
  5
5FA
331
5F5
  5
5FB
331
5F6
  5
5FC
331
5F7
  5
5FD
331
5FD
  5
603
331
5FE
  5
604
331
5FF
  5
605
331
600
  5
606
331
601
  5
607
331
602
  5
608
331
603
  5
609
331
604
  5
60A
331
605
  5
60B
331
606
  5
60C
331
607
  5
60D
331
608
  5
60E
331
609
  5
60F
331
60A
  5
610
331
60B
  5
62F
331
60C
  5
630
331
60D
  5
631
331
60E
  5
632
331
60F
  5
633
331
610
  5
635
331
62F
  5
636
331
630
  5
637
331
632
  5
4D9
331
633
  5
638
331
634
  5
639
331
635
  5
4D6
331
636
  5
63A
331
637
  5
63B
331
638
  5
63C
331
639
  5
63D
331
63A
  5
63E
331
63B
  5
63F
331
63C
  5
640
331
63D
  5
641
331
63E
  5
642
331
63F
  5
643
331
640
  5
644
331
641
  5
645
331
642
  5
646
331
643
  5
647
331
644
  5
648
331
645
  5
665
331
646
  5
666
331
647
  5
667
331
64A
  5
4EA
331
67D
  5
680
  0
LAYOUT
  5
21
102
{ACAD_REACTORS
330
22
102
}
330
22
100
AcDbPlotSettings
  1

  2
Bullzip PDF Printer.pc3
  4
A3
  6

 40
0.2
 41
0.0
 42
0.0
 43
0.0
 44
420.2
 45
297.1
 46
25.0
 47
12.0
 48
131.9999998100004
 49
10.0
140
2423.999994560001
141
1644.999996185
142
1.0
143
6.0
 70
 11936
 72
     1
 73
     0
 74
     4
  7
monochrome.ctb
 75
     0
147
0.1744210990985904
148
-131.9999998100004
149
-10.0
100
AcDbLayout
  1
Model
 70
     0
 71
     0
 10
0.0
 20
0.0
 11
12.0
 21
9.0
 12
0.0
 22
0.0
 32
0.0
 14
175.4004820504761
 24
34.66181993990676
 34
0.0
 15
2137.57418188441
 25
1670.345538647902
 35
0.0
146
0.0
 13
0.0
 23
0.0
 33
0.0
 16
1.0
 26
0.0
 36
0.0
 17
0.0
 27
1.0
 37
0.0
 76
     0
330
19
331
33
1001
ACAD_PSEXT
1000
Bullzip PDF Printer.pc3
1000
Bullzip PDF Printer
1000
BULLZIP
1000
Bullzip PDF Printer 10.1.0.1871
1070
     0
  0
LAYOUT
  5
28
102
{ACAD_REACTORS
330
22
102
}
330
22
100
AcDbPlotSettings
  1

  2
SR-LP8300F
  4

  6

 40
0.0
 41
0.0
 42
0.0
 43
0.0
 44
0.0
 45
0.0
 46
0.0
 47
0.0
 48
0.0
 49
0.0
140
0.0
141
0.0
142
1.0
143
1.0
 70
   688
 72
     0
 73
     0
 74
     5
  7
monochrome.ctb
 75
    16
147
1.0
148
0.0
149
0.0
100
AcDbLayout
  1
ﾚｲｱｳﾄ1
 70
     0
 71
     1
 10
0.0
 20
0.0
 11
12.0
 21
9.0
 12
0.0
 22
0.0
 32
0.0
 14
1.000000000000000E+20
 24
1.000000000000000E+20
 34
1.000000000000000E+20
 15
-1.000000000000000E+20
 25
-1.000000000000000E+20
 35
-1.000000000000000E+20
146
0.0
 13
0.0
 23
0.0
 33
0.0
 16
1.0
 26
0.0
 36
0.0
 17
0.0
 27
1.0
 37
0.0
 76
     0
330
25
  0
MATERIAL
  5
69
102
{ACAD_REACTORS
330
B
102
}
102
{ACAD_XDICTIONARY
360
6AB
102
}
330
B
100
AcDbMaterial
  1
ByBlock
 72
     0
 73
     2
 43
0.0208333333333333
 43
0.0
 43
0.0
 43
0.0
 43
0.0
 43
0.0208333333333333
 43
0.0
 43
0.0
 43
0.0
 43
0.0
 43
1.0
 43
0.0
 43
0.0
 43
0.0
 43
0.0
 43
1.0
 77
     0
 78
     2
 47
0.0208333333333333
 47
0.0
 47
0.0
 47
0.0
 47
0.0
 47
0.0208333333333333
 47
0.0
 47
0.0
 47
0.0
 47
0.0
 47
1.0
 47
0.0
 47
0.0
 47
0.0
 47
0.0
 47
1.0
171
     0
172
     2
 49
0.0208333333333333
 49
0.0
 49
0.0
 49
0.0
 49
0.0
 49
0.0208333333333333
 49
0.0
 49
0.0
 49
0.0
 49
0.0
 49
1.0
 49
0.0
 49
0.0
 49
0.0
 49
0.0
 49
1.0
175
     0
176
     2
142
0.0208333333333333
142
0.0
142
0.0
142
0.0
142
0.0
142
0.0208333333333333
142
0.0
142
0.0
142
0.0
142
0.0
142
1.0
142
0.0
142
0.0
142
0.0
142
0.0
142
1.0
179
     0
270
     2
144
0.0208333333333333
144
0.0
144
0.0
144
0.0
144
0.0
144
0.0208333333333333
144
0.0
144
0.0
144
0.0
144
0.0
144
1.0
144
0.0
144
0.0
144
0.0
144
0.0
144
1.0
274
     2
147
0.0208333333333333
147
0.0
147
0.0
147
0.0
147
0.0
147
0.0208333333333333
147
0.0
147
0.0
147
0.0
147
0.0
147
1.0
147
0.0
147
0.0
147
0.0
147
0.0
147
1.0
  0
MATERIAL
  5
12
102
{ACAD_REACTORS
330
B
102
}
102
{ACAD_XDICTIONARY
360
6A7
102
}
330
B
100
AcDbMaterial
  1
ByLayer
 72
     0
 73
     2
 43
0.0208333333333333
 43
0.0
 43
0.0
 43
0.0
 43
0.0
 43
0.0208333333333333
 43
0.0
 43
0.0
 43
0.0
 43
0.0
 43
1.0
 43
0.0
 43
0.0
 43
0.0
 43
0.0
 43
1.0
 77
     0
 78
     2
 47
0.0208333333333333
 47
0.0
 47
0.0
 47
0.0
 47
0.0
 47
0.0208333333333333
 47
0.0
 47
0.0
 47
0.0
 47
0.0
 47
1.0
 47
0.0
 47
0.0
 47
0.0
 47
0.0
 47
1.0
171
     0
172
     2
 49
0.0208333333333333
 49
0.0
 49
0.0
 49
0.0
 49
0.0
 49
0.0208333333333333
 49
0.0
 49
0.0
 49
0.0
 49
0.0
 49
1.0
 49
0.0
 49
0.0
 49
0.0
 49
0.0
 49
1.0
175
     0
176
     2
142
0.0208333333333333
142
0.0
142
0.0
142
0.0
142
0.0
142
0.0208333333333333
142
0.0
142
0.0
142
0.0
142
0.0
142
1.0
142
0.0
142
0.0
142
0.0
142
0.0
142
1.0
179
     0
270
     2
144
0.0208333333333333
144
0.0
144
0.0
144
0.0
144
0.0
144
0.0208333333333333
144
0.0
144
0.0
144
0.0
144
0.0
144
1.0
144
0.0
144
0.0
144
0.0
144
0.0
144
1.0
274
     2
147
0.0208333333333333
147
0.0
147
0.0
147
0.0
147
0.0
147
0.0208333333333333
147
0.0
147
0.0
147
0.0
147
0.0
147
1.0
147
0.0
147
0.0
147
0.0
147
0.0
147
1.0
  0
MATERIAL
  5
A
102
{ACAD_REACTORS
330
B
102
}
102
{ACAD_XDICTIONARY
360
6A9
102
}
330
B
100
AcDbMaterial
  1
Global
 72
     0
 73
     2
 43
0.0208333333333333
 43
0.0
 43
0.0
 43
0.0
 43
0.0
 43
0.0208333333333333
 43
0.0
 43
0.0
 43
0.0
 43
0.0
 43
1.0
 43
0.0
 43
0.0
 43
0.0
 43
0.0
 43
1.0
 77
     0
 78
     2
 47
0.0208333333333333
 47
0.0
 47
0.0
 47
0.0
 47
0.0
 47
0.0208333333333333
 47
0.0
 47
0.0
 47
0.0
 47
0.0
 47
1.0
 47
0.0
 47
0.0
 47
0.0
 47
0.0
 47
1.0
171
     0
172
     2
 49
0.0208333333333333
 49
0.0
 49
0.0
 49
0.0
 49
0.0
 49
0.0208333333333333
 49
0.0
 49
0.0
 49
0.0
 49
0.0
 49
1.0
 49
0.0
 49
0.0
 49
0.0
 49
0.0
 49
1.0
175
     0
176
     2
142
0.0208333333333333
142
0.0
142
0.0
142
0.0
142
0.0
142
0.0208333333333333
142
0.0
142
0.0
142
0.0
142
0.0
142
1.0
142
0.0
142
0.0
142
0.0
142
0.0
142
1.0
179
     0
270
     2
144
0.0208333333333333
144
0.0
144
0.0
144
0.0
144
0.0
144
0.0208333333333333
144
0.0
144
0.0
144
0.0
144
0.0
144
1.0
144
0.0
144
0.0
144
0.0
144
0.0
144
1.0
274
     2
147
0.0208333333333333
147
0.0
147
0.0
147
0.0
147
0.0
147
0.0208333333333333
147
0.0
147
0.0
147
0.0
147
0.0
147
1.0
147
0.0
147
0.0
147
0.0
147
0.0
147
1.0
  0
MLEADERSTYLE
  5
62D
102
{ACAD_REACTORS
330
614
102
}
102
{ACAD_XDICTIONARY
360
6DD
102
}
330
614
100
AcDbMLeaderStyle
170
     2
171
     1
172
     0
 90
        2
 40
0.0
 41
0.0
173
     1
 91
-1056964608
340
F
 92
       -2
290
     1
 42
0.09
291
     1
 43
0.36
  3
Standard
341
0
 44
0.18
300

342
10
174
     1
178
     6
175
     1
176
     0
 93
-1056964608
 45
0.18
292
     0
297
     0
 46
0.18
343
0
 94
-1056964608
 47
1.0
 49
1.0
140
1.0
293
     1
141
0.0
294
     1
177
     0
142
1.0
295
     0
296
     0
143
0.125
1001
ACAD_MLEADERVER
1070
     2
  0
MLINESTYLE
  5
16
102
{ACAD_REACTORS
330
17
102
}
330
17
100
AcDbMlineStyle
  2
STANDARD
 70
     0
  3

 62
     0
 51
90.0
 52
90.0
 71
     2
 49
0.5
 62
   256
  6
BYLAYER
 49
-0.5
 62
   256
  6
BYLAYER
  0
ACDBPLACEHOLDER
  5
7
102
{ACAD_REACTORS
330
8
102
}
330
8
  0
SCALE
  5
58
102
{ACAD_REACTORS
330
36
102
}
330
36
100
AcDbScale
 70
     0
300
1:1
140
1.0
141
1.0
290
     1
  0
SCALE
  5
61
102
{ACAD_REACTORS
330
36
102
}
330
36
100
AcDbScale
 70
     0
300
3/8" = 1'-0"
140
0.375
141
12.0
290
     0
  0
SCALE
  5
62
102
{ACAD_REACTORS
330
36
102
}
330
36
100
AcDbScale
 70
     0
300
1/2" = 1'-0"
140
0.5
141
12.0
290
     0
  0
SCALE
  5
63
102
{ACAD_REACTORS
330
36
102
}
330
36
100
AcDbScale
 70
     0
300
3/4" = 1'-0"
140
0.75
141
12.0
290
     0
  0
SCALE
  5
64
102
{ACAD_REACTORS
330
36
102
}
330
36
100
AcDbScale
 70
     0
300
1" = 1'-0"
140
1.0
141
12.0
290
     0
  0
SCALE
  5
65
102
{ACAD_REACTORS
330
36
102
}
330
36
100
AcDbScale
 70
     0
300
1-1/2" = 1'-0"
140
1.5
141
12.0
290
     0
  0
SCALE
  5
66
102
{ACAD_REACTORS
330
36
102
}
330
36
100
AcDbScale
 70
     0
300
3" = 1'-0"
140
3.0
141
12.0
290
     0
  0
SCALE
  5
67
102
{ACAD_REACTORS
330
36
102
}
330
36
100
AcDbScale
 70
     0
300
6" = 1'-0"
140
6.0
141
12.0
290
     0
  0
SCALE
  5
68
102
{ACAD_REACTORS
330
36
102
}
330
36
100
AcDbScale
 70
     0
300
1'-0" = 1'-0"
140
12.0
141
12.0
290
     0
  0
SCALE
  5
59
102
{ACAD_REACTORS
330
36
102
}
330
36
100
AcDbScale
 70
     0
300
1/128" = 1'-0"
140
0.0078125
141
12.0
290
     0
  0
SCALE
  5
5A
102
{ACAD_REACTORS
330
36
102
}
330
36
100
AcDbScale
 70
     0
300
1/64" = 1'-0"
140
0.015625
141
12.0
290
     0
  0
SCALE
  5
5B
102
{ACAD_REACTORS
330
36
102
}
330
36
100
AcDbScale
 70
     0
300
1/32" = 1'-0"
140
0.03125
141
12.0
290
     0
  0
SCALE
  5
5C
102
{ACAD_REACTORS
330
36
102
}
330
36
100
AcDbScale
 70
     0
300
1/16" = 1'-0"
140
0.0625
141
12.0
290
     0
  0
SCALE
  5
5D
102
{ACAD_REACTORS
330
36
102
}
330
36
100
AcDbScale
 70
     0
300
3/32" = 1'-0"
140
0.09375
141
12.0
290
     0
  0
SCALE
  5
5E
102
{ACAD_REACTORS
330
36
102
}
330
36
100
AcDbScale
 70
     0
300
1/8" = 1'-0"
140
0.125
141
12.0
290
     0
  0
SCALE
  5
5F
102
{ACAD_REACTORS
330
36
102
}
330
36
100
AcDbScale
 70
     0
300
3/16" = 1'-0"
140
0.1875
141
12.0
290
     0
  0
SCALE
  5
60
102
{ACAD_REACTORS
330
36
102
}
330
36
100
AcDbScale
 70
     0
300
1/4" = 1'-0"
140
0.25
141
12.0
290
     0
  0
TABLESTYLE
  5
69C
102
{ACAD_REACTORS
330
613
102
}
330
613
100
AcDbTableStyle
  3
Standard
 70
     0
 71
     0
 40
0.06
 41
0.06
280
     0
281
     0
  7
STANDARD
140
0.18
170
     2
 62
     0
 63
   257
283
     0
274
    -2
284
     1
 64
     0
275
    -2
285
     1
 65
     0
276
    -2
286
     1
 66
     0
277
    -2
287
     1
 67
     0
278
    -2
288
     1
 68
     0
279
    -2
289
     1
 69
     0
  7
STANDARD
140
0.25
170
     5
 62
     0
 63
   257
283
     0
274
    -2
284
     1
 64
     0
275
    -2
285
     1
 65
     0
276
    -2
286
     1
 66
     0
277
    -2
287
     1
 67
     0
278
    -2
288
     1
 68
     0
279
    -2
289
     1
 69
     0
  7
STANDARD
140
0.18
170
     5
 62
     0
 63
   257
283
     0
274
    -2
284
     1
 64
     0
275
    -2
285
     1
 65
     0
276
    -2
286
     1
 66
     0
277
    -2
287
     1
 67
     0
278
    -2
288
     1
 68
     0
279
    -2
289
     1
 69
     0
  0
VISUALSTYLE
  5
61B
102
{ACAD_REACTORS
330
2F
102
}
102
{ACAD_XDICTIONARY
360
6B9
102
}
330
2F
100
AcDbVisualStyle
  2
2dWireframe
 70
     4
 71
     0
 72
     2
 73
     0
 90
        0
 40
0.6
 41
30.0
 62
     5
 63
     7
 74
     1
 91
        4
 64
     7
 65
   257
 75
     1
175
     1
 42
1.0
 92
        0
 66
   257
 43
1.0
 76
     1
 77
     6
 78
     2
 67
     7
 79
     5
170
     0
171
     0
290
     0
174
     0
 93
        1
 44
0.0
173
     0
291
     0
 45
0.0
1001
ACAD
1000
AcDbSavedByObjectVersion
1070
     0
  0
VISUALSTYLE
  5
61D
102
{ACAD_REACTORS
330
2F
102
}
102
{ACAD_XDICTIONARY
360
6BD
102
}
330
2F
100
AcDbVisualStyle
  2
Basic
 70
     7
 71
     1
 72
     0
 73
     1
 90
        0
 40
0.6
 41
30.0
 62
     5
 63
     7
 74
     0
 91
        4
 64
     7
 65
   257
 75
     1
175
     1
 42
1.0
 92
        8
 66
     7
 43
1.0
 76
     1
 77
     6
 78
     2
 67
     7
 79
     5
170
     0
171
     0
290
     0
174
     0
 93
        1
 44
0.0
173
     0
291
     1
 45
0.0
1001
ACAD
1000
AcDbSavedByObjectVersion
1070
     0
  0
VISUALSTYLE
  5
620
102
{ACAD_REACTORS
330
2F
102
}
102
{ACAD_XDICTIONARY
360
6C3
102
}
330
2F
100
AcDbVisualStyle
  2
Brighten
 70
    12
 71
     2
 72
     2
 73
     0
 90
        0
 40
0.6
 41
30.0
 62
     5
 63
     7
 74
     1
 91
        4
 64
     7
 65
   257
 75
     1
175
     1
 42
1.0
 92
        8
 66
     7
 43
1.0
 76
     1
 77
     6
 78
     2
 67
     7
 79
     5
170
     0
171
     0
290
     0
174
     0
 93
        1
 44
50.0
173
     0
291
     1
 45
0.0
1001
ACAD
1000
AcDbSavedByObjectVersion
1070
     0
  0
VISUALSTYLE
  5
624
102
{ACAD_REACTORS
330
2F
102
}
102
{ACAD_XDICTIONARY
360
6CB
102
}
330
2F
100
AcDbVisualStyle
  2
ColorChange
 70
    16
 71
     2
 72
     2
 73
     3
 90
        0
 40
0.6
 41
30.0
 62
     5
 63
     8
 74
     1
 91
        4
 64
     7
 65
   257
 75
     1
175
     1
 42
1.0
 92
        8
 66
     8
 43
1.0
 76
     1
 77
     6
 78
     2
 67
     7
 79
     5
170
     0
171
     0
290
     0
174
     0
 93
        1
 44
0.0
173
     0
291
     1
 45
0.0
1001
ACAD
1000
AcDbSavedByObjectVersion
1070
     0
  0
VISUALSTYLE
  5
61E
102
{ACAD_REACTORS
330
2F
102
}
102
{ACAD_XDICTIONARY
360
6BF
102
}
330
2F
100
AcDbVisualStyle
  2
Conceptual
 70
     9
 71
     3
 72
     2
 73
     0
 90
        0
 40
0.6
 41
30.0
 62
     5
 63
     7
 74
     2
 91
        2
 64
     7
 65
   257
 75
     1
175
     1
 42
40.0
 92
        8
 66
     7
 43
1.0
 76
     1
 77
     6
 78
     2
 67
     7
 79
     3
170
     0
171
     0
290
     0
174
     0
 93
        1
 44
0.0
173
     0
291
     0
 45
0.0
1001
ACAD
1000
AcDbSavedByObjectVersion
1070
     0
  0
VISUALSTYLE
  5
61F
102
{ACAD_REACTORS
330
2F
102
}
102
{ACAD_XDICTIONARY
360
6C1
102
}
330
2F
100
AcDbVisualStyle
  2
Dim
 70
    11
 71
     2
 72
     2
 73
     0
 90
        0
 40
0.6
 41
30.0
 62
     5
 63
     7
 74
     1
 91
        4
 64
     7
 65
   257
 75
     1
175
     1
 42
1.0
 92
        8
 66
     7
 43
1.0
 76
     1
 77
     6
 78
     2
 67
     7
 79
     5
170
     0
171
     0
290
     0
174
     0
 93
        1
 44
-50.0
173
     0
291
     1
 45
0.0
1001
ACAD
1000
AcDbSavedByObjectVersion
1070
     0
  0
VISUALSTYLE
  5
627
102
{ACAD_REACTORS
330
2F
102
}
102
{ACAD_XDICTIONARY
360
6D1
102
}
330
2F
100
AcDbVisualStyle
  2
EdgeColorOff
 70
    22
 71
     2
 72
     2
 73
     0
 90
        0
 40
0.6
 41
30.0
 62
     5
 63
     7
 74
     1
 91
        4
 64
     7
 65
   257
 75
     1
175
     1
 42
1.0
 92
        8
 66
     7
 43
1.0
 76
     1
 77
     6
 78
     2
 67
     7
 79
     5
170
     0
171
     0
290
     0
174
     0
 93
        1
 44
0.0
173
     0
291
     1
 45
0.0
1001
ACAD
1000
AcDbSavedByObjectVersion
1070
     0
  0
VISUALSTYLE
  5
623
102
{ACAD_REACTORS
330
2F
102
}
102
{ACAD_XDICTIONARY
360
6C9
102
}
330
2F
100
AcDbVisualStyle
  2
Facepattern
 70
    15
 71
     2
 72
     2
 73
     0
 90
        0
 40
0.6
 41
30.0
 62
     5
 63
     7
 74
     1
 91
        4
 64
     7
 65
   257
 75
     1
175
     1
 42
1.0
 92
        8
 66
     7
 43
1.0
 76
     1
 77
     6
 78
     2
 67
     7
 79
     5
170
     0
171
     0
290
     0
174
     0
 93
        1
 44
0.0
173
     0
291
     1
 45
0.0
1001
ACAD
1000
AcDbSavedByObjectVersion
1070
     0
  0
VISUALSTYLE
  5
617
102
{ACAD_REACTORS
330
2F
102
}
102
{ACAD_XDICTIONARY
360
6B1
102
}
330
2F
100
AcDbVisualStyle
  2
Flat
 70
     0
 71
     2
 72
     1
 73
     1
 90
        2
 40
0.6
 41
30.0
 62
     5
 63
     7
 74
     0
 91
        4
 64
     7
 65
   257
 75
     1
175
     1
 42
1.0
 92
        8
 66
     7
 43
1.0
 76
     1
 77
     6
 78
     2
 67
     7
 79
     5
170
     0
171
     0
290
     0
174
     0
 93
       13
 44
0.0
173
     0
291
     1
 45
0.0
1001
ACAD
1000
AcDbSavedByObjectVersion
1070
     0
  0
VISUALSTYLE
  5
618
102
{ACAD_REACTORS
330
2F
102
}
102
{ACAD_XDICTIONARY
360
6B3
102
}
330
2F
100
AcDbVisualStyle
  2
FlatWithEdges
 70
     1
 71
     2
 72
     1
 73
     1
 90
        2
 40
0.6
 41
30.0
 62
     5
 63
     7
 74
     1
 91
        4
 64
     7
 65
   257
 75
     1
175
     1
 42
1.0
 92
        0
 66
   257
 43
1.0
 76
     1
 77
     6
 78
     2
 67
     7
 79
     5
170
     0
171
     0
290
     0
174
     0
 93
       13
 44
0.0
173
     0
291
     1
 45
0.0
1001
ACAD
1000
AcDbSavedByObjectVersion
1070
     0
  0
VISUALSTYLE
  5
619
102
{ACAD_REACTORS
330
2F
102
}
102
{ACAD_XDICTIONARY
360
6B5
102
}
330
2F
100
AcDbVisualStyle
  2
Gouraud
 70
     2
 71
     2
 72
     2
 73
     1
 90
        2
 40
0.6
 41
30.0
 62
     5
 63
     7
 74
     0
 91
        4
 64
     7
 65
   257
 75
     1
175
     1
 42
1.0
 92
        0
 66
     7
 43
1.0
 76
     1
 77
     6
 78
     2
 67
     7
 79
     5
170
     0
171
     0
290
     0
174
     0
 93
       13
 44
0.0
173
     0
291
     1
 45
0.0
1001
ACAD
1000
AcDbSavedByObjectVersion
1070
     0
  0
VISUALSTYLE
  5
61A
102
{ACAD_REACTORS
330
2F
102
}
102
{ACAD_XDICTIONARY
360
6B7
102
}
330
2F
100
AcDbVisualStyle
  2
GouraudWithEdges
 70
     3
 71
     2
 72
     2
 73
     1
 90
        2
 40
0.6
 41
30.0
 62
     5
 63
     7
 74
     1
 91
        4
 64
     7
 65
   257
 75
     1
175
     1
 42
1.0
 92
        0
 66
   257
 43
1.0
 76
     1
 77
     6
 78
     2
 67
     7
 79
     5
170
     0
171
     0
290
     0
174
     0
 93
       13
 44
0.0
173
     0
291
     1
 45
0.0
1001
ACAD
1000
AcDbSavedByObjectVersion
1070
     0
  0
VISUALSTYLE
  5
61C
102
{ACAD_REACTORS
330
2F
102
}
102
{ACAD_XDICTIONARY
360
6BB
102
}
330
2F
100
AcDbVisualStyle
  2
Hidden
 70
     6
 71
     1
 72
     2
 73
     2
 90
        0
 40
0.6
 41
30.0
 62
     5
 63
     7
 74
     2
 91
        2
 64
     7
 65
   257
 75
     2
175
     1
 42
40.0
 92
        0
 66
   257
 43
1.0
 76
     1
 77
     6
 78
     2
 67
     7
 79
     3
170
     0
171
     0
290
     0
174
     0
 93
        1
 44
0.0
173
     0
291
     0
 45
0.0
1001
ACAD
1000
AcDbSavedByObjectVersion
1070
     0
  0
VISUALSTYLE
  5
625
102
{ACAD_REACTORS
330
2F
102
}
102
{ACAD_XDICTIONARY
360
6CD
102
}
330
2F
100
AcDbVisualStyle
  2
JitterOff
 70
    20
 71
     2
 72
     2
 73
     0
 90
        0
 40
0.6
 41
30.0
 62
     5
 63
     7
 74
     1
 91
        4
 64
     7
 65
   257
 75
     1
175
     1
 42
1.0
 92
       10
 66
     7
 43
1.0
 76
     1
 77
     6
 78
     2
 67
     7
 79
     5
170
     0
171
     0
290
     0
174
     0
 93
        1
 44
0.0
173
     0
291
     1
 45
0.0
1001
ACAD
1000
AcDbSavedByObjectVersion
1070
     0
  0
VISUALSTYLE
  5
622
102
{ACAD_REACTORS
330
2F
102
}
102
{ACAD_XDICTIONARY
360
6C7
102
}
330
2F
100
AcDbVisualStyle
  2
Linepattern
 70
    14
 71
     2
 72
     2
 73
     0
 90
        0
 40
0.6
 41
30.0
 62
     5
 63
     7
 74
     1
 91
        4
 64
     7
 65
   257
 75
     7
175
     7
 42
1.0
 92
        8
 66
     7
 43
1.0
 76
     1
 77
     6
 78
     2
 67
     7
 79
     5
170
     0
171
     0
290
     0
174
     0
 93
        1
 44
0.0
173
     0
291
     1
 45
0.0
1001
ACAD
1000
AcDbSavedByObjectVersion
1070
     0
  0
VISUALSTYLE
  5
626
102
{ACAD_REACTORS
330
2F
102
}
102
{ACAD_XDICTIONARY
360
6CF
102
}
330
2F
100
AcDbVisualStyle
  2
OverhangOff
 70
    21
 71
     2
 72
     2
 73
     0
 90
        0
 40
0.6
 41
30.0
 62
     5
 63
     7
 74
     1
 91
        4
 64
     7
 65
   257
 75
     1
175
     1
 42
1.0
 92
        9
 66
     7
 43
1.0
 76
     1
 77
     6
 78
     2
 67
     7
 79
     5
170
     0
171
     0
290
     0
174
     0
 93
        1
 44
0.0
173
     0
291
     1
 45
0.0
1001
ACAD
1000
AcDbSavedByObjectVersion
1070
     0
  0
VISUALSTYLE
  5
30
102
{ACAD_REACTORS
330
2F
102
}
102
{ACAD_XDICTIONARY
360
6AD
102
}
330
2F
100
AcDbVisualStyle
  2
Realistic
 70
     8
 71
     2
 72
     3
 73
     0
 90
        2
 40
0.6
 41
30.0
 62
     5
 63
     7
 74
     0
 91
        0
 64
     7
 65
   257
 75
     1
175
     1
 42
1.0
 92
        8
 66
   257
 43
1.0
 76
     1
 77
     6
 78
     2
 67
     7
 79
     3
170
     0
171
     0
290
     0
174
     0
 93
       13
 44
0.0
173
     0
291
     0
 45
0.0
1001
ACAD
1000
AcDbSavedByObjectVersion
1070
     0
  0
VISUALSTYLE
  5
62C
102
{ACAD_REACTORS
330
2F
102
}
102
{ACAD_XDICTIONARY
360
6DB
102
}
330
2F
100
AcDbVisualStyle
  2
Shaded
 70
    27
 71
     2
 72
     2
 73
     1
 90
        2
 40
0.6
 41
30.0
 62
     5
 63
     7
 74
     0
 91
        4
 64
     7
 65
   257
 75
     1
175
     1
 42
1.0
 92
        8
 66
   257
 43
1.0
 76
     1
 77
     6
 78
     2
 67
   251
 79
     3
170
     0
171
     0
290
     0
174
     0
 93
        5
 44
0.0
173
     0
291
     0
 45
0.0
1001
ACAD
1000
AcDbSavedByObjectVersion
1070
     0
  0
VISUALSTYLE
  5
62B
102
{ACAD_REACTORS
330
2F
102
}
102
{ACAD_XDICTIONARY
360
6D9
102
}
330
2F
100
AcDbVisualStyle
  2
Shaded with edges
 70
    26
 71
     2
 72
     2
 73
     1
 90
        2
 40
0.6
 41
30.0
 62
     5
 63
     7
 74
     1
 91
       10
 64
     7
 65
   257
 75
     2
175
     1
 42
1.0
 92
        8
 66
   257
 43
1.0
 76
     1
 77
     6
 78
     2
 67
     7
 79
     3
170
     0
171
     0
290
     0
174
     0
 93
        5
 44
0.0
173
     0
291
     0
 45
0.0
1001
ACAD
1000
AcDbSavedByObjectVersion
1070
     0
  0
VISUALSTYLE
  5
628
102
{ACAD_REACTORS
330
2F
102
}
102
{ACAD_XDICTIONARY
360
6D3
102
}
330
2F
100
AcDbVisualStyle
  2
Shades of Gray
 70
    23
 71
     2
 72
     2
 73
     3
 90
        0
 40
0.6
 41
30.0
 62
     5
 63
     7
 74
     2
 91
        2
 64
     7
 65
     7
 75
     1
175
     1
 42
40.0
 92
        8
 66
     7
 43
1.0
 76
     1
 77
     6
 78
     2
 67
     7
 79
     3
170
     0
171
     0
290
     0
174
     0
 93
        1
 44
0.0
173
     0
291
     0
 45
0.0
1001
ACAD
1000
AcDbSavedByObjectVersion
1070
     0
  0
VISUALSTYLE
  5
629
102
{ACAD_REACTORS
330
2F
102
}
102
{ACAD_XDICTIONARY
360
6D5
102
}
330
2F
100
AcDbVisualStyle
  2
Sketchy
 70
    24
 71
     1
 72
     2
 73
     2
 90
        0
 40
0.6
 41
30.0
 62
     5
 63
     7
 74
     2
 91
        2
 64
     7
 65
     7
 75
     1
175
     1
 42
40.0
 92
       11
 66
     7
 43
1.0
 76
     1
 77
     6
 78
     2
 67
     7
 79
     6
170
     0
171
     0
290
     0
174
     0
 93
        1
 44
0.0
173
     0
291
     0
 45
0.0
1001
ACAD
1000
AcDbSavedByObjectVersion
1070
     0
  0
VISUALSTYLE
  5
621
102
{ACAD_REACTORS
330
2F
102
}
102
{ACAD_XDICTIONARY
360
6C5
102
}
330
2F
100
AcDbVisualStyle
  2
Thicken
 70
    13
 71
     2
 72
     2
 73
     0
 90
        0
 40
0.6
 41
30.0
 62
     5
 63
     7
 74
     1
 91
        4
 64
     7
 65
   257
 75
     1
175
     1
 42
1.0
 92
       12
 66
     7
 43
1.0
 76
     1
 77
     6
 78
     2
 67
     7
 79
     5
170
     0
171
     0
290
     0
174
     0
 93
        1
 44
0.0
173
     0
291
     1
 45
0.0
1001
ACAD
1000
AcDbSavedByObjectVersion
1070
     0
  0
VISUALSTYLE
  5
31
102
{ACAD_REACTORS
330
2F
102
}
102
{ACAD_XDICTIONARY
360
6AF
102
}
330
2F
100
AcDbVisualStyle
  2
Wireframe
 70
     5
 71
     0
 72
     2
 73
     0
 90
        0
 40
0.6
 41
30.0
 62
     5
 63
     7
 74
     1
 91
        4
 64
     7
 65
   257
 75
     1
175
     1
 42
1.0
 92
        0
 66
   257
 43
1.0
 76
     1
 77
     6
 78
     2
 67
     7
 79
     3
170
     0
171
     0
290
     0
174
     0
 93
        1
 44
0.0
173
     0
291
     0
 45
0.0
1001
ACAD
1000
AcDbSavedByObjectVersion
1070
     0
  0
VISUALSTYLE
  5
62A
102
{ACAD_REACTORS
330
2F
102
}
102
{ACAD_XDICTIONARY
360
6D7
102
}
330
2F
100
AcDbVisualStyle
  2
X-Ray
 70
    25
 71
     2
 72
     2
 73
     1
 90
        1
 40
0.5
 41
30.0
 62
     5
 63
     7
 74
     1
 91
        0
 64
     7
 65
   257
 75
     1
175
     1
 42
1.0
 92
        8
 66
     7
 43
1.0
 76
     1
 77
     6
 78
     2
 67
     7
 79
     3
170
     0
171
     0
290
     0
174
     0
 93
       13
 44
0.0
173
     0
291
     0
 45
0.0
1001
ACAD
1000
AcDbSavedByObjectVersion
1070
     0
  0
XRECORD
  5
6A1
102
{ACAD_REACTORS
330
6A0
102
}
330
6A0
100
AcDbXrecord
280
     1
340
2E
  0
XRECORD
  5
6A2
102
{ACAD_REACTORS
330
6A0
102
}
330
6A0
100
AcDbXrecord
280
     1
340
B
  0
DICTIONARYVAR
  5
612
102
{ACAD_REACTORS
330
611
102
}
330
611
100
DictionaryVariables
280
     0
  1
1:1
  0
DICTIONARYVAR
  5
663
102
{ACAD_REACTORS
330
611
102
}
330
611
100
DictionaryVariables
280
     0
  1
Standard
  0
DICTIONARYVAR
  5
69D
102
{ACAD_REACTORS
330
611
102
}
330
611
100
DictionaryVariables
280
     0
  1
Standard
  0
DICTIONARYVAR
  5
69E
102
{ACAD_REACTORS
330
611
102
}
330
611
100
DictionaryVariables
280
     0
  1
0
  0
DICTIONARYVAR
  5
69F
102
{ACAD_REACTORS
330
611
102
}
330
611
100
DictionaryVariables
280
     0
  1
1
  0
DICTIONARYVAR
  5
6A6
102
{ACAD_REACTORS
330
611
102
}
330
611
100
DictionaryVariables
280
     0
  1
1
  0
DICTIONARY
  5
6AB
330
69
100
AcDbDictionary
280
     1
281
     1
  3
ACAD_XREC_ROUNDTRIP
360
6AC
  0
DICTIONARY
  5
6A7
330
12
100
AcDbDictionary
280
     1
281
     1
  3
ACAD_XREC_ROUNDTRIP
360
6A8
  0
DICTIONARY
  5
6A9
330
A
100
AcDbDictionary
280
     1
281
     1
  3
ACAD_XREC_ROUNDTRIP
360
6AA
  0
DICTIONARY
  5
6DD
330
62D
100
AcDbDictionary
280
     1
281
     1
  3
ACAD_XREC_ROUNDTRIP
360
6DE
  0
DICTIONARY
  5
6B9
330
61B
100
AcDbDictionary
280
     1
281
     1
  3
ACAD_XREC_ROUNDTRIP
360
6BA
  0
DICTIONARY
  5
6BD
330
61D
100
AcDbDictionary
280
     1
281
     1
  3
ACAD_XREC_ROUNDTRIP
360
6BE
  0
DICTIONARY
  5
6C3
330
620
100
AcDbDictionary
280
     1
281
     1
  3
ACAD_XREC_ROUNDTRIP
360
6C4
  0
DICTIONARY
  5
6CB
330
624
100
AcDbDictionary
280
     1
281
     1
  3
ACAD_XREC_ROUNDTRIP
360
6CC
  0
DICTIONARY
  5
6BF
330
61E
100
AcDbDictionary
280
     1
281
     1
  3
ACAD_XREC_ROUNDTRIP
360
6C0
  0
DICTIONARY
  5
6C1
330
61F
100
AcDbDictionary
280
     1
281
     1
  3
ACAD_XREC_ROUNDTRIP
360
6C2
  0
DICTIONARY
  5
6D1
330
627
100
AcDbDictionary
280
     1
281
     1
  3
ACAD_XREC_ROUNDTRIP
360
6D2
  0
DICTIONARY
  5
6C9
330
623
100
AcDbDictionary
280
     1
281
     1
  3
ACAD_XREC_ROUNDTRIP
360
6CA
  0
DICTIONARY
  5
6B1
330
617
100
AcDbDictionary
280
     1
281
     1
  3
ACAD_XREC_ROUNDTRIP
360
6B2
  0
DICTIONARY
  5
6B3
330
618
100
AcDbDictionary
280
     1
281
     1
  3
ACAD_XREC_ROUNDTRIP
360
6B4
  0
DICTIONARY
  5
6B5
330
619
100
AcDbDictionary
280
     1
281
     1
  3
ACAD_XREC_ROUNDTRIP
360
6B6
  0
DICTIONARY
  5
6B7
330
61A
100
AcDbDictionary
280
     1
281
     1
  3
ACAD_XREC_ROUNDTRIP
360
6B8
  0
DICTIONARY
  5
6BB
330
61C
100
AcDbDictionary
280
     1
281
     1
  3
ACAD_XREC_ROUNDTRIP
360
6BC
  0
DICTIONARY
  5
6CD
330
625
100
AcDbDictionary
280
     1
281
     1
  3
ACAD_XREC_ROUNDTRIP
360
6CE
  0
DICTIONARY
  5
6C7
330
622
100
AcDbDictionary
280
     1
281
     1
  3
ACAD_XREC_ROUNDTRIP
360
6C8
  0
DICTIONARY
  5
6CF
330
626
100
AcDbDictionary
280
     1
281
     1
  3
ACAD_XREC_ROUNDTRIP
360
6D0
  0
DICTIONARY
  5
6AD
330
30
100
AcDbDictionary
280
     1
281
     1
  3
ACAD_XREC_ROUNDTRIP
360
6AE
  0
DICTIONARY
  5
6DB
330
62C
100
AcDbDictionary
280
     1
281
     1
  3
ACAD_XREC_ROUNDTRIP
360
6DC
  0
DICTIONARY
  5
6D9
330
62B
100
AcDbDictionary
280
     1
281
     1
  3
ACAD_XREC_ROUNDTRIP
360
6DA
  0
DICTIONARY
  5
6D3
330
628
100
AcDbDictionary
280
     1
281
     1
  3
ACAD_XREC_ROUNDTRIP
360
6D4
  0
DICTIONARY
  5
6D5
330
629
100
AcDbDictionary
280
     1
281
     1
  3
ACAD_XREC_ROUNDTRIP
360
6D6
  0
DICTIONARY
  5
6C5
330
621
100
AcDbDictionary
280
     1
281
     1
  3
ACAD_XREC_ROUNDTRIP
360
6C6
  0
DICTIONARY
  5
6AF
330
31
100
AcDbDictionary
280
     1
281
     1
  3
ACAD_XREC_ROUNDTRIP
360
6B0
  0
DICTIONARY
  5
6D7
330
62A
100
AcDbDictionary
280
     1
281
     1
  3
ACAD_XREC_ROUNDTRIP
360
6D8
  0
XRECORD
  5
6AC
102
{ACAD_REACTORS
330
6AB
102
}
330
6AB
100
AcDbXrecord
280
     1
102
MATERIAL
148
0.0
149
0.0
149
0.0
 93
        0
 94
      127
282
     0
 72
     0
 77
     0
171
     0
175
     0
179
     0
273
     0
  0
XRECORD
  5
6A8
102
{ACAD_REACTORS
330
6A7
102
}
330
6A7
100
AcDbXrecord
280
     1
102
MATERIAL
148
0.0
149
0.0
149
0.0
 93
        0
 94
      127
282
     0
 72
     0
 77
     0
171
     0
175
     0
179
     0
273
     0
  0
XRECORD
  5
6AA
102
{ACAD_REACTORS
330
6A9
102
}
330
6A9
100
AcDbXrecord
280
     1
102
MATERIAL
148
0.0
149
0.0
149
0.0
 93
        0
 94
      127
282
     0
 72
     0
 77
     0
171
     0
175
     0
179
     0
273
     0
  0
XRECORD
  5
6DE
102
{ACAD_REACTORS
330
6DD
102
}
330
6DD
100
AcDbXrecord
280
     1
102
ACAD_ROUNDTRIP_2010_MLEADER_STYLE
  0
XRECORD
  5
6BA
102
{ACAD_REACTORS
330
6B9
102
}
330
6B9
100
AcDbXrecord
280
     1
102
RTVSPropertyOp0
 70
     1
102
RTVSPropertyOp1
 70
     1
102
RTVSPropertyOp2
 70
     1
102
RTVSPropertyOp3
 70
     1
102
RTVSPropertyOp4
 70
     1
102
RTVSPropertyOp5
 70
     1
102
RTVSPropertyOp6
 70
     1
102
RTVSPropertyOp7
 70
     1
102
RTVSPropertyOp8
 70
     1
102
RTVSPropertyOp9
 70
     1
102
RTVSPropertyOp10
 70
     1
102
RTVSPropertyOp11
 70
     1
102
RTVSPropertyOp12
 70
     1
102
RTVSPropertyOp13
 70
     1
102
RTVSPropertyOp14
 70
     1
102
RTVSPropertyOp15
 70
     1
102
RTVSPropertyOp16
 70
     1
102
RTVSPropertyOp17
 70
     1
102
RTVSPropertyOp18
 70
     1
102
RTVSPropertyOp19
 70
     1
102
RTVSPropertyOp20
 70
     1
102
RTVSPropertyOp21
 70
     1
102
RTVSPropertyOp22
 70
     1
102
RTVSPropertyOp23
 70
     1
102
RTVSPropertyOp24
 70
     1
102
RTVSPropertyOp25
 70
     1
102
RTVSPropertyOp26
 70
     1
102
RTVSPropertyOp27
 70
     1
102
RTVSPropertyOp28
 70
     1
102
RTVSPropertyOp29
 70
     1
102
RTVSPropertyOp30
 70
     1
102
RTVSPropertyOp31
 70
     1
102
RTVSPropertyOp32
 70
     1
102
RTVSPropertyOp33
 70
     1
102
RTVSPropertyOp34
 70
     1
102
RTVSPropertyOp35
 70
     1
102
RTVSPropertyOp36
 70
     1
102
RTVSPropertyOp37
 70
     1
102
RTVSPropertyOp38
 70
     1
102
RTVSPropertyOp39
 70
     1
102
RTVSPropertyOp40
 70
     1
102
RTVSPropertyOp41
 70
     1
102
RTVSPropertyOp42
 70
     1
102
RTVSPropertyOp43
 70
     1
102
RTVSPropertyOp44
 70
     1
102
RTVSPropertyOp45
 70
     1
102
RTVSPropertyOp46
 70
     1
102
RTVSPropertyOp47
 70
     1
102
RTVSPropertyOp48
 70
     1
102
RTVSPropertyOp49
 70
     1
102
RTVSPropertyOp50
 70
     1
102
RTVSPropertyOp51
 70
     0
102
RTVSPropertyOp52
 70
     0
102
RTVSPropertyOp53
 70
     1
102
RTVSPropertyOp54
 70
     1
102
RTVSPropertyOp55
 70
     1
102
RTVSPropertyOp56
 70
     1
102
RTVSPropertyOp57
 70
     1
102
RTVSPost2010Prop28
280
     1
102
RTVSPost2010PropOp28
 70
     1
102
RTVSPost2010Prop29
280
     1
102
RTVSPost2010PropOp29
 70
     1
102
RTVSPost2010Prop30
280
     0
102
RTVSPost2010PropOp30
 70
     1
102
RTVSPost2010Prop31
280
     0
102
RTVSPost2010PropOp31
 70
     1
102
RTVSPost2010Prop32
280
     0
102
RTVSPost2010PropOp32
 70
     1
102
RTVSPost2010Prop33
280
     0
102
RTVSPost2010PropOp33
 70
     1
102
RTVSPost2010Prop34
280
     0
102
RTVSPost2010PropOp34
 70
     1
102
RTVSPost2010Prop35
280
     0
102
RTVSPost2010PropOp35
 70
     1
102
RTVSPost2010Prop36
280
     0
102
RTVSPost2010PropOp36
 70
     1
102
RTVSPost2010Prop37
 90
       50
102
RTVSPost2010PropOp37
 70
     1
102
RTVSPost2010Prop38
140
0.0
102
RTVSPost2010PropOp38
 70
     1
102
RTVSPost2010Prop39
140
1.0
102
RTVSPost2010PropOp39
 70
     1
102
RTVSPost2010Prop40
 90
        0
102
RTVSPost2010PropOp40
 70
     1
102
RTVSPost2010Prop41ColorIndex
 90
       18
102
RTVSPost2010Prop41ColorRGB
 90
        0
102
RTVSPost2010PropOp41
 70
     1
102
RTVSPost2010Prop42
 90
       50
102
RTVSPost2010PropOp42
 70
     1
102
RTVSPost2010Prop43
 90
        3
102
RTVSPost2010PropOp43
 70
     1
102
RTVSPost2010Prop44ColorIndex
 90
        5
102
RTVSPost2010Prop44ColorRGB
 90
      255
102
RTVSPost2010PropOp44
 70
     1
102
RTVSPost2010Prop45
280
     0
102
RTVSPost2010PropOp45
 70
     1
102
RTVSPost2010Prop46
 90
       50
102
RTVSPost2010PropOp46
 70
     1
102
RTVSPost2010Prop47
 90
       50
102
RTVSPost2010PropOp47
 70
     1
102
RTVSPost2010Prop48
 90
       50
102
RTVSPost2010PropOp48
 70
     1
102
RTVSPost2010Prop49
280
     0
102
RTVSPost2010PropOp49
 70
     1
102
RTVSPost2010Prop50
 90
       50
102
RTVSPost2010PropOp50
 70
     1
102
RTVSPost2010Prop51ColorIndex
 90
      256
102
RTVSPost2010Prop51ColorRGB
 90
-16777216
102
RTVSPost2010PropOp51
 70
     0
102
RTVSPost2010Prop52
140
1.0
102
RTVSPost2010PropOp52
 70
     0
102
RTVSPost2010Prop53
 90
        2
102
RTVSPost2010PropOp53
 70
     1
102
RTVSPost2010Prop54
  1
strokes_ogs.tif
102
RTVSPost2010PropOp54
 70
     1
102
RTVSPost2010Prop55
280
     0
102
RTVSPost2010PropOp55
 70
     1
102
RTVSPost2010Prop56
140
1.0
102
RTVSPost2010PropOp56
 70
     1
102
RTVSPost2010Prop57
140
1.0
102
RTVSPost2010PropOp57
 70
     1
  0
XRECORD
  5
6BE
102
{ACAD_REACTORS
330
6BD
102
}
330
6BD
100
AcDbXrecord
280
     1
102
RTVSPropertyOp0
 70
     1
102
RTVSPropertyOp1
 70
     1
102
RTVSPropertyOp2
 70
     1
102
RTVSPropertyOp3
 70
     1
102
RTVSPropertyOp4
 70
     1
102
RTVSPropertyOp5
 70
     1
102
RTVSPropertyOp6
 70
     1
102
RTVSPropertyOp7
 70
     1
102
RTVSPropertyOp8
 70
     1
102
RTVSPropertyOp9
 70
     1
102
RTVSPropertyOp10
 70
     1
102
RTVSPropertyOp11
 70
     1
102
RTVSPropertyOp12
 70
     1
102
RTVSPropertyOp13
 70
     1
102
RTVSPropertyOp14
 70
     1
102
RTVSPropertyOp15
 70
     1
102
RTVSPropertyOp16
 70
     1
102
RTVSPropertyOp17
 70
     1
102
RTVSPropertyOp18
 70
     1
102
RTVSPropertyOp19
 70
     1
102
RTVSPropertyOp20
 70
     1
102
RTVSPropertyOp21
 70
     1
102
RTVSPropertyOp22
 70
     1
102
RTVSPropertyOp23
 70
     1
102
RTVSPropertyOp24
 70
     1
102
RTVSPropertyOp25
 70
     1
102
RTVSPropertyOp26
 70
     1
102
RTVSPropertyOp27
 70
     1
102
RTVSPropertyOp28
 70
     1
102
RTVSPropertyOp29
 70
     1
102
RTVSPropertyOp30
 70
     1
102
RTVSPropertyOp31
 70
     1
102
RTVSPropertyOp32
 70
     1
102
RTVSPropertyOp33
 70
     1
102
RTVSPropertyOp34
 70
     1
102
RTVSPropertyOp35
 70
     1
102
RTVSPropertyOp36
 70
     1
102
RTVSPropertyOp37
 70
     1
102
RTVSPropertyOp38
 70
     1
102
RTVSPropertyOp39
 70
     1
102
RTVSPropertyOp40
 70
     1
102
RTVSPropertyOp41
 70
     1
102
RTVSPropertyOp42
 70
     1
102
RTVSPropertyOp43
 70
     1
102
RTVSPropertyOp44
 70
     1
102
RTVSPropertyOp45
 70
     1
102
RTVSPropertyOp46
 70
     1
102
RTVSPropertyOp47
 70
     1
102
RTVSPropertyOp48
 70
     1
102
RTVSPropertyOp49
 70
     1
102
RTVSPropertyOp50
 70
     1
102
RTVSPropertyOp51
 70
     0
102
RTVSPropertyOp52
 70
     0
102
RTVSPropertyOp53
 70
     1
102
RTVSPropertyOp54
 70
     1
102
RTVSPropertyOp55
 70
     1
102
RTVSPropertyOp56
 70
     1
102
RTVSPropertyOp57
 70
     1
102
RTVSPost2010Prop28
280
     0
102
RTVSPost2010PropOp28
 70
     1
102
RTVSPost2010Prop29
280
     1
102
RTVSPost2010PropOp29
 70
     1
102
RTVSPost2010Prop30
280
     1
102
RTVSPost2010PropOp30
 70
     1
102
RTVSPost2010Prop31
280
     0
102
RTVSPost2010PropOp31
 70
     1
102
RTVSPost2010Prop32
280
     0
102
RTVSPost2010PropOp32
 70
     1
102
RTVSPost2010Prop33
280
     0
102
RTVSPost2010PropOp33
 70
     1
102
RTVSPost2010Prop34
280
     0
102
RTVSPost2010PropOp34
 70
     1
102
RTVSPost2010Prop35
280
     0
102
RTVSPost2010PropOp35
 70
     1
102
RTVSPost2010Prop36
280
     0
102
RTVSPost2010PropOp36
 70
     1
102
RTVSPost2010Prop37
 90
       50
102
RTVSPost2010PropOp37
 70
     1
102
RTVSPost2010Prop38
140
0.0
102
RTVSPost2010PropOp38
 70
     1
102
RTVSPost2010Prop39
140
1.0
102
RTVSPost2010PropOp39
 70
     1
102
RTVSPost2010Prop40
 90
        0
102
RTVSPost2010PropOp40
 70
     1
102
RTVSPost2010Prop41ColorIndex
 90
       18
102
RTVSPost2010Prop41ColorRGB
 90
        0
102
RTVSPost2010PropOp41
 70
     1
102
RTVSPost2010Prop42
 90
       50
102
RTVSPost2010PropOp42
 70
     1
102
RTVSPost2010Prop43
 90
        3
102
RTVSPost2010PropOp43
 70
     1
102
RTVSPost2010Prop44ColorIndex
 90
        5
102
RTVSPost2010Prop44ColorRGB
 90
      255
102
RTVSPost2010PropOp44
 70
     1
102
RTVSPost2010Prop45
280
     0
102
RTVSPost2010PropOp45
 70
     1
102
RTVSPost2010Prop46
 90
       50
102
RTVSPost2010PropOp46
 70
     1
102
RTVSPost2010Prop47
 90
       50
102
RTVSPost2010PropOp47
 70
     1
102
RTVSPost2010Prop48
 90
       50
102
RTVSPost2010PropOp48
 70
     1
102
RTVSPost2010Prop49
280
     0
102
RTVSPost2010PropOp49
 70
     1
102
RTVSPost2010Prop50
 90
       50
102
RTVSPost2010PropOp50
 70
     1
102
RTVSPost2010Prop51ColorIndex
 90
      256
102
RTVSPost2010Prop51ColorRGB
 90
-16777216
102
RTVSPost2010PropOp51
 70
     0
102
RTVSPost2010Prop52
140
1.0
102
RTVSPost2010PropOp52
 70
     0
102
RTVSPost2010Prop53
 90
        2
102
RTVSPost2010PropOp53
 70
     1
102
RTVSPost2010Prop54
  1
strokes_ogs.tif
102
RTVSPost2010PropOp54
 70
     1
102
RTVSPost2010Prop55
280
     0
102
RTVSPost2010PropOp55
 70
     1
102
RTVSPost2010Prop56
140
1.0
102
RTVSPost2010PropOp56
 70
     1
102
RTVSPost2010Prop57
140
1.0
102
RTVSPost2010PropOp57
 70
     1
  0
XRECORD
  5
6C4
102
{ACAD_REACTORS
330
6C3
102
}
330
6C3
100
AcDbXrecord
280
     1
102
RTVSPropertyOp0
 70
     1
102
RTVSPropertyOp1
 70
     1
102
RTVSPropertyOp2
 70
     1
102
RTVSPropertyOp3
 70
     1
102
RTVSPropertyOp4
 70
     1
102
RTVSPropertyOp5
 70
     1
102
RTVSPropertyOp6
 70
     1
102
RTVSPropertyOp7
 70
     1
102
RTVSPropertyOp8
 70
     1
102
RTVSPropertyOp9
 70
     1
102
RTVSPropertyOp10
 70
     1
102
RTVSPropertyOp11
 70
     1
102
RTVSPropertyOp12
 70
     1
102
RTVSPropertyOp13
 70
     1
102
RTVSPropertyOp14
 70
     1
102
RTVSPropertyOp15
 70
     1
102
RTVSPropertyOp16
 70
     1
102
RTVSPropertyOp17
 70
     1
102
RTVSPropertyOp18
 70
     1
102
RTVSPropertyOp19
 70
     1
102
RTVSPropertyOp20
 70
     1
102
RTVSPropertyOp21
 70
     1
102
RTVSPropertyOp22
 70
     1
102
RTVSPropertyOp23
 70
     1
102
RTVSPropertyOp24
 70
     1
102
RTVSPropertyOp25
 70
     1
102
RTVSPropertyOp26
 70
     1
102
RTVSPropertyOp27
 70
     1
102
RTVSPropertyOp28
 70
     1
102
RTVSPropertyOp29
 70
     1
102
RTVSPropertyOp30
 70
     1
102
RTVSPropertyOp31
 70
     1
102
RTVSPropertyOp32
 70
     1
102
RTVSPropertyOp33
 70
     1
102
RTVSPropertyOp34
 70
     1
102
RTVSPropertyOp35
 70
     1
102
RTVSPropertyOp36
 70
     1
102
RTVSPropertyOp37
 70
     1
102
RTVSPropertyOp38
 70
     1
102
RTVSPropertyOp39
 70
     1
102
RTVSPropertyOp40
 70
     1
102
RTVSPropertyOp41
 70
     1
102
RTVSPropertyOp42
 70
     1
102
RTVSPropertyOp43
 70
     1
102
RTVSPropertyOp44
 70
     1
102
RTVSPropertyOp45
 70
     1
102
RTVSPropertyOp46
 70
     1
102
RTVSPropertyOp47
 70
     1
102
RTVSPropertyOp48
 70
     1
102
RTVSPropertyOp49
 70
     1
102
RTVSPropertyOp50
 70
     1
102
RTVSPropertyOp51
 70
     0
102
RTVSPropertyOp52
 70
     0
102
RTVSPropertyOp53
 70
     1
102
RTVSPropertyOp54
 70
     1
102
RTVSPropertyOp55
 70
     1
102
RTVSPropertyOp56
 70
     1
102
RTVSPropertyOp57
 70
     1
102
RTVSPost2010Prop28
280
     0
102
RTVSPost2010PropOp28
 70
     1
102
RTVSPost2010Prop29
280
     1
102
RTVSPost2010PropOp29
 70
     1
102
RTVSPost2010Prop30
280
     1
102
RTVSPost2010PropOp30
 70
     1
102
RTVSPost2010Prop31
280
     0
102
RTVSPost2010PropOp31
 70
     1
102
RTVSPost2010Prop32
280
     0
102
RTVSPost2010PropOp32
 70
     1
102
RTVSPost2010Prop33
280
     0
102
RTVSPost2010PropOp33
 70
     1
102
RTVSPost2010Prop34
280
     0
102
RTVSPost2010PropOp34
 70
     1
102
RTVSPost2010Prop35
280
     0
102
RTVSPost2010PropOp35
 70
     1
102
RTVSPost2010Prop36
280
     0
102
RTVSPost2010PropOp36
 70
     1
102
RTVSPost2010Prop37
 90
       50
102
RTVSPost2010PropOp37
 70
     1
102
RTVSPost2010Prop38
140
0.0
102
RTVSPost2010PropOp38
 70
     1
102
RTVSPost2010Prop39
140
1.0
102
RTVSPost2010PropOp39
 70
     1
102
RTVSPost2010Prop40
 90
        0
102
RTVSPost2010PropOp40
 70
     1
102
RTVSPost2010Prop41ColorIndex
 90
       18
102
RTVSPost2010Prop41ColorRGB
 90
        0
102
RTVSPost2010PropOp41
 70
     1
102
RTVSPost2010Prop42
 90
       50
102
RTVSPost2010PropOp42
 70
     1
102
RTVSPost2010Prop43
 90
        3
102
RTVSPost2010PropOp43
 70
     1
102
RTVSPost2010Prop44ColorIndex
 90
        5
102
RTVSPost2010Prop44ColorRGB
 90
      255
102
RTVSPost2010PropOp44
 70
     1
102
RTVSPost2010Prop45
280
     0
102
RTVSPost2010PropOp45
 70
     1
102
RTVSPost2010Prop46
 90
       50
102
RTVSPost2010PropOp46
 70
     1
102
RTVSPost2010Prop47
 90
       50
102
RTVSPost2010PropOp47
 70
     1
102
RTVSPost2010Prop48
 90
       50
102
RTVSPost2010PropOp48
 70
     1
102
RTVSPost2010Prop49
280
     0
102
RTVSPost2010PropOp49
 70
     1
102
RTVSPost2010Prop50
 90
       50
102
RTVSPost2010PropOp50
 70
     1
102
RTVSPost2010Prop51ColorIndex
 90
      256
102
RTVSPost2010Prop51ColorRGB
 90
-16777216
102
RTVSPost2010PropOp51
 70
     0
102
RTVSPost2010Prop52
140
1.0
102
RTVSPost2010PropOp52
 70
     0
102
RTVSPost2010Prop53
 90
        2
102
RTVSPost2010PropOp53
 70
     1
102
RTVSPost2010Prop54
  1
strokes_ogs.tif
102
RTVSPost2010PropOp54
 70
     1
102
RTVSPost2010Prop55
280
     0
102
RTVSPost2010PropOp55
 70
     1
102
RTVSPost2010Prop56
140
1.0
102
RTVSPost2010PropOp56
 70
     1
102
RTVSPost2010Prop57
140
1.0
102
RTVSPost2010PropOp57
 70
     1
  0
XRECORD
  5
6CC
102
{ACAD_REACTORS
330
6CB
102
}
330
6CB
100
AcDbXrecord
280
     1
102
RTVSPropertyOp0
 70
     1
102
RTVSPropertyOp1
 70
     1
102
RTVSPropertyOp2
 70
     1
102
RTVSPropertyOp3
 70
     1
102
RTVSPropertyOp4
 70
     1
102
RTVSPropertyOp5
 70
     1
102
RTVSPropertyOp6
 70
     1
102
RTVSPropertyOp7
 70
     1
102
RTVSPropertyOp8
 70
     1
102
RTVSPropertyOp9
 70
     1
102
RTVSPropertyOp10
 70
     1
102
RTVSPropertyOp11
 70
     1
102
RTVSPropertyOp12
 70
     1
102
RTVSPropertyOp13
 70
     1
102
RTVSPropertyOp14
 70
     1
102
RTVSPropertyOp15
 70
     1
102
RTVSPropertyOp16
 70
     1
102
RTVSPropertyOp17
 70
     1
102
RTVSPropertyOp18
 70
     1
102
RTVSPropertyOp19
 70
     1
102
RTVSPropertyOp20
 70
     1
102
RTVSPropertyOp21
 70
     1
102
RTVSPropertyOp22
 70
     1
102
RTVSPropertyOp23
 70
     1
102
RTVSPropertyOp24
 70
     1
102
RTVSPropertyOp25
 70
     1
102
RTVSPropertyOp26
 70
     1
102
RTVSPropertyOp27
 70
     1
102
RTVSPropertyOp28
 70
     1
102
RTVSPropertyOp29
 70
     1
102
RTVSPropertyOp30
 70
     1
102
RTVSPropertyOp31
 70
     1
102
RTVSPropertyOp32
 70
     1
102
RTVSPropertyOp33
 70
     1
102
RTVSPropertyOp34
 70
     1
102
RTVSPropertyOp35
 70
     1
102
RTVSPropertyOp36
 70
     1
102
RTVSPropertyOp37
 70
     1
102
RTVSPropertyOp38
 70
     1
102
RTVSPropertyOp39
 70
     1
102
RTVSPropertyOp40
 70
     1
102
RTVSPropertyOp41
 70
     1
102
RTVSPropertyOp42
 70
     1
102
RTVSPropertyOp43
 70
     1
102
RTVSPropertyOp44
 70
     1
102
RTVSPropertyOp45
 70
     1
102
RTVSPropertyOp46
 70
     1
102
RTVSPropertyOp47
 70
     1
102
RTVSPropertyOp48
 70
     1
102
RTVSPropertyOp49
 70
     1
102
RTVSPropertyOp50
 70
     1
102
RTVSPropertyOp51
 70
     0
102
RTVSPropertyOp52
 70
     0
102
RTVSPropertyOp53
 70
     1
102
RTVSPropertyOp54
 70
     1
102
RTVSPropertyOp55
 70
     1
102
RTVSPropertyOp56
 70
     1
102
RTVSPropertyOp57
 70
     1
102
RTVSPost2010Prop28
280
     0
102
RTVSPost2010PropOp28
 70
     1
102
RTVSPost2010Prop29
280
     1
102
RTVSPost2010PropOp29
 70
     1
102
RTVSPost2010Prop30
280
     1
102
RTVSPost2010PropOp30
 70
     1
102
RTVSPost2010Prop31
280
     0
102
RTVSPost2010PropOp31
 70
     1
102
RTVSPost2010Prop32
280
     0
102
RTVSPost2010PropOp32
 70
     1
102
RTVSPost2010Prop33
280
     0
102
RTVSPost2010PropOp33
 70
     1
102
RTVSPost2010Prop34
280
     0
102
RTVSPost2010PropOp34
 70
     1
102
RTVSPost2010Prop35
280
     0
102
RTVSPost2010PropOp35
 70
     1
102
RTVSPost2010Prop36
280
     0
102
RTVSPost2010PropOp36
 70
     1
102
RTVSPost2010Prop37
 90
       50
102
RTVSPost2010PropOp37
 70
     1
102
RTVSPost2010Prop38
140
0.0
102
RTVSPost2010PropOp38
 70
     1
102
RTVSPost2010Prop39
140
1.0
102
RTVSPost2010PropOp39
 70
     1
102
RTVSPost2010Prop40
 90
        0
102
RTVSPost2010PropOp40
 70
     1
102
RTVSPost2010Prop41ColorIndex
 90
       18
102
RTVSPost2010Prop41ColorRGB
 90
        0
102
RTVSPost2010PropOp41
 70
     1
102
RTVSPost2010Prop42
 90
       50
102
RTVSPost2010PropOp42
 70
     1
102
RTVSPost2010Prop43
 90
        3
102
RTVSPost2010PropOp43
 70
     1
102
RTVSPost2010Prop44ColorIndex
 90
        5
102
RTVSPost2010Prop44ColorRGB
 90
      255
102
RTVSPost2010PropOp44
 70
     1
102
RTVSPost2010Prop45
280
     0
102
RTVSPost2010PropOp45
 70
     1
102
RTVSPost2010Prop46
 90
       50
102
RTVSPost2010PropOp46
 70
     1
102
RTVSPost2010Prop47
 90
       50
102
RTVSPost2010PropOp47
 70
     1
102
RTVSPost2010Prop48
 90
       50
102
RTVSPost2010PropOp48
 70
     1
102
RTVSPost2010Prop49
280
     0
102
RTVSPost2010PropOp49
 70
     1
102
RTVSPost2010Prop50
 90
       50
102
RTVSPost2010PropOp50
 70
     1
102
RTVSPost2010Prop51ColorIndex
 90
      256
102
RTVSPost2010Prop51ColorRGB
 90
-16777216
102
RTVSPost2010PropOp51
 70
     0
102
RTVSPost2010Prop52
140
1.0
102
RTVSPost2010PropOp52
 70
     0
102
RTVSPost2010Prop53
 90
        2
102
RTVSPost2010PropOp53
 70
     1
102
RTVSPost2010Prop54
  1
strokes_ogs.tif
102
RTVSPost2010PropOp54
 70
     1
102
RTVSPost2010Prop55
280
     0
102
RTVSPost2010PropOp55
 70
     1
102
RTVSPost2010Prop56
140
1.0
102
RTVSPost2010PropOp56
 70
     1
102
RTVSPost2010Prop57
140
1.0
102
RTVSPost2010PropOp57
 70
     1
  0
XRECORD
  5
6C0
102
{ACAD_REACTORS
330
6BF
102
}
330
6BF
100
AcDbXrecord
280
     1
102
RTVSPropertyOp0
 70
     1
102
RTVSPropertyOp1
 70
     1
102
RTVSPropertyOp2
 70
     1
102
RTVSPropertyOp3
 70
     1
102
RTVSPropertyOp4
 70
     1
102
RTVSPropertyOp5
 70
     1
102
RTVSPropertyOp6
 70
     1
102
RTVSPropertyOp7
 70
     1
102
RTVSPropertyOp8
 70
     1
102
RTVSPropertyOp9
 70
     1
102
RTVSPropertyOp10
 70
     1
102
RTVSPropertyOp11
 70
     1
102
RTVSPropertyOp12
 70
     1
102
RTVSPropertyOp13
 70
     1
102
RTVSPropertyOp14
 70
     1
102
RTVSPropertyOp15
 70
     1
102
RTVSPropertyOp16
 70
     1
102
RTVSPropertyOp17
 70
     1
102
RTVSPropertyOp18
 70
     1
102
RTVSPropertyOp19
 70
     1
102
RTVSPropertyOp20
 70
     1
102
RTVSPropertyOp21
 70
     1
102
RTVSPropertyOp22
 70
     1
102
RTVSPropertyOp23
 70
     1
102
RTVSPropertyOp24
 70
     1
102
RTVSPropertyOp25
 70
     1
102
RTVSPropertyOp26
 70
     1
102
RTVSPropertyOp27
 70
     1
102
RTVSPropertyOp28
 70
     1
102
RTVSPropertyOp29
 70
     1
102
RTVSPropertyOp30
 70
     1
102
RTVSPropertyOp31
 70
     1
102
RTVSPropertyOp32
 70
     1
102
RTVSPropertyOp33
 70
     1
102
RTVSPropertyOp34
 70
     1
102
RTVSPropertyOp35
 70
     1
102
RTVSPropertyOp36
 70
     1
102
RTVSPropertyOp37
 70
     1
102
RTVSPropertyOp38
 70
     1
102
RTVSPropertyOp39
 70
     1
102
RTVSPropertyOp40
 70
     1
102
RTVSPropertyOp41
 70
     1
102
RTVSPropertyOp42
 70
     1
102
RTVSPropertyOp43
 70
     1
102
RTVSPropertyOp44
 70
     1
102
RTVSPropertyOp45
 70
     1
102
RTVSPropertyOp46
 70
     1
102
RTVSPropertyOp47
 70
     1
102
RTVSPropertyOp48
 70
     1
102
RTVSPropertyOp49
 70
     1
102
RTVSPropertyOp50
 70
     1
102
RTVSPropertyOp51
 70
     0
102
RTVSPropertyOp52
 70
     0
102
RTVSPropertyOp53
 70
     1
102
RTVSPropertyOp54
 70
     1
102
RTVSPropertyOp55
 70
     1
102
RTVSPropertyOp56
 70
     1
102
RTVSPropertyOp57
 70
     1
102
RTVSPost2010Prop28
280
     0
102
RTVSPost2010PropOp28
 70
     1
102
RTVSPost2010Prop29
280
     1
102
RTVSPost2010PropOp29
 70
     1
102
RTVSPost2010Prop30
280
     1
102
RTVSPost2010PropOp30
 70
     1
102
RTVSPost2010Prop31
280
     0
102
RTVSPost2010PropOp31
 70
     1
102
RTVSPost2010Prop32
280
     0
102
RTVSPost2010PropOp32
 70
     1
102
RTVSPost2010Prop33
280
     0
102
RTVSPost2010PropOp33
 70
     1
102
RTVSPost2010Prop34
280
     0
102
RTVSPost2010PropOp34
 70
     1
102
RTVSPost2010Prop35
280
     0
102
RTVSPost2010PropOp35
 70
     1
102
RTVSPost2010Prop36
280
     0
102
RTVSPost2010PropOp36
 70
     1
102
RTVSPost2010Prop37
 90
       50
102
RTVSPost2010PropOp37
 70
     1
102
RTVSPost2010Prop38
140
0.0
102
RTVSPost2010PropOp38
 70
     1
102
RTVSPost2010Prop39
140
1.0
102
RTVSPost2010PropOp39
 70
     1
102
RTVSPost2010Prop40
 90
        0
102
RTVSPost2010PropOp40
 70
     1
102
RTVSPost2010Prop41ColorIndex
 90
       18
102
RTVSPost2010Prop41ColorRGB
 90
        0
102
RTVSPost2010PropOp41
 70
     1
102
RTVSPost2010Prop42
 90
       50
102
RTVSPost2010PropOp42
 70
     1
102
RTVSPost2010Prop43
 90
        3
102
RTVSPost2010PropOp43
 70
     1
102
RTVSPost2010Prop44ColorIndex
 90
        5
102
RTVSPost2010Prop44ColorRGB
 90
      255
102
RTVSPost2010PropOp44
 70
     1
102
RTVSPost2010Prop45
280
     0
102
RTVSPost2010PropOp45
 70
     1
102
RTVSPost2010Prop46
 90
       50
102
RTVSPost2010PropOp46
 70
     1
102
RTVSPost2010Prop47
 90
       50
102
RTVSPost2010PropOp47
 70
     1
102
RTVSPost2010Prop48
 90
       50
102
RTVSPost2010PropOp48
 70
     1
102
RTVSPost2010Prop49
280
     0
102
RTVSPost2010PropOp49
 70
     1
102
RTVSPost2010Prop50
 90
       50
102
RTVSPost2010PropOp50
 70
     1
102
RTVSPost2010Prop51ColorIndex
 90
      256
102
RTVSPost2010Prop51ColorRGB
 90
-16777216
102
RTVSPost2010PropOp51
 70
     0
102
RTVSPost2010Prop52
140
1.0
102
RTVSPost2010PropOp52
 70
     0
102
RTVSPost2010Prop53
 90
        2
102
RTVSPost2010PropOp53
 70
     1
102
RTVSPost2010Prop54
  1
strokes_ogs.tif
102
RTVSPost2010PropOp54
 70
     1
102
RTVSPost2010Prop55
280
     0
102
RTVSPost2010PropOp55
 70
     1
102
RTVSPost2010Prop56
140
1.0
102
RTVSPost2010PropOp56
 70
     1
102
RTVSPost2010Prop57
140
1.0
102
RTVSPost2010PropOp57
 70
     1
  0
XRECORD
  5
6C2
102
{ACAD_REACTORS
330
6C1
102
}
330
6C1
100
AcDbXrecord
280
     1
102
RTVSPropertyOp0
 70
     1
102
RTVSPropertyOp1
 70
     1
102
RTVSPropertyOp2
 70
     1
102
RTVSPropertyOp3
 70
     1
102
RTVSPropertyOp4
 70
     1
102
RTVSPropertyOp5
 70
     1
102
RTVSPropertyOp6
 70
     1
102
RTVSPropertyOp7
 70
     1
102
RTVSPropertyOp8
 70
     1
102
RTVSPropertyOp9
 70
     1
102
RTVSPropertyOp10
 70
     1
102
RTVSPropertyOp11
 70
     1
102
RTVSPropertyOp12
 70
     1
102
RTVSPropertyOp13
 70
     1
102
RTVSPropertyOp14
 70
     1
102
RTVSPropertyOp15
 70
     1
102
RTVSPropertyOp16
 70
     1
102
RTVSPropertyOp17
 70
     1
102
RTVSPropertyOp18
 70
     1
102
RTVSPropertyOp19
 70
     1
102
RTVSPropertyOp20
 70
     1
102
RTVSPropertyOp21
 70
     1
102
RTVSPropertyOp22
 70
     1
102
RTVSPropertyOp23
 70
     1
102
RTVSPropertyOp24
 70
     1
102
RTVSPropertyOp25
 70
     1
102
RTVSPropertyOp26
 70
     1
102
RTVSPropertyOp27
 70
     1
102
RTVSPropertyOp28
 70
     1
102
RTVSPropertyOp29
 70
     1
102
RTVSPropertyOp30
 70
     1
102
RTVSPropertyOp31
 70
     1
102
RTVSPropertyOp32
 70
     1
102
RTVSPropertyOp33
 70
     1
102
RTVSPropertyOp34
 70
     1
102
RTVSPropertyOp35
 70
     1
102
RTVSPropertyOp36
 70
     1
102
RTVSPropertyOp37
 70
     1
102
RTVSPropertyOp38
 70
     1
102
RTVSPropertyOp39
 70
     1
102
RTVSPropertyOp40
 70
     1
102
RTVSPropertyOp41
 70
     1
102
RTVSPropertyOp42
 70
     1
102
RTVSPropertyOp43
 70
     1
102
RTVSPropertyOp44
 70
     1
102
RTVSPropertyOp45
 70
     1
102
RTVSPropertyOp46
 70
     1
102
RTVSPropertyOp47
 70
     1
102
RTVSPropertyOp48
 70
     1
102
RTVSPropertyOp49
 70
     1
102
RTVSPropertyOp50
 70
     1
102
RTVSPropertyOp51
 70
     0
102
RTVSPropertyOp52
 70
     0
102
RTVSPropertyOp53
 70
     1
102
RTVSPropertyOp54
 70
     1
102
RTVSPropertyOp55
 70
     1
102
RTVSPropertyOp56
 70
     1
102
RTVSPropertyOp57
 70
     1
102
RTVSPost2010Prop28
280
     0
102
RTVSPost2010PropOp28
 70
     1
102
RTVSPost2010Prop29
280
     1
102
RTVSPost2010PropOp29
 70
     1
102
RTVSPost2010Prop30
280
     1
102
RTVSPost2010PropOp30
 70
     1
102
RTVSPost2010Prop31
280
     0
102
RTVSPost2010PropOp31
 70
     1
102
RTVSPost2010Prop32
280
     0
102
RTVSPost2010PropOp32
 70
     1
102
RTVSPost2010Prop33
280
     0
102
RTVSPost2010PropOp33
 70
     1
102
RTVSPost2010Prop34
280
     0
102
RTVSPost2010PropOp34
 70
     1
102
RTVSPost2010Prop35
280
     0
102
RTVSPost2010PropOp35
 70
     1
102
RTVSPost2010Prop36
280
     0
102
RTVSPost2010PropOp36
 70
     1
102
RTVSPost2010Prop37
 90
       50
102
RTVSPost2010PropOp37
 70
     1
102
RTVSPost2010Prop38
140
0.0
102
RTVSPost2010PropOp38
 70
     1
102
RTVSPost2010Prop39
140
1.0
102
RTVSPost2010PropOp39
 70
     1
102
RTVSPost2010Prop40
 90
        0
102
RTVSPost2010PropOp40
 70
     1
102
RTVSPost2010Prop41ColorIndex
 90
       18
102
RTVSPost2010Prop41ColorRGB
 90
        0
102
RTVSPost2010PropOp41
 70
     1
102
RTVSPost2010Prop42
 90
       50
102
RTVSPost2010PropOp42
 70
     1
102
RTVSPost2010Prop43
 90
        3
102
RTVSPost2010PropOp43
 70
     1
102
RTVSPost2010Prop44ColorIndex
 90
        5
102
RTVSPost2010Prop44ColorRGB
 90
      255
102
RTVSPost2010PropOp44
 70
     1
102
RTVSPost2010Prop45
280
     0
102
RTVSPost2010PropOp45
 70
     1
102
RTVSPost2010Prop46
 90
       50
102
RTVSPost2010PropOp46
 70
     1
102
RTVSPost2010Prop47
 90
       50
102
RTVSPost2010PropOp47
 70
     1
102
RTVSPost2010Prop48
 90
       50
102
RTVSPost2010PropOp48
 70
     1
102
RTVSPost2010Prop49
280
     0
102
RTVSPost2010PropOp49
 70
     1
102
RTVSPost2010Prop50
 90
       50
102
RTVSPost2010PropOp50
 70
     1
102
RTVSPost2010Prop51ColorIndex
 90
      256
102
RTVSPost2010Prop51ColorRGB
 90
-16777216
102
RTVSPost2010PropOp51
 70
     0
102
RTVSPost2010Prop52
140
1.0
102
RTVSPost2010PropOp52
 70
     0
102
RTVSPost2010Prop53
 90
        2
102
RTVSPost2010PropOp53
 70
     1
102
RTVSPost2010Prop54
  1
strokes_ogs.tif
102
RTVSPost2010PropOp54
 70
     1
102
RTVSPost2010Prop55
280
     0
102
RTVSPost2010PropOp55
 70
     1
102
RTVSPost2010Prop56
140
1.0
102
RTVSPost2010PropOp56
 70
     1
102
RTVSPost2010Prop57
140
1.0
102
RTVSPost2010PropOp57
 70
     1
  0
XRECORD
  5
6D2
102
{ACAD_REACTORS
330
6D1
102
}
330
6D1
100
AcDbXrecord
280
     1
102
RTVSPropertyOp0
 70
     0
102
RTVSPropertyOp1
 70
     0
102
RTVSPropertyOp2
 70
     0
102
RTVSPropertyOp3
 70
     0
102
RTVSPropertyOp4
 70
     0
102
RTVSPropertyOp5
 70
     0
102
RTVSPropertyOp6
 70
     0
102
RTVSPropertyOp7
 70
     0
102
RTVSPropertyOp8
 70
     0
102
RTVSPropertyOp9
 70
     0
102
RTVSPropertyOp10
 70
     0
102
RTVSPropertyOp11
 70
     0
102
RTVSPropertyOp12
 70
     0
102
RTVSPropertyOp13
 70
     0
102
RTVSPropertyOp14
 70
     0
102
RTVSPropertyOp15
 70
     0
102
RTVSPropertyOp16
 70
     0
102
RTVSPropertyOp17
 70
     0
102
RTVSPropertyOp18
 70
     0
102
RTVSPropertyOp19
 70
     0
102
RTVSPropertyOp20
 70
     0
102
RTVSPropertyOp21
 70
     0
102
RTVSPropertyOp22
 70
     0
102
RTVSPropertyOp23
 70
     0
102
RTVSPropertyOp24
 70
     0
102
RTVSPropertyOp25
 70
     0
102
RTVSPropertyOp26
 70
     0
102
RTVSPropertyOp27
 70
     0
102
RTVSPropertyOp28
 70
     1
102
RTVSPropertyOp29
 70
     1
102
RTVSPropertyOp30
 70
     1
102
RTVSPropertyOp31
 70
     1
102
RTVSPropertyOp32
 70
     1
102
RTVSPropertyOp33
 70
     1
102
RTVSPropertyOp34
 70
     1
102
RTVSPropertyOp35
 70
     1
102
RTVSPropertyOp36
 70
     1
102
RTVSPropertyOp37
 70
     1
102
RTVSPropertyOp38
 70
     1
102
RTVSPropertyOp39
 70
     1
102
RTVSPropertyOp40
 70
     1
102
RTVSPropertyOp41
 70
     1
102
RTVSPropertyOp42
 70
     1
102
RTVSPropertyOp43
 70
     1
102
RTVSPropertyOp44
 70
     1
102
RTVSPropertyOp45
 70
     1
102
RTVSPropertyOp46
 70
     1
102
RTVSPropertyOp47
 70
     1
102
RTVSPropertyOp48
 70
     1
102
RTVSPropertyOp49
 70
     1
102
RTVSPropertyOp50
 70
     1
102
RTVSPropertyOp51
 70
     0
102
RTVSPropertyOp52
 70
     0
102
RTVSPropertyOp53
 70
     1
102
RTVSPropertyOp54
 70
     1
102
RTVSPropertyOp55
 70
     1
102
RTVSPropertyOp56
 70
     1
102
RTVSPropertyOp57
 70
     1
102
RTVSPost2010Prop28
280
     0
102
RTVSPost2010PropOp28
 70
     1
102
RTVSPost2010Prop29
280
     1
102
RTVSPost2010PropOp29
 70
     1
102
RTVSPost2010Prop30
280
     1
102
RTVSPost2010PropOp30
 70
     1
102
RTVSPost2010Prop31
280
     0
102
RTVSPost2010PropOp31
 70
     1
102
RTVSPost2010Prop32
280
     0
102
RTVSPost2010PropOp32
 70
     1
102
RTVSPost2010Prop33
280
     0
102
RTVSPost2010PropOp33
 70
     1
102
RTVSPost2010Prop34
280
     0
102
RTVSPost2010PropOp34
 70
     1
102
RTVSPost2010Prop35
280
     0
102
RTVSPost2010PropOp35
 70
     1
102
RTVSPost2010Prop36
280
     0
102
RTVSPost2010PropOp36
 70
     1
102
RTVSPost2010Prop37
 90
       50
102
RTVSPost2010PropOp37
 70
     1
102
RTVSPost2010Prop38
140
0.0
102
RTVSPost2010PropOp38
 70
     1
102
RTVSPost2010Prop39
140
1.0
102
RTVSPost2010PropOp39
 70
     1
102
RTVSPost2010Prop40
 90
        0
102
RTVSPost2010PropOp40
 70
     1
102
RTVSPost2010Prop41ColorIndex
 90
       18
102
RTVSPost2010Prop41ColorRGB
 90
        0
102
RTVSPost2010PropOp41
 70
     1
102
RTVSPost2010Prop42
 90
       50
102
RTVSPost2010PropOp42
 70
     1
102
RTVSPost2010Prop43
 90
        3
102
RTVSPost2010PropOp43
 70
     1
102
RTVSPost2010Prop44ColorIndex
 90
        5
102
RTVSPost2010Prop44ColorRGB
 90
      255
102
RTVSPost2010PropOp44
 70
     1
102
RTVSPost2010Prop45
280
     0
102
RTVSPost2010PropOp45
 70
     1
102
RTVSPost2010Prop46
 90
       50
102
RTVSPost2010PropOp46
 70
     1
102
RTVSPost2010Prop47
 90
       50
102
RTVSPost2010PropOp47
 70
     1
102
RTVSPost2010Prop48
 90
       50
102
RTVSPost2010PropOp48
 70
     1
102
RTVSPost2010Prop49
280
     0
102
RTVSPost2010PropOp49
 70
     1
102
RTVSPost2010Prop50
 90
       50
102
RTVSPost2010PropOp50
 70
     1
102
RTVSPost2010Prop51ColorIndex
 90
      256
102
RTVSPost2010Prop51ColorRGB
 90
-16777216
102
RTVSPost2010PropOp51
 70
     0
102
RTVSPost2010Prop52
140
1.0
102
RTVSPost2010PropOp52
 70
     0
102
RTVSPost2010Prop53
 90
        2
102
RTVSPost2010PropOp53
 70
     1
102
RTVSPost2010Prop54
  1
strokes_ogs.tif
102
RTVSPost2010PropOp54
 70
     1
102
RTVSPost2010Prop55
280
     0
102
RTVSPost2010PropOp55
 70
     1
102
RTVSPost2010Prop56
140
1.0
102
RTVSPost2010PropOp56
 70
     1
102
RTVSPost2010Prop57
140
1.0
102
RTVSPost2010PropOp57
 70
     1
  0
XRECORD
  5
6CA
102
{ACAD_REACTORS
330
6C9
102
}
330
6C9
100
AcDbXrecord
280
     1
102
RTVSPropertyOp0
 70
     1
102
RTVSPropertyOp1
 70
     1
102
RTVSPropertyOp2
 70
     1
102
RTVSPropertyOp3
 70
     1
102
RTVSPropertyOp4
 70
     1
102
RTVSPropertyOp5
 70
     1
102
RTVSPropertyOp6
 70
     1
102
RTVSPropertyOp7
 70
     1
102
RTVSPropertyOp8
 70
     1
102
RTVSPropertyOp9
 70
     1
102
RTVSPropertyOp10
 70
     1
102
RTVSPropertyOp11
 70
     1
102
RTVSPropertyOp12
 70
     1
102
RTVSPropertyOp13
 70
     1
102
RTVSPropertyOp14
 70
     1
102
RTVSPropertyOp15
 70
     1
102
RTVSPropertyOp16
 70
     1
102
RTVSPropertyOp17
 70
     1
102
RTVSPropertyOp18
 70
     1
102
RTVSPropertyOp19
 70
     1
102
RTVSPropertyOp20
 70
     1
102
RTVSPropertyOp21
 70
     1
102
RTVSPropertyOp22
 70
     1
102
RTVSPropertyOp23
 70
     1
102
RTVSPropertyOp24
 70
     1
102
RTVSPropertyOp25
 70
     1
102
RTVSPropertyOp26
 70
     1
102
RTVSPropertyOp27
 70
     1
102
RTVSPropertyOp28
 70
     1
102
RTVSPropertyOp29
 70
     1
102
RTVSPropertyOp30
 70
     1
102
RTVSPropertyOp31
 70
     1
102
RTVSPropertyOp32
 70
     1
102
RTVSPropertyOp33
 70
     1
102
RTVSPropertyOp34
 70
     1
102
RTVSPropertyOp35
 70
     1
102
RTVSPropertyOp36
 70
     1
102
RTVSPropertyOp37
 70
     1
102
RTVSPropertyOp38
 70
     1
102
RTVSPropertyOp39
 70
     1
102
RTVSPropertyOp40
 70
     1
102
RTVSPropertyOp41
 70
     1
102
RTVSPropertyOp42
 70
     1
102
RTVSPropertyOp43
 70
     1
102
RTVSPropertyOp44
 70
     1
102
RTVSPropertyOp45
 70
     1
102
RTVSPropertyOp46
 70
     1
102
RTVSPropertyOp47
 70
     1
102
RTVSPropertyOp48
 70
     1
102
RTVSPropertyOp49
 70
     1
102
RTVSPropertyOp50
 70
     1
102
RTVSPropertyOp51
 70
     0
102
RTVSPropertyOp52
 70
     0
102
RTVSPropertyOp53
 70
     1
102
RTVSPropertyOp54
 70
     1
102
RTVSPropertyOp55
 70
     1
102
RTVSPropertyOp56
 70
     1
102
RTVSPropertyOp57
 70
     1
102
RTVSPost2010Prop28
280
     0
102
RTVSPost2010PropOp28
 70
     1
102
RTVSPost2010Prop29
280
     1
102
RTVSPost2010PropOp29
 70
     1
102
RTVSPost2010Prop30
280
     1
102
RTVSPost2010PropOp30
 70
     1
102
RTVSPost2010Prop31
280
     0
102
RTVSPost2010PropOp31
 70
     1
102
RTVSPost2010Prop32
280
     0
102
RTVSPost2010PropOp32
 70
     1
102
RTVSPost2010Prop33
280
     0
102
RTVSPost2010PropOp33
 70
     1
102
RTVSPost2010Prop34
280
     0
102
RTVSPost2010PropOp34
 70
     1
102
RTVSPost2010Prop35
280
     0
102
RTVSPost2010PropOp35
 70
     1
102
RTVSPost2010Prop36
280
     0
102
RTVSPost2010PropOp36
 70
     1
102
RTVSPost2010Prop37
 90
       50
102
RTVSPost2010PropOp37
 70
     1
102
RTVSPost2010Prop38
140
0.0
102
RTVSPost2010PropOp38
 70
     1
102
RTVSPost2010Prop39
140
1.0
102
RTVSPost2010PropOp39
 70
     1
102
RTVSPost2010Prop40
 90
        0
102
RTVSPost2010PropOp40
 70
     1
102
RTVSPost2010Prop41ColorIndex
 90
       18
102
RTVSPost2010Prop41ColorRGB
 90
        0
102
RTVSPost2010PropOp41
 70
     1
102
RTVSPost2010Prop42
 90
       50
102
RTVSPost2010PropOp42
 70
     1
102
RTVSPost2010Prop43
 90
        3
102
RTVSPost2010PropOp43
 70
     1
102
RTVSPost2010Prop44ColorIndex
 90
        5
102
RTVSPost2010Prop44ColorRGB
 90
      255
102
RTVSPost2010PropOp44
 70
     1
102
RTVSPost2010Prop45
280
     0
102
RTVSPost2010PropOp45
 70
     1
102
RTVSPost2010Prop46
 90
       50
102
RTVSPost2010PropOp46
 70
     1
102
RTVSPost2010Prop47
 90
       50
102
RTVSPost2010PropOp47
 70
     1
102
RTVSPost2010Prop48
 90
       50
102
RTVSPost2010PropOp48
 70
     1
102
RTVSPost2010Prop49
280
     0
102
RTVSPost2010PropOp49
 70
     1
102
RTVSPost2010Prop50
 90
       50
102
RTVSPost2010PropOp50
 70
     1
102
RTVSPost2010Prop51ColorIndex
 90
      256
102
RTVSPost2010Prop51ColorRGB
 90
-16777216
102
RTVSPost2010PropOp51
 70
     0
102
RTVSPost2010Prop52
140
1.0
102
RTVSPost2010PropOp52
 70
     0
102
RTVSPost2010Prop53
 90
        2
102
RTVSPost2010PropOp53
 70
     1
102
RTVSPost2010Prop54
  1
strokes_ogs.tif
102
RTVSPost2010PropOp54
 70
     1
102
RTVSPost2010Prop55
280
     0
102
RTVSPost2010PropOp55
 70
     1
102
RTVSPost2010Prop56
140
1.0
102
RTVSPost2010PropOp56
 70
     1
102
RTVSPost2010Prop57
140
1.0
102
RTVSPost2010PropOp57
 70
     1
  0
XRECORD
  5
6B2
102
{ACAD_REACTORS
330
6B1
102
}
330
6B1
100
AcDbXrecord
280
     1
102
RTVSPropertyOp0
 70
     1
102
RTVSPropertyOp1
 70
     1
102
RTVSPropertyOp2
 70
     1
102
RTVSPropertyOp3
 70
     1
102
RTVSPropertyOp4
 70
     1
102
RTVSPropertyOp5
 70
     1
102
RTVSPropertyOp6
 70
     1
102
RTVSPropertyOp7
 70
     1
102
RTVSPropertyOp8
 70
     1
102
RTVSPropertyOp9
 70
     1
102
RTVSPropertyOp10
 70
     1
102
RTVSPropertyOp11
 70
     1
102
RTVSPropertyOp12
 70
     1
102
RTVSPropertyOp13
 70
     1
102
RTVSPropertyOp14
 70
     1
102
RTVSPropertyOp15
 70
     1
102
RTVSPropertyOp16
 70
     1
102
RTVSPropertyOp17
 70
     1
102
RTVSPropertyOp18
 70
     1
102
RTVSPropertyOp19
 70
     1
102
RTVSPropertyOp20
 70
     1
102
RTVSPropertyOp21
 70
     1
102
RTVSPropertyOp22
 70
     1
102
RTVSPropertyOp23
 70
     1
102
RTVSPropertyOp24
 70
     1
102
RTVSPropertyOp25
 70
     1
102
RTVSPropertyOp26
 70
     1
102
RTVSPropertyOp27
 70
     1
102
RTVSPropertyOp28
 70
     1
102
RTVSPropertyOp29
 70
     1
102
RTVSPropertyOp30
 70
     1
102
RTVSPropertyOp31
 70
     1
102
RTVSPropertyOp32
 70
     1
102
RTVSPropertyOp33
 70
     1
102
RTVSPropertyOp34
 70
     1
102
RTVSPropertyOp35
 70
     1
102
RTVSPropertyOp36
 70
     1
102
RTVSPropertyOp37
 70
     1
102
RTVSPropertyOp38
 70
     1
102
RTVSPropertyOp39
 70
     1
102
RTVSPropertyOp40
 70
     1
102
RTVSPropertyOp41
 70
     1
102
RTVSPropertyOp42
 70
     1
102
RTVSPropertyOp43
 70
     1
102
RTVSPropertyOp44
 70
     1
102
RTVSPropertyOp45
 70
     1
102
RTVSPropertyOp46
 70
     1
102
RTVSPropertyOp47
 70
     1
102
RTVSPropertyOp48
 70
     1
102
RTVSPropertyOp49
 70
     1
102
RTVSPropertyOp50
 70
     1
102
RTVSPropertyOp51
 70
     0
102
RTVSPropertyOp52
 70
     0
102
RTVSPropertyOp53
 70
     1
102
RTVSPropertyOp54
 70
     1
102
RTVSPropertyOp55
 70
     1
102
RTVSPropertyOp56
 70
     1
102
RTVSPropertyOp57
 70
     1
102
RTVSPost2010Prop28
280
     0
102
RTVSPost2010PropOp28
 70
     1
102
RTVSPost2010Prop29
280
     1
102
RTVSPost2010PropOp29
 70
     1
102
RTVSPost2010Prop30
280
     1
102
RTVSPost2010PropOp30
 70
     1
102
RTVSPost2010Prop31
280
     0
102
RTVSPost2010PropOp31
 70
     1
102
RTVSPost2010Prop32
280
     0
102
RTVSPost2010PropOp32
 70
     1
102
RTVSPost2010Prop33
280
     0
102
RTVSPost2010PropOp33
 70
     1
102
RTVSPost2010Prop34
280
     0
102
RTVSPost2010PropOp34
 70
     1
102
RTVSPost2010Prop35
280
     0
102
RTVSPost2010PropOp35
 70
     1
102
RTVSPost2010Prop36
280
     0
102
RTVSPost2010PropOp36
 70
     1
102
RTVSPost2010Prop37
 90
       50
102
RTVSPost2010PropOp37
 70
     1
102
RTVSPost2010Prop38
140
0.0
102
RTVSPost2010PropOp38
 70
     1
102
RTVSPost2010Prop39
140
1.0
102
RTVSPost2010PropOp39
 70
     1
102
RTVSPost2010Prop40
 90
        0
102
RTVSPost2010PropOp40
 70
     1
102
RTVSPost2010Prop41ColorIndex
 90
       18
102
RTVSPost2010Prop41ColorRGB
 90
        0
102
RTVSPost2010PropOp41
 70
     1
102
RTVSPost2010Prop42
 90
       50
102
RTVSPost2010PropOp42
 70
     1
102
RTVSPost2010Prop43
 90
        3
102
RTVSPost2010PropOp43
 70
     1
102
RTVSPost2010Prop44ColorIndex
 90
        5
102
RTVSPost2010Prop44ColorRGB
 90
      255
102
RTVSPost2010PropOp44
 70
     1
102
RTVSPost2010Prop45
280
     0
102
RTVSPost2010PropOp45
 70
     1
102
RTVSPost2010Prop46
 90
       50
102
RTVSPost2010PropOp46
 70
     1
102
RTVSPost2010Prop47
 90
       50
102
RTVSPost2010PropOp47
 70
     1
102
RTVSPost2010Prop48
 90
       50
102
RTVSPost2010PropOp48
 70
     1
102
RTVSPost2010Prop49
280
     0
102
RTVSPost2010PropOp49
 70
     1
102
RTVSPost2010Prop50
 90
       50
102
RTVSPost2010PropOp50
 70
     1
102
RTVSPost2010Prop51ColorIndex
 90
      256
102
RTVSPost2010Prop51ColorRGB
 90
-16777216
102
RTVSPost2010PropOp51
 70
     0
102
RTVSPost2010Prop52
140
1.0
102
RTVSPost2010PropOp52
 70
     0
102
RTVSPost2010Prop53
 90
        2
102
RTVSPost2010PropOp53
 70
     1
102
RTVSPost2010Prop54
  1
strokes_ogs.tif
102
RTVSPost2010PropOp54
 70
     1
102
RTVSPost2010Prop55
280
     0
102
RTVSPost2010PropOp55
 70
     1
102
RTVSPost2010Prop56
140
1.0
102
RTVSPost2010PropOp56
 70
     1
102
RTVSPost2010Prop57
140
1.0
102
RTVSPost2010PropOp57
 70
     1
  0
XRECORD
  5
6B4
102
{ACAD_REACTORS
330
6B3
102
}
330
6B3
100
AcDbXrecord
280
     1
102
RTVSPropertyOp0
 70
     1
102
RTVSPropertyOp1
 70
     1
102
RTVSPropertyOp2
 70
     1
102
RTVSPropertyOp3
 70
     1
102
RTVSPropertyOp4
 70
     1
102
RTVSPropertyOp5
 70
     1
102
RTVSPropertyOp6
 70
     1
102
RTVSPropertyOp7
 70
     1
102
RTVSPropertyOp8
 70
     1
102
RTVSPropertyOp9
 70
     1
102
RTVSPropertyOp10
 70
     1
102
RTVSPropertyOp11
 70
     1
102
RTVSPropertyOp12
 70
     1
102
RTVSPropertyOp13
 70
     1
102
RTVSPropertyOp14
 70
     1
102
RTVSPropertyOp15
 70
     1
102
RTVSPropertyOp16
 70
     1
102
RTVSPropertyOp17
 70
     1
102
RTVSPropertyOp18
 70
     1
102
RTVSPropertyOp19
 70
     1
102
RTVSPropertyOp20
 70
     1
102
RTVSPropertyOp21
 70
     1
102
RTVSPropertyOp22
 70
     1
102
RTVSPropertyOp23
 70
     1
102
RTVSPropertyOp24
 70
     1
102
RTVSPropertyOp25
 70
     1
102
RTVSPropertyOp26
 70
     1
102
RTVSPropertyOp27
 70
     1
102
RTVSPropertyOp28
 70
     1
102
RTVSPropertyOp29
 70
     1
102
RTVSPropertyOp30
 70
     1
102
RTVSPropertyOp31
 70
     1
102
RTVSPropertyOp32
 70
     1
102
RTVSPropertyOp33
 70
     1
102
RTVSPropertyOp34
 70
     1
102
RTVSPropertyOp35
 70
     1
102
RTVSPropertyOp36
 70
     1
102
RTVSPropertyOp37
 70
     1
102
RTVSPropertyOp38
 70
     1
102
RTVSPropertyOp39
 70
     1
102
RTVSPropertyOp40
 70
     1
102
RTVSPropertyOp41
 70
     1
102
RTVSPropertyOp42
 70
     1
102
RTVSPropertyOp43
 70
     1
102
RTVSPropertyOp44
 70
     1
102
RTVSPropertyOp45
 70
     1
102
RTVSPropertyOp46
 70
     1
102
RTVSPropertyOp47
 70
     1
102
RTVSPropertyOp48
 70
     1
102
RTVSPropertyOp49
 70
     1
102
RTVSPropertyOp50
 70
     1
102
RTVSPropertyOp51
 70
     0
102
RTVSPropertyOp52
 70
     0
102
RTVSPropertyOp53
 70
     1
102
RTVSPropertyOp54
 70
     1
102
RTVSPropertyOp55
 70
     1
102
RTVSPropertyOp56
 70
     1
102
RTVSPropertyOp57
 70
     1
102
RTVSPost2010Prop28
280
     0
102
RTVSPost2010PropOp28
 70
     1
102
RTVSPost2010Prop29
280
     1
102
RTVSPost2010PropOp29
 70
     1
102
RTVSPost2010Prop30
280
     1
102
RTVSPost2010PropOp30
 70
     1
102
RTVSPost2010Prop31
280
     0
102
RTVSPost2010PropOp31
 70
     1
102
RTVSPost2010Prop32
280
     0
102
RTVSPost2010PropOp32
 70
     1
102
RTVSPost2010Prop33
280
     0
102
RTVSPost2010PropOp33
 70
     1
102
RTVSPost2010Prop34
280
     0
102
RTVSPost2010PropOp34
 70
     1
102
RTVSPost2010Prop35
280
     0
102
RTVSPost2010PropOp35
 70
     1
102
RTVSPost2010Prop36
280
     0
102
RTVSPost2010PropOp36
 70
     1
102
RTVSPost2010Prop37
 90
       50
102
RTVSPost2010PropOp37
 70
     1
102
RTVSPost2010Prop38
140
0.0
102
RTVSPost2010PropOp38
 70
     1
102
RTVSPost2010Prop39
140
1.0
102
RTVSPost2010PropOp39
 70
     1
102
RTVSPost2010Prop40
 90
        0
102
RTVSPost2010PropOp40
 70
     1
102
RTVSPost2010Prop41ColorIndex
 90
       18
102
RTVSPost2010Prop41ColorRGB
 90
        0
102
RTVSPost2010PropOp41
 70
     1
102
RTVSPost2010Prop42
 90
       50
102
RTVSPost2010PropOp42
 70
     1
102
RTVSPost2010Prop43
 90
        3
102
RTVSPost2010PropOp43
 70
     1
102
RTVSPost2010Prop44ColorIndex
 90
        5
102
RTVSPost2010Prop44ColorRGB
 90
      255
102
RTVSPost2010PropOp44
 70
     1
102
RTVSPost2010Prop45
280
     0
102
RTVSPost2010PropOp45
 70
     1
102
RTVSPost2010Prop46
 90
       50
102
RTVSPost2010PropOp46
 70
     1
102
RTVSPost2010Prop47
 90
       50
102
RTVSPost2010PropOp47
 70
     1
102
RTVSPost2010Prop48
 90
       50
102
RTVSPost2010PropOp48
 70
     1
102
RTVSPost2010Prop49
280
     0
102
RTVSPost2010PropOp49
 70
     1
102
RTVSPost2010Prop50
 90
       50
102
RTVSPost2010PropOp50
 70
     1
102
RTVSPost2010Prop51ColorIndex
 90
      256
102
RTVSPost2010Prop51ColorRGB
 90
-16777216
102
RTVSPost2010PropOp51
 70
     0
102
RTVSPost2010Prop52
140
1.0
102
RTVSPost2010PropOp52
 70
     0
102
RTVSPost2010Prop53
 90
        2
102
RTVSPost2010PropOp53
 70
     1
102
RTVSPost2010Prop54
  1
strokes_ogs.tif
102
RTVSPost2010PropOp54
 70
     1
102
RTVSPost2010Prop55
280
     0
102
RTVSPost2010PropOp55
 70
     1
102
RTVSPost2010Prop56
140
1.0
102
RTVSPost2010PropOp56
 70
     1
102
RTVSPost2010Prop57
140
1.0
102
RTVSPost2010PropOp57
 70
     1
  0
XRECORD
  5
6B6
102
{ACAD_REACTORS
330
6B5
102
}
330
6B5
100
AcDbXrecord
280
     1
102
RTVSPropertyOp0
 70
     1
102
RTVSPropertyOp1
 70
     1
102
RTVSPropertyOp2
 70
     1
102
RTVSPropertyOp3
 70
     1
102
RTVSPropertyOp4
 70
     1
102
RTVSPropertyOp5
 70
     1
102
RTVSPropertyOp6
 70
     1
102
RTVSPropertyOp7
 70
     1
102
RTVSPropertyOp8
 70
     1
102
RTVSPropertyOp9
 70
     1
102
RTVSPropertyOp10
 70
     1
102
RTVSPropertyOp11
 70
     1
102
RTVSPropertyOp12
 70
     1
102
RTVSPropertyOp13
 70
     1
102
RTVSPropertyOp14
 70
     1
102
RTVSPropertyOp15
 70
     1
102
RTVSPropertyOp16
 70
     1
102
RTVSPropertyOp17
 70
     1
102
RTVSPropertyOp18
 70
     1
102
RTVSPropertyOp19
 70
     1
102
RTVSPropertyOp20
 70
     1
102
RTVSPropertyOp21
 70
     1
102
RTVSPropertyOp22
 70
     1
102
RTVSPropertyOp23
 70
     1
102
RTVSPropertyOp24
 70
     1
102
RTVSPropertyOp25
 70
     1
102
RTVSPropertyOp26
 70
     1
102
RTVSPropertyOp27
 70
     1
102
RTVSPropertyOp28
 70
     1
102
RTVSPropertyOp29
 70
     1
102
RTVSPropertyOp30
 70
     1
102
RTVSPropertyOp31
 70
     1
102
RTVSPropertyOp32
 70
     1
102
RTVSPropertyOp33
 70
     1
102
RTVSPropertyOp34
 70
     1
102
RTVSPropertyOp35
 70
     1
102
RTVSPropertyOp36
 70
     1
102
RTVSPropertyOp37
 70
     1
102
RTVSPropertyOp38
 70
     1
102
RTVSPropertyOp39
 70
     1
102
RTVSPropertyOp40
 70
     1
102
RTVSPropertyOp41
 70
     1
102
RTVSPropertyOp42
 70
     1
102
RTVSPropertyOp43
 70
     1
102
RTVSPropertyOp44
 70
     1
102
RTVSPropertyOp45
 70
     1
102
RTVSPropertyOp46
 70
     1
102
RTVSPropertyOp47
 70
     1
102
RTVSPropertyOp48
 70
     1
102
RTVSPropertyOp49
 70
     1
102
RTVSPropertyOp50
 70
     1
102
RTVSPropertyOp51
 70
     0
102
RTVSPropertyOp52
 70
     0
102
RTVSPropertyOp53
 70
     1
102
RTVSPropertyOp54
 70
     1
102
RTVSPropertyOp55
 70
     1
102
RTVSPropertyOp56
 70
     1
102
RTVSPropertyOp57
 70
     1
102
RTVSPost2010Prop28
280
     0
102
RTVSPost2010PropOp28
 70
     1
102
RTVSPost2010Prop29
280
     1
102
RTVSPost2010PropOp29
 70
     1
102
RTVSPost2010Prop30
280
     1
102
RTVSPost2010PropOp30
 70
     1
102
RTVSPost2010Prop31
280
     0
102
RTVSPost2010PropOp31
 70
     1
102
RTVSPost2010Prop32
280
     0
102
RTVSPost2010PropOp32
 70
     1
102
RTVSPost2010Prop33
280
     0
102
RTVSPost2010PropOp33
 70
     1
102
RTVSPost2010Prop34
280
     0
102
RTVSPost2010PropOp34
 70
     1
102
RTVSPost2010Prop35
280
     0
102
RTVSPost2010PropOp35
 70
     1
102
RTVSPost2010Prop36
280
     0
102
RTVSPost2010PropOp36
 70
     1
102
RTVSPost2010Prop37
 90
       50
102
RTVSPost2010PropOp37
 70
     1
102
RTVSPost2010Prop38
140
0.0
102
RTVSPost2010PropOp38
 70
     1
102
RTVSPost2010Prop39
140
1.0
102
RTVSPost2010PropOp39
 70
     1
102
RTVSPost2010Prop40
 90
        0
102
RTVSPost2010PropOp40
 70
     1
102
RTVSPost2010Prop41ColorIndex
 90
       18
102
RTVSPost2010Prop41ColorRGB
 90
        0
102
RTVSPost2010PropOp41
 70
     1
102
RTVSPost2010Prop42
 90
       50
102
RTVSPost2010PropOp42
 70
     1
102
RTVSPost2010Prop43
 90
        3
102
RTVSPost2010PropOp43
 70
     1
102
RTVSPost2010Prop44ColorIndex
 90
        5
102
RTVSPost2010Prop44ColorRGB
 90
      255
102
RTVSPost2010PropOp44
 70
     1
102
RTVSPost2010Prop45
280
     0
102
RTVSPost2010PropOp45
 70
     1
102
RTVSPost2010Prop46
 90
       50
102
RTVSPost2010PropOp46
 70
     1
102
RTVSPost2010Prop47
 90
       50
102
RTVSPost2010PropOp47
 70
     1
102
RTVSPost2010Prop48
 90
       50
102
RTVSPost2010PropOp48
 70
     1
102
RTVSPost2010Prop49
280
     0
102
RTVSPost2010PropOp49
 70
     1
102
RTVSPost2010Prop50
 90
       50
102
RTVSPost2010PropOp50
 70
     1
102
RTVSPost2010Prop51ColorIndex
 90
      256
102
RTVSPost2010Prop51ColorRGB
 90
-16777216
102
RTVSPost2010PropOp51
 70
     0
102
RTVSPost2010Prop52
140
1.0
102
RTVSPost2010PropOp52
 70
     0
102
RTVSPost2010Prop53
 90
        2
102
RTVSPost2010PropOp53
 70
     1
102
RTVSPost2010Prop54
  1
strokes_ogs.tif
102
RTVSPost2010PropOp54
 70
     1
102
RTVSPost2010Prop55
280
     0
102
RTVSPost2010PropOp55
 70
     1
102
RTVSPost2010Prop56
140
1.0
102
RTVSPost2010PropOp56
 70
     1
102
RTVSPost2010Prop57
140
1.0
102
RTVSPost2010PropOp57
 70
     1
  0
XRECORD
  5
6B8
102
{ACAD_REACTORS
330
6B7
102
}
330
6B7
100
AcDbXrecord
280
     1
102
RTVSPropertyOp0
 70
     1
102
RTVSPropertyOp1
 70
     1
102
RTVSPropertyOp2
 70
     1
102
RTVSPropertyOp3
 70
     1
102
RTVSPropertyOp4
 70
     1
102
RTVSPropertyOp5
 70
     1
102
RTVSPropertyOp6
 70
     1
102
RTVSPropertyOp7
 70
     1
102
RTVSPropertyOp8
 70
     1
102
RTVSPropertyOp9
 70
     1
102
RTVSPropertyOp10
 70
     1
102
RTVSPropertyOp11
 70
     1
102
RTVSPropertyOp12
 70
     1
102
RTVSPropertyOp13
 70
     1
102
RTVSPropertyOp14
 70
     1
102
RTVSPropertyOp15
 70
     1
102
RTVSPropertyOp16
 70
     1
102
RTVSPropertyOp17
 70
     1
102
RTVSPropertyOp18
 70
     1
102
RTVSPropertyOp19
 70
     1
102
RTVSPropertyOp20
 70
     1
102
RTVSPropertyOp21
 70
     1
102
RTVSPropertyOp22
 70
     1
102
RTVSPropertyOp23
 70
     1
102
RTVSPropertyOp24
 70
     1
102
RTVSPropertyOp25
 70
     1
102
RTVSPropertyOp26
 70
     1
102
RTVSPropertyOp27
 70
     1
102
RTVSPropertyOp28
 70
     1
102
RTVSPropertyOp29
 70
     1
102
RTVSPropertyOp30
 70
     1
102
RTVSPropertyOp31
 70
     1
102
RTVSPropertyOp32
 70
     1
102
RTVSPropertyOp33
 70
     1
102
RTVSPropertyOp34
 70
     1
102
RTVSPropertyOp35
 70
     1
102
RTVSPropertyOp36
 70
     1
102
RTVSPropertyOp37
 70
     1
102
RTVSPropertyOp38
 70
     1
102
RTVSPropertyOp39
 70
     1
102
RTVSPropertyOp40
 70
     1
102
RTVSPropertyOp41
 70
     1
102
RTVSPropertyOp42
 70
     1
102
RTVSPropertyOp43
 70
     1
102
RTVSPropertyOp44
 70
     1
102
RTVSPropertyOp45
 70
     1
102
RTVSPropertyOp46
 70
     1
102
RTVSPropertyOp47
 70
     1
102
RTVSPropertyOp48
 70
     1
102
RTVSPropertyOp49
 70
     1
102
RTVSPropertyOp50
 70
     1
102
RTVSPropertyOp51
 70
     0
102
RTVSPropertyOp52
 70
     0
102
RTVSPropertyOp53
 70
     1
102
RTVSPropertyOp54
 70
     1
102
RTVSPropertyOp55
 70
     1
102
RTVSPropertyOp56
 70
     1
102
RTVSPropertyOp57
 70
     1
102
RTVSPost2010Prop28
280
     0
102
RTVSPost2010PropOp28
 70
     1
102
RTVSPost2010Prop29
280
     1
102
RTVSPost2010PropOp29
 70
     1
102
RTVSPost2010Prop30
280
     1
102
RTVSPost2010PropOp30
 70
     1
102
RTVSPost2010Prop31
280
     0
102
RTVSPost2010PropOp31
 70
     1
102
RTVSPost2010Prop32
280
     0
102
RTVSPost2010PropOp32
 70
     1
102
RTVSPost2010Prop33
280
     0
102
RTVSPost2010PropOp33
 70
     1
102
RTVSPost2010Prop34
280
     0
102
RTVSPost2010PropOp34
 70
     1
102
RTVSPost2010Prop35
280
     0
102
RTVSPost2010PropOp35
 70
     1
102
RTVSPost2010Prop36
280
     0
102
RTVSPost2010PropOp36
 70
     1
102
RTVSPost2010Prop37
 90
       50
102
RTVSPost2010PropOp37
 70
     1
102
RTVSPost2010Prop38
140
0.0
102
RTVSPost2010PropOp38
 70
     1
102
RTVSPost2010Prop39
140
1.0
102
RTVSPost2010PropOp39
 70
     1
102
RTVSPost2010Prop40
 90
        0
102
RTVSPost2010PropOp40
 70
     1
102
RTVSPost2010Prop41ColorIndex
 90
       18
102
RTVSPost2010Prop41ColorRGB
 90
        0
102
RTVSPost2010PropOp41
 70
     1
102
RTVSPost2010Prop42
 90
       50
102
RTVSPost2010PropOp42
 70
     1
102
RTVSPost2010Prop43
 90
        3
102
RTVSPost2010PropOp43
 70
     1
102
RTVSPost2010Prop44ColorIndex
 90
        5
102
RTVSPost2010Prop44ColorRGB
 90
      255
102
RTVSPost2010PropOp44
 70
     1
102
RTVSPost2010Prop45
280
     0
102
RTVSPost2010PropOp45
 70
     1
102
RTVSPost2010Prop46
 90
       50
102
RTVSPost2010PropOp46
 70
     1
102
RTVSPost2010Prop47
 90
       50
102
RTVSPost2010PropOp47
 70
     1
102
RTVSPost2010Prop48
 90
       50
102
RTVSPost2010PropOp48
 70
     1
102
RTVSPost2010Prop49
280
     0
102
RTVSPost2010PropOp49
 70
     1
102
RTVSPost2010Prop50
 90
       50
102
RTVSPost2010PropOp50
 70
     1
102
RTVSPost2010Prop51ColorIndex
 90
      256
102
RTVSPost2010Prop51ColorRGB
 90
-16777216
102
RTVSPost2010PropOp51
 70
     0
102
RTVSPost2010Prop52
140
1.0
102
RTVSPost2010PropOp52
 70
     0
102
RTVSPost2010Prop53
 90
        2
102
RTVSPost2010PropOp53
 70
     1
102
RTVSPost2010Prop54
  1
strokes_ogs.tif
102
RTVSPost2010PropOp54
 70
     1
102
RTVSPost2010Prop55
280
     0
102
RTVSPost2010PropOp55
 70
     1
102
RTVSPost2010Prop56
140
1.0
102
RTVSPost2010PropOp56
 70
     1
102
RTVSPost2010Prop57
140
1.0
102
RTVSPost2010PropOp57
 70
     1
  0
XRECORD
  5
6BC
102
{ACAD_REACTORS
330
6BB
102
}
330
6BB
100
AcDbXrecord
280
     1
102
RTVSPropertyOp0
 70
     1
102
RTVSPropertyOp1
 70
     1
102
RTVSPropertyOp2
 70
     1
102
RTVSPropertyOp3
 70
     1
102
RTVSPropertyOp4
 70
     1
102
RTVSPropertyOp5
 70
     1
102
RTVSPropertyOp6
 70
     1
102
RTVSPropertyOp7
 70
     1
102
RTVSPropertyOp8
 70
     1
102
RTVSPropertyOp9
 70
     1
102
RTVSPropertyOp10
 70
     1
102
RTVSPropertyOp11
 70
     1
102
RTVSPropertyOp12
 70
     1
102
RTVSPropertyOp13
 70
     1
102
RTVSPropertyOp14
 70
     1
102
RTVSPropertyOp15
 70
     1
102
RTVSPropertyOp16
 70
     1
102
RTVSPropertyOp17
 70
     1
102
RTVSPropertyOp18
 70
     1
102
RTVSPropertyOp19
 70
     1
102
RTVSPropertyOp20
 70
     1
102
RTVSPropertyOp21
 70
     1
102
RTVSPropertyOp22
 70
     1
102
RTVSPropertyOp23
 70
     1
102
RTVSPropertyOp24
 70
     1
102
RTVSPropertyOp25
 70
     1
102
RTVSPropertyOp26
 70
     1
102
RTVSPropertyOp27
 70
     1
102
RTVSPropertyOp28
 70
     1
102
RTVSPropertyOp29
 70
     1
102
RTVSPropertyOp30
 70
     1
102
RTVSPropertyOp31
 70
     1
102
RTVSPropertyOp32
 70
     1
102
RTVSPropertyOp33
 70
     1
102
RTVSPropertyOp34
 70
     1
102
RTVSPropertyOp35
 70
     1
102
RTVSPropertyOp36
 70
     1
102
RTVSPropertyOp37
 70
     1
102
RTVSPropertyOp38
 70
     1
102
RTVSPropertyOp39
 70
     1
102
RTVSPropertyOp40
 70
     1
102
RTVSPropertyOp41
 70
     1
102
RTVSPropertyOp42
 70
     1
102
RTVSPropertyOp43
 70
     1
102
RTVSPropertyOp44
 70
     1
102
RTVSPropertyOp45
 70
     1
102
RTVSPropertyOp46
 70
     1
102
RTVSPropertyOp47
 70
     1
102
RTVSPropertyOp48
 70
     1
102
RTVSPropertyOp49
 70
     1
102
RTVSPropertyOp50
 70
     1
102
RTVSPropertyOp51
 70
     0
102
RTVSPropertyOp52
 70
     0
102
RTVSPropertyOp53
 70
     1
102
RTVSPropertyOp54
 70
     1
102
RTVSPropertyOp55
 70
     1
102
RTVSPropertyOp56
 70
     1
102
RTVSPropertyOp57
 70
     1
102
RTVSPost2010Prop28
280
     0
102
RTVSPost2010PropOp28
 70
     1
102
RTVSPost2010Prop29
280
     1
102
RTVSPost2010PropOp29
 70
     1
102
RTVSPost2010Prop30
280
     1
102
RTVSPost2010PropOp30
 70
     1
102
RTVSPost2010Prop31
280
     0
102
RTVSPost2010PropOp31
 70
     1
102
RTVSPost2010Prop32
280
     0
102
RTVSPost2010PropOp32
 70
     1
102
RTVSPost2010Prop33
280
     0
102
RTVSPost2010PropOp33
 70
     1
102
RTVSPost2010Prop34
280
     0
102
RTVSPost2010PropOp34
 70
     1
102
RTVSPost2010Prop35
280
     0
102
RTVSPost2010PropOp35
 70
     1
102
RTVSPost2010Prop36
280
     0
102
RTVSPost2010PropOp36
 70
     1
102
RTVSPost2010Prop37
 90
       50
102
RTVSPost2010PropOp37
 70
     1
102
RTVSPost2010Prop38
140
0.0
102
RTVSPost2010PropOp38
 70
     1
102
RTVSPost2010Prop39
140
1.0
102
RTVSPost2010PropOp39
 70
     1
102
RTVSPost2010Prop40
 90
        0
102
RTVSPost2010PropOp40
 70
     1
102
RTVSPost2010Prop41ColorIndex
 90
       18
102
RTVSPost2010Prop41ColorRGB
 90
        0
102
RTVSPost2010PropOp41
 70
     1
102
RTVSPost2010Prop42
 90
       50
102
RTVSPost2010PropOp42
 70
     1
102
RTVSPost2010Prop43
 90
        3
102
RTVSPost2010PropOp43
 70
     1
102
RTVSPost2010Prop44ColorIndex
 90
        5
102
RTVSPost2010Prop44ColorRGB
 90
      255
102
RTVSPost2010PropOp44
 70
     1
102
RTVSPost2010Prop45
280
     0
102
RTVSPost2010PropOp45
 70
     1
102
RTVSPost2010Prop46
 90
       50
102
RTVSPost2010PropOp46
 70
     1
102
RTVSPost2010Prop47
 90
       50
102
RTVSPost2010PropOp47
 70
     1
102
RTVSPost2010Prop48
 90
       50
102
RTVSPost2010PropOp48
 70
     1
102
RTVSPost2010Prop49
280
     0
102
RTVSPost2010PropOp49
 70
     1
102
RTVSPost2010Prop50
 90
       50
102
RTVSPost2010PropOp50
 70
     1
102
RTVSPost2010Prop51ColorIndex
 90
      256
102
RTVSPost2010Prop51ColorRGB
 90
-16777216
102
RTVSPost2010PropOp51
 70
     0
102
RTVSPost2010Prop52
140
1.0
102
RTVSPost2010PropOp52
 70
     0
102
RTVSPost2010Prop53
 90
        2
102
RTVSPost2010PropOp53
 70
     1
102
RTVSPost2010Prop54
  1
strokes_ogs.tif
102
RTVSPost2010PropOp54
 70
     1
102
RTVSPost2010Prop55
280
     0
102
RTVSPost2010PropOp55
 70
     1
102
RTVSPost2010Prop56
140
1.0
102
RTVSPost2010PropOp56
 70
     1
102
RTVSPost2010Prop57
140
1.0
102
RTVSPost2010PropOp57
 70
     1
  0
XRECORD
  5
6CE
102
{ACAD_REACTORS
330
6CD
102
}
330
6CD
100
AcDbXrecord
280
     1
102
RTVSPropertyOp0
 70
     0
102
RTVSPropertyOp1
 70
     0
102
RTVSPropertyOp2
 70
     0
102
RTVSPropertyOp3
 70
     0
102
RTVSPropertyOp4
 70
     0
102
RTVSPropertyOp5
 70
     0
102
RTVSPropertyOp6
 70
     0
102
RTVSPropertyOp7
 70
     0
102
RTVSPropertyOp8
 70
     0
102
RTVSPropertyOp9
 70
     0
102
RTVSPropertyOp10
 70
     0
102
RTVSPropertyOp11
 70
     0
102
RTVSPropertyOp12
 70
     0
102
RTVSPropertyOp13
 70
     0
102
RTVSPropertyOp14
 70
     0
102
RTVSPropertyOp15
 70
     0
102
RTVSPropertyOp16
 70
     0
102
RTVSPropertyOp17
 70
     0
102
RTVSPropertyOp18
 70
     0
102
RTVSPropertyOp19
 70
     0
102
RTVSPropertyOp20
 70
     0
102
RTVSPropertyOp21
 70
     0
102
RTVSPropertyOp22
 70
     0
102
RTVSPropertyOp23
 70
     0
102
RTVSPropertyOp24
 70
     0
102
RTVSPropertyOp25
 70
     0
102
RTVSPropertyOp26
 70
     0
102
RTVSPropertyOp27
 70
     0
102
RTVSPropertyOp28
 70
     1
102
RTVSPropertyOp29
 70
     1
102
RTVSPropertyOp30
 70
     1
102
RTVSPropertyOp31
 70
     1
102
RTVSPropertyOp32
 70
     1
102
RTVSPropertyOp33
 70
     1
102
RTVSPropertyOp34
 70
     1
102
RTVSPropertyOp35
 70
     1
102
RTVSPropertyOp36
 70
     1
102
RTVSPropertyOp37
 70
     1
102
RTVSPropertyOp38
 70
     1
102
RTVSPropertyOp39
 70
     1
102
RTVSPropertyOp40
 70
     1
102
RTVSPropertyOp41
 70
     1
102
RTVSPropertyOp42
 70
     1
102
RTVSPropertyOp43
 70
     1
102
RTVSPropertyOp44
 70
     1
102
RTVSPropertyOp45
 70
     1
102
RTVSPropertyOp46
 70
     1
102
RTVSPropertyOp47
 70
     1
102
RTVSPropertyOp48
 70
     1
102
RTVSPropertyOp49
 70
     1
102
RTVSPropertyOp50
 70
     1
102
RTVSPropertyOp51
 70
     0
102
RTVSPropertyOp52
 70
     0
102
RTVSPropertyOp53
 70
     1
102
RTVSPropertyOp54
 70
     1
102
RTVSPropertyOp55
 70
     1
102
RTVSPropertyOp56
 70
     1
102
RTVSPropertyOp57
 70
     1
102
RTVSPost2010Prop28
280
     0
102
RTVSPost2010PropOp28
 70
     1
102
RTVSPost2010Prop29
280
     1
102
RTVSPost2010PropOp29
 70
     1
102
RTVSPost2010Prop30
280
     1
102
RTVSPost2010PropOp30
 70
     1
102
RTVSPost2010Prop31
280
     0
102
RTVSPost2010PropOp31
 70
     1
102
RTVSPost2010Prop32
280
     0
102
RTVSPost2010PropOp32
 70
     1
102
RTVSPost2010Prop33
280
     0
102
RTVSPost2010PropOp33
 70
     1
102
RTVSPost2010Prop34
280
     0
102
RTVSPost2010PropOp34
 70
     1
102
RTVSPost2010Prop35
280
     0
102
RTVSPost2010PropOp35
 70
     1
102
RTVSPost2010Prop36
280
     0
102
RTVSPost2010PropOp36
 70
     1
102
RTVSPost2010Prop37
 90
       50
102
RTVSPost2010PropOp37
 70
     1
102
RTVSPost2010Prop38
140
0.0
102
RTVSPost2010PropOp38
 70
     1
102
RTVSPost2010Prop39
140
1.0
102
RTVSPost2010PropOp39
 70
     1
102
RTVSPost2010Prop40
 90
        0
102
RTVSPost2010PropOp40
 70
     1
102
RTVSPost2010Prop41ColorIndex
 90
       18
102
RTVSPost2010Prop41ColorRGB
 90
        0
102
RTVSPost2010PropOp41
 70
     1
102
RTVSPost2010Prop42
 90
       50
102
RTVSPost2010PropOp42
 70
     1
102
RTVSPost2010Prop43
 90
        3
102
RTVSPost2010PropOp43
 70
     1
102
RTVSPost2010Prop44ColorIndex
 90
        5
102
RTVSPost2010Prop44ColorRGB
 90
      255
102
RTVSPost2010PropOp44
 70
     1
102
RTVSPost2010Prop45
280
     0
102
RTVSPost2010PropOp45
 70
     1
102
RTVSPost2010Prop46
 90
       50
102
RTVSPost2010PropOp46
 70
     1
102
RTVSPost2010Prop47
 90
       50
102
RTVSPost2010PropOp47
 70
     1
102
RTVSPost2010Prop48
 90
       50
102
RTVSPost2010PropOp48
 70
     1
102
RTVSPost2010Prop49
280
     0
102
RTVSPost2010PropOp49
 70
     1
102
RTVSPost2010Prop50
 90
       50
102
RTVSPost2010PropOp50
 70
     1
102
RTVSPost2010Prop51ColorIndex
 90
      256
102
RTVSPost2010Prop51ColorRGB
 90
-16777216
102
RTVSPost2010PropOp51
 70
     0
102
RTVSPost2010Prop52
140
1.0
102
RTVSPost2010PropOp52
 70
     0
102
RTVSPost2010Prop53
 90
        2
102
RTVSPost2010PropOp53
 70
     1
102
RTVSPost2010Prop54
  1
strokes_ogs.tif
102
RTVSPost2010PropOp54
 70
     1
102
RTVSPost2010Prop55
280
     0
102
RTVSPost2010PropOp55
 70
     1
102
RTVSPost2010Prop56
140
1.0
102
RTVSPost2010PropOp56
 70
     1
102
RTVSPost2010Prop57
140
1.0
102
RTVSPost2010PropOp57
 70
     1
  0
XRECORD
  5
6C8
102
{ACAD_REACTORS
330
6C7
102
}
330
6C7
100
AcDbXrecord
280
     1
102
RTVSPropertyOp0
 70
     1
102
RTVSPropertyOp1
 70
     1
102
RTVSPropertyOp2
 70
     1
102
RTVSPropertyOp3
 70
     1
102
RTVSPropertyOp4
 70
     1
102
RTVSPropertyOp5
 70
     1
102
RTVSPropertyOp6
 70
     1
102
RTVSPropertyOp7
 70
     1
102
RTVSPropertyOp8
 70
     1
102
RTVSPropertyOp9
 70
     1
102
RTVSPropertyOp10
 70
     1
102
RTVSPropertyOp11
 70
     1
102
RTVSPropertyOp12
 70
     1
102
RTVSPropertyOp13
 70
     1
102
RTVSPropertyOp14
 70
     1
102
RTVSPropertyOp15
 70
     1
102
RTVSPropertyOp16
 70
     1
102
RTVSPropertyOp17
 70
     1
102
RTVSPropertyOp18
 70
     1
102
RTVSPropertyOp19
 70
     1
102
RTVSPropertyOp20
 70
     1
102
RTVSPropertyOp21
 70
     1
102
RTVSPropertyOp22
 70
     1
102
RTVSPropertyOp23
 70
     1
102
RTVSPropertyOp24
 70
     1
102
RTVSPropertyOp25
 70
     1
102
RTVSPropertyOp26
 70
     1
102
RTVSPropertyOp27
 70
     1
102
RTVSPropertyOp28
 70
     1
102
RTVSPropertyOp29
 70
     1
102
RTVSPropertyOp30
 70
     1
102
RTVSPropertyOp31
 70
     1
102
RTVSPropertyOp32
 70
     1
102
RTVSPropertyOp33
 70
     1
102
RTVSPropertyOp34
 70
     1
102
RTVSPropertyOp35
 70
     1
102
RTVSPropertyOp36
 70
     1
102
RTVSPropertyOp37
 70
     1
102
RTVSPropertyOp38
 70
     1
102
RTVSPropertyOp39
 70
     1
102
RTVSPropertyOp40
 70
     1
102
RTVSPropertyOp41
 70
     1
102
RTVSPropertyOp42
 70
     1
102
RTVSPropertyOp43
 70
     1
102
RTVSPropertyOp44
 70
     1
102
RTVSPropertyOp45
 70
     1
102
RTVSPropertyOp46
 70
     1
102
RTVSPropertyOp47
 70
     1
102
RTVSPropertyOp48
 70
     1
102
RTVSPropertyOp49
 70
     1
102
RTVSPropertyOp50
 70
     1
102
RTVSPropertyOp51
 70
     0
102
RTVSPropertyOp52
 70
     0
102
RTVSPropertyOp53
 70
     1
102
RTVSPropertyOp54
 70
     1
102
RTVSPropertyOp55
 70
     1
102
RTVSPropertyOp56
 70
     1
102
RTVSPropertyOp57
 70
     1
102
RTVSPost2010Prop28
280
     0
102
RTVSPost2010PropOp28
 70
     1
102
RTVSPost2010Prop29
280
     1
102
RTVSPost2010PropOp29
 70
     1
102
RTVSPost2010Prop30
280
     1
102
RTVSPost2010PropOp30
 70
     1
102
RTVSPost2010Prop31
280
     0
102
RTVSPost2010PropOp31
 70
     1
102
RTVSPost2010Prop32
280
     0
102
RTVSPost2010PropOp32
 70
     1
102
RTVSPost2010Prop33
280
     0
102
RTVSPost2010PropOp33
 70
     1
102
RTVSPost2010Prop34
280
     0
102
RTVSPost2010PropOp34
 70
     1
102
RTVSPost2010Prop35
280
     0
102
RTVSPost2010PropOp35
 70
     1
102
RTVSPost2010Prop36
280
     0
102
RTVSPost2010PropOp36
 70
     1
102
RTVSPost2010Prop37
 90
       50
102
RTVSPost2010PropOp37
 70
     1
102
RTVSPost2010Prop38
140
0.0
102
RTVSPost2010PropOp38
 70
     1
102
RTVSPost2010Prop39
140
1.0
102
RTVSPost2010PropOp39
 70
     1
102
RTVSPost2010Prop40
 90
        0
102
RTVSPost2010PropOp40
 70
     1
102
RTVSPost2010Prop41ColorIndex
 90
       18
102
RTVSPost2010Prop41ColorRGB
 90
        0
102
RTVSPost2010PropOp41
 70
     1
102
RTVSPost2010Prop42
 90
       50
102
RTVSPost2010PropOp42
 70
     1
102
RTVSPost2010Prop43
 90
        3
102
RTVSPost2010PropOp43
 70
     1
102
RTVSPost2010Prop44ColorIndex
 90
        5
102
RTVSPost2010Prop44ColorRGB
 90
      255
102
RTVSPost2010PropOp44
 70
     1
102
RTVSPost2010Prop45
280
     0
102
RTVSPost2010PropOp45
 70
     1
102
RTVSPost2010Prop46
 90
       50
102
RTVSPost2010PropOp46
 70
     1
102
RTVSPost2010Prop47
 90
       50
102
RTVSPost2010PropOp47
 70
     1
102
RTVSPost2010Prop48
 90
       50
102
RTVSPost2010PropOp48
 70
     1
102
RTVSPost2010Prop49
280
     0
102
RTVSPost2010PropOp49
 70
     1
102
RTVSPost2010Prop50
 90
       50
102
RTVSPost2010PropOp50
 70
     1
102
RTVSPost2010Prop51ColorIndex
 90
      256
102
RTVSPost2010Prop51ColorRGB
 90
-16777216
102
RTVSPost2010PropOp51
 70
     0
102
RTVSPost2010Prop52
140
1.0
102
RTVSPost2010PropOp52
 70
     0
102
RTVSPost2010Prop53
 90
        2
102
RTVSPost2010PropOp53
 70
     1
102
RTVSPost2010Prop54
  1
strokes_ogs.tif
102
RTVSPost2010PropOp54
 70
     1
102
RTVSPost2010Prop55
280
     0
102
RTVSPost2010PropOp55
 70
     1
102
RTVSPost2010Prop56
140
1.0
102
RTVSPost2010PropOp56
 70
     1
102
RTVSPost2010Prop57
140
1.0
102
RTVSPost2010PropOp57
 70
     1
  0
XRECORD
  5
6D0
102
{ACAD_REACTORS
330
6CF
102
}
330
6CF
100
AcDbXrecord
280
     1
102
RTVSPropertyOp0
 70
     0
102
RTVSPropertyOp1
 70
     0
102
RTVSPropertyOp2
 70
     0
102
RTVSPropertyOp3
 70
     0
102
RTVSPropertyOp4
 70
     0
102
RTVSPropertyOp5
 70
     0
102
RTVSPropertyOp6
 70
     0
102
RTVSPropertyOp7
 70
     0
102
RTVSPropertyOp8
 70
     0
102
RTVSPropertyOp9
 70
     0
102
RTVSPropertyOp10
 70
     0
102
RTVSPropertyOp11
 70
     0
102
RTVSPropertyOp12
 70
     0
102
RTVSPropertyOp13
 70
     0
102
RTVSPropertyOp14
 70
     0
102
RTVSPropertyOp15
 70
     0
102
RTVSPropertyOp16
 70
     0
102
RTVSPropertyOp17
 70
     0
102
RTVSPropertyOp18
 70
     0
102
RTVSPropertyOp19
 70
     0
102
RTVSPropertyOp20
 70
     0
102
RTVSPropertyOp21
 70
     0
102
RTVSPropertyOp22
 70
     0
102
RTVSPropertyOp23
 70
     0
102
RTVSPropertyOp24
 70
     0
102
RTVSPropertyOp25
 70
     0
102
RTVSPropertyOp26
 70
     0
102
RTVSPropertyOp27
 70
     0
102
RTVSPropertyOp28
 70
     1
102
RTVSPropertyOp29
 70
     1
102
RTVSPropertyOp30
 70
     1
102
RTVSPropertyOp31
 70
     1
102
RTVSPropertyOp32
 70
     1
102
RTVSPropertyOp33
 70
     1
102
RTVSPropertyOp34
 70
     1
102
RTVSPropertyOp35
 70
     1
102
RTVSPropertyOp36
 70
     1
102
RTVSPropertyOp37
 70
     1
102
RTVSPropertyOp38
 70
     1
102
RTVSPropertyOp39
 70
     1
102
RTVSPropertyOp40
 70
     1
102
RTVSPropertyOp41
 70
     1
102
RTVSPropertyOp42
 70
     1
102
RTVSPropertyOp43
 70
     1
102
RTVSPropertyOp44
 70
     1
102
RTVSPropertyOp45
 70
     1
102
RTVSPropertyOp46
 70
     1
102
RTVSPropertyOp47
 70
     1
102
RTVSPropertyOp48
 70
     1
102
RTVSPropertyOp49
 70
     1
102
RTVSPropertyOp50
 70
     1
102
RTVSPropertyOp51
 70
     0
102
RTVSPropertyOp52
 70
     0
102
RTVSPropertyOp53
 70
     1
102
RTVSPropertyOp54
 70
     1
102
RTVSPropertyOp55
 70
     1
102
RTVSPropertyOp56
 70
     1
102
RTVSPropertyOp57
 70
     1
102
RTVSPost2010Prop28
280
     0
102
RTVSPost2010PropOp28
 70
     1
102
RTVSPost2010Prop29
280
     1
102
RTVSPost2010PropOp29
 70
     1
102
RTVSPost2010Prop30
280
     1
102
RTVSPost2010PropOp30
 70
     1
102
RTVSPost2010Prop31
280
     0
102
RTVSPost2010PropOp31
 70
     1
102
RTVSPost2010Prop32
280
     0
102
RTVSPost2010PropOp32
 70
     1
102
RTVSPost2010Prop33
280
     0
102
RTVSPost2010PropOp33
 70
     1
102
RTVSPost2010Prop34
280
     0
102
RTVSPost2010PropOp34
 70
     1
102
RTVSPost2010Prop35
280
     0
102
RTVSPost2010PropOp35
 70
     1
102
RTVSPost2010Prop36
280
     0
102
RTVSPost2010PropOp36
 70
     1
102
RTVSPost2010Prop37
 90
       50
102
RTVSPost2010PropOp37
 70
     1
102
RTVSPost2010Prop38
140
0.0
102
RTVSPost2010PropOp38
 70
     1
102
RTVSPost2010Prop39
140
1.0
102
RTVSPost2010PropOp39
 70
     1
102
RTVSPost2010Prop40
 90
        0
102
RTVSPost2010PropOp40
 70
     1
102
RTVSPost2010Prop41ColorIndex
 90
       18
102
RTVSPost2010Prop41ColorRGB
 90
        0
102
RTVSPost2010PropOp41
 70
     1
102
RTVSPost2010Prop42
 90
       50
102
RTVSPost2010PropOp42
 70
     1
102
RTVSPost2010Prop43
 90
        3
102
RTVSPost2010PropOp43
 70
     1
102
RTVSPost2010Prop44ColorIndex
 90
        5
102
RTVSPost2010Prop44ColorRGB
 90
      255
102
RTVSPost2010PropOp44
 70
     1
102
RTVSPost2010Prop45
280
     0
102
RTVSPost2010PropOp45
 70
     1
102
RTVSPost2010Prop46
 90
       50
102
RTVSPost2010PropOp46
 70
     1
102
RTVSPost2010Prop47
 90
       50
102
RTVSPost2010PropOp47
 70
     1
102
RTVSPost2010Prop48
 90
       50
102
RTVSPost2010PropOp48
 70
     1
102
RTVSPost2010Prop49
280
     0
102
RTVSPost2010PropOp49
 70
     1
102
RTVSPost2010Prop50
 90
       50
102
RTVSPost2010PropOp50
 70
     1
102
RTVSPost2010Prop51ColorIndex
 90
      256
102
RTVSPost2010Prop51ColorRGB
 90
-16777216
102
RTVSPost2010PropOp51
 70
     0
102
RTVSPost2010Prop52
140
1.0
102
RTVSPost2010PropOp52
 70
     0
102
RTVSPost2010Prop53
 90
        2
102
RTVSPost2010PropOp53
 70
     1
102
RTVSPost2010Prop54
  1
strokes_ogs.tif
102
RTVSPost2010PropOp54
 70
     1
102
RTVSPost2010Prop55
280
     0
102
RTVSPost2010PropOp55
 70
     1
102
RTVSPost2010Prop56
140
1.0
102
RTVSPost2010PropOp56
 70
     1
102
RTVSPost2010Prop57
140
1.0
102
RTVSPost2010PropOp57
 70
     1
  0
XRECORD
  5
6AE
102
{ACAD_REACTORS
330
6AD
102
}
330
6AD
100
AcDbXrecord
280
     1
102
RTVSPropertyOp0
 70
     1
102
RTVSPropertyOp1
 70
     1
102
RTVSPropertyOp2
 70
     1
102
RTVSPropertyOp3
 70
     1
102
RTVSPropertyOp4
 70
     1
102
RTVSPropertyOp5
 70
     1
102
RTVSPropertyOp6
 70
     1
102
RTVSPropertyOp7
 70
     1
102
RTVSPropertyOp8
 70
     1
102
RTVSPropertyOp9
 70
     1
102
RTVSPropertyOp10
 70
     1
102
RTVSPropertyOp11
 70
     1
102
RTVSPropertyOp12
 70
     1
102
RTVSPropertyOp13
 70
     1
102
RTVSPropertyOp14
 70
     1
102
RTVSPropertyOp15
 70
     1
102
RTVSPropertyOp16
 70
     1
102
RTVSPropertyOp17
 70
     1
102
RTVSPropertyOp18
 70
     1
102
RTVSPropertyOp19
 70
     1
102
RTVSPropertyOp20
 70
     1
102
RTVSPropertyOp21
 70
     1
102
RTVSPropertyOp22
 70
     1
102
RTVSPropertyOp23
 70
     1
102
RTVSPropertyOp24
 70
     1
102
RTVSPropertyOp25
 70
     1
102
RTVSPropertyOp26
 70
     1
102
RTVSPropertyOp27
 70
     1
102
RTVSPropertyOp28
 70
     1
102
RTVSPropertyOp29
 70
     1
102
RTVSPropertyOp30
 70
     1
102
RTVSPropertyOp31
 70
     1
102
RTVSPropertyOp32
 70
     1
102
RTVSPropertyOp33
 70
     1
102
RTVSPropertyOp34
 70
     1
102
RTVSPropertyOp35
 70
     1
102
RTVSPropertyOp36
 70
     1
102
RTVSPropertyOp37
 70
     1
102
RTVSPropertyOp38
 70
     1
102
RTVSPropertyOp39
 70
     1
102
RTVSPropertyOp40
 70
     1
102
RTVSPropertyOp41
 70
     1
102
RTVSPropertyOp42
 70
     1
102
RTVSPropertyOp43
 70
     1
102
RTVSPropertyOp44
 70
     1
102
RTVSPropertyOp45
 70
     1
102
RTVSPropertyOp46
 70
     1
102
RTVSPropertyOp47
 70
     1
102
RTVSPropertyOp48
 70
     1
102
RTVSPropertyOp49
 70
     1
102
RTVSPropertyOp50
 70
     1
102
RTVSPropertyOp51
 70
     0
102
RTVSPropertyOp52
 70
     0
102
RTVSPropertyOp53
 70
     1
102
RTVSPropertyOp54
 70
     1
102
RTVSPropertyOp55
 70
     1
102
RTVSPropertyOp56
 70
     1
102
RTVSPropertyOp57
 70
     1
102
RTVSPost2010Prop28
280
     0
102
RTVSPost2010PropOp28
 70
     1
102
RTVSPost2010Prop29
280
     1
102
RTVSPost2010PropOp29
 70
     1
102
RTVSPost2010Prop30
280
     1
102
RTVSPost2010PropOp30
 70
     1
102
RTVSPost2010Prop31
280
     0
102
RTVSPost2010PropOp31
 70
     1
102
RTVSPost2010Prop32
280
     0
102
RTVSPost2010PropOp32
 70
     1
102
RTVSPost2010Prop33
280
     0
102
RTVSPost2010PropOp33
 70
     1
102
RTVSPost2010Prop34
280
     0
102
RTVSPost2010PropOp34
 70
     1
102
RTVSPost2010Prop35
280
     0
102
RTVSPost2010PropOp35
 70
     1
102
RTVSPost2010Prop36
280
     0
102
RTVSPost2010PropOp36
 70
     1
102
RTVSPost2010Prop37
 90
       50
102
RTVSPost2010PropOp37
 70
     1
102
RTVSPost2010Prop38
140
0.0
102
RTVSPost2010PropOp38
 70
     1
102
RTVSPost2010Prop39
140
1.0
102
RTVSPost2010PropOp39
 70
     1
102
RTVSPost2010Prop40
 90
        0
102
RTVSPost2010PropOp40
 70
     1
102
RTVSPost2010Prop41ColorIndex
 90
       18
102
RTVSPost2010Prop41ColorRGB
 90
        0
102
RTVSPost2010PropOp41
 70
     1
102
RTVSPost2010Prop42
 90
       50
102
RTVSPost2010PropOp42
 70
     1
102
RTVSPost2010Prop43
 90
        3
102
RTVSPost2010PropOp43
 70
     1
102
RTVSPost2010Prop44ColorIndex
 90
        5
102
RTVSPost2010Prop44ColorRGB
 90
      255
102
RTVSPost2010PropOp44
 70
     1
102
RTVSPost2010Prop45
280
     0
102
RTVSPost2010PropOp45
 70
     1
102
RTVSPost2010Prop46
 90
       50
102
RTVSPost2010PropOp46
 70
     1
102
RTVSPost2010Prop47
 90
       50
102
RTVSPost2010PropOp47
 70
     1
102
RTVSPost2010Prop48
 90
       50
102
RTVSPost2010PropOp48
 70
     1
102
RTVSPost2010Prop49
280
     0
102
RTVSPost2010PropOp49
 70
     1
102
RTVSPost2010Prop50
 90
       50
102
RTVSPost2010PropOp50
 70
     1
102
RTVSPost2010Prop51ColorIndex
 90
      256
102
RTVSPost2010Prop51ColorRGB
 90
-16777216
102
RTVSPost2010PropOp51
 70
     0
102
RTVSPost2010Prop52
140
1.0
102
RTVSPost2010PropOp52
 70
     0
102
RTVSPost2010Prop53
 90
        2
102
RTVSPost2010PropOp53
 70
     1
102
RTVSPost2010Prop54
  1
strokes_ogs.tif
102
RTVSPost2010PropOp54
 70
     1
102
RTVSPost2010Prop55
280
     0
102
RTVSPost2010PropOp55
 70
     1
102
RTVSPost2010Prop56
140
1.0
102
RTVSPost2010PropOp56
 70
     1
102
RTVSPost2010Prop57
140
1.0
102
RTVSPost2010PropOp57
 70
     1
  0
XRECORD
  5
6DC
102
{ACAD_REACTORS
330
6DB
102
}
330
6DB
100
AcDbXrecord
280
     1
102
RTVSPropertyOp0
 70
     1
102
RTVSPropertyOp1
 70
     1
102
RTVSPropertyOp2
 70
     1
102
RTVSPropertyOp3
 70
     1
102
RTVSPropertyOp4
 70
     1
102
RTVSPropertyOp5
 70
     1
102
RTVSPropertyOp6
 70
     1
102
RTVSPropertyOp7
 70
     1
102
RTVSPropertyOp8
 70
     1
102
RTVSPropertyOp9
 70
     1
102
RTVSPropertyOp10
 70
     1
102
RTVSPropertyOp11
 70
     1
102
RTVSPropertyOp12
 70
     1
102
RTVSPropertyOp13
 70
     1
102
RTVSPropertyOp14
 70
     1
102
RTVSPropertyOp15
 70
     1
102
RTVSPropertyOp16
 70
     1
102
RTVSPropertyOp17
 70
     1
102
RTVSPropertyOp18
 70
     1
102
RTVSPropertyOp19
 70
     1
102
RTVSPropertyOp20
 70
     1
102
RTVSPropertyOp21
 70
     1
102
RTVSPropertyOp22
 70
     1
102
RTVSPropertyOp23
 70
     1
102
RTVSPropertyOp24
 70
     1
102
RTVSPropertyOp25
 70
     1
102
RTVSPropertyOp26
 70
     1
102
RTVSPropertyOp27
 70
     1
102
RTVSPropertyOp28
 70
     1
102
RTVSPropertyOp29
 70
     1
102
RTVSPropertyOp30
 70
     1
102
RTVSPropertyOp31
 70
     1
102
RTVSPropertyOp32
 70
     1
102
RTVSPropertyOp33
 70
     1
102
RTVSPropertyOp34
 70
     1
102
RTVSPropertyOp35
 70
     1
102
RTVSPropertyOp36
 70
     1
102
RTVSPropertyOp37
 70
     1
102
RTVSPropertyOp38
 70
     1
102
RTVSPropertyOp39
 70
     1
102
RTVSPropertyOp40
 70
     1
102
RTVSPropertyOp41
 70
     1
102
RTVSPropertyOp42
 70
     1
102
RTVSPropertyOp43
 70
     1
102
RTVSPropertyOp44
 70
     1
102
RTVSPropertyOp45
 70
     1
102
RTVSPropertyOp46
 70
     1
102
RTVSPropertyOp47
 70
     1
102
RTVSPropertyOp48
 70
     1
102
RTVSPropertyOp49
 70
     1
102
RTVSPropertyOp50
 70
     1
102
RTVSPropertyOp51
 70
     0
102
RTVSPropertyOp52
 70
     0
102
RTVSPropertyOp53
 70
     1
102
RTVSPropertyOp54
 70
     1
102
RTVSPropertyOp55
 70
     1
102
RTVSPropertyOp56
 70
     1
102
RTVSPropertyOp57
 70
     1
102
RTVSPost2010Prop28
280
     0
102
RTVSPost2010PropOp28
 70
     1
102
RTVSPost2010Prop29
280
     1
102
RTVSPost2010PropOp29
 70
     1
102
RTVSPost2010Prop30
280
     1
102
RTVSPost2010PropOp30
 70
     1
102
RTVSPost2010Prop31
280
     0
102
RTVSPost2010PropOp31
 70
     1
102
RTVSPost2010Prop32
280
     0
102
RTVSPost2010PropOp32
 70
     1
102
RTVSPost2010Prop33
280
     0
102
RTVSPost2010PropOp33
 70
     1
102
RTVSPost2010Prop34
280
     0
102
RTVSPost2010PropOp34
 70
     1
102
RTVSPost2010Prop35
280
     0
102
RTVSPost2010PropOp35
 70
     1
102
RTVSPost2010Prop36
280
     0
102
RTVSPost2010PropOp36
 70
     1
102
RTVSPost2010Prop37
 90
       50
102
RTVSPost2010PropOp37
 70
     1
102
RTVSPost2010Prop38
140
0.0
102
RTVSPost2010PropOp38
 70
     1
102
RTVSPost2010Prop39
140
1.0
102
RTVSPost2010PropOp39
 70
     1
102
RTVSPost2010Prop40
 90
        0
102
RTVSPost2010PropOp40
 70
     1
102
RTVSPost2010Prop41ColorIndex
 90
       18
102
RTVSPost2010Prop41ColorRGB
 90
        0
102
RTVSPost2010PropOp41
 70
     1
102
RTVSPost2010Prop42
 90
       50
102
RTVSPost2010PropOp42
 70
     1
102
RTVSPost2010Prop43
 90
        3
102
RTVSPost2010PropOp43
 70
     1
102
RTVSPost2010Prop44ColorIndex
 90
        5
102
RTVSPost2010Prop44ColorRGB
 90
      255
102
RTVSPost2010PropOp44
 70
     1
102
RTVSPost2010Prop45
280
     0
102
RTVSPost2010PropOp45
 70
     1
102
RTVSPost2010Prop46
 90
       50
102
RTVSPost2010PropOp46
 70
     1
102
RTVSPost2010Prop47
 90
       50
102
RTVSPost2010PropOp47
 70
     1
102
RTVSPost2010Prop48
 90
       50
102
RTVSPost2010PropOp48
 70
     1
102
RTVSPost2010Prop49
280
     0
102
RTVSPost2010PropOp49
 70
     1
102
RTVSPost2010Prop50
 90
       50
102
RTVSPost2010PropOp50
 70
     1
102
RTVSPost2010Prop51ColorIndex
 90
      256
102
RTVSPost2010Prop51ColorRGB
 90
-16777216
102
RTVSPost2010PropOp51
 70
     0
102
RTVSPost2010Prop52
140
1.0
102
RTVSPost2010PropOp52
 70
     0
102
RTVSPost2010Prop53
 90
        2
102
RTVSPost2010PropOp53
 70
     1
102
RTVSPost2010Prop54
  1
strokes_ogs.tif
102
RTVSPost2010PropOp54
 70
     1
102
RTVSPost2010Prop55
280
     0
102
RTVSPost2010PropOp55
 70
     1
102
RTVSPost2010Prop56
140
1.0
102
RTVSPost2010PropOp56
 70
     1
102
RTVSPost2010Prop57
140
1.0
102
RTVSPost2010PropOp57
 70
     1
  0
XRECORD
  5
6DA
102
{ACAD_REACTORS
330
6D9
102
}
330
6D9
100
AcDbXrecord
280
     1
102
RTVSPropertyOp0
 70
     1
102
RTVSPropertyOp1
 70
     1
102
RTVSPropertyOp2
 70
     1
102
RTVSPropertyOp3
 70
     1
102
RTVSPropertyOp4
 70
     1
102
RTVSPropertyOp5
 70
     1
102
RTVSPropertyOp6
 70
     1
102
RTVSPropertyOp7
 70
     1
102
RTVSPropertyOp8
 70
     1
102
RTVSPropertyOp9
 70
     1
102
RTVSPropertyOp10
 70
     1
102
RTVSPropertyOp11
 70
     1
102
RTVSPropertyOp12
 70
     1
102
RTVSPropertyOp13
 70
     1
102
RTVSPropertyOp14
 70
     1
102
RTVSPropertyOp15
 70
     1
102
RTVSPropertyOp16
 70
     1
102
RTVSPropertyOp17
 70
     1
102
RTVSPropertyOp18
 70
     1
102
RTVSPropertyOp19
 70
     1
102
RTVSPropertyOp20
 70
     1
102
RTVSPropertyOp21
 70
     1
102
RTVSPropertyOp22
 70
     1
102
RTVSPropertyOp23
 70
     1
102
RTVSPropertyOp24
 70
     1
102
RTVSPropertyOp25
 70
     1
102
RTVSPropertyOp26
 70
     1
102
RTVSPropertyOp27
 70
     1
102
RTVSPropertyOp28
 70
     1
102
RTVSPropertyOp29
 70
     1
102
RTVSPropertyOp30
 70
     1
102
RTVSPropertyOp31
 70
     1
102
RTVSPropertyOp32
 70
     1
102
RTVSPropertyOp33
 70
     1
102
RTVSPropertyOp34
 70
     1
102
RTVSPropertyOp35
 70
     1
102
RTVSPropertyOp36
 70
     1
102
RTVSPropertyOp37
 70
     1
102
RTVSPropertyOp38
 70
     1
102
RTVSPropertyOp39
 70
     1
102
RTVSPropertyOp40
 70
     1
102
RTVSPropertyOp41
 70
     1
102
RTVSPropertyOp42
 70
     1
102
RTVSPropertyOp43
 70
     1
102
RTVSPropertyOp44
 70
     1
102
RTVSPropertyOp45
 70
     1
102
RTVSPropertyOp46
 70
     1
102
RTVSPropertyOp47
 70
     1
102
RTVSPropertyOp48
 70
     1
102
RTVSPropertyOp49
 70
     1
102
RTVSPropertyOp50
 70
     1
102
RTVSPropertyOp51
 70
     0
102
RTVSPropertyOp52
 70
     0
102
RTVSPropertyOp53
 70
     1
102
RTVSPropertyOp54
 70
     1
102
RTVSPropertyOp55
 70
     1
102
RTVSPropertyOp56
 70
     1
102
RTVSPropertyOp57
 70
     1
102
RTVSPost2010Prop28
280
     0
102
RTVSPost2010PropOp28
 70
     1
102
RTVSPost2010Prop29
280
     1
102
RTVSPost2010PropOp29
 70
     1
102
RTVSPost2010Prop30
280
     1
102
RTVSPost2010PropOp30
 70
     1
102
RTVSPost2010Prop31
280
     0
102
RTVSPost2010PropOp31
 70
     1
102
RTVSPost2010Prop32
280
     0
102
RTVSPost2010PropOp32
 70
     1
102
RTVSPost2010Prop33
280
     0
102
RTVSPost2010PropOp33
 70
     1
102
RTVSPost2010Prop34
280
     0
102
RTVSPost2010PropOp34
 70
     1
102
RTVSPost2010Prop35
280
     0
102
RTVSPost2010PropOp35
 70
     1
102
RTVSPost2010Prop36
280
     0
102
RTVSPost2010PropOp36
 70
     1
102
RTVSPost2010Prop37
 90
       50
102
RTVSPost2010PropOp37
 70
     1
102
RTVSPost2010Prop38
140
0.0
102
RTVSPost2010PropOp38
 70
     1
102
RTVSPost2010Prop39
140
1.0
102
RTVSPost2010PropOp39
 70
     1
102
RTVSPost2010Prop40
 90
        0
102
RTVSPost2010PropOp40
 70
     1
102
RTVSPost2010Prop41ColorIndex
 90
       18
102
RTVSPost2010Prop41ColorRGB
 90
        0
102
RTVSPost2010PropOp41
 70
     1
102
RTVSPost2010Prop42
 90
       50
102
RTVSPost2010PropOp42
 70
     1
102
RTVSPost2010Prop43
 90
        3
102
RTVSPost2010PropOp43
 70
     1
102
RTVSPost2010Prop44ColorIndex
 90
        5
102
RTVSPost2010Prop44ColorRGB
 90
      255
102
RTVSPost2010PropOp44
 70
     1
102
RTVSPost2010Prop45
280
     0
102
RTVSPost2010PropOp45
 70
     1
102
RTVSPost2010Prop46
 90
       50
102
RTVSPost2010PropOp46
 70
     1
102
RTVSPost2010Prop47
 90
       50
102
RTVSPost2010PropOp47
 70
     1
102
RTVSPost2010Prop48
 90
       50
102
RTVSPost2010PropOp48
 70
     1
102
RTVSPost2010Prop49
280
     0
102
RTVSPost2010PropOp49
 70
     1
102
RTVSPost2010Prop50
 90
       50
102
RTVSPost2010PropOp50
 70
     1
102
RTVSPost2010Prop51ColorIndex
 90
      256
102
RTVSPost2010Prop51ColorRGB
 90
-16777216
102
RTVSPost2010PropOp51
 70
     0
102
RTVSPost2010Prop52
140
1.0
102
RTVSPost2010PropOp52
 70
     0
102
RTVSPost2010Prop53
 90
        2
102
RTVSPost2010PropOp53
 70
     1
102
RTVSPost2010Prop54
  1
strokes_ogs.tif
102
RTVSPost2010PropOp54
 70
     1
102
RTVSPost2010Prop55
280
     0
102
RTVSPost2010PropOp55
 70
     1
102
RTVSPost2010Prop56
140
1.0
102
RTVSPost2010PropOp56
 70
     1
102
RTVSPost2010Prop57
140
1.0
102
RTVSPost2010PropOp57
 70
     1
  0
XRECORD
  5
6D4
102
{ACAD_REACTORS
330
6D3
102
}
330
6D3
100
AcDbXrecord
280
     1
102
RTVSPropertyOp0
 70
     1
102
RTVSPropertyOp1
 70
     1
102
RTVSPropertyOp2
 70
     1
102
RTVSPropertyOp3
 70
     1
102
RTVSPropertyOp4
 70
     1
102
RTVSPropertyOp5
 70
     1
102
RTVSPropertyOp6
 70
     1
102
RTVSPropertyOp7
 70
     1
102
RTVSPropertyOp8
 70
     1
102
RTVSPropertyOp9
 70
     1
102
RTVSPropertyOp10
 70
     1
102
RTVSPropertyOp11
 70
     1
102
RTVSPropertyOp12
 70
     1
102
RTVSPropertyOp13
 70
     1
102
RTVSPropertyOp14
 70
     1
102
RTVSPropertyOp15
 70
     1
102
RTVSPropertyOp16
 70
     1
102
RTVSPropertyOp17
 70
     1
102
RTVSPropertyOp18
 70
     1
102
RTVSPropertyOp19
 70
     1
102
RTVSPropertyOp20
 70
     1
102
RTVSPropertyOp21
 70
     1
102
RTVSPropertyOp22
 70
     1
102
RTVSPropertyOp23
 70
     1
102
RTVSPropertyOp24
 70
     1
102
RTVSPropertyOp25
 70
     1
102
RTVSPropertyOp26
 70
     1
102
RTVSPropertyOp27
 70
     1
102
RTVSPropertyOp28
 70
     1
102
RTVSPropertyOp29
 70
     1
102
RTVSPropertyOp30
 70
     1
102
RTVSPropertyOp31
 70
     1
102
RTVSPropertyOp32
 70
     1
102
RTVSPropertyOp33
 70
     1
102
RTVSPropertyOp34
 70
     1
102
RTVSPropertyOp35
 70
     1
102
RTVSPropertyOp36
 70
     1
102
RTVSPropertyOp37
 70
     1
102
RTVSPropertyOp38
 70
     1
102
RTVSPropertyOp39
 70
     1
102
RTVSPropertyOp40
 70
     1
102
RTVSPropertyOp41
 70
     1
102
RTVSPropertyOp42
 70
     1
102
RTVSPropertyOp43
 70
     1
102
RTVSPropertyOp44
 70
     1
102
RTVSPropertyOp45
 70
     1
102
RTVSPropertyOp46
 70
     1
102
RTVSPropertyOp47
 70
     1
102
RTVSPropertyOp48
 70
     1
102
RTVSPropertyOp49
 70
     1
102
RTVSPropertyOp50
 70
     1
102
RTVSPropertyOp51
 70
     0
102
RTVSPropertyOp52
 70
     0
102
RTVSPropertyOp53
 70
     1
102
RTVSPropertyOp54
 70
     1
102
RTVSPropertyOp55
 70
     1
102
RTVSPropertyOp56
 70
     1
102
RTVSPropertyOp57
 70
     1
102
RTVSPost2010Prop28
280
     0
102
RTVSPost2010PropOp28
 70
     1
102
RTVSPost2010Prop29
280
     1
102
RTVSPost2010PropOp29
 70
     1
102
RTVSPost2010Prop30
280
     1
102
RTVSPost2010PropOp30
 70
     1
102
RTVSPost2010Prop31
280
     0
102
RTVSPost2010PropOp31
 70
     1
102
RTVSPost2010Prop32
280
     0
102
RTVSPost2010PropOp32
 70
     1
102
RTVSPost2010Prop33
280
     0
102
RTVSPost2010PropOp33
 70
     1
102
RTVSPost2010Prop34
280
     0
102
RTVSPost2010PropOp34
 70
     1
102
RTVSPost2010Prop35
280
     0
102
RTVSPost2010PropOp35
 70
     1
102
RTVSPost2010Prop36
280
     0
102
RTVSPost2010PropOp36
 70
     1
102
RTVSPost2010Prop37
 90
       50
102
RTVSPost2010PropOp37
 70
     1
102
RTVSPost2010Prop38
140
0.0
102
RTVSPost2010PropOp38
 70
     1
102
RTVSPost2010Prop39
140
1.0
102
RTVSPost2010PropOp39
 70
     1
102
RTVSPost2010Prop40
 90
        0
102
RTVSPost2010PropOp40
 70
     1
102
RTVSPost2010Prop41ColorIndex
 90
       18
102
RTVSPost2010Prop41ColorRGB
 90
        0
102
RTVSPost2010PropOp41
 70
     1
102
RTVSPost2010Prop42
 90
       50
102
RTVSPost2010PropOp42
 70
     1
102
RTVSPost2010Prop43
 90
        3
102
RTVSPost2010PropOp43
 70
     1
102
RTVSPost2010Prop44ColorIndex
 90
        5
102
RTVSPost2010Prop44ColorRGB
 90
      255
102
RTVSPost2010PropOp44
 70
     1
102
RTVSPost2010Prop45
280
     0
102
RTVSPost2010PropOp45
 70
     1
102
RTVSPost2010Prop46
 90
       50
102
RTVSPost2010PropOp46
 70
     1
102
RTVSPost2010Prop47
 90
       50
102
RTVSPost2010PropOp47
 70
     1
102
RTVSPost2010Prop48
 90
       50
102
RTVSPost2010PropOp48
 70
     1
102
RTVSPost2010Prop49
280
     0
102
RTVSPost2010PropOp49
 70
     1
102
RTVSPost2010Prop50
 90
       50
102
RTVSPost2010PropOp50
 70
     1
102
RTVSPost2010Prop51ColorIndex
 90
      256
102
RTVSPost2010Prop51ColorRGB
 90
-16777216
102
RTVSPost2010PropOp51
 70
     0
102
RTVSPost2010Prop52
140
1.0
102
RTVSPost2010PropOp52
 70
     0
102
RTVSPost2010Prop53
 90
        2
102
RTVSPost2010PropOp53
 70
     1
102
RTVSPost2010Prop54
  1
strokes_ogs.tif
102
RTVSPost2010PropOp54
 70
     1
102
RTVSPost2010Prop55
280
     0
102
RTVSPost2010PropOp55
 70
     1
102
RTVSPost2010Prop56
140
1.0
102
RTVSPost2010PropOp56
 70
     1
102
RTVSPost2010Prop57
140
1.0
102
RTVSPost2010PropOp57
 70
     1
  0
XRECORD
  5
6D6
102
{ACAD_REACTORS
330
6D5
102
}
330
6D5
100
AcDbXrecord
280
     1
102
RTVSPropertyOp0
 70
     1
102
RTVSPropertyOp1
 70
     1
102
RTVSPropertyOp2
 70
     1
102
RTVSPropertyOp3
 70
     1
102
RTVSPropertyOp4
 70
     1
102
RTVSPropertyOp5
 70
     1
102
RTVSPropertyOp6
 70
     1
102
RTVSPropertyOp7
 70
     1
102
RTVSPropertyOp8
 70
     1
102
RTVSPropertyOp9
 70
     1
102
RTVSPropertyOp10
 70
     1
102
RTVSPropertyOp11
 70
     1
102
RTVSPropertyOp12
 70
     1
102
RTVSPropertyOp13
 70
     1
102
RTVSPropertyOp14
 70
     1
102
RTVSPropertyOp15
 70
     1
102
RTVSPropertyOp16
 70
     1
102
RTVSPropertyOp17
 70
     1
102
RTVSPropertyOp18
 70
     1
102
RTVSPropertyOp19
 70
     1
102
RTVSPropertyOp20
 70
     1
102
RTVSPropertyOp21
 70
     1
102
RTVSPropertyOp22
 70
     1
102
RTVSPropertyOp23
 70
     1
102
RTVSPropertyOp24
 70
     1
102
RTVSPropertyOp25
 70
     1
102
RTVSPropertyOp26
 70
     1
102
RTVSPropertyOp27
 70
     1
102
RTVSPropertyOp28
 70
     1
102
RTVSPropertyOp29
 70
     1
102
RTVSPropertyOp30
 70
     1
102
RTVSPropertyOp31
 70
     1
102
RTVSPropertyOp32
 70
     1
102
RTVSPropertyOp33
 70
     1
102
RTVSPropertyOp34
 70
     1
102
RTVSPropertyOp35
 70
     1
102
RTVSPropertyOp36
 70
     1
102
RTVSPropertyOp37
 70
     1
102
RTVSPropertyOp38
 70
     1
102
RTVSPropertyOp39
 70
     1
102
RTVSPropertyOp40
 70
     1
102
RTVSPropertyOp41
 70
     1
102
RTVSPropertyOp42
 70
     1
102
RTVSPropertyOp43
 70
     1
102
RTVSPropertyOp44
 70
     1
102
RTVSPropertyOp45
 70
     1
102
RTVSPropertyOp46
 70
     1
102
RTVSPropertyOp47
 70
     1
102
RTVSPropertyOp48
 70
     1
102
RTVSPropertyOp49
 70
     1
102
RTVSPropertyOp50
 70
     1
102
RTVSPropertyOp51
 70
     0
102
RTVSPropertyOp52
 70
     0
102
RTVSPropertyOp53
 70
     1
102
RTVSPropertyOp54
 70
     1
102
RTVSPropertyOp55
 70
     1
102
RTVSPropertyOp56
 70
     1
102
RTVSPropertyOp57
 70
     1
102
RTVSPost2010Prop28
280
     0
102
RTVSPost2010PropOp28
 70
     1
102
RTVSPost2010Prop29
280
     1
102
RTVSPost2010PropOp29
 70
     1
102
RTVSPost2010Prop30
280
     1
102
RTVSPost2010PropOp30
 70
     1
102
RTVSPost2010Prop31
280
     0
102
RTVSPost2010PropOp31
 70
     1
102
RTVSPost2010Prop32
280
     0
102
RTVSPost2010PropOp32
 70
     1
102
RTVSPost2010Prop33
280
     0
102
RTVSPost2010PropOp33
 70
     1
102
RTVSPost2010Prop34
280
     0
102
RTVSPost2010PropOp34
 70
     1
102
RTVSPost2010Prop35
280
     0
102
RTVSPost2010PropOp35
 70
     1
102
RTVSPost2010Prop36
280
     0
102
RTVSPost2010PropOp36
 70
     1
102
RTVSPost2010Prop37
 90
       50
102
RTVSPost2010PropOp37
 70
     1
102
RTVSPost2010Prop38
140
0.0
102
RTVSPost2010PropOp38
 70
     1
102
RTVSPost2010Prop39
140
1.0
102
RTVSPost2010PropOp39
 70
     1
102
RTVSPost2010Prop40
 90
        0
102
RTVSPost2010PropOp40
 70
     1
102
RTVSPost2010Prop41ColorIndex
 90
       18
102
RTVSPost2010Prop41ColorRGB
 90
        0
102
RTVSPost2010PropOp41
 70
     1
102
RTVSPost2010Prop42
 90
       50
102
RTVSPost2010PropOp42
 70
     1
102
RTVSPost2010Prop43
 90
        3
102
RTVSPost2010PropOp43
 70
     1
102
RTVSPost2010Prop44ColorIndex
 90
        5
102
RTVSPost2010Prop44ColorRGB
 90
      255
102
RTVSPost2010PropOp44
 70
     1
102
RTVSPost2010Prop45
280
     0
102
RTVSPost2010PropOp45
 70
     1
102
RTVSPost2010Prop46
 90
       50
102
RTVSPost2010PropOp46
 70
     1
102
RTVSPost2010Prop47
 90
       50
102
RTVSPost2010PropOp47
 70
     1
102
RTVSPost2010Prop48
 90
       50
102
RTVSPost2010PropOp48
 70
     1
102
RTVSPost2010Prop49
280
     0
102
RTVSPost2010PropOp49
 70
     1
102
RTVSPost2010Prop50
 90
       50
102
RTVSPost2010PropOp50
 70
     1
102
RTVSPost2010Prop51ColorIndex
 90
      256
102
RTVSPost2010Prop51ColorRGB
 90
-16777216
102
RTVSPost2010PropOp51
 70
     0
102
RTVSPost2010Prop52
140
1.0
102
RTVSPost2010PropOp52
 70
     0
102
RTVSPost2010Prop53
 90
        2
102
RTVSPost2010PropOp53
 70
     1
102
RTVSPost2010Prop54
  1
strokes_ogs.tif
102
RTVSPost2010PropOp54
 70
     1
102
RTVSPost2010Prop55
280
     0
102
RTVSPost2010PropOp55
 70
     1
102
RTVSPost2010Prop56
140
1.0
102
RTVSPost2010PropOp56
 70
     1
102
RTVSPost2010Prop57
140
1.0
102
RTVSPost2010PropOp57
 70
     1
  0
XRECORD
  5
6C6
102
{ACAD_REACTORS
330
6C5
102
}
330
6C5
100
AcDbXrecord
280
     1
102
RTVSPropertyOp0
 70
     1
102
RTVSPropertyOp1
 70
     1
102
RTVSPropertyOp2
 70
     1
102
RTVSPropertyOp3
 70
     1
102
RTVSPropertyOp4
 70
     1
102
RTVSPropertyOp5
 70
     1
102
RTVSPropertyOp6
 70
     1
102
RTVSPropertyOp7
 70
     1
102
RTVSPropertyOp8
 70
     1
102
RTVSPropertyOp9
 70
     1
102
RTVSPropertyOp10
 70
     1
102
RTVSPropertyOp11
 70
     1
102
RTVSPropertyOp12
 70
     1
102
RTVSPropertyOp13
 70
     1
102
RTVSPropertyOp14
 70
     1
102
RTVSPropertyOp15
 70
     1
102
RTVSPropertyOp16
 70
     1
102
RTVSPropertyOp17
 70
     1
102
RTVSPropertyOp18
 70
     1
102
RTVSPropertyOp19
 70
     1
102
RTVSPropertyOp20
 70
     1
102
RTVSPropertyOp21
 70
     1
102
RTVSPropertyOp22
 70
     1
102
RTVSPropertyOp23
 70
     1
102
RTVSPropertyOp24
 70
     1
102
RTVSPropertyOp25
 70
     1
102
RTVSPropertyOp26
 70
     1
102
RTVSPropertyOp27
 70
     1
102
RTVSPropertyOp28
 70
     1
102
RTVSPropertyOp29
 70
     1
102
RTVSPropertyOp30
 70
     1
102
RTVSPropertyOp31
 70
     1
102
RTVSPropertyOp32
 70
     1
102
RTVSPropertyOp33
 70
     1
102
RTVSPropertyOp34
 70
     1
102
RTVSPropertyOp35
 70
     1
102
RTVSPropertyOp36
 70
     1
102
RTVSPropertyOp37
 70
     1
102
RTVSPropertyOp38
 70
     1
102
RTVSPropertyOp39
 70
     1
102
RTVSPropertyOp40
 70
     1
102
RTVSPropertyOp41
 70
     1
102
RTVSPropertyOp42
 70
     1
102
RTVSPropertyOp43
 70
     1
102
RTVSPropertyOp44
 70
     1
102
RTVSPropertyOp45
 70
     1
102
RTVSPropertyOp46
 70
     1
102
RTVSPropertyOp47
 70
     1
102
RTVSPropertyOp48
 70
     1
102
RTVSPropertyOp49
 70
     1
102
RTVSPropertyOp50
 70
     1
102
RTVSPropertyOp51
 70
     0
102
RTVSPropertyOp52
 70
     0
102
RTVSPropertyOp53
 70
     1
102
RTVSPropertyOp54
 70
     1
102
RTVSPropertyOp55
 70
     1
102
RTVSPropertyOp56
 70
     1
102
RTVSPropertyOp57
 70
     1
102
RTVSPost2010Prop28
280
     0
102
RTVSPost2010PropOp28
 70
     1
102
RTVSPost2010Prop29
280
     1
102
RTVSPost2010PropOp29
 70
     1
102
RTVSPost2010Prop30
280
     1
102
RTVSPost2010PropOp30
 70
     1
102
RTVSPost2010Prop31
280
     0
102
RTVSPost2010PropOp31
 70
     1
102
RTVSPost2010Prop32
280
     0
102
RTVSPost2010PropOp32
 70
     1
102
RTVSPost2010Prop33
280
     0
102
RTVSPost2010PropOp33
 70
     1
102
RTVSPost2010Prop34
280
     0
102
RTVSPost2010PropOp34
 70
     1
102
RTVSPost2010Prop35
280
     0
102
RTVSPost2010PropOp35
 70
     1
102
RTVSPost2010Prop36
280
     0
102
RTVSPost2010PropOp36
 70
     1
102
RTVSPost2010Prop37
 90
       50
102
RTVSPost2010PropOp37
 70
     1
102
RTVSPost2010Prop38
140
0.0
102
RTVSPost2010PropOp38
 70
     1
102
RTVSPost2010Prop39
140
1.0
102
RTVSPost2010PropOp39
 70
     1
102
RTVSPost2010Prop40
 90
        0
102
RTVSPost2010PropOp40
 70
     1
102
RTVSPost2010Prop41ColorIndex
 90
       18
102
RTVSPost2010Prop41ColorRGB
 90
        0
102
RTVSPost2010PropOp41
 70
     1
102
RTVSPost2010Prop42
 90
       50
102
RTVSPost2010PropOp42
 70
     1
102
RTVSPost2010Prop43
 90
        3
102
RTVSPost2010PropOp43
 70
     1
102
RTVSPost2010Prop44ColorIndex
 90
        5
102
RTVSPost2010Prop44ColorRGB
 90
      255
102
RTVSPost2010PropOp44
 70
     1
102
RTVSPost2010Prop45
280
     0
102
RTVSPost2010PropOp45
 70
     1
102
RTVSPost2010Prop46
 90
       50
102
RTVSPost2010PropOp46
 70
     1
102
RTVSPost2010Prop47
 90
       50
102
RTVSPost2010PropOp47
 70
     1
102
RTVSPost2010Prop48
 90
       50
102
RTVSPost2010PropOp48
 70
     1
102
RTVSPost2010Prop49
280
     0
102
RTVSPost2010PropOp49
 70
     1
102
RTVSPost2010Prop50
 90
       50
102
RTVSPost2010PropOp50
 70
     1
102
RTVSPost2010Prop51ColorIndex
 90
      256
102
RTVSPost2010Prop51ColorRGB
 90
-16777216
102
RTVSPost2010PropOp51
 70
     0
102
RTVSPost2010Prop52
140
1.0
102
RTVSPost2010PropOp52
 70
     0
102
RTVSPost2010Prop53
 90
        2
102
RTVSPost2010PropOp53
 70
     1
102
RTVSPost2010Prop54
  1
strokes_ogs.tif
102
RTVSPost2010PropOp54
 70
     1
102
RTVSPost2010Prop55
280
     0
102
RTVSPost2010PropOp55
 70
     1
102
RTVSPost2010Prop56
140
1.0
102
RTVSPost2010PropOp56
 70
     1
102
RTVSPost2010Prop57
140
1.0
102
RTVSPost2010PropOp57
 70
     1
  0
XRECORD
  5
6B0
102
{ACAD_REACTORS
330
6AF
102
}
330
6AF
100
AcDbXrecord
280
     1
102
RTVSPropertyOp0
 70
     1
102
RTVSPropertyOp1
 70
     1
102
RTVSPropertyOp2
 70
     1
102
RTVSPropertyOp3
 70
     1
102
RTVSPropertyOp4
 70
     1
102
RTVSPropertyOp5
 70
     1
102
RTVSPropertyOp6
 70
     1
102
RTVSPropertyOp7
 70
     1
102
RTVSPropertyOp8
 70
     1
102
RTVSPropertyOp9
 70
     1
102
RTVSPropertyOp10
 70
     1
102
RTVSPropertyOp11
 70
     1
102
RTVSPropertyOp12
 70
     1
102
RTVSPropertyOp13
 70
     1
102
RTVSPropertyOp14
 70
     1
102
RTVSPropertyOp15
 70
     1
102
RTVSPropertyOp16
 70
     1
102
RTVSPropertyOp17
 70
     1
102
RTVSPropertyOp18
 70
     1
102
RTVSPropertyOp19
 70
     1
102
RTVSPropertyOp20
 70
     1
102
RTVSPropertyOp21
 70
     1
102
RTVSPropertyOp22
 70
     1
102
RTVSPropertyOp23
 70
     1
102
RTVSPropertyOp24
 70
     1
102
RTVSPropertyOp25
 70
     1
102
RTVSPropertyOp26
 70
     1
102
RTVSPropertyOp27
 70
     1
102
RTVSPropertyOp28
 70
     1
102
RTVSPropertyOp29
 70
     1
102
RTVSPropertyOp30
 70
     1
102
RTVSPropertyOp31
 70
     1
102
RTVSPropertyOp32
 70
     1
102
RTVSPropertyOp33
 70
     1
102
RTVSPropertyOp34
 70
     1
102
RTVSPropertyOp35
 70
     1
102
RTVSPropertyOp36
 70
     1
102
RTVSPropertyOp37
 70
     1
102
RTVSPropertyOp38
 70
     1
102
RTVSPropertyOp39
 70
     1
102
RTVSPropertyOp40
 70
     1
102
RTVSPropertyOp41
 70
     1
102
RTVSPropertyOp42
 70
     1
102
RTVSPropertyOp43
 70
     1
102
RTVSPropertyOp44
 70
     1
102
RTVSPropertyOp45
 70
     1
102
RTVSPropertyOp46
 70
     1
102
RTVSPropertyOp47
 70
     1
102
RTVSPropertyOp48
 70
     1
102
RTVSPropertyOp49
 70
     1
102
RTVSPropertyOp50
 70
     1
102
RTVSPropertyOp51
 70
     0
102
RTVSPropertyOp52
 70
     0
102
RTVSPropertyOp53
 70
     1
102
RTVSPropertyOp54
 70
     1
102
RTVSPropertyOp55
 70
     1
102
RTVSPropertyOp56
 70
     1
102
RTVSPropertyOp57
 70
     1
102
RTVSPost2010Prop28
280
     0
102
RTVSPost2010PropOp28
 70
     1
102
RTVSPost2010Prop29
280
     1
102
RTVSPost2010PropOp29
 70
     1
102
RTVSPost2010Prop30
280
     1
102
RTVSPost2010PropOp30
 70
     1
102
RTVSPost2010Prop31
280
     0
102
RTVSPost2010PropOp31
 70
     1
102
RTVSPost2010Prop32
280
     0
102
RTVSPost2010PropOp32
 70
     1
102
RTVSPost2010Prop33
280
     0
102
RTVSPost2010PropOp33
 70
     1
102
RTVSPost2010Prop34
280
     0
102
RTVSPost2010PropOp34
 70
     1
102
RTVSPost2010Prop35
280
     0
102
RTVSPost2010PropOp35
 70
     1
102
RTVSPost2010Prop36
280
     0
102
RTVSPost2010PropOp36
 70
     1
102
RTVSPost2010Prop37
 90
       50
102
RTVSPost2010PropOp37
 70
     1
102
RTVSPost2010Prop38
140
0.0
102
RTVSPost2010PropOp38
 70
     1
102
RTVSPost2010Prop39
140
1.0
102
RTVSPost2010PropOp39
 70
     1
102
RTVSPost2010Prop40
 90
        0
102
RTVSPost2010PropOp40
 70
     1
102
RTVSPost2010Prop41ColorIndex
 90
       18
102
RTVSPost2010Prop41ColorRGB
 90
        0
102
RTVSPost2010PropOp41
 70
     1
102
RTVSPost2010Prop42
 90
       50
102
RTVSPost2010PropOp42
 70
     1
102
RTVSPost2010Prop43
 90
        3
102
RTVSPost2010PropOp43
 70
     1
102
RTVSPost2010Prop44ColorIndex
 90
        5
102
RTVSPost2010Prop44ColorRGB
 90
      255
102
RTVSPost2010PropOp44
 70
     1
102
RTVSPost2010Prop45
280
     0
102
RTVSPost2010PropOp45
 70
     1
102
RTVSPost2010Prop46
 90
       50
102
RTVSPost2010PropOp46
 70
     1
102
RTVSPost2010Prop47
 90
       50
102
RTVSPost2010PropOp47
 70
     1
102
RTVSPost2010Prop48
 90
       50
102
RTVSPost2010PropOp48
 70
     1
102
RTVSPost2010Prop49
280
     0
102
RTVSPost2010PropOp49
 70
     1
102
RTVSPost2010Prop50
 90
       50
102
RTVSPost2010PropOp50
 70
     1
102
RTVSPost2010Prop51ColorIndex
 90
      256
102
RTVSPost2010Prop51ColorRGB
 90
-16777216
102
RTVSPost2010PropOp51
 70
     0
102
RTVSPost2010Prop52
140
1.0
102
RTVSPost2010PropOp52
 70
     0
102
RTVSPost2010Prop53
 90
        2
102
RTVSPost2010PropOp53
 70
     1
102
RTVSPost2010Prop54
  1
strokes_ogs.tif
102
RTVSPost2010PropOp54
 70
     1
102
RTVSPost2010Prop55
280
     0
102
RTVSPost2010PropOp55
 70
     1
102
RTVSPost2010Prop56
140
1.0
102
RTVSPost2010PropOp56
 70
     1
102
RTVSPost2010Prop57
140
1.0
102
RTVSPost2010PropOp57
 70
     1
  0
XRECORD
  5
6D8
102
{ACAD_REACTORS
330
6D7
102
}
330
6D7
100
AcDbXrecord
280
     1
102
RTVSPropertyOp0
 70
     1
102
RTVSPropertyOp1
 70
     1
102
RTVSPropertyOp2
 70
     1
102
RTVSPropertyOp3
 70
     1
102
RTVSPropertyOp4
 70
     1
102
RTVSPropertyOp5
 70
     1
102
RTVSPropertyOp6
 70
     1
102
RTVSPropertyOp7
 70
     1
102
RTVSPropertyOp8
 70
     1
102
RTVSPropertyOp9
 70
     1
102
RTVSPropertyOp10
 70
     1
102
RTVSPropertyOp11
 70
     1
102
RTVSPropertyOp12
 70
     1
102
RTVSPropertyOp13
 70
     1
102
RTVSPropertyOp14
 70
     1
102
RTVSPropertyOp15
 70
     1
102
RTVSPropertyOp16
 70
     1
102
RTVSPropertyOp17
 70
     1
102
RTVSPropertyOp18
 70
     1
102
RTVSPropertyOp19
 70
     1
102
RTVSPropertyOp20
 70
     1
102
RTVSPropertyOp21
 70
     1
102
RTVSPropertyOp22
 70
     1
102
RTVSPropertyOp23
 70
     1
102
RTVSPropertyOp24
 70
     1
102
RTVSPropertyOp25
 70
     1
102
RTVSPropertyOp26
 70
     1
102
RTVSPropertyOp27
 70
     1
102
RTVSPropertyOp28
 70
     1
102
RTVSPropertyOp29
 70
     1
102
RTVSPropertyOp30
 70
     1
102
RTVSPropertyOp31
 70
     1
102
RTVSPropertyOp32
 70
     1
102
RTVSPropertyOp33
 70
     1
102
RTVSPropertyOp34
 70
     1
102
RTVSPropertyOp35
 70
     1
102
RTVSPropertyOp36
 70
     1
102
RTVSPropertyOp37
 70
     1
102
RTVSPropertyOp38
 70
     1
102
RTVSPropertyOp39
 70
     1
102
RTVSPropertyOp40
 70
     1
102
RTVSPropertyOp41
 70
     1
102
RTVSPropertyOp42
 70
     1
102
RTVSPropertyOp43
 70
     1
102
RTVSPropertyOp44
 70
     1
102
RTVSPropertyOp45
 70
     1
102
RTVSPropertyOp46
 70
     1
102
RTVSPropertyOp47
 70
     1
102
RTVSPropertyOp48
 70
     1
102
RTVSPropertyOp49
 70
     1
102
RTVSPropertyOp50
 70
     1
102
RTVSPropertyOp51
 70
     0
102
RTVSPropertyOp52
 70
     0
102
RTVSPropertyOp53
 70
     1
102
RTVSPropertyOp54
 70
     1
102
RTVSPropertyOp55
 70
     1
102
RTVSPropertyOp56
 70
     1
102
RTVSPropertyOp57
 70
     1
102
RTVSPost2010Prop28
280
     0
102
RTVSPost2010PropOp28
 70
     1
102
RTVSPost2010Prop29
280
     1
102
RTVSPost2010PropOp29
 70
     1
102
RTVSPost2010Prop30
280
     1
102
RTVSPost2010PropOp30
 70
     1
102
RTVSPost2010Prop31
280
     0
102
RTVSPost2010PropOp31
 70
     1
102
RTVSPost2010Prop32
280
     0
102
RTVSPost2010PropOp32
 70
     1
102
RTVSPost2010Prop33
280
     0
102
RTVSPost2010PropOp33
 70
     1
102
RTVSPost2010Prop34
280
     0
102
RTVSPost2010PropOp34
 70
     1
102
RTVSPost2010Prop35
280
     0
102
RTVSPost2010PropOp35
 70
     1
102
RTVSPost2010Prop36
280
     0
102
RTVSPost2010PropOp36
 70
     1
102
RTVSPost2010Prop37
 90
       50
102
RTVSPost2010PropOp37
 70
     1
102
RTVSPost2010Prop38
140
0.0
102
RTVSPost2010PropOp38
 70
     1
102
RTVSPost2010Prop39
140
1.0
102
RTVSPost2010PropOp39
 70
     1
102
RTVSPost2010Prop40
 90
        0
102
RTVSPost2010PropOp40
 70
     1
102
RTVSPost2010Prop41ColorIndex
 90
       18
102
RTVSPost2010Prop41ColorRGB
 90
        0
102
RTVSPost2010PropOp41
 70
     1
102
RTVSPost2010Prop42
 90
       50
102
RTVSPost2010PropOp42
 70
     1
102
RTVSPost2010Prop43
 90
        3
102
RTVSPost2010PropOp43
 70
     1
102
RTVSPost2010Prop44ColorIndex
 90
        5
102
RTVSPost2010Prop44ColorRGB
 90
      255
102
RTVSPost2010PropOp44
 70
     1
102
RTVSPost2010Prop45
280
     0
102
RTVSPost2010PropOp45
 70
     1
102
RTVSPost2010Prop46
 90
       50
102
RTVSPost2010PropOp46
 70
     1
102
RTVSPost2010Prop47
 90
       50
102
RTVSPost2010PropOp47
 70
     1
102
RTVSPost2010Prop48
 90
       50
102
RTVSPost2010PropOp48
 70
     1
102
RTVSPost2010Prop49
280
     0
102
RTVSPost2010PropOp49
 70
     1
102
RTVSPost2010Prop50
 90
       50
102
RTVSPost2010PropOp50
 70
     1
102
RTVSPost2010Prop51ColorIndex
 90
      256
102
RTVSPost2010Prop51ColorRGB
 90
-16777216
102
RTVSPost2010PropOp51
 70
     0
102
RTVSPost2010Prop52
140
1.0
102
RTVSPost2010PropOp52
 70
     0
102
RTVSPost2010Prop53
 90
        2
102
RTVSPost2010PropOp53
 70
     1
102
RTVSPost2010Prop54
  1
strokes_ogs.tif
102
RTVSPost2010PropOp54
 70
     1
102
RTVSPost2010Prop55
280
     0
102
RTVSPost2010PropOp55
 70
     1
102
RTVSPost2010Prop56
140
1.0
102
RTVSPost2010PropOp56
 70
     1
102
RTVSPost2010Prop57
140
1.0
102
RTVSPost2010PropOp57
 70
     1
  0
ENDSEC
  0
EOF
