  0
SECTION
  2
HEADER
  9
$ACADVER
  1
AC1015
  9
$ACADMAINTVER
 70
     6
  9
$DWGCODEPAGE
  3
ANSI_932
  9
$INSBASE
 10
2327.308868348478
 20
683.589813689543
 30
0.0
  9
$EXTMIN
 10
308.9476694842435
 20
28.20423762040332
 30
0.0
  9
$EXTMAX
 10
1782.156245859428
 20
1400.265966421126
 30
0.0
  9
$LIMMIN
 10
0.0
 20
0.0
  9
$LIMMAX
 10
816.5000000000001
 20
565.0
  9
$ORTHOMODE
 70
     1
  9
$REGENMODE
 70
     1
  9
$FILLMODE
 70
     1
  9
$QTEXTMODE
 70
     0
  9
$MIRRTEXT
 70
     1
  9
$LTSCALE
 40
20.0
  9
$ATTMODE
 70
     1
  9
$TEXTSIZE
 40
15.0
  9
$TRACEWID
 40
0.05
  9
$TEXTSTYLE
  7
KANJI
  9
$CLAYER
  8
2
  9
$CELTYPE
  6
BYLAYER
  9
$CECOLOR
 62
   256
  9
$CELTSCALE
 40
1.0
  9
$DISPSILH
 70
     0
  9
$DIMSCALE
 40
5.0
  9
$DIMASZ
 40
2.0
  9
$DIMEXO
 40
0.5
  9
$DIMDLI
 40
0.0
  9
$DIMRND
 40
0.0
  9
$DIMDLE
 40
0.0
  9
$DIMEXE
 40
1.0
  9
$DIMTP
 40
0.0
  9
$DIMTM
 40
0.0
  9
$DIMTXT
 40
3.0
  9
$DIMCEN
 40
0.09
  9
$DIMTSZ
 40
0.0
  9
$DIMTOL
 70
     0
  9
$DIMLIM
 70
     0
  9
$DIMTIH
 70
     0
  9
$DIMTOH
 70
     0
  9
$DIMSE1
 70
     0
  9
$DIMSE2
 70
     0
  9
$DIMTAD
 70
     0
  9
$DIMZIN
 70
     8
  9
$DIMBLK
  1

  9
$DIMASO
 70
     0
  9
$DIMSHO
 70
     0
  9
$DIMPOST
  1

  9
$DIMAPOST
  1

  9
$DIMALT
 70
     0
  9
$DIMALTD
 70
     2
  9
$DIMALTF
 40
25.4
  9
$DIMLFAC
 40
1.0
  9
$DIMTOFL
 70
     1
  9
$DIMTVP
 40
1.0
  9
$DIMTIX
 70
     1
  9
$DIMSOXD
 70
     1
  9
$DIMSAH
 70
     0
  9
$DIMBLK1
  1

  9
$DIMBLK2
  1

  9
$DIMSTYLE
  2
STANDARD
  9
$DIMCLRD
 70
   256
  9
$DIMCLRE
 70
   256
  9
$DIMCLRT
 70
   256
  9
$DIMTFAC
 40
1.0
  9
$DIMGAP
 40
0.09
  9
$DIMJUST
 70
     0
  9
$DIMSD1
 70
     0
  9
$DIMSD2
 70
     0
  9
$DIMTOLJ
 70
     1
  9
$DIMTZIN
 70
     0
  9
$DIMALTZ
 70
     0
  9
$DIMALTTZ
 70
     0
  9
$DIMUPT
 70
     0
  9
$DIMDEC
 70
     1
  9
$DIMTDEC
 70
     4
  9
$DIMALTU
 70
     2
  9
$DIMALTTD
 70
     2
  9
$DIMTXSTY
  7
STANDARD
  9
$DIMAUNIT
 70
     0
  9
$DIMADEC
 70
     0
  9
$DIMALTRND
 40
0.0
  9
$DIMAZIN
 70
     0
  9
$DIMDSEP
 70
    46
  9
$DIMATFIT
 70
     3
  9
$DIMFRAC
 70
     0
  9
$DIMLDRBLK
  1

  9
$DIMLUNIT
 70
     2
  9
$DIMLWD
 70
    -2
  9
$DIMLWE
 70
    -2
  9
$DIMTMOVE
 70
     0
  9
$LUNITS
 70
     2
  9
$LUPREC
 70
     3
  9
$SKETCHINC
 40
0.1
  9
$FILLETRAD
 40
2.0
  9
$AUNITS
 70
     0
  9
$AUPREC
 70
     3
  9
$MENU
  1
C:\R13\WIN\SUPPORT\ACADFULL
  9
$ELEVATION
 40
0.0
  9
$PELEVATION
 40
0.0
  9
$THICKNESS
 40
0.0
  9
$LIMCHECK
 70
     0
  9
$CHAMFERA
 40
0.0
  9
$CHAMFERB
 40
0.0
  9
$CHAMFERC
 40
0.0
  9
$CHAMFERD
 40
0.0
  9
$SKPOLY
 70
     0
  9
$TDCREATE
 40
2457539.744020845
  9
$TDUCREATE
 40
2457539.369020845
  9
$TDUPDATE
 40
2457870.606515093
  9
$TDUUPDATE
 40
2457870.231515093
  9
$TDINDWG
 40
0.0486929282
  9
$TDUSRTIMER
 40
0.0486924306
  9
$USRTIMER
 70
     1
  9
$ANGBASE
 50
0.0
  9
$ANGDIR
 70
     0
  9
$PDMODE
 70
     0
  9
$PDSIZE
 40
0.0
  9
$PLINEWID
 40
0.0
  9
$SPLFRAME
 70
     0
  9
$SPLINETYPE
 70
     6
  9
$SPLINESEGS
 70
     8
  9
$HANDSEED
  5
678
  9
$SURFTAB1
 70
     6
  9
$SURFTAB2
 70
     6
  9
$SURFTYPE
 70
     6
  9
$SURFU
 70
     6
  9
$SURFV
 70
     6
  9
$UCSBASE
  2

  9
$UCSNAME
  2

  9
$UCSORG
 10
0.0
 20
0.0
 30
0.0
  9
$UCSXDIR
 10
1.0
 20
0.0
 30
0.0
  9
$UCSYDIR
 10
0.0
 20
1.0
 30
0.0
  9
$UCSORTHOREF
  2

  9
$UCSORTHOVIEW
 70
     0
  9
$UCSORGTOP
 10
0.0
 20
0.0
 30
0.0
  9
$UCSORGBOTTOM
 10
0.0
 20
0.0
 30
0.0
  9
$UCSORGLEFT
 10
0.0
 20
0.0
 30
0.0
  9
$UCSORGRIGHT
 10
0.0
 20
0.0
 30
0.0
  9
$UCSORGFRONT
 10
0.0
 20
0.0
 30
0.0
  9
$UCSORGBACK
 10
0.0
 20
0.0
 30
0.0
  9
$PUCSBASE
  2

  9
$PUCSNAME
  2

  9
$PUCSORG
 10
0.0
 20
0.0
 30
0.0
  9
$PUCSXDIR
 10
1.0
 20
0.0
 30
0.0
  9
$PUCSYDIR
 10
0.0
 20
1.0
 30
0.0
  9
$PUCSORTHOREF
  2

  9
$PUCSORTHOVIEW
 70
     0
  9
$PUCSORGTOP
 10
0.0
 20
0.0
 30
0.0
  9
$PUCSORGBOTTOM
 10
0.0
 20
0.0
 30
0.0
  9
$PUCSORGLEFT
 10
0.0
 20
0.0
 30
0.0
  9
$PUCSORGRIGHT
 10
0.0
 20
0.0
 30
0.0
  9
$PUCSORGFRONT
 10
0.0
 20
0.0
 30
0.0
  9
$PUCSORGBACK
 10
0.0
 20
0.0
 30
0.0
  9
$USERI1
 70
     0
  9
$USERI2
 70
     0
  9
$USERI3
 70
     0
  9
$USERI4
 70
     0
  9
$USERI5
 70
     0
  9
$USERR1
 40
0.0
  9
$USERR2
 40
0.0
  9
$USERR3
 40
0.0
  9
$USERR4
 40
2448925.372986111
  9
$USERR5
 40
0.04166667
  9
$WORLDVIEW
 70
     1
  9
$SHADEDGE
 70
     3
  9
$SHADEDIF
 70
    70
  9
$TILEMODE
 70
     1
  9
$MAXACTVP
 70
    16
  9
$PINSBASE
 10
0.0
 20
0.0
 30
0.0
  9
$PLIMCHECK
 70
     0
  9
$PEXTMIN
 10
1.000000000000000E+20
 20
1.000000000000000E+20
 30
1.000000000000000E+20
  9
$PEXTMAX
 10
-1.000000000000000E+20
 20
-1.000000000000000E+20
 30
-1.000000000000000E+20
  9
$PLIMMIN
 10
0.0
 20
0.0
  9
$PLIMMAX
 10
12.0
 20
9.0
  9
$UNITMODE
 70
     0
  9
$VISRETAIN
 70
     0
  9
$PLINEGEN
 70
     0
  9
$PSLTSCALE
 70
     0
  9
$TREEDEPTH
 70
  3020
  9
$CMLSTYLE
  2
STANDARD
  9
$CMLJUST
 70
     0
  9
$CMLSCALE
 40
1.0
  9
$PROXYGRAPHICS
 70
     1
  9
$MEASUREMENT
 70
     0
  9
$CELWEIGHT
370
    -1
  9
$ENDCAPS
280
     0
  9
$JOINSTYLE
280
     0
  9
$LWDISPLAY
290
     0
  9
$INSUNITS
 70
     0
  9
$HYPERLINKBASE
  1

  9
$STYLESHEET
  1

  9
$XEDIT
290
     1
  9
$CEPSNTYPE
380
     0
  9
$PSTYLEMODE
290
     1
  9
$FINGERPRINTGUID
  2
{5E61AFAB-EE95-44EA-A1E6-B17F772D6316}
  9
$VERSIONGUID
  2
{8A822FD0-F6D6-4A0D-BB4E-0C9A4B32D6D8}
  9
$EXTNAMES
290
     1
  9
$PSVPSCALE
 40
0.0
  9
$OLESTARTUP
290
     0
  0
ENDSEC
  0
SECTION
  2
CLASSES
  0
CLASS
  1
ACDBDICTIONARYWDFLT
  2
AcDbDictionaryWithDefault
  3
ObjectDBX Classes
 90
        0
280
     0
281
     0
  0
CLASS
  1
MATERIAL
  2
AcDbMaterial
  3
ObjectDBX Classes
 90
     1153
280
     0
281
     0
  0
CLASS
  1
SORTENTSTABLE
  2
AcDbSortentsTable
  3
ObjectDBX Classes
 90
        0
280
     0
281
     0
  0
CLASS
  1
SCALE
  2
AcDbScale
  3
ObjectDBX Classes
 90
     1153
280
     0
281
     0
  0
CLASS
  1
DICTIONARYVAR
  2
AcDbDictionaryVar
  3
ObjectDBX Classes
 90
        0
280
     0
281
     0
  0
CLASS
  1
VISUALSTYLE
  2
AcDbVisualStyle
  3
ObjectDBX Classes
 90
     4095
280
     0
281
     0
  0
CLASS
  1
MLEADERSTYLE
  2
AcDbMLeaderStyle
  3
ACDB_MLEADERSTYLE_CLASS
 90
     4095
280
     0
281
     0
  0
CLASS
  1
TABLESTYLE
  2
AcDbTableStyle
  3
ObjectDBX Classes
 90
     4095
280
     0
281
     0
  0
CLASS
  1
ACDBPLACEHOLDER
  2
AcDbPlaceHolder
  3
ObjectDBX Classes
 90
        0
280
     0
281
     0
  0
CLASS
  1
LAYOUT
  2
AcDbLayout
  3
ObjectDBX Classes
 90
        0
280
     0
281
     0
  0
ENDSEC
  0
SECTION
  2
TABLES
  0
TABLE
  2
VPORT
  5
26
102
{ACAD_XDICTIONARY
360
63D
102
}
330
0
100
AcDbSymbolTable
 70
     1
  0
VPORT
  5
2B
330
26
100
AcDbSymbolTableRecord
100
AcDbViewportTableRecord
  2
*Active
 70
     0
 10
0.0
 20
0.0
 11
1.0
 21
1.0
 12
1973.999551817392
 22
624.9894693134928
 13
0.0
 23
0.0
 14
1.0
 24
1.0
 15
50.0
 25
50.0
 16
0.0
 26
0.0
 36
1.0
 17
0.0
 27
0.0
 37
0.0
 40
2134.613297628543
 41
2.174107142857143
 42
50.0
 43
0.0
 44
0.0
 50
0.0
 51
0.0
 71
     0
 72
  5000
 73
     1
 74
     0
 75
     0
 76
     0
 77
     0
 78
     1
281
     0
 65
     1
110
0.0
120
0.0
130
0.0
111
1.0
121
0.0
131
0.0
112
0.0
122
1.0
132
0.0
 79
     0
146
0.0
  0
ENDTAB
  0
TABLE
  2
LTYPE
  5
B
330
0
100
AcDbSymbolTable
 70
     2
  0
LTYPE
  5
C
330
B
100
AcDbSymbolTableRecord
100
AcDbLinetypeTableRecord
  2
BYBLOCK
 70
     0
  3

 72
    65
 73
     0
 40
0.0
  0
LTYPE
  5
D
330
B
100
AcDbSymbolTableRecord
100
AcDbLinetypeTableRecord
  2
BYLAYER
 70
     0
  3

 72
    65
 73
     0
 40
0.0
  0
LTYPE
  5
A
330
B
100
AcDbSymbolTableRecord
100
AcDbLinetypeTableRecord
  2
CONTINUOUS
 70
     0
  3
Solid line
 72
    65
 73
     0
 40
0.0
  0
LTYPE
  5
73
330
B
100
AcDbSymbolTableRecord
100
AcDbLinetypeTableRecord
  2
CENTER
 70
     0
  3
Center ____ _ ____ _ ____ _ ____ _ ____ _ ____
 72
    65
 73
     4
 40
2.0
 49
1.25
 74
     0
 49
-0.25
 74
     0
 49
0.25
 74
     0
 49
-0.25
 74
     0
  0
ENDTAB
  0
TABLE
  2
LAYER
  5
2
330
0
100
AcDbSymbolTable
 70
     8
  0
LAYER
  5
1B
330
2
100
AcDbSymbolTableRecord
100
AcDbLayerTableRecord
  2
0
 70
     0
 62
     7
  6
CONTINUOUS
370
    -3
390
3
  0
LAYER
  5
E5
330
2
100
AcDbSymbolTableRecord
100
AcDbLayerTableRecord
  2
1
 70
     0
 62
     9
  6
CONTINUOUS
370
    -3
390
3
  0
LAYER
  5
1
330
2
100
AcDbSymbolTableRecord
100
AcDbLayerTableRecord
  2
2
 70
     0
 62
     4
  6
CONTINUOUS
370
    -3
390
3
  0
LAYER
  5
E2
330
2
100
AcDbSymbolTableRecord
100
AcDbLayerTableRecord
  2
4
 70
     0
 62
     3
  6
CONTINUOUS
370
    -3
390
3
  0
LAYER
  5
72
330
2
100
AcDbSymbolTableRecord
100
AcDbLayerTableRecord
  2
L-CENTER
 70
     0
 62
     1
  6
CENTER
370
    -3
390
3
  0
LAYER
  5
78
330
2
100
AcDbSymbolTableRecord
100
AcDbLayerTableRecord
  2
3
 70
     0
 62
     2
  6
CONTINUOUS
370
    -3
390
3
  0
LAYER
  5
DD
330
2
100
AcDbSymbolTableRecord
100
AcDbLayerTableRecord
  2
5
 70
     0
 62
     6
  6
CONTINUOUS
370
    -3
390
3
  0
LAYER
  5
5C9
330
2
100
AcDbSymbolTableRecord
100
AcDbLayerTableRecord
  2
Defpoints
 70
     0
 62
     7
  6
CONTINUOUS
290
     0
370
    -3
390
3
  0
ENDTAB
  0
TABLE
  2
STYLE
  5
F
330
0
100
AcDbSymbolTable
 70
     2
  0
STYLE
  5
13
330
F
100
AcDbSymbolTableRecord
100
AcDbTextStyleTableRecord
  2
STANDARD
 70
     0
 40
0.0
 41
1.0
 50
0.0
 71
     0
 42
9.0
  3
TXT
  4

  0
STYLE
  5
E
330
F
100
AcDbSymbolTableRecord
100
AcDbTextStyleTableRecord
  2
KANJI
 70
     0
 40
0.0
 41
1.0
 50
0.0
 71
     0
 42
15.0
  3
TXT
  4
BIGFONT
  0
ENDTAB
  0
TABLE
  2
VIEW
  5
24
330
0
100
AcDbSymbolTable
 70
     0
  0
ENDTAB
  0
TABLE
  2
UCS
  5
25
330
0
100
AcDbSymbolTable
 70
     0
  0
ENDTAB
  0
TABLE
  2
APPID
  5
9
330
0
100
AcDbSymbolTable
 70
     3
  0
APPID
  5
8
330
9
100
AcDbSymbolTableRecord
100
AcDbRegAppTableRecord
  2
ACAD
 70
     0
  0
APPID
  5
1F
330
9
100
AcDbSymbolTableRecord
100
AcDbRegAppTableRecord
  2
ACAD_PSEXT
 70
     0
  0
APPID
  5
5B6
330
9
100
AcDbSymbolTableRecord
100
AcDbRegAppTableRecord
  2
ACAD_MLEADERVER
 70
     0
  0
ENDTAB
  0
TABLE
  2
DIMSTYLE
  5
12
330
0
100
AcDbSymbolTable
 70
     1
100
AcDbDimStyleTable
  0
DIMSTYLE
105
11
330
12
100
AcDbSymbolTableRecord
100
AcDbDimStyleTableRecord
  2
STANDARD
 70
     0
178
     0
340
13
  0
ENDTAB
  0
TABLE
  2
BLOCK_RECORD
  5
16
330
0
100
AcDbSymbolTable
 70
     0
  0
BLOCK_RECORD
  5
17
102
{ACAD_XDICTIONARY
360
18
102
}
330
16
100
AcDbSymbolTableRecord
100
AcDbBlockTableRecord
  2
*MODEL_SPACE
340
1D
  0
BLOCK_RECORD
  5
20
330
16
100
AcDbSymbolTableRecord
100
AcDbBlockTableRecord
  2
*PAPER_SPACE
340
23
  0
ENDTAB
  0
ENDSEC
  0
SECTION
  2
BLOCKS
  0
BLOCK
  5
1A
330
17
100
AcDbEntity
  8
0
100
AcDbBlockBegin
  2
*MODEL_SPACE
 70
     0
 10
0.0
 20
0.0
 30
0.0
  3
*MODEL_SPACE
  1

  0
ENDBLK
  5
1C
330
17
100
AcDbEntity
  8
0
100
AcDbBlockEnd
  0
BLOCK
  5
21
330
20
100
AcDbEntity
 67
     1
  8
0
100
AcDbBlockBegin
  2
*PAPER_SPACE
 70
     0
 10
0.0
 20
0.0
 30
0.0
  3
*PAPER_SPACE
  1

  0
ENDBLK
  5
22
330
20
100
AcDbEntity
 67
     1
  8
0
100
AcDbBlockEnd
  0
ENDSEC
  0
SECTION
  2
ENTITIES
  0
ARC
  5
1B8
330
17
100
AcDbEntity
  8
4
100
AcDbCircle
 10
1569.502894735743
 20
558.8941816204033
 30
0.0
 40
5.000032
100
AcDbArc
 50
8.796780999999575
 51
82.43289400000018
  0
LINE
  5
1B9
330
17
100
AcDbEntity
  8
4
100
AcDbLine
 10
1546.108850735743
 20
537.0094136204032
 30
0.0
 11
1553.049038735743
 21
543.9498456204033
 31
0.0
  0
LINE
  5
1BA
330
17
100
AcDbEntity
  8
4
100
AcDbLine
 10
1553.049038735743
 20
543.9498456204033
 30
0.0
 11
1562.529506735743
 21
541.4095616204033
 31
0.0
  0
LINE
  5
1BB
330
17
100
AcDbEntity
  8
4
100
AcDbLine
 10
1562.529506735743
 20
541.4095616204033
 30
0.0
 11
1565.069790735743
 21
531.9290936204034
 31
0.0
  0
ARC
  5
1BC
330
17
100
AcDbEntity
  8
4
100
AcDbCircle
 10
1504.323938735743
 20
624.9542376204033
 30
0.0
 40
6.25
100
AcDbArc
 50
0.0
 51
180.0
  0
LINE
  5
1BD
330
17
100
AcDbEntity
  8
4
100
AcDbLine
 10
1524.242394735743
 20
577.2042376204033
 30
0.0
 11
1524.242394735743
 21
582.2042376204033
 31
0.0
  0
LINE
  5
1BE
330
17
100
AcDbEntity
  8
4
100
AcDbLine
 10
1526.323938735743
 20
573.2042376204033
 30
0.0
 11
1526.323938735743
 21
571.2042376204033
 31
0.0
  0
LINE
  5
1BF
330
17
100
AcDbEntity
  8
4
100
AcDbLine
 10
1527.323938735743
 20
573.2042376204033
 30
0.0
 11
1527.323938735743
 21
577.2042376204033
 31
0.0
  0
LINE
  5
1C0
330
17
100
AcDbEntity
  8
4
100
AcDbLine
 10
1517.960414735743
 20
577.2042376204033
 30
0.0
 11
1527.323938735743
 21
577.2042376204033
 31
0.0
  0
LINE
  5
1C1
330
17
100
AcDbEntity
  8
4
100
AcDbLine
 10
1518.869350735743
 20
573.2042376204033
 30
0.0
 11
1527.323938735743
 21
573.2042376204033
 31
0.0
  0
LINE
  5
1C2
330
17
100
AcDbEntity
  8
4
100
AcDbLine
 10
1515.323938735743
 20
589.2042376204033
 30
0.0
 11
1504.323938735743
 21
589.2042376204033
 31
0.0
  0
LINE
  5
1C3
330
17
100
AcDbEntity
  8
4
100
AcDbLine
 10
1504.323938735743
 20
587.2042376204033
 30
0.0
 11
1515.323938735743
 21
587.2042376204033
 31
0.0
  0
LINE
  5
1C4
330
17
100
AcDbEntity
  8
4
100
AcDbLine
 10
1513.323938735743
 20
590.2042376204033
 30
0.0
 11
1495.323938735743
 21
590.2042376204033
 31
0.0
  0
LINE
  5
1C5
330
17
100
AcDbEntity
  8
4
100
AcDbLine
 10
1514.323938735743
 20
577.2042376204033
 30
0.0
 11
1504.323938735743
 21
577.2042376204033
 31
0.0
  0
ARC
  5
1C6
330
17
100
AcDbEntity
  8
4
100
AcDbCircle
 10
1514.323938735743
 20
573.2042376204033
 30
0.0
 40
4.0
100
AcDbArc
 50
90.0
 51
180.0
  0
LINE
  5
1C7
330
17
100
AcDbEntity
  8
4
100
AcDbLine
 10
1509.198938735743
 20
573.2042376204033
 30
0.0
 11
1504.323938735743
 21
573.2042376204033
 31
0.0
  0
LINE
  5
1C8
330
17
100
AcDbEntity
  8
4
100
AcDbLine
 10
1510.323938735743
 20
573.2042376204033
 30
0.0
 11
1510.323938735743
 21
572.9005256204034
 31
0.0
  0
ARC
  5
1C9
330
17
100
AcDbEntity
  8
4
100
AcDbCircle
 10
1509.198938735743
 20
570.9683976204033
 30
0.0
 40
2.235808
100
AcDbArc
 50
43.38061499999717
 51
136.6193850000028
  0
LINE
  5
1CA
330
17
100
AcDbEntity
  8
4
100
AcDbLine
 10
1498.323938735743
 20
573.2042376204033
 30
0.0
 11
1498.323938735743
 21
572.9005256204034
 31
0.0
  0
ARC
  5
1CB
330
17
100
AcDbEntity
  8
4
100
AcDbCircle
 10
1499.448938735743
 20
570.9683976204033
 30
0.0
 40
2.235808
100
AcDbArc
 50
43.38061499999717
 51
136.6193850000028
  0
ARC
  5
1CC
330
17
100
AcDbEntity
  8
4
100
AcDbCircle
 10
1504.323938735743
 20
565.3126376204034
 30
0.0
 40
7.891472
100
AcDbArc
 50
65.67971300000129
 51
114.3202869999987
  0
LINE
  5
1CD
330
17
100
AcDbEntity
  8
4
100
AcDbLine
 10
1499.448938735743
 20
573.2042376204033
 30
0.0
 11
1504.323938735743
 21
573.2042376204033
 31
0.0
  0
LINE
  5
1CE
330
17
100
AcDbEntity
  8
4
100
AcDbLine
 10
1514.323938735743
 20
577.2042376204033
 30
0.0
 11
1514.323938735743
 21
587.2042376204033
 31
0.0
  0
LINE
  5
1CF
330
17
100
AcDbEntity
  8
4
100
AcDbLine
 10
1515.323938735743
 20
589.2042376204033
 30
0.0
 11
1515.323938735743
 21
587.2042376204033
 31
0.0
  0
LINE
  5
1D0
330
17
100
AcDbEntity
  8
4
100
AcDbLine
 10
1513.323938735743
 20
590.2042376204033
 30
0.0
 11
1515.323938735743
 21
589.2042376204033
 31
0.0
  0
ARC
  5
1D1
330
17
100
AcDbEntity
  8
4
100
AcDbCircle
 10
1515.945766735743
 20
581.1041416204032
 30
0.0
 40
1.100112
100
AcDbArc
 50
12.80874900000706
 51
90.0
  0
LINE
  5
1D2
330
17
100
AcDbEntity
  8
4
100
AcDbLine
 10
1514.323938735743
 20
582.2042376204033
 30
0.0
 11
1515.945766735743
 21
582.2042376204033
 31
0.0
  0
LINE
  5
1D3
330
17
100
AcDbEntity
  8
4
100
AcDbLine
 10
1514.323938735743
 20
582.4212776204033
 30
0.0
 11
1516.085658735743
 21
582.1952056204034
 31
0.0
  0
LINE
  5
1D4
330
17
100
AcDbEntity
  8
4
100
AcDbLine
 10
1510.823938735743
 20
571.2042376204033
 30
0.0
 11
1526.323938735743
 21
571.2042376204033
 31
0.0
  0
LINE
  5
1D5
330
17
100
AcDbEntity
  8
4
100
AcDbLine
 10
1510.823938735743
 20
571.2042376204033
 30
0.0
 11
1526.323938735743
 21
571.2042376204033
 31
0.0
  0
LINE
  5
1D6
330
17
100
AcDbEntity
  8
4
100
AcDbLine
 10
1510.823938735743
 20
571.2042376204033
 30
0.0
 11
1519.323938735743
 21
571.2042376204033
 31
0.0
  0
LINE
  5
1D7
330
17
100
AcDbEntity
  8
4
100
AcDbLine
 10
1510.823938735743
 20
571.2042376204033
 30
0.0
 11
1529.323938735743
 21
571.2042376204033
 31
0.0
  0
LINE
  5
1D8
330
17
100
AcDbEntity
  8
4
100
AcDbLine
 10
1517.018518735743
 20
581.3480376204034
 30
0.0
 11
1519.323938735743
 21
571.2042376204033
 31
0.0
  0
LINE
  5
1D9
330
17
100
AcDbEntity
  8
4
100
AcDbLine
 10
1515.945766735743
 20
582.2042376204033
 30
0.0
 11
1524.242394735743
 21
582.2042376204033
 31
0.0
  0
LINE
  5
1DA
330
17
100
AcDbEntity
  8
4
100
AcDbLine
 10
1510.823938735743
 20
568.2042376204033
 30
0.0
 11
1504.323938735743
 21
568.2042376204033
 31
0.0
  0
LINE
  5
1DB
330
17
100
AcDbEntity
  8
4
100
AcDbLine
 10
1497.823938735743
 20
568.2042376204033
 30
0.0
 11
1504.323938735743
 21
568.2042376204033
 31
0.0
  0
LINE
  5
1DC
330
17
100
AcDbEntity
  8
4
100
AcDbLine
 10
1507.573938735743
 20
568.2042376204033
 30
0.0
 11
1507.573938735743
 21
572.5040416204033
 31
0.0
  0
LINE
  5
1DD
330
17
100
AcDbEntity
  8
4
100
AcDbLine
 10
1510.823938735743
 20
568.2042376204033
 30
0.0
 11
1510.823938735743
 21
572.5040416204033
 31
0.0
  0
LINE
  5
1DE
330
17
100
AcDbEntity
  8
4
100
AcDbLine
 10
1501.073938735743
 20
568.2042376204033
 30
0.0
 11
1501.073938735743
 21
572.5040416204033
 31
0.0
  0
LINE
  5
1DF
330
17
100
AcDbEntity
  8
4
100
AcDbLine
 10
1497.823938735743
 20
568.2042376204033
 30
0.0
 11
1497.823938735743
 21
572.5040416204033
 31
0.0
  0
LINE
  5
1E0
330
17
100
AcDbEntity
  8
4
100
AcDbLine
 10
1529.323938735743
 20
571.2042376204033
 30
0.0
 11
1529.323938735743
 21
567.5787496204034
 31
0.0
  0
LINE
  5
1E1
330
17
100
AcDbEntity
  8
4
100
AcDbLine
 10
1524.323938735743
 20
571.2042376204033
 30
0.0
 11
1524.323938735743
 21
567.8040936204034
 31
0.0
  0
LINE
  5
1E2
330
17
100
AcDbEntity
  8
4
100
AcDbLine
 10
1491.629358735743
 20
581.3480376204034
 30
0.0
 11
1489.323938735743
 21
571.2042376204033
 31
0.0
  0
LINE
  5
1E3
330
17
100
AcDbEntity
  8
4
100
AcDbLine
 10
1484.405238735743
 20
577.2042376204033
 30
0.0
 11
1484.405238735743
 21
582.2042376204033
 31
0.0
  0
LINE
  5
1E4
330
17
100
AcDbEntity
  8
4
100
AcDbLine
 10
1494.323938735743
 20
577.2042376204033
 30
0.0
 11
1494.323938735743
 21
587.2042376204033
 31
0.0
  0
LINE
  5
1E5
330
17
100
AcDbEntity
  8
4
100
AcDbLine
 10
1481.323938735743
 20
577.2042376204033
 30
0.0
 11
1490.687466735743
 21
577.2042376204033
 31
0.0
  0
LINE
  5
1E6
330
17
100
AcDbEntity
  8
4
100
AcDbLine
 10
1481.323938735743
 20
573.2042376204033
 30
0.0
 11
1489.778530735743
 21
573.2042376204033
 31
0.0
  0
LINE
  5
1E7
330
17
100
AcDbEntity
  8
4
100
AcDbLine
 10
1482.323938735743
 20
571.2042376204033
 30
0.0
 11
1482.323938735743
 21
573.2042376204033
 31
0.0
  0
LINE
  5
1E8
330
17
100
AcDbEntity
  8
4
100
AcDbLine
 10
1481.323938735743
 20
573.2042376204033
 30
0.0
 11
1481.323938735743
 21
577.2042376204033
 31
0.0
  0
LINE
  5
1E9
330
17
100
AcDbEntity
  8
4
100
AcDbLine
 10
1484.405238735743
 20
582.2042376204033
 30
0.0
 11
1492.702114735743
 21
582.2042376204033
 31
0.0
  0
LINE
  5
1EA
330
17
100
AcDbEntity
  8
4
100
AcDbLine
 10
1493.323938735743
 20
589.2042376204033
 30
0.0
 11
1493.323938735743
 21
587.2042376204033
 31
0.0
  0
ARC
  5
1EB
330
17
100
AcDbEntity
  8
4
100
AcDbCircle
 10
1492.702114735743
 20
581.1041416204032
 30
0.0
 40
1.100112
100
AcDbArc
 50
90.0
 51
167.1912509999929
  0
LINE
  5
1EC
330
17
100
AcDbEntity
  8
4
100
AcDbLine
 10
1494.323938735743
 20
582.2042376204033
 30
0.0
 11
1492.702114735743
 21
582.2042376204033
 31
0.0
  0
LINE
  5
1ED
330
17
100
AcDbEntity
  8
4
100
AcDbLine
 10
1494.323938735743
 20
582.4212776204033
 30
0.0
 11
1492.562222735743
 21
582.1952056204034
 31
0.0
  0
LINE
  5
1EE
330
17
100
AcDbEntity
  8
4
100
AcDbLine
 10
1462.539026735743
 20
537.0094136204032
 30
0.0
 11
1455.598842735743
 21
543.9498456204033
 31
0.0
  0
LINE
  5
1EF
330
17
100
AcDbEntity
  8
4
100
AcDbLine
 10
1479.323938735743
 20
567.5787496204034
 30
0.0
 11
1479.323938735743
 21
571.2042376204033
 31
0.0
  0
LINE
  5
1F0
330
17
100
AcDbEntity
  8
4
100
AcDbLine
 10
1484.323938735743
 20
567.8040936204034
 30
0.0
 11
1484.323938735743
 21
571.2042376204033
 31
0.0
  0
LINE
  5
1F1
330
17
100
AcDbEntity
  8
L-CENTER
100
AcDbLine
 10
1516.823938735743
 20
601.2042376204033
 30
0.0
 11
1491.823938735743
 21
601.2042376204033
 31
0.0
  0
ARC
  5
1F2
330
17
100
AcDbEntity
  8
4
100
AcDbCircle
 10
1494.323938735743
 20
573.2042376204033
 30
0.0
 40
4.0
100
AcDbArc
 50
0.0
 51
90.0
  0
LINE
  5
1F3
330
17
100
AcDbEntity
  8
4
100
AcDbLine
 10
1482.323938735743
 20
571.2042376204033
 30
0.0
 11
1497.823938735743
 21
571.2042376204033
 31
0.0
  0
LINE
  5
1F4
330
17
100
AcDbEntity
  8
4
100
AcDbLine
 10
1482.323938735743
 20
571.2042376204033
 30
0.0
 11
1497.823938735743
 21
571.2042376204033
 31
0.0
  0
LINE
  5
1F5
330
17
100
AcDbEntity
  8
4
100
AcDbLine
 10
1479.323938735743
 20
571.2042376204033
 30
0.0
 11
1497.823938735743
 21
571.2042376204033
 31
0.0
  0
LINE
  5
1F6
330
17
100
AcDbEntity
  8
4
100
AcDbLine
 10
1489.323938735743
 20
571.2042376204033
 30
0.0
 11
1497.823938735743
 21
571.2042376204033
 31
0.0
  0
LINE
  5
1F7
330
17
100
AcDbEntity
  8
4
100
AcDbLine
 10
1494.323938735743
 20
577.2042376204033
 30
0.0
 11
1504.323938735743
 21
577.2042376204033
 31
0.0
  0
LINE
  5
1F8
330
17
100
AcDbEntity
  8
4
100
AcDbLine
 10
1495.323938735743
 20
590.2042376204033
 30
0.0
 11
1493.323938735743
 21
589.2042376204033
 31
0.0
  0
LINE
  5
1F9
330
17
100
AcDbEntity
  8
4
100
AcDbLine
 10
1504.323938735743
 20
587.2042376204033
 30
0.0
 11
1493.323938735743
 21
587.2042376204033
 31
0.0
  0
LINE
  5
1FA
330
17
100
AcDbEntity
  8
4
100
AcDbLine
 10
1493.323938735743
 20
589.2042376204033
 30
0.0
 11
1504.323938735743
 21
589.2042376204033
 31
0.0
  0
LINE
  5
1FB
330
17
100
AcDbEntity
  8
4
100
AcDbLine
 10
1498.073938735743
 20
590.2042376204033
 30
0.0
 11
1498.073938735743
 21
624.9542376204033
 31
0.0
  0
LINE
  5
1FC
330
17
100
AcDbEntity
  8
4
100
AcDbLine
 10
1510.573938735743
 20
590.2042376204033
 30
0.0
 11
1510.573938735743
 21
624.9542376204033
 31
0.0
  0
LINE
  5
1FD
330
17
100
AcDbEntity
  8
4
100
AcDbLine
 10
1606.220315789891
 20
452.367866492964
 30
0.0
 11
1597.623842735743
 21
452.367866492964
 31
0.0
  0
LINE
  5
1FE
330
17
100
AcDbEntity
  8
4
100
AcDbLine
 10
1597.623842735743
 20
477.2042376204033
 30
0.0
 11
1589.112026735743
 21
477.2042376204033
 31
0.0
  0
LINE
  5
1FF
330
17
100
AcDbEntity
  8
4
100
AcDbLine
 10
1548.649134735743
 20
527.5291896204033
 30
0.0
 11
1558.129602735743
 21
524.9886616204033
 31
0.0
  0
LINE
  5
200
330
17
100
AcDbEntity
  8
4
100
AcDbLine
 10
1597.623842735743
 20
432.7379573405166
 30
0.0
 11
1606.220315789891
 21
432.7379573405166
 31
0.0
  0
LINE
  5
201
330
17
100
AcDbEntity
  8
4
100
AcDbLine
 10
1606.220315789891
 20
447.4603892048523
 30
0.0
 11
1600.123842735743
 21
447.4603892048523
 31
0.0
  0
LINE
  5
202
330
17
100
AcDbEntity
  8
4
100
AcDbLine
 10
1606.220315789891
 20
437.6454346286283
 30
0.0
 11
1600.123842735743
 21
437.6454346286283
 31
0.0
  0
LINE
  5
203
330
17
100
AcDbEntity
  8
4
100
AcDbLine
 10
1607.123842735743
 20
435.1916959845727
 30
0.0
 11
1607.123842735743
 21
449.9141278489079
 31
0.0
  0
ARC
  5
204
330
17
100
AcDbEntity
  8
4
100
AcDbCircle
 10
1593.344677438283
 20
442.5529119167401
 30
0.0
 40
13.77916529745958
100
AcDbArc
 50
339.1359356360799
 51
20.86406436392003
  0
ARC
  5
205
330
17
100
AcDbEntity
  8
4
100
AcDbCircle
 10
1603.340228806684
 20
435.1916959845727
 30
0.0
 40
3.783613929059507
100
AcDbArc
 50
319.5701031551699
 51
40.42989684483014
  0
LINE
  5
206
330
17
100
AcDbEntity
  8
4
100
AcDbLine
 10
1614.223694735743
 20
433.2042376204033
 30
0.0
 11
1606.556538624857
 21
433.2042376204033
 31
0.0
  0
LINE
  5
207
330
17
100
AcDbEntity
  8
4
100
AcDbLine
 10
1614.223694735743
 20
433.2042376204033
 30
0.0
 11
1614.223694735743
 21
393.2042376204033
 31
0.0
  0
LINE
  5
208
330
17
100
AcDbEntity
  8
4
100
AcDbLine
 10
1548.649134735743
 20
438.8792856204034
 30
0.0
 11
1558.129602735743
 21
441.4198136204034
 31
0.0
  0
LINE
  5
209
330
17
100
AcDbEntity
  8
4
100
AcDbLine
 10
1553.049038735743
 20
422.4586336204034
 30
0.0
 11
1562.529506735743
 21
424.9989176204033
 31
0.0
  0
LINE
  5
20A
330
17
100
AcDbEntity
  8
4
100
AcDbLine
 10
1546.108850735743
 20
429.3990616204032
 30
0.0
 11
1548.649134735743
 21
438.8792856204034
 31
0.0
  0
LINE
  5
20B
330
17
100
AcDbEntity
  8
4
100
AcDbLine
 10
1546.108850735743
 20
429.3990616204032
 30
0.0
 11
1553.049038735743
 21
422.4586336204034
 31
0.0
  0
CIRCLE
  5
20C
330
17
100
AcDbEntity
  8
4
100
AcDbCircle
 10
1555.589318735743
 20
431.9391016204033
 30
0.0
 40
8.5
  0
LINE
  5
20D
330
17
100
AcDbEntity
  8
L-CENTER
100
AcDbLine
 10
1568.452358735743
 20
419.0755736204036
 30
0.0
 11
1542.725758007502
 21
444.8021743486444
 31
0.0
  0
LINE
  5
20E
330
17
100
AcDbEntity
  8
4
100
AcDbLine
 10
1562.529506735743
 20
424.9989176204033
 30
0.0
 11
1565.069790735743
 21
434.4793856204033
 31
0.0
  0
LINE
  5
20F
330
17
100
AcDbEntity
  8
4
100
AcDbLine
 10
1558.129602735743
 20
441.4198136204034
 30
0.0
 11
1565.069790735743
 21
434.4793856204033
 31
0.0
  0
LINE
  5
210
330
17
100
AcDbEntity
  8
L-CENTER
100
AcDbLine
 10
1567.347061185805
 20
442.5529119167401
 30
0.0
 11
1609.991820990323
 21
442.5529119167401
 31
0.0
  0
LINE
  5
211
330
17
100
AcDbEntity
  8
4
100
AcDbLine
 10
1597.623842735743
 20
452.367866492964
 30
0.0
 11
1597.623842735743
 21
432.7379573405166
 31
0.0
  0
ARC
  5
212
330
17
100
AcDbEntity
  8
4
100
AcDbCircle
 10
1603.340228806684
 20
449.9141278489079
 30
0.0
 40
3.783613929059507
100
AcDbArc
 50
319.5701031551699
 51
40.42989684483014
  0
LINE
  5
213
330
17
100
AcDbEntity
  8
4
100
AcDbLine
 10
1600.123842735743
 20
452.367866492964
 30
0.0
 11
1600.123842735743
 21
432.7379573405166
 31
0.0
  0
LINE
  5
214
330
17
100
AcDbEntity
  8
4
100
AcDbLine
 10
1510.323938735743
 20
501.7042376204033
 30
0.0
 11
1510.323938735743
 21
509.7042376204033
 31
0.0
  0
LINE
  5
215
330
17
100
AcDbEntity
  8
4
100
AcDbLine
 10
1498.323938735743
 20
501.7042376204033
 30
0.0
 11
1498.323938735743
 21
509.7042376204033
 31
0.0
  0
LINE
  5
216
330
17
100
AcDbEntity
  8
4
100
AcDbLine
 10
1510.323938735743
 20
509.7042376204033
 30
0.0
 11
1498.323938735743
 21
509.7042376204033
 31
0.0
  0
LINE
  5
217
330
17
100
AcDbEntity
  8
4
100
AcDbLine
 10
1498.323938735743
 20
501.7042376204033
 30
0.0
 11
1510.323938735743
 21
501.7042376204033
 31
0.0
  0
LINE
  5
218
330
17
100
AcDbEntity
  8
4
100
AcDbLine
 10
1459.998742735743
 20
527.5291896204033
 30
0.0
 11
1450.518274735743
 21
524.9886616204033
 31
0.0
  0
ARC
  5
219
330
17
100
AcDbEntity
  8
4
100
AcDbCircle
 10
1504.323938735743
 20
483.2042376204033
 30
0.0
 40
23.000012
100
AcDbArc
 50
105.1216579999997
 51
74.87834200000026
  0
LINE
  5
21A
330
17
100
AcDbEntity
  8
4
100
AcDbLine
 10
1462.539026735743
 20
429.3990616204032
 30
0.0
 11
1455.598842735743
 21
422.4586336204034
 31
0.0
  0
LINE
  5
21B
330
17
100
AcDbEntity
  8
4
100
AcDbLine
 10
1462.539026735743
 20
429.3990616204032
 30
0.0
 11
1459.998742735743
 21
438.8792856204034
 31
0.0
  0
LINE
  5
21C
330
17
100
AcDbEntity
  8
4
100
AcDbLine
 10
1459.998742735743
 20
438.8792856204034
 30
0.0
 11
1450.518274735743
 21
441.4198136204034
 31
0.0
  0
CIRCLE
  5
21D
330
17
100
AcDbEntity
  8
4
100
AcDbCircle
 10
1504.323938735743
 20
483.2042376204033
 30
0.0
 40
36.0
  0
LINE
  5
21E
330
17
100
AcDbEntity
  8
4
100
AcDbLine
 10
1462.539026735743
 20
537.0094136204032
 30
0.0
 11
1459.998742735743
 21
527.5291896204033
 31
0.0
  0
ARC
  5
21F
330
17
100
AcDbEntity
  8
4
100
AcDbCircle
 10
1080.323938735743
 20
483.2042376204033
 30
0.0
 40
499.999976
100
AcDbArc
 50
4.738148000000038
 51
8.7955559999999
  0
CIRCLE
  5
220
330
17
100
AcDbEntity
  8
4
100
AcDbCircle
 10
1555.589318735743
 20
534.4693736204033
 30
0.0
 40
8.5
  0
LINE
  5
221
330
17
100
AcDbEntity
  8
L-CENTER
100
AcDbLine
 10
1568.452602735743
 20
547.3326576204033
 30
0.0
 11
1542.726002007502
 21
521.6060568921624
 31
0.0
  0
LINE
  5
222
330
17
100
AcDbEntity
  8
4
100
AcDbLine
 10
1546.108850735743
 20
537.0094136204032
 30
0.0
 11
1548.649134735743
 21
527.5291896204033
 31
0.0
  0
LINE
  5
223
330
17
100
AcDbEntity
  8
4
100
AcDbLine
 10
1558.129602735743
 20
524.9886616204033
 30
0.0
 11
1565.069790735743
 21
531.9290936204034
 31
0.0
  0
LINE
  5
229
330
17
100
AcDbEntity
  8
4
100
AcDbLine
 10
1446.118374735743
 20
541.4095616204033
 30
0.0
 11
1443.578090735743
 21
531.9290936204034
 31
0.0
  0
ARC
  5
22A
330
17
100
AcDbEntity
  8
4
100
AcDbCircle
 10
1439.144982735743
 20
558.8941816204033
 30
0.0
 40
5.000032
100
AcDbArc
 50
97.56709499999964
 51
171.2032190000004
  0
LINE
  5
22B
330
17
100
AcDbEntity
  8
4
100
AcDbLine
 10
1415.323938735743
 20
477.2042376204033
 30
0.0
 11
1419.535854735743
 21
477.2042376204033
 31
0.0
  0
ARC
  5
22C
330
17
100
AcDbEntity
  8
4
100
AcDbCircle
 10
1415.323938735743
 20
475.2042376204033
 30
0.0
 40
2.0
100
AcDbArc
 50
90.0
 51
180.0
  0
LINE
  5
22D
330
17
100
AcDbEntity
  8
4
100
AcDbLine
 10
1446.118374735743
 20
424.9989176204033
 30
0.0
 11
1443.578090735743
 21
434.4793856204033
 31
0.0
  0
ARC
  5
22E
330
17
100
AcDbEntity
  8
4
100
AcDbCircle
 10
1928.323938735743
 20
483.2042376204033
 30
0.0
 40
499.999972
100
AcDbArc
 50
171.204982
 51
175.2622169999999
  0
ARC
  5
23D
330
17
100
AcDbEntity
  8
4
100
AcDbCircle
 10
1504.323938735743
 20
68.20423762040332
 30
0.0
 40
499.999968
100
AcDbArc
 50
82.43361599999996
 51
97.566751
  0
LINE
  5
23E
330
17
100
AcDbEntity
  8
L-CENTER
100
AcDbLine
 10
1595.913928839088
 20
483.2042376204033
 30
0.0
 11
1412.733948632399
 21
483.2042376204033
 31
0.0
  0
CIRCLE
  5
23F
330
17
100
AcDbEntity
  8
4
100
AcDbCircle
 10
1504.323938735743
 20
483.2042376204033
 30
0.0
 40
85.0
  0
CIRCLE
  5
240
330
17
100
AcDbEntity
  8
L-CENTER
100
AcDbCircle
 10
1504.323938735743
 20
483.2042376204033
 30
0.0
 40
72.5
  0
LINE
  5
241
330
17
100
AcDbEntity
  8
L-CENTER
100
AcDbLine
 10
1440.195518735743
 20
419.0755736204036
 30
0.0
 11
1465.922119463984
 21
444.8021743486443
 31
0.0
  0
CIRCLE
  5
242
330
17
100
AcDbEntity
  8
4
100
AcDbCircle
 10
1453.058558735743
 20
534.4693736204033
 30
0.0
 40
8.5
  0
LINE
  5
243
330
17
100
AcDbEntity
  8
L-CENTER
100
AcDbLine
 10
1440.195278735743
 20
547.3326576204033
 30
0.0
 11
1465.921877463979
 21
521.6060588921671
 31
0.0
  0
CIRCLE
  5
244
330
17
100
AcDbEntity
  8
4
100
AcDbCircle
 10
1453.058558735743
 20
431.9391016204033
 30
0.0
 40
8.5
  0
LINE
  5
245
330
17
100
AcDbEntity
  8
4
100
AcDbLine
 10
1450.518274735743
 20
441.4198136204034
 30
0.0
 11
1443.578090735743
 21
434.4793856204033
 31
0.0
  0
LINE
  5
246
330
17
100
AcDbEntity
  8
4
100
AcDbLine
 10
1455.598842735743
 20
422.4586336204034
 30
0.0
 11
1446.118374735743
 21
424.9989176204033
 31
0.0
  0
LINE
  5
247
330
17
100
AcDbEntity
  8
4
100
AcDbLine
 10
1450.518274735743
 20
524.9886616204033
 30
0.0
 11
1443.578090735743
 21
531.9290936204034
 31
0.0
  0
LINE
  5
248
330
17
100
AcDbEntity
  8
4
100
AcDbLine
 10
1455.598842735743
 20
543.9498456204033
 30
0.0
 11
1446.118374735743
 21
541.4095616204033
 31
0.0
  0
LINE
  5
24B
330
17
100
AcDbEntity
  8
4
100
AcDbLine
 10
1774.323938735743
 20
316.2042376204033
 30
0.0
 11
1773.323938735743
 21
317.2042376204033
 31
0.0
  0
LINE
  5
24D
330
17
100
AcDbEntity
  8
4
100
AcDbLine
 10
1773.323938735743
 20
249.2042376204033
 30
0.0
 11
1774.323938735743
 21
250.2042376204033
 31
0.0
  0
LINE
  5
24E
330
17
100
AcDbEntity
  8
4
100
AcDbLine
 10
1774.323938735743
 20
323.2042376204033
 30
0.0
 11
1774.323938735743
 21
250.2042376204033
 31
0.0
  0
LINE
  5
24F
330
17
100
AcDbEntity
  8
4
100
AcDbLine
 10
1773.323938735743
 20
317.2042376204033
 30
0.0
 11
1773.323938735743
 21
249.2042376204033
 31
0.0
  0
LINE
  5
250
330
17
100
AcDbEntity
  8
4
100
AcDbLine
 10
1664.323938735743
 20
323.2042376204033
 30
0.0
 11
1664.323938735743
 21
317.2042376204033
 31
0.0
  0
LINE
  5
251
330
17
100
AcDbEntity
  8
4
100
AcDbLine
 10
1644.223694735743
 20
333.2042376204033
 30
0.0
 11
1645.223694735743
 21
333.2042376204033
 31
0.0
  0
LINE
  5
252
330
17
100
AcDbEntity
  8
4
100
AcDbLine
 10
1654.323938735743
 20
318.2042376204033
 30
0.0
 11
1645.223694735743
 21
318.2042376204033
 31
0.0
  0
LINE
  5
253
330
17
100
AcDbEntity
  8
4
100
AcDbLine
 10
1644.223694735743
 20
233.2042376204033
 30
0.0
 11
1645.223694735743
 21
233.2042376204033
 31
0.0
  0
LINE
  5
254
330
17
100
AcDbEntity
  8
4
100
AcDbLine
 10
1645.223694735743
 20
248.2042376204033
 30
0.0
 11
1654.323938735743
 21
248.2042376204033
 31
0.0
  0
LINE
  5
255
330
17
100
AcDbEntity
  8
4
100
AcDbLine
 10
1644.223694735743
 20
348.2042376204033
 30
0.0
 11
1644.223694735743
 21
218.2042376204033
 31
0.0
  0
LINE
  5
256
330
17
100
AcDbEntity
  8
4
100
AcDbLine
 10
1654.323938735743
 20
318.2042376204033
 30
0.0
 11
1654.323938735743
 21
248.2042376204033
 31
0.0
  0
LINE
  5
257
330
17
100
AcDbEntity
  8
4
100
AcDbLine
 10
1645.223694735743
 20
233.2042376204033
 30
0.0
 11
1645.223694735743
 21
333.2042376204033
 31
0.0
  0
LINE
  5
258
330
17
100
AcDbEntity
  8
4
100
AcDbLine
 10
1774.323938735743
 20
323.2042376204033
 30
0.0
 11
1664.323938735743
 21
323.2042376204033
 31
0.0
  0
LINE
  5
259
330
17
100
AcDbEntity
  8
4
100
AcDbLine
 10
1654.323938735743
 20
317.2042376204033
 30
0.0
 11
1773.323938735743
 21
317.2042376204033
 31
0.0
  0
LINE
  5
25A
330
17
100
AcDbEntity
  8
4
100
AcDbLine
 10
1654.323938735743
 20
249.2042376204033
 30
0.0
 11
1773.323938735743
 21
249.2042376204033
 31
0.0
  0
ARC
  5
25B
330
17
100
AcDbEntity
  8
4
100
AcDbCircle
 10
1661.323938735743
 20
82.20423762040332
 30
0.0
 40
3.0
100
AcDbArc
 50
0.0
 51
90.0
  0
LINE
  5
25C
330
17
100
AcDbEntity
  8
4
100
AcDbLine
 10
1624.223694735743
 20
333.2042376204033
 30
0.0
 11
1597.623842735743
 21
322.2042376204033
 31
0.0
  0
LINE
  5
25D
330
17
100
AcDbEntity
  8
4
100
AcDbLine
 10
1597.623842735743
 20
273.3892830441798
 30
0.0
 11
1606.220315789891
 21
273.3892830441798
 31
0.0
  0
LINE
  5
25E
330
17
100
AcDbEntity
  8
4
100
AcDbLine
 10
1606.220315789891
 20
293.0191921966273
 30
0.0
 11
1597.623842735743
 21
293.0191921966273
 31
0.0
  0
LINE
  5
25F
330
17
100
AcDbEntity
  8
4
100
AcDbLine
 10
1597.623842735743
 20
293.0191921966273
 30
0.0
 11
1597.623842735743
 21
273.3892830441798
 31
0.0
  0
ARC
  5
260
330
17
100
AcDbEntity
  8
4
100
AcDbCircle
 10
1603.340228806684
 20
275.8430216882359
 30
0.0
 40
3.783613929059507
100
AcDbArc
 50
319.5701031551699
 51
40.42989684483014
  0
LINE
  5
261
330
17
100
AcDbEntity
  8
4
100
AcDbLine
 10
1606.220315789891
 20
278.2967603322916
 30
0.0
 11
1600.123842735743
 21
278.2967603322916
 31
0.0
  0
ARC
  5
262
330
17
100
AcDbEntity
  8
4
100
AcDbCircle
 10
1603.340228806684
 20
290.5654535525712
 30
0.0
 40
3.783613929059507
100
AcDbArc
 50
319.5701031551699
 51
40.42989684483014
  0
LINE
  5
263
330
17
100
AcDbEntity
  8
4
100
AcDbLine
 10
1606.220315789891
 20
288.1117149085155
 30
0.0
 11
1600.123842735743
 21
288.1117149085155
 31
0.0
  0
LINE
  5
264
330
17
100
AcDbEntity
  8
4
100
AcDbLine
 10
1600.123842735743
 20
293.0191921966273
 30
0.0
 11
1600.123842735743
 21
273.3892830441798
 31
0.0
  0
ARC
  5
265
330
17
100
AcDbEntity
  8
4
100
AcDbCircle
 10
1593.344677438283
 20
283.2042376204033
 30
0.0
 40
13.77916529745958
100
AcDbArc
 50
339.1359356360799
 51
20.86406436392003
  0
LINE
  5
266
330
17
100
AcDbEntity
  8
4
100
AcDbLine
 10
1607.123842735743
 20
275.8430216882359
 30
0.0
 11
1607.123842735743
 21
290.5654535525712
 31
0.0
  0
LINE
  5
267
330
17
100
AcDbEntity
  8
4
100
AcDbLine
 10
1624.223694735743
 20
233.2042376204033
 30
0.0
 11
1597.623842735743
 21
244.2042376204033
 31
0.0
  0
ARC
  5
268
330
17
100
AcDbEntity
  8
4
100
AcDbCircle
 10
1603.340228806684
 20
131.216779256234
 30
0.0
 40
3.783613929059507
100
AcDbArc
 50
333.937135365935
 51
40.42989684483014
  0
LINE
  5
269
330
17
100
AcDbEntity
  8
4
100
AcDbLine
 10
1607.123842735743
 20
131.216779256234
 30
0.0
 11
1607.123842735743
 21
129.2418156204034
 31
0.0
  0
LINE
  5
26A
330
17
100
AcDbEntity
  8
4
100
AcDbLine
 10
1601.673132237421
 20
133.6705179002902
 30
0.0
 11
1606.220315789891
 21
133.6705179002901
 31
0.0
  0
LINE
  5
26B
330
17
100
AcDbEntity
  8
4
100
AcDbLine
 10
1614.223694735743
 20
133.2042376204033
 30
0.0
 11
1606.559816298098
 21
133.2042376204033
 31
0.0
  0
ARC
  5
26C
330
17
100
AcDbEntity
  8
4
100
AcDbCircle
 10
1595.323938735743
 20
100.2042376204033
 30
0.0
 40
15.0
100
AcDbArc
 50
180.0
 51
270.000932
  0
LINE
  5
26D
330
17
100
AcDbEntity
  8
4
100
AcDbLine
 10
1626.492358848393
 20
213.7714036485656
 30
0.0
 11
1601.729308839688
 21
133.6556536204031
 31
0.0
  0
LINE
  5
26E
330
17
100
AcDbEntity
  8
4
100
AcDbLine
 10
1600.048539353363
 20
134.9904996185868
 30
0.0
 11
1624.223694735743
 21
213.2042376204033
 31
0.0
  0
LINE
  5
26F
330
17
100
AcDbEntity
  8
4
100
AcDbLine
 10
1614.223694735743
 20
133.2042376204033
 30
0.0
 11
1614.223694735743
 21
173.2042376204033
 31
0.0
  0
LINE
  5
270
330
17
100
AcDbEntity
  8
4
100
AcDbLine
 10
1624.223694735743
 20
353.2042376204033
 30
0.0
 11
1624.223694735743
 21
213.2042376204033
 31
0.0
  0
LINE
  5
271
330
17
100
AcDbEntity
  8
4
100
AcDbLine
 10
1624.223694735743
 20
213.2042376204033
 30
0.0
 11
1644.223694735743
 21
218.2042376204033
 31
0.0
  0
LINE
  5
272
330
17
100
AcDbEntity
  8
4
100
AcDbLine
 10
1624.223694735743
 20
353.2042376204033
 30
0.0
 11
1644.223694735743
 21
348.2042376204033
 31
0.0
  0
LINE
  5
273
330
17
100
AcDbEntity
  8
4
100
AcDbLine
 10
1661.323938735743
 20
85.20423762040332
 30
0.0
 11
1580.323938735743
 21
151.0167376204033
 31
0.0
  0
LINE
  5
27A
330
17
100
AcDbEntity
  8
4
100
AcDbLine
 10
1664.323938735743
 20
43.20423762040332
 30
0.0
 11
1664.323938735743
 21
82.20423762040332
 31
0.0
  0
LINE
  5
27B
330
17
100
AcDbEntity
  8
L-CENTER
100
AcDbLine
 10
1634.323938735743
 20
100.2042376204033
 30
0.0
 11
1634.323938735743
 21
28.20423762040332
 31
0.0
  0
ARC
  5
27C
330
17
100
AcDbEntity
  8
4
100
AcDbCircle
 10
1385.572659603198
 20
347.7734361295663
 30
0.0
 40
1.0
100
AcDbArc
 50
0.0
 51
90.0
  0
LINE
  5
27D
330
17
100
AcDbEntity
  8
4
100
AcDbLine
 10
1384.823938735743
 20
348.7734361295663
 30
0.0
 11
1385.572659603198
 21
348.7734361295663
 31
0.0
  0
LINE
  5
27E
330
17
100
AcDbEntity
  8
4
100
AcDbLine
 10
1364.323938735743
 20
348.2042376204033
 30
0.0
 11
1382.323938735743
 21
353.2042376204033
 31
0.0
  0
LINE
  5
27F
330
17
100
AcDbEntity
  8
4
100
AcDbLine
 10
1384.823938735743
 20
332.9694469745853
 30
0.0
 11
1385.794025224902
 21
333.1896539126903
 31
0.0
  0
ARC
  5
280
330
17
100
AcDbEntity
  8
4
100
AcDbCircle
 10
1385.572659603198
 20
334.1648447973519
 30
0.0
 40
1.0
100
AcDbArc
 50
282.7892551895715
 51
0.0
  0
LINE
  5
281
330
17
100
AcDbEntity
  8
4
100
AcDbLine
 10
1386.572659603198
 20
334.1648447973519
 30
0.0
 11
1386.572659603198
 21
347.7734361295663
 31
0.0
  0
LINE
  5
282
330
17
100
AcDbEntity
  8
4
100
AcDbLine
 10
1386.572659603198
 20
333.36640175349
 30
0.0
 11
1413.323938735743
 21
323.0413466497005
 31
0.0
  0
LINE
  5
283
330
17
100
AcDbEntity
  8
4
100
AcDbLine
 10
1384.823938735743
 20
332.9694469745853
 30
0.0
 11
1413.323938735743
 21
321.9694469745853
 31
0.0
  0
LINE
  5
284
330
17
100
AcDbEntity
  8
4
100
AcDbLine
 10
1386.572659603198
 20
232.2436304434548
 30
0.0
 11
1386.572659603198
 21
218.6350391112403
 31
0.0
  0
LINE
  5
285
330
17
100
AcDbEntity
  8
4
100
AcDbLine
 10
1384.823938735743
 20
217.6350391112403
 30
0.0
 11
1385.572659603198
 21
217.6350391112403
 31
0.0
  0
ARC
  5
286
330
17
100
AcDbEntity
  8
4
100
AcDbCircle
 10
1385.572659603198
 20
218.6350391112403
 30
0.0
 40
1.0
100
AcDbArc
 50
270.0
 51
0.0
  0
ARC
  5
287
330
17
100
AcDbEntity
  8
4
100
AcDbCircle
 10
1385.572659603198
 20
232.2436304434548
 30
0.0
 40
1.0
100
AcDbArc
 50
0.0
 51
77.21074481042851
  0
LINE
  5
288
330
17
100
AcDbEntity
  8
4
100
AcDbLine
 10
1384.823938735743
 20
233.4390282662214
 30
0.0
 11
1385.794025224902
 21
233.2188213281163
 31
0.0
  0
LINE
  5
289
330
17
100
AcDbEntity
  8
4
100
AcDbLine
 10
1386.572659603198
 20
233.0420734873167
 30
0.0
 11
1413.323938735743
 21
243.3671285911062
 31
0.0
  0
LINE
  5
28A
330
17
100
AcDbEntity
  8
4
100
AcDbLine
 10
1384.823938735743
 20
233.4390282662214
 30
0.0
 11
1413.323938735743
 21
244.4390282662214
 31
0.0
  0
LINE
  5
28B
330
17
100
AcDbEntity
  8
4
100
AcDbLine
 10
1364.323938735743
 20
217.9694469745853
 30
0.0
 11
1364.323938735743
 21
347.9694469745853
 31
0.0
  0
LINE
  5
28C
330
17
100
AcDbEntity
  8
4
100
AcDbLine
 10
1364.323938735743
 20
348.2042376204033
 30
0.0
 11
1364.323938735743
 21
218.2042376204033
 31
0.0
  0
LINE
  5
28D
330
17
100
AcDbEntity
  8
4
100
AcDbLine
 10
1384.823938735743
 20
233.4390282662214
 30
0.0
 11
1384.823938735743
 21
332.9694469745853
 31
0.0
  0
ARC
  5
28E
330
17
100
AcDbEntity
  8
4
100
AcDbCircle
 10
1413.323938735743
 20
100.2042376204033
 30
0.0
 40
15.0
100
AcDbArc
 50
270.000932
 51
0.0
  0
LINE
  5
28F
330
17
100
AcDbEntity
  8
4
100
AcDbLine
 10
1407.176983526886
 20
133.8348365132066
 30
0.0
 11
1382.323938735743
 21
213.2042376204033
 31
0.0
  0
ARC
  5
290
330
17
100
AcDbEntity
  8
4
100
AcDbCircle
 10
1347.323938735743
 20
82.20423762040332
 30
0.0
 40
3.0
100
AcDbArc
 50
90.0
 51
180.0
  0
LINE
  5
291
330
17
100
AcDbEntity
  8
4
100
AcDbLine
 10
1347.323938735743
 20
85.20423762040332
 30
0.0
 11
1427.323938735743
 21
150.2042376204033
 31
0.0
  0
LINE
  5
292
330
17
100
AcDbEntity
  8
4
100
AcDbLine
 10
1382.323938735743
 20
353.2042376204033
 30
0.0
 11
1382.323938735743
 21
213.2042376204033
 31
0.0
  0
LINE
  5
293
330
17
100
AcDbEntity
  8
4
100
AcDbLine
 10
1364.323938735743
 20
218.2042376204033
 30
0.0
 11
1382.323938735743
 21
213.2042376204033
 31
0.0
  0
LINE
  5
294
330
17
100
AcDbEntity
  8
4
100
AcDbLine
 10
1410.100110133828
 20
136.2098768813471
 30
0.0
 11
1386.748564333227
 21
217.0262578426975
 31
0.0
  0
LINE
  5
295
330
17
100
AcDbEntity
  8
4
100
AcDbLine
 10
1384.823938735743
 20
217.6350391112403
 30
0.0
 11
1408.683876212107
 21
135.0591868199485
 31
0.0
  0
LINE
  5
2A7
330
17
100
AcDbEntity
  8
4
100
AcDbLine
 10
1344.323938735743
 20
43.20423762040332
 30
0.0
 11
1344.323938735743
 21
82.20423762040332
 31
0.0
  0
LINE
  5
2A8
330
17
100
AcDbEntity
  8
L-CENTER
100
AcDbLine
 10
1374.323938735743
 20
28.20423762040332
 30
0.0
 11
1374.323938735743
 21
100.2042376204033
 31
0.0
  0
LINE
  5
2AA
330
17
100
AcDbEntity
  8
L-CENTER
100
AcDbLine
 10
1782.156245859428
 20
283.2042376204033
 30
0.0
 11
1226.491631612059
 21
283.2042376204033
 31
0.0
  0
LINE
  5
2AD
330
17
100
AcDbEntity
  8
4
100
AcDbLine
 10
1661.323938735743
 20
85.20423762040332
 30
0.0
 11
1347.323938735743
 21
85.20423762040332
 31
0.0
  0
LINE
  5
2AE
330
17
100
AcDbEntity
  8
4
100
AcDbLine
 10
1664.323938735743
 20
43.20423762040332
 30
0.0
 11
1344.323938735743
 21
43.20423762040332
 31
0.0
  0
LINE
  5
2B0
330
17
100
AcDbEntity
  8
4
100
AcDbLine
 10
1599.640545004072
 20
432.7379573405165
 30
0.0
 11
1624.223694735743
 21
353.2042376204033
 31
0.0
  0
LINE
  5
2B1
330
17
100
AcDbEntity
  8
4
100
AcDbLine
 10
1626.492358848393
 20
352.637071592241
 30
0.0
 11
1601.729308839688
 21
432.7528216204036
 31
0.0
  0
LINE
  5
2B2
330
17
100
AcDbEntity
  8
4
100
AcDbLine
 10
1413.323938735743
 20
452.2042376204033
 30
0.0
 11
1382.323938735743
 21
353.2042376204033
 31
0.0
  0
LINE
  5
2B3
330
17
100
AcDbEntity
  8
4
100
AcDbLine
 10
1384.823938735743
 20
348.7734361295663
 30
0.0
 11
1413.323938735743
 21
447.4078853033413
 31
0.0
  0
LINE
  5
2B4
330
17
100
AcDbEntity
  8
4
100
AcDbLine
 10
1413.323938735743
 20
441.3558109342171
 30
0.0
 11
1386.748564333227
 21
349.3822173981091
 31
0.0
  0
LINE
  5
2B7
330
17
100
AcDbEntity
  8
4
100
AcDbLine
 10
1583.323938735743
 20
148.5792376204033
 30
0.0
 11
1583.323938735743
 21
451.8355856204032
 31
0.0
  0
LINE
  5
2B8
330
17
100
AcDbEntity
  8
4
100
AcDbLine
 10
1581.323938735743
 20
150.2042376204033
 30
0.0
 11
1581.323938735743
 21
447.2042376204033
 31
0.0
  0
LINE
  5
2B9
330
17
100
AcDbEntity
  8
4
100
AcDbLine
 10
1597.623842735743
 20
136.8793176204033
 30
0.0
 11
1597.623842735743
 21
477.2042376204033
 31
0.0
  0
LINE
  5
2BC
330
17
100
AcDbEntity
  8
4
100
AcDbLine
 10
1413.323938735743
 20
138.8292376204033
 30
0.0
 11
1413.323938735743
 21
475.2042376204033
 31
0.0
  0
LINE
  5
2C0
330
17
100
AcDbEntity
  8
4
100
AcDbLine
 10
1580.323938735743
 20
100.2042376204033
 30
0.0
 11
1580.323938735743
 21
445.1385656204034
 31
0.0
  0
LINE
  5
2C1
330
17
100
AcDbEntity
  8
4
100
AcDbLine
 10
1428.323938735743
 20
100.2042376204033
 30
0.0
 11
1428.323938735743
 21
445.1385656204034
 31
0.0
  0
LINE
  5
2C2
330
17
100
AcDbEntity
  8
4
100
AcDbLine
 10
1427.323938735743
 20
94.81898162040329
 30
0.0
 11
1427.323938735743
 21
447.2042376204033
 31
0.0
  0
LINE
  5
2C3
330
17
100
AcDbEntity
  8
L-CENTER
100
AcDbLine
 10
1504.323938735743
 20
638.1766496204034
 30
0.0
 11
1504.323938735743
 21
29.9097738296357
 31
0.0
  0
ARC
  5
2C4
330
17
100
AcDbEntity
  8
4
100
AcDbCircle
 10
856.7940054842434
 20
1278.53234503093
 30
0.0
 40
5.0
100
AcDbArc
 50
0.0
 51
90.0
  0
LINE
  5
2C5
330
17
100
AcDbEntity
  8
4
100
AcDbLine
 10
791.7940054842434
 20
1283.53234503093
 30
0.0
 11
856.7940054842434
 21
1283.53234503093
 31
0.0
  0
LINE
  5
2C6
330
17
100
AcDbEntity
  8
4
100
AcDbLine
 10
857.1903825383911
 20
1184.612522112791
 30
0.0
 11
848.5939094842433
 21
1184.612522112791
 31
0.0
  0
ARC
  5
2C7
330
17
100
AcDbEntity
  8
4
100
AcDbCircle
 10
834.7940054842434
 20
1215.93234503093
 30
0.0
 40
1.0
100
AcDbArc
 50
0.0
 51
90.0
  0
LINE
  5
2C8
330
17
100
AcDbEntity
  8
4
100
AcDbLine
 10
835.7940054842434
 20
1215.93234503093
 30
0.0
 11
835.7940054842434
 21
1208.53234503093
 31
0.0
  0
LINE
  5
2C9
330
17
100
AcDbEntity
  8
4
100
AcDbLine
 10
835.7940054842434
 20
1215.93234503093
 30
0.0
 11
835.7940054842434
 21
1208.53234503093
 31
0.0
  0
ARC
  5
2CA
330
17
100
AcDbEntity
  8
4
100
AcDbCircle
 10
847.5940054842436
 20
1207.53234503093
 30
0.0
 40
1.0
100
AcDbArc
 50
0.0
 51
90.0
  0
LINE
  5
2CB
330
17
100
AcDbEntity
  8
4
100
AcDbLine
 10
835.6089600604669
 20
1216.93234503093
 30
0.0
 11
835.6089600604669
 21
1225.528818085078
 31
0.0
  0
LINE
  5
2CC
330
17
100
AcDbEntity
  8
4
100
AcDbLine
 10
833.1552214164108
 20
1226.43234503093
 30
0.0
 11
818.4327895520755
 21
1226.43234503093
 31
0.0
  0
ARC
  5
2CD
330
17
100
AcDbEntity
  8
4
100
AcDbCircle
 10
825.7940054842434
 20
1212.653179733471
 30
0.0
 40
13.77916529745958
100
AcDbArc
 50
69.13593563607864
 51
110.8640643639196
  0
ARC
  5
2CE
330
17
100
AcDbEntity
  8
4
100
AcDbCircle
 10
818.4327895520755
 20
1222.648731101871
 30
0.0
 40
3.783613929059507
100
AcDbArc
 50
49.57010315516856
 51
130.4298968448253
  0
LINE
  5
2CF
330
17
100
AcDbEntity
  8
4
100
AcDbLine
 10
821.7940054842434
 20
1199.53234503093
 30
0.0
 11
821.7940054842434
 21
1208.53234503093
 31
0.0
  0
ARC
  5
2D0
330
17
100
AcDbEntity
  8
4
100
AcDbCircle
 10
845.454585384171
 20
1164.48490516436
 30
0.0
 40
50.0
100
AcDbArc
 50
118.2429710871652
 51
135.4968242045219
  0
LINE
  5
2D1
330
17
100
AcDbEntity
  8
4
100
AcDbLine
 10
815.9790509080194
 20
1225.528818085078
 30
0.0
 11
815.9790509080194
 21
1216.93234503093
 31
0.0
  0
LINE
  5
2D2
330
17
100
AcDbEntity
  8
4
100
AcDbLine
 10
820.8865281961312
 20
1225.528818085078
 30
0.0
 11
820.8865281961312
 21
1219.43234503093
 31
0.0
  0
LINE
  5
2D3
330
17
100
AcDbEntity
  8
4
100
AcDbLine
 10
830.7014827723551
 20
1225.528818085078
 30
0.0
 11
830.7014827723551
 21
1219.43234503093
 31
0.0
  0
LINE
  5
2D4
330
17
100
AcDbEntity
  8
L-CENTER
100
AcDbLine
 10
825.7940054842434
 20
1189.840810568495
 30
0.0
 11
825.7940054842434
 21
1229.300323285511
 31
0.0
  0
LINE
  5
2D5
330
17
100
AcDbEntity
  8
4
100
AcDbLine
 10
815.9790509080194
 20
1216.93234503093
 30
0.0
 11
835.6089600604669
 21
1216.93234503093
 31
0.0
  0
LINE
  5
2D6
330
17
100
AcDbEntity
  8
4
100
AcDbLine
 10
815.9790509080194
 20
1219.43234503093
 30
0.0
 11
835.6089600604669
 21
1219.43234503093
 31
0.0
  0
LINE
  5
2D7
330
17
100
AcDbEntity
  8
4
100
AcDbLine
 10
821.7940054842434
 20
1208.53234503093
 30
0.0
 11
847.5940054842436
 21
1208.53234503093
 31
0.0
  0
LINE
  5
2D8
330
17
100
AcDbEntity
  8
L-CENTER
100
AcDbLine
 10
805.4585679077195
 20
1253.53234503093
 30
0.0
 11
848.1294430607672
 21
1253.53234503093
 31
0.0
  0
ARC
  5
2D9
330
17
100
AcDbEntity
  8
4
100
AcDbCircle
 10
833.1552214164108
 20
1222.648731101871
 30
0.0
 40
3.783613929059507
100
AcDbArc
 50
49.57010315516856
 51
130.4298968448253
  0
CIRCLE
  5
2DA
330
17
100
AcDbEntity
  8
4
100
AcDbCircle
 10
826.7940054842434
 20
1253.53234503093
 30
0.0
 40
11.0
  0
LINE
  5
2DB
330
17
100
AcDbEntity
  8
L-CENTER
100
AcDbLine
 10
826.7940054842434
 20
1274.867782607454
 30
0.0
 11
826.7940054842434
 21
1232.196907454407
 31
0.0
  0
LINE
  5
2DC
330
17
100
AcDbEntity
  8
4
100
AcDbLine
 10
960.7940054842434
 20
1146.53234503093
 30
0.0
 11
961.7940054842434
 21
1145.53234503093
 31
0.0
  0
LINE
  5
2DD
330
17
100
AcDbEntity
  8
4
100
AcDbLine
 10
960.7940054842434
 20
1146.53234503093
 30
0.0
 11
960.7940054842434
 21
1129.53234503093
 31
0.0
  0
LINE
  5
2DE
330
17
100
AcDbEntity
  8
4
100
AcDbLine
 10
961.7940054842434
 20
1101.53234503093
 30
0.0
 11
960.7940054842434
 21
1100.53234503093
 31
0.0
  0
LINE
  5
2DF
330
17
100
AcDbEntity
  8
4
100
AcDbLine
 10
961.7940054842434
 20
1145.53234503093
 30
0.0
 11
961.7940054842434
 21
1101.53234503093
 31
0.0
  0
LINE
  5
2E0
330
17
100
AcDbEntity
  8
4
100
AcDbLine
 10
960.7940054842434
 20
1117.53234503093
 30
0.0
 11
960.7940054842434
 21
1100.53234503093
 31
0.0
  0
ARC
  5
2E1
330
17
100
AcDbEntity
  8
4
100
AcDbCircle
 10
863.7940054842434
 20
1148.53234503093
 30
0.0
 40
2.0
100
AcDbArc
 50
180.0
 51
270.0
  0
LINE
  5
2E2
330
17
100
AcDbEntity
  8
4
100
AcDbLine
 10
857.1903825383911
 20
1179.705044824679
 30
0.0
 11
851.0939094842433
 21
1179.705044824679
 31
0.0
  0
LINE
  5
2E3
330
17
100
AcDbEntity
  8
4
100
AcDbLine
 10
848.5939094842433
 20
1164.982612960343
 30
0.0
 11
857.1903825383911
 21
1164.982612960343
 31
0.0
  0
LINE
  5
2E4
330
17
100
AcDbEntity
  8
4
100
AcDbLine
 10
857.1903825383911
 20
1169.890090248455
 30
0.0
 11
851.0939094842433
 21
1169.890090248455
 31
0.0
  0
LINE
  5
2E5
330
17
100
AcDbEntity
  8
4
100
AcDbLine
 10
849.5940054842436
 20
1159.53234503093
 30
0.0
 11
848.5940054842436
 21
1159.53234503093
 31
0.0
  0
LINE
  5
2E6
330
17
100
AcDbEntity
  8
4
100
AcDbLine
 10
861.7940054842434
 20
1148.53234503093
 30
0.0
 11
849.5940054842436
 21
1148.53234503093
 31
0.0
  0
ARC
  5
2E7
330
17
100
AcDbEntity
  8
4
100
AcDbCircle
 10
844.3147441867836
 20
1174.797567536567
 30
0.0
 40
13.77916529745958
100
AcDbArc
 50
339.1359356360805
 51
20.86406436391942
  0
ARC
  5
2E8
330
17
100
AcDbEntity
  8
4
100
AcDbCircle
 10
854.310295555184
 20
1167.436351604399
 30
0.0
 40
3.783613929059507
100
AcDbArc
 50
319.5701031551723
 51
40.42989684482771
  0
ARC
  5
2E9
330
17
100
AcDbEntity
  8
4
100
AcDbCircle
 10
877.7940054842434
 20
1123.53234503093
 30
0.0
 40
6.0
100
AcDbArc
 50
90.0
 51
270.0
  0
LINE
  5
2EA
330
17
100
AcDbEntity
  8
L-CENTER
100
AcDbLine
 10
813.7940054842434
 20
1105.212795969103
 30
0.0
 11
813.7940054842434
 21
1141.851894092758
 31
0.0
  0
CIRCLE
  5
2EB
330
17
100
AcDbEntity
  8
4
100
AcDbCircle
 10
813.7940054842434
 20
1123.53234503093
 30
0.0
 40
11.0
  0
LINE
  5
2EC
330
17
100
AcDbEntity
  8
L-CENTER
100
AcDbLine
 10
862.9375614842434
 20
1174.79772503093
 30
0.0
 11
820.3015455411846
 21
1174.797256884311
 31
0.0
  0
LINE
  5
2ED
330
17
100
AcDbEntity
  8
4
100
AcDbLine
 10
858.0939094842433
 20
1079.628338457461
 30
0.0
 11
858.0939094842433
 21
1064.905906593126
 31
0.0
  0
ARC
  5
2EE
330
17
100
AcDbEntity
  8
4
100
AcDbCircle
 10
863.7940054842434
 20
1098.53234503093
 30
0.0
 40
2.0
100
AcDbArc
 50
90.0
 51
180.0
  0
LINE
  5
2EF
330
17
100
AcDbEntity
  8
4
100
AcDbLine
 10
857.1903825383911
 20
1067.359645237182
 30
0.0
 11
851.0939094842433
 21
1067.359645237182
 31
0.0
  0
LINE
  5
2F0
330
17
100
AcDbEntity
  8
4
100
AcDbLine
 10
857.1903825383911
 20
1077.174599813406
 30
0.0
 11
851.0939094842433
 21
1077.174599813406
 31
0.0
  0
LINE
  5
2F1
330
17
100
AcDbEntity
  8
4
100
AcDbLine
 10
848.5939094842433
 20
1082.082077101518
 30
0.0
 11
857.1903825383911
 21
1082.082077101518
 31
0.0
  0
LINE
  5
2F2
330
17
100
AcDbEntity
  8
4
100
AcDbLine
 10
849.5940054842436
 20
1087.53234503093
 30
0.0
 11
848.5940054842436
 21
1087.53234503093
 31
0.0
  0
ARC
  5
2F3
330
17
100
AcDbEntity
  8
4
100
AcDbCircle
 10
844.3147441867836
 20
1072.267122525294
 30
0.0
 40
13.77916529745958
100
AcDbArc
 50
339.1359356360805
 51
20.86406436391942
  0
ARC
  5
2F4
330
17
100
AcDbEntity
  8
4
100
AcDbCircle
 10
854.310295555184
 20
1079.628338457461
 30
0.0
 40
3.783613929059507
100
AcDbArc
 50
319.5701031551723
 51
40.42989684482771
  0
LINE
  5
2F5
330
17
100
AcDbEntity
  8
4
100
AcDbLine
 10
861.7940054842434
 20
1098.53234503093
 30
0.0
 11
849.5940054842436
 21
1098.53234503093
 31
0.0
  0
LINE
  5
2F6
330
17
100
AcDbEntity
  8
4
100
AcDbLine
 10
835.7940054842434
 20
1032.532345030931
 30
0.0
 11
835.7940054842434
 21
1038.532345030931
 31
0.0
  0
LINE
  5
2F7
330
17
100
AcDbEntity
  8
4
100
AcDbLine
 10
857.1903825383911
 20
1062.45216794907
 30
0.0
 11
848.5939094842433
 21
1062.45216794907
 31
0.0
  0
ARC
  5
2F8
330
17
100
AcDbEntity
  8
4
100
AcDbCircle
 10
847.5940054842436
 20
1039.532345030931
 30
0.0
 40
1.0
100
AcDbArc
 50
270.0
 51
0.0
  0
LINE
  5
2F9
330
17
100
AcDbEntity
  8
4
100
AcDbLine
 10
851.0939094842433
 20
1062.45216794907
 30
0.0
 11
851.0939094842433
 21
1082.082077101518
 31
0.0
  0
LINE
  5
2FA
330
17
100
AcDbEntity
  8
4
100
AcDbLine
 10
848.5939094842433
 20
1062.45216794907
 30
0.0
 11
848.5939094842433
 21
1082.082077101518
 31
0.0
  0
ARC
  5
2FB
330
17
100
AcDbEntity
  8
4
100
AcDbCircle
 10
854.310295555184
 20
1064.905906593126
 30
0.0
 40
3.783613929059507
100
AcDbArc
 50
319.5701031551723
 51
40.42989684482771
  0
LINE
  5
2FC
330
17
100
AcDbEntity
  8
4
100
AcDbLine
 10
821.7940054842434
 20
1038.532345030931
 30
0.0
 11
821.7940054842434
 21
1047.53234503093
 31
0.0
  0
ARC
  5
2FD
330
17
100
AcDbEntity
  8
4
100
AcDbCircle
 10
845.454585384171
 20
1082.579784897501
 30
0.0
 40
50.0
100
AcDbArc
 50
224.503175795478
 51
241.7570289128348
  0
LINE
  5
2FE
330
17
100
AcDbEntity
  8
4
100
AcDbLine
 10
821.7940054842434
 20
1038.532345030931
 30
0.0
 11
847.5940054842436
 21
1038.532345030931
 31
0.0
  0
LINE
  5
2FF
330
17
100
AcDbEntity
  8
L-CENTER
100
AcDbLine
 10
862.9375614842434
 20
1072.26696503093
 30
0.0
 11
820.3015455411846
 21
1072.26743317755
 31
0.0
  0
LINE
  5
300
330
17
100
AcDbEntity
  8
4
100
AcDbLine
 10
849.5940054842436
 20
1087.53234503093
 30
0.0
 11
849.5940054842436
 21
1159.53234503093
 31
0.0
  0
LINE
  5
301
330
17
100
AcDbEntity
  8
4
100
AcDbLine
 10
861.7940054842434
 20
1098.53234503093
 30
0.0
 11
861.7940054842434
 21
1148.53234503093
 31
0.0
  0
LINE
  5
302
330
17
100
AcDbEntity
  8
4
100
AcDbLine
 10
961.7940054842434
 20
1129.53234503093
 30
0.0
 11
877.7940054842434
 21
1129.53234503093
 31
0.0
  0
LINE
  5
303
330
17
100
AcDbEntity
  8
4
100
AcDbLine
 10
961.7940054842434
 20
1117.53234503093
 30
0.0
 11
877.7940054842434
 21
1117.53234503093
 31
0.0
  0
LINE
  5
304
330
17
100
AcDbEntity
  8
4
100
AcDbLine
 10
863.7940054842434
 20
1100.53234503093
 30
0.0
 11
960.7940054842434
 21
1100.53234503093
 31
0.0
  0
LINE
  5
305
330
17
100
AcDbEntity
  8
4
100
AcDbLine
 10
863.7940054842434
 20
1146.53234503093
 30
0.0
 11
960.7940054842434
 21
1146.53234503093
 31
0.0
  0
LINE
  5
306
330
17
100
AcDbEntity
  8
4
100
AcDbLine
 10
848.5940054842436
 20
1039.532345030931
 30
0.0
 11
848.5940054842436
 21
1207.53234503093
 31
0.0
  0
LINE
  5
307
330
17
100
AcDbEntity
  8
4
100
AcDbLine
 10
834.7940054842434
 20
1038.532345030931
 30
0.0
 11
834.7940054842434
 21
1208.53234503093
 31
0.0
  0
LINE
  5
308
330
17
100
AcDbEntity
  8
4
100
AcDbLine
 10
827.7940054842434
 20
1038.53234503093
 30
0.0
 11
827.7940054842434
 21
1208.53234503093
 31
0.0
  0
ARC
  5
309
330
17
100
AcDbEntity
  8
4
100
AcDbCircle
 10
854.310295555184
 20
1182.158783468735
 30
0.0
 40
3.783613929059507
100
AcDbArc
 50
319.5701031551723
 51
40.42989684482771
  0
LINE
  5
30A
330
17
100
AcDbEntity
  8
4
100
AcDbLine
 10
858.0939094842433
 20
1167.436351604399
 30
0.0
 11
858.0939094842433
 21
1182.158783468735
 31
0.0
  0
LINE
  5
30B
330
17
100
AcDbEntity
  8
4
100
AcDbLine
 10
848.5939094842433
 20
1184.612522112791
 30
0.0
 11
848.5939094842433
 21
1164.982612960343
 31
0.0
  0
LINE
  5
30C
330
17
100
AcDbEntity
  8
4
100
AcDbLine
 10
851.0939094842433
 20
1184.612522112791
 30
0.0
 11
851.0939094842433
 21
1164.982612960343
 31
0.0
  0
LINE
  5
30D
330
17
100
AcDbEntity
  8
4
100
AcDbLine
 10
675.7940054842434
 20
1392.53234503093
 30
0.0
 11
674.7940054842434
 21
1393.53234503093
 31
0.0
  0
LINE
  5
30E
330
17
100
AcDbEntity
  8
4
100
AcDbLine
 10
674.7940054842434
 20
1393.53234503093
 30
0.0
 11
608.7940054842434
 21
1393.53234503093
 31
0.0
  0
LINE
  5
30F
330
17
100
AcDbEntity
  8
4
100
AcDbLine
 10
650.7940054842434
 20
1392.53234503093
 30
0.0
 11
675.7940054842434
 21
1392.53234503093
 31
0.0
  0
LINE
  5
310
330
17
100
AcDbEntity
  8
4
100
AcDbLine
 10
607.7940054842434
 20
1392.53234503093
 30
0.0
 11
632.7940054842434
 21
1392.53234503093
 31
0.0
  0
LINE
  5
311
330
17
100
AcDbEntity
  8
4
100
AcDbLine
 10
607.7940054842434
 20
1392.53234503093
 30
0.0
 11
608.7940054842434
 21
1393.53234503093
 31
0.0
  0
ARC
  5
312
330
17
100
AcDbEntity
  8
4
100
AcDbCircle
 10
706.0132290778392
 20
1262.53234503093
 30
0.0
 40
1.0
100
AcDbArc
 50
14.03624346792014
 51
90.0
  0
ARC
  5
313
330
17
100
AcDbEntity
  8
4
100
AcDbCircle
 10
749.8244971667232
 20
1233.880248734876
 30
0.0
 40
2.0
100
AcDbArc
 50
342.5661388826788
 51
349.9823318517376
  0
LINE
  5
314
330
17
100
AcDbEntity
  8
4
100
AcDbLine
 10
741.1552214164108
 20
1226.43234503093
 30
0.0
 11
726.4327895520755
 21
1226.43234503093
 31
0.0
  0
ARC
  5
315
330
17
100
AcDbEntity
  8
4
100
AcDbCircle
 10
733.7940054842434
 20
1212.653179733471
 30
0.0
 40
13.77916529745958
100
AcDbArc
 50
69.13593563608042
 51
110.8640643639196
  0
ARC
  5
316
330
17
100
AcDbEntity
  8
4
100
AcDbCircle
 10
726.4327895520755
 20
1222.648731101871
 30
0.0
 40
3.783613929059507
100
AcDbArc
 50
49.57010315517471
 51
130.4298968448253
  0
ARC
  5
317
330
17
100
AcDbEntity
  8
4
100
AcDbCircle
 10
741.1552214164108
 20
1222.648731101871
 30
0.0
 40
3.783613929059507
100
AcDbArc
 50
49.57010315516856
 51
130.4298968448315
  0
LINE
  5
318
330
17
100
AcDbEntity
  8
4
100
AcDbLine
 10
723.9790509080194
 20
1216.93234503093
 30
0.0
 11
743.6089600604669
 21
1216.93234503093
 31
0.0
  0
LINE
  5
319
330
17
100
AcDbEntity
  8
4
100
AcDbLine
 10
723.9790509080194
 20
1219.43234503093
 30
0.0
 11
743.6089600604669
 21
1219.43234503093
 31
0.0
  0
LINE
  5
31A
330
17
100
AcDbEntity
  8
4
100
AcDbLine
 10
723.9790509080194
 20
1225.528818085078
 30
0.0
 11
723.9790509080194
 21
1216.93234503093
 31
0.0
  0
LINE
  5
31B
330
17
100
AcDbEntity
  8
4
100
AcDbLine
 10
728.8865281961312
 20
1225.528818085078
 30
0.0
 11
728.8865281961312
 21
1219.43234503093
 31
0.0
  0
LINE
  5
31C
330
17
100
AcDbEntity
  8
4
100
AcDbLine
 10
743.6089600604669
 20
1216.93234503093
 30
0.0
 11
743.6089600604669
 21
1225.528818085078
 31
0.0
  0
LINE
  5
31D
330
17
100
AcDbEntity
  8
4
100
AcDbLine
 10
738.7014827723551
 20
1225.528818085078
 30
0.0
 11
738.7014827723551
 21
1219.43234503093
 31
0.0
  0
LINE
  5
31E
330
17
100
AcDbEntity
  8
L-CENTER
100
AcDbLine
 10
733.7940054842434
 20
1189.840810568495
 30
0.0
 11
733.7940054842434
 21
1229.300323285511
 31
0.0
  0
LINE
  5
31F
330
17
100
AcDbEntity
  8
4
100
AcDbLine
 10
711.7940054842438
 20
1243.53234503093
 30
0.0
 11
706.9833715779841
 21
1262.774880655967
 31
0.0
  0
LINE
  5
320
330
17
100
AcDbEntity
  8
4
100
AcDbLine
 10
786.7940054842434
 20
1278.53234503093
 30
0.0
 11
786.7940054842434
 21
1222.443885098512
 31
0.0
  0
LINE
  5
321
330
17
100
AcDbEntity
  8
4
100
AcDbLine
 10
676.7940054842434
 20
1264.53234503093
 30
0.0
 11
676.7940054842434
 21
1273.53234503093
 31
0.0
  0
LINE
  5
322
330
17
100
AcDbEntity
  8
4
100
AcDbLine
 10
691.7940054842434
 20
1264.53234503093
 30
0.0
 11
691.7940054842434
 21
1263.53234503093
 31
0.0
  0
ARC
  5
323
330
17
100
AcDbEntity
  8
4
100
AcDbCircle
 10
676.7940054842434
 20
1274.532345030931
 30
0.0
 40
1.0
100
AcDbArc
 50
180.0
 51
270.0
  0
ARC
  5
324
330
17
100
AcDbEntity
  8
4
100
AcDbCircle
 10
641.7940054842434
 20
1292.532345030931
 30
0.0
 40
9.0
100
AcDbArc
 50
180.0
 51
0.0
  0
LINE
  5
325
330
17
100
AcDbEntity
  8
4
100
AcDbLine
 10
691.7940054842434
 20
1245.53234503093
 30
0.0
 11
691.7940054842434
 21
1243.53234503093
 31
0.0
  0
LINE
  5
326
330
17
100
AcDbEntity
  8
4
100
AcDbLine
 10
661.7940054842434
 20
1233.53234503093
 30
0.0
 11
661.7940054842434
 21
1220.898430553057
 31
0.0
  0
LINE
  5
327
330
17
100
AcDbEntity
  8
4
100
AcDbLine
 10
691.7940054842434
 20
1243.53234503093
 30
0.0
 11
682.2319139809756
 21
1216.93234503093
 31
0.0
  0
LINE
  5
328
330
17
100
AcDbEntity
  8
4
100
AcDbLine
 10
691.7940054842434
 20
1245.53234503093
 30
0.0
 11
681.5129597326095
 21
1216.93234503093
 31
0.0
  0
LINE
  5
329
330
17
100
AcDbEntity
  8
4
100
AcDbLine
 10
621.7940054842434
 20
1233.532345030931
 30
0.0
 11
621.7940054842434
 21
1220.898430553057
 31
0.0
  0
LINE
  5
32A
330
17
100
AcDbEntity
  8
4
100
AcDbLine
 10
661.7940054842434
 20
1233.53234503093
 30
0.0
 11
621.7940054842434
 21
1233.532345030931
 31
0.0
  0
LINE
  5
32B
330
17
100
AcDbEntity
  8
4
100
AcDbLine
 10
661.7940054842429
 20
1220.898430553057
 30
0.0
 11
621.7940054842434
 21
1220.898430553057
 31
0.0
  0
LINE
  5
32C
330
17
100
AcDbEntity
  8
4
100
AcDbLine
 10
691.7940054842434
 20
1243.53234503093
 30
0.0
 11
706.0132290778392
 21
1243.53234503093
 31
0.0
  0
ARC
  5
32D
330
17
100
AcDbEntity
  8
4
100
AcDbCircle
 10
665.5440054842434
 20
1123.53234503093
 30
0.0
 40
6.25
100
AcDbArc
 50
270.0
 51
90.0
  0
ARC
  5
32E
330
17
100
AcDbEntity
  8
4
100
AcDbCircle
 10
618.0440054842434
 20
1123.53234503093
 30
0.0
 40
6.25
100
AcDbArc
 50
90.0
 51
270.0
  0
ARC
  5
32F
330
17
100
AcDbEntity
  8
4
100
AcDbCircle
 10
641.7940054842434
 20
1123.53234503093
 30
0.0
 40
13.5
100
AcDbArc
 50
27.57846797812199
 51
152.421532021878
  0
ARC
  5
330
330
17
100
AcDbEntity
  8
4
100
AcDbCircle
 10
641.7940054842434
 20
1123.53234503093
 30
0.0
 40
13.5
100
AcDbArc
 50
207.5784679781241
 51
332.4215320218769
  0
ARC
  5
331
330
17
100
AcDbEntity
  8
4
100
AcDbCircle
 10
641.7940054842434
 20
1123.53234503093
 30
0.0
 40
20.0
100
AcDbArc
 50
198.209956864283
 51
341.790043135717
  0
LINE
  5
332
330
17
100
AcDbEntity
  8
4
100
AcDbLine
 10
618.0440054842434
 20
1117.28234503093
 30
0.0
 11
665.5440054842434
 21
1117.28234503093
 31
0.0
  0
LINE
  5
333
330
17
100
AcDbEntity
  8
4
100
AcDbLine
 10
618.0440054842434
 20
1129.78234503093
 30
0.0
 11
665.5440054842434
 21
1129.78234503093
 31
0.0
  0
ARC
  5
334
330
17
100
AcDbEntity
  8
4
100
AcDbCircle
 10
641.7940054842434
 20
1123.53234503093
 30
0.0
 40
15.0
100
AcDbArc
 50
24.62431835216307
 51
155.3756816478369
  0
ARC
  5
335
330
17
100
AcDbEntity
  8
4
100
AcDbCircle
 10
641.7940054842434
 20
1123.53234503093
 30
0.0
 40
15.0
100
AcDbArc
 50
204.624318352165
 51
335.3756816478359
  0
ARC
  5
336
330
17
100
AcDbEntity
  8
4
100
AcDbCircle
 10
641.7940054842434
 20
1123.53234503093
 30
0.0
 40
20.0
100
AcDbArc
 50
18.20995686428299
 51
161.790043135717
  0
LINE
  5
337
330
17
100
AcDbEntity
  8
4
100
AcDbLine
 10
691.452302557725
 20
1004.309345030931
 30
0.0
 11
680.5592148384253
 21
1032.532345030931
 31
0.0
  0
LINE
  5
338
330
17
100
AcDbEntity
  8
4
100
AcDbLine
 10
692.5242022328382
 20
1004.309345030931
 30
0.0
 11
681.6311145135405
 21
1032.532345030931
 31
0.0
  0
ARC
  5
339
330
17
100
AcDbEntity
  8
4
100
AcDbCircle
 10
606.7940054842434
 20
1274.532345030931
 30
0.0
 40
1.0
100
AcDbArc
 50
270.0
 51
0.0
  0
LINE
  5
33A
330
17
100
AcDbEntity
  8
4
100
AcDbLine
 10
591.7940054842434
 20
1264.53234503093
 30
0.0
 11
591.7940054842434
 21
1263.53234503093
 31
0.0
  0
LINE
  5
33B
330
17
100
AcDbEntity
  8
4
100
AcDbLine
 10
606.7940054842434
 20
1264.53234503093
 30
0.0
 11
606.7940054842434
 21
1273.53234503093
 31
0.0
  0
ARC
  5
33C
330
17
100
AcDbEntity
  8
4
100
AcDbCircle
 10
577.574781890648
 20
1262.53234503093
 30
0.0
 40
1.0
100
AcDbArc
 50
90.0
 51
165.9637565320799
  0
LINE
  5
33D
330
17
100
AcDbEntity
  8
4
100
AcDbLine
 10
591.7940054842434
 20
1245.53234503093
 30
0.0
 11
591.7940054842434
 21
1243.53234503093
 31
0.0
  0
LINE
  5
33E
330
17
100
AcDbEntity
  8
4
100
AcDbLine
 10
577.574781890648
 20
1243.53234503093
 30
0.0
 11
591.7940054842434
 21
1243.53234503093
 31
0.0
  0
LINE
  5
33F
330
17
100
AcDbEntity
  8
4
100
AcDbLine
 10
591.7940054842434
 20
1245.53234503093
 30
0.0
 11
602.0750512358777
 21
1216.93234503093
 31
0.0
  0
LINE
  5
340
330
17
100
AcDbEntity
  8
4
100
AcDbLine
 10
591.7940054842434
 20
1243.53234503093
 30
0.0
 11
601.3560969875111
 21
1216.93234503093
 31
0.0
  0
ARC
  5
341
330
17
100
AcDbEntity
  8
4
100
AcDbCircle
 10
557.1552214164112
 20
1222.648731101871
 30
0.0
 40
3.783613929059507
100
AcDbArc
 50
49.57010315517471
 51
130.4298968448253
  0
LINE
  5
342
330
17
100
AcDbEntity
  8
4
100
AcDbLine
 10
542.432789552076
 20
1226.43234503093
 30
0.0
 11
557.1552214164112
 21
1226.43234503093
 31
0.0
  0
ARC
  5
343
330
17
100
AcDbEntity
  8
4
100
AcDbCircle
 10
549.7940054842434
 20
1212.653179733471
 30
0.0
 40
13.77916529745958
100
AcDbArc
 50
69.13593563608042
 51
110.8640643639196
  0
ARC
  5
344
330
17
100
AcDbEntity
  8
4
100
AcDbCircle
 10
538.7940054842434
 20
1235.42570328033
 30
0.0
 40
2.0
100
AcDbArc
 50
180.0
 51
197.1759036157507
  0
LINE
  5
345
330
17
100
AcDbEntity
  8
4
100
AcDbLine
 10
536.7940054842434
 20
1235.53234503093
 30
0.0
 11
536.7940054842434
 21
1235.42570328033
 31
0.0
  0
ARC
  5
346
330
17
100
AcDbEntity
  8
4
100
AcDbCircle
 10
542.432789552076
 20
1222.648731101871
 30
0.0
 40
3.783613929059507
100
AcDbArc
 50
49.57010315516856
 51
130.4298968448315
  0
LINE
  5
347
330
17
100
AcDbEntity
  8
4
100
AcDbLine
 10
559.6089600604673
 20
1219.43234503093
 30
0.0
 11
539.9790509080199
 21
1219.43234503093
 31
0.0
  0
LINE
  5
348
330
17
100
AcDbEntity
  8
4
100
AcDbLine
 10
559.6089600604673
 20
1216.93234503093
 30
0.0
 11
539.9790509080199
 21
1216.93234503093
 31
0.0
  0
LINE
  5
349
330
17
100
AcDbEntity
  8
L-CENTER
100
AcDbLine
 10
549.7940054842434
 20
1189.840810568495
 30
0.0
 11
549.7940054842434
 21
1229.300323285511
 31
0.0
  0
LINE
  5
34A
330
17
100
AcDbEntity
  8
4
100
AcDbLine
 10
554.7014827723556
 20
1225.528818085078
 30
0.0
 11
554.7014827723556
 21
1219.43234503093
 31
0.0
  0
LINE
  5
34B
330
17
100
AcDbEntity
  8
4
100
AcDbLine
 10
544.8865281961316
 20
1225.528818085078
 30
0.0
 11
544.8865281961316
 21
1219.43234503093
 31
0.0
  0
LINE
  5
34C
330
17
100
AcDbEntity
  8
4
100
AcDbLine
 10
539.9790509080199
 20
1216.93234503093
 30
0.0
 11
539.9790509080199
 21
1225.528818085078
 31
0.0
  0
LINE
  5
34D
330
17
100
AcDbEntity
  8
4
100
AcDbLine
 10
559.6089600604673
 20
1225.528818085078
 30
0.0
 11
559.6089600604673
 21
1216.93234503093
 31
0.0
  0
LINE
  5
34E
330
17
100
AcDbEntity
  8
4
100
AcDbLine
 10
571.7940054842434
 20
1243.53234503093
 30
0.0
 11
576.6046393905026
 21
1262.774880655967
 31
0.0
  0
ARC
  5
34F
330
17
100
AcDbEntity
  8
4
100
AcDbCircle
 10
491.7940054842434
 20
1278.53234503093
 30
0.0
 40
5.0
100
AcDbArc
 50
0.0
 51
90.0
  0
LINE
  5
350
330
17
100
AcDbEntity
  8
4
100
AcDbLine
 10
486.7940054842434
 20
1235.53234503093
 30
0.0
 11
486.7940054842434
 21
1219.352976007603
 31
0.0
  0
ARC
  5
351
330
17
100
AcDbEntity
  8
4
100
AcDbCircle
 10
465.1552214164112
 20
1222.648731101871
 30
0.0
 40
3.783613929059507
100
AcDbArc
 50
49.57010315517471
 51
130.4298968448315
  0
ARC
  5
352
330
17
100
AcDbEntity
  8
4
100
AcDbCircle
 10
457.7940054842434
 20
1212.653179733471
 30
0.0
 40
13.77916529745958
100
AcDbArc
 50
69.13593563607996
 51
110.8640643639201
  0
LINE
  5
353
330
17
100
AcDbEntity
  8
4
100
AcDbLine
 10
450.432789552076
 20
1226.43234503093
 30
0.0
 11
465.1552214164112
 21
1226.43234503093
 31
0.0
  0
ARC
  5
354
330
17
100
AcDbEntity
  8
4
100
AcDbCircle
 10
450.432789552076
 20
1222.648731101871
 30
0.0
 40
3.783613929059507
100
AcDbArc
 50
49.57010315517471
 51
130.4298968448315
  0
LINE
  5
355
330
17
100
AcDbEntity
  8
4
100
AcDbLine
 10
461.7940054842434
 20
1199.532345030931
 30
0.0
 11
461.7940054842434
 21
1208.53234503093
 31
0.0
  0
ARC
  5
356
330
17
100
AcDbEntity
  8
4
100
AcDbCircle
 10
435.9940054842436
 20
1207.53234503093
 30
0.0
 40
1.0
100
AcDbArc
 50
90.0
 51
180.0
  0
ARC
  5
357
330
17
100
AcDbEntity
  8
4
100
AcDbCircle
 10
448.7940054842434
 20
1215.93234503093
 30
0.0
 40
1.0
100
AcDbArc
 50
90.0
 51
180.0
  0
LINE
  5
358
330
17
100
AcDbEntity
  8
4
100
AcDbLine
 10
447.7940054842434
 20
1215.93234503093
 30
0.0
 11
447.7940054842434
 21
1208.53234503093
 31
0.0
  0
LINE
  5
359
330
17
100
AcDbEntity
  8
4
100
AcDbLine
 10
435.9940054842436
 20
1208.53234503093
 30
0.0
 11
461.7940054842434
 21
1208.53234503093
 31
0.0
  0
LINE
  5
35A
330
17
100
AcDbEntity
  8
4
100
AcDbLine
 10
467.6089600604673
 20
1216.93234503093
 30
0.0
 11
447.9790509080199
 21
1216.93234503093
 31
0.0
  0
LINE
  5
35B
330
17
100
AcDbEntity
  8
4
100
AcDbLine
 10
467.6089600604673
 20
1219.43234503093
 30
0.0
 11
447.9790509080199
 21
1219.43234503093
 31
0.0
  0
LINE
  5
35C
330
17
100
AcDbEntity
  8
L-CENTER
100
AcDbLine
 10
457.7940054842434
 20
1189.840810568495
 30
0.0
 11
457.7940054842434
 21
1229.300323285511
 31
0.0
  0
LINE
  5
35D
330
17
100
AcDbEntity
  8
4
100
AcDbLine
 10
447.9790509080199
 20
1216.93234503093
 30
0.0
 11
447.9790509080199
 21
1225.528818085078
 31
0.0
  0
LINE
  5
35E
330
17
100
AcDbEntity
  8
4
100
AcDbLine
 10
462.7014827723556
 20
1225.528818085078
 30
0.0
 11
462.7014827723556
 21
1219.43234503093
 31
0.0
  0
LINE
  5
35F
330
17
100
AcDbEntity
  8
4
100
AcDbLine
 10
467.6089600604673
 20
1225.528818085078
 30
0.0
 11
467.6089600604673
 21
1216.93234503093
 31
0.0
  0
LINE
  5
360
330
17
100
AcDbEntity
  8
4
100
AcDbLine
 10
452.8865281961316
 20
1225.528818085078
 30
0.0
 11
452.8865281961316
 21
1219.43234503093
 31
0.0
  0
ARC
  5
361
330
17
100
AcDbEntity
  8
4
100
AcDbCircle
 10
438.1334255843158
 20
1164.48490516436
 30
0.0
 40
50.0
100
AcDbArc
 50
44.50317579547803
 51
61.75702891283468
  0
LINE
  5
362
330
17
100
AcDbEntity
  8
L-CENTER
100
AcDbLine
 10
435.4585679077195
 20
1253.53234503093
 30
0.0
 11
478.1294430607672
 21
1253.53234503093
 31
0.0
  0
LINE
  5
363
330
17
100
AcDbEntity
  8
L-CENTER
100
AcDbLine
 10
456.7940054842434
 20
1274.867782607454
 30
0.0
 11
456.7940054842434
 21
1232.196907454407
 31
0.0
  0
CIRCLE
  5
364
330
17
100
AcDbEntity
  8
4
100
AcDbCircle
 10
456.7940054842434
 20
1253.53234503093
 30
0.0
 40
11.0
  0
LINE
  5
365
330
17
100
AcDbEntity
  8
4
100
AcDbLine
 10
496.7940054842434
 20
1278.53234503093
 30
0.0
 11
496.7940054842434
 21
1235.53234503093
 31
0.0
  0
LINE
  5
366
330
17
100
AcDbEntity
  8
4
100
AcDbLine
 10
571.7940054842434
 20
1243.53234503093
 30
0.0
 11
485.7351819548317
 21
1216.93234503093
 31
0.0
  0
LINE
  5
367
330
17
100
AcDbEntity
  8
4
100
AcDbLine
 10
478.9625523244208
 20
1216.93234503093
 30
0.0
 11
572.3611715124057
 21
1245.80100914358
 31
0.0
  0
LINE
  5
368
330
17
100
AcDbEntity
  8
4
100
AcDbLine
 10
486.7940054842434
 20
1235.53234503093
 30
0.0
 11
536.7940054842434
 21
1235.53234503093
 31
0.0
  0
LWPOLYLINE
  5
369
330
17
100
AcDbEntity
  8
4
100
AcDbPolyline
 90
        6
 70
     1
 43
0.0
 10
566.7940054842434
 20
1123.53234503093
 10
555.2940054842434
 20
1143.450929317972
 10
532.2940054842434
 20
1143.450929317972
 10
520.7940054842434
 20
1123.53234503093
 10
532.2940054842434
 20
1103.613760743888
 10
555.2940054842434
 20
1103.613760743888
  0
LINE
  5
36A
330
17
100
AcDbEntity
  8
4
100
AcDbLine
 10
592.1357084107616
 20
1004.30934503093
 30
0.0
 11
603.0287961300614
 21
1032.532345030931
 31
0.0
  0
LINE
  5
36B
330
17
100
AcDbEntity
  8
4
100
AcDbLine
 10
591.0638087356483
 20
1004.30934503093
 30
0.0
 11
601.9568964549462
 21
1032.532345030931
 31
0.0
  0
CIRCLE
  5
36C
330
17
100
AcDbEntity
  8
4
100
AcDbCircle
 10
543.7940054842434
 20
1123.53234503093
 30
0.0
 40
23.0
  0
CIRCLE
  5
36D
330
17
100
AcDbEntity
  8
4
100
AcDbCircle
 10
543.7940054842434
 20
1123.53234503093
 30
0.0
 40
25.0
  0
LINE
  5
36E
330
17
100
AcDbEntity
  8
L-CENTER
100
AcDbLine
 10
543.7940054842434
 20
1090.341879513785
 30
0.0
 11
543.7940054842434
 21
1156.722810548076
 31
0.0
  0
LINE
  5
36F
330
17
100
AcDbEntity
  8
L-CENTER
100
AcDbLine
 10
469.7940054842434
 20
1105.212795969103
 30
0.0
 11
469.7940054842434
 21
1141.851894092758
 31
0.0
  0
CIRCLE
  5
370
330
17
100
AcDbEntity
  8
4
100
AcDbCircle
 10
469.7940054842434
 20
1123.53234503093
 30
0.0
 40
11.0
  0
LINE
  5
371
330
17
100
AcDbEntity
  8
4
100
AcDbLine
 10
461.7940054842434
 20
1038.53234503093
 30
0.0
 11
461.7940054842434
 21
1047.53234503093
 31
0.0
  0
LINE
  5
372
330
17
100
AcDbEntity
  8
4
100
AcDbLine
 10
447.7940054842434
 20
1032.53234503093
 30
0.0
 11
447.7940054842434
 21
1038.53234503093
 31
0.0
  0
ARC
  5
373
330
17
100
AcDbEntity
  8
4
100
AcDbCircle
 10
435.9940054842432
 20
1039.53234503093
 30
0.0
 40
1.0
100
AcDbArc
 50
180.0
 51
270.0
  0
LINE
  5
374
330
17
100
AcDbEntity
  8
4
100
AcDbLine
 10
435.9940054842432
 20
1038.53234503093
 30
0.0
 11
461.7940054842434
 21
1038.532345030931
 31
0.0
  0
LINE
  5
375
330
17
100
AcDbEntity
  8
4
100
AcDbLine
 10
432.4941014842434
 20
1062.466917030931
 30
0.0
 11
432.4941014842434
 21
1082.06701303093
 31
0.0
  0
LINE
  5
376
330
17
100
AcDbEntity
  8
4
100
AcDbLine
 10
434.9941014842434
 20
1062.45216794907
 30
0.0
 11
434.9941014842434
 21
1082.082077101518
 31
0.0
  0
LINE
  5
377
330
17
100
AcDbEntity
  8
4
100
AcDbLine
 10
432.4941014842434
 20
1062.45216794907
 30
0.0
 11
432.4941014842434
 21
1082.082077101518
 31
0.0
  0
ARC
  5
378
330
17
100
AcDbEntity
  8
4
100
AcDbCircle
 10
438.1334255843158
 20
1082.579784897501
 30
0.0
 40
50.0
100
AcDbArc
 50
298.2429710871652
 51
315.4968242045218
  0
LINE
  5
379
330
17
100
AcDbEntity
  8
4
100
AcDbLine
 10
434.9940054842432
 20
1039.53234503093
 30
0.0
 11
434.9940054842436
 21
1207.53234503093
 31
0.0
  0
LINE
  5
37A
330
17
100
AcDbEntity
  8
4
100
AcDbLine
 10
455.7940054842434
 20
1038.53234503093
 30
0.0
 11
455.7940054842434
 21
1208.53234503093
 31
0.0
  0
LINE
  5
37B
330
17
100
AcDbEntity
  8
4
100
AcDbLine
 10
448.7940054842434
 20
1038.53234503093
 30
0.0
 11
448.7940054842434
 21
1208.53234503093
 31
0.0
  0
LINE
  5
37C
330
17
100
AcDbEntity
  8
4
100
AcDbLine
 10
432.4941014842434
 20
1184.612522112791
 30
0.0
 11
432.4941014842434
 21
1164.982612960343
 31
0.0
  0
LINE
  5
37D
330
17
100
AcDbEntity
  8
4
100
AcDbLine
 10
434.9941014842434
 20
1184.612522112791
 30
0.0
 11
434.9941014842434
 21
1164.982612960343
 31
0.0
  0
LINE
  5
37E
330
17
100
AcDbEntity
  8
4
100
AcDbLine
 10
606.7940054842434
 20
1273.53234503093
 30
0.0
 11
676.7940054842434
 21
1273.53234503093
 31
0.0
  0
LINE
  5
37F
330
17
100
AcDbEntity
  8
4
100
AcDbLine
 10
591.7940054842434
 20
1264.53234503093
 30
0.0
 11
691.7940054842434
 21
1264.53234503093
 31
0.0
  0
LINE
  5
380
330
17
100
AcDbEntity
  8
4
100
AcDbLine
 10
591.7940054842434
 20
1245.53234503093
 30
0.0
 11
691.7940054842434
 21
1245.53234503093
 31
0.0
  0
LINE
  5
381
330
17
100
AcDbEntity
  8
4
100
AcDbLine
 10
577.574781890648
 20
1263.53234503093
 30
0.0
 11
706.0132290778392
 21
1263.53234503093
 31
0.0
  0
LINE
  5
382
330
17
100
AcDbEntity
  8
4
100
AcDbLine
 10
650.7940054842434
 20
1393.53234503093
 30
0.0
 11
650.7940054842434
 21
1292.53234503093
 31
0.0
  0
LINE
  5
383
330
17
100
AcDbEntity
  8
4
100
AcDbLine
 10
632.7940054842434
 20
1393.53234503093
 30
0.0
 11
632.7940054842434
 21
1292.53234503093
 31
0.0
  0
LINE
  5
384
330
17
100
AcDbEntity
  8
4
100
AcDbLine
 10
607.7940054842434
 20
1274.53234503093
 30
0.0
 11
607.7940054842434
 21
1392.53234503093
 31
0.0
  0
LINE
  5
385
330
17
100
AcDbEntity
  8
4
100
AcDbLine
 10
675.7940054842434
 20
1274.53234503093
 30
0.0
 11
675.7940054842434
 21
1392.53234503093
 31
0.0
  0
LINE
  5
386
330
17
100
AcDbEntity
  8
4
100
AcDbLine
 10
448.7940054842434
 20
1216.93234503093
 30
0.0
 11
834.7940054842434
 21
1216.93234503093
 31
0.0
  0
LINE
  5
387
330
17
100
AcDbEntity
  8
4
100
AcDbLine
 10
447.7940054842434
 20
1032.53234503093
 30
0.0
 11
835.7940054842434
 21
1032.532345030931
 31
0.0
  0
LINE
  5
388
330
17
100
AcDbEntity
  8
4
100
AcDbLine
 10
455.7940054842434
 20
1047.53234503093
 30
0.0
 11
827.7940054842434
 21
1047.532345030931
 31
0.0
  0
LINE
  5
389
330
17
100
AcDbEntity
  8
4
100
AcDbLine
 10
455.7940054842434
 20
1199.532345030931
 30
0.0
 11
827.7940054842434
 21
1199.53234503093
 31
0.0
  0
LINE
  5
38A
330
17
100
AcDbEntity
  8
4
100
AcDbLine
 10
470.5740223667376
 20
1202.532345030931
 30
0.0
 11
813.0139886017491
 21
1202.53234503093
 31
0.0
  0
LINE
  5
38B
330
17
100
AcDbEntity
  8
4
100
AcDbLine
 10
472.7828423047454
 20
1200.53234503093
 30
0.0
 11
810.8051686637414
 21
1200.53234503093
 31
0.0
  0
LINE
  5
38C
330
17
100
AcDbEntity
  8
4
100
AcDbLine
 10
472.7828423047454
 20
1046.53234503093
 30
0.0
 11
679.7511483408198
 21
1046.532345030931
 31
0.0
  0
LINE
  5
38D
330
17
100
AcDbEntity
  8
4
100
AcDbLine
 10
799.7940054842468
 20
1046.532345030931
 30
0.0
 11
810.8051686637414
 21
1046.532345030931
 31
0.0
  0
LINE
  5
38E
330
17
100
AcDbEntity
  8
4
100
AcDbLine
 10
804.6254586440659
 20
1216.93234503093
 30
0.0
 11
711.226839456081
 21
1245.80100914358
 31
0.0
  0
LINE
  5
38F
330
17
100
AcDbEntity
  8
4
100
AcDbLine
 10
711.7940054842434
 20
1243.53234503093
 30
0.0
 11
797.8528290136551
 21
1216.93234503093
 31
0.0
  0
ARC
  5
390
330
17
100
AcDbEntity
  8
4
100
AcDbCircle
 10
791.7940054842434
 20
1278.53234503093
 30
0.0
 40
5.0
100
AcDbArc
 50
90.0
 51
180.0
  0
ARC
  5
391
330
17
100
AcDbEntity
  8
4
100
AcDbCircle
 10
856.7940054842434
 20
968.5323450309306
 30
0.0
 40
5.0
100
AcDbArc
 50
270.0
 51
0.0
  0
LINE
  5
392
330
17
100
AcDbEntity
  8
L-CENTER
100
AcDbLine
 10
826.7940054842434
 20
972.1969074544068
 30
0.0
 11
826.7940054842434
 21
1014.867782607454
 31
0.0
  0
LINE
  5
393
330
17
100
AcDbEntity
  8
L-CENTER
100
AcDbLine
 10
805.4585679077195
 20
993.5323450309304
 30
0.0
 11
848.1294430607672
 21
993.5323450309304
 31
0.0
  0
LINE
  5
394
330
17
100
AcDbEntity
  8
4
100
AcDbLine
 10
791.7940054842434
 20
963.5323450309304
 30
0.0
 11
856.7940054842434
 21
963.5323450309306
 31
0.0
  0
CIRCLE
  5
395
330
17
100
AcDbEntity
  8
4
100
AcDbCircle
 10
826.7940054842434
 20
993.5323450309304
 30
0.0
 40
11.0
  0
LINE
  5
39F
330
17
100
AcDbEntity
  8
4
100
AcDbLine
 10
857.1903825383911
 20
539.3769374141518
 30
0.0
 11
851.0939094842433
 21
539.3769374141518
 31
0.0
  0
LINE
  5
3A0
330
17
100
AcDbEntity
  8
4
100
AcDbLine
 10
857.1903825383911
 20
544.2844147022636
 30
0.0
 11
848.5939094842433
 21
544.2844147022636
 31
0.0
  0
ARC
  5
3A1
330
17
100
AcDbEntity
  8
4
100
AcDbCircle
 10
854.310295555184
 20
541.8306760582075
 30
0.0
 40
3.783613929059507
100
AcDbArc
 50
319.5701031551723
 51
40.42989684482771
  0
LINE
  5
3A2
330
17
100
AcDbEntity
  8
4
100
AcDbLine
 10
824.7940054842434
 20
589.2042376204033
 30
0.0
 11
813.7940054842434
 21
589.2042376204033
 31
0.0
  0
LINE
  5
3A3
330
17
100
AcDbEntity
  8
4
100
AcDbLine
 10
822.7940054842434
 20
590.2042376204033
 30
0.0
 11
813.7940054842434
 21
590.2042376204033
 31
0.0
  0
LINE
  5
3A4
330
17
100
AcDbEntity
  8
4
100
AcDbLine
 10
813.7940054842434
 20
587.2042376204033
 30
0.0
 11
824.7940054842434
 21
587.2042376204033
 31
0.0
  0
ARC
  5
3A5
330
17
100
AcDbEntity
  8
4
100
AcDbCircle
 10
823.7940054842434
 20
573.2042376204033
 30
0.0
 40
4.0
100
AcDbArc
 50
90.0
 51
180.0
  0
LINE
  5
3A6
330
17
100
AcDbEntity
  8
4
100
AcDbLine
 10
823.7940054842434
 20
577.2042376204033
 30
0.0
 11
813.7940054842434
 21
577.2042376204033
 31
0.0
  0
ARC
  5
3A7
330
17
100
AcDbEntity
  8
4
100
AcDbCircle
 10
816.7940054842434
 20
568.2042376204033
 30
0.0
 40
5.0
100
AcDbArc
 50
53.13010200000199
 51
126.869897999998
  0
LINE
  5
3A8
330
17
100
AcDbEntity
  8
4
100
AcDbLine
 10
823.7940054842434
 20
577.2042376204033
 30
0.0
 11
823.7940054842434
 21
587.2042376204033
 31
0.0
  0
LINE
  5
3A9
330
17
100
AcDbEntity
  8
4
100
AcDbLine
 10
824.7940054842434
 20
589.2042376204033
 30
0.0
 11
824.7940054842434
 21
587.2042376204033
 31
0.0
  0
LINE
  5
3AA
330
17
100
AcDbEntity
  8
4
100
AcDbLine
 10
822.7940054842434
 20
590.2042376204033
 30
0.0
 11
824.7940054842434
 21
589.2042376204033
 31
0.0
  0
ARC
  5
3AB
330
17
100
AcDbEntity
  8
4
100
AcDbCircle
 10
803.7940054842434
 20
573.2042376204033
 30
0.0
 40
4.0
100
AcDbArc
 50
0.0
 51
90.0
  0
LINE
  5
3AC
330
17
100
AcDbEntity
  8
4
100
AcDbLine
 10
803.7940054842434
 20
577.2042376204033
 30
0.0
 11
803.7940054842434
 21
587.2042376204033
 31
0.0
  0
LINE
  5
3AD
330
17
100
AcDbEntity
  8
4
100
AcDbLine
 10
804.7940054842434
 20
590.2042376204033
 30
0.0
 11
802.7940054842434
 21
589.2042376204033
 31
0.0
  0
LINE
  5
3AE
330
17
100
AcDbEntity
  8
4
100
AcDbLine
 10
802.7940054842434
 20
589.2042376204033
 30
0.0
 11
802.7940054842434
 21
587.2042376204033
 31
0.0
  0
LINE
  5
3AF
330
17
100
AcDbEntity
  8
4
100
AcDbLine
 10
816.7940054842434
 20
573.2042376204033
 30
0.0
 11
810.7940054842434
 21
573.2042376204033
 31
0.0
  0
ARC
  5
3B0
330
17
100
AcDbEntity
  8
4
100
AcDbCircle
 10
810.7940054842434
 20
568.2042376204033
 30
0.0
 40
5.0
100
AcDbArc
 50
53.13010200000199
 51
126.869897999998
  0
LINE
  5
3B1
330
17
100
AcDbEntity
  8
4
100
AcDbLine
 10
803.7940054842434
 20
577.2042376204033
 30
0.0
 11
813.7940054842434
 21
577.2042376204033
 31
0.0
  0
LINE
  5
3B2
330
17
100
AcDbEntity
  8
4
100
AcDbLine
 10
813.7940054842434
 20
587.2042376204033
 30
0.0
 11
802.7940054842434
 21
587.2042376204033
 31
0.0
  0
LINE
  5
3B3
330
17
100
AcDbEntity
  8
4
100
AcDbLine
 10
804.7940054842434
 20
590.2042376204033
 30
0.0
 11
813.7940054842434
 21
590.2042376204033
 31
0.0
  0
LINE
  5
3B4
330
17
100
AcDbEntity
  8
4
100
AcDbLine
 10
802.7940054842434
 20
589.2042376204033
 30
0.0
 11
813.7940054842434
 21
589.2042376204033
 31
0.0
  0
LINE
  5
3B5
330
17
100
AcDbEntity
  8
4
100
AcDbLine
 10
819.7940054842434
 20
568.2042376204033
 30
0.0
 11
813.7940054842434
 21
568.2042376204033
 31
0.0
  0
LINE
  5
3B6
330
17
100
AcDbEntity
  8
4
100
AcDbLine
 10
807.7940054842434
 20
568.2042376204033
 30
0.0
 11
813.7940054842434
 21
568.2042376204033
 31
0.0
  0
LINE
  5
3B7
330
17
100
AcDbEntity
  8
L-CENTER
100
AcDbLine
 10
813.7940054842434
 20
595.0737456204033
 30
0.0
 11
813.7940054842434
 21
555.9689362998377
 31
0.0
  0
LINE
  5
3B8
330
17
100
AcDbEntity
  8
4
100
AcDbLine
 10
819.7940054842434
 20
568.2042376204033
 30
0.0
 11
819.7940054842434
 21
573.2042376204033
 31
0.0
  0
LINE
  5
3B9
330
17
100
AcDbEntity
  8
4
100
AcDbLine
 10
807.7940054842434
 20
568.2042376204033
 30
0.0
 11
807.7940054842434
 21
573.2042376204033
 31
0.0
  0
LINE
  5
3BA
330
17
100
AcDbEntity
  8
L-CENTER
100
AcDbLine
 10
862.9375614842434
 20
534.4696176204034
 30
0.0
 11
822.8359087157414
 21
534.4691773012794
 31
0.0
  0
LINE
  5
3BC
330
17
100
AcDbEntity
  8
4
100
AcDbLine
 10
961.7940054842434
 20
505.2042376204033
 30
0.0
 11
960.7940054842434
 21
506.2042376204033
 31
0.0
  0
LINE
  5
3BD
330
17
100
AcDbEntity
  8
4
100
AcDbLine
 10
960.7940054842434
 20
460.2042376204033
 30
0.0
 11
961.7940054842434
 21
461.2042376204033
 31
0.0
  0
LINE
  5
3BE
330
17
100
AcDbEntity
  8
4
100
AcDbLine
 10
961.7940054842434
 20
509.7042376204033
 30
0.0
 11
961.7940054842434
 21
461.2042376204033
 31
0.0
  0
LINE
  5
3BF
330
17
100
AcDbEntity
  8
4
100
AcDbLine
 10
960.7940054842434
 20
506.2042376204033
 30
0.0
 11
960.7940054842434
 21
460.2042376204033
 31
0.0
  0
LINE
  5
3C0
330
17
100
AcDbEntity
  8
4
100
AcDbLine
 10
871.7940054842434
 20
509.7042376204033
 30
0.0
 11
871.7940054842434
 21
506.2042376204033
 31
0.0
  0
LINE
  5
3C1
330
17
100
AcDbEntity
  8
4
100
AcDbLine
 10
848.5939094842433
 20
524.6545055498161
 30
0.0
 11
857.1903825383911
 21
524.6545055498161
 31
0.0
  0
LINE
  5
3C2
330
17
100
AcDbEntity
  8
4
100
AcDbLine
 10
857.1903825383911
 20
529.5619828379279
 30
0.0
 11
851.0939094842433
 21
529.5619828379279
 31
0.0
  0
LINE
  5
3C3
330
17
100
AcDbEntity
  8
4
100
AcDbLine
 10
849.5939094842433
 20
519.2042376204033
 30
0.0
 11
848.5939094842433
 21
519.2042376204033
 31
0.0
  0
ARC
  5
3C4
330
17
100
AcDbEntity
  8
4
100
AcDbCircle
 10
854.310295555184
 20
527.1082441938722
 30
0.0
 40
3.783613929059507
100
AcDbArc
 50
319.5701031551699
 51
40.42989684482771
  0
LINE
  5
3C5
330
17
100
AcDbEntity
  8
4
100
AcDbLine
 10
861.7940054842434
 20
508.2042376204033
 30
0.0
 11
849.5939094842433
 21
508.2042376204033
 31
0.0
  0
LINE
  5
3C6
330
17
100
AcDbEntity
  8
4
100
AcDbLine
 10
849.5939094842433
 20
458.2042376204033
 30
0.0
 11
861.7940054842434
 21
458.2042376204033
 31
0.0
  0
LINE
  5
3C7
330
17
100
AcDbEntity
  8
4
100
AcDbLine
 10
861.7940054842434
 20
508.2042376204033
 30
0.0
 11
861.7940054842434
 21
458.2042376204033
 31
0.0
  0
LINE
  5
3C8
330
17
100
AcDbEntity
  8
4
100
AcDbLine
 10
821.7940054842434
 20
516.0817500407617
 30
0.0
 11
827.7940054842434
 21
516.0817500407617
 31
0.0
  0
ARC
  5
3C9
330
17
100
AcDbEntity
  8
4
100
AcDbCircle
 10
812.5027454842434
 20
453.9129776204034
 30
0.0
 40
4.999984
100
AcDbArc
 50
14.21741799999944
 51
75.77919899999851
  0
LINE
  5
3CA
330
17
100
AcDbEntity
  8
4
100
AcDbLine
 10
858.0939094842433
 20
439.3002310469344
 30
0.0
 11
858.0939094842433
 21
424.5777991825992
 31
0.0
  0
LINE
  5
3CB
330
17
100
AcDbEntity
  8
4
100
AcDbLine
 10
848.5939094842433
 20
441.7539696909905
 30
0.0
 11
857.1903825383911
 21
441.7539696909905
 31
0.0
  0
LINE
  5
3CC
330
17
100
AcDbEntity
  8
4
100
AcDbLine
 10
848.5939094842433
 20
422.1240605385431
 30
0.0
 11
848.5939094842433
 21
441.7539696909905
 31
0.0
  0
LINE
  5
3CD
330
17
100
AcDbEntity
  8
4
100
AcDbLine
 10
851.0939094842433
 20
422.1240605385431
 30
0.0
 11
851.0939094842433
 21
441.7539696909905
 31
0.0
  0
LINE
  5
3CE
330
17
100
AcDbEntity
  8
4
100
AcDbLine
 10
857.1903825383911
 20
427.0315378266548
 30
0.0
 11
851.0939094842433
 21
427.0315378266548
 31
0.0
  0
LINE
  5
3CF
330
17
100
AcDbEntity
  8
4
100
AcDbLine
 10
857.1903825383911
 20
436.8464924028788
 30
0.0
 11
851.0939094842433
 21
436.8464924028788
 31
0.0
  0
LINE
  5
3D0
330
17
100
AcDbEntity
  8
4
100
AcDbLine
 10
857.1903825383911
 20
422.1240605385431
 30
0.0
 11
848.5939094842433
 21
422.1240605385431
 31
0.0
  0
LINE
  5
3D1
330
17
100
AcDbEntity
  8
4
100
AcDbLine
 10
849.5939094842433
 20
447.2042376204033
 30
0.0
 11
848.5939094842433
 21
447.2042376204033
 31
0.0
  0
ARC
  5
3D2
330
17
100
AcDbEntity
  8
4
100
AcDbCircle
 10
854.310295555184
 20
439.3002310469345
 30
0.0
 40
3.783613929059507
100
AcDbArc
 50
319.5701031551699
 51
40.42989684483014
  0
ARC
  5
3D3
330
17
100
AcDbEntity
  8
4
100
AcDbCircle
 10
854.310295555184
 20
424.5777991825992
 30
0.0
 40
3.783613929059507
100
AcDbArc
 50
319.5701031551699
 51
40.42989684483014
  0
ARC
  5
3D4
330
17
100
AcDbEntity
  8
4
100
AcDbCircle
 10
844.3147441867836
 20
431.939015114767
 30
0.0
 40
13.77916529745958
100
AcDbArc
 50
339.1359356360801
 51
20.86406436391987
  0
LINE
  5
3D5
330
17
100
AcDbEntity
  8
4
100
AcDbLine
 10
821.7940054842434
 20
451.0860715747141
 30
0.0
 11
827.7940054842434
 21
451.0860715747141
 31
0.0
  0
LINE
  5
3D6
330
17
100
AcDbEntity
  8
4
100
AcDbLine
 10
827.7940054842434
 20
406.8123936204033
 30
0.0
 11
827.7940054842434
 21
451.0860715747141
 31
0.0
  0
LINE
  5
3D7
330
17
100
AcDbEntity
  8
4
100
AcDbLine
 10
829.2830174842434
 20
398.2042376204033
 30
0.0
 11
848.5939094842433
 21
398.2042376204033
 31
0.0
  0
LINE
  5
3D8
330
17
100
AcDbEntity
  8
L-CENTER
100
AcDbLine
 10
862.9375614842434
 20
431.9388576204033
 30
0.0
 11
822.834782930056
 21
431.9392979518885
 31
0.0
  0
ARC
  5
3D9
330
17
100
AcDbEntity
  8
4
100
AcDbCircle
 10
859.792563946171
 20
483.5839108077379
 30
0.0
 40
50.0
100
AcDbArc
 50
139.4616562984866
 51
220.5383437015134
  0
LINE
  5
3DA
330
17
100
AcDbEntity
  8
4
100
AcDbLine
 10
821.7940054842434
 20
516.0817500407617
 30
0.0
 11
821.7940054842434
 21
451.0860715747143
 31
0.0
  0
LINE
  5
3DB
330
17
100
AcDbEntity
  8
4
100
AcDbLine
 10
849.5939094842433
 20
447.2042376204033
 30
0.0
 11
849.5939094842433
 21
519.2042376204033
 31
0.0
  0
LINE
  5
3DC
330
17
100
AcDbEntity
  8
4
100
AcDbLine
 10
861.7940054842434
 20
506.2042376204033
 30
0.0
 11
960.7940054842434
 21
506.2042376204033
 31
0.0
  0
LINE
  5
3DD
330
17
100
AcDbEntity
  8
4
100
AcDbLine
 10
961.7940054842434
 20
509.7042376204033
 30
0.0
 11
871.7940054842434
 21
509.7042376204033
 31
0.0
  0
LINE
  5
3DE
330
17
100
AcDbEntity
  8
4
100
AcDbLine
 10
861.7940054842434
 20
460.2042376204033
 30
0.0
 11
960.7940054842434
 21
460.2042376204033
 31
0.0
  0
LINE
  5
3DF
330
17
100
AcDbEntity
  8
4
100
AcDbLine
 10
858.0939094842433
 20
527.1082441938722
 30
0.0
 11
858.0939094842433
 21
541.8306760582075
 31
0.0
  0
ARC
  5
3E0
330
17
100
AcDbEntity
  8
4
100
AcDbCircle
 10
844.3147441867836
 20
534.4694601260396
 30
0.0
 40
13.77916529745958
100
AcDbArc
 50
339.1359356360805
 51
20.86406436391942
  0
LINE
  5
3E1
330
17
100
AcDbEntity
  8
4
100
AcDbLine
 10
848.5939094842433
 20
544.2844147022636
 30
0.0
 11
848.5939094842433
 21
524.6545055498161
 31
0.0
  0
LINE
  5
3E2
330
17
100
AcDbEntity
  8
4
100
AcDbLine
 10
851.0939094842433
 20
544.2844147022636
 30
0.0
 11
851.0939094842433
 21
524.6545055498161
 31
0.0
  0
LINE
  5
3E3
330
17
100
AcDbEntity
  8
4
100
AcDbLine
 10
827.7940054842434
 20
516.0817500407617
 30
0.0
 11
827.7940054842434
 21
568.2042376204033
 31
0.0
  0
LINE
  5
3E4
330
17
100
AcDbEntity
  8
4
100
AcDbLine
 10
848.5939094842433
 20
568.2042376204033
 30
0.0
 11
848.5939094842433
 21
398.2042376204033
 31
0.0
  0
LINE
  5
3E5
330
17
100
AcDbEntity
  8
4
100
AcDbLine
 10
834.7940054842434
 20
398.2042376204033
 30
0.0
 11
834.7940054842434
 21
568.2042376204033
 31
0.0
  0
LINE
  5
3E9
330
17
100
AcDbEntity
  8
4
100
AcDbLine
 10
786.7940054842434
 20
968.5323450309304
 30
0.0
 11
786.7940054842434
 21
1025.017193515779
 31
0.0
  0
ARC
  5
3EA
330
17
100
AcDbEntity
  8
4
100
AcDbCircle
 10
706.3632039934064
 20
1004.781065898386
 30
0.0
 40
1.0
100
AcDbArc
 50
0.0
 51
64.48156447963977
  0
LINE
  5
3EB
330
17
100
AcDbEntity
  8
4
100
AcDbLine
 10
707.3632039934064
 20
1004.032345030931
 30
0.0
 11
707.3632039934064
 21
1004.781065898385
 31
0.0
  0
LINE
  5
3EC
330
17
100
AcDbEntity
  8
4
100
AcDbLine
 10
706.7940054842434
 20
983.5323450309306
 30
0.0
 11
711.7940054842434
 21
1001.532345030931
 31
0.0
  0
LINE
  5
3ED
330
17
100
AcDbEntity
  8
4
100
AcDbLine
 10
691.5592148384253
 20
1004.032345030931
 30
0.0
 11
691.6220930689096
 21
1004.309345030931
 31
0.0
  0
LINE
  5
3EE
330
17
100
AcDbEntity
  8
4
100
AcDbLine
 10
691.5592148384253
 20
1004.032345030931
 30
0.0
 11
691.4523025577237
 21
1004.309345030931
 31
0.0
  0
LINE
  5
3EF
330
17
100
AcDbEntity
  8
4
100
AcDbLine
 10
691.4523025577237
 20
1004.309345030931
 30
0.0
 11
706.7940054842434
 21
1004.309345030931
 31
0.0
  0
LINE
  5
3F5
330
17
100
AcDbEntity
  8
4
100
AcDbLine
 10
592.0287961300614
 20
1004.032345030931
 30
0.0
 11
591.9659178995771
 21
1004.309345030931
 31
0.0
  0
LINE
  5
3F6
330
17
100
AcDbEntity
  8
4
100
AcDbLine
 10
592.0287961300614
 20
1004.032345030931
 30
0.0
 11
592.1357084107631
 21
1004.309345030931
 31
0.0
  0
LINE
  5
3F7
330
17
100
AcDbEntity
  8
4
100
AcDbLine
 10
576.2248069750804
 20
1004.032345030931
 30
0.0
 11
576.2248069750804
 21
1004.781065898385
 31
0.0
  0
ARC
  5
3F8
330
17
100
AcDbEntity
  8
4
100
AcDbCircle
 10
577.2248069750804
 20
1004.781065898386
 30
0.0
 40
1.0
100
AcDbArc
 50
115.5184355203603
 51
180.0
  0
LINE
  5
3F9
330
17
100
AcDbEntity
  8
4
100
AcDbLine
 10
576.7940054842434
 20
1004.30934503093
 30
0.0
 11
592.1357084107631
 21
1004.30934503093
 31
0.0
  0
LINE
  5
3FA
330
17
100
AcDbEntity
  8
4
100
AcDbLine
 10
576.7940054842434
 20
983.5323450309306
 30
0.0
 11
571.7940054842434
 21
1001.532345030931
 31
0.0
  0
ARC
  5
3FB
330
17
100
AcDbEntity
  8
4
100
AcDbCircle
 10
491.7940054842434
 20
968.5323450309304
 30
0.0
 40
5.0
100
AcDbArc
 50
270.0
 51
0.0
  0
LINE
  5
3FC
330
17
100
AcDbEntity
  8
4
100
AcDbLine
 10
496.7940054842434
 20
968.5323450309304
 30
0.0
 11
496.7940054842434
 21
1025.017193515779
 31
0.0
  0
LINE
  5
3FD
330
17
100
AcDbEntity
  8
L-CENTER
100
AcDbLine
 10
456.7940054842434
 20
972.1969074544068
 30
0.0
 11
456.7940054842434
 21
1014.867782607454
 31
0.0
  0
CIRCLE
  5
3FE
330
17
100
AcDbEntity
  8
4
100
AcDbCircle
 10
456.7940054842434
 20
993.5323450309304
 30
0.0
 40
11.0
  0
LINE
  5
3FF
330
17
100
AcDbEntity
  8
L-CENTER
100
AcDbLine
 10
435.4585679077195
 20
993.5323450309304
 30
0.0
 11
478.1294430607672
 21
993.5323450309304
 31
0.0
  0
LINE
  5
402
330
17
100
AcDbEntity
  8
4
100
AcDbLine
 10
576.7940054842434
 20
983.5323450309306
 30
0.0
 11
706.7940054842434
 21
983.5323450309306
 31
0.0
  0
LINE
  5
403
330
17
100
AcDbEntity
  8
4
100
AcDbLine
 10
571.7940054842434
 20
1001.532345030931
 30
0.0
 11
711.7940054842434
 21
1001.532345030931
 31
0.0
  0
LINE
  5
404
330
17
100
AcDbEntity
  8
4
100
AcDbLine
 10
691.5592148384253
 20
1004.032345030931
 30
0.0
 11
592.0287961300614
 21
1004.032345030931
 31
0.0
  0
LINE
  5
405
330
17
100
AcDbEntity
  8
4
100
AcDbLine
 10
654.4885854842432
 20
581.3480376204034
 30
0.0
 11
656.7940054842434
 21
571.2042376204033
 31
0.0
  0
ARC
  5
406
330
17
100
AcDbEntity
  8
4
100
AcDbCircle
 10
662.7495734842432
 20
571.9320216204032
 30
0.0
 40
5.99994
100
AcDbArc
 50
125.5991950000043
 51
186.9671230000005
  0
LINE
  5
407
330
17
100
AcDbEntity
  8
4
100
AcDbLine
 10
661.7940054842434
 20
571.2042376204033
 30
0.0
 11
661.7940054842434
 21
568.2042376204033
 31
0.0
  0
LINE
  5
408
330
17
100
AcDbEntity
  8
4
100
AcDbLine
 10
641.7940054842434
 20
583.7042376204033
 30
0.0
 11
653.5557254842433
 21
582.1952056204034
 31
0.0
  0
LINE
  5
409
330
17
100
AcDbEntity
  8
4
100
AcDbLine
 10
629.0994254842435
 20
581.3480376204034
 30
0.0
 11
626.7940054842434
 21
571.2042376204033
 31
0.0
  0
ARC
  5
40A
330
17
100
AcDbEntity
  8
4
100
AcDbCircle
 10
620.8381934842432
 20
571.9320216204032
 30
0.0
 40
6.00006
100
AcDbArc
 50
353.0331589999992
 51
54.40080499999933
  0
ARC
  5
40B
330
17
100
AcDbEntity
  8
4
100
AcDbCircle
 10
630.1719334842433
 20
581.1041416204032
 30
0.0
 40
1.100112
100
AcDbArc
 50
90.0
 51
167.1912509999943
  0
LINE
  5
40C
330
17
100
AcDbEntity
  8
4
100
AcDbLine
 10
630.1719334842433
 20
582.2042376204033
 30
0.0
 11
653.4158334842432
 21
582.2042376204033
 31
0.0
  0
LINE
  5
40D
330
17
100
AcDbEntity
  8
4
100
AcDbLine
 10
641.7940054842434
 20
571.2042376204033
 30
0.0
 11
621.7940054842434
 21
571.2042376204033
 31
0.0
  0
LINE
  5
40E
330
17
100
AcDbEntity
  8
4
100
AcDbLine
 10
641.7940054842434
 20
583.7042376204033
 30
0.0
 11
630.0320414842431
 21
582.1952056204034
 31
0.0
  0
LINE
  5
40F
330
17
100
AcDbEntity
  8
4
100
AcDbLine
 10
621.7940054842434
 20
571.2042376204033
 30
0.0
 11
621.7940054842434
 21
568.2042376204033
 31
0.0
  0
LINE
  5
410
330
17
100
AcDbEntity
  8
4
100
AcDbLine
 10
626.7940054842434
 20
571.2042376204033
 30
0.0
 11
656.7940054842434
 21
571.2042376204033
 31
0.0
  0
LINE
  5
411
330
17
100
AcDbEntity
  8
4
100
AcDbLine
 10
641.7940054842434
 20
571.2042376204033
 30
0.0
 11
661.7940054842434
 21
571.2042376204033
 31
0.0
  0
ARC
  5
412
330
17
100
AcDbEntity
  8
4
100
AcDbCircle
 10
653.4158334842432
 20
581.1041416204032
 30
0.0
 40
1.100112
100
AcDbArc
 50
12.80876099999563
 51
90.0
  0
CIRCLE
  5
413
330
17
100
AcDbEntity
  8
4
100
AcDbCircle
 10
641.7940054842434
 20
601.2042376204033
 30
0.0
 40
17.5
  0
ARC
  5
414
330
17
100
AcDbEntity
  8
4
100
AcDbCircle
 10
641.7940054842434
 20
601.2042376204033
 30
0.0
 40
29.99998
100
AcDbArc
 50
305.5998490000001
 51
234.4018309999996
  0
ARC
  5
415
330
17
100
AcDbEntity
  8
4
100
AcDbCircle
 10
691.2173454842432
 20
435.3795296204032
 30
0.0
 40
8.999988
100
AcDbArc
 50
72.00592399999893
 51
185.8464991824214
  0
LINE
  5
416
330
17
100
AcDbEntity
  8
4
100
AcDbLine
 10
566.7940054842434
 20
572.7042376204033
 30
0.0
 11
566.7940054842434
 21
581.7042376204033
 31
0.0
  0
LINE
  5
417
330
17
100
AcDbEntity
  8
4
100
AcDbLine
 10
565.7940054842434
 20
572.7042376204033
 30
0.0
 11
565.7940054842434
 21
571.2042376204033
 31
0.0
  0
LINE
  5
418
330
17
100
AcDbEntity
  8
4
100
AcDbLine
 10
568.7940054842434
 20
568.2042376204033
 30
0.0
 11
568.7940054842434
 21
571.2042376204033
 31
0.0
  0
LINE
  5
419
330
17
100
AcDbEntity
  8
4
100
AcDbLine
 10
555.2940054842434
 20
576.7042376204033
 30
0.0
 11
555.2940054842434
 21
581.7042376204033
 31
0.0
  0
LINE
  5
41A
330
17
100
AcDbEntity
  8
4
100
AcDbLine
 10
532.2940054842434
 20
576.7042376204033
 30
0.0
 11
532.2940054842434
 21
581.7042376204033
 31
0.0
  0
LINE
  5
41B
330
17
100
AcDbEntity
  8
4
100
AcDbLine
 10
520.7940054842434
 20
572.7042376204033
 30
0.0
 11
520.7940054842434
 21
581.7042376204033
 31
0.0
  0
LINE
  5
41C
330
17
100
AcDbEntity
  8
4
100
AcDbLine
 10
521.7940054842434
 20
572.7042376204033
 30
0.0
 11
521.7940054842434
 21
571.2042376204033
 31
0.0
  0
LINE
  5
41D
330
17
100
AcDbEntity
  8
L-CENTER
100
AcDbLine
 10
543.7940054842434
 20
553.0803542268247
 30
0.0
 11
543.7940054842434
 21
586.0299816204033
 31
0.0
  0
LINE
  5
41E
330
17
100
AcDbEntity
  8
4
100
AcDbLine
 10
518.7940054842434
 20
568.2042376204033
 30
0.0
 11
518.7940054842434
 21
571.2042376204033
 31
0.0
  0
LINE
  5
41F
330
17
100
AcDbEntity
  8
4
100
AcDbLine
 10
518.7940054842434
 20
571.2042376204033
 30
0.0
 11
568.7940054842434
 21
571.2042376204033
 31
0.0
  0
LINE
  5
420
330
17
100
AcDbEntity
  8
4
100
AcDbLine
 10
520.7940054842434
 20
581.7042376204033
 30
0.0
 11
566.7940054842434
 21
581.7042376204033
 31
0.0
  0
LINE
  5
421
330
17
100
AcDbEntity
  8
4
100
AcDbLine
 10
520.7940054842434
 20
576.7042376204033
 30
0.0
 11
566.7940054842434
 21
576.7042376204033
 31
0.0
  0
LINE
  5
422
330
17
100
AcDbEntity
  8
4
100
AcDbLine
 10
520.7940054842434
 20
572.7042376204033
 30
0.0
 11
566.7940054842434
 21
572.7042376204033
 31
0.0
  0
LINE
  5
423
330
17
100
AcDbEntity
  8
4
100
AcDbLine
 10
521.7940054842434
 20
571.2042376204033
 30
0.0
 11
565.7940054842434
 21
571.2042376204033
 31
0.0
  0
ARC
  5
424
330
17
100
AcDbEntity
  8
4
100
AcDbCircle
 10
479.7940054842434
 20
573.2042376204033
 30
0.0
 40
4.0
100
AcDbArc
 50
90.0
 51
180.0
  0
LINE
  5
425
330
17
100
AcDbEntity
  8
4
100
AcDbLine
 10
479.7940054842434
 20
577.2042376204033
 30
0.0
 11
479.7940054842434
 21
587.2042376204033
 31
0.0
  0
LINE
  5
426
330
17
100
AcDbEntity
  8
4
100
AcDbLine
 10
480.7940054842434
 20
589.2042376204033
 30
0.0
 11
480.7940054842434
 21
587.2042376204033
 31
0.0
  0
LINE
  5
427
330
17
100
AcDbEntity
  8
4
100
AcDbLine
 10
478.7940054842434
 20
590.2042376204033
 30
0.0
 11
480.7940054842434
 21
589.2042376204033
 31
0.0
  0
LINE
  5
428
330
17
100
AcDbEntity
  8
4
100
AcDbLine
 10
475.7940054842434
 20
568.2042376204033
 30
0.0
 11
475.7940054842434
 21
573.2042376204033
 31
0.0
  0
LINE
  5
429
330
17
100
AcDbEntity
  8
4
100
AcDbLine
 10
469.7940054842434
 20
587.2042376204033
 30
0.0
 11
458.7940054842434
 21
587.2042376204033
 31
0.0
  0
LINE
  5
42A
330
17
100
AcDbEntity
  8
4
100
AcDbLine
 10
458.7940054842434
 20
589.2042376204033
 30
0.0
 11
469.7940054842434
 21
589.2042376204033
 31
0.0
  0
LINE
  5
42B
330
17
100
AcDbEntity
  8
4
100
AcDbLine
 10
460.7940054842434
 20
590.2042376204033
 30
0.0
 11
469.7940054842434
 21
590.2042376204033
 31
0.0
  0
LINE
  5
42C
330
17
100
AcDbEntity
  8
4
100
AcDbLine
 10
459.7940054842434
 20
577.2042376204033
 30
0.0
 11
469.7940054842434
 21
577.2042376204033
 31
0.0
  0
LINE
  5
42D
330
17
100
AcDbEntity
  8
4
100
AcDbLine
 10
466.7940054842434
 20
573.2042376204033
 30
0.0
 11
472.7940054842434
 21
573.2042376204033
 31
0.0
  0
ARC
  5
42E
330
17
100
AcDbEntity
  8
4
100
AcDbCircle
 10
466.7940054842434
 20
568.2042376204033
 30
0.0
 40
5.0
100
AcDbArc
 50
53.13010200000199
 51
126.869897999998
  0
ARC
  5
42F
330
17
100
AcDbEntity
  8
4
100
AcDbCircle
 10
459.7940054842434
 20
573.2042376204033
 30
0.0
 40
4.0
100
AcDbArc
 50
0.0
 51
90.0
  0
LINE
  5
430
330
17
100
AcDbEntity
  8
4
100
AcDbLine
 10
459.7940054842434
 20
577.2042376204033
 30
0.0
 11
459.7940054842434
 21
587.2042376204033
 31
0.0
  0
LINE
  5
431
330
17
100
AcDbEntity
  8
4
100
AcDbLine
 10
460.7940054842434
 20
590.2042376204033
 30
0.0
 11
458.7940054842434
 21
589.2042376204033
 31
0.0
  0
LINE
  5
432
330
17
100
AcDbEntity
  8
4
100
AcDbLine
 10
458.7940054842434
 20
589.2042376204033
 30
0.0
 11
458.7940054842434
 21
587.2042376204033
 31
0.0
  0
LINE
  5
433
330
17
100
AcDbEntity
  8
4
100
AcDbLine
 10
463.7940054842434
 20
568.2042376204033
 30
0.0
 11
469.7940054842434
 21
568.2042376204033
 31
0.0
  0
LINE
  5
434
330
17
100
AcDbEntity
  8
4
100
AcDbLine
 10
463.7940054842434
 20
568.2042376204033
 30
0.0
 11
463.7940054842434
 21
573.2042376204033
 31
0.0
  0
LINE
  5
435
330
17
100
AcDbEntity
  8
4
100
AcDbLine
 10
479.7940054842434
 20
577.2042376204033
 30
0.0
 11
469.7940054842434
 21
577.2042376204033
 31
0.0
  0
ARC
  5
436
330
17
100
AcDbEntity
  8
4
100
AcDbCircle
 10
472.7940054842434
 20
568.2042376204033
 30
0.0
 40
5.0
100
AcDbArc
 50
53.13010200000199
 51
126.869897999998
  0
LINE
  5
437
330
17
100
AcDbEntity
  8
4
100
AcDbLine
 10
475.7940054842434
 20
568.2042376204033
 30
0.0
 11
469.7940054842434
 21
568.2042376204033
 31
0.0
  0
LINE
  5
438
330
17
100
AcDbEntity
  8
4
100
AcDbLine
 10
480.7940054842434
 20
589.2042376204033
 30
0.0
 11
469.7940054842434
 21
589.2042376204033
 31
0.0
  0
LINE
  5
439
330
17
100
AcDbEntity
  8
4
100
AcDbLine
 10
478.7940054842434
 20
590.2042376204033
 30
0.0
 11
469.7940054842434
 21
590.2042376204033
 31
0.0
  0
LINE
  5
43A
330
17
100
AcDbEntity
  8
4
100
AcDbLine
 10
469.7940054842434
 20
587.2042376204033
 30
0.0
 11
480.7940054842434
 21
587.2042376204033
 31
0.0
  0
LINE
  5
43B
330
17
100
AcDbEntity
  8
4
100
AcDbLine
 10
461.7940054842434
 20
516.0817500407617
 30
0.0
 11
455.7940054842434
 21
516.0817500407617
 31
0.0
  0
ARC
  5
43C
330
17
100
AcDbEntity
  8
4
100
AcDbCircle
 10
471.0852654842433
 20
453.9129776204034
 30
0.0
 40
4.999984
100
AcDbArc
 50
104.2208010000015
 51
165.7825850000001
  0
LINE
  5
43D
330
17
100
AcDbEntity
  8
4
100
AcDbLine
 10
461.7940054842434
 20
451.0860715747141
 30
0.0
 11
455.7940054842434
 21
451.0860715747141
 31
0.0
  0
LINE
  5
43E
330
17
100
AcDbEntity
  8
4
100
AcDbLine
 10
432.4941014842434
 20
422.1240605385431
 30
0.0
 11
432.4941014842434
 21
441.7539696909905
 31
0.0
  0
LINE
  5
43F
330
17
100
AcDbEntity
  8
4
100
AcDbLine
 10
434.9941014842434
 20
422.1240605385431
 30
0.0
 11
434.9941014842434
 21
441.7539696909905
 31
0.0
  0
LINE
  5
440
330
17
100
AcDbEntity
  8
4
100
AcDbLine
 10
432.4941014842434
 20
422.1388096204034
 30
0.0
 11
432.4941014842434
 21
441.7389056204033
 31
0.0
  0
LINE
  5
441
330
17
100
AcDbEntity
  8
4
100
AcDbLine
 10
454.3049934842434
 20
398.2042376204033
 30
0.0
 11
434.9941014842434
 21
398.2042376204033
 31
0.0
  0
LINE
  5
442
330
17
100
AcDbEntity
  8
4
100
AcDbLine
 10
455.7940054842434
 20
406.8123936204033
 30
0.0
 11
455.7940054842434
 21
451.0860715747141
 31
0.0
  0
ARC
  5
443
330
17
100
AcDbEntity
  8
4
100
AcDbCircle
 10
423.7954470223158
 20
483.5839108077379
 30
0.0
 40
50.0
100
AcDbArc
 50
319.4616562984866
 51
40.53834370151338
  0
LINE
  5
444
330
17
100
AcDbEntity
  8
4
100
AcDbLine
 10
461.7940054842434
 20
516.0817500407617
 30
0.0
 11
461.7940054842434
 21
451.0860715747143
 31
0.0
  0
LINE
  5
445
330
17
100
AcDbEntity
  8
4
100
AcDbLine
 10
434.9941014842434
 20
544.2844147022636
 30
0.0
 11
434.9941014842434
 21
524.6545055498161
 31
0.0
  0
LINE
  5
446
330
17
100
AcDbEntity
  8
4
100
AcDbLine
 10
432.4941014842434
 20
544.2844147022636
 30
0.0
 11
432.4941014842434
 21
524.6545055498161
 31
0.0
  0
LINE
  5
447
330
17
100
AcDbEntity
  8
4
100
AcDbLine
 10
455.7940054842434
 20
516.0817500407617
 30
0.0
 11
455.7940054842434
 21
568.2042376204033
 31
0.0
  0
LINE
  5
448
330
17
100
AcDbEntity
  8
4
100
AcDbLine
 10
448.7940054842434
 20
398.2042376204033
 30
0.0
 11
448.7940054842434
 21
568.2042376204033
 31
0.0
  0
LINE
  5
449
330
17
100
AcDbEntity
  8
4
100
AcDbLine
 10
434.9941014842434
 20
568.2042376204033
 30
0.0
 11
434.9941014842434
 21
398.2042376204033
 31
0.0
  0
LINE
  5
44A
330
17
100
AcDbEntity
  8
L-CENTER
100
AcDbLine
 10
601.7940054842434
 20
601.2042376204033
 30
0.0
 11
681.7940054842434
 21
601.2042376204033
 31
0.0
  0
LINE
  5
44C
330
17
100
AcDbEntity
  8
4
100
AcDbLine
 10
434.9941014842434
 20
568.2042376204033
 30
0.0
 11
848.5939094842433
 21
568.2042376204033
 31
0.0
  0
ARC
  5
44F
330
17
100
AcDbEntity
  8
4
100
AcDbCircle
 10
641.7942494842432
 20
-219.7957783795966
 30
0.0
 40
700.000032
100
AcDbArc
 50
75.781311
 51
104.218794
  0
ARC
  5
451
330
17
100
AcDbEntity
  8
4
100
AcDbCircle
 10
791.7940054842434
 20
968.5323450309304
 30
0.0
 40
5.0
100
AcDbArc
 50
180.0
 51
270.0
  0
LINE
  5
452
330
17
100
AcDbEntity
  8
L-CENTER
100
AcDbLine
 10
641.7940054842434
 20
846.798723640735
 30
0.0
 11
641.7940054842434
 21
1400.265966421126
 31
0.0
  0
LINE
  5
453
330
17
100
AcDbEntity
  8
4
100
AcDbLine
 10
861.7940054842434
 20
968.5323450309306
 30
0.0
 11
861.7940054842434
 21
1278.53234503093
 31
0.0
  0
LINE
  5
454
330
17
100
AcDbEntity
  8
4
100
AcDbLine
 10
472.7940054842434
 20
1032.532345030931
 30
0.0
 11
571.7940054842434
 21
1001.532345030931
 31
0.0
  0
LINE
  5
455
330
17
100
AcDbEntity
  8
4
100
AcDbLine
 10
483.6424321704294
 20
1032.532345030931
 30
0.0
 11
575.6160257065376
 21
1005.956970628415
 31
0.0
  0
LINE
  5
456
330
17
100
AcDbEntity
  8
4
100
AcDbLine
 10
576.2248069750804
 20
1004.032345030931
 30
0.0
 11
477.5903578013053
 21
1032.532345030931
 31
0.0
  0
LINE
  5
457
330
17
100
AcDbEntity
  8
4
100
AcDbLine
 10
810.7940054842434
 20
1032.532345030931
 30
0.0
 11
711.7940054842434
 21
1001.532345030931
 31
0.0
  0
LINE
  5
458
330
17
100
AcDbEntity
  8
4
100
AcDbLine
 10
707.3632039934064
 20
1004.032345030931
 30
0.0
 11
805.9976531671814
 21
1032.532345030931
 31
0.0
  0
LINE
  5
459
330
17
100
AcDbEntity
  8
4
100
AcDbLine
 10
799.9455787980573
 20
1032.532345030931
 30
0.0
 11
707.9719852619492
 21
1005.956970628415
 31
0.0
  0
ARC
  5
45A
330
17
100
AcDbEntity
  8
4
100
AcDbCircle
 10
426.7940054842434
 20
1278.53234503093
 30
0.0
 40
5.0
100
AcDbArc
 50
90.0
 51
180.0
  0
ARC
  5
45B
330
17
100
AcDbEntity
  8
4
100
AcDbCircle
 10
429.2777154133028
 20
1167.436351604399
 30
0.0
 40
3.783613929059507
100
AcDbArc
 50
139.5701031551729
 51
220.4298968448271
  0
ARC
  5
45C
330
17
100
AcDbEntity
  8
4
100
AcDbCircle
 10
439.2732667817031
 20
1174.797567536567
 30
0.0
 40
13.77916529745958
100
AcDbArc
 50
159.1359356360806
 51
200.8640643639194
  0
LINE
  5
45D
330
17
100
AcDbEntity
  8
4
100
AcDbLine
 10
425.4941014842434
 20
1079.628338457461
 30
0.0
 11
425.4941014842434
 21
1064.905906593126
 31
0.0
  0
ARC
  5
45E
330
17
100
AcDbEntity
  8
4
100
AcDbCircle
 10
439.2732667817031
 20
1072.267122525294
 30
0.0
 40
13.77916529745958
100
AcDbArc
 50
159.1359356360806
 51
200.8640643639194
  0
ARC
  5
45F
330
17
100
AcDbEntity
  8
4
100
AcDbCircle
 10
429.2777154133028
 20
1079.628338457461
 30
0.0
 40
3.783613929059507
100
AcDbArc
 50
139.5701031551729
 51
220.4298968448271
  0
ARC
  5
460
330
17
100
AcDbEntity
  8
4
100
AcDbCircle
 10
429.2777154133028
 20
1064.905906593126
 30
0.0
 40
3.783613929059507
100
AcDbArc
 50
139.5701031551729
 51
220.4298968448271
  0
LINE
  5
461
330
17
100
AcDbEntity
  8
4
100
AcDbLine
 10
425.4941014842434
 20
1167.436351604399
 30
0.0
 11
425.4941014842434
 21
1182.158783468735
 31
0.0
  0
ARC
  5
462
330
17
100
AcDbEntity
  8
4
100
AcDbCircle
 10
429.2777154133028
 20
1182.158783468735
 30
0.0
 40
3.783613929059507
100
AcDbArc
 50
139.5701031551729
 51
220.4298968448271
  0
ARC
  5
463
330
17
100
AcDbEntity
  8
4
100
AcDbCircle
 10
426.7940054842434
 20
968.5323450309304
 30
0.0
 40
5.0
100
AcDbArc
 50
180.0
 51
270.0
  0
ARC
  5
465
330
17
100
AcDbEntity
  8
4
100
AcDbCircle
 10
429.2777154133028
 20
541.8306760582075
 30
0.0
 40
3.783613929059507
100
AcDbArc
 50
139.5701031551723
 51
220.4298968448277
  0
ARC
  5
466
330
17
100
AcDbEntity
  8
4
100
AcDbCircle
 10
429.2777154133028
 20
527.1082441938722
 30
0.0
 40
3.783613929059507
100
AcDbArc
 50
139.5701031551723
 51
220.4298968448296
  0
ARC
  5
467
330
17
100
AcDbEntity
  8
4
100
AcDbCircle
 10
439.2732667817031
 20
431.939015114767
 30
0.0
 40
13.77916529745958
100
AcDbArc
 50
159.1359356360801
 51
200.8640643639194
  0
LINE
  5
468
330
17
100
AcDbEntity
  8
4
100
AcDbLine
 10
425.4941014842434
 20
439.3002310469344
 30
0.0
 11
425.4941014842434
 21
424.5777991825992
 31
0.0
  0
ARC
  5
469
330
17
100
AcDbEntity
  8
4
100
AcDbCircle
 10
429.2777154133028
 20
424.5777991825992
 30
0.0
 40
3.783613929059507
100
AcDbArc
 50
139.5701031551704
 51
220.4298968448296
  0
ARC
  5
46A
330
17
100
AcDbEntity
  8
4
100
AcDbCircle
 10
429.2777154133028
 20
439.3002310469345
 30
0.0
 40
3.783613929059507
100
AcDbArc
 50
139.5701031551704
 51
220.4298968448296
  0
LINE
  5
46B
330
17
100
AcDbEntity
  8
4
100
AcDbLine
 10
425.4941014842434
 20
527.1082441938722
 30
0.0
 11
425.4941014842434
 21
541.8306760582075
 31
0.0
  0
ARC
  5
46C
330
17
100
AcDbEntity
  8
4
100
AcDbCircle
 10
439.2732667817031
 20
534.4694601260396
 30
0.0
 40
13.77916529745958
100
AcDbArc
 50
159.1359356360806
 51
200.8640643639194
  0
LINE
  5
46E
330
17
100
AcDbEntity
  8
4
100
AcDbLine
 10
421.7940054842434
 20
968.5323450309304
 30
0.0
 11
421.7940054842429
 21
1278.53234503093
 31
0.0
  0
LINE
  5
46F
330
17
100
AcDbEntity
  8
4
100
AcDbLine
 10
426.7940054842434
 20
1283.53234503093
 30
0.0
 11
491.7940054842434
 21
1283.53234503093
 31
0.0
  0
LINE
  5
470
330
17
100
AcDbEntity
  8
4
100
AcDbLine
 10
426.7940054842434
 20
963.5323450309304
 30
0.0
 11
491.7940054842434
 21
963.5323450309304
 31
0.0
  0
LINE
  5
471
330
17
100
AcDbEntity
  8
L-CENTER
100
AcDbLine
 10
310.1166800069709
 20
1123.53234503093
 30
0.0
 11
973.4713309615158
 21
1123.53234503093
 31
0.0
  0
LINE
  5
472
330
17
100
AcDbEntity
  8
L-CENTER
100
AcDbLine
 10
974.6403414842434
 20
483.2042376204033
 30
0.0
 11
308.9476694842433
 21
483.2042376204034
 31
0.0
  0
LINE
  5
473
330
17
100
AcDbEntity
  8
L-CENTER
100
AcDbLine
 10
420.6504494842434
 20
431.9388576204033
 30
0.0
 11
460.7532280384307
 21
431.9392979518885
 31
0.0
  0
LINE
  5
474
330
17
100
AcDbEntity
  8
4
100
AcDbLine
 10
426.3976284300957
 20
422.1240605385431
 30
0.0
 11
434.9941014842434
 21
422.1240605385431
 31
0.0
  0
LINE
  5
475
330
17
100
AcDbEntity
  8
4
100
AcDbLine
 10
426.3976284300957
 20
436.8464924028788
 30
0.0
 11
432.4941014842434
 21
436.8464924028788
 31
0.0
  0
LINE
  5
476
330
17
100
AcDbEntity
  8
4
100
AcDbLine
 10
426.3976284300957
 20
427.0315378266548
 30
0.0
 11
432.4941014842434
 21
427.0315378266548
 31
0.0
  0
LINE
  5
477
330
17
100
AcDbEntity
  8
4
100
AcDbLine
 10
434.9941014842434
 20
441.7539696909905
 30
0.0
 11
426.3976284300957
 21
441.7539696909905
 31
0.0
  0
LINE
  5
478
330
17
100
AcDbEntity
  8
L-CENTER
100
AcDbLine
 10
420.6504494842434
 20
534.4696176204034
 30
0.0
 11
460.7521022527453
 21
534.4691773012794
 31
0.0
  0
LINE
  5
479
330
17
100
AcDbEntity
  8
4
100
AcDbLine
 10
434.9941014842434
 20
524.6545055498161
 30
0.0
 11
426.3976284300957
 21
524.6545055498161
 31
0.0
  0
LINE
  5
47A
330
17
100
AcDbEntity
  8
4
100
AcDbLine
 10
426.3976284300957
 20
529.5619828379279
 30
0.0
 11
432.4941014842434
 21
529.5619828379279
 31
0.0
  0
LINE
  5
47B
330
17
100
AcDbEntity
  8
4
100
AcDbLine
 10
426.3976284300957
 20
539.3769374141518
 30
0.0
 11
432.4941014842434
 21
539.3769374141518
 31
0.0
  0
LINE
  5
47C
330
17
100
AcDbEntity
  8
4
100
AcDbLine
 10
426.3976284300957
 20
544.2844147022636
 30
0.0
 11
434.9941014842434
 21
544.2844147022636
 31
0.0
  0
LINE
  5
47F
330
17
100
AcDbEntity
  8
L-CENTER
100
AcDbLine
 10
420.6504494842434
 20
1072.26696503093
 30
0.0
 11
463.2864654273021
 21
1072.26743317755
 31
0.0
  0
LINE
  5
480
330
17
100
AcDbEntity
  8
4
100
AcDbLine
 10
426.3976284300957
 20
1067.359645237182
 30
0.0
 11
432.4941014842434
 21
1067.359645237182
 31
0.0
  0
LINE
  5
481
330
17
100
AcDbEntity
  8
4
100
AcDbLine
 10
426.3976284300957
 20
1062.45216794907
 30
0.0
 11
434.9941014842434
 21
1062.45216794907
 31
0.0
  0
LINE
  5
482
330
17
100
AcDbEntity
  8
4
100
AcDbLine
 10
434.9941014842434
 20
1082.082077101518
 30
0.0
 11
426.3976284300957
 21
1082.082077101518
 31
0.0
  0
LINE
  5
483
330
17
100
AcDbEntity
  8
4
100
AcDbLine
 10
426.3976284300957
 20
1077.174599813406
 30
0.0
 11
432.4941014842434
 21
1077.174599813406
 31
0.0
  0
LINE
  5
484
330
17
100
AcDbEntity
  8
L-CENTER
100
AcDbLine
 10
420.6504494842434
 20
1174.79772503093
 30
0.0
 11
463.285339642227
 21
1174.797256896672
 31
0.0
  0
LINE
  5
485
330
17
100
AcDbEntity
  8
4
100
AcDbLine
 10
426.3976284300957
 20
1184.612522112791
 30
0.0
 11
434.9941014842434
 21
1184.612522112791
 31
0.0
  0
LINE
  5
486
330
17
100
AcDbEntity
  8
4
100
AcDbLine
 10
426.3976284300957
 20
1169.890090248455
 30
0.0
 11
432.4941014842434
 21
1169.890090248455
 31
0.0
  0
LINE
  5
487
330
17
100
AcDbEntity
  8
4
100
AcDbLine
 10
434.9941014842434
 20
1164.982612960343
 30
0.0
 11
426.3976284300957
 21
1164.982612960343
 31
0.0
  0
LINE
  5
488
330
17
100
AcDbEntity
  8
4
100
AcDbLine
 10
426.3976284300957
 20
1179.705044824679
 30
0.0
 11
432.4941014842434
 21
1179.705044824679
 31
0.0
  0
ARC
  5
489
330
17
100
AcDbEntity
  8
4
100
AcDbCircle
 10
793.9692974842433
 20
332.6275776204034
 30
0.0
 40
8.999988
100
AcDbArc
 50
263.6362980000018
 51
17.99259200000045
  0
ARC
  5
48A
330
17
100
AcDbEntity
  8
4
100
AcDbCircle
 10
793.9692974842433
 20
233.7808976204033
 30
0.0
 40
8.999952
100
AcDbArc
 50
342.0088850000002
 51
96.36370199999875
  0
ARC
  5
48C
330
17
100
AcDbEntity
  8
4
100
AcDbCircle
 10
858.7940054842434
 20
82.20423762040332
 30
0.0
 40
3.0
100
AcDbArc
 50
0.0
 51
90.0
  0
ARC
  5
48D
330
17
100
AcDbEntity
  8
4
100
AcDbCircle
 10
812.5027454842434
 20
112.4957416204034
 30
0.0
 40
4.999984
100
AcDbArc
 50
284.2208010000015
 51
345.7825929999999
  0
ARC
  5
48E
330
17
100
AcDbEntity
  8
4
100
AcDbCircle
 10
641.7937614842435
 20
786.2044816204034
 30
0.0
 40
699.999936
100
AcDbArc
 50
282.793324
 51
284.219248
  0
ARC
  5
48F
330
17
100
AcDbEntity
  8
4
100
AcDbCircle
 10
799.7940054842434
 20
88.20423762040332
 30
0.0
 40
3.0
100
AcDbArc
 50
180.0
 51
270.0
  0
LINE
  5
490
330
17
100
AcDbEntity
  8
4
100
AcDbLine
 10
789.7940054842434
 20
85.20423762040332
 30
0.0
 11
858.7940054842434
 21
85.20423762040332
 31
0.0
  0
ARC
  5
491
330
17
100
AcDbEntity
  8
4
100
AcDbCircle
 10
849.7940054842434
 20
100.2042376204033
 30
0.0
 40
15.0
100
AcDbArc
 50
180.0
 51
270.0009360000004
  0
LINE
  5
492
330
17
100
AcDbEntity
  8
4
100
AcDbLine
 10
796.7940054842434
 20
88.20423762040332
 30
0.0
 11
796.7940054842434
 21
143.2042376204033
 31
0.0
  0
LINE
  5
493
330
17
100
AcDbEntity
  8
4
100
AcDbLine
 10
834.7940054842434
 20
208.4781616204034
 30
0.0
 11
834.7940054842434
 21
100.2042376204033
 31
0.0
  0
TEXT
  5
49E
330
17
100
AcDbEntity
  8
3
100
AcDbText
 10
1030.581258734665
 20
31.38637904558857
 30
0.0
 40
15.61517997527595
  1
LB8-06
  7
KANJI
100
AcDbText
  0
LINE
  5
49F
330
17
100
AcDbEntity
  8
4
100
AcDbLine
 10
815.7940054842434
 20
43.20423762040332
 30
0.0
 11
815.7940054842434
 21
85.20423762040332
 31
0.0
  0
LINE
  5
4A1
330
17
100
AcDbEntity
  8
L-CENTER
100
AcDbLine
 10
826.7940054842434
 20
28.20423762040332
 30
0.0
 11
826.7940054842434
 21
100.2042376204033
 31
0.0
  0
LINE
  5
4A2
330
17
100
AcDbEntity
  8
4
100
AcDbLine
 10
861.7940054842434
 20
82.20423762040332
 30
0.0
 11
861.7940054842434
 21
43.20423762040332
 31
0.0
  0
LINE
  5
4A3
330
17
100
AcDbEntity
  8
4
100
AcDbLine
 10
837.7940054842434
 20
43.20423762040332
 30
0.0
 11
837.7940054842434
 21
85.20423762040332
 31
0.0
  0
ARC
  5
4A5
330
17
100
AcDbEntity
  8
4
100
AcDbCircle
 10
714.4190054842434
 20
340.4930576204033
 30
0.0
 40
7.999956
100
AcDbArc
 50
190.7197699999999
 51
263.6379929999992
  0
ARC
  5
4A6
330
17
100
AcDbEntity
  8
4
100
AcDbCircle
 10
714.4192494842432
 20
225.9154176204033
 30
0.0
 40
7.999967999999999
100
AcDbArc
 50
96.36375099999859
 51
169.2802380000001
  0
ARC
  5
4A7
330
17
100
AcDbEntity
  8
4
100
AcDbCircle
 10
411.7940054842434
 20
283.2039936204033
 30
0.0
 40
299.999968
100
AcDbArc
 50
349.112606
 51
10.88829900000003
  0
ARC
  5
4A8
330
17
100
AcDbEntity
  8
4
100
AcDbCircle
 10
406.7940054842434
 20
283.2039936204033
 30
0.0
 40
299.999948
100
AcDbArc
 50
349.960456
 51
10.04034900000005
  0
LINE
  5
4A9
330
17
100
AcDbEntity
  8
4
100
AcDbLine
 10
682.2641721136946
 20
434.4627577856247
 30
0.0
 11
691.1321414842432
 21
354.9427656204034
 31
0.0
  0
ARC
  5
4AA
330
17
100
AcDbEntity
  8
4
100
AcDbCircle
 10
699.0828254842436
 20
355.8294816204034
 30
0.0
 40
7.999967999999999
100
AcDbArc
 50
186.3637430000001
 51
259.2802370000003
  0
ARC
  5
4AB
330
17
100
AcDbEntity
  8
4
100
AcDbCircle
 10
696.5733014842435
 20
228.4249416204034
 30
0.0
 40
10.000064
100
AcDbArc
 50
280.8880100000006
 51
349.1133630000002
  0
ARC
  5
4AC
330
17
100
AcDbEntity
  8
4
100
AcDbCircle
 10
692.3528414842435
 20
232.6453976204034
 30
0.0
 40
10.000048
100
AcDbArc
 50
280.0402299999993
 51
349.9611480000003
  0
ARC
  5
4AD
330
17
100
AcDbEntity
  8
4
100
AcDbCircle
 10
692.3528414842435
 20
333.7630776204032
 30
0.0
 40
10.000068
100
AcDbArc
 50
10.04022900000017
 51
79.9597709999991
  0
ARC
  5
4AE
330
17
100
AcDbEntity
  8
4
100
AcDbCircle
 10
696.5733014842435
 20
337.9835336204033
 30
0.0
 40
10.000088
100
AcDbArc
 50
10.88800899999992
 51
79.1119900000005
  0
ARC
  5
4AF
330
17
100
AcDbEntity
  8
4
100
AcDbCircle
 10
753.7940054842434
 20
64.01820162040326
 30
0.0
 40
8.000060000000001
100
AcDbArc
 50
0.0
 51
75.42517199999901
  0
ARC
  5
4B0
330
17
100
AcDbEntity
  8
4
100
AcDbCircle
 10
710.7710574842436
 20
75.20423762040332
 30
0.0
 40
8.000028
100
AcDbArc
 50
75.4268629999983
 51
90.0
  0
LINE
  5
4B1
330
17
100
AcDbEntity
  8
4
100
AcDbLine
 10
712.7839974842432
 20
82.9469136204034
 30
0.0
 11
755.8071894842433
 21
71.76087762040333
 31
0.0
  0
ARC
  5
4B2
330
17
100
AcDbEntity
  8
4
100
AcDbCircle
 10
691.2173454842432
 20
131.0289456204034
 30
0.0
 40
9.000028
100
AcDbArc
 50
173.6362909999989
 51
287.9940780000009
  0
LINE
  5
4B3
330
17
100
AcDbEntity
  8
4
100
AcDbLine
 10
691.1321414842432
 20
211.4657136204032
 30
0.0
 11
682.2730094842432
 21
132.0265016204032
 31
0.0
  0
ARC
  5
4B4
330
17
100
AcDbEntity
  8
4
100
AcDbCircle
 10
699.0828254842436
 20
210.5789936204033
 30
0.0
 40
7.999967999999999
100
AcDbArc
 50
100.7197619999999
 51
173.6362489999998
  0
ARC
  5
4B5
330
17
100
AcDbEntity
  8
4
100
AcDbCircle
 10
587.0147094842432
 20
337.9835336204033
 30
0.0
 40
10.000088
100
AcDbArc
 50
100.8880099999995
 51
169.1119910000001
  0
ARC
  5
4B6
330
17
100
AcDbEntity
  8
4
100
AcDbCircle
 10
591.2351694842432
 20
333.7630776204032
 30
0.0
 40
10.000068
100
AcDbArc
 50
100.0402340000005
 51
169.9597709999998
  0
ARC
  5
4B7
330
17
100
AcDbEntity
  8
4
100
AcDbCircle
 10
569.1690054842434
 20
340.4930576204033
 30
0.0
 40
7.999956
100
AcDbArc
 50
276.3620140000006
 51
349.2802309999996
  0
ARC
  5
4B8
330
17
100
AcDbEntity
  8
4
100
AcDbCircle
 10
587.0147094842432
 20
228.4249416204034
 30
0.0
 40
10.000088
100
AcDbArc
 50
190.8880089999999
 51
259.1119900000005
  0
ARC
  5
4B9
330
17
100
AcDbEntity
  8
4
100
AcDbCircle
 10
569.1687614842435
 20
225.9154176204033
 30
0.0
 40
7.999967999999999
100
AcDbArc
 50
10.71976199999993
 51
83.6362490000014
  0
ARC
  5
4BA
330
17
100
AcDbEntity
  8
4
100
AcDbCircle
 10
591.2351694842432
 20
232.6453976204034
 30
0.0
 40
10.000068
100
AcDbArc
 50
190.0402290000002
 51
259.9597649999991
  0
ARC
  5
4BB
330
17
100
AcDbEntity
  8
4
100
AcDbCircle
 10
876.7940054842434
 20
283.2039936204033
 30
0.0
 40
300.0
100
AcDbArc
 50
169.96008
 51
190.040349
  0
ARC
  5
4BC
330
17
100
AcDbEntity
  8
4
100
AcDbCircle
 10
871.7940054842434
 20
283.2039936204033
 30
0.0
 40
299.99994
100
AcDbArc
 50
169.112222
 51
190.8881070000001
  0
ARC
  5
4BD
330
17
100
AcDbEntity
  8
4
100
AcDbCircle
 10
489.6187134842435
 20
332.6275776204034
 30
0.0
 40
8.999988
100
AcDbArc
 50
162.0074060000011
 51
276.3637089999996
  0
ARC
  5
4BE
330
17
100
AcDbEntity
  8
4
100
AcDbCircle
 10
489.6187134842435
 20
233.7808976204033
 30
0.0
 40
8.999988
100
AcDbArc
 50
83.63629100000045
 51
197.9925939999982
  0
LINE
  5
4BF
330
17
100
AcDbEntity
  8
4
100
AcDbLine
 10
447.4568454842433
 20
222.2042376204033
 30
0.0
 11
444.7940054842434
 21
222.2042376204033
 31
0.0
  0
LINE
  5
4C0
330
17
100
AcDbEntity
  8
4
100
AcDbLine
 10
444.7940054842434
 20
219.2042376204033
 30
0.0
 11
442.7940054842434
 21
219.2042376204033
 31
0.0
  0
LINE
  5
4C1
330
17
100
AcDbEntity
  8
4
100
AcDbLine
 10
442.7940054842434
 20
220.2042376204033
 30
0.0
 11
435.7940054842434
 21
220.2042376204033
 31
0.0
  0
LINE
  5
4C2
330
17
100
AcDbEntity
  8
4
100
AcDbLine
 10
570.0554814842435
 20
332.5423736204034
 30
0.0
 11
490.6162694842433
 21
323.6829976204033
 31
0.0
  0
LINE
  5
4C3
330
17
100
AcDbEntity
  8
4
100
AcDbLine
 10
570.0554814842435
 20
233.8661016204032
 30
0.0
 11
490.6162694842433
 21
242.7254776204034
 31
0.0
  0
ARC
  5
4C4
330
17
100
AcDbEntity
  8
4
100
AcDbCircle
 10
592.3706654842435
 20
131.0289456204034
 30
0.0
 40
9.000028
100
AcDbArc
 50
252.0059219999991
 51
6.36370900000107
  0
ARC
  5
4C5
330
17
100
AcDbEntity
  8
4
100
AcDbCircle
 10
572.8169534842432
 20
75.20423762040332
 30
0.0
 40
8.000028
100
AcDbArc
 50
90.0
 51
104.5731370000017
  0
ARC
  5
4C6
330
17
100
AcDbEntity
  8
4
100
AcDbCircle
 10
529.7940054842434
 20
64.01820162040326
 30
0.0
 40
8.000060000000001
100
AcDbArc
 50
104.5748210000012
 51
180.0
  0
LINE
  5
4C7
330
17
100
AcDbEntity
  8
4
100
AcDbLine
 10
570.8040134842436
 20
82.9469136204034
 30
0.0
 11
527.7808214842435
 21
71.76087762040333
 31
0.0
  0
LINE
  5
4C8
330
17
100
AcDbEntity
  8
4
100
AcDbLine
 10
592.4558694842435
 20
211.4657136204032
 30
0.0
 11
601.3150014842436
 21
132.0265016204032
 31
0.0
  0
LINE
  5
4C9
330
17
100
AcDbEntity
  8
4
100
AcDbLine
 10
496.7940054842434
 20
143.2042376204033
 30
0.0
 11
486.7940054842434
 21
143.2042376204033
 31
0.0
  0
LINE
  5
4CA
330
17
100
AcDbEntity
  8
4
100
AcDbLine
 10
444.7940054842434
 20
182.2042376204033
 30
0.0
 11
448.7940054842434
 21
182.2042376204033
 31
0.0
  0
LINE
  5
4CB
330
17
100
AcDbEntity
  8
4
100
AcDbLine
 10
440.7940054842434
 20
211.2042376204033
 30
0.0
 11
435.7940054842434
 21
211.2042376204033
 31
0.0
  0
LINE
  5
4CC
330
17
100
AcDbEntity
  8
4
100
AcDbLine
 10
442.7940054842434
 20
185.2042376204033
 30
0.0
 11
444.7940054842434
 21
185.2042376204033
 31
0.0
  0
LINE
  5
4CD
330
17
100
AcDbEntity
  8
4
100
AcDbLine
 10
440.7940054842434
 20
193.2042376204033
 30
0.0
 11
435.7940054842434
 21
193.2042376204033
 31
0.0
  0
LINE
  5
4CE
330
17
100
AcDbEntity
  8
4
100
AcDbLine
 10
442.7940054842434
 20
184.2042376204033
 30
0.0
 11
435.7940054842434
 21
184.2042376204033
 31
0.0
  0
LINE
  5
4CF
330
17
100
AcDbEntity
  8
L-CENTER
100
AcDbLine
 10
428.6979374842435
 20
202.2042376204033
 30
0.0
 11
463.4744831150506
 21
202.2042376204033
 31
0.0
  0
ARC
  5
4D0
330
17
100
AcDbEntity
  8
4
100
AcDbCircle
 10
483.7940054842434
 20
88.20423762040332
 30
0.0
 40
3.0
100
AcDbArc
 50
270.0
 51
0.0
  0
ARC
  5
4D1
330
17
100
AcDbEntity
  8
4
100
AcDbCircle
 10
493.7940054842434
 20
82.20423762040332
 30
0.0
 40
3.0
100
AcDbArc
 50
0.0
 51
90.0
  0
ARC
  5
4D2
330
17
100
AcDbEntity
  8
4
100
AcDbCircle
 10
471.0852654842433
 20
112.4957416204034
 30
0.0
 40
4.999984
100
AcDbArc
 50
194.2174039999995
 51
255.7791989999985
  0
LINE
  5
4D3
330
17
100
AcDbEntity
  8
4
100
AcDbLine
 10
443.7940054842434
 20
100.2042376204033
 30
0.0
 11
443.7940054842434
 21
113.2042376204033
 31
0.0
  0
LINE
  5
4D4
330
17
100
AcDbEntity
  8
4
100
AcDbLine
 10
448.7940054842434
 20
113.2042376204033
 30
0.0
 11
443.7940054842434
 21
113.2042376204033
 31
0.0
  0
LINE
  5
4D5
330
17
100
AcDbEntity
  8
4
100
AcDbLine
 10
441.7940054842434
 20
105.7042376204033
 30
0.0
 11
443.7940054842434
 21
105.7042376204033
 31
0.0
  0
LINE
  5
4D6
330
17
100
AcDbEntity
  8
L-CENTER
100
AcDbLine
 10
438.7135614842432
 20
98.20423762040332
 30
0.0
 11
466.2704471587621
 21
98.20423762040332
 31
0.0
  0
LINE
  5
4D7
330
17
100
AcDbEntity
  8
4
100
AcDbLine
 10
441.7940054842434
 20
92.72092162040326
 30
0.0
 11
441.7940054842434
 21
105.7042376204033
 31
0.0
  0
ARC
  5
4D8
330
17
100
AcDbEntity
  8
4
100
AcDbCircle
 10
428.7940054842434
 20
100.2042376204033
 30
0.0
 40
15.0
100
AcDbArc
 50
270.0009360000004
 51
0.0
  0
ARC
  5
4D9
330
17
100
AcDbEntity
  8
4
100
AcDbCircle
 10
433.7940054842434
 20
100.2042376204033
 30
0.0
 40
15.0
100
AcDbArc
 50
270.0009360000004
 51
0.0
  0
ARC
  5
4DA
330
17
100
AcDbEntity
  8
4
100
AcDbCircle
 10
641.7942494842432
 20
786.2044816204034
 30
0.0
 40
700.000064
100
AcDbArc
 50
255.781683
 51
257.207539
  0
LINE
  5
4DB
330
17
100
AcDbEntity
  8
4
100
AcDbLine
 10
448.7940054842434
 20
208.4781616204034
 30
0.0
 11
448.7940054842434
 21
100.2042376204033
 31
0.0
  0
LINE
  5
4DC
330
17
100
AcDbEntity
  8
4
100
AcDbLine
 10
486.7940054842434
 20
88.20423762040332
 30
0.0
 11
486.7940054842434
 21
143.2042376204033
 31
0.0
  0
LINE
  5
4DD
330
17
100
AcDbEntity
  8
4
100
AcDbLine
 10
444.7940054842434
 20
222.2042376204033
 30
0.0
 11
444.7940054842434
 21
182.2042376204033
 31
0.0
  0
LINE
  5
4DE
330
17
100
AcDbEntity
  8
4
100
AcDbLine
 10
435.7940054842434
 20
184.2042376204033
 30
0.0
 11
435.7940054842434
 21
220.2042376204033
 31
0.0
  0
LINE
  5
4DF
330
17
100
AcDbEntity
  8
4
100
AcDbLine
 10
444.7940054842434
 20
185.2042376204033
 30
0.0
 11
444.7940054842434
 21
219.2042376204033
 31
0.0
  0
LINE
  5
4E0
330
17
100
AcDbEntity
  8
4
100
AcDbLine
 10
442.7940054842434
 20
184.2042376204033
 30
0.0
 11
442.7940054842434
 21
220.2042376204033
 31
0.0
  0
LINE
  5
4E1
330
17
100
AcDbEntity
  8
4
100
AcDbLine
 10
440.7940054842434
 20
184.2042376204033
 30
0.0
 11
440.7940054842434
 21
220.2042376204033
 31
0.0
  0
ARC
  5
4E2
330
17
100
AcDbEntity
  8
4
100
AcDbCircle
 10
584.5051854842432
 20
210.5789936204033
 30
0.0
 40
7.999967999999999
100
AcDbArc
 50
6.3637510000002
 51
79.28023800000005
  0
ARC
  5
4E3
330
17
100
AcDbEntity
  8
4
100
AcDbCircle
 10
641.7940054842434
 20
48.20423762040332
 30
0.0
 40
299.999976
100
AcDbArc
 50
79.95969799999997
 51
100.040351
  0
ARC
  5
4E4
330
17
100
AcDbEntity
  8
4
100
AcDbCircle
 10
641.7940054842434
 20
513.2042376204033
 30
0.0
 40
300.00002
100
AcDbArc
 50
259.112083
 51
280.888819
  0
ARC
  5
4E5
330
17
100
AcDbEntity
  8
4
100
AcDbCircle
 10
641.7940054842434
 20
518.2042376204033
 30
0.0
 40
300.000068
100
AcDbArc
 50
259.959987
 51
280.040823
  0
ARC
  5
4E6
330
17
100
AcDbEntity
  8
4
100
AcDbCircle
 10
641.7940054842434
 20
53.20423762040332
 30
0.0
 40
300.000008
100
AcDbArc
 50
79.11180300000005
 51
100.8883920000001
  0
ARC
  5
4E7
330
17
100
AcDbEntity
  8
4
100
AcDbCircle
 10
641.7937614842435
 20
786.2044816204034
 30
0.0
 40
699.999956
100
AcDbArc
 50
258.045518
 51
281.955459
  0
LINE
  5
4E8
330
17
100
AcDbEntity
  8
4
100
AcDbLine
 10
572.8169534842432
 20
83.20423762040332
 30
0.0
 11
710.7710574842436
 21
83.20423762040332
 31
0.0
  0
LINE
  5
4F1
330
17
100
AcDbEntity
  8
L-CENTER
100
AcDbLine
 10
456.7940054842434
 20
28.20423762040332
 30
0.0
 11
456.7940054842434
 21
100.2042376204033
 31
0.0
  0
LINE
  5
4F2
330
17
100
AcDbEntity
  8
4
100
AcDbLine
 10
496.7940054842434
 20
143.2042376204033
 30
0.0
 11
496.7940054842434
 21
43.20423762040332
 31
0.0
  0
LINE
  5
4F3
330
17
100
AcDbEntity
  8
4
100
AcDbLine
 10
786.7940054842434
 20
143.2042376204033
 30
0.0
 11
786.7940054842434
 21
43.20423762040332
 31
0.0
  0
LINE
  5
4F4
330
17
100
AcDbEntity
  8
4
100
AcDbLine
 10
521.7940054842434
 20
64.01820162040326
 30
0.0
 11
521.7940054842434
 21
43.20423762040332
 31
0.0
  0
LINE
  5
4F5
330
17
100
AcDbEntity
  8
4
100
AcDbLine
 10
761.7940054842434
 20
64.01820162040326
 30
0.0
 11
761.7940054842434
 21
43.20423762040332
 31
0.0
  0
LINE
  5
4F6
330
17
100
AcDbEntity
  8
L-CENTER
100
AcDbLine
 10
851.4149614842436
 20
283.2042376204033
 30
0.0
 11
432.0072614842434
 21
283.2042376204033
 31
0.0
  0
LINE
  5
4F9
330
17
100
AcDbEntity
  8
4
100
AcDbLine
 10
761.7940054842434
 20
43.20423762040332
 30
0.0
 11
861.7940054842434
 21
43.20423762040332
 31
0.0
  0
ARC
  5
4FA
330
17
100
AcDbEntity
  8
4
100
AcDbCircle
 10
789.7940054842434
 20
82.20423762040332
 30
0.0
 40
3.0
100
AcDbArc
 50
90.0
 51
180.0
  0
LINE
  5
4FB
330
17
100
AcDbEntity
  8
4
100
AcDbLine
 10
786.7940054842434
 20
143.2042376204033
 30
0.0
 11
796.7940054842434
 21
143.2042376204033
 31
0.0
  0
LINE
  5
4FC
330
17
100
AcDbEntity
  8
4
100
AcDbLine
 10
713.5325294842432
 20
332.5423736204034
 30
0.0
 11
792.9717414842435
 21
323.6829976204033
 31
0.0
  0
LINE
  5
4FD
330
17
100
AcDbEntity
  8
4
100
AcDbLine
 10
713.5325294842432
 20
233.8661016204032
 30
0.0
 11
792.9717414842435
 21
242.7254776204034
 31
0.0
  0
ARC
  5
51E
330
17
100
AcDbEntity
  8
4
100
AcDbCircle
 10
424.7940054842434
 20
82.20423762040332
 30
0.0
 40
3.0
100
AcDbArc
 50
90.0
 51
180.0
  0
LINE
  5
524
330
17
100
AcDbEntity
  8
4
100
AcDbLine
 10
421.7940054842434
 20
82.20423762040332
 30
0.0
 11
421.7940054842434
 21
43.20423762040332
 31
0.0
  0
LINE
  5
53D
330
17
100
AcDbEntity
  8
4
100
AcDbLine
 10
521.7940054842434
 20
43.20423762040332
 30
0.0
 11
421.7940054842434
 21
43.20423762040332
 31
0.0
  0
LINE
  5
53E
330
17
100
AcDbEntity
  8
4
100
AcDbLine
 10
493.7940054842434
 20
85.20423762040332
 30
0.0
 11
424.7940054842434
 21
85.20423762040332
 31
0.0
  0
LINE
  5
544
330
17
100
AcDbEntity
  8
L-CENTER
100
AcDbLine
 10
641.7940054842434
 20
641.2042376204033
 30
0.0
 11
641.7940054842434
 21
73.58328162040311
 31
0.0
  0
CIRCLE
  5
545
330
17
100
AcDbEntity
  8
4
100
AcDbCircle
 10
641.7940054842434
 20
283.2042376204033
 30
0.0
 40
194.0
  0
ARC
  5
546
330
17
100
AcDbEntity
  8
4
100
AcDbCircle
 10
641.7940054842434
 20
283.2042376204033
 30
0.0
 40
169.0
100
AcDbArc
 50
98.4361163663814
 51
81.5638836336186
  0
ARC
  5
547
330
17
100
AcDbEntity
  8
4
100
AcDbCircle
 10
138.7940054842434
 20
283.2042376204033
 30
0.0
 40
699.999984
100
AcDbArc
 50
345.782153
 51
14.21872899999995
  0
ARC
  5
548
330
17
100
AcDbEntity
  8
4
100
AcDbCircle
 10
1144.794005484243
 20
283.2042376204033
 30
0.0
 40
700.000108
100
AcDbArc
 50
165.7817459999999
 51
194.218564
  0
LINE
  5
54D
330
17
100
AcDbEntity
  8
L-CENTER
100
AcDbLine
 10
469.7940054842434
 20
595.0737456204033
 30
0.0
 11
469.7940054842434
 21
555.9689362998377
 31
0.0
  0
SPLINE
  5
54E
330
17
100
AcDbEntity
  8
4
100
AcDbSpline
210
0.0
220
0.0
230
1.0
 70
     8
 71
     3
 72
    10
 73
     6
 74
     0
 42
0.000000001
 43
0.0
 40
9.157390938127389
 40
9.157390938127389
 40
9.157390938127389
 40
9.157390938127389
 40
20.94039049464871
 40
39.88094739165081
 40
53.24894958819971
 40
53.24894958819971
 40
53.24894958819971
 40
53.24894958819971
 10
799.4398440770804
 20
85.20423762040332
 30
0.0
 10
798.1577722643319
 20
81.3070945232597
 30
0.0
 10
796.6215369834787
 20
70.77488711895398
 30
0.0
 10
808.4731682004494
 20
58.19576338008949
 30
0.0
 10
805.5033095788756
 20
47.55216948339648
 30
0.0
 10
803.7364690424231
 20
43.20423762040343
 30
0.0
  0
ARC
  5
54F
330
17
100
AcDbEntity
  8
4
100
AcDbCircle
 10
641.7940054842434
 20
433.2042376204033
 30
0.0
 40
22.5
100
AcDbArc
 50
180.0
 51
0.0
  0
LINE
  5
550
330
17
100
AcDbEntity
  8
4
100
AcDbLine
 10
664.2940054842434
 20
433.2042376204033
 30
0.0
 11
664.2940054842433
 21
448.3973064822657
 31
0.0
  0
LINE
  5
551
330
17
100
AcDbEntity
  8
4
100
AcDbLine
 10
690.7511483408198
 20
540.3580837741176
 30
0.0
 11
690.7511483408198
 21
512.0503914644037
 31
0.0
  0
ARC
  5
552
330
17
100
AcDbEntity
  8
4
100
AcDbCircle
 10
700.597302187678
 20
520.0503914649751
 30
0.0
 40
1.846153846285714
100
AcDbArc
 50
180.0
 51
270.0
  0
LINE
  5
553
330
17
100
AcDbEntity
  8
4
100
AcDbLine
 10
692.5973021871059
 20
510.204237618118
 30
0.0
 11
713.036862626534
 21
510.204237618118
 31
0.0
  0
ARC
  5
554
330
17
100
AcDbEntity
  8
4
100
AcDbCircle
 10
692.5973021871059
 20
512.0503914644037
 30
0.0
 40
1.846153846285714
100
AcDbArc
 50
180.0
 51
270.0
  0
LINE
  5
555
330
17
100
AcDbEntity
  8
4
100
AcDbLine
 10
700.597302187678
 20
518.2042376186894
 30
0.0
 11
713.036862626534
 21
518.2042376186894
 31
0.0
  0
ARC
  5
556
330
17
100
AcDbEntity
  8
4
100
AcDbCircle
 10
713.036862626534
 20
516.4899519044036
 30
0.0
 40
1.714285714285714
100
AcDbArc
 50
0.0
 51
90.0
  0
ARC
  5
557
330
17
100
AcDbEntity
  8
4
100
AcDbCircle
 10
713.036862626534
 20
511.9185233324038
 30
0.0
 40
1.714285714285714
100
AcDbArc
 50
270.0
 51
0.0
  0
LINE
  5
558
330
17
100
AcDbEntity
  8
4
100
AcDbLine
 10
714.7511483408198
 20
516.4899519044036
 30
0.0
 11
714.7511483408198
 21
511.9185233324038
 31
0.0
  0
LINE
  5
559
330
17
100
AcDbEntity
  8
4
100
AcDbLine
 10
698.7511483413923
 20
540.3580837741176
 30
0.0
 11
698.7511483413923
 21
520.0503914649751
 31
0.0
  0
LINE
  5
55A
330
17
100
AcDbEntity
  8
4
100
AcDbLine
 10
692.5973021871059
 20
542.2042376204033
 30
0.0
 11
696.9049944951066
 21
542.2042376204033
 31
0.0
  0
ARC
  5
55B
330
17
100
AcDbEntity
  8
4
100
AcDbCircle
 10
692.5973021871059
 20
540.3580837741176
 30
0.0
 40
1.846153846285714
100
AcDbArc
 50
90.0
 51
180.0
  0
ARC
  5
55C
330
17
100
AcDbEntity
  8
4
100
AcDbCircle
 10
696.9049944951066
 20
540.3580837741176
 30
0.0
 40
1.846153846285714
100
AcDbArc
 50
0.0
 51
90.0
  0
LINE
  5
55D
330
17
100
AcDbEntity
  8
4
100
AcDbLine
 10
744.7654340551044
 20
519.0670970496653
 30
0.0
 11
744.7654340551053
 21
515.918523332404
 31
0.0
  0
LINE
  5
55E
330
17
100
AcDbEntity
  8
4
100
AcDbLine
 10
720.7654340551053
 20
540.4899519061182
 30
0.0
 11
720.7654340551053
 21
511.918523332404
 31
0.0
  0
LINE
  5
55F
330
17
100
AcDbEntity
  8
4
100
AcDbLine
 10
722.4797197693911
 20
510.2042376181182
 30
0.0
 11
739.0511483408195
 21
510.2042376181182
 31
0.0
  0
ARC
  5
560
330
17
100
AcDbEntity
  8
4
100
AcDbCircle
 10
722.4797197693911
 20
511.918523332404
 30
0.0
 40
1.714285714285714
100
AcDbArc
 50
180.0
 51
270.0
  0
ARC
  5
561
330
17
100
AcDbEntity
  8
4
100
AcDbCircle
 10
739.0511483408195
 20
515.918523332404
 30
0.0
 40
5.714285714285714
100
AcDbArc
 50
270.0
 51
0.0
  0
LINE
  5
562
330
17
100
AcDbEntity
  8
4
100
AcDbLine
 10
752.6258736156738
 20
530.2042376195463
 30
0.0
 11
756.9335659236735
 21
530.2042376195463
 31
0.0
  0
LINE
  5
563
330
17
100
AcDbEntity
  8
4
100
AcDbLine
 10
752.6258736156751
 20
522.2042376189752
 30
0.0
 11
756.9335659236745
 21
522.2042376189752
 31
0.0
  0
LINE
  5
564
330
17
100
AcDbEntity
  8
4
100
AcDbLine
 10
722.4797197693911
 20
542.204237620404
 30
0.0
 11
739.051148340815
 21
542.204237620404
 31
0.0
  0
ARC
  5
565
330
17
100
AcDbEntity
  8
4
100
AcDbCircle
 10
722.4797197693911
 20
540.4899519061182
 30
0.0
 40
1.714285714285714
100
AcDbArc
 50
90.0
 51
180.0
  0
ARC
  5
566
330
17
100
AcDbEntity
  8
4
100
AcDbCircle
 10
752.6258736156751
 20
524.0503914652606
 30
0.0
 40
1.846153846285714
100
AcDbArc
 50
180.0
 51
270.0
  0
ARC
  5
567
330
17
100
AcDbEntity
  8
4
100
AcDbCircle
 10
752.6258736156738
 20
528.3580837732609
 30
0.0
 40
1.846153846285714
100
AcDbArc
 50
90.0
 51
180.0
  0
LINE
  5
568
330
17
100
AcDbEntity
  8
4
100
AcDbLine
 10
750.7797197693881
 20
528.3580837732609
 30
0.0
 11
750.779719769389
 21
524.0503914652606
 31
0.0
  0
ARC
  5
569
330
17
100
AcDbEntity
  8
4
100
AcDbCircle
 10
744.7654340551035
 20
526.2042376192637
 30
0.0
 40
3.428571428571428
100
AcDbArc
 50
128.6821874535039
 51
231.3178125465258
  0
ARC
  5
56A
330
17
100
AcDbEntity
  8
4
100
AcDbCircle
 10
739.0511483408154
 20
533.3413781888605
 30
0.0
 40
5.714285714285714
100
AcDbArc
 50
308.6821874535033
 51
0.0
  0
LINE
  5
56B
330
17
100
AcDbEntity
  8
4
100
AcDbLine
 10
744.7654340551007
 20
536.4899519061194
 30
0.0
 11
744.7654340551012
 21
533.3413781888619
 31
0.0
  0
ARC
  5
56C
330
17
100
AcDbEntity
  8
4
100
AcDbCircle
 10
739.051148340815
 20
536.4899519061182
 30
0.0
 40
5.714285714285714
100
AcDbArc
 50
0.0
 51
90.0
  0
ARC
  5
56D
330
17
100
AcDbEntity
  8
4
100
AcDbCircle
 10
739.051148340819
 20
519.0670970496637
 30
0.0
 40
5.714285714285714
100
AcDbArc
 50
0.0
 51
51.31781254652364
  0
LINE
  5
56E
330
17
100
AcDbEntity
  8
4
100
AcDbLine
 10
758.7797197699597
 20
528.3580837732609
 30
0.0
 11
758.7797197699606
 21
524.0503914652606
 31
0.0
  0
ARC
  5
56F
330
17
100
AcDbEntity
  8
4
100
AcDbCircle
 10
756.9335659236745
 20
524.0503914652606
 30
0.0
 40
1.846153846285714
100
AcDbArc
 50
270.0
 51
0.0
  0
ARC
  5
570
330
17
100
AcDbEntity
  8
4
100
AcDbCircle
 10
756.9335659236735
 20
528.3580837732609
 30
0.0
 40
1.846153846285714
100
AcDbArc
 50
0.0
 51
90.0
  0
LINE
  5
571
330
17
100
AcDbEntity
  8
4
100
AcDbLine
 10
799.7940054842411
 20
547.2042376204045
 30
0.0
 11
799.7940054842484
 21
505.2042376181194
 31
0.0
  0
LINE
  5
572
330
17
100
AcDbEntity
  8
4
100
AcDbLine
 10
685.7511483408198
 20
553.2042376204033
 30
0.0
 11
793.7940054842411
 21
553.2042376204033
 31
0.0
  0
LINE
  5
573
330
17
100
AcDbEntity
  8
4
100
AcDbLine
 10
685.7511483408198
 20
499.2042376181182
 30
0.0
 11
793.7940054842484
 21
499.2042376181182
 31
0.0
  0
LINE
  5
574
330
17
100
AcDbEntity
  8
4
100
AcDbLine
 10
679.7511483408198
 20
547.2042376204033
 30
0.0
 11
679.7511483408198
 21
505.2042376181182
 31
0.0
  0
ARC
  5
575
330
17
100
AcDbEntity
  8
4
100
AcDbCircle
 10
685.7511483408198
 20
547.2042376204033
 30
0.0
 40
6.0
100
AcDbArc
 50
90.0
 51
180.0
  0
ARC
  5
576
330
17
100
AcDbEntity
  8
4
100
AcDbCircle
 10
793.7940054842411
 20
547.2042376204033
 30
0.0
 40
6.0
100
AcDbArc
 50
0.0
 51
90.0
  0
ARC
  5
577
330
17
100
AcDbEntity
  8
4
100
AcDbCircle
 10
793.7940054842484
 20
505.2042376181182
 30
0.0
 40
6.0
100
AcDbArc
 50
270.0
 51
0.0
  0
ARC
  5
578
330
17
100
AcDbEntity
  8
4
100
AcDbCircle
 10
685.7511483408198
 20
505.2042376181182
 30
0.0
 40
6.0
100
AcDbArc
 50
180.0
 51
270.0
  0
ARC
  5
579
330
17
100
AcDbEntity
  8
4
100
AcDbCircle
 10
783.0797197699558
 20
519.0670970496637
 30
0.0
 40
5.714285714285714
100
AcDbArc
 50
0.0
 51
51.31781254652364
  0
ARC
  5
57A
330
17
100
AcDbEntity
  8
4
100
AcDbCircle
 10
783.0797197699517
 20
536.4899519061182
 30
0.0
 40
5.714285714285714
100
AcDbArc
 50
0.0
 51
90.0
  0
LINE
  5
57B
330
17
100
AcDbEntity
  8
4
100
AcDbLine
 10
788.7940054842375
 20
536.4899519061194
 30
0.0
 11
788.7940054842379
 21
533.3413781888619
 31
0.0
  0
ARC
  5
57C
330
17
100
AcDbEntity
  8
4
100
AcDbCircle
 10
783.0797197699521
 20
533.3413781888605
 30
0.0
 40
5.714285714285714
100
AcDbArc
 50
308.6821874535033
 51
0.0
  0
ARC
  5
57D
330
17
100
AcDbEntity
  8
4
100
AcDbCircle
 10
788.7940054842402
 20
526.2042376192637
 30
0.0
 40
3.428571428571428
100
AcDbArc
 50
128.6821874535039
 51
231.3178125465258
  0
LINE
  5
57E
330
17
100
AcDbEntity
  8
4
100
AcDbLine
 10
770.5082911985328
 20
542.204237620404
 30
0.0
 11
783.0797197699517
 21
542.204237620404
 31
0.0
  0
ARC
  5
57F
330
17
100
AcDbEntity
  8
4
100
AcDbCircle
 10
783.0797197699562
 20
515.918523332404
 30
0.0
 40
5.714285714285714
100
AcDbArc
 50
270.0
 51
0.0
  0
LINE
  5
580
330
17
100
AcDbEntity
  8
4
100
AcDbLine
 10
770.5082911985278
 20
510.2042376181182
 30
0.0
 11
783.0797197699562
 21
510.2042376181182
 31
0.0
  0
LINE
  5
581
330
17
100
AcDbEntity
  8
4
100
AcDbLine
 10
788.7940054842411
 20
519.0670970496653
 30
0.0
 11
788.794005484242
 21
515.918523332404
 31
0.0
  0
LINE
  5
582
330
17
100
AcDbEntity
  8
4
100
AcDbLine
 10
764.7940054842434
 20
519.0670970496653
 30
0.0
 11
764.7940054842425
 21
515.918523332404
 31
0.0
  0
ARC
  5
583
330
17
100
AcDbEntity
  8
4
100
AcDbCircle
 10
770.5082911985278
 20
515.918523332404
 30
0.0
 40
5.714285714285714
100
AcDbArc
 50
180.0
 51
270.0
  0
ARC
  5
584
330
17
100
AcDbEntity
  8
4
100
AcDbCircle
 10
764.7940054842443
 20
526.2042376192637
 30
0.0
 40
3.428571428571428
100
AcDbArc
 50
308.6821874534742
 51
51.31781254649611
  0
ARC
  5
585
330
17
100
AcDbEntity
  8
4
100
AcDbCircle
 10
770.5082911985319
 20
533.3413781888605
 30
0.0
 40
5.714285714285714
100
AcDbArc
 50
180.0
 51
231.3178125464945
  0
LINE
  5
586
330
17
100
AcDbEntity
  8
4
100
AcDbLine
 10
764.794005484247
 20
536.4899519061194
 30
0.0
 11
764.7940054842466
 21
533.3413781888619
 31
0.0
  0
ARC
  5
587
330
17
100
AcDbEntity
  8
4
100
AcDbCircle
 10
770.5082911985328
 20
536.4899519061182
 30
0.0
 40
5.714285714285714
100
AcDbArc
 50
90.0
 51
180.0
  0
ARC
  5
588
330
17
100
AcDbEntity
  8
4
100
AcDbCircle
 10
770.5082911985282
 20
519.0670970496637
 30
0.0
 40
5.714285714285714
100
AcDbArc
 50
128.6821874534764
 51
180.0
  0
LINE
  5
589
330
17
100
AcDbEntity
  8
4
100
AcDbLine
 10
619.2940054842434
 20
433.2042376204033
 30
0.0
 11
619.2940054842435
 21
448.3973064822657
 31
0.0
  0
LINE
  5
58A
330
17
100
AcDbEntity
  8
4
100
AcDbLine
 10
1433.234106517347
 20
553.1043809246969
 30
0.0
 11
1430.514716655048
 21
553.3394662820003
 31
0.0
  0
LINE
  5
58B
330
17
100
AcDbEntity
  8
4
100
AcDbLine
 10
1428.349895037162
 20
551.5191510997495
 30
0.0
 11
1425.108628282309
 21
514.0252465228721
 31
0.0
  0
ARC
  5
58C
330
17
100
AcDbEntity
  8
4
100
AcDbCircle
 10
1430.342463437231
 20
551.3468978819319
 30
0.0
 40
2.0
100
AcDbArc
 50
85.05918759826235
 51
175.0591875982559
  0
LINE
  5
58D
330
17
100
AcDbEntity
  8
4
100
AcDbLine
 10
679.7511483408198
 20
1047.53234503093
 30
0.0
 11
679.7511483408198
 21
1045.532345030931
 31
0.0
  0
LINE
  5
58E
330
17
100
AcDbEntity
  8
4
100
AcDbLine
 10
799.7940054842466
 20
1047.532345030931
 30
0.0
 11
799.794005484247
 21
1045.532345030931
 31
0.0
  0
LINE
  5
58F
330
17
100
AcDbEntity
  8
4
100
AcDbLine
 10
681.7511483408198
 20
1043.532345030931
 30
0.0
 11
797.794005484247
 21
1043.532345030931
 31
0.0
  0
ARC
  5
590
330
17
100
AcDbEntity
  8
4
100
AcDbCircle
 10
681.7511483408198
 20
1045.532345030931
 30
0.0
 40
2.0
100
AcDbArc
 50
180.0
 51
270.0
  0
ARC
  5
591
330
17
100
AcDbEntity
  8
4
100
AcDbCircle
 10
797.794005484247
 20
1045.532345030931
 30
0.0
 40
2.0
100
AcDbArc
 50
270.0
 51
0.0
  0
ARC
  5
592
330
17
100
AcDbEntity
  8
4
100
AcDbCircle
 10
617.2940054842435
 20
448.3973064822657
 30
0.0
 40
2.0
100
AcDbArc
 50
0.0
 51
98.43611636638005
  0
ARC
  5
593
330
17
100
AcDbEntity
  8
4
100
AcDbCircle
 10
666.2940054842433
 20
448.3973064822657
 30
0.0
 40
2.0
100
AcDbArc
 50
81.56388363361995
 51
180.0
  0
ARC
  5
594
330
17
100
AcDbEntity
  8
4
100
AcDbCircle
 10
592.3706654842435
 20
435.3795296204031
 30
0.0
 40
8.999988
100
AcDbArc
 50
354.1535008175786
 51
107.9940760000011
  0
LINE
  5
595
330
17
100
AcDbEntity
  8
4
100
AcDbLine
 10
601.3238388547921
 20
434.4627577856246
 30
0.0
 11
592.4558694842436
 21
354.9427656204033
 31
0.0
  0
ARC
  5
596
330
17
100
AcDbEntity
  8
4
100
AcDbCircle
 10
584.5051854842433
 20
355.8294816204033
 30
0.0
 40
7.999967999999999
100
AcDbArc
 50
280.7197629999997
 51
353.6362569999999
  0
LINE
  5
5BA
330
17
100
AcDbEntity
  8
4
100
AcDbLine
 10
321.7940054842434
 20
505.2042376204029
 30
0.0
 11
322.7940054842434
 21
506.2042376204029
 31
0.0
  0
LINE
  5
5BB
330
17
100
AcDbEntity
  8
4
100
AcDbLine
 10
322.7940054842434
 20
460.2042376204029
 30
0.0
 11
321.7940054842434
 21
461.2042376204029
 31
0.0
  0
LINE
  5
5BC
330
17
100
AcDbEntity
  8
4
100
AcDbLine
 10
321.7940054842434
 20
509.7042376204029
 30
0.0
 11
321.7940054842434
 21
461.2042376204029
 31
0.0
  0
LINE
  5
5BD
330
17
100
AcDbEntity
  8
4
100
AcDbLine
 10
322.7940054842434
 20
506.2042376204029
 30
0.0
 11
322.7940054842434
 21
460.2042376204029
 31
0.0
  0
LINE
  5
5BE
330
17
100
AcDbEntity
  8
4
100
AcDbLine
 10
411.7940054842434
 20
509.704237620403
 30
0.0
 11
411.7940054842434
 21
506.204237620403
 31
0.0
  0
LINE
  5
5BF
330
17
100
AcDbEntity
  8
4
100
AcDbLine
 10
433.9941014842434
 20
519.2042376204031
 30
0.0
 11
434.9941014842434
 21
519.2042376204031
 31
0.0
  0
LINE
  5
5C0
330
17
100
AcDbEntity
  8
4
100
AcDbLine
 10
421.7940054842434
 20
508.204237620403
 30
0.0
 11
433.9941014842434
 21
508.2042376204031
 31
0.0
  0
LINE
  5
5C1
330
17
100
AcDbEntity
  8
4
100
AcDbLine
 10
433.9941014842434
 20
458.2042376204031
 30
0.0
 11
421.7940054842434
 21
458.204237620403
 31
0.0
  0
LINE
  5
5C2
330
17
100
AcDbEntity
  8
4
100
AcDbLine
 10
421.7940054842434
 20
508.204237620403
 30
0.0
 11
421.7940054842434
 21
458.204237620403
 31
0.0
  0
LINE
  5
5C3
330
17
100
AcDbEntity
  8
4
100
AcDbLine
 10
433.9941014842435
 20
447.2042376204031
 30
0.0
 11
434.9941014842435
 21
447.2042376204031
 31
0.0
  0
LINE
  5
5C4
330
17
100
AcDbEntity
  8
4
100
AcDbLine
 10
433.9941014842435
 20
447.2042376204031
 30
0.0
 11
433.9941014842434
 21
519.2042376204031
 31
0.0
  0
LINE
  5
5C5
330
17
100
AcDbEntity
  8
4
100
AcDbLine
 10
421.7940054842434
 20
506.204237620403
 30
0.0
 11
322.7940054842434
 21
506.2042376204029
 31
0.0
  0
LINE
  5
5C6
330
17
100
AcDbEntity
  8
4
100
AcDbLine
 10
321.7940054842434
 20
509.7042376204029
 30
0.0
 11
411.7940054842434
 21
509.704237620403
 31
0.0
  0
LINE
  5
5C7
330
17
100
AcDbEntity
  8
4
100
AcDbLine
 10
421.7940054842434
 20
460.204237620403
 30
0.0
 11
322.7940054842434
 21
460.2042376204029
 31
0.0
  0
LINE
  5
5DF
330
17
100
AcDbEntity
  8
4
100
AcDbLine
 10
322.7940054842434
 20
1146.53234503093
 30
0.0
 11
321.7940054842434
 21
1145.53234503093
 31
0.0
  0
LINE
  5
5E0
330
17
100
AcDbEntity
  8
4
100
AcDbLine
 10
322.7940054842434
 20
1146.53234503093
 30
0.0
 11
322.7940054842434
 21
1129.53234503093
 31
0.0
  0
LINE
  5
5E1
330
17
100
AcDbEntity
  8
4
100
AcDbLine
 10
321.7940054842434
 20
1101.53234503093
 30
0.0
 11
322.7940054842434
 21
1100.53234503093
 31
0.0
  0
LINE
  5
5E2
330
17
100
AcDbEntity
  8
4
100
AcDbLine
 10
321.7940054842434
 20
1145.53234503093
 30
0.0
 11
321.7940054842434
 21
1101.53234503093
 31
0.0
  0
LINE
  5
5E3
330
17
100
AcDbEntity
  8
4
100
AcDbLine
 10
322.7940054842434
 20
1117.53234503093
 30
0.0
 11
322.7940054842434
 21
1100.53234503093
 31
0.0
  0
ARC
  5
5E4
330
17
100
AcDbEntity
  8
4
100
AcDbCircle
 10
419.7940054842434
 20
1148.53234503093
 30
0.0
 40
2.0
100
AcDbArc
 50
270.0
 51
0.0
  0
LINE
  5
5E5
330
17
100
AcDbEntity
  8
4
100
AcDbLine
 10
433.9940054842432
 20
1159.53234503093
 30
0.0
 11
434.9940054842432
 21
1159.53234503093
 31
0.0
  0
LINE
  5
5E6
330
17
100
AcDbEntity
  8
4
100
AcDbLine
 10
421.7940054842434
 20
1148.53234503093
 30
0.0
 11
433.9940054842432
 21
1148.53234503093
 31
0.0
  0
ARC
  5
5E7
330
17
100
AcDbEntity
  8
4
100
AcDbCircle
 10
405.7940054842434
 20
1123.53234503093
 30
0.0
 40
6.0
100
AcDbArc
 50
270.0
 51
90.0
  0
ARC
  5
5E8
330
17
100
AcDbEntity
  8
4
100
AcDbCircle
 10
419.7940054842434
 20
1098.53234503093
 30
0.0
 40
2.0
100
AcDbArc
 50
0.0
 51
90.0
  0
LINE
  5
5E9
330
17
100
AcDbEntity
  8
4
100
AcDbLine
 10
433.9940054842432
 20
1087.53234503093
 30
0.0
 11
434.9940054842432
 21
1087.53234503093
 31
0.0
  0
LINE
  5
5EA
330
17
100
AcDbEntity
  8
4
100
AcDbLine
 10
421.7940054842434
 20
1098.53234503093
 30
0.0
 11
433.9940054842432
 21
1098.53234503093
 31
0.0
  0
LINE
  5
5EB
330
17
100
AcDbEntity
  8
4
100
AcDbLine
 10
433.9940054842432
 20
1087.53234503093
 30
0.0
 11
433.9940054842432
 21
1159.53234503093
 31
0.0
  0
LINE
  5
5EC
330
17
100
AcDbEntity
  8
4
100
AcDbLine
 10
421.7940054842434
 20
1098.53234503093
 30
0.0
 11
421.7940054842434
 21
1148.53234503093
 31
0.0
  0
LINE
  5
5ED
330
17
100
AcDbEntity
  8
4
100
AcDbLine
 10
321.7940054842434
 20
1129.53234503093
 30
0.0
 11
405.7940054842434
 21
1129.53234503093
 31
0.0
  0
LINE
  5
5EE
330
17
100
AcDbEntity
  8
4
100
AcDbLine
 10
321.7940054842434
 20
1117.53234503093
 30
0.0
 11
405.7940054842434
 21
1117.53234503093
 31
0.0
  0
LINE
  5
5EF
330
17
100
AcDbEntity
  8
4
100
AcDbLine
 10
419.7940054842434
 20
1100.53234503093
 30
0.0
 11
322.7940054842434
 21
1100.53234503093
 31
0.0
  0
LINE
  5
5F0
330
17
100
AcDbEntity
  8
4
100
AcDbLine
 10
419.7940054842434
 20
1146.53234503093
 30
0.0
 11
322.7940054842434
 21
1146.53234503093
 31
0.0
  0
LINE
  5
5F2
330
17
100
AcDbEntity
  8
4
100
AcDbLine
 10
1234.323938735743
 20
316.2042376204033
 30
0.0
 11
1235.323938735743
 21
317.2042376204033
 31
0.0
  0
LINE
  5
5F3
330
17
100
AcDbEntity
  8
4
100
AcDbLine
 10
1235.323938735743
 20
249.2042376204033
 30
0.0
 11
1234.323938735743
 21
250.2042376204033
 31
0.0
  0
LINE
  5
5F4
330
17
100
AcDbEntity
  8
4
100
AcDbLine
 10
1234.323938735743
 20
323.2042376204033
 30
0.0
 11
1234.323938735743
 21
250.2042376204033
 31
0.0
  0
LINE
  5
5F5
330
17
100
AcDbEntity
  8
4
100
AcDbLine
 10
1235.323938735743
 20
317.2042376204033
 30
0.0
 11
1235.323938735743
 21
249.2042376204033
 31
0.0
  0
LINE
  5
5F6
330
17
100
AcDbEntity
  8
4
100
AcDbLine
 10
1344.323938735743
 20
323.2042376204033
 30
0.0
 11
1344.323938735743
 21
317.2042376204033
 31
0.0
  0
LINE
  5
5F7
330
17
100
AcDbEntity
  8
4
100
AcDbLine
 10
1364.323938735743
 20
333.2042376204033
 30
0.0
 11
1363.323938735743
 21
333.2042376204033
 31
0.0
  0
LINE
  5
5F8
330
17
100
AcDbEntity
  8
4
100
AcDbLine
 10
1354.323938735743
 20
318.2042376204033
 30
0.0
 11
1363.323938735743
 21
318.2042376204033
 31
0.0
  0
LINE
  5
5F9
330
17
100
AcDbEntity
  8
4
100
AcDbLine
 10
1364.323938735743
 20
233.2042376204033
 30
0.0
 11
1363.323938735743
 21
233.2042376204033
 31
0.0
  0
LINE
  5
5FA
330
17
100
AcDbEntity
  8
4
100
AcDbLine
 10
1363.323938735743
 20
248.2042376204033
 30
0.0
 11
1354.323938735743
 21
248.2042376204033
 31
0.0
  0
LINE
  5
5FB
330
17
100
AcDbEntity
  8
4
100
AcDbLine
 10
1354.323938735743
 20
318.2042376204033
 30
0.0
 11
1354.323938735743
 21
248.2042376204033
 31
0.0
  0
LINE
  5
5FC
330
17
100
AcDbEntity
  8
4
100
AcDbLine
 10
1363.323938735743
 20
233.2042376204033
 30
0.0
 11
1363.323938735743
 21
333.2042376204033
 31
0.0
  0
LINE
  5
5FD
330
17
100
AcDbEntity
  8
4
100
AcDbLine
 10
1234.323938735743
 20
323.2042376204033
 30
0.0
 11
1344.323938735743
 21
323.2042376204033
 31
0.0
  0
LINE
  5
5FE
330
17
100
AcDbEntity
  8
4
100
AcDbLine
 10
1354.323938735743
 20
317.2042376204033
 30
0.0
 11
1235.323938735743
 21
317.2042376204033
 31
0.0
  0
LINE
  5
5FF
330
17
100
AcDbEntity
  8
4
100
AcDbLine
 10
1354.323938735743
 20
249.2042376204033
 30
0.0
 11
1235.323938735743
 21
249.2042376204033
 31
0.0
  0
LINE
  5
606
330
17
100
AcDbEntity
  8
4
100
AcDbLine
 10
650.7940054842435
 20
323.2042376204033
 30
0.0
 11
650.7940054842435
 21
311.2042376204033
 31
0.0
  0
LINE
  5
607
330
17
100
AcDbEntity
  8
4
100
AcDbLine
 10
632.7940054842435
 20
311.2042376204033
 30
0.0
 11
632.7940054842435
 21
323.2042376204033
 31
0.0
  0
LINE
  5
608
330
17
100
AcDbEntity
  8
4
100
AcDbLine
 10
650.7940054842435
 20
311.2042376204033
 30
0.0
 11
632.7940054842435
 21
311.2042376204033
 31
0.0
  0
LINE
  5
609
330
17
100
AcDbEntity
  8
4
100
AcDbLine
 10
650.7940054842435
 20
323.2042376204033
 30
0.0
 11
632.7940054842435
 21
323.2042376204033
 31
0.0
  0
ARC
  5
60A
330
17
100
AcDbEntity
  8
4
100
AcDbCircle
 10
641.7940054842435
 20
283.2042376204033
 30
0.0
 40
33.99992
100
AcDbArc
 50
105.3495140230844
 51
74.65048600000011
  0
CIRCLE
  5
60C
330
17
100
AcDbEntity
  8
4
100
AcDbCircle
 10
641.7940054842435
 20
283.2042376204033
 30
0.0
 40
50.0
  0
LINE
  5
60D
330
17
100
AcDbEntity
  8
4
100
AcDbLine
 10
675.7940054842434
 20
854.5323450309304
 30
0.0
 11
674.7940054842434
 21
853.5323450309304
 31
0.0
  0
LINE
  5
60E
330
17
100
AcDbEntity
  8
4
100
AcDbLine
 10
674.7940054842434
 20
853.5323450309304
 30
0.0
 11
608.7940054842434
 21
853.5323450309304
 31
0.0
  0
LINE
  5
60F
330
17
100
AcDbEntity
  8
4
100
AcDbLine
 10
650.7940054842434
 20
854.5323450309304
 30
0.0
 11
675.7940054842434
 21
854.5323450309304
 31
0.0
  0
LINE
  5
610
330
17
100
AcDbEntity
  8
4
100
AcDbLine
 10
607.7940054842434
 20
854.5323450309304
 30
0.0
 11
632.7940054842434
 21
854.5323450309304
 31
0.0
  0
LINE
  5
611
330
17
100
AcDbEntity
  8
4
100
AcDbLine
 10
607.7940054842434
 20
854.5323450309304
 30
0.0
 11
608.7940054842434
 21
853.5323450309304
 31
0.0
  0
LINE
  5
612
330
17
100
AcDbEntity
  8
4
100
AcDbLine
 10
676.7940054842434
 20
982.5323450309311
 30
0.0
 11
676.7940054842434
 21
973.5323450309304
 31
0.0
  0
LINE
  5
613
330
17
100
AcDbEntity
  8
4
100
AcDbLine
 10
691.7940054842434
 20
982.5323450309306
 30
0.0
 11
691.7940054842434
 21
983.5323450309306
 31
0.0
  0
ARC
  5
614
330
17
100
AcDbEntity
  8
4
100
AcDbCircle
 10
676.7940054842434
 20
972.5323450309302
 30
0.0
 40
1.0
100
AcDbArc
 50
90.0
 51
180.0
  0
ARC
  5
615
330
17
100
AcDbEntity
  8
4
100
AcDbCircle
 10
641.7940054842434
 20
954.5323450309302
 30
0.0
 40
9.0
100
AcDbArc
 50
0.0
 51
180.0
  0
ARC
  5
616
330
17
100
AcDbEntity
  8
4
100
AcDbCircle
 10
606.7940054842434
 20
972.5323450309302
 30
0.0
 40
1.0
100
AcDbArc
 50
0.0
 51
90.0
  0
LINE
  5
617
330
17
100
AcDbEntity
  8
4
100
AcDbLine
 10
591.7940054842434
 20
982.5323450309306
 30
0.0
 11
591.7940054842434
 21
983.5323450309306
 31
0.0
  0
LINE
  5
618
330
17
100
AcDbEntity
  8
4
100
AcDbLine
 10
606.7940054842434
 20
982.5323450309311
 30
0.0
 11
606.7940054842434
 21
973.5323450309304
 31
0.0
  0
LINE
  5
619
330
17
100
AcDbEntity
  8
4
100
AcDbLine
 10
606.7940054842434
 20
973.5323450309304
 30
0.0
 11
676.7940054842434
 21
973.5323450309304
 31
0.0
  0
LINE
  5
61A
330
17
100
AcDbEntity
  8
4
100
AcDbLine
 10
591.7940054842434
 20
982.5323450309309
 30
0.0
 11
691.7940054842434
 21
982.5323450309309
 31
0.0
  0
LINE
  5
61B
330
17
100
AcDbEntity
  8
4
100
AcDbLine
 10
650.7940054842434
 20
853.5323450309304
 30
0.0
 11
650.7940054842434
 21
954.5323450309304
 31
0.0
  0
LINE
  5
61C
330
17
100
AcDbEntity
  8
4
100
AcDbLine
 10
632.7940054842434
 20
853.5323450309304
 30
0.0
 11
632.7940054842434
 21
954.5323450309304
 31
0.0
  0
LINE
  5
61D
330
17
100
AcDbEntity
  8
4
100
AcDbLine
 10
607.7940054842434
 20
972.5323450309304
 30
0.0
 11
607.7940054842434
 21
854.5323450309304
 31
0.0
  0
LINE
  5
61E
330
17
100
AcDbEntity
  8
4
100
AcDbLine
 10
675.7940054842434
 20
972.5323450309304
 30
0.0
 11
675.7940054842434
 21
854.5323450309304
 31
0.0
  0
ENDSEC
  0
SECTION
  2
OBJECTS
  0
DICTIONARY
  5
5
330
0
100
AcDbDictionary
281
     1
  3
ACAD_COLOR
350
29
  3
ACAD_GROUP
350
27
  3
ACAD_LAYOUT
350
1E
  3
ACAD_MATERIAL
350
7
  3
ACAD_MLEADERSTYLE
350
59A
  3
ACAD_MLINESTYLE
350
15
  3
ACAD_PLOTSETTINGS
350
28
  3
ACAD_PLOTSTYLENAME
350
4
  3
ACAD_SCALELIST
350
2D
  3
ACAD_TABLESTYLE
350
599
  3
ACAD_VISUALSTYLE
350
2A
  3
ACDBHEADERROUNDTRIPXREC
350
639
  3
AcDbVariableDictionary
350
597
  3
DWGPROPS
350
63C
  0
DICTIONARY
  5
63D
330
26
100
AcDbDictionary
280
     1
281
     1
  3
ACAD_XREC_ROUNDTRIP
360
63E
  0
DICTIONARY
  5
18
330
17
100
AcDbDictionary
280
     1
281
     1
  3
ACAD_SORTENTS
360
19
  0
DICTIONARY
  5
29
102
{ACAD_REACTORS
330
5
102
}
330
5
100
AcDbDictionary
281
     1
  0
DICTIONARY
  5
27
102
{ACAD_REACTORS
330
5
102
}
330
5
100
AcDbDictionary
281
     1
  0
DICTIONARY
  5
1E
102
{ACAD_REACTORS
330
5
102
}
330
5
100
AcDbDictionary
281
     1
  3
Model
350
1D
  3
ﾚｲｱｳﾄ1
350
23
  0
DICTIONARY
  5
7
102
{ACAD_REACTORS
330
5
102
}
330
5
100
AcDbDictionary
281
     1
  3
ByBlock
350
70
  3
ByLayer
350
10
  3
Global
350
6
  0
DICTIONARY
  5
59A
102
{ACAD_REACTORS
330
5
102
}
330
5
100
AcDbDictionary
281
     1
  3
Standard
350
5B5
  0
DICTIONARY
  5
15
102
{ACAD_REACTORS
330
5
102
}
330
5
100
AcDbDictionary
281
     1
  3
STANDARD
350
14
  0
DICTIONARY
  5
28
102
{ACAD_REACTORS
330
5
102
}
330
5
100
AcDbDictionary
281
     1
  0
ACDBDICTIONARYWDFLT
  5
4
102
{ACAD_REACTORS
330
5
102
}
330
5
100
AcDbDictionary
281
     1
  3
Normal
350
3
100
AcDbDictionaryWithDefault
340
3
  0
DICTIONARY
  5
2D
102
{ACAD_REACTORS
330
5
102
}
330
5
100
AcDbDictionary
281
     1
  3
*A1
350
4F
  3
*A10
350
58
  3
*A11
350
59
  3
*A12
350
5A
  3
*A13
350
5B
  3
*A14
350
5C
  3
*A15
350
5D
  3
*A16
350
5E
  3
*A17
350
5F
  3
*A18
350
60
  3
*A19
350
61
  3
*A2
350
50
  3
*A20
350
62
  3
*A21
350
63
  3
*A22
350
64
  3
*A23
350
65
  3
*A24
350
66
  3
*A25
350
67
  3
*A26
350
68
  3
*A27
350
69
  3
*A28
350
6A
  3
*A29
350
6B
  3
*A3
350
51
  3
*A30
350
6C
  3
*A31
350
6D
  3
*A32
350
6E
  3
*A33
350
6F
  3
*A4
350
52
  3
*A5
350
53
  3
*A6
350
54
  3
*A7
350
55
  3
*A8
350
56
  3
*A9
350
57
  0
DICTIONARY
  5
599
102
{ACAD_REACTORS
330
5
102
}
330
5
100
AcDbDictionary
281
     1
  3
Standard
350
634
  0
DICTIONARY
  5
2A
102
{ACAD_REACTORS
330
5
102
}
330
5
100
AcDbDictionary
281
     1
  3
2dWireframe
350
5A1
  3
Basic
350
5A4
  3
Brighten
350
5A8
  3
ColorChange
350
5AC
  3
Conceptual
350
5A6
  3
Dim
350
5A7
  3
EdgeColorOff
350
5AF
  3
Facepattern
350
5AB
  3
Flat
350
59D
  3
FlatWithEdges
350
59E
  3
Gouraud
350
59F
  3
GouraudWithEdges
350
5A0
  3
Hidden
350
5A3
  3
JitterOff
350
5AD
  3
Linepattern
350
5AA
  3
OverhangOff
350
5AE
  3
Realistic
350
5A5
  3
Shaded
350
5B4
  3
Shaded with edges
350
5B3
  3
Shades of Gray
350
5B0
  3
Sketchy
350
5B1
  3
Thicken
350
5A9
  3
Wireframe
350
5A2
  3
X-Ray
350
5B2
  0
DICTIONARY
  5
639
102
{ACAD_REACTORS
330
5
102
}
330
5
100
AcDbDictionary
281
     1
  3
COLORDICT
350
63A
  3
MATERIALDICT
350
63B
  0
DICTIONARY
  5
597
102
{ACAD_REACTORS
330
5
102
}
330
5
100
AcDbDictionary
281
     1
  3
CANNOSCALE
350
598
  3
CMLEADERSTYLE
350
5B7
  3
CTABLESTYLE
350
635
  3
DIMASSOC
350
636
  3
HIDETEXT
350
638
  3
MSLTSCALE
350
63F
  3
XCLIPFRAME
350
637
  0
XRECORD
  5
63C
102
{ACAD_REACTORS
330
5
102
}
330
5
100
AcDbXrecord
280
     1
  1
DWGPROPS COOKIE
  2

  3

  4

  6

  7

  8
sg-d04
  9

300
=
301
=
302
=
303
=
304
=
305
=
306
=
307
=
308
=
309
=
 40
0.0
 41
2457539.369020845
 42
2457870.231515093
  1

 90
        0
  0
XRECORD
  5
63E
102
{ACAD_REACTORS
330
63D
102
}
330
63D
100
AcDbXrecord
280
     1
102
VTR_0.000_0.000_1.000_1.000_VISUALSTYLE
340
5A1
102
VTR_0.000_0.000_1.000_1.000_GRIDDISPLAY
 70
     3
102
VTR_0.000_0.000_1.000_1.000_GRIDMAJOR
 70
     5
102
VTR_0.000_0.000_1.000_1.000_DEFAULTLIGHTING
280
     1
102
VTR_0.000_0.000_1.000_1.000_DEFAULTLIGHTINGTYPE
 70
     1
102
VTR_0.000_0.000_1.000_1.000_BRIGHTNESS
141
0.0
102
VTR_0.000_0.000_1.000_1.000_CONTRAST
142
0.0
  0
SORTENTSTABLE
  5
19
102
{ACAD_REACTORS
330
18
102
}
330
18
100
AcDbSortentsTable
330
17
  0
LAYOUT
  5
1D
102
{ACAD_REACTORS
330
1E
102
}
330
1E
100
AcDbPlotSettings
  1

  2
Bullzip PDF Printer.pc3
  4
A3
  6

 40
0.2
 41
0.0
 42
0.0
 43
0.0
 44
420.2
 45
297.1
 46
25.0
 47
12.0
 48
149.9999998416665
 49
10.0
140
2059.999995466667
141
1372.499996820833
142
1.0
143
5.0
 70
 11936
 72
     1
 73
     0
 74
     4
  7
monochrome.ctb
 75
     0
147
0.2
148
-149.9999998416665
149
-10.0
100
AcDbLayout
  1
Model
 70
     0
 71
     0
 10
0.0
 20
0.0
 11
12.0
 21
9.0
 12
0.0
 22
0.0
 32
0.0
 14
308.9476694842435
 24
28.20423762040332
 34
0.0
 15
1782.156245859428
 25
1400.265966421126
 35
0.0
146
0.0
 13
0.0
 23
0.0
 33
0.0
 16
1.0
 26
0.0
 36
0.0
 17
0.0
 27
1.0
 37
0.0
 76
     0
330
17
331
2B
1001
ACAD_PSEXT
1000
Bullzip PDF Printer.pc3
1000
Bullzip PDF Printer
1000
BULLZIP
1000
Bullzip PDF Printer 10.1.0.1871
1070
     0
  0
LAYOUT
  5
23
102
{ACAD_REACTORS
330
1E
102
}
330
1E
100
AcDbPlotSettings
  1

  2
C:\Program Files\ACAD LT 2000\plotters\Draftpro-DXL (7575A).pc3
  4

  6

 40
0.0
 41
0.0
 42
0.0
 43
0.0
 44
0.0
 45
0.0
 46
0.0
 47
0.0
 48
0.0
 49
0.0
140
0.0
141
0.0
142
1.0
143
1.0
 70
   688
 72
     0
 73
     0
 74
     5
  7
monochrome.ctb
 75
    16
147
1.0
148
0.0
149
0.0
100
AcDbLayout
  1
ﾚｲｱｳﾄ1
 70
     0
 71
     1
 10
0.0
 20
0.0
 11
12.0
 21
9.0
 12
0.0
 22
0.0
 32
0.0
 14
1.000000000000000E+20
 24
1.000000000000000E+20
 34
1.000000000000000E+20
 15
-1.000000000000000E+20
 25
-1.000000000000000E+20
 35
-1.000000000000000E+20
146
0.0
 13
0.0
 23
0.0
 33
0.0
 16
1.0
 26
0.0
 36
0.0
 17
0.0
 27
1.0
 37
0.0
 76
     0
330
20
  0
MATERIAL
  5
70
102
{ACAD_REACTORS
330
7
102
}
102
{ACAD_XDICTIONARY
360
644
102
}
330
7
100
AcDbMaterial
  1
ByBlock
  0
MATERIAL
  5
10
102
{ACAD_REACTORS
330
7
102
}
102
{ACAD_XDICTIONARY
360
640
102
}
330
7
100
AcDbMaterial
  1
ByLayer
  0
MATERIAL
  5
6
102
{ACAD_REACTORS
330
7
102
}
102
{ACAD_XDICTIONARY
360
642
102
}
330
7
100
AcDbMaterial
  1
Global
1001
ACAD
1070
    -1
1070
     3
1070
     0
1000

1071
        0
  0
MLEADERSTYLE
  5
5B5
102
{ACAD_REACTORS
330
59A
102
}
102
{ACAD_XDICTIONARY
360
676
102
}
330
59A
100
AcDbMLeaderStyle
170
     2
171
     1
172
     0
 90
        2
 40
0.0
 41
0.0
173
     1
 91
-1056964608
340
D
 92
       -2
290
     1
 42
0.09
291
     1
 43
0.36
  3
Standard
341
0
 44
0.18
300

342
E
174
     1
178
     6
175
     1
176
     0
 93
-1056964608
 45
0.18
292
     0
297
     0
 46
0.18
343
0
 94
-1056964608
 47
1.0
 49
1.0
140
1.0
293
     1
141
0.0
294
     1
177
     0
142
1.0
295
     0
296
     0
143
0.125
1001
ACAD_MLEADERVER
1070
     2
  0
MLINESTYLE
  5
14
102
{ACAD_REACTORS
330
15
102
}
330
15
100
AcDbMlineStyle
  2
STANDARD
 70
     0
  3

 62
     0
 51
90.0
 52
90.0
 71
     2
 49
0.5
 62
   256
  6
BYLAYER
 49
-0.5
 62
   256
  6
BYLAYER
  0
ACDBPLACEHOLDER
  5
3
102
{ACAD_REACTORS
330
4
102
}
330
4
  0
SCALE
  5
4F
102
{ACAD_REACTORS
330
2D
102
}
330
2D
100
AcDbScale
 70
     0
300
1:1
140
1.0
141
1.0
290
     1
  0
SCALE
  5
58
102
{ACAD_REACTORS
330
2D
102
}
330
2D
100
AcDbScale
 70
     0
300
1:40
140
1.0
141
40.0
290
     0
  0
SCALE
  5
59
102
{ACAD_REACTORS
330
2D
102
}
330
2D
100
AcDbScale
 70
     0
300
1:50
140
1.0
141
50.0
290
     0
  0
SCALE
  5
5A
102
{ACAD_REACTORS
330
2D
102
}
330
2D
100
AcDbScale
 70
     0
300
1:100
140
1.0
141
100.0
290
     0
  0
SCALE
  5
5B
102
{ACAD_REACTORS
330
2D
102
}
330
2D
100
AcDbScale
 70
     0
300
2:1
140
2.0
141
1.0
290
     0
  0
SCALE
  5
5C
102
{ACAD_REACTORS
330
2D
102
}
330
2D
100
AcDbScale
 70
     0
300
4:1
140
4.0
141
1.0
290
     0
  0
SCALE
  5
5D
102
{ACAD_REACTORS
330
2D
102
}
330
2D
100
AcDbScale
 70
     0
300
8:1
140
8.0
141
1.0
290
     0
  0
SCALE
  5
5E
102
{ACAD_REACTORS
330
2D
102
}
330
2D
100
AcDbScale
 70
     0
300
10:1
140
10.0
141
1.0
290
     0
  0
SCALE
  5
5F
102
{ACAD_REACTORS
330
2D
102
}
330
2D
100
AcDbScale
 70
     0
300
100:1
140
100.0
141
1.0
290
     0
  0
SCALE
  5
60
102
{ACAD_REACTORS
330
2D
102
}
330
2D
100
AcDbScale
 70
     0
300
1/128" = 1'-0"
140
0.0078125
141
12.0
290
     0
  0
SCALE
  5
61
102
{ACAD_REACTORS
330
2D
102
}
330
2D
100
AcDbScale
 70
     0
300
1/64" = 1'-0"
140
0.015625
141
12.0
290
     0
  0
SCALE
  5
50
102
{ACAD_REACTORS
330
2D
102
}
330
2D
100
AcDbScale
 70
     0
300
1:2
140
1.0
141
2.0
290
     0
  0
SCALE
  5
62
102
{ACAD_REACTORS
330
2D
102
}
330
2D
100
AcDbScale
 70
     0
300
1/32" = 1'-0"
140
0.03125
141
12.0
290
     0
  0
SCALE
  5
63
102
{ACAD_REACTORS
330
2D
102
}
330
2D
100
AcDbScale
 70
     0
300
1/16" = 1'-0"
140
0.0625
141
12.0
290
     0
  0
SCALE
  5
64
102
{ACAD_REACTORS
330
2D
102
}
330
2D
100
AcDbScale
 70
     0
300
3/32" = 1'-0"
140
0.09375
141
12.0
290
     0
  0
SCALE
  5
65
102
{ACAD_REACTORS
330
2D
102
}
330
2D
100
AcDbScale
 70
     0
300
1/8" = 1'-0"
140
0.125
141
12.0
290
     0
  0
SCALE
  5
66
102
{ACAD_REACTORS
330
2D
102
}
330
2D
100
AcDbScale
 70
     0
300
3/16" = 1'-0"
140
0.1875
141
12.0
290
     0
  0
SCALE
  5
67
102
{ACAD_REACTORS
330
2D
102
}
330
2D
100
AcDbScale
 70
     0
300
1/4" = 1'-0"
140
0.25
141
12.0
290
     0
  0
SCALE
  5
68
102
{ACAD_REACTORS
330
2D
102
}
330
2D
100
AcDbScale
 70
     0
300
3/8" = 1'-0"
140
0.375
141
12.0
290
     0
  0
SCALE
  5
69
102
{ACAD_REACTORS
330
2D
102
}
330
2D
100
AcDbScale
 70
     0
300
1/2" = 1'-0"
140
0.5
141
12.0
290
     0
  0
SCALE
  5
6A
102
{ACAD_REACTORS
330
2D
102
}
330
2D
100
AcDbScale
 70
     0
300
3/4" = 1'-0"
140
0.75
141
12.0
290
     0
  0
SCALE
  5
6B
102
{ACAD_REACTORS
330
2D
102
}
330
2D
100
AcDbScale
 70
     0
300
1" = 1'-0"
140
1.0
141
12.0
290
     0
  0
SCALE
  5
51
102
{ACAD_REACTORS
330
2D
102
}
330
2D
100
AcDbScale
 70
     0
300
1:4
140
1.0
141
4.0
290
     0
  0
SCALE
  5
6C
102
{ACAD_REACTORS
330
2D
102
}
330
2D
100
AcDbScale
 70
     0
300
1-1/2" = 1'-0"
140
1.5
141
12.0
290
     0
  0
SCALE
  5
6D
102
{ACAD_REACTORS
330
2D
102
}
330
2D
100
AcDbScale
 70
     0
300
3" = 1'-0"
140
3.0
141
12.0
290
     0
  0
SCALE
  5
6E
102
{ACAD_REACTORS
330
2D
102
}
330
2D
100
AcDbScale
 70
     0
300
6" = 1'-0"
140
6.0
141
12.0
290
     0
  0
SCALE
  5
6F
102
{ACAD_REACTORS
330
2D
102
}
330
2D
100
AcDbScale
 70
     0
300
1'-0" = 1'-0"
140
12.0
141
12.0
290
     0
  0
SCALE
  5
52
102
{ACAD_REACTORS
330
2D
102
}
330
2D
100
AcDbScale
 70
     0
300
1:5
140
1.0
141
5.0
290
     0
  0
SCALE
  5
53
102
{ACAD_REACTORS
330
2D
102
}
330
2D
100
AcDbScale
 70
     0
300
1:8
140
1.0
141
8.0
290
     0
  0
SCALE
  5
54
102
{ACAD_REACTORS
330
2D
102
}
330
2D
100
AcDbScale
 70
     0
300
1:10
140
1.0
141
10.0
290
     0
  0
SCALE
  5
55
102
{ACAD_REACTORS
330
2D
102
}
330
2D
100
AcDbScale
 70
     0
300
1:16
140
1.0
141
16.0
290
     0
  0
SCALE
  5
56
102
{ACAD_REACTORS
330
2D
102
}
330
2D
100
AcDbScale
 70
     0
300
1:20
140
1.0
141
20.0
290
     0
  0
SCALE
  5
57
102
{ACAD_REACTORS
330
2D
102
}
330
2D
100
AcDbScale
 70
     0
300
1:30
140
1.0
141
30.0
290
     0
  0
TABLESTYLE
  5
634
102
{ACAD_REACTORS
330
599
102
}
330
599
100
AcDbTableStyle
  3
Standard
 70
     0
 71
     0
 40
0.06
 41
0.06
280
     0
281
     0
  7
STANDARD
140
0.18
170
     2
 62
     0
 63
   257
283
     0
274
    -2
284
     1
 64
     0
275
    -2
285
     1
 65
     0
276
    -2
286
     1
 66
     0
277
    -2
287
     1
 67
     0
278
    -2
288
     1
 68
     0
279
    -2
289
     1
 69
     0
  7
STANDARD
140
0.25
170
     5
 62
     0
 63
   257
283
     0
274
    -2
284
     1
 64
     0
275
    -2
285
     1
 65
     0
276
    -2
286
     1
 66
     0
277
    -2
287
     1
 67
     0
278
    -2
288
     1
 68
     0
279
    -2
289
     1
 69
     0
  7
STANDARD
140
0.18
170
     5
 62
     0
 63
   257
283
     0
274
    -2
284
     1
 64
     0
275
    -2
285
     1
 65
     0
276
    -2
286
     1
 66
     0
277
    -2
287
     1
 67
     0
278
    -2
288
     1
 68
     0
279
    -2
289
     1
 69
     0
  0
VISUALSTYLE
  5
5A1
102
{ACAD_REACTORS
330
2A
102
}
102
{ACAD_XDICTIONARY
360
64E
102
}
330
2A
100
AcDbVisualStyle
  2
2dWireframe
 70
     4
 71
     0
 72
     2
 73
     0
 90
        0
 40
0.6
 41
30.0
 62
     5
 63
     7
 74
     1
 91
        4
 64
     7
 65
   257
 75
     1
175
     1
 42
1.0
 92
        0
 66
   257
 43
1.0
 76
     1
 77
     6
 78
     2
 67
     7
 79
     5
170
     0
171
     0
290
     0
174
     0
 93
        1
 44
0.0
173
     0
291
     0
 45
0.0
1001
ACAD
1000
AcDbSavedByObjectVersion
1070
     0
  0
VISUALSTYLE
  5
5A4
102
{ACAD_REACTORS
330
2A
102
}
102
{ACAD_XDICTIONARY
360
654
102
}
330
2A
100
AcDbVisualStyle
  2
Basic
 70
     7
 71
     1
 72
     0
 73
     1
 90
        0
 40
0.6
 41
30.0
 62
     5
 63
     7
 74
     0
 91
        4
 64
     7
 65
   257
 75
     1
175
     1
 42
1.0
 92
        8
 66
     7
 43
1.0
 76
     1
 77
     6
 78
     2
 67
     7
 79
     5
170
     0
171
     0
290
     0
174
     0
 93
        1
 44
0.0
173
     0
291
     1
 45
0.0
1001
ACAD
1000
AcDbSavedByObjectVersion
1070
     0
  0
VISUALSTYLE
  5
5A8
102
{ACAD_REACTORS
330
2A
102
}
102
{ACAD_XDICTIONARY
360
65C
102
}
330
2A
100
AcDbVisualStyle
  2
Brighten
 70
    12
 71
     2
 72
     2
 73
     0
 90
        0
 40
0.6
 41
30.0
 62
     5
 63
     7
 74
     1
 91
        4
 64
     7
 65
   257
 75
     1
175
     1
 42
1.0
 92
        8
 66
     7
 43
1.0
 76
     1
 77
     6
 78
     2
 67
     7
 79
     5
170
     0
171
     0
290
     0
174
     0
 93
        1
 44
50.0
173
     0
291
     1
 45
0.0
1001
ACAD
1000
AcDbSavedByObjectVersion
1070
     0
  0
VISUALSTYLE
  5
5AC
102
{ACAD_REACTORS
330
2A
102
}
102
{ACAD_XDICTIONARY
360
664
102
}
330
2A
100
AcDbVisualStyle
  2
ColorChange
 70
    16
 71
     2
 72
     2
 73
     3
 90
        0
 40
0.6
 41
30.0
 62
     5
 63
     8
 74
     1
 91
        4
 64
     7
 65
   257
 75
     1
175
     1
 42
1.0
 92
        8
 66
     8
 43
1.0
 76
     1
 77
     6
 78
     2
 67
     7
 79
     5
170
     0
171
     0
290
     0
174
     0
 93
        1
 44
0.0
173
     0
291
     1
 45
0.0
1001
ACAD
1000
AcDbSavedByObjectVersion
1070
     0
  0
VISUALSTYLE
  5
5A6
102
{ACAD_REACTORS
330
2A
102
}
102
{ACAD_XDICTIONARY
360
658
102
}
330
2A
100
AcDbVisualStyle
  2
Conceptual
 70
     9
 71
     3
 72
     2
 73
     0
 90
        0
 40
0.6
 41
30.0
 62
     5
 63
     7
 74
     2
 91
        2
 64
     7
 65
   257
 75
     1
175
     1
 42
40.0
 92
        8
 66
     7
 43
1.0
 76
     1
 77
     6
 78
     2
 67
     7
 79
     3
170
     0
171
     0
290
     0
174
     0
 93
        1
 44
0.0
173
     0
291
     0
 45
0.0
1001
ACAD
1000
AcDbSavedByObjectVersion
1070
     0
  0
VISUALSTYLE
  5
5A7
102
{ACAD_REACTORS
330
2A
102
}
102
{ACAD_XDICTIONARY
360
65A
102
}
330
2A
100
AcDbVisualStyle
  2
Dim
 70
    11
 71
     2
 72
     2
 73
     0
 90
        0
 40
0.6
 41
30.0
 62
     5
 63
     7
 74
     1
 91
        4
 64
     7
 65
   257
 75
     1
175
     1
 42
1.0
 92
        8
 66
     7
 43
1.0
 76
     1
 77
     6
 78
     2
 67
     7
 79
     5
170
     0
171
     0
290
     0
174
     0
 93
        1
 44
-50.0
173
     0
291
     1
 45
0.0
1001
ACAD
1000
AcDbSavedByObjectVersion
1070
     0
  0
VISUALSTYLE
  5
5AF
102
{ACAD_REACTORS
330
2A
102
}
102
{ACAD_XDICTIONARY
360
66A
102
}
330
2A
100
AcDbVisualStyle
  2
EdgeColorOff
 70
    22
 71
     2
 72
     2
 73
     0
 90
        0
 40
0.6
 41
30.0
 62
     5
 63
     7
 74
     1
 91
        4
 64
     7
 65
   257
 75
     1
175
     1
 42
1.0
 92
        8
 66
     7
 43
1.0
 76
     1
 77
     6
 78
     2
 67
     7
 79
     5
170
     0
171
     0
290
     0
174
     0
 93
        1
 44
0.0
173
     0
291
     1
 45
0.0
1001
ACAD
1000
AcDbSavedByObjectVersion
1070
     0
  0
VISUALSTYLE
  5
5AB
102
{ACAD_REACTORS
330
2A
102
}
102
{ACAD_XDICTIONARY
360
662
102
}
330
2A
100
AcDbVisualStyle
  2
Facepattern
 70
    15
 71
     2
 72
     2
 73
     0
 90
        0
 40
0.6
 41
30.0
 62
     5
 63
     7
 74
     1
 91
        4
 64
     7
 65
   257
 75
     1
175
     1
 42
1.0
 92
        8
 66
     7
 43
1.0
 76
     1
 77
     6
 78
     2
 67
     7
 79
     5
170
     0
171
     0
290
     0
174
     0
 93
        1
 44
0.0
173
     0
291
     1
 45
0.0
1001
ACAD
1000
AcDbSavedByObjectVersion
1070
     0
  0
VISUALSTYLE
  5
59D
102
{ACAD_REACTORS
330
2A
102
}
102
{ACAD_XDICTIONARY
360
646
102
}
330
2A
100
AcDbVisualStyle
  2
Flat
 70
     0
 71
     2
 72
     1
 73
     1
 90
        2
 40
0.6
 41
30.0
 62
     5
 63
     7
 74
     0
 91
        4
 64
     7
 65
   257
 75
     1
175
     1
 42
1.0
 92
        8
 66
     7
 43
1.0
 76
     1
 77
     6
 78
     2
 67
     7
 79
     5
170
     0
171
     0
290
     0
174
     0
 93
       13
 44
0.0
173
     0
291
     1
 45
0.0
1001
ACAD
1000
AcDbSavedByObjectVersion
1070
     0
  0
VISUALSTYLE
  5
59E
102
{ACAD_REACTORS
330
2A
102
}
102
{ACAD_XDICTIONARY
360
648
102
}
330
2A
100
AcDbVisualStyle
  2
FlatWithEdges
 70
     1
 71
     2
 72
     1
 73
     1
 90
        2
 40
0.6
 41
30.0
 62
     5
 63
     7
 74
     1
 91
        4
 64
     7
 65
   257
 75
     1
175
     1
 42
1.0
 92
        0
 66
   257
 43
1.0
 76
     1
 77
     6
 78
     2
 67
     7
 79
     5
170
     0
171
     0
290
     0
174
     0
 93
       13
 44
0.0
173
     0
291
     1
 45
0.0
1001
ACAD
1000
AcDbSavedByObjectVersion
1070
     0
  0
VISUALSTYLE
  5
59F
102
{ACAD_REACTORS
330
2A
102
}
102
{ACAD_XDICTIONARY
360
64A
102
}
330
2A
100
AcDbVisualStyle
  2
Gouraud
 70
     2
 71
     2
 72
     2
 73
     1
 90
        2
 40
0.6
 41
30.0
 62
     5
 63
     7
 74
     0
 91
        4
 64
     7
 65
   257
 75
     1
175
     1
 42
1.0
 92
        0
 66
     7
 43
1.0
 76
     1
 77
     6
 78
     2
 67
     7
 79
     5
170
     0
171
     0
290
     0
174
     0
 93
       13
 44
0.0
173
     0
291
     1
 45
0.0
1001
ACAD
1000
AcDbSavedByObjectVersion
1070
     0
  0
VISUALSTYLE
  5
5A0
102
{ACAD_REACTORS
330
2A
102
}
102
{ACAD_XDICTIONARY
360
64C
102
}
330
2A
100
AcDbVisualStyle
  2
GouraudWithEdges
 70
     3
 71
     2
 72
     2
 73
     1
 90
        2
 40
0.6
 41
30.0
 62
     5
 63
     7
 74
     1
 91
        4
 64
     7
 65
   257
 75
     1
175
     1
 42
1.0
 92
        0
 66
   257
 43
1.0
 76
     1
 77
     6
 78
     2
 67
     7
 79
     5
170
     0
171
     0
290
     0
174
     0
 93
       13
 44
0.0
173
     0
291
     1
 45
0.0
1001
ACAD
1000
AcDbSavedByObjectVersion
1070
     0
  0
VISUALSTYLE
  5
5A3
102
{ACAD_REACTORS
330
2A
102
}
102
{ACAD_XDICTIONARY
360
652
102
}
330
2A
100
AcDbVisualStyle
  2
Hidden
 70
     6
 71
     1
 72
     2
 73
     2
 90
        0
 40
0.6
 41
30.0
 62
     5
 63
     7
 74
     2
 91
        2
 64
     7
 65
   257
 75
     2
175
     1
 42
40.0
 92
        0
 66
   257
 43
1.0
 76
     1
 77
     6
 78
     2
 67
     7
 79
     3
170
     0
171
     0
290
     0
174
     0
 93
        1
 44
0.0
173
     0
291
     0
 45
0.0
1001
ACAD
1000
AcDbSavedByObjectVersion
1070
     0
  0
VISUALSTYLE
  5
5AD
102
{ACAD_REACTORS
330
2A
102
}
102
{ACAD_XDICTIONARY
360
666
102
}
330
2A
100
AcDbVisualStyle
  2
JitterOff
 70
    20
 71
     2
 72
     2
 73
     0
 90
        0
 40
0.6
 41
30.0
 62
     5
 63
     7
 74
     1
 91
        4
 64
     7
 65
   257
 75
     1
175
     1
 42
1.0
 92
       10
 66
     7
 43
1.0
 76
     1
 77
     6
 78
     2
 67
     7
 79
     5
170
     0
171
     0
290
     0
174
     0
 93
        1
 44
0.0
173
     0
291
     1
 45
0.0
1001
ACAD
1000
AcDbSavedByObjectVersion
1070
     0
  0
VISUALSTYLE
  5
5AA
102
{ACAD_REACTORS
330
2A
102
}
102
{ACAD_XDICTIONARY
360
660
102
}
330
2A
100
AcDbVisualStyle
  2
Linepattern
 70
    14
 71
     2
 72
     2
 73
     0
 90
        0
 40
0.6
 41
30.0
 62
     5
 63
     7
 74
     1
 91
        4
 64
     7
 65
   257
 75
     7
175
     7
 42
1.0
 92
        8
 66
     7
 43
1.0
 76
     1
 77
     6
 78
     2
 67
     7
 79
     5
170
     0
171
     0
290
     0
174
     0
 93
        1
 44
0.0
173
     0
291
     1
 45
0.0
1001
ACAD
1000
AcDbSavedByObjectVersion
1070
     0
  0
VISUALSTYLE
  5
5AE
102
{ACAD_REACTORS
330
2A
102
}
102
{ACAD_XDICTIONARY
360
668
102
}
330
2A
100
AcDbVisualStyle
  2
OverhangOff
 70
    21
 71
     2
 72
     2
 73
     0
 90
        0
 40
0.6
 41
30.0
 62
     5
 63
     7
 74
     1
 91
        4
 64
     7
 65
   257
 75
     1
175
     1
 42
1.0
 92
        9
 66
     7
 43
1.0
 76
     1
 77
     6
 78
     2
 67
     7
 79
     5
170
     0
171
     0
290
     0
174
     0
 93
        1
 44
0.0
173
     0
291
     1
 45
0.0
1001
ACAD
1000
AcDbSavedByObjectVersion
1070
     0
  0
VISUALSTYLE
  5
5A5
102
{ACAD_REACTORS
330
2A
102
}
102
{ACAD_XDICTIONARY
360
656
102
}
330
2A
100
AcDbVisualStyle
  2
Realistic
 70
     8
 71
     2
 72
     3
 73
     0
 90
        2
 40
0.6
 41
30.0
 62
     5
 63
     7
 74
     0
 91
        0
 64
     7
 65
   257
 75
     1
175
     1
 42
1.0
 92
        8
 66
   257
 43
1.0
 76
     1
 77
     6
 78
     2
 67
     7
 79
     3
170
     0
171
     0
290
     0
174
     0
 93
       13
 44
0.0
173
     0
291
     0
 45
0.0
1001
ACAD
1000
AcDbSavedByObjectVersion
1070
     0
  0
VISUALSTYLE
  5
5B4
102
{ACAD_REACTORS
330
2A
102
}
102
{ACAD_XDICTIONARY
360
674
102
}
330
2A
100
AcDbVisualStyle
  2
Shaded
 70
    27
 71
     2
 72
     2
 73
     1
 90
        2
 40
0.6
 41
30.0
 62
     5
 63
     7
 74
     0
 91
        4
 64
     7
 65
   257
 75
     1
175
     1
 42
1.0
 92
        8
 66
   257
 43
1.0
 76
     1
 77
     6
 78
     2
 67
   251
 79
     3
170
     0
171
     0
290
     0
174
     0
 93
        5
 44
0.0
173
     0
291
     0
 45
0.0
1001
ACAD
1000
AcDbSavedByObjectVersion
1070
     0
  0
VISUALSTYLE
  5
5B3
102
{ACAD_REACTORS
330
2A
102
}
102
{ACAD_XDICTIONARY
360
672
102
}
330
2A
100
AcDbVisualStyle
  2
Shaded with edges
 70
    26
 71
     2
 72
     2
 73
     1
 90
        2
 40
0.6
 41
30.0
 62
     5
 63
     7
 74
     1
 91
       10
 64
     7
 65
   257
 75
     2
175
     1
 42
1.0
 92
        8
 66
   257
 43
1.0
 76
     1
 77
     6
 78
     2
 67
     7
 79
     3
170
     0
171
     0
290
     0
174
     0
 93
        5
 44
0.0
173
     0
291
     0
 45
0.0
1001
ACAD
1000
AcDbSavedByObjectVersion
1070
     0
  0
VISUALSTYLE
  5
5B0
102
{ACAD_REACTORS
330
2A
102
}
102
{ACAD_XDICTIONARY
360
66C
102
}
330
2A
100
AcDbVisualStyle
  2
Shades of Gray
 70
    23
 71
     2
 72
     2
 73
     3
 90
        0
 40
0.6
 41
30.0
 62
     5
 63
     7
 74
     2
 91
        2
 64
     7
 65
     7
 75
     1
175
     1
 42
40.0
 92
        8
 66
     7
 43
1.0
 76
     1
 77
     6
 78
     2
 67
     7
 79
     3
170
     0
171
     0
290
     0
174
     0
 93
        1
 44
0.0
173
     0
291
     0
 45
0.0
1001
ACAD
1000
AcDbSavedByObjectVersion
1070
     0
  0
VISUALSTYLE
  5
5B1
102
{ACAD_REACTORS
330
2A
102
}
102
{ACAD_XDICTIONARY
360
66E
102
}
330
2A
100
AcDbVisualStyle
  2
Sketchy
 70
    24
 71
     1
 72
     2
 73
     2
 90
        0
 40
0.6
 41
30.0
 62
     5
 63
     7
 74
     2
 91
        2
 64
     7
 65
     7
 75
     1
175
     1
 42
40.0
 92
       11
 66
     7
 43
1.0
 76
     1
 77
     6
 78
     2
 67
     7
 79
     6
170
     0
171
     0
290
     0
174
     0
 93
        1
 44
0.0
173
     0
291
     0
 45
0.0
1001
ACAD
1000
AcDbSavedByObjectVersion
1070
     0
  0
VISUALSTYLE
  5
5A9
102
{ACAD_REACTORS
330
2A
102
}
102
{ACAD_XDICTIONARY
360
65E
102
}
330
2A
100
AcDbVisualStyle
  2
Thicken
 70
    13
 71
     2
 72
     2
 73
     0
 90
        0
 40
0.6
 41
30.0
 62
     5
 63
     7
 74
     1
 91
        4
 64
     7
 65
   257
 75
     1
175
     1
 42
1.0
 92
       12
 66
     7
 43
1.0
 76
     1
 77
     6
 78
     2
 67
     7
 79
     5
170
     0
171
     0
290
     0
174
     0
 93
        1
 44
0.0
173
     0
291
     1
 45
0.0
1001
ACAD
1000
AcDbSavedByObjectVersion
1070
     0
  0
VISUALSTYLE
  5
5A2
102
{ACAD_REACTORS
330
2A
102
}
102
{ACAD_XDICTIONARY
360
650
102
}
330
2A
100
AcDbVisualStyle
  2
Wireframe
 70
     5
 71
     0
 72
     2
 73
     0
 90
        0
 40
0.6
 41
30.0
 62
     5
 63
     7
 74
     1
 91
        4
 64
     7
 65
   257
 75
     1
175
     1
 42
1.0
 92
        0
 66
   257
 43
1.0
 76
     1
 77
     6
 78
     2
 67
     7
 79
     5
170
     0
171
     0
290
     0
174
     0
 93
        1
 44
0.0
173
     0
291
     0
 45
0.0
1001
ACAD
1000
AcDbSavedByObjectVersion
1070
     0
  0
VISUALSTYLE
  5
5B2
102
{ACAD_REACTORS
330
2A
102
}
102
{ACAD_XDICTIONARY
360
670
102
}
330
2A
100
AcDbVisualStyle
  2
X-Ray
 70
    25
 71
     2
 72
     2
 73
     1
 90
        1
 40
0.5
 41
30.0
 62
     5
 63
     7
 74
     1
 91
        0
 64
     7
 65
   257
 75
     1
175
     1
 42
1.0
 92
        8
 66
     7
 43
1.0
 76
     1
 77
     6
 78
     2
 67
     7
 79
     3
170
     0
171
     0
290
     0
174
     0
 93
       13
 44
0.0
173
     0
291
     0
 45
0.0
1001
ACAD
1000
AcDbSavedByObjectVersion
1070
     0
  0
XRECORD
  5
63A
102
{ACAD_REACTORS
330
639
102
}
330
639
100
AcDbXrecord
280
     1
340
29
  0
XRECORD
  5
63B
102
{ACAD_REACTORS
330
639
102
}
330
639
100
AcDbXrecord
280
     1
340
7
  0
DICTIONARYVAR
  5
598
102
{ACAD_REACTORS
330
597
102
}
330
597
100
DictionaryVariables
280
     0
  1
1:1
  0
DICTIONARYVAR
  5
5B7
102
{ACAD_REACTORS
330
597
102
}
330
597
100
DictionaryVariables
280
     0
  1
Standard
  0
DICTIONARYVAR
  5
635
102
{ACAD_REACTORS
330
597
102
}
330
597
100
DictionaryVariables
280
     0
  1
Standard
  0
DICTIONARYVAR
  5
636
102
{ACAD_REACTORS
330
597
102
}
330
597
100
DictionaryVariables
280
     0
  1
0
  0
DICTIONARYVAR
  5
638
102
{ACAD_REACTORS
330
597
102
}
330
597
100
DictionaryVariables
280
     0
  1
1
  0
DICTIONARYVAR
  5
63F
102
{ACAD_REACTORS
330
597
102
}
330
597
100
DictionaryVariables
280
     0
  1
1
  0
DICTIONARYVAR
  5
637
102
{ACAD_REACTORS
330
597
102
}
330
597
100
DictionaryVariables
280
     0
  1
0
  0
DICTIONARY
  5
644
330
70
100
AcDbDictionary
280
     1
281
     1
  3
ACAD_XREC_ROUNDTRIP
360
645
  0
DICTIONARY
  5
640
330
10
100
AcDbDictionary
280
     1
281
     1
  3
ACAD_XREC_ROUNDTRIP
360
641
  0
DICTIONARY
  5
642
330
6
100
AcDbDictionary
280
     1
281
     1
  3
ACAD_XREC_ROUNDTRIP
360
643
  0
DICTIONARY
  5
676
330
5B5
100
AcDbDictionary
280
     1
281
     1
  3
ACAD_XREC_ROUNDTRIP
360
677
  0
DICTIONARY
  5
64E
330
5A1
100
AcDbDictionary
280
     1
281
     1
  3
ACAD_XREC_ROUNDTRIP
360
64F
  0
DICTIONARY
  5
654
330
5A4
100
AcDbDictionary
280
     1
281
     1
  3
ACAD_XREC_ROUNDTRIP
360
655
  0
DICTIONARY
  5
65C
330
5A8
100
AcDbDictionary
280
     1
281
     1
  3
ACAD_XREC_ROUNDTRIP
360
65D
  0
DICTIONARY
  5
664
330
5AC
100
AcDbDictionary
280
     1
281
     1
  3
ACAD_XREC_ROUNDTRIP
360
665
  0
DICTIONARY
  5
658
330
5A6
100
AcDbDictionary
280
     1
281
     1
  3
ACAD_XREC_ROUNDTRIP
360
659
  0
DICTIONARY
  5
65A
330
5A7
100
AcDbDictionary
280
     1
281
     1
  3
ACAD_XREC_ROUNDTRIP
360
65B
  0
DICTIONARY
  5
66A
330
5AF
100
AcDbDictionary
280
     1
281
     1
  3
ACAD_XREC_ROUNDTRIP
360
66B
  0
DICTIONARY
  5
662
330
5AB
100
AcDbDictionary
280
     1
281
     1
  3
ACAD_XREC_ROUNDTRIP
360
663
  0
DICTIONARY
  5
646
330
59D
100
AcDbDictionary
280
     1
281
     1
  3
ACAD_XREC_ROUNDTRIP
360
647
  0
DICTIONARY
  5
648
330
59E
100
AcDbDictionary
280
     1
281
     1
  3
ACAD_XREC_ROUNDTRIP
360
649
  0
DICTIONARY
  5
64A
330
59F
100
AcDbDictionary
280
     1
281
     1
  3
ACAD_XREC_ROUNDTRIP
360
64B
  0
DICTIONARY
  5
64C
330
5A0
100
AcDbDictionary
280
     1
281
     1
  3
ACAD_XREC_ROUNDTRIP
360
64D
  0
DICTIONARY
  5
652
330
5A3
100
AcDbDictionary
280
     1
281
     1
  3
ACAD_XREC_ROUNDTRIP
360
653
  0
DICTIONARY
  5
666
330
5AD
100
AcDbDictionary
280
     1
281
     1
  3
ACAD_XREC_ROUNDTRIP
360
667
  0
DICTIONARY
  5
660
330
5AA
100
AcDbDictionary
280
     1
281
     1
  3
ACAD_XREC_ROUNDTRIP
360
661
  0
DICTIONARY
  5
668
330
5AE
100
AcDbDictionary
280
     1
281
     1
  3
ACAD_XREC_ROUNDTRIP
360
669
  0
DICTIONARY
  5
656
330
5A5
100
AcDbDictionary
280
     1
281
     1
  3
ACAD_XREC_ROUNDTRIP
360
657
  0
DICTIONARY
  5
674
330
5B4
100
AcDbDictionary
280
     1
281
     1
  3
ACAD_XREC_ROUNDTRIP
360
675
  0
DICTIONARY
  5
672
330
5B3
100
AcDbDictionary
280
     1
281
     1
  3
ACAD_XREC_ROUNDTRIP
360
673
  0
DICTIONARY
  5
66C
330
5B0
100
AcDbDictionary
280
     1
281
     1
  3
ACAD_XREC_ROUNDTRIP
360
66D
  0
DICTIONARY
  5
66E
330
5B1
100
AcDbDictionary
280
     1
281
     1
  3
ACAD_XREC_ROUNDTRIP
360
66F
  0
DICTIONARY
  5
65E
330
5A9
100
AcDbDictionary
280
     1
281
     1
  3
ACAD_XREC_ROUNDTRIP
360
65F
  0
DICTIONARY
  5
650
330
5A2
100
AcDbDictionary
280
     1
281
     1
  3
ACAD_XREC_ROUNDTRIP
360
651
  0
DICTIONARY
  5
670
330
5B2
100
AcDbDictionary
280
     1
281
     1
  3
ACAD_XREC_ROUNDTRIP
360
671
  0
XRECORD
  5
645
102
{ACAD_REACTORS
330
644
102
}
330
644
100
AcDbXrecord
280
     1
102
MATERIAL
148
0.0
149
0.0
149
0.0
 93
        0
 94
      127
282
     0
 72
     1
 77
     1
171
     1
175
     1
179
     1
273
     0
  0
XRECORD
  5
641
102
{ACAD_REACTORS
330
640
102
}
330
640
100
AcDbXrecord
280
     1
102
MATERIAL
148
0.0
149
0.0
149
0.0
 93
        0
 94
      127
282
     0
 72
     1
 77
     1
171
     1
175
     1
179
     1
273
     0
  0
XRECORD
  5
643
102
{ACAD_REACTORS
330
642
102
}
330
642
100
AcDbXrecord
280
     1
102
MATERIAL
148
0.0
149
0.0
149
0.0
 93
        0
 94
      127
282
     0
 72
     1
 77
     1
171
     1
175
     1
179
     1
273
     0
  0
XRECORD
  5
677
102
{ACAD_REACTORS
330
676
102
}
330
676
100
AcDbXrecord
280
     1
102
ACAD_ROUNDTRIP_2010_MLEADER_STYLE
  0
XRECORD
  5
64F
102
{ACAD_REACTORS
330
64E
102
}
330
64E
100
AcDbXrecord
280
     1
102
RTVSPropertyOp0
 70
     1
102
RTVSPropertyOp1
 70
     1
102
RTVSPropertyOp2
 70
     1
102
RTVSPropertyOp3
 70
     1
102
RTVSPropertyOp4
 70
     1
102
RTVSPropertyOp5
 70
     1
102
RTVSPropertyOp6
 70
     1
102
RTVSPropertyOp7
 70
     1
102
RTVSPropertyOp8
 70
     1
102
RTVSPropertyOp9
 70
     1
102
RTVSPropertyOp10
 70
     1
102
RTVSPropertyOp11
 70
     1
102
RTVSPropertyOp12
 70
     1
102
RTVSPropertyOp13
 70
     1
102
RTVSPropertyOp14
 70
     1
102
RTVSPropertyOp15
 70
     1
102
RTVSPropertyOp16
 70
     1
102
RTVSPropertyOp17
 70
     1
102
RTVSPropertyOp18
 70
     1
102
RTVSPropertyOp19
 70
     1
102
RTVSPropertyOp20
 70
     1
102
RTVSPropertyOp21
 70
     1
102
RTVSPropertyOp22
 70
     1
102
RTVSPropertyOp23
 70
     1
102
RTVSPropertyOp24
 70
     1
102
RTVSPropertyOp25
 70
     1
102
RTVSPropertyOp26
 70
     1
102
RTVSPropertyOp27
 70
     1
102
RTVSPropertyOp28
 70
     1
102
RTVSPropertyOp29
 70
     1
102
RTVSPropertyOp30
 70
     1
102
RTVSPropertyOp31
 70
     1
102
RTVSPropertyOp32
 70
     1
102
RTVSPropertyOp33
 70
     1
102
RTVSPropertyOp34
 70
     1
102
RTVSPropertyOp35
 70
     1
102
RTVSPropertyOp36
 70
     1
102
RTVSPropertyOp37
 70
     1
102
RTVSPropertyOp38
 70
     1
102
RTVSPropertyOp39
 70
     1
102
RTVSPropertyOp40
 70
     1
102
RTVSPropertyOp41
 70
     1
102
RTVSPropertyOp42
 70
     1
102
RTVSPropertyOp43
 70
     1
102
RTVSPropertyOp44
 70
     1
102
RTVSPropertyOp45
 70
     1
102
RTVSPropertyOp46
 70
     1
102
RTVSPropertyOp47
 70
     1
102
RTVSPropertyOp48
 70
     1
102
RTVSPropertyOp49
 70
     1
102
RTVSPropertyOp50
 70
     1
102
RTVSPropertyOp51
 70
     0
102
RTVSPropertyOp52
 70
     0
102
RTVSPropertyOp53
 70
     1
102
RTVSPropertyOp54
 70
     1
102
RTVSPropertyOp55
 70
     1
102
RTVSPropertyOp56
 70
     1
102
RTVSPropertyOp57
 70
     1
102
RTVSPost2010Prop28
280
     1
102
RTVSPost2010PropOp28
 70
     1
102
RTVSPost2010Prop29
280
     1
102
RTVSPost2010PropOp29
 70
     1
102
RTVSPost2010Prop30
280
     0
102
RTVSPost2010PropOp30
 70
     1
102
RTVSPost2010Prop31
280
     0
102
RTVSPost2010PropOp31
 70
     1
102
RTVSPost2010Prop32
280
     0
102
RTVSPost2010PropOp32
 70
     1
102
RTVSPost2010Prop33
280
     0
102
RTVSPost2010PropOp33
 70
     1
102
RTVSPost2010Prop34
280
     0
102
RTVSPost2010PropOp34
 70
     1
102
RTVSPost2010Prop35
280
     0
102
RTVSPost2010PropOp35
 70
     1
102
RTVSPost2010Prop36
280
     0
102
RTVSPost2010PropOp36
 70
     1
102
RTVSPost2010Prop37
 90
       50
102
RTVSPost2010PropOp37
 70
     1
102
RTVSPost2010Prop38
140
0.0
102
RTVSPost2010PropOp38
 70
     1
102
RTVSPost2010Prop39
140
1.0
102
RTVSPost2010PropOp39
 70
     1
102
RTVSPost2010Prop40
 90
        0
102
RTVSPost2010PropOp40
 70
     1
102
RTVSPost2010Prop41ColorIndex
 90
       18
102
RTVSPost2010Prop41ColorRGB
 90
        0
102
RTVSPost2010PropOp41
 70
     1
102
RTVSPost2010Prop42
 90
       50
102
RTVSPost2010PropOp42
 70
     1
102
RTVSPost2010Prop43
 90
        3
102
RTVSPost2010PropOp43
 70
     1
102
RTVSPost2010Prop44ColorIndex
 90
        5
102
RTVSPost2010Prop44ColorRGB
 90
      255
102
RTVSPost2010PropOp44
 70
     1
102
RTVSPost2010Prop45
280
     0
102
RTVSPost2010PropOp45
 70
     1
102
RTVSPost2010Prop46
 90
       50
102
RTVSPost2010PropOp46
 70
     1
102
RTVSPost2010Prop47
 90
       50
102
RTVSPost2010PropOp47
 70
     1
102
RTVSPost2010Prop48
 90
       50
102
RTVSPost2010PropOp48
 70
     1
102
RTVSPost2010Prop49
280
     0
102
RTVSPost2010PropOp49
 70
     1
102
RTVSPost2010Prop50
 90
       50
102
RTVSPost2010PropOp50
 70
     1
102
RTVSPost2010Prop51ColorIndex
 90
      256
102
RTVSPost2010Prop51ColorRGB
 90
-16777216
102
RTVSPost2010PropOp51
 70
     0
102
RTVSPost2010Prop52
140
1.0
102
RTVSPost2010PropOp52
 70
     0
102
RTVSPost2010Prop53
 90
        2
102
RTVSPost2010PropOp53
 70
     1
102
RTVSPost2010Prop54
  1
strokes_ogs.tif
102
RTVSPost2010PropOp54
 70
     1
102
RTVSPost2010Prop55
280
     0
102
RTVSPost2010PropOp55
 70
     1
102
RTVSPost2010Prop56
140
1.0
102
RTVSPost2010PropOp56
 70
     1
102
RTVSPost2010Prop57
140
1.0
102
RTVSPost2010PropOp57
 70
     1
  0
XRECORD
  5
655
102
{ACAD_REACTORS
330
654
102
}
330
654
100
AcDbXrecord
280
     1
102
RTVSPropertyOp0
 70
     1
102
RTVSPropertyOp1
 70
     1
102
RTVSPropertyOp2
 70
     1
102
RTVSPropertyOp3
 70
     1
102
RTVSPropertyOp4
 70
     1
102
RTVSPropertyOp5
 70
     1
102
RTVSPropertyOp6
 70
     1
102
RTVSPropertyOp7
 70
     1
102
RTVSPropertyOp8
 70
     1
102
RTVSPropertyOp9
 70
     1
102
RTVSPropertyOp10
 70
     1
102
RTVSPropertyOp11
 70
     1
102
RTVSPropertyOp12
 70
     1
102
RTVSPropertyOp13
 70
     1
102
RTVSPropertyOp14
 70
     1
102
RTVSPropertyOp15
 70
     1
102
RTVSPropertyOp16
 70
     1
102
RTVSPropertyOp17
 70
     1
102
RTVSPropertyOp18
 70
     1
102
RTVSPropertyOp19
 70
     1
102
RTVSPropertyOp20
 70
     1
102
RTVSPropertyOp21
 70
     1
102
RTVSPropertyOp22
 70
     1
102
RTVSPropertyOp23
 70
     1
102
RTVSPropertyOp24
 70
     1
102
RTVSPropertyOp25
 70
     1
102
RTVSPropertyOp26
 70
     1
102
RTVSPropertyOp27
 70
     1
102
RTVSPropertyOp28
 70
     1
102
RTVSPropertyOp29
 70
     1
102
RTVSPropertyOp30
 70
     1
102
RTVSPropertyOp31
 70
     1
102
RTVSPropertyOp32
 70
     1
102
RTVSPropertyOp33
 70
     1
102
RTVSPropertyOp34
 70
     1
102
RTVSPropertyOp35
 70
     1
102
RTVSPropertyOp36
 70
     1
102
RTVSPropertyOp37
 70
     1
102
RTVSPropertyOp38
 70
     1
102
RTVSPropertyOp39
 70
     1
102
RTVSPropertyOp40
 70
     1
102
RTVSPropertyOp41
 70
     1
102
RTVSPropertyOp42
 70
     1
102
RTVSPropertyOp43
 70
     1
102
RTVSPropertyOp44
 70
     1
102
RTVSPropertyOp45
 70
     1
102
RTVSPropertyOp46
 70
     1
102
RTVSPropertyOp47
 70
     1
102
RTVSPropertyOp48
 70
     1
102
RTVSPropertyOp49
 70
     1
102
RTVSPropertyOp50
 70
     1
102
RTVSPropertyOp51
 70
     0
102
RTVSPropertyOp52
 70
     0
102
RTVSPropertyOp53
 70
     1
102
RTVSPropertyOp54
 70
     1
102
RTVSPropertyOp55
 70
     1
102
RTVSPropertyOp56
 70
     1
102
RTVSPropertyOp57
 70
     1
102
RTVSPost2010Prop28
280
     0
102
RTVSPost2010PropOp28
 70
     1
102
RTVSPost2010Prop29
280
     1
102
RTVSPost2010PropOp29
 70
     1
102
RTVSPost2010Prop30
280
     1
102
RTVSPost2010PropOp30
 70
     1
102
RTVSPost2010Prop31
280
     0
102
RTVSPost2010PropOp31
 70
     1
102
RTVSPost2010Prop32
280
     0
102
RTVSPost2010PropOp32
 70
     1
102
RTVSPost2010Prop33
280
     0
102
RTVSPost2010PropOp33
 70
     1
102
RTVSPost2010Prop34
280
     0
102
RTVSPost2010PropOp34
 70
     1
102
RTVSPost2010Prop35
280
     0
102
RTVSPost2010PropOp35
 70
     1
102
RTVSPost2010Prop36
280
     0
102
RTVSPost2010PropOp36
 70
     1
102
RTVSPost2010Prop37
 90
       50
102
RTVSPost2010PropOp37
 70
     1
102
RTVSPost2010Prop38
140
0.0
102
RTVSPost2010PropOp38
 70
     1
102
RTVSPost2010Prop39
140
1.0
102
RTVSPost2010PropOp39
 70
     1
102
RTVSPost2010Prop40
 90
        0
102
RTVSPost2010PropOp40
 70
     1
102
RTVSPost2010Prop41ColorIndex
 90
       18
102
RTVSPost2010Prop41ColorRGB
 90
        0
102
RTVSPost2010PropOp41
 70
     1
102
RTVSPost2010Prop42
 90
       50
102
RTVSPost2010PropOp42
 70
     1
102
RTVSPost2010Prop43
 90
        3
102
RTVSPost2010PropOp43
 70
     1
102
RTVSPost2010Prop44ColorIndex
 90
        5
102
RTVSPost2010Prop44ColorRGB
 90
      255
102
RTVSPost2010PropOp44
 70
     1
102
RTVSPost2010Prop45
280
     0
102
RTVSPost2010PropOp45
 70
     1
102
RTVSPost2010Prop46
 90
       50
102
RTVSPost2010PropOp46
 70
     1
102
RTVSPost2010Prop47
 90
       50
102
RTVSPost2010PropOp47
 70
     1
102
RTVSPost2010Prop48
 90
       50
102
RTVSPost2010PropOp48
 70
     1
102
RTVSPost2010Prop49
280
     0
102
RTVSPost2010PropOp49
 70
     1
102
RTVSPost2010Prop50
 90
       50
102
RTVSPost2010PropOp50
 70
     1
102
RTVSPost2010Prop51ColorIndex
 90
      256
102
RTVSPost2010Prop51ColorRGB
 90
-16777216
102
RTVSPost2010PropOp51
 70
     0
102
RTVSPost2010Prop52
140
1.0
102
RTVSPost2010PropOp52
 70
     0
102
RTVSPost2010Prop53
 90
        2
102
RTVSPost2010PropOp53
 70
     1
102
RTVSPost2010Prop54
  1
strokes_ogs.tif
102
RTVSPost2010PropOp54
 70
     1
102
RTVSPost2010Prop55
280
     0
102
RTVSPost2010PropOp55
 70
     1
102
RTVSPost2010Prop56
140
1.0
102
RTVSPost2010PropOp56
 70
     1
102
RTVSPost2010Prop57
140
1.0
102
RTVSPost2010PropOp57
 70
     1
  0
XRECORD
  5
65D
102
{ACAD_REACTORS
330
65C
102
}
330
65C
100
AcDbXrecord
280
     1
102
RTVSPropertyOp0
 70
     1
102
RTVSPropertyOp1
 70
     1
102
RTVSPropertyOp2
 70
     1
102
RTVSPropertyOp3
 70
     1
102
RTVSPropertyOp4
 70
     1
102
RTVSPropertyOp5
 70
     1
102
RTVSPropertyOp6
 70
     1
102
RTVSPropertyOp7
 70
     1
102
RTVSPropertyOp8
 70
     1
102
RTVSPropertyOp9
 70
     1
102
RTVSPropertyOp10
 70
     1
102
RTVSPropertyOp11
 70
     1
102
RTVSPropertyOp12
 70
     1
102
RTVSPropertyOp13
 70
     1
102
RTVSPropertyOp14
 70
     1
102
RTVSPropertyOp15
 70
     1
102
RTVSPropertyOp16
 70
     1
102
RTVSPropertyOp17
 70
     1
102
RTVSPropertyOp18
 70
     1
102
RTVSPropertyOp19
 70
     1
102
RTVSPropertyOp20
 70
     1
102
RTVSPropertyOp21
 70
     1
102
RTVSPropertyOp22
 70
     1
102
RTVSPropertyOp23
 70
     1
102
RTVSPropertyOp24
 70
     1
102
RTVSPropertyOp25
 70
     1
102
RTVSPropertyOp26
 70
     1
102
RTVSPropertyOp27
 70
     1
102
RTVSPropertyOp28
 70
     1
102
RTVSPropertyOp29
 70
     1
102
RTVSPropertyOp30
 70
     1
102
RTVSPropertyOp31
 70
     1
102
RTVSPropertyOp32
 70
     1
102
RTVSPropertyOp33
 70
     1
102
RTVSPropertyOp34
 70
     1
102
RTVSPropertyOp35
 70
     1
102
RTVSPropertyOp36
 70
     1
102
RTVSPropertyOp37
 70
     1
102
RTVSPropertyOp38
 70
     1
102
RTVSPropertyOp39
 70
     1
102
RTVSPropertyOp40
 70
     1
102
RTVSPropertyOp41
 70
     1
102
RTVSPropertyOp42
 70
     1
102
RTVSPropertyOp43
 70
     1
102
RTVSPropertyOp44
 70
     1
102
RTVSPropertyOp45
 70
     1
102
RTVSPropertyOp46
 70
     1
102
RTVSPropertyOp47
 70
     1
102
RTVSPropertyOp48
 70
     1
102
RTVSPropertyOp49
 70
     1
102
RTVSPropertyOp50
 70
     1
102
RTVSPropertyOp51
 70
     0
102
RTVSPropertyOp52
 70
     0
102
RTVSPropertyOp53
 70
     1
102
RTVSPropertyOp54
 70
     1
102
RTVSPropertyOp55
 70
     1
102
RTVSPropertyOp56
 70
     1
102
RTVSPropertyOp57
 70
     1
102
RTVSPost2010Prop28
280
     0
102
RTVSPost2010PropOp28
 70
     1
102
RTVSPost2010Prop29
280
     1
102
RTVSPost2010PropOp29
 70
     1
102
RTVSPost2010Prop30
280
     1
102
RTVSPost2010PropOp30
 70
     1
102
RTVSPost2010Prop31
280
     0
102
RTVSPost2010PropOp31
 70
     1
102
RTVSPost2010Prop32
280
     0
102
RTVSPost2010PropOp32
 70
     1
102
RTVSPost2010Prop33
280
     0
102
RTVSPost2010PropOp33
 70
     1
102
RTVSPost2010Prop34
280
     0
102
RTVSPost2010PropOp34
 70
     1
102
RTVSPost2010Prop35
280
     0
102
RTVSPost2010PropOp35
 70
     1
102
RTVSPost2010Prop36
280
     0
102
RTVSPost2010PropOp36
 70
     1
102
RTVSPost2010Prop37
 90
       50
102
RTVSPost2010PropOp37
 70
     1
102
RTVSPost2010Prop38
140
0.0
102
RTVSPost2010PropOp38
 70
     1
102
RTVSPost2010Prop39
140
1.0
102
RTVSPost2010PropOp39
 70
     1
102
RTVSPost2010Prop40
 90
        0
102
RTVSPost2010PropOp40
 70
     1
102
RTVSPost2010Prop41ColorIndex
 90
       18
102
RTVSPost2010Prop41ColorRGB
 90
        0
102
RTVSPost2010PropOp41
 70
     1
102
RTVSPost2010Prop42
 90
       50
102
RTVSPost2010PropOp42
 70
     1
102
RTVSPost2010Prop43
 90
        3
102
RTVSPost2010PropOp43
 70
     1
102
RTVSPost2010Prop44ColorIndex
 90
        5
102
RTVSPost2010Prop44ColorRGB
 90
      255
102
RTVSPost2010PropOp44
 70
     1
102
RTVSPost2010Prop45
280
     0
102
RTVSPost2010PropOp45
 70
     1
102
RTVSPost2010Prop46
 90
       50
102
RTVSPost2010PropOp46
 70
     1
102
RTVSPost2010Prop47
 90
       50
102
RTVSPost2010PropOp47
 70
     1
102
RTVSPost2010Prop48
 90
       50
102
RTVSPost2010PropOp48
 70
     1
102
RTVSPost2010Prop49
280
     0
102
RTVSPost2010PropOp49
 70
     1
102
RTVSPost2010Prop50
 90
       50
102
RTVSPost2010PropOp50
 70
     1
102
RTVSPost2010Prop51ColorIndex
 90
      256
102
RTVSPost2010Prop51ColorRGB
 90
-16777216
102
RTVSPost2010PropOp51
 70
     0
102
RTVSPost2010Prop52
140
1.0
102
RTVSPost2010PropOp52
 70
     0
102
RTVSPost2010Prop53
 90
        2
102
RTVSPost2010PropOp53
 70
     1
102
RTVSPost2010Prop54
  1
strokes_ogs.tif
102
RTVSPost2010PropOp54
 70
     1
102
RTVSPost2010Prop55
280
     0
102
RTVSPost2010PropOp55
 70
     1
102
RTVSPost2010Prop56
140
1.0
102
RTVSPost2010PropOp56
 70
     1
102
RTVSPost2010Prop57
140
1.0
102
RTVSPost2010PropOp57
 70
     1
  0
XRECORD
  5
665
102
{ACAD_REACTORS
330
664
102
}
330
664
100
AcDbXrecord
280
     1
102
RTVSPropertyOp0
 70
     1
102
RTVSPropertyOp1
 70
     1
102
RTVSPropertyOp2
 70
     1
102
RTVSPropertyOp3
 70
     1
102
RTVSPropertyOp4
 70
     1
102
RTVSPropertyOp5
 70
     1
102
RTVSPropertyOp6
 70
     1
102
RTVSPropertyOp7
 70
     1
102
RTVSPropertyOp8
 70
     1
102
RTVSPropertyOp9
 70
     1
102
RTVSPropertyOp10
 70
     1
102
RTVSPropertyOp11
 70
     1
102
RTVSPropertyOp12
 70
     1
102
RTVSPropertyOp13
 70
     1
102
RTVSPropertyOp14
 70
     1
102
RTVSPropertyOp15
 70
     1
102
RTVSPropertyOp16
 70
     1
102
RTVSPropertyOp17
 70
     1
102
RTVSPropertyOp18
 70
     1
102
RTVSPropertyOp19
 70
     1
102
RTVSPropertyOp20
 70
     1
102
RTVSPropertyOp21
 70
     1
102
RTVSPropertyOp22
 70
     1
102
RTVSPropertyOp23
 70
     1
102
RTVSPropertyOp24
 70
     1
102
RTVSPropertyOp25
 70
     1
102
RTVSPropertyOp26
 70
     1
102
RTVSPropertyOp27
 70
     1
102
RTVSPropertyOp28
 70
     1
102
RTVSPropertyOp29
 70
     1
102
RTVSPropertyOp30
 70
     1
102
RTVSPropertyOp31
 70
     1
102
RTVSPropertyOp32
 70
     1
102
RTVSPropertyOp33
 70
     1
102
RTVSPropertyOp34
 70
     1
102
RTVSPropertyOp35
 70
     1
102
RTVSPropertyOp36
 70
     1
102
RTVSPropertyOp37
 70
     1
102
RTVSPropertyOp38
 70
     1
102
RTVSPropertyOp39
 70
     1
102
RTVSPropertyOp40
 70
     1
102
RTVSPropertyOp41
 70
     1
102
RTVSPropertyOp42
 70
     1
102
RTVSPropertyOp43
 70
     1
102
RTVSPropertyOp44
 70
     1
102
RTVSPropertyOp45
 70
     1
102
RTVSPropertyOp46
 70
     1
102
RTVSPropertyOp47
 70
     1
102
RTVSPropertyOp48
 70
     1
102
RTVSPropertyOp49
 70
     1
102
RTVSPropertyOp50
 70
     1
102
RTVSPropertyOp51
 70
     0
102
RTVSPropertyOp52
 70
     0
102
RTVSPropertyOp53
 70
     1
102
RTVSPropertyOp54
 70
     1
102
RTVSPropertyOp55
 70
     1
102
RTVSPropertyOp56
 70
     1
102
RTVSPropertyOp57
 70
     1
102
RTVSPost2010Prop28
280
     0
102
RTVSPost2010PropOp28
 70
     1
102
RTVSPost2010Prop29
280
     1
102
RTVSPost2010PropOp29
 70
     1
102
RTVSPost2010Prop30
280
     1
102
RTVSPost2010PropOp30
 70
     1
102
RTVSPost2010Prop31
280
     0
102
RTVSPost2010PropOp31
 70
     1
102
RTVSPost2010Prop32
280
     0
102
RTVSPost2010PropOp32
 70
     1
102
RTVSPost2010Prop33
280
     0
102
RTVSPost2010PropOp33
 70
     1
102
RTVSPost2010Prop34
280
     0
102
RTVSPost2010PropOp34
 70
     1
102
RTVSPost2010Prop35
280
     0
102
RTVSPost2010PropOp35
 70
     1
102
RTVSPost2010Prop36
280
     0
102
RTVSPost2010PropOp36
 70
     1
102
RTVSPost2010Prop37
 90
       50
102
RTVSPost2010PropOp37
 70
     1
102
RTVSPost2010Prop38
140
0.0
102
RTVSPost2010PropOp38
 70
     1
102
RTVSPost2010Prop39
140
1.0
102
RTVSPost2010PropOp39
 70
     1
102
RTVSPost2010Prop40
 90
        0
102
RTVSPost2010PropOp40
 70
     1
102
RTVSPost2010Prop41ColorIndex
 90
       18
102
RTVSPost2010Prop41ColorRGB
 90
        0
102
RTVSPost2010PropOp41
 70
     1
102
RTVSPost2010Prop42
 90
       50
102
RTVSPost2010PropOp42
 70
     1
102
RTVSPost2010Prop43
 90
        3
102
RTVSPost2010PropOp43
 70
     1
102
RTVSPost2010Prop44ColorIndex
 90
        5
102
RTVSPost2010Prop44ColorRGB
 90
      255
102
RTVSPost2010PropOp44
 70
     1
102
RTVSPost2010Prop45
280
     0
102
RTVSPost2010PropOp45
 70
     1
102
RTVSPost2010Prop46
 90
       50
102
RTVSPost2010PropOp46
 70
     1
102
RTVSPost2010Prop47
 90
       50
102
RTVSPost2010PropOp47
 70
     1
102
RTVSPost2010Prop48
 90
       50
102
RTVSPost2010PropOp48
 70
     1
102
RTVSPost2010Prop49
280
     0
102
RTVSPost2010PropOp49
 70
     1
102
RTVSPost2010Prop50
 90
       50
102
RTVSPost2010PropOp50
 70
     1
102
RTVSPost2010Prop51ColorIndex
 90
      256
102
RTVSPost2010Prop51ColorRGB
 90
-16777216
102
RTVSPost2010PropOp51
 70
     0
102
RTVSPost2010Prop52
140
1.0
102
RTVSPost2010PropOp52
 70
     0
102
RTVSPost2010Prop53
 90
        2
102
RTVSPost2010PropOp53
 70
     1
102
RTVSPost2010Prop54
  1
strokes_ogs.tif
102
RTVSPost2010PropOp54
 70
     1
102
RTVSPost2010Prop55
280
     0
102
RTVSPost2010PropOp55
 70
     1
102
RTVSPost2010Prop56
140
1.0
102
RTVSPost2010PropOp56
 70
     1
102
RTVSPost2010Prop57
140
1.0
102
RTVSPost2010PropOp57
 70
     1
  0
XRECORD
  5
659
102
{ACAD_REACTORS
330
658
102
}
330
658
100
AcDbXrecord
280
     1
102
RTVSPropertyOp0
 70
     1
102
RTVSPropertyOp1
 70
     1
102
RTVSPropertyOp2
 70
     1
102
RTVSPropertyOp3
 70
     1
102
RTVSPropertyOp4
 70
     1
102
RTVSPropertyOp5
 70
     1
102
RTVSPropertyOp6
 70
     1
102
RTVSPropertyOp7
 70
     1
102
RTVSPropertyOp8
 70
     1
102
RTVSPropertyOp9
 70
     1
102
RTVSPropertyOp10
 70
     1
102
RTVSPropertyOp11
 70
     1
102
RTVSPropertyOp12
 70
     1
102
RTVSPropertyOp13
 70
     1
102
RTVSPropertyOp14
 70
     1
102
RTVSPropertyOp15
 70
     1
102
RTVSPropertyOp16
 70
     1
102
RTVSPropertyOp17
 70
     1
102
RTVSPropertyOp18
 70
     1
102
RTVSPropertyOp19
 70
     1
102
RTVSPropertyOp20
 70
     1
102
RTVSPropertyOp21
 70
     1
102
RTVSPropertyOp22
 70
     1
102
RTVSPropertyOp23
 70
     1
102
RTVSPropertyOp24
 70
     1
102
RTVSPropertyOp25
 70
     1
102
RTVSPropertyOp26
 70
     1
102
RTVSPropertyOp27
 70
     1
102
RTVSPropertyOp28
 70
     1
102
RTVSPropertyOp29
 70
     1
102
RTVSPropertyOp30
 70
     1
102
RTVSPropertyOp31
 70
     1
102
RTVSPropertyOp32
 70
     1
102
RTVSPropertyOp33
 70
     1
102
RTVSPropertyOp34
 70
     1
102
RTVSPropertyOp35
 70
     1
102
RTVSPropertyOp36
 70
     1
102
RTVSPropertyOp37
 70
     1
102
RTVSPropertyOp38
 70
     1
102
RTVSPropertyOp39
 70
     1
102
RTVSPropertyOp40
 70
     1
102
RTVSPropertyOp41
 70
     1
102
RTVSPropertyOp42
 70
     1
102
RTVSPropertyOp43
 70
     1
102
RTVSPropertyOp44
 70
     1
102
RTVSPropertyOp45
 70
     1
102
RTVSPropertyOp46
 70
     1
102
RTVSPropertyOp47
 70
     1
102
RTVSPropertyOp48
 70
     1
102
RTVSPropertyOp49
 70
     1
102
RTVSPropertyOp50
 70
     1
102
RTVSPropertyOp51
 70
     0
102
RTVSPropertyOp52
 70
     0
102
RTVSPropertyOp53
 70
     1
102
RTVSPropertyOp54
 70
     1
102
RTVSPropertyOp55
 70
     1
102
RTVSPropertyOp56
 70
     1
102
RTVSPropertyOp57
 70
     1
102
RTVSPost2010Prop28
280
     0
102
RTVSPost2010PropOp28
 70
     1
102
RTVSPost2010Prop29
280
     1
102
RTVSPost2010PropOp29
 70
     1
102
RTVSPost2010Prop30
280
     1
102
RTVSPost2010PropOp30
 70
     1
102
RTVSPost2010Prop31
280
     0
102
RTVSPost2010PropOp31
 70
     1
102
RTVSPost2010Prop32
280
     0
102
RTVSPost2010PropOp32
 70
     1
102
RTVSPost2010Prop33
280
     0
102
RTVSPost2010PropOp33
 70
     1
102
RTVSPost2010Prop34
280
     0
102
RTVSPost2010PropOp34
 70
     1
102
RTVSPost2010Prop35
280
     0
102
RTVSPost2010PropOp35
 70
     1
102
RTVSPost2010Prop36
280
     0
102
RTVSPost2010PropOp36
 70
     1
102
RTVSPost2010Prop37
 90
       50
102
RTVSPost2010PropOp37
 70
     1
102
RTVSPost2010Prop38
140
0.0
102
RTVSPost2010PropOp38
 70
     1
102
RTVSPost2010Prop39
140
1.0
102
RTVSPost2010PropOp39
 70
     1
102
RTVSPost2010Prop40
 90
        0
102
RTVSPost2010PropOp40
 70
     1
102
RTVSPost2010Prop41ColorIndex
 90
       18
102
RTVSPost2010Prop41ColorRGB
 90
        0
102
RTVSPost2010PropOp41
 70
     1
102
RTVSPost2010Prop42
 90
       50
102
RTVSPost2010PropOp42
 70
     1
102
RTVSPost2010Prop43
 90
        3
102
RTVSPost2010PropOp43
 70
     1
102
RTVSPost2010Prop44ColorIndex
 90
        5
102
RTVSPost2010Prop44ColorRGB
 90
      255
102
RTVSPost2010PropOp44
 70
     1
102
RTVSPost2010Prop45
280
     0
102
RTVSPost2010PropOp45
 70
     1
102
RTVSPost2010Prop46
 90
       50
102
RTVSPost2010PropOp46
 70
     1
102
RTVSPost2010Prop47
 90
       50
102
RTVSPost2010PropOp47
 70
     1
102
RTVSPost2010Prop48
 90
       50
102
RTVSPost2010PropOp48
 70
     1
102
RTVSPost2010Prop49
280
     0
102
RTVSPost2010PropOp49
 70
     1
102
RTVSPost2010Prop50
 90
       50
102
RTVSPost2010PropOp50
 70
     1
102
RTVSPost2010Prop51ColorIndex
 90
      256
102
RTVSPost2010Prop51ColorRGB
 90
-16777216
102
RTVSPost2010PropOp51
 70
     0
102
RTVSPost2010Prop52
140
1.0
102
RTVSPost2010PropOp52
 70
     0
102
RTVSPost2010Prop53
 90
        2
102
RTVSPost2010PropOp53
 70
     1
102
RTVSPost2010Prop54
  1
strokes_ogs.tif
102
RTVSPost2010PropOp54
 70
     1
102
RTVSPost2010Prop55
280
     0
102
RTVSPost2010PropOp55
 70
     1
102
RTVSPost2010Prop56
140
1.0
102
RTVSPost2010PropOp56
 70
     1
102
RTVSPost2010Prop57
140
1.0
102
RTVSPost2010PropOp57
 70
     1
  0
XRECORD
  5
65B
102
{ACAD_REACTORS
330
65A
102
}
330
65A
100
AcDbXrecord
280
     1
102
RTVSPropertyOp0
 70
     1
102
RTVSPropertyOp1
 70
     1
102
RTVSPropertyOp2
 70
     1
102
RTVSPropertyOp3
 70
     1
102
RTVSPropertyOp4
 70
     1
102
RTVSPropertyOp5
 70
     1
102
RTVSPropertyOp6
 70
     1
102
RTVSPropertyOp7
 70
     1
102
RTVSPropertyOp8
 70
     1
102
RTVSPropertyOp9
 70
     1
102
RTVSPropertyOp10
 70
     1
102
RTVSPropertyOp11
 70
     1
102
RTVSPropertyOp12
 70
     1
102
RTVSPropertyOp13
 70
     1
102
RTVSPropertyOp14
 70
     1
102
RTVSPropertyOp15
 70
     1
102
RTVSPropertyOp16
 70
     1
102
RTVSPropertyOp17
 70
     1
102
RTVSPropertyOp18
 70
     1
102
RTVSPropertyOp19
 70
     1
102
RTVSPropertyOp20
 70
     1
102
RTVSPropertyOp21
 70
     1
102
RTVSPropertyOp22
 70
     1
102
RTVSPropertyOp23
 70
     1
102
RTVSPropertyOp24
 70
     1
102
RTVSPropertyOp25
 70
     1
102
RTVSPropertyOp26
 70
     1
102
RTVSPropertyOp27
 70
     1
102
RTVSPropertyOp28
 70
     1
102
RTVSPropertyOp29
 70
     1
102
RTVSPropertyOp30
 70
     1
102
RTVSPropertyOp31
 70
     1
102
RTVSPropertyOp32
 70
     1
102
RTVSPropertyOp33
 70
     1
102
RTVSPropertyOp34
 70
     1
102
RTVSPropertyOp35
 70
     1
102
RTVSPropertyOp36
 70
     1
102
RTVSPropertyOp37
 70
     1
102
RTVSPropertyOp38
 70
     1
102
RTVSPropertyOp39
 70
     1
102
RTVSPropertyOp40
 70
     1
102
RTVSPropertyOp41
 70
     1
102
RTVSPropertyOp42
 70
     1
102
RTVSPropertyOp43
 70
     1
102
RTVSPropertyOp44
 70
     1
102
RTVSPropertyOp45
 70
     1
102
RTVSPropertyOp46
 70
     1
102
RTVSPropertyOp47
 70
     1
102
RTVSPropertyOp48
 70
     1
102
RTVSPropertyOp49
 70
     1
102
RTVSPropertyOp50
 70
     1
102
RTVSPropertyOp51
 70
     0
102
RTVSPropertyOp52
 70
     0
102
RTVSPropertyOp53
 70
     1
102
RTVSPropertyOp54
 70
     1
102
RTVSPropertyOp55
 70
     1
102
RTVSPropertyOp56
 70
     1
102
RTVSPropertyOp57
 70
     1
102
RTVSPost2010Prop28
280
     0
102
RTVSPost2010PropOp28
 70
     1
102
RTVSPost2010Prop29
280
     1
102
RTVSPost2010PropOp29
 70
     1
102
RTVSPost2010Prop30
280
     1
102
RTVSPost2010PropOp30
 70
     1
102
RTVSPost2010Prop31
280
     0
102
RTVSPost2010PropOp31
 70
     1
102
RTVSPost2010Prop32
280
     0
102
RTVSPost2010PropOp32
 70
     1
102
RTVSPost2010Prop33
280
     0
102
RTVSPost2010PropOp33
 70
     1
102
RTVSPost2010Prop34
280
     0
102
RTVSPost2010PropOp34
 70
     1
102
RTVSPost2010Prop35
280
     0
102
RTVSPost2010PropOp35
 70
     1
102
RTVSPost2010Prop36
280
     0
102
RTVSPost2010PropOp36
 70
     1
102
RTVSPost2010Prop37
 90
       50
102
RTVSPost2010PropOp37
 70
     1
102
RTVSPost2010Prop38
140
0.0
102
RTVSPost2010PropOp38
 70
     1
102
RTVSPost2010Prop39
140
1.0
102
RTVSPost2010PropOp39
 70
     1
102
RTVSPost2010Prop40
 90
        0
102
RTVSPost2010PropOp40
 70
     1
102
RTVSPost2010Prop41ColorIndex
 90
       18
102
RTVSPost2010Prop41ColorRGB
 90
        0
102
RTVSPost2010PropOp41
 70
     1
102
RTVSPost2010Prop42
 90
       50
102
RTVSPost2010PropOp42
 70
     1
102
RTVSPost2010Prop43
 90
        3
102
RTVSPost2010PropOp43
 70
     1
102
RTVSPost2010Prop44ColorIndex
 90
        5
102
RTVSPost2010Prop44ColorRGB
 90
      255
102
RTVSPost2010PropOp44
 70
     1
102
RTVSPost2010Prop45
280
     0
102
RTVSPost2010PropOp45
 70
     1
102
RTVSPost2010Prop46
 90
       50
102
RTVSPost2010PropOp46
 70
     1
102
RTVSPost2010Prop47
 90
       50
102
RTVSPost2010PropOp47
 70
     1
102
RTVSPost2010Prop48
 90
       50
102
RTVSPost2010PropOp48
 70
     1
102
RTVSPost2010Prop49
280
     0
102
RTVSPost2010PropOp49
 70
     1
102
RTVSPost2010Prop50
 90
       50
102
RTVSPost2010PropOp50
 70
     1
102
RTVSPost2010Prop51ColorIndex
 90
      256
102
RTVSPost2010Prop51ColorRGB
 90
-16777216
102
RTVSPost2010PropOp51
 70
     0
102
RTVSPost2010Prop52
140
1.0
102
RTVSPost2010PropOp52
 70
     0
102
RTVSPost2010Prop53
 90
        2
102
RTVSPost2010PropOp53
 70
     1
102
RTVSPost2010Prop54
  1
strokes_ogs.tif
102
RTVSPost2010PropOp54
 70
     1
102
RTVSPost2010Prop55
280
     0
102
RTVSPost2010PropOp55
 70
     1
102
RTVSPost2010Prop56
140
1.0
102
RTVSPost2010PropOp56
 70
     1
102
RTVSPost2010Prop57
140
1.0
102
RTVSPost2010PropOp57
 70
     1
  0
XRECORD
  5
66B
102
{ACAD_REACTORS
330
66A
102
}
330
66A
100
AcDbXrecord
280
     1
102
RTVSPropertyOp0
 70
     0
102
RTVSPropertyOp1
 70
     0
102
RTVSPropertyOp2
 70
     0
102
RTVSPropertyOp3
 70
     0
102
RTVSPropertyOp4
 70
     0
102
RTVSPropertyOp5
 70
     0
102
RTVSPropertyOp6
 70
     0
102
RTVSPropertyOp7
 70
     0
102
RTVSPropertyOp8
 70
     0
102
RTVSPropertyOp9
 70
     0
102
RTVSPropertyOp10
 70
     0
102
RTVSPropertyOp11
 70
     0
102
RTVSPropertyOp12
 70
     0
102
RTVSPropertyOp13
 70
     0
102
RTVSPropertyOp14
 70
     0
102
RTVSPropertyOp15
 70
     0
102
RTVSPropertyOp16
 70
     0
102
RTVSPropertyOp17
 70
     0
102
RTVSPropertyOp18
 70
     0
102
RTVSPropertyOp19
 70
     0
102
RTVSPropertyOp20
 70
     0
102
RTVSPropertyOp21
 70
     0
102
RTVSPropertyOp22
 70
     0
102
RTVSPropertyOp23
 70
     0
102
RTVSPropertyOp24
 70
     0
102
RTVSPropertyOp25
 70
     0
102
RTVSPropertyOp26
 70
     0
102
RTVSPropertyOp27
 70
     0
102
RTVSPropertyOp28
 70
     1
102
RTVSPropertyOp29
 70
     1
102
RTVSPropertyOp30
 70
     1
102
RTVSPropertyOp31
 70
     1
102
RTVSPropertyOp32
 70
     1
102
RTVSPropertyOp33
 70
     1
102
RTVSPropertyOp34
 70
     1
102
RTVSPropertyOp35
 70
     1
102
RTVSPropertyOp36
 70
     1
102
RTVSPropertyOp37
 70
     1
102
RTVSPropertyOp38
 70
     1
102
RTVSPropertyOp39
 70
     1
102
RTVSPropertyOp40
 70
     1
102
RTVSPropertyOp41
 70
     1
102
RTVSPropertyOp42
 70
     1
102
RTVSPropertyOp43
 70
     1
102
RTVSPropertyOp44
 70
     1
102
RTVSPropertyOp45
 70
     1
102
RTVSPropertyOp46
 70
     1
102
RTVSPropertyOp47
 70
     1
102
RTVSPropertyOp48
 70
     1
102
RTVSPropertyOp49
 70
     1
102
RTVSPropertyOp50
 70
     1
102
RTVSPropertyOp51
 70
     0
102
RTVSPropertyOp52
 70
     0
102
RTVSPropertyOp53
 70
     1
102
RTVSPropertyOp54
 70
     1
102
RTVSPropertyOp55
 70
     1
102
RTVSPropertyOp56
 70
     1
102
RTVSPropertyOp57
 70
     1
102
RTVSPost2010Prop28
280
     0
102
RTVSPost2010PropOp28
 70
     1
102
RTVSPost2010Prop29
280
     1
102
RTVSPost2010PropOp29
 70
     1
102
RTVSPost2010Prop30
280
     1
102
RTVSPost2010PropOp30
 70
     1
102
RTVSPost2010Prop31
280
     0
102
RTVSPost2010PropOp31
 70
     1
102
RTVSPost2010Prop32
280
     0
102
RTVSPost2010PropOp32
 70
     1
102
RTVSPost2010Prop33
280
     0
102
RTVSPost2010PropOp33
 70
     1
102
RTVSPost2010Prop34
280
     0
102
RTVSPost2010PropOp34
 70
     1
102
RTVSPost2010Prop35
280
     0
102
RTVSPost2010PropOp35
 70
     1
102
RTVSPost2010Prop36
280
     0
102
RTVSPost2010PropOp36
 70
     1
102
RTVSPost2010Prop37
 90
       50
102
RTVSPost2010PropOp37
 70
     1
102
RTVSPost2010Prop38
140
0.0
102
RTVSPost2010PropOp38
 70
     1
102
RTVSPost2010Prop39
140
1.0
102
RTVSPost2010PropOp39
 70
     1
102
RTVSPost2010Prop40
 90
        0
102
RTVSPost2010PropOp40
 70
     1
102
RTVSPost2010Prop41ColorIndex
 90
       18
102
RTVSPost2010Prop41ColorRGB
 90
        0
102
RTVSPost2010PropOp41
 70
     1
102
RTVSPost2010Prop42
 90
       50
102
RTVSPost2010PropOp42
 70
     1
102
RTVSPost2010Prop43
 90
        3
102
RTVSPost2010PropOp43
 70
     1
102
RTVSPost2010Prop44ColorIndex
 90
        5
102
RTVSPost2010Prop44ColorRGB
 90
      255
102
RTVSPost2010PropOp44
 70
     1
102
RTVSPost2010Prop45
280
     0
102
RTVSPost2010PropOp45
 70
     1
102
RTVSPost2010Prop46
 90
       50
102
RTVSPost2010PropOp46
 70
     1
102
RTVSPost2010Prop47
 90
       50
102
RTVSPost2010PropOp47
 70
     1
102
RTVSPost2010Prop48
 90
       50
102
RTVSPost2010PropOp48
 70
     1
102
RTVSPost2010Prop49
280
     0
102
RTVSPost2010PropOp49
 70
     1
102
RTVSPost2010Prop50
 90
       50
102
RTVSPost2010PropOp50
 70
     1
102
RTVSPost2010Prop51ColorIndex
 90
      256
102
RTVSPost2010Prop51ColorRGB
 90
-16777216
102
RTVSPost2010PropOp51
 70
     0
102
RTVSPost2010Prop52
140
1.0
102
RTVSPost2010PropOp52
 70
     0
102
RTVSPost2010Prop53
 90
        2
102
RTVSPost2010PropOp53
 70
     1
102
RTVSPost2010Prop54
  1
strokes_ogs.tif
102
RTVSPost2010PropOp54
 70
     1
102
RTVSPost2010Prop55
280
     0
102
RTVSPost2010PropOp55
 70
     1
102
RTVSPost2010Prop56
140
1.0
102
RTVSPost2010PropOp56
 70
     1
102
RTVSPost2010Prop57
140
1.0
102
RTVSPost2010PropOp57
 70
     1
  0
XRECORD
  5
663
102
{ACAD_REACTORS
330
662
102
}
330
662
100
AcDbXrecord
280
     1
102
RTVSPropertyOp0
 70
     1
102
RTVSPropertyOp1
 70
     1
102
RTVSPropertyOp2
 70
     1
102
RTVSPropertyOp3
 70
     1
102
RTVSPropertyOp4
 70
     1
102
RTVSPropertyOp5
 70
     1
102
RTVSPropertyOp6
 70
     1
102
RTVSPropertyOp7
 70
     1
102
RTVSPropertyOp8
 70
     1
102
RTVSPropertyOp9
 70
     1
102
RTVSPropertyOp10
 70
     1
102
RTVSPropertyOp11
 70
     1
102
RTVSPropertyOp12
 70
     1
102
RTVSPropertyOp13
 70
     1
102
RTVSPropertyOp14
 70
     1
102
RTVSPropertyOp15
 70
     1
102
RTVSPropertyOp16
 70
     1
102
RTVSPropertyOp17
 70
     1
102
RTVSPropertyOp18
 70
     1
102
RTVSPropertyOp19
 70
     1
102
RTVSPropertyOp20
 70
     1
102
RTVSPropertyOp21
 70
     1
102
RTVSPropertyOp22
 70
     1
102
RTVSPropertyOp23
 70
     1
102
RTVSPropertyOp24
 70
     1
102
RTVSPropertyOp25
 70
     1
102
RTVSPropertyOp26
 70
     1
102
RTVSPropertyOp27
 70
     1
102
RTVSPropertyOp28
 70
     1
102
RTVSPropertyOp29
 70
     1
102
RTVSPropertyOp30
 70
     1
102
RTVSPropertyOp31
 70
     1
102
RTVSPropertyOp32
 70
     1
102
RTVSPropertyOp33
 70
     1
102
RTVSPropertyOp34
 70
     1
102
RTVSPropertyOp35
 70
     1
102
RTVSPropertyOp36
 70
     1
102
RTVSPropertyOp37
 70
     1
102
RTVSPropertyOp38
 70
     1
102
RTVSPropertyOp39
 70
     1
102
RTVSPropertyOp40
 70
     1
102
RTVSPropertyOp41
 70
     1
102
RTVSPropertyOp42
 70
     1
102
RTVSPropertyOp43
 70
     1
102
RTVSPropertyOp44
 70
     1
102
RTVSPropertyOp45
 70
     1
102
RTVSPropertyOp46
 70
     1
102
RTVSPropertyOp47
 70
     1
102
RTVSPropertyOp48
 70
     1
102
RTVSPropertyOp49
 70
     1
102
RTVSPropertyOp50
 70
     1
102
RTVSPropertyOp51
 70
     0
102
RTVSPropertyOp52
 70
     0
102
RTVSPropertyOp53
 70
     1
102
RTVSPropertyOp54
 70
     1
102
RTVSPropertyOp55
 70
     1
102
RTVSPropertyOp56
 70
     1
102
RTVSPropertyOp57
 70
     1
102
RTVSPost2010Prop28
280
     0
102
RTVSPost2010PropOp28
 70
     1
102
RTVSPost2010Prop29
280
     1
102
RTVSPost2010PropOp29
 70
     1
102
RTVSPost2010Prop30
280
     1
102
RTVSPost2010PropOp30
 70
     1
102
RTVSPost2010Prop31
280
     0
102
RTVSPost2010PropOp31
 70
     1
102
RTVSPost2010Prop32
280
     0
102
RTVSPost2010PropOp32
 70
     1
102
RTVSPost2010Prop33
280
     0
102
RTVSPost2010PropOp33
 70
     1
102
RTVSPost2010Prop34
280
     0
102
RTVSPost2010PropOp34
 70
     1
102
RTVSPost2010Prop35
280
     0
102
RTVSPost2010PropOp35
 70
     1
102
RTVSPost2010Prop36
280
     0
102
RTVSPost2010PropOp36
 70
     1
102
RTVSPost2010Prop37
 90
       50
102
RTVSPost2010PropOp37
 70
     1
102
RTVSPost2010Prop38
140
0.0
102
RTVSPost2010PropOp38
 70
     1
102
RTVSPost2010Prop39
140
1.0
102
RTVSPost2010PropOp39
 70
     1
102
RTVSPost2010Prop40
 90
        0
102
RTVSPost2010PropOp40
 70
     1
102
RTVSPost2010Prop41ColorIndex
 90
       18
102
RTVSPost2010Prop41ColorRGB
 90
        0
102
RTVSPost2010PropOp41
 70
     1
102
RTVSPost2010Prop42
 90
       50
102
RTVSPost2010PropOp42
 70
     1
102
RTVSPost2010Prop43
 90
        3
102
RTVSPost2010PropOp43
 70
     1
102
RTVSPost2010Prop44ColorIndex
 90
        5
102
RTVSPost2010Prop44ColorRGB
 90
      255
102
RTVSPost2010PropOp44
 70
     1
102
RTVSPost2010Prop45
280
     0
102
RTVSPost2010PropOp45
 70
     1
102
RTVSPost2010Prop46
 90
       50
102
RTVSPost2010PropOp46
 70
     1
102
RTVSPost2010Prop47
 90
       50
102
RTVSPost2010PropOp47
 70
     1
102
RTVSPost2010Prop48
 90
       50
102
RTVSPost2010PropOp48
 70
     1
102
RTVSPost2010Prop49
280
     0
102
RTVSPost2010PropOp49
 70
     1
102
RTVSPost2010Prop50
 90
       50
102
RTVSPost2010PropOp50
 70
     1
102
RTVSPost2010Prop51ColorIndex
 90
      256
102
RTVSPost2010Prop51ColorRGB
 90
-16777216
102
RTVSPost2010PropOp51
 70
     0
102
RTVSPost2010Prop52
140
1.0
102
RTVSPost2010PropOp52
 70
     0
102
RTVSPost2010Prop53
 90
        2
102
RTVSPost2010PropOp53
 70
     1
102
RTVSPost2010Prop54
  1
strokes_ogs.tif
102
RTVSPost2010PropOp54
 70
     1
102
RTVSPost2010Prop55
280
     0
102
RTVSPost2010PropOp55
 70
     1
102
RTVSPost2010Prop56
140
1.0
102
RTVSPost2010PropOp56
 70
     1
102
RTVSPost2010Prop57
140
1.0
102
RTVSPost2010PropOp57
 70
     1
  0
XRECORD
  5
647
102
{ACAD_REACTORS
330
646
102
}
330
646
100
AcDbXrecord
280
     1
102
RTVSPropertyOp0
 70
     1
102
RTVSPropertyOp1
 70
     1
102
RTVSPropertyOp2
 70
     1
102
RTVSPropertyOp3
 70
     1
102
RTVSPropertyOp4
 70
     1
102
RTVSPropertyOp5
 70
     1
102
RTVSPropertyOp6
 70
     1
102
RTVSPropertyOp7
 70
     1
102
RTVSPropertyOp8
 70
     1
102
RTVSPropertyOp9
 70
     1
102
RTVSPropertyOp10
 70
     1
102
RTVSPropertyOp11
 70
     1
102
RTVSPropertyOp12
 70
     1
102
RTVSPropertyOp13
 70
     1
102
RTVSPropertyOp14
 70
     1
102
RTVSPropertyOp15
 70
     1
102
RTVSPropertyOp16
 70
     1
102
RTVSPropertyOp17
 70
     1
102
RTVSPropertyOp18
 70
     1
102
RTVSPropertyOp19
 70
     1
102
RTVSPropertyOp20
 70
     1
102
RTVSPropertyOp21
 70
     1
102
RTVSPropertyOp22
 70
     1
102
RTVSPropertyOp23
 70
     1
102
RTVSPropertyOp24
 70
     1
102
RTVSPropertyOp25
 70
     1
102
RTVSPropertyOp26
 70
     1
102
RTVSPropertyOp27
 70
     1
102
RTVSPropertyOp28
 70
     1
102
RTVSPropertyOp29
 70
     1
102
RTVSPropertyOp30
 70
     1
102
RTVSPropertyOp31
 70
     1
102
RTVSPropertyOp32
 70
     1
102
RTVSPropertyOp33
 70
     1
102
RTVSPropertyOp34
 70
     1
102
RTVSPropertyOp35
 70
     1
102
RTVSPropertyOp36
 70
     1
102
RTVSPropertyOp37
 70
     1
102
RTVSPropertyOp38
 70
     1
102
RTVSPropertyOp39
 70
     1
102
RTVSPropertyOp40
 70
     1
102
RTVSPropertyOp41
 70
     1
102
RTVSPropertyOp42
 70
     1
102
RTVSPropertyOp43
 70
     1
102
RTVSPropertyOp44
 70
     1
102
RTVSPropertyOp45
 70
     1
102
RTVSPropertyOp46
 70
     1
102
RTVSPropertyOp47
 70
     1
102
RTVSPropertyOp48
 70
     1
102
RTVSPropertyOp49
 70
     1
102
RTVSPropertyOp50
 70
     1
102
RTVSPropertyOp51
 70
     0
102
RTVSPropertyOp52
 70
     0
102
RTVSPropertyOp53
 70
     1
102
RTVSPropertyOp54
 70
     1
102
RTVSPropertyOp55
 70
     1
102
RTVSPropertyOp56
 70
     1
102
RTVSPropertyOp57
 70
     1
102
RTVSPost2010Prop28
280
     0
102
RTVSPost2010PropOp28
 70
     1
102
RTVSPost2010Prop29
280
     1
102
RTVSPost2010PropOp29
 70
     1
102
RTVSPost2010Prop30
280
     1
102
RTVSPost2010PropOp30
 70
     1
102
RTVSPost2010Prop31
280
     0
102
RTVSPost2010PropOp31
 70
     1
102
RTVSPost2010Prop32
280
     0
102
RTVSPost2010PropOp32
 70
     1
102
RTVSPost2010Prop33
280
     0
102
RTVSPost2010PropOp33
 70
     1
102
RTVSPost2010Prop34
280
     0
102
RTVSPost2010PropOp34
 70
     1
102
RTVSPost2010Prop35
280
     0
102
RTVSPost2010PropOp35
 70
     1
102
RTVSPost2010Prop36
280
     0
102
RTVSPost2010PropOp36
 70
     1
102
RTVSPost2010Prop37
 90
       50
102
RTVSPost2010PropOp37
 70
     1
102
RTVSPost2010Prop38
140
0.0
102
RTVSPost2010PropOp38
 70
     1
102
RTVSPost2010Prop39
140
1.0
102
RTVSPost2010PropOp39
 70
     1
102
RTVSPost2010Prop40
 90
        0
102
RTVSPost2010PropOp40
 70
     1
102
RTVSPost2010Prop41ColorIndex
 90
       18
102
RTVSPost2010Prop41ColorRGB
 90
        0
102
RTVSPost2010PropOp41
 70
     1
102
RTVSPost2010Prop42
 90
       50
102
RTVSPost2010PropOp42
 70
     1
102
RTVSPost2010Prop43
 90
        3
102
RTVSPost2010PropOp43
 70
     1
102
RTVSPost2010Prop44ColorIndex
 90
        5
102
RTVSPost2010Prop44ColorRGB
 90
      255
102
RTVSPost2010PropOp44
 70
     1
102
RTVSPost2010Prop45
280
     0
102
RTVSPost2010PropOp45
 70
     1
102
RTVSPost2010Prop46
 90
       50
102
RTVSPost2010PropOp46
 70
     1
102
RTVSPost2010Prop47
 90
       50
102
RTVSPost2010PropOp47
 70
     1
102
RTVSPost2010Prop48
 90
       50
102
RTVSPost2010PropOp48
 70
     1
102
RTVSPost2010Prop49
280
     0
102
RTVSPost2010PropOp49
 70
     1
102
RTVSPost2010Prop50
 90
       50
102
RTVSPost2010PropOp50
 70
     1
102
RTVSPost2010Prop51ColorIndex
 90
      256
102
RTVSPost2010Prop51ColorRGB
 90
-16777216
102
RTVSPost2010PropOp51
 70
     0
102
RTVSPost2010Prop52
140
1.0
102
RTVSPost2010PropOp52
 70
     0
102
RTVSPost2010Prop53
 90
        2
102
RTVSPost2010PropOp53
 70
     1
102
RTVSPost2010Prop54
  1
strokes_ogs.tif
102
RTVSPost2010PropOp54
 70
     1
102
RTVSPost2010Prop55
280
     0
102
RTVSPost2010PropOp55
 70
     1
102
RTVSPost2010Prop56
140
1.0
102
RTVSPost2010PropOp56
 70
     1
102
RTVSPost2010Prop57
140
1.0
102
RTVSPost2010PropOp57
 70
     1
  0
XRECORD
  5
649
102
{ACAD_REACTORS
330
648
102
}
330
648
100
AcDbXrecord
280
     1
102
RTVSPropertyOp0
 70
     1
102
RTVSPropertyOp1
 70
     1
102
RTVSPropertyOp2
 70
     1
102
RTVSPropertyOp3
 70
     1
102
RTVSPropertyOp4
 70
     1
102
RTVSPropertyOp5
 70
     1
102
RTVSPropertyOp6
 70
     1
102
RTVSPropertyOp7
 70
     1
102
RTVSPropertyOp8
 70
     1
102
RTVSPropertyOp9
 70
     1
102
RTVSPropertyOp10
 70
     1
102
RTVSPropertyOp11
 70
     1
102
RTVSPropertyOp12
 70
     1
102
RTVSPropertyOp13
 70
     1
102
RTVSPropertyOp14
 70
     1
102
RTVSPropertyOp15
 70
     1
102
RTVSPropertyOp16
 70
     1
102
RTVSPropertyOp17
 70
     1
102
RTVSPropertyOp18
 70
     1
102
RTVSPropertyOp19
 70
     1
102
RTVSPropertyOp20
 70
     1
102
RTVSPropertyOp21
 70
     1
102
RTVSPropertyOp22
 70
     1
102
RTVSPropertyOp23
 70
     1
102
RTVSPropertyOp24
 70
     1
102
RTVSPropertyOp25
 70
     1
102
RTVSPropertyOp26
 70
     1
102
RTVSPropertyOp27
 70
     1
102
RTVSPropertyOp28
 70
     1
102
RTVSPropertyOp29
 70
     1
102
RTVSPropertyOp30
 70
     1
102
RTVSPropertyOp31
 70
     1
102
RTVSPropertyOp32
 70
     1
102
RTVSPropertyOp33
 70
     1
102
RTVSPropertyOp34
 70
     1
102
RTVSPropertyOp35
 70
     1
102
RTVSPropertyOp36
 70
     1
102
RTVSPropertyOp37
 70
     1
102
RTVSPropertyOp38
 70
     1
102
RTVSPropertyOp39
 70
     1
102
RTVSPropertyOp40
 70
     1
102
RTVSPropertyOp41
 70
     1
102
RTVSPropertyOp42
 70
     1
102
RTVSPropertyOp43
 70
     1
102
RTVSPropertyOp44
 70
     1
102
RTVSPropertyOp45
 70
     1
102
RTVSPropertyOp46
 70
     1
102
RTVSPropertyOp47
 70
     1
102
RTVSPropertyOp48
 70
     1
102
RTVSPropertyOp49
 70
     1
102
RTVSPropertyOp50
 70
     1
102
RTVSPropertyOp51
 70
     0
102
RTVSPropertyOp52
 70
     0
102
RTVSPropertyOp53
 70
     1
102
RTVSPropertyOp54
 70
     1
102
RTVSPropertyOp55
 70
     1
102
RTVSPropertyOp56
 70
     1
102
RTVSPropertyOp57
 70
     1
102
RTVSPost2010Prop28
280
     0
102
RTVSPost2010PropOp28
 70
     1
102
RTVSPost2010Prop29
280
     1
102
RTVSPost2010PropOp29
 70
     1
102
RTVSPost2010Prop30
280
     1
102
RTVSPost2010PropOp30
 70
     1
102
RTVSPost2010Prop31
280
     0
102
RTVSPost2010PropOp31
 70
     1
102
RTVSPost2010Prop32
280
     0
102
RTVSPost2010PropOp32
 70
     1
102
RTVSPost2010Prop33
280
     0
102
RTVSPost2010PropOp33
 70
     1
102
RTVSPost2010Prop34
280
     0
102
RTVSPost2010PropOp34
 70
     1
102
RTVSPost2010Prop35
280
     0
102
RTVSPost2010PropOp35
 70
     1
102
RTVSPost2010Prop36
280
     0
102
RTVSPost2010PropOp36
 70
     1
102
RTVSPost2010Prop37
 90
       50
102
RTVSPost2010PropOp37
 70
     1
102
RTVSPost2010Prop38
140
0.0
102
RTVSPost2010PropOp38
 70
     1
102
RTVSPost2010Prop39
140
1.0
102
RTVSPost2010PropOp39
 70
     1
102
RTVSPost2010Prop40
 90
        0
102
RTVSPost2010PropOp40
 70
     1
102
RTVSPost2010Prop41ColorIndex
 90
       18
102
RTVSPost2010Prop41ColorRGB
 90
        0
102
RTVSPost2010PropOp41
 70
     1
102
RTVSPost2010Prop42
 90
       50
102
RTVSPost2010PropOp42
 70
     1
102
RTVSPost2010Prop43
 90
        3
102
RTVSPost2010PropOp43
 70
     1
102
RTVSPost2010Prop44ColorIndex
 90
        5
102
RTVSPost2010Prop44ColorRGB
 90
      255
102
RTVSPost2010PropOp44
 70
     1
102
RTVSPost2010Prop45
280
     0
102
RTVSPost2010PropOp45
 70
     1
102
RTVSPost2010Prop46
 90
       50
102
RTVSPost2010PropOp46
 70
     1
102
RTVSPost2010Prop47
 90
       50
102
RTVSPost2010PropOp47
 70
     1
102
RTVSPost2010Prop48
 90
       50
102
RTVSPost2010PropOp48
 70
     1
102
RTVSPost2010Prop49
280
     0
102
RTVSPost2010PropOp49
 70
     1
102
RTVSPost2010Prop50
 90
       50
102
RTVSPost2010PropOp50
 70
     1
102
RTVSPost2010Prop51ColorIndex
 90
      256
102
RTVSPost2010Prop51ColorRGB
 90
-16777216
102
RTVSPost2010PropOp51
 70
     0
102
RTVSPost2010Prop52
140
1.0
102
RTVSPost2010PropOp52
 70
     0
102
RTVSPost2010Prop53
 90
        2
102
RTVSPost2010PropOp53
 70
     1
102
RTVSPost2010Prop54
  1
strokes_ogs.tif
102
RTVSPost2010PropOp54
 70
     1
102
RTVSPost2010Prop55
280
     0
102
RTVSPost2010PropOp55
 70
     1
102
RTVSPost2010Prop56
140
1.0
102
RTVSPost2010PropOp56
 70
     1
102
RTVSPost2010Prop57
140
1.0
102
RTVSPost2010PropOp57
 70
     1
  0
XRECORD
  5
64B
102
{ACAD_REACTORS
330
64A
102
}
330
64A
100
AcDbXrecord
280
     1
102
RTVSPropertyOp0
 70
     1
102
RTVSPropertyOp1
 70
     1
102
RTVSPropertyOp2
 70
     1
102
RTVSPropertyOp3
 70
     1
102
RTVSPropertyOp4
 70
     1
102
RTVSPropertyOp5
 70
     1
102
RTVSPropertyOp6
 70
     1
102
RTVSPropertyOp7
 70
     1
102
RTVSPropertyOp8
 70
     1
102
RTVSPropertyOp9
 70
     1
102
RTVSPropertyOp10
 70
     1
102
RTVSPropertyOp11
 70
     1
102
RTVSPropertyOp12
 70
     1
102
RTVSPropertyOp13
 70
     1
102
RTVSPropertyOp14
 70
     1
102
RTVSPropertyOp15
 70
     1
102
RTVSPropertyOp16
 70
     1
102
RTVSPropertyOp17
 70
     1
102
RTVSPropertyOp18
 70
     1
102
RTVSPropertyOp19
 70
     1
102
RTVSPropertyOp20
 70
     1
102
RTVSPropertyOp21
 70
     1
102
RTVSPropertyOp22
 70
     1
102
RTVSPropertyOp23
 70
     1
102
RTVSPropertyOp24
 70
     1
102
RTVSPropertyOp25
 70
     1
102
RTVSPropertyOp26
 70
     1
102
RTVSPropertyOp27
 70
     1
102
RTVSPropertyOp28
 70
     1
102
RTVSPropertyOp29
 70
     1
102
RTVSPropertyOp30
 70
     1
102
RTVSPropertyOp31
 70
     1
102
RTVSPropertyOp32
 70
     1
102
RTVSPropertyOp33
 70
     1
102
RTVSPropertyOp34
 70
     1
102
RTVSPropertyOp35
 70
     1
102
RTVSPropertyOp36
 70
     1
102
RTVSPropertyOp37
 70
     1
102
RTVSPropertyOp38
 70
     1
102
RTVSPropertyOp39
 70
     1
102
RTVSPropertyOp40
 70
     1
102
RTVSPropertyOp41
 70
     1
102
RTVSPropertyOp42
 70
     1
102
RTVSPropertyOp43
 70
     1
102
RTVSPropertyOp44
 70
     1
102
RTVSPropertyOp45
 70
     1
102
RTVSPropertyOp46
 70
     1
102
RTVSPropertyOp47
 70
     1
102
RTVSPropertyOp48
 70
     1
102
RTVSPropertyOp49
 70
     1
102
RTVSPropertyOp50
 70
     1
102
RTVSPropertyOp51
 70
     0
102
RTVSPropertyOp52
 70
     0
102
RTVSPropertyOp53
 70
     1
102
RTVSPropertyOp54
 70
     1
102
RTVSPropertyOp55
 70
     1
102
RTVSPropertyOp56
 70
     1
102
RTVSPropertyOp57
 70
     1
102
RTVSPost2010Prop28
280
     0
102
RTVSPost2010PropOp28
 70
     1
102
RTVSPost2010Prop29
280
     1
102
RTVSPost2010PropOp29
 70
     1
102
RTVSPost2010Prop30
280
     1
102
RTVSPost2010PropOp30
 70
     1
102
RTVSPost2010Prop31
280
     0
102
RTVSPost2010PropOp31
 70
     1
102
RTVSPost2010Prop32
280
     0
102
RTVSPost2010PropOp32
 70
     1
102
RTVSPost2010Prop33
280
     0
102
RTVSPost2010PropOp33
 70
     1
102
RTVSPost2010Prop34
280
     0
102
RTVSPost2010PropOp34
 70
     1
102
RTVSPost2010Prop35
280
     0
102
RTVSPost2010PropOp35
 70
     1
102
RTVSPost2010Prop36
280
     0
102
RTVSPost2010PropOp36
 70
     1
102
RTVSPost2010Prop37
 90
       50
102
RTVSPost2010PropOp37
 70
     1
102
RTVSPost2010Prop38
140
0.0
102
RTVSPost2010PropOp38
 70
     1
102
RTVSPost2010Prop39
140
1.0
102
RTVSPost2010PropOp39
 70
     1
102
RTVSPost2010Prop40
 90
        0
102
RTVSPost2010PropOp40
 70
     1
102
RTVSPost2010Prop41ColorIndex
 90
       18
102
RTVSPost2010Prop41ColorRGB
 90
        0
102
RTVSPost2010PropOp41
 70
     1
102
RTVSPost2010Prop42
 90
       50
102
RTVSPost2010PropOp42
 70
     1
102
RTVSPost2010Prop43
 90
        3
102
RTVSPost2010PropOp43
 70
     1
102
RTVSPost2010Prop44ColorIndex
 90
        5
102
RTVSPost2010Prop44ColorRGB
 90
      255
102
RTVSPost2010PropOp44
 70
     1
102
RTVSPost2010Prop45
280
     0
102
RTVSPost2010PropOp45
 70
     1
102
RTVSPost2010Prop46
 90
       50
102
RTVSPost2010PropOp46
 70
     1
102
RTVSPost2010Prop47
 90
       50
102
RTVSPost2010PropOp47
 70
     1
102
RTVSPost2010Prop48
 90
       50
102
RTVSPost2010PropOp48
 70
     1
102
RTVSPost2010Prop49
280
     0
102
RTVSPost2010PropOp49
 70
     1
102
RTVSPost2010Prop50
 90
       50
102
RTVSPost2010PropOp50
 70
     1
102
RTVSPost2010Prop51ColorIndex
 90
      256
102
RTVSPost2010Prop51ColorRGB
 90
-16777216
102
RTVSPost2010PropOp51
 70
     0
102
RTVSPost2010Prop52
140
1.0
102
RTVSPost2010PropOp52
 70
     0
102
RTVSPost2010Prop53
 90
        2
102
RTVSPost2010PropOp53
 70
     1
102
RTVSPost2010Prop54
  1
strokes_ogs.tif
102
RTVSPost2010PropOp54
 70
     1
102
RTVSPost2010Prop55
280
     0
102
RTVSPost2010PropOp55
 70
     1
102
RTVSPost2010Prop56
140
1.0
102
RTVSPost2010PropOp56
 70
     1
102
RTVSPost2010Prop57
140
1.0
102
RTVSPost2010PropOp57
 70
     1
  0
XRECORD
  5
64D
102
{ACAD_REACTORS
330
64C
102
}
330
64C
100
AcDbXrecord
280
     1
102
RTVSPropertyOp0
 70
     1
102
RTVSPropertyOp1
 70
     1
102
RTVSPropertyOp2
 70
     1
102
RTVSPropertyOp3
 70
     1
102
RTVSPropertyOp4
 70
     1
102
RTVSPropertyOp5
 70
     1
102
RTVSPropertyOp6
 70
     1
102
RTVSPropertyOp7
 70
     1
102
RTVSPropertyOp8
 70
     1
102
RTVSPropertyOp9
 70
     1
102
RTVSPropertyOp10
 70
     1
102
RTVSPropertyOp11
 70
     1
102
RTVSPropertyOp12
 70
     1
102
RTVSPropertyOp13
 70
     1
102
RTVSPropertyOp14
 70
     1
102
RTVSPropertyOp15
 70
     1
102
RTVSPropertyOp16
 70
     1
102
RTVSPropertyOp17
 70
     1
102
RTVSPropertyOp18
 70
     1
102
RTVSPropertyOp19
 70
     1
102
RTVSPropertyOp20
 70
     1
102
RTVSPropertyOp21
 70
     1
102
RTVSPropertyOp22
 70
     1
102
RTVSPropertyOp23
 70
     1
102
RTVSPropertyOp24
 70
     1
102
RTVSPropertyOp25
 70
     1
102
RTVSPropertyOp26
 70
     1
102
RTVSPropertyOp27
 70
     1
102
RTVSPropertyOp28
 70
     1
102
RTVSPropertyOp29
 70
     1
102
RTVSPropertyOp30
 70
     1
102
RTVSPropertyOp31
 70
     1
102
RTVSPropertyOp32
 70
     1
102
RTVSPropertyOp33
 70
     1
102
RTVSPropertyOp34
 70
     1
102
RTVSPropertyOp35
 70
     1
102
RTVSPropertyOp36
 70
     1
102
RTVSPropertyOp37
 70
     1
102
RTVSPropertyOp38
 70
     1
102
RTVSPropertyOp39
 70
     1
102
RTVSPropertyOp40
 70
     1
102
RTVSPropertyOp41
 70
     1
102
RTVSPropertyOp42
 70
     1
102
RTVSPropertyOp43
 70
     1
102
RTVSPropertyOp44
 70
     1
102
RTVSPropertyOp45
 70
     1
102
RTVSPropertyOp46
 70
     1
102
RTVSPropertyOp47
 70
     1
102
RTVSPropertyOp48
 70
     1
102
RTVSPropertyOp49
 70
     1
102
RTVSPropertyOp50
 70
     1
102
RTVSPropertyOp51
 70
     0
102
RTVSPropertyOp52
 70
     0
102
RTVSPropertyOp53
 70
     1
102
RTVSPropertyOp54
 70
     1
102
RTVSPropertyOp55
 70
     1
102
RTVSPropertyOp56
 70
     1
102
RTVSPropertyOp57
 70
     1
102
RTVSPost2010Prop28
280
     0
102
RTVSPost2010PropOp28
 70
     1
102
RTVSPost2010Prop29
280
     1
102
RTVSPost2010PropOp29
 70
     1
102
RTVSPost2010Prop30
280
     1
102
RTVSPost2010PropOp30
 70
     1
102
RTVSPost2010Prop31
280
     0
102
RTVSPost2010PropOp31
 70
     1
102
RTVSPost2010Prop32
280
     0
102
RTVSPost2010PropOp32
 70
     1
102
RTVSPost2010Prop33
280
     0
102
RTVSPost2010PropOp33
 70
     1
102
RTVSPost2010Prop34
280
     0
102
RTVSPost2010PropOp34
 70
     1
102
RTVSPost2010Prop35
280
     0
102
RTVSPost2010PropOp35
 70
     1
102
RTVSPost2010Prop36
280
     0
102
RTVSPost2010PropOp36
 70
     1
102
RTVSPost2010Prop37
 90
       50
102
RTVSPost2010PropOp37
 70
     1
102
RTVSPost2010Prop38
140
0.0
102
RTVSPost2010PropOp38
 70
     1
102
RTVSPost2010Prop39
140
1.0
102
RTVSPost2010PropOp39
 70
     1
102
RTVSPost2010Prop40
 90
        0
102
RTVSPost2010PropOp40
 70
     1
102
RTVSPost2010Prop41ColorIndex
 90
       18
102
RTVSPost2010Prop41ColorRGB
 90
        0
102
RTVSPost2010PropOp41
 70
     1
102
RTVSPost2010Prop42
 90
       50
102
RTVSPost2010PropOp42
 70
     1
102
RTVSPost2010Prop43
 90
        3
102
RTVSPost2010PropOp43
 70
     1
102
RTVSPost2010Prop44ColorIndex
 90
        5
102
RTVSPost2010Prop44ColorRGB
 90
      255
102
RTVSPost2010PropOp44
 70
     1
102
RTVSPost2010Prop45
280
     0
102
RTVSPost2010PropOp45
 70
     1
102
RTVSPost2010Prop46
 90
       50
102
RTVSPost2010PropOp46
 70
     1
102
RTVSPost2010Prop47
 90
       50
102
RTVSPost2010PropOp47
 70
     1
102
RTVSPost2010Prop48
 90
       50
102
RTVSPost2010PropOp48
 70
     1
102
RTVSPost2010Prop49
280
     0
102
RTVSPost2010PropOp49
 70
     1
102
RTVSPost2010Prop50
 90
       50
102
RTVSPost2010PropOp50
 70
     1
102
RTVSPost2010Prop51ColorIndex
 90
      256
102
RTVSPost2010Prop51ColorRGB
 90
-16777216
102
RTVSPost2010PropOp51
 70
     0
102
RTVSPost2010Prop52
140
1.0
102
RTVSPost2010PropOp52
 70
     0
102
RTVSPost2010Prop53
 90
        2
102
RTVSPost2010PropOp53
 70
     1
102
RTVSPost2010Prop54
  1
strokes_ogs.tif
102
RTVSPost2010PropOp54
 70
     1
102
RTVSPost2010Prop55
280
     0
102
RTVSPost2010PropOp55
 70
     1
102
RTVSPost2010Prop56
140
1.0
102
RTVSPost2010PropOp56
 70
     1
102
RTVSPost2010Prop57
140
1.0
102
RTVSPost2010PropOp57
 70
     1
  0
XRECORD
  5
653
102
{ACAD_REACTORS
330
652
102
}
330
652
100
AcDbXrecord
280
     1
102
RTVSPropertyOp0
 70
     1
102
RTVSPropertyOp1
 70
     1
102
RTVSPropertyOp2
 70
     1
102
RTVSPropertyOp3
 70
     1
102
RTVSPropertyOp4
 70
     1
102
RTVSPropertyOp5
 70
     1
102
RTVSPropertyOp6
 70
     1
102
RTVSPropertyOp7
 70
     1
102
RTVSPropertyOp8
 70
     1
102
RTVSPropertyOp9
 70
     1
102
RTVSPropertyOp10
 70
     1
102
RTVSPropertyOp11
 70
     1
102
RTVSPropertyOp12
 70
     1
102
RTVSPropertyOp13
 70
     1
102
RTVSPropertyOp14
 70
     1
102
RTVSPropertyOp15
 70
     1
102
RTVSPropertyOp16
 70
     1
102
RTVSPropertyOp17
 70
     1
102
RTVSPropertyOp18
 70
     1
102
RTVSPropertyOp19
 70
     1
102
RTVSPropertyOp20
 70
     1
102
RTVSPropertyOp21
 70
     1
102
RTVSPropertyOp22
 70
     1
102
RTVSPropertyOp23
 70
     1
102
RTVSPropertyOp24
 70
     1
102
RTVSPropertyOp25
 70
     1
102
RTVSPropertyOp26
 70
     1
102
RTVSPropertyOp27
 70
     1
102
RTVSPropertyOp28
 70
     1
102
RTVSPropertyOp29
 70
     1
102
RTVSPropertyOp30
 70
     1
102
RTVSPropertyOp31
 70
     1
102
RTVSPropertyOp32
 70
     1
102
RTVSPropertyOp33
 70
     1
102
RTVSPropertyOp34
 70
     1
102
RTVSPropertyOp35
 70
     1
102
RTVSPropertyOp36
 70
     1
102
RTVSPropertyOp37
 70
     1
102
RTVSPropertyOp38
 70
     1
102
RTVSPropertyOp39
 70
     1
102
RTVSPropertyOp40
 70
     1
102
RTVSPropertyOp41
 70
     1
102
RTVSPropertyOp42
 70
     1
102
RTVSPropertyOp43
 70
     1
102
RTVSPropertyOp44
 70
     1
102
RTVSPropertyOp45
 70
     1
102
RTVSPropertyOp46
 70
     1
102
RTVSPropertyOp47
 70
     1
102
RTVSPropertyOp48
 70
     1
102
RTVSPropertyOp49
 70
     1
102
RTVSPropertyOp50
 70
     1
102
RTVSPropertyOp51
 70
     0
102
RTVSPropertyOp52
 70
     0
102
RTVSPropertyOp53
 70
     1
102
RTVSPropertyOp54
 70
     1
102
RTVSPropertyOp55
 70
     1
102
RTVSPropertyOp56
 70
     1
102
RTVSPropertyOp57
 70
     1
102
RTVSPost2010Prop28
280
     0
102
RTVSPost2010PropOp28
 70
     1
102
RTVSPost2010Prop29
280
     1
102
RTVSPost2010PropOp29
 70
     1
102
RTVSPost2010Prop30
280
     1
102
RTVSPost2010PropOp30
 70
     1
102
RTVSPost2010Prop31
280
     0
102
RTVSPost2010PropOp31
 70
     1
102
RTVSPost2010Prop32
280
     0
102
RTVSPost2010PropOp32
 70
     1
102
RTVSPost2010Prop33
280
     0
102
RTVSPost2010PropOp33
 70
     1
102
RTVSPost2010Prop34
280
     0
102
RTVSPost2010PropOp34
 70
     1
102
RTVSPost2010Prop35
280
     0
102
RTVSPost2010PropOp35
 70
     1
102
RTVSPost2010Prop36
280
     0
102
RTVSPost2010PropOp36
 70
     1
102
RTVSPost2010Prop37
 90
       50
102
RTVSPost2010PropOp37
 70
     1
102
RTVSPost2010Prop38
140
0.0
102
RTVSPost2010PropOp38
 70
     1
102
RTVSPost2010Prop39
140
1.0
102
RTVSPost2010PropOp39
 70
     1
102
RTVSPost2010Prop40
 90
        0
102
RTVSPost2010PropOp40
 70
     1
102
RTVSPost2010Prop41ColorIndex
 90
       18
102
RTVSPost2010Prop41ColorRGB
 90
        0
102
RTVSPost2010PropOp41
 70
     1
102
RTVSPost2010Prop42
 90
       50
102
RTVSPost2010PropOp42
 70
     1
102
RTVSPost2010Prop43
 90
        3
102
RTVSPost2010PropOp43
 70
     1
102
RTVSPost2010Prop44ColorIndex
 90
        5
102
RTVSPost2010Prop44ColorRGB
 90
      255
102
RTVSPost2010PropOp44
 70
     1
102
RTVSPost2010Prop45
280
     0
102
RTVSPost2010PropOp45
 70
     1
102
RTVSPost2010Prop46
 90
       50
102
RTVSPost2010PropOp46
 70
     1
102
RTVSPost2010Prop47
 90
       50
102
RTVSPost2010PropOp47
 70
     1
102
RTVSPost2010Prop48
 90
       50
102
RTVSPost2010PropOp48
 70
     1
102
RTVSPost2010Prop49
280
     0
102
RTVSPost2010PropOp49
 70
     1
102
RTVSPost2010Prop50
 90
       50
102
RTVSPost2010PropOp50
 70
     1
102
RTVSPost2010Prop51ColorIndex
 90
      256
102
RTVSPost2010Prop51ColorRGB
 90
-16777216
102
RTVSPost2010PropOp51
 70
     0
102
RTVSPost2010Prop52
140
1.0
102
RTVSPost2010PropOp52
 70
     0
102
RTVSPost2010Prop53
 90
        2
102
RTVSPost2010PropOp53
 70
     1
102
RTVSPost2010Prop54
  1
strokes_ogs.tif
102
RTVSPost2010PropOp54
 70
     1
102
RTVSPost2010Prop55
280
     0
102
RTVSPost2010PropOp55
 70
     1
102
RTVSPost2010Prop56
140
1.0
102
RTVSPost2010PropOp56
 70
     1
102
RTVSPost2010Prop57
140
1.0
102
RTVSPost2010PropOp57
 70
     1
  0
XRECORD
  5
667
102
{ACAD_REACTORS
330
666
102
}
330
666
100
AcDbXrecord
280
     1
102
RTVSPropertyOp0
 70
     0
102
RTVSPropertyOp1
 70
     0
102
RTVSPropertyOp2
 70
     0
102
RTVSPropertyOp3
 70
     0
102
RTVSPropertyOp4
 70
     0
102
RTVSPropertyOp5
 70
     0
102
RTVSPropertyOp6
 70
     0
102
RTVSPropertyOp7
 70
     0
102
RTVSPropertyOp8
 70
     0
102
RTVSPropertyOp9
 70
     0
102
RTVSPropertyOp10
 70
     0
102
RTVSPropertyOp11
 70
     0
102
RTVSPropertyOp12
 70
     0
102
RTVSPropertyOp13
 70
     0
102
RTVSPropertyOp14
 70
     0
102
RTVSPropertyOp15
 70
     0
102
RTVSPropertyOp16
 70
     0
102
RTVSPropertyOp17
 70
     0
102
RTVSPropertyOp18
 70
     0
102
RTVSPropertyOp19
 70
     0
102
RTVSPropertyOp20
 70
     0
102
RTVSPropertyOp21
 70
     0
102
RTVSPropertyOp22
 70
     0
102
RTVSPropertyOp23
 70
     0
102
RTVSPropertyOp24
 70
     0
102
RTVSPropertyOp25
 70
     0
102
RTVSPropertyOp26
 70
     0
102
RTVSPropertyOp27
 70
     0
102
RTVSPropertyOp28
 70
     1
102
RTVSPropertyOp29
 70
     1
102
RTVSPropertyOp30
 70
     1
102
RTVSPropertyOp31
 70
     1
102
RTVSPropertyOp32
 70
     1
102
RTVSPropertyOp33
 70
     1
102
RTVSPropertyOp34
 70
     1
102
RTVSPropertyOp35
 70
     1
102
RTVSPropertyOp36
 70
     1
102
RTVSPropertyOp37
 70
     1
102
RTVSPropertyOp38
 70
     1
102
RTVSPropertyOp39
 70
     1
102
RTVSPropertyOp40
 70
     1
102
RTVSPropertyOp41
 70
     1
102
RTVSPropertyOp42
 70
     1
102
RTVSPropertyOp43
 70
     1
102
RTVSPropertyOp44
 70
     1
102
RTVSPropertyOp45
 70
     1
102
RTVSPropertyOp46
 70
     1
102
RTVSPropertyOp47
 70
     1
102
RTVSPropertyOp48
 70
     1
102
RTVSPropertyOp49
 70
     1
102
RTVSPropertyOp50
 70
     1
102
RTVSPropertyOp51
 70
     0
102
RTVSPropertyOp52
 70
     0
102
RTVSPropertyOp53
 70
     1
102
RTVSPropertyOp54
 70
     1
102
RTVSPropertyOp55
 70
     1
102
RTVSPropertyOp56
 70
     1
102
RTVSPropertyOp57
 70
     1
102
RTVSPost2010Prop28
280
     0
102
RTVSPost2010PropOp28
 70
     1
102
RTVSPost2010Prop29
280
     1
102
RTVSPost2010PropOp29
 70
     1
102
RTVSPost2010Prop30
280
     1
102
RTVSPost2010PropOp30
 70
     1
102
RTVSPost2010Prop31
280
     0
102
RTVSPost2010PropOp31
 70
     1
102
RTVSPost2010Prop32
280
     0
102
RTVSPost2010PropOp32
 70
     1
102
RTVSPost2010Prop33
280
     0
102
RTVSPost2010PropOp33
 70
     1
102
RTVSPost2010Prop34
280
     0
102
RTVSPost2010PropOp34
 70
     1
102
RTVSPost2010Prop35
280
     0
102
RTVSPost2010PropOp35
 70
     1
102
RTVSPost2010Prop36
280
     0
102
RTVSPost2010PropOp36
 70
     1
102
RTVSPost2010Prop37
 90
       50
102
RTVSPost2010PropOp37
 70
     1
102
RTVSPost2010Prop38
140
0.0
102
RTVSPost2010PropOp38
 70
     1
102
RTVSPost2010Prop39
140
1.0
102
RTVSPost2010PropOp39
 70
     1
102
RTVSPost2010Prop40
 90
        0
102
RTVSPost2010PropOp40
 70
     1
102
RTVSPost2010Prop41ColorIndex
 90
       18
102
RTVSPost2010Prop41ColorRGB
 90
        0
102
RTVSPost2010PropOp41
 70
     1
102
RTVSPost2010Prop42
 90
       50
102
RTVSPost2010PropOp42
 70
     1
102
RTVSPost2010Prop43
 90
        3
102
RTVSPost2010PropOp43
 70
     1
102
RTVSPost2010Prop44ColorIndex
 90
        5
102
RTVSPost2010Prop44ColorRGB
 90
      255
102
RTVSPost2010PropOp44
 70
     1
102
RTVSPost2010Prop45
280
     0
102
RTVSPost2010PropOp45
 70
     1
102
RTVSPost2010Prop46
 90
       50
102
RTVSPost2010PropOp46
 70
     1
102
RTVSPost2010Prop47
 90
       50
102
RTVSPost2010PropOp47
 70
     1
102
RTVSPost2010Prop48
 90
       50
102
RTVSPost2010PropOp48
 70
     1
102
RTVSPost2010Prop49
280
     0
102
RTVSPost2010PropOp49
 70
     1
102
RTVSPost2010Prop50
 90
       50
102
RTVSPost2010PropOp50
 70
     1
102
RTVSPost2010Prop51ColorIndex
 90
      256
102
RTVSPost2010Prop51ColorRGB
 90
-16777216
102
RTVSPost2010PropOp51
 70
     0
102
RTVSPost2010Prop52
140
1.0
102
RTVSPost2010PropOp52
 70
     0
102
RTVSPost2010Prop53
 90
        2
102
RTVSPost2010PropOp53
 70
     1
102
RTVSPost2010Prop54
  1
strokes_ogs.tif
102
RTVSPost2010PropOp54
 70
     1
102
RTVSPost2010Prop55
280
     0
102
RTVSPost2010PropOp55
 70
     1
102
RTVSPost2010Prop56
140
1.0
102
RTVSPost2010PropOp56
 70
     1
102
RTVSPost2010Prop57
140
1.0
102
RTVSPost2010PropOp57
 70
     1
  0
XRECORD
  5
661
102
{ACAD_REACTORS
330
660
102
}
330
660
100
AcDbXrecord
280
     1
102
RTVSPropertyOp0
 70
     1
102
RTVSPropertyOp1
 70
     1
102
RTVSPropertyOp2
 70
     1
102
RTVSPropertyOp3
 70
     1
102
RTVSPropertyOp4
 70
     1
102
RTVSPropertyOp5
 70
     1
102
RTVSPropertyOp6
 70
     1
102
RTVSPropertyOp7
 70
     1
102
RTVSPropertyOp8
 70
     1
102
RTVSPropertyOp9
 70
     1
102
RTVSPropertyOp10
 70
     1
102
RTVSPropertyOp11
 70
     1
102
RTVSPropertyOp12
 70
     1
102
RTVSPropertyOp13
 70
     1
102
RTVSPropertyOp14
 70
     1
102
RTVSPropertyOp15
 70
     1
102
RTVSPropertyOp16
 70
     1
102
RTVSPropertyOp17
 70
     1
102
RTVSPropertyOp18
 70
     1
102
RTVSPropertyOp19
 70
     1
102
RTVSPropertyOp20
 70
     1
102
RTVSPropertyOp21
 70
     1
102
RTVSPropertyOp22
 70
     1
102
RTVSPropertyOp23
 70
     1
102
RTVSPropertyOp24
 70
     1
102
RTVSPropertyOp25
 70
     1
102
RTVSPropertyOp26
 70
     1
102
RTVSPropertyOp27
 70
     1
102
RTVSPropertyOp28
 70
     1
102
RTVSPropertyOp29
 70
     1
102
RTVSPropertyOp30
 70
     1
102
RTVSPropertyOp31
 70
     1
102
RTVSPropertyOp32
 70
     1
102
RTVSPropertyOp33
 70
     1
102
RTVSPropertyOp34
 70
     1
102
RTVSPropertyOp35
 70
     1
102
RTVSPropertyOp36
 70
     1
102
RTVSPropertyOp37
 70
     1
102
RTVSPropertyOp38
 70
     1
102
RTVSPropertyOp39
 70
     1
102
RTVSPropertyOp40
 70
     1
102
RTVSPropertyOp41
 70
     1
102
RTVSPropertyOp42
 70
     1
102
RTVSPropertyOp43
 70
     1
102
RTVSPropertyOp44
 70
     1
102
RTVSPropertyOp45
 70
     1
102
RTVSPropertyOp46
 70
     1
102
RTVSPropertyOp47
 70
     1
102
RTVSPropertyOp48
 70
     1
102
RTVSPropertyOp49
 70
     1
102
RTVSPropertyOp50
 70
     1
102
RTVSPropertyOp51
 70
     0
102
RTVSPropertyOp52
 70
     0
102
RTVSPropertyOp53
 70
     1
102
RTVSPropertyOp54
 70
     1
102
RTVSPropertyOp55
 70
     1
102
RTVSPropertyOp56
 70
     1
102
RTVSPropertyOp57
 70
     1
102
RTVSPost2010Prop28
280
     0
102
RTVSPost2010PropOp28
 70
     1
102
RTVSPost2010Prop29
280
     1
102
RTVSPost2010PropOp29
 70
     1
102
RTVSPost2010Prop30
280
     1
102
RTVSPost2010PropOp30
 70
     1
102
RTVSPost2010Prop31
280
     0
102
RTVSPost2010PropOp31
 70
     1
102
RTVSPost2010Prop32
280
     0
102
RTVSPost2010PropOp32
 70
     1
102
RTVSPost2010Prop33
280
     0
102
RTVSPost2010PropOp33
 70
     1
102
RTVSPost2010Prop34
280
     0
102
RTVSPost2010PropOp34
 70
     1
102
RTVSPost2010Prop35
280
     0
102
RTVSPost2010PropOp35
 70
     1
102
RTVSPost2010Prop36
280
     0
102
RTVSPost2010PropOp36
 70
     1
102
RTVSPost2010Prop37
 90
       50
102
RTVSPost2010PropOp37
 70
     1
102
RTVSPost2010Prop38
140
0.0
102
RTVSPost2010PropOp38
 70
     1
102
RTVSPost2010Prop39
140
1.0
102
RTVSPost2010PropOp39
 70
     1
102
RTVSPost2010Prop40
 90
        0
102
RTVSPost2010PropOp40
 70
     1
102
RTVSPost2010Prop41ColorIndex
 90
       18
102
RTVSPost2010Prop41ColorRGB
 90
        0
102
RTVSPost2010PropOp41
 70
     1
102
RTVSPost2010Prop42
 90
       50
102
RTVSPost2010PropOp42
 70
     1
102
RTVSPost2010Prop43
 90
        3
102
RTVSPost2010PropOp43
 70
     1
102
RTVSPost2010Prop44ColorIndex
 90
        5
102
RTVSPost2010Prop44ColorRGB
 90
      255
102
RTVSPost2010PropOp44
 70
     1
102
RTVSPost2010Prop45
280
     0
102
RTVSPost2010PropOp45
 70
     1
102
RTVSPost2010Prop46
 90
       50
102
RTVSPost2010PropOp46
 70
     1
102
RTVSPost2010Prop47
 90
       50
102
RTVSPost2010PropOp47
 70
     1
102
RTVSPost2010Prop48
 90
       50
102
RTVSPost2010PropOp48
 70
     1
102
RTVSPost2010Prop49
280
     0
102
RTVSPost2010PropOp49
 70
     1
102
RTVSPost2010Prop50
 90
       50
102
RTVSPost2010PropOp50
 70
     1
102
RTVSPost2010Prop51ColorIndex
 90
      256
102
RTVSPost2010Prop51ColorRGB
 90
-16777216
102
RTVSPost2010PropOp51
 70
     0
102
RTVSPost2010Prop52
140
1.0
102
RTVSPost2010PropOp52
 70
     0
102
RTVSPost2010Prop53
 90
        2
102
RTVSPost2010PropOp53
 70
     1
102
RTVSPost2010Prop54
  1
strokes_ogs.tif
102
RTVSPost2010PropOp54
 70
     1
102
RTVSPost2010Prop55
280
     0
102
RTVSPost2010PropOp55
 70
     1
102
RTVSPost2010Prop56
140
1.0
102
RTVSPost2010PropOp56
 70
     1
102
RTVSPost2010Prop57
140
1.0
102
RTVSPost2010PropOp57
 70
     1
  0
XRECORD
  5
669
102
{ACAD_REACTORS
330
668
102
}
330
668
100
AcDbXrecord
280
     1
102
RTVSPropertyOp0
 70
     0
102
RTVSPropertyOp1
 70
     0
102
RTVSPropertyOp2
 70
     0
102
RTVSPropertyOp3
 70
     0
102
RTVSPropertyOp4
 70
     0
102
RTVSPropertyOp5
 70
     0
102
RTVSPropertyOp6
 70
     0
102
RTVSPropertyOp7
 70
     0
102
RTVSPropertyOp8
 70
     0
102
RTVSPropertyOp9
 70
     0
102
RTVSPropertyOp10
 70
     0
102
RTVSPropertyOp11
 70
     0
102
RTVSPropertyOp12
 70
     0
102
RTVSPropertyOp13
 70
     0
102
RTVSPropertyOp14
 70
     0
102
RTVSPropertyOp15
 70
     0
102
RTVSPropertyOp16
 70
     0
102
RTVSPropertyOp17
 70
     0
102
RTVSPropertyOp18
 70
     0
102
RTVSPropertyOp19
 70
     0
102
RTVSPropertyOp20
 70
     0
102
RTVSPropertyOp21
 70
     0
102
RTVSPropertyOp22
 70
     0
102
RTVSPropertyOp23
 70
     0
102
RTVSPropertyOp24
 70
     0
102
RTVSPropertyOp25
 70
     0
102
RTVSPropertyOp26
 70
     0
102
RTVSPropertyOp27
 70
     0
102
RTVSPropertyOp28
 70
     1
102
RTVSPropertyOp29
 70
     1
102
RTVSPropertyOp30
 70
     1
102
RTVSPropertyOp31
 70
     1
102
RTVSPropertyOp32
 70
     1
102
RTVSPropertyOp33
 70
     1
102
RTVSPropertyOp34
 70
     1
102
RTVSPropertyOp35
 70
     1
102
RTVSPropertyOp36
 70
     1
102
RTVSPropertyOp37
 70
     1
102
RTVSPropertyOp38
 70
     1
102
RTVSPropertyOp39
 70
     1
102
RTVSPropertyOp40
 70
     1
102
RTVSPropertyOp41
 70
     1
102
RTVSPropertyOp42
 70
     1
102
RTVSPropertyOp43
 70
     1
102
RTVSPropertyOp44
 70
     1
102
RTVSPropertyOp45
 70
     1
102
RTVSPropertyOp46
 70
     1
102
RTVSPropertyOp47
 70
     1
102
RTVSPropertyOp48
 70
     1
102
RTVSPropertyOp49
 70
     1
102
RTVSPropertyOp50
 70
     1
102
RTVSPropertyOp51
 70
     0
102
RTVSPropertyOp52
 70
     0
102
RTVSPropertyOp53
 70
     1
102
RTVSPropertyOp54
 70
     1
102
RTVSPropertyOp55
 70
     1
102
RTVSPropertyOp56
 70
     1
102
RTVSPropertyOp57
 70
     1
102
RTVSPost2010Prop28
280
     0
102
RTVSPost2010PropOp28
 70
     1
102
RTVSPost2010Prop29
280
     1
102
RTVSPost2010PropOp29
 70
     1
102
RTVSPost2010Prop30
280
     1
102
RTVSPost2010PropOp30
 70
     1
102
RTVSPost2010Prop31
280
     0
102
RTVSPost2010PropOp31
 70
     1
102
RTVSPost2010Prop32
280
     0
102
RTVSPost2010PropOp32
 70
     1
102
RTVSPost2010Prop33
280
     0
102
RTVSPost2010PropOp33
 70
     1
102
RTVSPost2010Prop34
280
     0
102
RTVSPost2010PropOp34
 70
     1
102
RTVSPost2010Prop35
280
     0
102
RTVSPost2010PropOp35
 70
     1
102
RTVSPost2010Prop36
280
     0
102
RTVSPost2010PropOp36
 70
     1
102
RTVSPost2010Prop37
 90
       50
102
RTVSPost2010PropOp37
 70
     1
102
RTVSPost2010Prop38
140
0.0
102
RTVSPost2010PropOp38
 70
     1
102
RTVSPost2010Prop39
140
1.0
102
RTVSPost2010PropOp39
 70
     1
102
RTVSPost2010Prop40
 90
        0
102
RTVSPost2010PropOp40
 70
     1
102
RTVSPost2010Prop41ColorIndex
 90
       18
102
RTVSPost2010Prop41ColorRGB
 90
        0
102
RTVSPost2010PropOp41
 70
     1
102
RTVSPost2010Prop42
 90
       50
102
RTVSPost2010PropOp42
 70
     1
102
RTVSPost2010Prop43
 90
        3
102
RTVSPost2010PropOp43
 70
     1
102
RTVSPost2010Prop44ColorIndex
 90
        5
102
RTVSPost2010Prop44ColorRGB
 90
      255
102
RTVSPost2010PropOp44
 70
     1
102
RTVSPost2010Prop45
280
     0
102
RTVSPost2010PropOp45
 70
     1
102
RTVSPost2010Prop46
 90
       50
102
RTVSPost2010PropOp46
 70
     1
102
RTVSPost2010Prop47
 90
       50
102
RTVSPost2010PropOp47
 70
     1
102
RTVSPost2010Prop48
 90
       50
102
RTVSPost2010PropOp48
 70
     1
102
RTVSPost2010Prop49
280
     0
102
RTVSPost2010PropOp49
 70
     1
102
RTVSPost2010Prop50
 90
       50
102
RTVSPost2010PropOp50
 70
     1
102
RTVSPost2010Prop51ColorIndex
 90
      256
102
RTVSPost2010Prop51ColorRGB
 90
-16777216
102
RTVSPost2010PropOp51
 70
     0
102
RTVSPost2010Prop52
140
1.0
102
RTVSPost2010PropOp52
 70
     0
102
RTVSPost2010Prop53
 90
        2
102
RTVSPost2010PropOp53
 70
     1
102
RTVSPost2010Prop54
  1
strokes_ogs.tif
102
RTVSPost2010PropOp54
 70
     1
102
RTVSPost2010Prop55
280
     0
102
RTVSPost2010PropOp55
 70
     1
102
RTVSPost2010Prop56
140
1.0
102
RTVSPost2010PropOp56
 70
     1
102
RTVSPost2010Prop57
140
1.0
102
RTVSPost2010PropOp57
 70
     1
  0
XRECORD
  5
657
102
{ACAD_REACTORS
330
656
102
}
330
656
100
AcDbXrecord
280
     1
102
RTVSPropertyOp0
 70
     1
102
RTVSPropertyOp1
 70
     1
102
RTVSPropertyOp2
 70
     1
102
RTVSPropertyOp3
 70
     1
102
RTVSPropertyOp4
 70
     1
102
RTVSPropertyOp5
 70
     1
102
RTVSPropertyOp6
 70
     1
102
RTVSPropertyOp7
 70
     1
102
RTVSPropertyOp8
 70
     1
102
RTVSPropertyOp9
 70
     1
102
RTVSPropertyOp10
 70
     1
102
RTVSPropertyOp11
 70
     1
102
RTVSPropertyOp12
 70
     1
102
RTVSPropertyOp13
 70
     1
102
RTVSPropertyOp14
 70
     1
102
RTVSPropertyOp15
 70
     1
102
RTVSPropertyOp16
 70
     1
102
RTVSPropertyOp17
 70
     1
102
RTVSPropertyOp18
 70
     1
102
RTVSPropertyOp19
 70
     1
102
RTVSPropertyOp20
 70
     1
102
RTVSPropertyOp21
 70
     1
102
RTVSPropertyOp22
 70
     1
102
RTVSPropertyOp23
 70
     1
102
RTVSPropertyOp24
 70
     1
102
RTVSPropertyOp25
 70
     1
102
RTVSPropertyOp26
 70
     1
102
RTVSPropertyOp27
 70
     1
102
RTVSPropertyOp28
 70
     1
102
RTVSPropertyOp29
 70
     1
102
RTVSPropertyOp30
 70
     1
102
RTVSPropertyOp31
 70
     1
102
RTVSPropertyOp32
 70
     1
102
RTVSPropertyOp33
 70
     1
102
RTVSPropertyOp34
 70
     1
102
RTVSPropertyOp35
 70
     1
102
RTVSPropertyOp36
 70
     1
102
RTVSPropertyOp37
 70
     1
102
RTVSPropertyOp38
 70
     1
102
RTVSPropertyOp39
 70
     1
102
RTVSPropertyOp40
 70
     1
102
RTVSPropertyOp41
 70
     1
102
RTVSPropertyOp42
 70
     1
102
RTVSPropertyOp43
 70
     1
102
RTVSPropertyOp44
 70
     1
102
RTVSPropertyOp45
 70
     1
102
RTVSPropertyOp46
 70
     1
102
RTVSPropertyOp47
 70
     1
102
RTVSPropertyOp48
 70
     1
102
RTVSPropertyOp49
 70
     1
102
RTVSPropertyOp50
 70
     1
102
RTVSPropertyOp51
 70
     0
102
RTVSPropertyOp52
 70
     0
102
RTVSPropertyOp53
 70
     1
102
RTVSPropertyOp54
 70
     1
102
RTVSPropertyOp55
 70
     1
102
RTVSPropertyOp56
 70
     1
102
RTVSPropertyOp57
 70
     1
102
RTVSPost2010Prop28
280
     0
102
RTVSPost2010PropOp28
 70
     1
102
RTVSPost2010Prop29
280
     1
102
RTVSPost2010PropOp29
 70
     1
102
RTVSPost2010Prop30
280
     1
102
RTVSPost2010PropOp30
 70
     1
102
RTVSPost2010Prop31
280
     0
102
RTVSPost2010PropOp31
 70
     1
102
RTVSPost2010Prop32
280
     0
102
RTVSPost2010PropOp32
 70
     1
102
RTVSPost2010Prop33
280
     0
102
RTVSPost2010PropOp33
 70
     1
102
RTVSPost2010Prop34
280
     0
102
RTVSPost2010PropOp34
 70
     1
102
RTVSPost2010Prop35
280
     0
102
RTVSPost2010PropOp35
 70
     1
102
RTVSPost2010Prop36
280
     0
102
RTVSPost2010PropOp36
 70
     1
102
RTVSPost2010Prop37
 90
       50
102
RTVSPost2010PropOp37
 70
     1
102
RTVSPost2010Prop38
140
0.0
102
RTVSPost2010PropOp38
 70
     1
102
RTVSPost2010Prop39
140
1.0
102
RTVSPost2010PropOp39
 70
     1
102
RTVSPost2010Prop40
 90
        0
102
RTVSPost2010PropOp40
 70
     1
102
RTVSPost2010Prop41ColorIndex
 90
       18
102
RTVSPost2010Prop41ColorRGB
 90
        0
102
RTVSPost2010PropOp41
 70
     1
102
RTVSPost2010Prop42
 90
       50
102
RTVSPost2010PropOp42
 70
     1
102
RTVSPost2010Prop43
 90
        3
102
RTVSPost2010PropOp43
 70
     1
102
RTVSPost2010Prop44ColorIndex
 90
        5
102
RTVSPost2010Prop44ColorRGB
 90
      255
102
RTVSPost2010PropOp44
 70
     1
102
RTVSPost2010Prop45
280
     0
102
RTVSPost2010PropOp45
 70
     1
102
RTVSPost2010Prop46
 90
       50
102
RTVSPost2010PropOp46
 70
     1
102
RTVSPost2010Prop47
 90
       50
102
RTVSPost2010PropOp47
 70
     1
102
RTVSPost2010Prop48
 90
       50
102
RTVSPost2010PropOp48
 70
     1
102
RTVSPost2010Prop49
280
     0
102
RTVSPost2010PropOp49
 70
     1
102
RTVSPost2010Prop50
 90
       50
102
RTVSPost2010PropOp50
 70
     1
102
RTVSPost2010Prop51ColorIndex
 90
      256
102
RTVSPost2010Prop51ColorRGB
 90
-16777216
102
RTVSPost2010PropOp51
 70
     0
102
RTVSPost2010Prop52
140
1.0
102
RTVSPost2010PropOp52
 70
     0
102
RTVSPost2010Prop53
 90
        2
102
RTVSPost2010PropOp53
 70
     1
102
RTVSPost2010Prop54
  1
strokes_ogs.tif
102
RTVSPost2010PropOp54
 70
     1
102
RTVSPost2010Prop55
280
     0
102
RTVSPost2010PropOp55
 70
     1
102
RTVSPost2010Prop56
140
1.0
102
RTVSPost2010PropOp56
 70
     1
102
RTVSPost2010Prop57
140
1.0
102
RTVSPost2010PropOp57
 70
     1
  0
XRECORD
  5
675
102
{ACAD_REACTORS
330
674
102
}
330
674
100
AcDbXrecord
280
     1
102
RTVSPropertyOp0
 70
     1
102
RTVSPropertyOp1
 70
     1
102
RTVSPropertyOp2
 70
     1
102
RTVSPropertyOp3
 70
     1
102
RTVSPropertyOp4
 70
     1
102
RTVSPropertyOp5
 70
     1
102
RTVSPropertyOp6
 70
     1
102
RTVSPropertyOp7
 70
     1
102
RTVSPropertyOp8
 70
     1
102
RTVSPropertyOp9
 70
     1
102
RTVSPropertyOp10
 70
     1
102
RTVSPropertyOp11
 70
     1
102
RTVSPropertyOp12
 70
     1
102
RTVSPropertyOp13
 70
     1
102
RTVSPropertyOp14
 70
     1
102
RTVSPropertyOp15
 70
     1
102
RTVSPropertyOp16
 70
     1
102
RTVSPropertyOp17
 70
     1
102
RTVSPropertyOp18
 70
     1
102
RTVSPropertyOp19
 70
     1
102
RTVSPropertyOp20
 70
     1
102
RTVSPropertyOp21
 70
     1
102
RTVSPropertyOp22
 70
     1
102
RTVSPropertyOp23
 70
     1
102
RTVSPropertyOp24
 70
     1
102
RTVSPropertyOp25
 70
     1
102
RTVSPropertyOp26
 70
     1
102
RTVSPropertyOp27
 70
     1
102
RTVSPropertyOp28
 70
     1
102
RTVSPropertyOp29
 70
     1
102
RTVSPropertyOp30
 70
     1
102
RTVSPropertyOp31
 70
     1
102
RTVSPropertyOp32
 70
     1
102
RTVSPropertyOp33
 70
     1
102
RTVSPropertyOp34
 70
     1
102
RTVSPropertyOp35
 70
     1
102
RTVSPropertyOp36
 70
     1
102
RTVSPropertyOp37
 70
     1
102
RTVSPropertyOp38
 70
     1
102
RTVSPropertyOp39
 70
     1
102
RTVSPropertyOp40
 70
     1
102
RTVSPropertyOp41
 70
     1
102
RTVSPropertyOp42
 70
     1
102
RTVSPropertyOp43
 70
     1
102
RTVSPropertyOp44
 70
     1
102
RTVSPropertyOp45
 70
     1
102
RTVSPropertyOp46
 70
     1
102
RTVSPropertyOp47
 70
     1
102
RTVSPropertyOp48
 70
     1
102
RTVSPropertyOp49
 70
     1
102
RTVSPropertyOp50
 70
     1
102
RTVSPropertyOp51
 70
     0
102
RTVSPropertyOp52
 70
     0
102
RTVSPropertyOp53
 70
     1
102
RTVSPropertyOp54
 70
     1
102
RTVSPropertyOp55
 70
     1
102
RTVSPropertyOp56
 70
     1
102
RTVSPropertyOp57
 70
     1
102
RTVSPost2010Prop28
280
     0
102
RTVSPost2010PropOp28
 70
     1
102
RTVSPost2010Prop29
280
     1
102
RTVSPost2010PropOp29
 70
     1
102
RTVSPost2010Prop30
280
     1
102
RTVSPost2010PropOp30
 70
     1
102
RTVSPost2010Prop31
280
     0
102
RTVSPost2010PropOp31
 70
     1
102
RTVSPost2010Prop32
280
     0
102
RTVSPost2010PropOp32
 70
     1
102
RTVSPost2010Prop33
280
     0
102
RTVSPost2010PropOp33
 70
     1
102
RTVSPost2010Prop34
280
     0
102
RTVSPost2010PropOp34
 70
     1
102
RTVSPost2010Prop35
280
     0
102
RTVSPost2010PropOp35
 70
     1
102
RTVSPost2010Prop36
280
     0
102
RTVSPost2010PropOp36
 70
     1
102
RTVSPost2010Prop37
 90
       50
102
RTVSPost2010PropOp37
 70
     1
102
RTVSPost2010Prop38
140
0.0
102
RTVSPost2010PropOp38
 70
     1
102
RTVSPost2010Prop39
140
1.0
102
RTVSPost2010PropOp39
 70
     1
102
RTVSPost2010Prop40
 90
        0
102
RTVSPost2010PropOp40
 70
     1
102
RTVSPost2010Prop41ColorIndex
 90
       18
102
RTVSPost2010Prop41ColorRGB
 90
        0
102
RTVSPost2010PropOp41
 70
     1
102
RTVSPost2010Prop42
 90
       50
102
RTVSPost2010PropOp42
 70
     1
102
RTVSPost2010Prop43
 90
        3
102
RTVSPost2010PropOp43
 70
     1
102
RTVSPost2010Prop44ColorIndex
 90
        5
102
RTVSPost2010Prop44ColorRGB
 90
      255
102
RTVSPost2010PropOp44
 70
     1
102
RTVSPost2010Prop45
280
     0
102
RTVSPost2010PropOp45
 70
     1
102
RTVSPost2010Prop46
 90
       50
102
RTVSPost2010PropOp46
 70
     1
102
RTVSPost2010Prop47
 90
       50
102
RTVSPost2010PropOp47
 70
     1
102
RTVSPost2010Prop48
 90
       50
102
RTVSPost2010PropOp48
 70
     1
102
RTVSPost2010Prop49
280
     0
102
RTVSPost2010PropOp49
 70
     1
102
RTVSPost2010Prop50
 90
       50
102
RTVSPost2010PropOp50
 70
     1
102
RTVSPost2010Prop51ColorIndex
 90
      256
102
RTVSPost2010Prop51ColorRGB
 90
-16777216
102
RTVSPost2010PropOp51
 70
     0
102
RTVSPost2010Prop52
140
1.0
102
RTVSPost2010PropOp52
 70
     0
102
RTVSPost2010Prop53
 90
        2
102
RTVSPost2010PropOp53
 70
     1
102
RTVSPost2010Prop54
  1
strokes_ogs.tif
102
RTVSPost2010PropOp54
 70
     1
102
RTVSPost2010Prop55
280
     0
102
RTVSPost2010PropOp55
 70
     1
102
RTVSPost2010Prop56
140
1.0
102
RTVSPost2010PropOp56
 70
     1
102
RTVSPost2010Prop57
140
1.0
102
RTVSPost2010PropOp57
 70
     1
  0
XRECORD
  5
673
102
{ACAD_REACTORS
330
672
102
}
330
672
100
AcDbXrecord
280
     1
102
RTVSPropertyOp0
 70
     1
102
RTVSPropertyOp1
 70
     1
102
RTVSPropertyOp2
 70
     1
102
RTVSPropertyOp3
 70
     1
102
RTVSPropertyOp4
 70
     1
102
RTVSPropertyOp5
 70
     1
102
RTVSPropertyOp6
 70
     1
102
RTVSPropertyOp7
 70
     1
102
RTVSPropertyOp8
 70
     1
102
RTVSPropertyOp9
 70
     1
102
RTVSPropertyOp10
 70
     1
102
RTVSPropertyOp11
 70
     1
102
RTVSPropertyOp12
 70
     1
102
RTVSPropertyOp13
 70
     1
102
RTVSPropertyOp14
 70
     1
102
RTVSPropertyOp15
 70
     1
102
RTVSPropertyOp16
 70
     1
102
RTVSPropertyOp17
 70
     1
102
RTVSPropertyOp18
 70
     1
102
RTVSPropertyOp19
 70
     1
102
RTVSPropertyOp20
 70
     1
102
RTVSPropertyOp21
 70
     1
102
RTVSPropertyOp22
 70
     1
102
RTVSPropertyOp23
 70
     1
102
RTVSPropertyOp24
 70
     1
102
RTVSPropertyOp25
 70
     1
102
RTVSPropertyOp26
 70
     1
102
RTVSPropertyOp27
 70
     1
102
RTVSPropertyOp28
 70
     1
102
RTVSPropertyOp29
 70
     1
102
RTVSPropertyOp30
 70
     1
102
RTVSPropertyOp31
 70
     1
102
RTVSPropertyOp32
 70
     1
102
RTVSPropertyOp33
 70
     1
102
RTVSPropertyOp34
 70
     1
102
RTVSPropertyOp35
 70
     1
102
RTVSPropertyOp36
 70
     1
102
RTVSPropertyOp37
 70
     1
102
RTVSPropertyOp38
 70
     1
102
RTVSPropertyOp39
 70
     1
102
RTVSPropertyOp40
 70
     1
102
RTVSPropertyOp41
 70
     1
102
RTVSPropertyOp42
 70
     1
102
RTVSPropertyOp43
 70
     1
102
RTVSPropertyOp44
 70
     1
102
RTVSPropertyOp45
 70
     1
102
RTVSPropertyOp46
 70
     1
102
RTVSPropertyOp47
 70
     1
102
RTVSPropertyOp48
 70
     1
102
RTVSPropertyOp49
 70
     1
102
RTVSPropertyOp50
 70
     1
102
RTVSPropertyOp51
 70
     0
102
RTVSPropertyOp52
 70
     0
102
RTVSPropertyOp53
 70
     1
102
RTVSPropertyOp54
 70
     1
102
RTVSPropertyOp55
 70
     1
102
RTVSPropertyOp56
 70
     1
102
RTVSPropertyOp57
 70
     1
102
RTVSPost2010Prop28
280
     0
102
RTVSPost2010PropOp28
 70
     1
102
RTVSPost2010Prop29
280
     1
102
RTVSPost2010PropOp29
 70
     1
102
RTVSPost2010Prop30
280
     1
102
RTVSPost2010PropOp30
 70
     1
102
RTVSPost2010Prop31
280
     0
102
RTVSPost2010PropOp31
 70
     1
102
RTVSPost2010Prop32
280
     0
102
RTVSPost2010PropOp32
 70
     1
102
RTVSPost2010Prop33
280
     0
102
RTVSPost2010PropOp33
 70
     1
102
RTVSPost2010Prop34
280
     0
102
RTVSPost2010PropOp34
 70
     1
102
RTVSPost2010Prop35
280
     0
102
RTVSPost2010PropOp35
 70
     1
102
RTVSPost2010Prop36
280
     0
102
RTVSPost2010PropOp36
 70
     1
102
RTVSPost2010Prop37
 90
       50
102
RTVSPost2010PropOp37
 70
     1
102
RTVSPost2010Prop38
140
0.0
102
RTVSPost2010PropOp38
 70
     1
102
RTVSPost2010Prop39
140
1.0
102
RTVSPost2010PropOp39
 70
     1
102
RTVSPost2010Prop40
 90
        0
102
RTVSPost2010PropOp40
 70
     1
102
RTVSPost2010Prop41ColorIndex
 90
       18
102
RTVSPost2010Prop41ColorRGB
 90
        0
102
RTVSPost2010PropOp41
 70
     1
102
RTVSPost2010Prop42
 90
       50
102
RTVSPost2010PropOp42
 70
     1
102
RTVSPost2010Prop43
 90
        3
102
RTVSPost2010PropOp43
 70
     1
102
RTVSPost2010Prop44ColorIndex
 90
        5
102
RTVSPost2010Prop44ColorRGB
 90
      255
102
RTVSPost2010PropOp44
 70
     1
102
RTVSPost2010Prop45
280
     0
102
RTVSPost2010PropOp45
 70
     1
102
RTVSPost2010Prop46
 90
       50
102
RTVSPost2010PropOp46
 70
     1
102
RTVSPost2010Prop47
 90
       50
102
RTVSPost2010PropOp47
 70
     1
102
RTVSPost2010Prop48
 90
       50
102
RTVSPost2010PropOp48
 70
     1
102
RTVSPost2010Prop49
280
     0
102
RTVSPost2010PropOp49
 70
     1
102
RTVSPost2010Prop50
 90
       50
102
RTVSPost2010PropOp50
 70
     1
102
RTVSPost2010Prop51ColorIndex
 90
      256
102
RTVSPost2010Prop51ColorRGB
 90
-16777216
102
RTVSPost2010PropOp51
 70
     0
102
RTVSPost2010Prop52
140
1.0
102
RTVSPost2010PropOp52
 70
     0
102
RTVSPost2010Prop53
 90
        2
102
RTVSPost2010PropOp53
 70
     1
102
RTVSPost2010Prop54
  1
strokes_ogs.tif
102
RTVSPost2010PropOp54
 70
     1
102
RTVSPost2010Prop55
280
     0
102
RTVSPost2010PropOp55
 70
     1
102
RTVSPost2010Prop56
140
1.0
102
RTVSPost2010PropOp56
 70
     1
102
RTVSPost2010Prop57
140
1.0
102
RTVSPost2010PropOp57
 70
     1
  0
XRECORD
  5
66D
102
{ACAD_REACTORS
330
66C
102
}
330
66C
100
AcDbXrecord
280
     1
102
RTVSPropertyOp0
 70
     1
102
RTVSPropertyOp1
 70
     1
102
RTVSPropertyOp2
 70
     1
102
RTVSPropertyOp3
 70
     1
102
RTVSPropertyOp4
 70
     1
102
RTVSPropertyOp5
 70
     1
102
RTVSPropertyOp6
 70
     1
102
RTVSPropertyOp7
 70
     1
102
RTVSPropertyOp8
 70
     1
102
RTVSPropertyOp9
 70
     1
102
RTVSPropertyOp10
 70
     1
102
RTVSPropertyOp11
 70
     1
102
RTVSPropertyOp12
 70
     1
102
RTVSPropertyOp13
 70
     1
102
RTVSPropertyOp14
 70
     1
102
RTVSPropertyOp15
 70
     1
102
RTVSPropertyOp16
 70
     1
102
RTVSPropertyOp17
 70
     1
102
RTVSPropertyOp18
 70
     1
102
RTVSPropertyOp19
 70
     1
102
RTVSPropertyOp20
 70
     1
102
RTVSPropertyOp21
 70
     1
102
RTVSPropertyOp22
 70
     1
102
RTVSPropertyOp23
 70
     1
102
RTVSPropertyOp24
 70
     1
102
RTVSPropertyOp25
 70
     1
102
RTVSPropertyOp26
 70
     1
102
RTVSPropertyOp27
 70
     1
102
RTVSPropertyOp28
 70
     1
102
RTVSPropertyOp29
 70
     1
102
RTVSPropertyOp30
 70
     1
102
RTVSPropertyOp31
 70
     1
102
RTVSPropertyOp32
 70
     1
102
RTVSPropertyOp33
 70
     1
102
RTVSPropertyOp34
 70
     1
102
RTVSPropertyOp35
 70
     1
102
RTVSPropertyOp36
 70
     1
102
RTVSPropertyOp37
 70
     1
102
RTVSPropertyOp38
 70
     1
102
RTVSPropertyOp39
 70
     1
102
RTVSPropertyOp40
 70
     1
102
RTVSPropertyOp41
 70
     1
102
RTVSPropertyOp42
 70
     1
102
RTVSPropertyOp43
 70
     1
102
RTVSPropertyOp44
 70
     1
102
RTVSPropertyOp45
 70
     1
102
RTVSPropertyOp46
 70
     1
102
RTVSPropertyOp47
 70
     1
102
RTVSPropertyOp48
 70
     1
102
RTVSPropertyOp49
 70
     1
102
RTVSPropertyOp50
 70
     1
102
RTVSPropertyOp51
 70
     0
102
RTVSPropertyOp52
 70
     0
102
RTVSPropertyOp53
 70
     1
102
RTVSPropertyOp54
 70
     1
102
RTVSPropertyOp55
 70
     1
102
RTVSPropertyOp56
 70
     1
102
RTVSPropertyOp57
 70
     1
102
RTVSPost2010Prop28
280
     0
102
RTVSPost2010PropOp28
 70
     1
102
RTVSPost2010Prop29
280
     1
102
RTVSPost2010PropOp29
 70
     1
102
RTVSPost2010Prop30
280
     1
102
RTVSPost2010PropOp30
 70
     1
102
RTVSPost2010Prop31
280
     0
102
RTVSPost2010PropOp31
 70
     1
102
RTVSPost2010Prop32
280
     0
102
RTVSPost2010PropOp32
 70
     1
102
RTVSPost2010Prop33
280
     0
102
RTVSPost2010PropOp33
 70
     1
102
RTVSPost2010Prop34
280
     0
102
RTVSPost2010PropOp34
 70
     1
102
RTVSPost2010Prop35
280
     0
102
RTVSPost2010PropOp35
 70
     1
102
RTVSPost2010Prop36
280
     0
102
RTVSPost2010PropOp36
 70
     1
102
RTVSPost2010Prop37
 90
       50
102
RTVSPost2010PropOp37
 70
     1
102
RTVSPost2010Prop38
140
0.0
102
RTVSPost2010PropOp38
 70
     1
102
RTVSPost2010Prop39
140
1.0
102
RTVSPost2010PropOp39
 70
     1
102
RTVSPost2010Prop40
 90
        0
102
RTVSPost2010PropOp40
 70
     1
102
RTVSPost2010Prop41ColorIndex
 90
       18
102
RTVSPost2010Prop41ColorRGB
 90
        0
102
RTVSPost2010PropOp41
 70
     1
102
RTVSPost2010Prop42
 90
       50
102
RTVSPost2010PropOp42
 70
     1
102
RTVSPost2010Prop43
 90
        3
102
RTVSPost2010PropOp43
 70
     1
102
RTVSPost2010Prop44ColorIndex
 90
        5
102
RTVSPost2010Prop44ColorRGB
 90
      255
102
RTVSPost2010PropOp44
 70
     1
102
RTVSPost2010Prop45
280
     0
102
RTVSPost2010PropOp45
 70
     1
102
RTVSPost2010Prop46
 90
       50
102
RTVSPost2010PropOp46
 70
     1
102
RTVSPost2010Prop47
 90
       50
102
RTVSPost2010PropOp47
 70
     1
102
RTVSPost2010Prop48
 90
       50
102
RTVSPost2010PropOp48
 70
     1
102
RTVSPost2010Prop49
280
     0
102
RTVSPost2010PropOp49
 70
     1
102
RTVSPost2010Prop50
 90
       50
102
RTVSPost2010PropOp50
 70
     1
102
RTVSPost2010Prop51ColorIndex
 90
      256
102
RTVSPost2010Prop51ColorRGB
 90
-16777216
102
RTVSPost2010PropOp51
 70
     0
102
RTVSPost2010Prop52
140
1.0
102
RTVSPost2010PropOp52
 70
     0
102
RTVSPost2010Prop53
 90
        2
102
RTVSPost2010PropOp53
 70
     1
102
RTVSPost2010Prop54
  1
strokes_ogs.tif
102
RTVSPost2010PropOp54
 70
     1
102
RTVSPost2010Prop55
280
     0
102
RTVSPost2010PropOp55
 70
     1
102
RTVSPost2010Prop56
140
1.0
102
RTVSPost2010PropOp56
 70
     1
102
RTVSPost2010Prop57
140
1.0
102
RTVSPost2010PropOp57
 70
     1
  0
XRECORD
  5
66F
102
{ACAD_REACTORS
330
66E
102
}
330
66E
100
AcDbXrecord
280
     1
102
RTVSPropertyOp0
 70
     1
102
RTVSPropertyOp1
 70
     1
102
RTVSPropertyOp2
 70
     1
102
RTVSPropertyOp3
 70
     1
102
RTVSPropertyOp4
 70
     1
102
RTVSPropertyOp5
 70
     1
102
RTVSPropertyOp6
 70
     1
102
RTVSPropertyOp7
 70
     1
102
RTVSPropertyOp8
 70
     1
102
RTVSPropertyOp9
 70
     1
102
RTVSPropertyOp10
 70
     1
102
RTVSPropertyOp11
 70
     1
102
RTVSPropertyOp12
 70
     1
102
RTVSPropertyOp13
 70
     1
102
RTVSPropertyOp14
 70
     1
102
RTVSPropertyOp15
 70
     1
102
RTVSPropertyOp16
 70
     1
102
RTVSPropertyOp17
 70
     1
102
RTVSPropertyOp18
 70
     1
102
RTVSPropertyOp19
 70
     1
102
RTVSPropertyOp20
 70
     1
102
RTVSPropertyOp21
 70
     1
102
RTVSPropertyOp22
 70
     1
102
RTVSPropertyOp23
 70
     1
102
RTVSPropertyOp24
 70
     1
102
RTVSPropertyOp25
 70
     1
102
RTVSPropertyOp26
 70
     1
102
RTVSPropertyOp27
 70
     1
102
RTVSPropertyOp28
 70
     1
102
RTVSPropertyOp29
 70
     1
102
RTVSPropertyOp30
 70
     1
102
RTVSPropertyOp31
 70
     1
102
RTVSPropertyOp32
 70
     1
102
RTVSPropertyOp33
 70
     1
102
RTVSPropertyOp34
 70
     1
102
RTVSPropertyOp35
 70
     1
102
RTVSPropertyOp36
 70
     1
102
RTVSPropertyOp37
 70
     1
102
RTVSPropertyOp38
 70
     1
102
RTVSPropertyOp39
 70
     1
102
RTVSPropertyOp40
 70
     1
102
RTVSPropertyOp41
 70
     1
102
RTVSPropertyOp42
 70
     1
102
RTVSPropertyOp43
 70
     1
102
RTVSPropertyOp44
 70
     1
102
RTVSPropertyOp45
 70
     1
102
RTVSPropertyOp46
 70
     1
102
RTVSPropertyOp47
 70
     1
102
RTVSPropertyOp48
 70
     1
102
RTVSPropertyOp49
 70
     1
102
RTVSPropertyOp50
 70
     1
102
RTVSPropertyOp51
 70
     0
102
RTVSPropertyOp52
 70
     0
102
RTVSPropertyOp53
 70
     1
102
RTVSPropertyOp54
 70
     1
102
RTVSPropertyOp55
 70
     1
102
RTVSPropertyOp56
 70
     1
102
RTVSPropertyOp57
 70
     1
102
RTVSPost2010Prop28
280
     0
102
RTVSPost2010PropOp28
 70
     1
102
RTVSPost2010Prop29
280
     1
102
RTVSPost2010PropOp29
 70
     1
102
RTVSPost2010Prop30
280
     1
102
RTVSPost2010PropOp30
 70
     1
102
RTVSPost2010Prop31
280
     0
102
RTVSPost2010PropOp31
 70
     1
102
RTVSPost2010Prop32
280
     0
102
RTVSPost2010PropOp32
 70
     1
102
RTVSPost2010Prop33
280
     0
102
RTVSPost2010PropOp33
 70
     1
102
RTVSPost2010Prop34
280
     0
102
RTVSPost2010PropOp34
 70
     1
102
RTVSPost2010Prop35
280
     0
102
RTVSPost2010PropOp35
 70
     1
102
RTVSPost2010Prop36
280
     0
102
RTVSPost2010PropOp36
 70
     1
102
RTVSPost2010Prop37
 90
       50
102
RTVSPost2010PropOp37
 70
     1
102
RTVSPost2010Prop38
140
0.0
102
RTVSPost2010PropOp38
 70
     1
102
RTVSPost2010Prop39
140
1.0
102
RTVSPost2010PropOp39
 70
     1
102
RTVSPost2010Prop40
 90
        0
102
RTVSPost2010PropOp40
 70
     1
102
RTVSPost2010Prop41ColorIndex
 90
       18
102
RTVSPost2010Prop41ColorRGB
 90
        0
102
RTVSPost2010PropOp41
 70
     1
102
RTVSPost2010Prop42
 90
       50
102
RTVSPost2010PropOp42
 70
     1
102
RTVSPost2010Prop43
 90
        3
102
RTVSPost2010PropOp43
 70
     1
102
RTVSPost2010Prop44ColorIndex
 90
        5
102
RTVSPost2010Prop44ColorRGB
 90
      255
102
RTVSPost2010PropOp44
 70
     1
102
RTVSPost2010Prop45
280
     0
102
RTVSPost2010PropOp45
 70
     1
102
RTVSPost2010Prop46
 90
       50
102
RTVSPost2010PropOp46
 70
     1
102
RTVSPost2010Prop47
 90
       50
102
RTVSPost2010PropOp47
 70
     1
102
RTVSPost2010Prop48
 90
       50
102
RTVSPost2010PropOp48
 70
     1
102
RTVSPost2010Prop49
280
     0
102
RTVSPost2010PropOp49
 70
     1
102
RTVSPost2010Prop50
 90
       50
102
RTVSPost2010PropOp50
 70
     1
102
RTVSPost2010Prop51ColorIndex
 90
      256
102
RTVSPost2010Prop51ColorRGB
 90
-16777216
102
RTVSPost2010PropOp51
 70
     0
102
RTVSPost2010Prop52
140
1.0
102
RTVSPost2010PropOp52
 70
     0
102
RTVSPost2010Prop53
 90
        2
102
RTVSPost2010PropOp53
 70
     1
102
RTVSPost2010Prop54
  1
strokes_ogs.tif
102
RTVSPost2010PropOp54
 70
     1
102
RTVSPost2010Prop55
280
     0
102
RTVSPost2010PropOp55
 70
     1
102
RTVSPost2010Prop56
140
1.0
102
RTVSPost2010PropOp56
 70
     1
102
RTVSPost2010Prop57
140
1.0
102
RTVSPost2010PropOp57
 70
     1
  0
XRECORD
  5
65F
102
{ACAD_REACTORS
330
65E
102
}
330
65E
100
AcDbXrecord
280
     1
102
RTVSPropertyOp0
 70
     1
102
RTVSPropertyOp1
 70
     1
102
RTVSPropertyOp2
 70
     1
102
RTVSPropertyOp3
 70
     1
102
RTVSPropertyOp4
 70
     1
102
RTVSPropertyOp5
 70
     1
102
RTVSPropertyOp6
 70
     1
102
RTVSPropertyOp7
 70
     1
102
RTVSPropertyOp8
 70
     1
102
RTVSPropertyOp9
 70
     1
102
RTVSPropertyOp10
 70
     1
102
RTVSPropertyOp11
 70
     1
102
RTVSPropertyOp12
 70
     1
102
RTVSPropertyOp13
 70
     1
102
RTVSPropertyOp14
 70
     1
102
RTVSPropertyOp15
 70
     1
102
RTVSPropertyOp16
 70
     1
102
RTVSPropertyOp17
 70
     1
102
RTVSPropertyOp18
 70
     1
102
RTVSPropertyOp19
 70
     1
102
RTVSPropertyOp20
 70
     1
102
RTVSPropertyOp21
 70
     1
102
RTVSPropertyOp22
 70
     1
102
RTVSPropertyOp23
 70
     1
102
RTVSPropertyOp24
 70
     1
102
RTVSPropertyOp25
 70
     1
102
RTVSPropertyOp26
 70
     1
102
RTVSPropertyOp27
 70
     1
102
RTVSPropertyOp28
 70
     1
102
RTVSPropertyOp29
 70
     1
102
RTVSPropertyOp30
 70
     1
102
RTVSPropertyOp31
 70
     1
102
RTVSPropertyOp32
 70
     1
102
RTVSPropertyOp33
 70
     1
102
RTVSPropertyOp34
 70
     1
102
RTVSPropertyOp35
 70
     1
102
RTVSPropertyOp36
 70
     1
102
RTVSPropertyOp37
 70
     1
102
RTVSPropertyOp38
 70
     1
102
RTVSPropertyOp39
 70
     1
102
RTVSPropertyOp40
 70
     1
102
RTVSPropertyOp41
 70
     1
102
RTVSPropertyOp42
 70
     1
102
RTVSPropertyOp43
 70
     1
102
RTVSPropertyOp44
 70
     1
102
RTVSPropertyOp45
 70
     1
102
RTVSPropertyOp46
 70
     1
102
RTVSPropertyOp47
 70
     1
102
RTVSPropertyOp48
 70
     1
102
RTVSPropertyOp49
 70
     1
102
RTVSPropertyOp50
 70
     1
102
RTVSPropertyOp51
 70
     0
102
RTVSPropertyOp52
 70
     0
102
RTVSPropertyOp53
 70
     1
102
RTVSPropertyOp54
 70
     1
102
RTVSPropertyOp55
 70
     1
102
RTVSPropertyOp56
 70
     1
102
RTVSPropertyOp57
 70
     1
102
RTVSPost2010Prop28
280
     0
102
RTVSPost2010PropOp28
 70
     1
102
RTVSPost2010Prop29
280
     1
102
RTVSPost2010PropOp29
 70
     1
102
RTVSPost2010Prop30
280
     1
102
RTVSPost2010PropOp30
 70
     1
102
RTVSPost2010Prop31
280
     0
102
RTVSPost2010PropOp31
 70
     1
102
RTVSPost2010Prop32
280
     0
102
RTVSPost2010PropOp32
 70
     1
102
RTVSPost2010Prop33
280
     0
102
RTVSPost2010PropOp33
 70
     1
102
RTVSPost2010Prop34
280
     0
102
RTVSPost2010PropOp34
 70
     1
102
RTVSPost2010Prop35
280
     0
102
RTVSPost2010PropOp35
 70
     1
102
RTVSPost2010Prop36
280
     0
102
RTVSPost2010PropOp36
 70
     1
102
RTVSPost2010Prop37
 90
       50
102
RTVSPost2010PropOp37
 70
     1
102
RTVSPost2010Prop38
140
0.0
102
RTVSPost2010PropOp38
 70
     1
102
RTVSPost2010Prop39
140
1.0
102
RTVSPost2010PropOp39
 70
     1
102
RTVSPost2010Prop40
 90
        0
102
RTVSPost2010PropOp40
 70
     1
102
RTVSPost2010Prop41ColorIndex
 90
       18
102
RTVSPost2010Prop41ColorRGB
 90
        0
102
RTVSPost2010PropOp41
 70
     1
102
RTVSPost2010Prop42
 90
       50
102
RTVSPost2010PropOp42
 70
     1
102
RTVSPost2010Prop43
 90
        3
102
RTVSPost2010PropOp43
 70
     1
102
RTVSPost2010Prop44ColorIndex
 90
        5
102
RTVSPost2010Prop44ColorRGB
 90
      255
102
RTVSPost2010PropOp44
 70
     1
102
RTVSPost2010Prop45
280
     0
102
RTVSPost2010PropOp45
 70
     1
102
RTVSPost2010Prop46
 90
       50
102
RTVSPost2010PropOp46
 70
     1
102
RTVSPost2010Prop47
 90
       50
102
RTVSPost2010PropOp47
 70
     1
102
RTVSPost2010Prop48
 90
       50
102
RTVSPost2010PropOp48
 70
     1
102
RTVSPost2010Prop49
280
     0
102
RTVSPost2010PropOp49
 70
     1
102
RTVSPost2010Prop50
 90
       50
102
RTVSPost2010PropOp50
 70
     1
102
RTVSPost2010Prop51ColorIndex
 90
      256
102
RTVSPost2010Prop51ColorRGB
 90
-16777216
102
RTVSPost2010PropOp51
 70
     0
102
RTVSPost2010Prop52
140
1.0
102
RTVSPost2010PropOp52
 70
     0
102
RTVSPost2010Prop53
 90
        2
102
RTVSPost2010PropOp53
 70
     1
102
RTVSPost2010Prop54
  1
strokes_ogs.tif
102
RTVSPost2010PropOp54
 70
     1
102
RTVSPost2010Prop55
280
     0
102
RTVSPost2010PropOp55
 70
     1
102
RTVSPost2010Prop56
140
1.0
102
RTVSPost2010PropOp56
 70
     1
102
RTVSPost2010Prop57
140
1.0
102
RTVSPost2010PropOp57
 70
     1
  0
XRECORD
  5
651
102
{ACAD_REACTORS
330
650
102
}
330
650
100
AcDbXrecord
280
     1
102
RTVSPropertyOp0
 70
     1
102
RTVSPropertyOp1
 70
     1
102
RTVSPropertyOp2
 70
     1
102
RTVSPropertyOp3
 70
     1
102
RTVSPropertyOp4
 70
     1
102
RTVSPropertyOp5
 70
     1
102
RTVSPropertyOp6
 70
     1
102
RTVSPropertyOp7
 70
     1
102
RTVSPropertyOp8
 70
     1
102
RTVSPropertyOp9
 70
     1
102
RTVSPropertyOp10
 70
     1
102
RTVSPropertyOp11
 70
     1
102
RTVSPropertyOp12
 70
     1
102
RTVSPropertyOp13
 70
     1
102
RTVSPropertyOp14
 70
     1
102
RTVSPropertyOp15
 70
     1
102
RTVSPropertyOp16
 70
     1
102
RTVSPropertyOp17
 70
     1
102
RTVSPropertyOp18
 70
     1
102
RTVSPropertyOp19
 70
     1
102
RTVSPropertyOp20
 70
     1
102
RTVSPropertyOp21
 70
     1
102
RTVSPropertyOp22
 70
     1
102
RTVSPropertyOp23
 70
     1
102
RTVSPropertyOp24
 70
     1
102
RTVSPropertyOp25
 70
     1
102
RTVSPropertyOp26
 70
     1
102
RTVSPropertyOp27
 70
     1
102
RTVSPropertyOp28
 70
     1
102
RTVSPropertyOp29
 70
     1
102
RTVSPropertyOp30
 70
     1
102
RTVSPropertyOp31
 70
     1
102
RTVSPropertyOp32
 70
     1
102
RTVSPropertyOp33
 70
     1
102
RTVSPropertyOp34
 70
     1
102
RTVSPropertyOp35
 70
     1
102
RTVSPropertyOp36
 70
     1
102
RTVSPropertyOp37
 70
     1
102
RTVSPropertyOp38
 70
     1
102
RTVSPropertyOp39
 70
     1
102
RTVSPropertyOp40
 70
     1
102
RTVSPropertyOp41
 70
     1
102
RTVSPropertyOp42
 70
     1
102
RTVSPropertyOp43
 70
     1
102
RTVSPropertyOp44
 70
     1
102
RTVSPropertyOp45
 70
     1
102
RTVSPropertyOp46
 70
     1
102
RTVSPropertyOp47
 70
     1
102
RTVSPropertyOp48
 70
     1
102
RTVSPropertyOp49
 70
     1
102
RTVSPropertyOp50
 70
     1
102
RTVSPropertyOp51
 70
     0
102
RTVSPropertyOp52
 70
     0
102
RTVSPropertyOp53
 70
     1
102
RTVSPropertyOp54
 70
     1
102
RTVSPropertyOp55
 70
     1
102
RTVSPropertyOp56
 70
     1
102
RTVSPropertyOp57
 70
     1
102
RTVSPost2010Prop28
280
     0
102
RTVSPost2010PropOp28
 70
     1
102
RTVSPost2010Prop29
280
     1
102
RTVSPost2010PropOp29
 70
     1
102
RTVSPost2010Prop30
280
     1
102
RTVSPost2010PropOp30
 70
     1
102
RTVSPost2010Prop31
280
     0
102
RTVSPost2010PropOp31
 70
     1
102
RTVSPost2010Prop32
280
     0
102
RTVSPost2010PropOp32
 70
     1
102
RTVSPost2010Prop33
280
     0
102
RTVSPost2010PropOp33
 70
     1
102
RTVSPost2010Prop34
280
     0
102
RTVSPost2010PropOp34
 70
     1
102
RTVSPost2010Prop35
280
     0
102
RTVSPost2010PropOp35
 70
     1
102
RTVSPost2010Prop36
280
     0
102
RTVSPost2010PropOp36
 70
     1
102
RTVSPost2010Prop37
 90
       50
102
RTVSPost2010PropOp37
 70
     1
102
RTVSPost2010Prop38
140
0.0
102
RTVSPost2010PropOp38
 70
     1
102
RTVSPost2010Prop39
140
1.0
102
RTVSPost2010PropOp39
 70
     1
102
RTVSPost2010Prop40
 90
        0
102
RTVSPost2010PropOp40
 70
     1
102
RTVSPost2010Prop41ColorIndex
 90
       18
102
RTVSPost2010Prop41ColorRGB
 90
        0
102
RTVSPost2010PropOp41
 70
     1
102
RTVSPost2010Prop42
 90
       50
102
RTVSPost2010PropOp42
 70
     1
102
RTVSPost2010Prop43
 90
        3
102
RTVSPost2010PropOp43
 70
     1
102
RTVSPost2010Prop44ColorIndex
 90
        5
102
RTVSPost2010Prop44ColorRGB
 90
      255
102
RTVSPost2010PropOp44
 70
     1
102
RTVSPost2010Prop45
280
     0
102
RTVSPost2010PropOp45
 70
     1
102
RTVSPost2010Prop46
 90
       50
102
RTVSPost2010PropOp46
 70
     1
102
RTVSPost2010Prop47
 90
       50
102
RTVSPost2010PropOp47
 70
     1
102
RTVSPost2010Prop48
 90
       50
102
RTVSPost2010PropOp48
 70
     1
102
RTVSPost2010Prop49
280
     0
102
RTVSPost2010PropOp49
 70
     1
102
RTVSPost2010Prop50
 90
       50
102
RTVSPost2010PropOp50
 70
     1
102
RTVSPost2010Prop51ColorIndex
 90
      256
102
RTVSPost2010Prop51ColorRGB
 90
-16777216
102
RTVSPost2010PropOp51
 70
     0
102
RTVSPost2010Prop52
140
1.0
102
RTVSPost2010PropOp52
 70
     0
102
RTVSPost2010Prop53
 90
        2
102
RTVSPost2010PropOp53
 70
     1
102
RTVSPost2010Prop54
  1
strokes_ogs.tif
102
RTVSPost2010PropOp54
 70
     1
102
RTVSPost2010Prop55
280
     0
102
RTVSPost2010PropOp55
 70
     1
102
RTVSPost2010Prop56
140
1.0
102
RTVSPost2010PropOp56
 70
     1
102
RTVSPost2010Prop57
140
1.0
102
RTVSPost2010PropOp57
 70
     1
  0
XRECORD
  5
671
102
{ACAD_REACTORS
330
670
102
}
330
670
100
AcDbXrecord
280
     1
102
RTVSPropertyOp0
 70
     1
102
RTVSPropertyOp1
 70
     1
102
RTVSPropertyOp2
 70
     1
102
RTVSPropertyOp3
 70
     1
102
RTVSPropertyOp4
 70
     1
102
RTVSPropertyOp5
 70
     1
102
RTVSPropertyOp6
 70
     1
102
RTVSPropertyOp7
 70
     1
102
RTVSPropertyOp8
 70
     1
102
RTVSPropertyOp9
 70
     1
102
RTVSPropertyOp10
 70
     1
102
RTVSPropertyOp11
 70
     1
102
RTVSPropertyOp12
 70
     1
102
RTVSPropertyOp13
 70
     1
102
RTVSPropertyOp14
 70
     1
102
RTVSPropertyOp15
 70
     1
102
RTVSPropertyOp16
 70
     1
102
RTVSPropertyOp17
 70
     1
102
RTVSPropertyOp18
 70
     1
102
RTVSPropertyOp19
 70
     1
102
RTVSPropertyOp20
 70
     1
102
RTVSPropertyOp21
 70
     1
102
RTVSPropertyOp22
 70
     1
102
RTVSPropertyOp23
 70
     1
102
RTVSPropertyOp24
 70
     1
102
RTVSPropertyOp25
 70
     1
102
RTVSPropertyOp26
 70
     1
102
RTVSPropertyOp27
 70
     1
102
RTVSPropertyOp28
 70
     1
102
RTVSPropertyOp29
 70
     1
102
RTVSPropertyOp30
 70
     1
102
RTVSPropertyOp31
 70
     1
102
RTVSPropertyOp32
 70
     1
102
RTVSPropertyOp33
 70
     1
102
RTVSPropertyOp34
 70
     1
102
RTVSPropertyOp35
 70
     1
102
RTVSPropertyOp36
 70
     1
102
RTVSPropertyOp37
 70
     1
102
RTVSPropertyOp38
 70
     1
102
RTVSPropertyOp39
 70
     1
102
RTVSPropertyOp40
 70
     1
102
RTVSPropertyOp41
 70
     1
102
RTVSPropertyOp42
 70
     1
102
RTVSPropertyOp43
 70
     1
102
RTVSPropertyOp44
 70
     1
102
RTVSPropertyOp45
 70
     1
102
RTVSPropertyOp46
 70
     1
102
RTVSPropertyOp47
 70
     1
102
RTVSPropertyOp48
 70
     1
102
RTVSPropertyOp49
 70
     1
102
RTVSPropertyOp50
 70
     1
102
RTVSPropertyOp51
 70
     0
102
RTVSPropertyOp52
 70
     0
102
RTVSPropertyOp53
 70
     1
102
RTVSPropertyOp54
 70
     1
102
RTVSPropertyOp55
 70
     1
102
RTVSPropertyOp56
 70
     1
102
RTVSPropertyOp57
 70
     1
102
RTVSPost2010Prop28
280
     0
102
RTVSPost2010PropOp28
 70
     1
102
RTVSPost2010Prop29
280
     1
102
RTVSPost2010PropOp29
 70
     1
102
RTVSPost2010Prop30
280
     1
102
RTVSPost2010PropOp30
 70
     1
102
RTVSPost2010Prop31
280
     0
102
RTVSPost2010PropOp31
 70
     1
102
RTVSPost2010Prop32
280
     0
102
RTVSPost2010PropOp32
 70
     1
102
RTVSPost2010Prop33
280
     0
102
RTVSPost2010PropOp33
 70
     1
102
RTVSPost2010Prop34
280
     0
102
RTVSPost2010PropOp34
 70
     1
102
RTVSPost2010Prop35
280
     0
102
RTVSPost2010PropOp35
 70
     1
102
RTVSPost2010Prop36
280
     0
102
RTVSPost2010PropOp36
 70
     1
102
RTVSPost2010Prop37
 90
       50
102
RTVSPost2010PropOp37
 70
     1
102
RTVSPost2010Prop38
140
0.0
102
RTVSPost2010PropOp38
 70
     1
102
RTVSPost2010Prop39
140
1.0
102
RTVSPost2010PropOp39
 70
     1
102
RTVSPost2010Prop40
 90
        0
102
RTVSPost2010PropOp40
 70
     1
102
RTVSPost2010Prop41ColorIndex
 90
       18
102
RTVSPost2010Prop41ColorRGB
 90
        0
102
RTVSPost2010PropOp41
 70
     1
102
RTVSPost2010Prop42
 90
       50
102
RTVSPost2010PropOp42
 70
     1
102
RTVSPost2010Prop43
 90
        3
102
RTVSPost2010PropOp43
 70
     1
102
RTVSPost2010Prop44ColorIndex
 90
        5
102
RTVSPost2010Prop44ColorRGB
 90
      255
102
RTVSPost2010PropOp44
 70
     1
102
RTVSPost2010Prop45
280
     0
102
RTVSPost2010PropOp45
 70
     1
102
RTVSPost2010Prop46
 90
       50
102
RTVSPost2010PropOp46
 70
     1
102
RTVSPost2010Prop47
 90
       50
102
RTVSPost2010PropOp47
 70
     1
102
RTVSPost2010Prop48
 90
       50
102
RTVSPost2010PropOp48
 70
     1
102
RTVSPost2010Prop49
280
     0
102
RTVSPost2010PropOp49
 70
     1
102
RTVSPost2010Prop50
 90
       50
102
RTVSPost2010PropOp50
 70
     1
102
RTVSPost2010Prop51ColorIndex
 90
      256
102
RTVSPost2010Prop51ColorRGB
 90
-16777216
102
RTVSPost2010PropOp51
 70
     0
102
RTVSPost2010Prop52
140
1.0
102
RTVSPost2010PropOp52
 70
     0
102
RTVSPost2010Prop53
 90
        2
102
RTVSPost2010PropOp53
 70
     1
102
RTVSPost2010Prop54
  1
strokes_ogs.tif
102
RTVSPost2010PropOp54
 70
     1
102
RTVSPost2010Prop55
280
     0
102
RTVSPost2010PropOp55
 70
     1
102
RTVSPost2010Prop56
140
1.0
102
RTVSPost2010PropOp56
 70
     1
102
RTVSPost2010Prop57
140
1.0
102
RTVSPost2010PropOp57
 70
     1
  0
ENDSEC
  0
EOF
