  0
SECTION
  2
HEADER
  9
$ACADVER
  1
AC1009
  9
$DWGCODEPAGE
  3
ansi_932
  9
$INSBASE
 10
2327.308868348478
 20
683.589813689543
 30
0.0
  9
$EXTMIN
 10
183.0952715553294
 20
37.77180328111012
 30
0.0
  9
$EXTMAX
 10
1613.499812601731
 20
1355.956724771899
 30
0.0
  9
$LIMMIN
 10
0.0
 20
0.0
  9
$LIMMAX
 10
816.5000000000001
 20
565.0
  9
$ORTHOMODE
 70
     1
  9
$REGENMODE
 70
     1
  9
$FILLMODE
 70
     1
  9
$QTEXTMODE
 70
     0
  9
$MIRRTEXT
 70
     1
  9
$DRAGMODE
 70
     2
  9
$LTSCALE
 40
20.0
  9
$OSMODE
 70
    37
  9
$ATTMODE
 70
     1
  9
$TEXTSIZE
 40
15.0
  9
$TRACEWID
 40
0.05
  9
$TEXTSTYLE
  7
KANJI
  9
$CLAYER
  8
2
  9
$CELTYPE
  6
BYLAYER
  9
$CECOLOR
 62
   256
  9
$DIMSCALE
 40
5.0
  9
$DIMASZ
 40
2.0
  9
$DIMEXO
 40
0.5
  9
$DIMDLI
 40
0.0
  9
$DIMRND
 40
0.0
  9
$DIMDLE
 40
0.0
  9
$DIMEXE
 40
1.0
  9
$DIMTP
 40
0.0
  9
$DIMTM
 40
0.0
  9
$DIMTXT
 40
3.0
  9
$DIMCEN
 40
0.09
  9
$DIMTSZ
 40
0.0
  9
$DIMTOL
 70
     0
  9
$DIMLIM
 70
     0
  9
$DIMTIH
 70
     0
  9
$DIMTOH
 70
     0
  9
$DIMSE1
 70
     0
  9
$DIMSE2
 70
     0
  9
$DIMTAD
 70
     0
  9
$DIMZIN
 70
     8
  9
$DIMBLK
  1

  9
$DIMASO
 70
     0
  9
$DIMSHO
 70
     0
  9
$DIMPOST
  1

  9
$DIMAPOST
  1

  9
$DIMALT
 70
     0
  9
$DIMALTD
 70
     2
  9
$DIMALTF
 40
25.4
  9
$DIMLFAC
 40
1.0
  9
$DIMTOFL
 70
     1
  9
$DIMTVP
 40
1.0
  9
$DIMTIX
 70
     1
  9
$DIMSOXD
 70
     1
  9
$DIMSAH
 70
     0
  9
$DIMBLK1
  1

  9
$DIMBLK2
  1

  9
$DIMSTYLE
  2
STANDARD
  9
$DIMCLRD
 70
   256
  9
$DIMCLRE
 70
   256
  9
$DIMCLRT
 70
   256
  9
$DIMTFAC
 40
1.0
  9
$DIMGAP
 40
0.09
  9
$LUNITS
 70
     2
  9
$LUPREC
 70
     3
  9
$SKETCHINC
 40
0.1
  9
$FILLETRAD
 40
2.0
  9
$AUNITS
 70
     0
  9
$AUPREC
 70
     3
  9
$MENU
  1
C:\R13\WIN\SUPPORT\ACADFULL
  9
$ELEVATION
 40
0.0
  9
$PELEVATION
 40
0.0
  9
$THICKNESS
 40
0.0
  9
$LIMCHECK
 70
     0
  9
$CHAMFERA
 40
0.0
  9
$CHAMFERB
 40
0.0
  9
$SKPOLY
 70
     0
  9
$TDCREATE
 40
2457539.744020845
  9
$TDUPDATE
 40
2457870.605703669
  9
$TDINDWG
 40
0.0662779514
  9
$TDUSRTIMER
 40
0.066277419
  9
$USRTIMER
 70
     1
  9
$ANGBASE
 50
0.0
  9
$ANGDIR
 70
     0
  9
$PDMODE
 70
     0
  9
$PDSIZE
 40
0.0
  9
$PLINEWID
 40
0.0
  9
$COORDS
 70
     1
  9
$SPLFRAME
 70
     0
  9
$SPLINETYPE
 70
     6
  9
$SPLINESEGS
 70
     8
  9
$ATTDIA
 70
     0
  9
$ATTREQ
 70
     1
  9
$HANDLING
 70
     1
  9
$HANDSEED
  5
6AF
  9
$SURFTAB1
 70
     6
  9
$SURFTAB2
 70
     6
  9
$SURFTYPE
 70
     6
  9
$SURFU
 70
     6
  9
$SURFV
 70
     6
  9
$UCSNAME
  2

  9
$UCSORG
 10
0.0
 20
0.0
 30
0.0
  9
$UCSXDIR
 10
1.0
 20
0.0
 30
0.0
  9
$UCSYDIR
 10
0.0
 20
1.0
 30
0.0
  9
$PUCSNAME
  2

  9
$PUCSORG
 10
0.0
 20
0.0
 30
0.0
  9
$PUCSXDIR
 10
1.0
 20
0.0
 30
0.0
  9
$PUCSYDIR
 10
0.0
 20
1.0
 30
0.0
  9
$USERI1
 70
     0
  9
$USERI2
 70
     0
  9
$USERI3
 70
     0
  9
$USERI4
 70
     0
  9
$USERI5
 70
     0
  9
$USERR1
 40
0.0
  9
$USERR2
 40
0.0
  9
$USERR3
 40
0.0
  9
$USERR4
 40
2448925.372986111
  9
$USERR5
 40
0.04166667
  9
$WORLDVIEW
 70
     1
  9
$SHADEDGE
 70
     3
  9
$SHADEDIF
 70
    70
  9
$TILEMODE
 70
     1
  9
$MAXACTVP
 70
    16
  9
$PLIMCHECK
 70
     0
  9
$PEXTMIN
 10
1.000000000000000E+20
 20
1.000000000000000E+20
 30
1.000000000000000E+20
  9
$PEXTMAX
 10
-1.000000000000000E+20
 20
-1.000000000000000E+20
 30
-1.000000000000000E+20
  9
$PLIMMIN
 10
0.0
 20
0.0
  9
$PLIMMAX
 10
12.0
 20
9.0
  9
$UNITMODE
 70
     0
  9
$VISRETAIN
 70
     0
  9
$PLINEGEN
 70
     0
  9
$PSLTSCALE
 70
     0
  0
ENDSEC
  0
SECTION
  2
TABLES
  0
TABLE
  2
VPORT
 70
     1
  0
VPORT
  2
*ACTIVE
 70
     0
 10
0.0
 20
0.0
 11
1.0
 21
1.0
 12
1422.064826027718
 22
802.3548307694589
 13
0.0
 23
0.0
 14
1.0
 24
1.0
 15
50.0
 25
50.0
 16
0.0
 26
0.0
 36
1.0
 17
0.0
 27
0.0
 37
0.0
 40
2134.613297628542
 41
2.174107142857143
 42
50.0
 43
0.0
 44
0.0
 50
0.0
 51
0.0
 71
     0
 72
  5000
 73
     1
 74
     0
 75
     0
 76
     0
 77
     0
 78
     1
  0
ENDTAB
  0
TABLE
  2
LTYPE
 70
     2
  0
LTYPE
  2
CONTINUOUS
 70
     0
  3
Solid line
 72
    65
 73
     0
 40
0.0
  0
LTYPE
  2
CENTER
 70
     0
  3
Center ____ _ ____ _ ____ _ ____ _ ____ _ ____
 72
    65
 73
     4
 40
2.0
 49
1.25
 49
-0.25
 49
0.25
 49
-0.25
  0
ENDTAB
  0
TABLE
  2
LAYER
 70
     8
  0
LAYER
  2
0
 70
     0
 62
     7
  6
CONTINUOUS
  0
LAYER
  2
1
 70
     0
 62
     9
  6
CONTINUOUS
  0
LAYER
  2
2
 70
     0
 62
     4
  6
CONTINUOUS
  0
LAYER
  2
4
 70
     0
 62
     3
  6
CONTINUOUS
  0
LAYER
  2
L-CENTER
 70
     0
 62
     1
  6
CENTER
  0
LAYER
  2
3
 70
     0
 62
     2
  6
CONTINUOUS
  0
LAYER
  2
5
 70
     0
 62
     6
  6
CONTINUOUS
  0
LAYER
  2
DEFPOINTS
 70
     0
 62
     7
  6
CONTINUOUS
  0
ENDTAB
  0
TABLE
  2
STYLE
 70
     2
  0
STYLE
  2
STANDARD
 70
     0
 40
0.0
 41
1.0
 50
0.0
 71
     0
 42
9.0
  3
TXT
  4

  0
STYLE
  2
KANJI
 70
     0
 40
0.0
 41
1.0
 50
0.0
 71
     0
 42
15.0
  3
TXT
  4
BIGFONT
  0
ENDTAB
  0
TABLE
  2
VIEW
 70
     0
  0
ENDTAB
  0
TABLE
  2
UCS
 70
     0
  0
ENDTAB
  0
TABLE
  2
APPID
 70
     3
  0
APPID
  2
ACAD
 70
     0
  0
APPID
  2
ACAD_PSEXT
 70
     0
  0
APPID
  2
ACAD_MLEADERVER
 70
     0
  0
ENDTAB
  0
TABLE
  2
DIMSTYLE
 70
     1
  0
DIMSTYLE
  2
STANDARD
 70
     0
  3

  4

  5

  6

  7

 40
1.0
 41
0.18
 42
0.0625
 43
0.38
 44
0.18
 45
0.0
 46
0.0
 47
0.0
 48
0.0
140
0.18
141
0.09
142
0.0
143
25.4
144
1.0
145
0.0
146
1.0
147
0.09
 71
     0
 72
     0
 73
     1
 74
     1
 75
     0
 76
     0
 77
     0
 78
     0
170
     0
171
     2
172
     0
173
     0
174
     0
175
     0
176
     0
177
     0
178
     0
  0
ENDTAB
  0
ENDSEC
  0
SECTION
  2
BLOCKS
  0
BLOCK
  8
0
  2
$MODEL_SPACE
 70
     0
 10
0.0
 20
0.0
 30
0.0
  3
$MODEL_SPACE
  1

  0
ENDBLK
  5
1C
  8
0
  0
BLOCK
 67
     1
  8
0
  2
$PAPER_SPACE
 70
     0
 10
0.0
 20
0.0
 30
0.0
  3
$PAPER_SPACE
  1

  0
ENDBLK
  5
22
 67
     1
  8
0
  0
ENDSEC
  0
SECTION
  2
ENTITIES
  0
ARC
  5
1B8
  8
4
 10
1518.678768601731
 20
568.4617472811101
 30
0.0
 40
5.000032
 50
8.796780999999575
 51
82.43289400000018
  0
LINE
  5
1B9
  8
4
 10
1495.284724601731
 20
546.57697928111
 30
0.0
 11
1502.224912601731
 21
553.5174112811101
 31
0.0
  0
LINE
  5
1BA
  8
4
 10
1502.224912601731
 20
553.5174112811101
 30
0.0
 11
1511.705380601731
 21
550.9771272811101
 31
0.0
  0
LINE
  5
1BB
  8
4
 10
1511.705380601731
 20
550.9771272811101
 30
0.0
 11
1514.245664601731
 21
541.4966592811102
 31
0.0
  0
ARC
  5
1BC
  8
4
 10
1453.499812601731
 20
634.5218032811101
 30
0.0
 40
6.25
 50
0.0
 51
180.0
  0
LINE
  5
1BD
  8
4
 10
1473.418268601731
 20
586.7718032811101
 30
0.0
 11
1473.418268601731
 21
591.7718032811101
 31
0.0
  0
LINE
  5
1BE
  8
4
 10
1475.499812601731
 20
582.7718032811101
 30
0.0
 11
1475.499812601731
 21
580.7718032811101
 31
0.0
  0
LINE
  5
1BF
  8
4
 10
1476.499812601731
 20
582.7718032811101
 30
0.0
 11
1476.499812601731
 21
586.7718032811101
 31
0.0
  0
LINE
  5
1C0
  8
4
 10
1467.136288601731
 20
586.7718032811101
 30
0.0
 11
1476.499812601731
 21
586.7718032811101
 31
0.0
  0
LINE
  5
1C1
  8
4
 10
1468.045224601731
 20
582.7718032811101
 30
0.0
 11
1476.499812601731
 21
582.7718032811101
 31
0.0
  0
LINE
  5
1C2
  8
4
 10
1464.499812601731
 20
598.7718032811101
 30
0.0
 11
1453.499812601731
 21
598.7718032811101
 31
0.0
  0
LINE
  5
1C3
  8
4
 10
1453.499812601731
 20
596.7718032811101
 30
0.0
 11
1464.499812601731
 21
596.7718032811101
 31
0.0
  0
LINE
  5
1C4
  8
4
 10
1462.499812601731
 20
599.7718032811101
 30
0.0
 11
1444.499812601731
 21
599.7718032811101
 31
0.0
  0
LINE
  5
1C5
  8
4
 10
1463.499812601731
 20
586.7718032811101
 30
0.0
 11
1453.499812601731
 21
586.7718032811101
 31
0.0
  0
ARC
  5
1C6
  8
4
 10
1463.499812601731
 20
582.7718032811101
 30
0.0
 40
4.0
 50
90.0
 51
180.0
  0
LINE
  5
1C7
  8
4
 10
1458.374812601731
 20
582.7718032811101
 30
0.0
 11
1453.499812601731
 21
582.7718032811101
 31
0.0
  0
LINE
  5
1C8
  8
4
 10
1459.499812601731
 20
582.7718032811101
 30
0.0
 11
1459.499812601731
 21
582.4680912811102
 31
0.0
  0
ARC
  5
1C9
  8
4
 10
1458.374812601731
 20
580.5359632811101
 30
0.0
 40
2.235808
 50
43.38061499999717
 51
136.6193850000028
  0
LINE
  5
1CA
  8
4
 10
1447.499812601731
 20
582.7718032811101
 30
0.0
 11
1447.499812601731
 21
582.4680912811102
 31
0.0
  0
ARC
  5
1CB
  8
4
 10
1448.624812601731
 20
580.5359632811101
 30
0.0
 40
2.235808
 50
43.38061499999717
 51
136.6193850000028
  0
ARC
  5
1CC
  8
4
 10
1453.499812601731
 20
574.8802032811102
 30
0.0
 40
7.891472
 50
65.67971300000129
 51
114.3202869999987
  0
LINE
  5
1CD
  8
4
 10
1448.624812601731
 20
582.7718032811101
 30
0.0
 11
1453.499812601731
 21
582.7718032811101
 31
0.0
  0
LINE
  5
1CE
  8
4
 10
1463.499812601731
 20
586.7718032811101
 30
0.0
 11
1463.499812601731
 21
596.7718032811101
 31
0.0
  0
LINE
  5
1CF
  8
4
 10
1464.499812601731
 20
598.7718032811101
 30
0.0
 11
1464.499812601731
 21
596.7718032811101
 31
0.0
  0
LINE
  5
1D0
  8
4
 10
1462.499812601731
 20
599.7718032811101
 30
0.0
 11
1464.499812601731
 21
598.7718032811101
 31
0.0
  0
ARC
  5
1D1
  8
4
 10
1465.121640601731
 20
590.67170728111
 30
0.0
 40
1.100112
 50
12.80874900000706
 51
90.0
  0
LINE
  5
1D2
  8
4
 10
1463.499812601731
 20
591.7718032811101
 30
0.0
 11
1465.121640601731
 21
591.7718032811101
 31
0.0
  0
LINE
  5
1D3
  8
4
 10
1463.499812601731
 20
591.9888432811101
 30
0.0
 11
1465.261532601731
 21
591.7627712811102
 31
0.0
  0
LINE
  5
1D4
  8
4
 10
1459.999812601731
 20
580.7718032811101
 30
0.0
 11
1475.499812601731
 21
580.7718032811101
 31
0.0
  0
LINE
  5
1D5
  8
4
 10
1459.999812601731
 20
580.7718032811101
 30
0.0
 11
1475.499812601731
 21
580.7718032811101
 31
0.0
  0
LINE
  5
1D6
  8
4
 10
1459.999812601731
 20
580.7718032811101
 30
0.0
 11
1468.499812601731
 21
580.7718032811101
 31
0.0
  0
LINE
  5
1D7
  8
4
 10
1459.999812601731
 20
580.7718032811101
 30
0.0
 11
1478.499812601731
 21
580.7718032811101
 31
0.0
  0
LINE
  5
1D8
  8
4
 10
1466.194392601731
 20
590.9156032811102
 30
0.0
 11
1468.499812601731
 21
580.7718032811101
 31
0.0
  0
LINE
  5
1D9
  8
4
 10
1465.121640601731
 20
591.7718032811101
 30
0.0
 11
1473.418268601731
 21
591.7718032811101
 31
0.0
  0
LINE
  5
1DA
  8
4
 10
1459.999812601731
 20
577.7718032811101
 30
0.0
 11
1453.499812601731
 21
577.7718032811101
 31
0.0
  0
LINE
  5
1DB
  8
4
 10
1446.999812601731
 20
577.7718032811101
 30
0.0
 11
1453.499812601731
 21
577.7718032811101
 31
0.0
  0
LINE
  5
1DC
  8
4
 10
1456.749812601731
 20
577.7718032811101
 30
0.0
 11
1456.749812601731
 21
582.0716072811101
 31
0.0
  0
LINE
  5
1DD
  8
4
 10
1459.999812601731
 20
577.7718032811101
 30
0.0
 11
1459.999812601731
 21
582.0716072811101
 31
0.0
  0
LINE
  5
1DE
  8
4
 10
1450.249812601731
 20
577.7718032811101
 30
0.0
 11
1450.249812601731
 21
582.0716072811101
 31
0.0
  0
LINE
  5
1DF
  8
4
 10
1446.999812601731
 20
577.7718032811101
 30
0.0
 11
1446.999812601731
 21
582.0716072811101
 31
0.0
  0
LINE
  5
1E0
  8
4
 10
1478.499812601731
 20
580.7718032811101
 30
0.0
 11
1478.499812601731
 21
577.1463152811102
 31
0.0
  0
LINE
  5
1E1
  8
4
 10
1473.499812601731
 20
580.7718032811101
 30
0.0
 11
1473.499812601731
 21
577.3716592811102
 31
0.0
  0
LINE
  5
1E2
  8
4
 10
1440.805232601731
 20
590.9156032811102
 30
0.0
 11
1438.499812601731
 21
580.7718032811101
 31
0.0
  0
LINE
  5
1E3
  8
4
 10
1433.581112601731
 20
586.7718032811101
 30
0.0
 11
1433.581112601731
 21
591.7718032811101
 31
0.0
  0
LINE
  5
1E4
  8
4
 10
1443.499812601731
 20
586.7718032811101
 30
0.0
 11
1443.499812601731
 21
596.7718032811101
 31
0.0
  0
LINE
  5
1E5
  8
4
 10
1430.499812601731
 20
586.7718032811101
 30
0.0
 11
1439.863340601731
 21
586.7718032811101
 31
0.0
  0
LINE
  5
1E6
  8
4
 10
1430.499812601731
 20
582.7718032811101
 30
0.0
 11
1438.954404601731
 21
582.7718032811101
 31
0.0
  0
LINE
  5
1E7
  8
4
 10
1431.499812601731
 20
580.7718032811101
 30
0.0
 11
1431.499812601731
 21
582.7718032811101
 31
0.0
  0
LINE
  5
1E8
  8
4
 10
1430.499812601731
 20
582.7718032811101
 30
0.0
 11
1430.499812601731
 21
586.7718032811101
 31
0.0
  0
LINE
  5
1E9
  8
4
 10
1433.581112601731
 20
591.7718032811101
 30
0.0
 11
1441.877988601731
 21
591.7718032811101
 31
0.0
  0
LINE
  5
1EA
  8
4
 10
1442.499812601731
 20
598.7718032811101
 30
0.0
 11
1442.499812601731
 21
596.7718032811101
 31
0.0
  0
ARC
  5
1EB
  8
4
 10
1441.877988601731
 20
590.67170728111
 30
0.0
 40
1.100112
 50
90.0
 51
167.1912509999929
  0
LINE
  5
1EC
  8
4
 10
1443.499812601731
 20
591.7718032811101
 30
0.0
 11
1441.877988601731
 21
591.7718032811101
 31
0.0
  0
LINE
  5
1ED
  8
4
 10
1443.499812601731
 20
591.9888432811101
 30
0.0
 11
1441.738096601731
 21
591.7627712811102
 31
0.0
  0
LINE
  5
1EE
  8
4
 10
1411.714900601731
 20
546.57697928111
 30
0.0
 11
1404.774716601731
 21
553.5174112811101
 31
0.0
  0
LINE
  5
1EF
  8
4
 10
1428.499812601731
 20
577.1463152811102
 30
0.0
 11
1428.499812601731
 21
580.7718032811101
 31
0.0
  0
LINE
  5
1F0
  8
4
 10
1433.499812601731
 20
577.3716592811102
 30
0.0
 11
1433.499812601731
 21
580.7718032811101
 31
0.0
  0
LINE
  5
1F1
  8
L-CENTER
 10
1465.999812601731
 20
610.7718032811101
 30
0.0
 11
1440.999812601731
 21
610.7718032811101
 31
0.0
  0
ARC
  5
1F2
  8
4
 10
1443.499812601731
 20
582.7718032811101
 30
0.0
 40
4.0
 50
0.0
 51
90.0
  0
LINE
  5
1F3
  8
4
 10
1431.499812601731
 20
580.7718032811101
 30
0.0
 11
1446.999812601731
 21
580.7718032811101
 31
0.0
  0
LINE
  5
1F4
  8
4
 10
1431.499812601731
 20
580.7718032811101
 30
0.0
 11
1446.999812601731
 21
580.7718032811101
 31
0.0
  0
LINE
  5
1F5
  8
4
 10
1428.499812601731
 20
580.7718032811101
 30
0.0
 11
1446.999812601731
 21
580.7718032811101
 31
0.0
  0
LINE
  5
1F6
  8
4
 10
1438.499812601731
 20
580.7718032811101
 30
0.0
 11
1446.999812601731
 21
580.7718032811101
 31
0.0
  0
LINE
  5
1F7
  8
4
 10
1443.499812601731
 20
586.7718032811101
 30
0.0
 11
1453.499812601731
 21
586.7718032811101
 31
0.0
  0
LINE
  5
1F8
  8
4
 10
1444.499812601731
 20
599.7718032811101
 30
0.0
 11
1442.499812601731
 21
598.7718032811101
 31
0.0
  0
LINE
  5
1F9
  8
4
 10
1453.499812601731
 20
596.7718032811101
 30
0.0
 11
1442.499812601731
 21
596.7718032811101
 31
0.0
  0
LINE
  5
1FA
  8
4
 10
1442.499812601731
 20
598.7718032811101
 30
0.0
 11
1453.499812601731
 21
598.7718032811101
 31
0.0
  0
LINE
  5
1FB
  8
4
 10
1447.249812601731
 20
599.7718032811101
 30
0.0
 11
1447.249812601731
 21
634.5218032811101
 31
0.0
  0
LINE
  5
1FC
  8
4
 10
1459.749812601731
 20
599.7718032811101
 30
0.0
 11
1459.749812601731
 21
634.5218032811101
 31
0.0
  0
LINE
  5
1FD
  8
4
 10
1555.396189655879
 20
461.9354321536708
 30
0.0
 11
1546.799716601731
 21
461.9354321536708
 31
0.0
  0
LINE
  5
1FE
  8
4
 10
1546.799716601731
 20
486.7718032811101
 30
0.0
 11
1538.287900601731
 21
486.7718032811101
 31
0.0
  0
LINE
  5
1FF
  8
4
 10
1497.825008601731
 20
537.0967552811101
 30
0.0
 11
1507.305476601731
 21
534.5562272811101
 31
0.0
  0
LINE
  5
200
  8
4
 10
1546.799716601731
 20
442.3055230012234
 30
0.0
 11
1555.396189655879
 21
442.3055230012234
 31
0.0
  0
LINE
  5
201
  8
4
 10
1555.396189655879
 20
457.0279548655591
 30
0.0
 11
1549.299716601731
 21
457.0279548655591
 31
0.0
  0
LINE
  5
202
  8
4
 10
1555.396189655879
 20
447.2130002893351
 30
0.0
 11
1549.299716601731
 21
447.2130002893351
 31
0.0
  0
LINE
  5
203
  8
4
 10
1556.299716601731
 20
444.7592616452795
 30
0.0
 11
1556.299716601731
 21
459.4816935096147
 31
0.0
  0
ARC
  5
204
  8
4
 10
1542.520551304271
 20
452.1204775774469
 30
0.0
 40
13.77916529745958
 50
339.1359356360799
 51
20.86406436392003
  0
ARC
  5
205
  8
4
 10
1552.516102672671
 20
444.7592616452795
 30
0.0
 40
3.783613929059507
 50
319.5701031551699
 51
40.42989684483014
  0
LINE
  5
206
  8
4
 10
1563.399568601731
 20
442.7718032811101
 30
0.0
 11
1555.732412490845
 21
442.7718032811101
 31
0.0
  0
LINE
  5
207
  8
4
 10
1563.399568601731
 20
442.7718032811101
 30
0.0
 11
1563.399568601731
 21
402.7718032811101
 31
0.0
  0
LINE
  5
208
  8
4
 10
1497.825008601731
 20
448.4468512811102
 30
0.0
 11
1507.305476601731
 21
450.9873792811102
 31
0.0
  0
LINE
  5
209
  8
4
 10
1502.224912601731
 20
432.0261992811102
 30
0.0
 11
1511.705380601731
 21
434.5664832811101
 31
0.0
  0
LINE
  5
20A
  8
4
 10
1495.284724601731
 20
438.96662728111
 30
0.0
 11
1497.825008601731
 21
448.4468512811102
 31
0.0
  0
LINE
  5
20B
  8
4
 10
1495.284724601731
 20
438.96662728111
 30
0.0
 11
1502.224912601731
 21
432.0261992811102
 31
0.0
  0
CIRCLE
  5
20C
  8
4
 10
1504.765192601731
 20
441.5066672811101
 30
0.0
 40
8.5
  0
LINE
  5
20D
  8
L-CENTER
 10
1517.628232601731
 20
428.6431392811104
 30
0.0
 11
1491.90163187349
 21
454.3697400093512
 31
0.0
  0
LINE
  5
20E
  8
4
 10
1511.705380601731
 20
434.5664832811101
 30
0.0
 11
1514.245664601731
 21
444.0469512811101
 31
0.0
  0
LINE
  5
20F
  8
4
 10
1507.305476601731
 20
450.9873792811102
 30
0.0
 11
1514.245664601731
 21
444.0469512811101
 31
0.0
  0
LINE
  5
210
  8
L-CENTER
 10
1516.522935051793
 20
452.1204775774469
 30
0.0
 11
1559.167694856311
 21
452.1204775774469
 31
0.0
  0
LINE
  5
211
  8
4
 10
1546.799716601731
 20
461.9354321536708
 30
0.0
 11
1546.799716601731
 21
442.3055230012234
 31
0.0
  0
ARC
  5
212
  8
4
 10
1552.516102672671
 20
459.4816935096147
 30
0.0
 40
3.783613929059507
 50
319.5701031551699
 51
40.42989684483014
  0
LINE
  5
213
  8
4
 10
1549.299716601731
 20
461.9354321536708
 30
0.0
 11
1549.299716601731
 21
442.3055230012234
 31
0.0
  0
LINE
  5
218
  8
4
 10
1409.174616601731
 20
537.0967552811101
 30
0.0
 11
1399.694148601731
 21
534.5562272811101
 31
0.0
  0
LINE
  5
21A
  8
4
 10
1411.714900601731
 20
438.96662728111
 30
0.0
 11
1404.774716601731
 21
432.0261992811102
 31
0.0
  0
LINE
  5
21B
  8
4
 10
1411.714900601731
 20
438.96662728111
 30
0.0
 11
1409.174616601731
 21
448.4468512811102
 31
0.0
  0
LINE
  5
21C
  8
4
 10
1409.174616601731
 20
448.4468512811102
 30
0.0
 11
1399.694148601731
 21
450.9873792811102
 31
0.0
  0
LINE
  5
21E
  8
4
 10
1411.714900601731
 20
546.57697928111
 30
0.0
 11
1409.174616601731
 21
537.0967552811101
 31
0.0
  0
ARC
  5
21F
  8
4
 10
1029.499812601731
 20
492.7718032811101
 30
0.0
 40
499.999976
 50
4.738148000000038
 51
8.79555599999986
  0
CIRCLE
  5
220
  8
4
 10
1504.765192601731
 20
544.0369392811101
 30
0.0
 40
8.5
  0
LINE
  5
221
  8
L-CENTER
 10
1517.628476601731
 20
556.9002232811101
 30
0.0
 11
1491.90187587349
 21
531.1736225528691
 31
0.0
  0
LINE
  5
222
  8
4
 10
1495.284724601731
 20
546.57697928111
 30
0.0
 11
1497.825008601731
 21
537.0967552811101
 31
0.0
  0
LINE
  5
223
  8
4
 10
1507.305476601731
 20
534.5562272811101
 30
0.0
 11
1514.245664601731
 21
541.4966592811102
 31
0.0
  0
LINE
  5
229
  8
4
 10
1395.294248601731
 20
550.9771272811101
 30
0.0
 11
1392.753964601731
 21
541.4966592811102
 31
0.0
  0
ARC
  5
22A
  8
4
 10
1388.320856601731
 20
568.4617472811101
 30
0.0
 40
5.000032
 50
97.56709499999964
 51
171.2032190000004
  0
LINE
  5
22B
  8
4
 10
1364.499812601731
 20
486.7718032811101
 30
0.0
 11
1368.711728601731
 21
486.7718032811101
 31
0.0
  0
ARC
  5
22C
  8
4
 10
1364.499812601731
 20
484.7718032811101
 30
0.0
 40
2.0
 50
90.0
 51
180.0
  0
LINE
  5
22D
  8
4
 10
1395.294248601731
 20
434.5664832811101
 30
0.0
 11
1392.753964601731
 21
444.0469512811101
 31
0.0
  0
ARC
  5
22E
  8
4
 10
1877.499812601731
 20
492.7718032811101
 30
0.0
 40
499.999972
 50
171.204982
 51
175.2622169999999
  0
ARC
  5
23D
  8
4
 10
1453.499812601731
 20
77.77180328111012
 30
0.0
 40
499.999968
 50
82.43361599999996
 51
97.566751
  0
LINE
  5
23E
  8
L-CENTER
 10
1545.089802705075
 20
492.7718032811101
 30
0.0
 11
1361.909822498386
 21
492.7718032811101
 31
0.0
  0
CIRCLE
  5
23F
  8
4
 10
1453.499812601731
 20
492.7718032811101
 30
0.0
 40
85.0
  0
CIRCLE
  5
240
  8
L-CENTER
 10
1453.499812601731
 20
492.7718032811101
 30
0.0
 40
72.5
  0
LINE
  5
241
  8
L-CENTER
 10
1389.371392601731
 20
428.6431392811104
 30
0.0
 11
1415.097993329972
 21
454.3697400093511
 31
0.0
  0
CIRCLE
  5
242
  8
4
 10
1402.234432601731
 20
544.0369392811101
 30
0.0
 40
8.5
  0
LINE
  5
243
  8
L-CENTER
 10
1389.371152601731
 20
556.9002232811101
 30
0.0
 11
1415.097751329967
 21
531.1736245528739
 31
0.0
  0
CIRCLE
  5
244
  8
4
 10
1402.234432601731
 20
441.5066672811101
 30
0.0
 40
8.5
  0
LINE
  5
245
  8
4
 10
1399.694148601731
 20
450.9873792811102
 30
0.0
 11
1392.753964601731
 21
444.0469512811101
 31
0.0
  0
LINE
  5
246
  8
4
 10
1404.774716601731
 20
432.0261992811102
 30
0.0
 11
1395.294248601731
 21
434.5664832811101
 31
0.0
  0
LINE
  5
247
  8
4
 10
1399.694148601731
 20
534.5562272811101
 30
0.0
 11
1392.753964601731
 21
541.4966592811102
 31
0.0
  0
LINE
  5
248
  8
4
 10
1404.774716601731
 20
553.5174112811101
 30
0.0
 11
1395.294248601731
 21
550.9771272811101
 31
0.0
  0
LINE
  5
251
  8
4
 10
1593.399568601731
 20
342.7718032811101
 30
0.0
 11
1594.399568601731
 21
342.7718032811101
 31
0.0
  0
LINE
  5
253
  8
4
 10
1593.399568601731
 20
242.7718032811101
 30
0.0
 11
1594.399568601731
 21
242.7718032811101
 31
0.0
  0
LINE
  5
255
  8
4
 10
1593.399568601731
 20
357.7718032811101
 30
0.0
 11
1593.399568601731
 21
227.7718032811101
 31
0.0
  0
LINE
  5
257
  8
4
 10
1594.399568601731
 20
242.7718032811101
 30
0.0
 11
1594.399568601731
 21
342.7718032811101
 31
0.0
  0
ARC
  5
25B
  8
4
 10
1610.499812601731
 20
91.77180328111012
 30
0.0
 40
3.0
 50
0.0
 51
90.0
  0
LINE
  5
25C
  8
4
 10
1573.399568601731
 20
342.7718032811101
 30
0.0
 11
1546.799716601731
 21
331.7718032811101
 31
0.0
  0
LINE
  5
25D
  8
4
 10
1546.799716601731
 20
282.9568487048866
 30
0.0
 11
1555.396189655879
 21
282.9568487048866
 31
0.0
  0
LINE
  5
25E
  8
4
 10
1555.396189655879
 20
302.5867578573341
 30
0.0
 11
1546.799716601731
 21
302.5867578573341
 31
0.0
  0
LINE
  5
25F
  8
4
 10
1546.799716601731
 20
302.5867578573341
 30
0.0
 11
1546.799716601731
 21
282.9568487048866
 31
0.0
  0
ARC
  5
260
  8
4
 10
1552.516102672671
 20
285.4105873489427
 30
0.0
 40
3.783613929059507
 50
319.5701031551699
 51
40.42989684483014
  0
LINE
  5
261
  8
4
 10
1555.396189655879
 20
287.8643259929984
 30
0.0
 11
1549.299716601731
 21
287.8643259929984
 31
0.0
  0
ARC
  5
262
  8
4
 10
1552.516102672671
 20
300.133019213278
 30
0.0
 40
3.783613929059507
 50
319.5701031551699
 51
40.42989684483014
  0
LINE
  5
263
  8
4
 10
1555.396189655879
 20
297.6792805692223
 30
0.0
 11
1549.299716601731
 21
297.6792805692223
 31
0.0
  0
LINE
  5
264
  8
4
 10
1549.299716601731
 20
302.5867578573341
 30
0.0
 11
1549.299716601731
 21
282.9568487048866
 31
0.0
  0
ARC
  5
265
  8
4
 10
1542.520551304271
 20
292.7718032811101
 30
0.0
 40
13.77916529745958
 50
339.1359356360799
 51
20.86406436392003
  0
LINE
  5
266
  8
4
 10
1556.299716601731
 20
285.4105873489427
 30
0.0
 11
1556.299716601731
 21
300.133019213278
 31
0.0
  0
LINE
  5
267
  8
4
 10
1573.399568601731
 20
242.7718032811101
 30
0.0
 11
1546.799716601731
 21
253.7718032811101
 31
0.0
  0
ARC
  5
268
  8
4
 10
1552.516102672671
 20
140.7843449169408
 30
0.0
 40
3.783613929059507
 50
333.937135365935
 51
40.42989684483014
  0
LINE
  5
269
  8
4
 10
1556.299716601731
 20
140.7843449169408
 30
0.0
 11
1556.299716601731
 21
138.8093812811102
 31
0.0
  0
LINE
  5
26A
  8
4
 10
1550.849006103409
 20
143.238083560997
 30
0.0
 11
1555.396189655879
 21
143.2380835609969
 31
0.0
  0
LINE
  5
26B
  8
4
 10
1563.399568601731
 20
142.7718032811101
 30
0.0
 11
1555.735690164085
 21
142.7718032811101
 31
0.0
  0
ARC
  5
26C
  8
4
 10
1544.499812601731
 20
109.7718032811101
 30
0.0
 40
15.0
 50
180.0
 51
270.000932
  0
LINE
  5
26D
  8
4
 10
1575.668232714381
 20
223.3389693092724
 30
0.0
 11
1550.905182705676
 21
143.2232192811099
 31
0.0
  0
LINE
  5
26E
  8
4
 10
1549.224413219351
 20
144.5580652792936
 30
0.0
 11
1573.399568601731
 21
222.7718032811101
 31
0.0
  0
LINE
  5
26F
  8
4
 10
1563.399568601731
 20
142.7718032811101
 30
0.0
 11
1563.399568601731
 21
182.7718032811101
 31
0.0
  0
LINE
  5
270
  8
4
 10
1573.399568601731
 20
362.7718032811101
 30
0.0
 11
1573.399568601731
 21
222.7718032811101
 31
0.0
  0
LINE
  5
271
  8
4
 10
1573.399568601731
 20
222.7718032811101
 30
0.0
 11
1593.399568601731
 21
227.7718032811101
 31
0.0
  0
LINE
  5
272
  8
4
 10
1573.399568601731
 20
362.7718032811101
 30
0.0
 11
1593.399568601731
 21
357.7718032811101
 31
0.0
  0
LINE
  5
273
  8
4
 10
1610.499812601731
 20
94.77180328111012
 30
0.0
 11
1529.499812601731
 21
160.5843032811101
 31
0.0
  0
LINE
  5
27A
  8
4
 10
1613.499812601731
 20
52.77180328111012
 30
0.0
 11
1613.499812601731
 21
91.77180328111012
 31
0.0
  0
LINE
  5
27B
  8
L-CENTER
 10
1583.499812601731
 20
109.7718032811101
 30
0.0
 11
1583.499812601731
 21
37.77180328111012
 31
0.0
  0
ARC
  5
27C
  8
4
 10
1334.748533469186
 20
357.3410017902731
 30
0.0
 40
1.0
 50
0.0
 51
90.0
  0
LINE
  5
27D
  8
4
 10
1333.999812601731
 20
358.3410017902731
 30
0.0
 11
1334.748533469186
 21
358.3410017902731
 31
0.0
  0
LINE
  5
27E
  8
4
 10
1313.499812601731
 20
357.7718032811101
 30
0.0
 11
1331.499812601731
 21
362.7718032811101
 31
0.0
  0
LINE
  5
27F
  8
4
 10
1333.999812601731
 20
342.5370126352921
 30
0.0
 11
1334.969899090889
 21
342.7572195733972
 31
0.0
  0
ARC
  5
280
  8
4
 10
1334.748533469186
 20
343.7324104580587
 30
0.0
 40
1.0
 50
282.7892551895715
 51
0.0
  0
LINE
  5
281
  8
4
 10
1335.748533469186
 20
343.7324104580587
 30
0.0
 11
1335.748533469186
 21
357.3410017902731
 31
0.0
  0
LINE
  5
282
  8
4
 10
1335.748533469186
 20
342.9339674141968
 30
0.0
 11
1362.499812601731
 21
332.6089123104073
 31
0.0
  0
LINE
  5
283
  8
4
 10
1333.999812601731
 20
342.5370126352921
 30
0.0
 11
1362.499812601731
 21
331.5370126352921
 31
0.0
  0
LINE
  5
284
  8
4
 10
1335.748533469186
 20
241.8111961041616
 30
0.0
 11
1335.748533469186
 21
228.2026047719471
 31
0.0
  0
LINE
  5
285
  8
4
 10
1333.999812601731
 20
227.2026047719471
 30
0.0
 11
1334.748533469186
 21
227.2026047719471
 31
0.0
  0
ARC
  5
286
  8
4
 10
1334.748533469186
 20
228.2026047719471
 30
0.0
 40
1.0
 50
270.0
 51
0.0
  0
ARC
  5
287
  8
4
 10
1334.748533469186
 20
241.8111961041616
 30
0.0
 40
1.0
 50
0.0
 51
77.21074481042851
  0
LINE
  5
288
  8
4
 10
1333.999812601731
 20
243.0065939269282
 30
0.0
 11
1334.969899090889
 21
242.7863869888231
 31
0.0
  0
LINE
  5
289
  8
4
 10
1335.748533469186
 20
242.6096391480235
 30
0.0
 11
1362.499812601731
 21
252.934694251813
 31
0.0
  0
LINE
  5
28A
  8
4
 10
1333.999812601731
 20
243.0065939269282
 30
0.0
 11
1362.499812601731
 21
254.0065939269282
 31
0.0
  0
LINE
  5
28B
  8
4
 10
1313.499812601731
 20
227.5370126352921
 30
0.0
 11
1313.499812601731
 21
357.5370126352921
 31
0.0
  0
LINE
  5
28C
  8
4
 10
1313.499812601731
 20
357.7718032811101
 30
0.0
 11
1313.499812601731
 21
227.7718032811101
 31
0.0
  0
LINE
  5
28D
  8
4
 10
1333.999812601731
 20
243.0065939269282
 30
0.0
 11
1333.999812601731
 21
342.5370126352921
 31
0.0
  0
ARC
  5
28E
  8
4
 10
1362.499812601731
 20
109.7718032811101
 30
0.0
 40
15.0
 50
270.000932
 51
0.0
  0
LINE
  5
28F
  8
4
 10
1356.352857392873
 20
143.4024021739134
 30
0.0
 11
1331.499812601731
 21
222.7718032811101
 31
0.0
  0
ARC
  5
290
  8
4
 10
1296.499812601731
 20
91.77180328111012
 30
0.0
 40
3.0
 50
90.0
 51
180.0
  0
LINE
  5
291
  8
4
 10
1296.499812601731
 20
94.77180328111012
 30
0.0
 11
1376.499812601731
 21
159.7718032811101
 31
0.0
  0
LINE
  5
292
  8
4
 10
1331.499812601731
 20
362.7718032811101
 30
0.0
 11
1331.499812601731
 21
222.7718032811101
 31
0.0
  0
LINE
  5
293
  8
4
 10
1313.499812601731
 20
227.7718032811101
 30
0.0
 11
1331.499812601731
 21
222.7718032811101
 31
0.0
  0
LINE
  5
294
  8
4
 10
1359.275983999815
 20
145.7774425420539
 30
0.0
 11
1335.924438199215
 21
226.5938235034043
 31
0.0
  0
LINE
  5
295
  8
4
 10
1333.999812601731
 20
227.2026047719471
 30
0.0
 11
1357.859750078094
 21
144.6267524806553
 31
0.0
  0
LINE
  5
2A7
  8
4
 10
1293.499812601731
 20
52.77180328111012
 30
0.0
 11
1293.499812601731
 21
91.77180328111012
 31
0.0
  0
LINE
  5
2A8
  8
L-CENTER
 10
1323.499812601731
 20
37.77180328111012
 30
0.0
 11
1323.499812601731
 21
109.7718032811101
 31
0.0
  0
LINE
  5
2AA
  8
L-CENTER
 10
1601.916292133632
 20
292.7718032811101
 30
0.0
 11
1175.667505478046
 21
292.7718032811101
 31
0.0
  0
LINE
  5
2AD
  8
4
 10
1610.499812601731
 20
94.77180328111012
 30
0.0
 11
1296.499812601731
 21
94.77180328111012
 31
0.0
  0
LINE
  5
2AE
  8
4
 10
1613.499812601731
 20
52.77180328111012
 30
0.0
 11
1293.499812601731
 21
52.77180328111012
 31
0.0
  0
LINE
  5
2B0
  8
4
 10
1548.816418870059
 20
442.3055230012233
 30
0.0
 11
1573.399568601731
 21
362.7718032811101
 31
0.0
  0
LINE
  5
2B1
  8
4
 10
1575.668232714381
 20
362.2046372529478
 30
0.0
 11
1550.905182705676
 21
442.3203872811104
 31
0.0
  0
LINE
  5
2B2
  8
4
 10
1362.499812601731
 20
461.7718032811101
 30
0.0
 11
1331.499812601731
 21
362.7718032811101
 31
0.0
  0
LINE
  5
2B3
  8
4
 10
1333.999812601731
 20
358.3410017902731
 30
0.0
 11
1362.499812601731
 21
456.9754509640482
 31
0.0
  0
LINE
  5
2B4
  8
4
 10
1362.499812601731
 20
450.9233765949239
 30
0.0
 11
1335.924438199215
 21
358.9497830588159
 31
0.0
  0
LINE
  5
2B7
  8
4
 10
1532.499812601731
 20
158.1468032811101
 30
0.0
 11
1532.499812601731
 21
461.40315128111
 31
0.0
  0
LINE
  5
2B8
  8
4
 10
1530.499812601731
 20
159.7718032811101
 30
0.0
 11
1530.499812601731
 21
456.7718032811101
 31
0.0
  0
LINE
  5
2B9
  8
4
 10
1546.799716601731
 20
146.4468832811101
 30
0.0
 11
1546.799716601731
 21
486.7718032811101
 31
0.0
  0
LINE
  5
2BC
  8
4
 10
1362.499812601731
 20
148.3968032811101
 30
0.0
 11
1362.499812601731
 21
484.7718032811101
 31
0.0
  0
LINE
  5
2C0
  8
4
 10
1529.499812601731
 20
109.7718032811101
 30
0.0
 11
1529.499812601731
 21
454.7061312811102
 31
0.0
  0
LINE
  5
2C1
  8
4
 10
1377.499812601731
 20
109.7718032811101
 30
0.0
 11
1377.499812601731
 21
454.7061312811102
 31
0.0
  0
LINE
  5
2C2
  8
4
 10
1376.499812601731
 20
104.3865472811101
 30
0.0
 11
1376.499812601731
 21
456.7718032811101
 31
0.0
  0
LINE
  5
2C3
  8
L-CENTER
 10
1453.499812601731
 20
647.7442152811102
 30
0.0
 11
1453.499812601731
 21
39.4773394903425
 31
0.0
  0
ARC
  5
2C4
  8
4
 10
856.7940054842434
 20
1350.956724771899
 30
0.0
 40
5.0
 50
0.0
 51
90.0
  0
LINE
  5
2C5
  8
4
 10
791.7940054842434
 20
1355.956724771899
 30
0.0
 11
856.7940054842434
 21
1355.956724771899
 31
0.0
  0
LINE
  5
2C6
  8
4
 10
857.1903825383911
 20
1257.036901853759
 30
0.0
 11
848.5939094842433
 21
1257.036901853759
 31
0.0
  0
ARC
  5
2C7
  8
4
 10
834.7940054842434
 20
1288.356724771899
 30
0.0
 40
1.0
 50
0.0
 51
90.0
  0
LINE
  5
2C8
  8
4
 10
835.7940054842434
 20
1288.356724771899
 30
0.0
 11
835.7940054842434
 21
1280.956724771899
 31
0.0
  0
LINE
  5
2C9
  8
4
 10
835.7940054842434
 20
1288.356724771899
 30
0.0
 11
835.7940054842434
 21
1280.956724771899
 31
0.0
  0
ARC
  5
2CA
  8
4
 10
847.5940054842436
 20
1279.956724771899
 30
0.0
 40
1.0
 50
0.0
 51
90.0
  0
LINE
  5
2CB
  8
4
 10
835.6089600604669
 20
1289.356724771899
 30
0.0
 11
835.6089600604669
 21
1297.953197826047
 31
0.0
  0
LINE
  5
2CC
  8
4
 10
833.1552214164108
 20
1298.856724771899
 30
0.0
 11
818.4327895520755
 21
1298.856724771899
 31
0.0
  0
ARC
  5
2CD
  8
4
 10
825.7940054842434
 20
1285.07755947444
 30
0.0
 40
13.77916529745958
 50
69.13593563607864
 51
110.8640643639196
  0
ARC
  5
2CE
  8
4
 10
818.4327895520755
 20
1295.07311084284
 30
0.0
 40
3.783613929059507
 50
49.57010315516856
 51
130.4298968448253
  0
LINE
  5
2CF
  8
4
 10
821.7940054842434
 20
1271.956724771899
 30
0.0
 11
821.7940054842434
 21
1280.956724771899
 31
0.0
  0
ARC
  5
2D0
  8
4
 10
845.454585384171
 20
1236.909284905328
 30
0.0
 40
50.0
 50
118.2429710871652
 51
135.4968242045219
  0
LINE
  5
2D1
  8
4
 10
815.9790509080194
 20
1297.953197826047
 30
0.0
 11
815.9790509080194
 21
1289.356724771899
 31
0.0
  0
LINE
  5
2D2
  8
4
 10
820.8865281961312
 20
1297.953197826047
 30
0.0
 11
820.8865281961312
 21
1291.856724771899
 31
0.0
  0
LINE
  5
2D3
  8
4
 10
830.7014827723551
 20
1297.953197826047
 30
0.0
 11
830.7014827723551
 21
1291.856724771899
 31
0.0
  0
LINE
  5
2D4
  8
L-CENTER
 10
825.7940054842434
 20
1262.265190309463
 30
0.0
 11
825.7940054842434
 21
1301.724703026479
 31
0.0
  0
LINE
  5
2D5
  8
4
 10
815.9790509080194
 20
1289.356724771899
 30
0.0
 11
835.6089600604669
 21
1289.356724771899
 31
0.0
  0
LINE
  5
2D6
  8
4
 10
815.9790509080194
 20
1291.856724771899
 30
0.0
 11
835.6089600604669
 21
1291.856724771899
 31
0.0
  0
LINE
  5
2D7
  8
4
 10
821.7940054842434
 20
1280.956724771899
 30
0.0
 11
847.5940054842436
 21
1280.956724771899
 31
0.0
  0
LINE
  5
2D8
  8
L-CENTER
 10
805.4585679077195
 20
1325.956724771899
 30
0.0
 11
848.1294430607672
 21
1325.956724771899
 31
0.0
  0
ARC
  5
2D9
  8
4
 10
833.1552214164108
 20
1295.07311084284
 30
0.0
 40
3.783613929059507
 50
49.57010315516856
 51
130.4298968448253
  0
CIRCLE
  5
2DA
  8
4
 10
826.7940054842434
 20
1325.956724771899
 30
0.0
 40
11.0
  0
LINE
  5
2DB
  8
L-CENTER
 10
826.7940054842434
 20
1347.292162348423
 30
0.0
 11
826.7940054842434
 21
1304.621287195375
 31
0.0
  0
LINE
  5
2E2
  8
4
 10
857.1903825383911
 20
1252.129424565647
 30
0.0
 11
851.0939094842433
 21
1252.129424565647
 31
0.0
  0
LINE
  5
2E3
  8
4
 10
848.5939094842433
 20
1237.406992701312
 30
0.0
 11
857.1903825383911
 21
1237.406992701312
 31
0.0
  0
LINE
  5
2E4
  8
4
 10
857.1903825383911
 20
1242.314469989424
 30
0.0
 11
851.0939094842433
 21
1242.314469989424
 31
0.0
  0
ARC
  5
2E7
  8
4
 10
844.3147441867836
 20
1247.221947277535
 30
0.0
 40
13.77916529745958
 50
339.1359356360805
 51
20.86406436391942
  0
ARC
  5
2E8
  8
4
 10
854.310295555184
 20
1239.860731345368
 30
0.0
 40
3.783613929059507
 50
319.5701031551723
 51
40.42989684482771
  0
LINE
  5
2EA
  8
L-CENTER
 10
813.7940054842434
 20
1177.637175710072
 30
0.0
 11
813.7940054842434
 21
1214.276273833726
 31
0.0
  0
CIRCLE
  5
2EB
  8
4
 10
813.7940054842434
 20
1195.956724771899
 30
0.0
 40
11.0
  0
LINE
  5
2EC
  8
L-CENTER
 10
862.9375614842434
 20
1247.222104771899
 30
0.0
 11
820.3015455411846
 21
1247.221636625279
 31
0.0
  0
LINE
  5
2ED
  8
4
 10
858.0939094842433
 20
1152.05271819843
 30
0.0
 11
858.0939094842433
 21
1137.330286334095
 31
0.0
  0
LINE
  5
2EF
  8
4
 10
857.1903825383911
 20
1139.78402497815
 30
0.0
 11
851.0939094842433
 21
1139.78402497815
 31
0.0
  0
LINE
  5
2F0
  8
4
 10
857.1903825383911
 20
1149.598979554374
 30
0.0
 11
851.0939094842433
 21
1149.598979554374
 31
0.0
  0
LINE
  5
2F1
  8
4
 10
848.5939094842433
 20
1154.506456842486
 30
0.0
 11
857.1903825383911
 21
1154.506456842486
 31
0.0
  0
ARC
  5
2F3
  8
4
 10
844.3147441867836
 20
1144.691502266263
 30
0.0
 40
13.77916529745958
 50
339.1359356360805
 51
20.86406436391942
  0
ARC
  5
2F4
  8
4
 10
854.310295555184
 20
1152.05271819843
 30
0.0
 40
3.783613929059507
 50
319.5701031551723
 51
40.42989684482771
  0
LINE
  5
2F6
  8
4
 10
835.7940054842434
 20
1104.956724771899
 30
0.0
 11
835.7940054842434
 21
1110.956724771899
 31
0.0
  0
LINE
  5
2F7
  8
4
 10
857.1903825383911
 20
1134.876547690039
 30
0.0
 11
848.5939094842433
 21
1134.876547690039
 31
0.0
  0
ARC
  5
2F8
  8
4
 10
847.5940054842436
 20
1111.956724771899
 30
0.0
 40
1.0
 50
270.0
 51
0.0
  0
LINE
  5
2F9
  8
4
 10
851.0939094842433
 20
1134.876547690039
 30
0.0
 11
851.0939094842433
 21
1154.506456842486
 31
0.0
  0
LINE
  5
2FA
  8
4
 10
848.5939094842433
 20
1134.876547690039
 30
0.0
 11
848.5939094842433
 21
1154.506456842486
 31
0.0
  0
ARC
  5
2FB
  8
4
 10
854.310295555184
 20
1137.330286334095
 30
0.0
 40
3.783613929059507
 50
319.5701031551723
 51
40.42989684482771
  0
LINE
  5
2FC
  8
4
 10
821.7940054842434
 20
1110.956724771899
 30
0.0
 11
821.7940054842434
 21
1119.956724771899
 31
0.0
  0
ARC
  5
2FD
  8
4
 10
845.454585384171
 20
1155.00416463847
 30
0.0
 40
50.0
 50
224.503175795478
 51
241.7570289128348
  0
LINE
  5
2FE
  8
4
 10
821.7940054842434
 20
1110.956724771899
 30
0.0
 11
847.5940054842436
 21
1110.956724771899
 31
0.0
  0
LINE
  5
2FF
  8
L-CENTER
 10
862.9375614842434
 20
1144.691344771899
 30
0.0
 11
820.3015455411846
 21
1144.691812918519
 31
0.0
  0
LINE
  5
306
  8
4
 10
848.5940054842436
 20
1111.956724771899
 30
0.0
 11
848.5940054842436
 21
1279.956724771899
 31
0.0
  0
LINE
  5
307
  8
4
 10
834.7940054842434
 20
1110.956724771899
 30
0.0
 11
834.7940054842434
 21
1280.956724771899
 31
0.0
  0
LINE
  5
308
  8
4
 10
827.7940054842434
 20
1110.956724771899
 30
0.0
 11
827.7940054842434
 21
1280.956724771899
 31
0.0
  0
ARC
  5
309
  8
4
 10
854.310295555184
 20
1254.583163209703
 30
0.0
 40
3.783613929059507
 50
319.5701031551723
 51
40.42989684482771
  0
LINE
  5
30A
  8
4
 10
858.0939094842433
 20
1239.860731345368
 30
0.0
 11
858.0939094842433
 21
1254.583163209703
 31
0.0
  0
LINE
  5
30B
  8
4
 10
848.5939094842433
 20
1257.036901853759
 30
0.0
 11
848.5939094842433
 21
1237.406992701312
 31
0.0
  0
LINE
  5
30C
  8
4
 10
851.0939094842433
 20
1257.036901853759
 30
0.0
 11
851.0939094842433
 21
1237.406992701312
 31
0.0
  0
ARC
  5
312
  8
4
 10
706.0132290778392
 20
1334.956724771899
 30
0.0
 40
1.0
 50
14.03624346792014
 51
90.0
  0
ARC
  5
313
  8
4
 10
749.8244971667232
 20
1306.304628475845
 30
0.0
 40
2.0
 50
342.5661388826788
 51
349.9823318517376
  0
LINE
  5
314
  8
4
 10
741.1552214164108
 20
1298.856724771899
 30
0.0
 11
726.4327895520755
 21
1298.856724771899
 31
0.0
  0
ARC
  5
315
  8
4
 10
733.7940054842434
 20
1285.07755947444
 30
0.0
 40
13.77916529745958
 50
69.13593563608042
 51
110.8640643639196
  0
ARC
  5
316
  8
4
 10
726.4327895520755
 20
1295.07311084284
 30
0.0
 40
3.783613929059507
 50
49.57010315517471
 51
130.4298968448253
  0
ARC
  5
317
  8
4
 10
741.1552214164108
 20
1295.07311084284
 30
0.0
 40
3.783613929059507
 50
49.57010315516856
 51
130.4298968448315
  0
LINE
  5
318
  8
4
 10
723.9790509080194
 20
1289.356724771899
 30
0.0
 11
743.6089600604669
 21
1289.356724771899
 31
0.0
  0
LINE
  5
319
  8
4
 10
723.9790509080194
 20
1291.856724771899
 30
0.0
 11
743.6089600604669
 21
1291.856724771899
 31
0.0
  0
LINE
  5
31A
  8
4
 10
723.9790509080194
 20
1297.953197826047
 30
0.0
 11
723.9790509080194
 21
1289.356724771899
 31
0.0
  0
LINE
  5
31B
  8
4
 10
728.8865281961312
 20
1297.953197826047
 30
0.0
 11
728.8865281961312
 21
1291.856724771899
 31
0.0
  0
LINE
  5
31C
  8
4
 10
743.6089600604669
 20
1289.356724771899
 30
0.0
 11
743.6089600604669
 21
1297.953197826047
 31
0.0
  0
LINE
  5
31D
  8
4
 10
738.7014827723551
 20
1297.953197826047
 30
0.0
 11
738.7014827723551
 21
1291.856724771899
 31
0.0
  0
LINE
  5
31E
  8
L-CENTER
 10
733.7940054842434
 20
1262.265190309463
 30
0.0
 11
733.7940054842434
 21
1301.724703026479
 31
0.0
  0
LINE
  5
31F
  8
4
 10
711.7940054842438
 20
1315.956724771899
 30
0.0
 11
706.9833715779841
 21
1335.199260396935
 31
0.0
  0
LINE
  5
320
  8
4
 10
786.7940054842434
 20
1350.956724771899
 30
0.0
 11
786.7940054842434
 21
1294.86826483948
 31
0.0
  0
LINE
  5
322
  8
4
 10
691.7940054842434
 20
1336.956724771899
 30
0.0
 11
691.7940054842434
 21
1335.956724771899
 31
0.0
  0
LINE
  5
325
  8
4
 10
691.7940054842434
 20
1317.956724771899
 30
0.0
 11
691.7940054842434
 21
1315.956724771898
 31
0.0
  0
LINE
  5
326
  8
4
 10
661.7940054842434
 20
1305.956724771899
 30
0.0
 11
661.7940054842434
 21
1293.322810294026
 31
0.0
  0
LINE
  5
327
  8
4
 10
691.7940054842434
 20
1315.956724771899
 30
0.0
 11
682.2319139809756
 21
1289.356724771899
 31
0.0
  0
LINE
  5
328
  8
4
 10
691.7940054842434
 20
1317.956724771899
 30
0.0
 11
681.5129597326095
 21
1289.356724771899
 31
0.0
  0
LINE
  5
329
  8
4
 10
621.7940054842434
 20
1305.956724771899
 30
0.0
 11
621.7940054842434
 21
1293.322810294026
 31
0.0
  0
LINE
  5
32A
  8
4
 10
661.7940054842434
 20
1305.956724771899
 30
0.0
 11
621.7940054842434
 21
1305.956724771899
 31
0.0
  0
LINE
  5
32B
  8
4
 10
661.7940054842429
 20
1293.322810294026
 30
0.0
 11
621.7940054842434
 21
1293.322810294026
 31
0.0
  0
LINE
  5
32C
  8
4
 10
691.7940054842434
 20
1315.956724771899
 30
0.0
 11
706.0132290778392
 21
1315.956724771899
 31
0.0
  0
ARC
  5
32D
  8
4
 10
665.5440054842434
 20
1195.956724771899
 30
0.0
 40
6.25
 50
270.0
 51
90.0
  0
ARC
  5
32E
  8
4
 10
618.0440054842434
 20
1195.956724771899
 30
0.0
 40
6.25
 50
90.0
 51
270.0
  0
ARC
  5
32F
  8
4
 10
641.7940054842434
 20
1195.956724771899
 30
0.0
 40
13.5
 50
27.57846797812199
 51
152.421532021878
  0
ARC
  5
330
  8
4
 10
641.7940054842434
 20
1195.956724771899
 30
0.0
 40
13.5
 50
207.5784679781241
 51
332.4215320218769
  0
ARC
  5
331
  8
4
 10
641.7940054842434
 20
1195.956724771899
 30
0.0
 40
20.0
 50
198.209956864283
 51
341.790043135717
  0
LINE
  5
332
  8
4
 10
618.0440054842434
 20
1189.706724771899
 30
0.0
 11
665.5440054842434
 21
1189.706724771899
 31
0.0
  0
LINE
  5
333
  8
4
 10
618.0440054842434
 20
1202.206724771899
 30
0.0
 11
665.5440054842434
 21
1202.206724771899
 31
0.0
  0
ARC
  5
334
  8
4
 10
641.7940054842434
 20
1195.956724771899
 30
0.0
 40
15.0
 50
24.62431835216307
 51
155.3756816478369
  0
ARC
  5
335
  8
4
 10
641.7940054842434
 20
1195.956724771899
 30
0.0
 40
15.0
 50
204.624318352165
 51
335.3756816478359
  0
ARC
  5
336
  8
4
 10
641.7940054842434
 20
1195.956724771899
 30
0.0
 40
20.0
 50
18.20995686428299
 51
161.790043135717
  0
LINE
  5
337
  8
4
 10
691.452302557725
 20
1076.733724771899
 30
0.0
 11
680.5592148384253
 21
1104.956724771899
 31
0.0
  0
LINE
  5
338
  8
4
 10
692.5242022328382
 20
1076.733724771899
 30
0.0
 11
681.6311145135405
 21
1104.956724771899
 31
0.0
  0
LINE
  5
33A
  8
4
 10
591.7940054842434
 20
1336.956724771899
 30
0.0
 11
591.7940054842434
 21
1335.956724771899
 31
0.0
  0
ARC
  5
33C
  8
4
 10
577.574781890648
 20
1334.956724771899
 30
0.0
 40
1.0
 50
90.0
 51
165.9637565320799
  0
LINE
  5
33D
  8
4
 10
591.7940054842434
 20
1317.956724771899
 30
0.0
 11
591.7940054842434
 21
1315.956724771898
 31
0.0
  0
LINE
  5
33E
  8
4
 10
577.574781890648
 20
1315.956724771899
 30
0.0
 11
591.7940054842434
 21
1315.956724771899
 31
0.0
  0
LINE
  5
33F
  8
4
 10
591.7940054842434
 20
1317.956724771899
 30
0.0
 11
602.0750512358777
 21
1289.356724771899
 31
0.0
  0
LINE
  5
340
  8
4
 10
591.7940054842434
 20
1315.956724771899
 30
0.0
 11
601.3560969875111
 21
1289.356724771899
 31
0.0
  0
ARC
  5
341
  8
4
 10
557.1552214164112
 20
1295.07311084284
 30
0.0
 40
3.783613929059507
 50
49.57010315517471
 51
130.4298968448253
  0
LINE
  5
342
  8
4
 10
542.432789552076
 20
1298.856724771899
 30
0.0
 11
557.1552214164112
 21
1298.856724771899
 31
0.0
  0
ARC
  5
343
  8
4
 10
549.7940054842434
 20
1285.07755947444
 30
0.0
 40
13.77916529745958
 50
69.13593563608042
 51
110.8640643639196
  0
ARC
  5
344
  8
4
 10
538.7940054842434
 20
1307.850083021299
 30
0.0
 40
2.0
 50
180.0
 51
197.1759036157507
  0
LINE
  5
345
  8
4
 10
536.7940054842434
 20
1307.956724771899
 30
0.0
 11
536.7940054842434
 21
1307.850083021299
 31
0.0
  0
ARC
  5
346
  8
4
 10
542.432789552076
 20
1295.07311084284
 30
0.0
 40
3.783613929059507
 50
49.57010315516856
 51
130.4298968448315
  0
LINE
  5
347
  8
4
 10
559.6089600604673
 20
1291.856724771899
 30
0.0
 11
539.9790509080199
 21
1291.856724771899
 31
0.0
  0
LINE
  5
348
  8
4
 10
559.6089600604673
 20
1289.356724771899
 30
0.0
 11
539.9790509080199
 21
1289.356724771899
 31
0.0
  0
LINE
  5
349
  8
L-CENTER
 10
549.7940054842434
 20
1262.265190309463
 30
0.0
 11
549.7940054842434
 21
1301.724703026479
 31
0.0
  0
LINE
  5
34A
  8
4
 10
554.7014827723556
 20
1297.953197826047
 30
0.0
 11
554.7014827723556
 21
1291.856724771899
 31
0.0
  0
LINE
  5
34B
  8
4
 10
544.8865281961316
 20
1297.953197826047
 30
0.0
 11
544.8865281961316
 21
1291.856724771899
 31
0.0
  0
LINE
  5
34C
  8
4
 10
539.9790509080199
 20
1289.356724771899
 30
0.0
 11
539.9790509080199
 21
1297.953197826047
 31
0.0
  0
LINE
  5
34D
  8
4
 10
559.6089600604673
 20
1297.953197826047
 30
0.0
 11
559.6089600604673
 21
1289.356724771899
 31
0.0
  0
LINE
  5
34E
  8
4
 10
571.7940054842434
 20
1315.956724771899
 30
0.0
 11
576.6046393905026
 21
1335.199260396935
 31
0.0
  0
ARC
  5
34F
  8
4
 10
491.7940054842434
 20
1350.956724771899
 30
0.0
 40
5.0
 50
0.0
 51
90.0
  0
LINE
  5
350
  8
4
 10
486.7940054842434
 20
1307.956724771899
 30
0.0
 11
486.7940054842434
 21
1291.777355748571
 31
0.0
  0
ARC
  5
351
  8
4
 10
465.1552214164112
 20
1295.07311084284
 30
0.0
 40
3.783613929059507
 50
49.57010315517471
 51
130.4298968448315
  0
ARC
  5
352
  8
4
 10
457.7940054842434
 20
1285.07755947444
 30
0.0
 40
13.77916529745958
 50
69.13593563607996
 51
110.8640643639201
  0
LINE
  5
353
  8
4
 10
450.432789552076
 20
1298.856724771899
 30
0.0
 11
465.1552214164112
 21
1298.856724771899
 31
0.0
  0
ARC
  5
354
  8
4
 10
450.432789552076
 20
1295.07311084284
 30
0.0
 40
3.783613929059507
 50
49.57010315517471
 51
130.4298968448315
  0
LINE
  5
355
  8
4
 10
461.7940054842434
 20
1271.956724771899
 30
0.0
 11
461.7940054842434
 21
1280.956724771899
 31
0.0
  0
ARC
  5
356
  8
4
 10
435.9940054842436
 20
1279.956724771899
 30
0.0
 40
1.0
 50
90.0
 51
180.0
  0
ARC
  5
357
  8
4
 10
448.7940054842434
 20
1288.356724771899
 30
0.0
 40
1.0
 50
90.0
 51
180.0
  0
LINE
  5
358
  8
4
 10
447.7940054842434
 20
1288.356724771899
 30
0.0
 11
447.7940054842434
 21
1280.956724771899
 31
0.0
  0
LINE
  5
359
  8
4
 10
435.9940054842436
 20
1280.956724771899
 30
0.0
 11
461.7940054842434
 21
1280.956724771899
 31
0.0
  0
LINE
  5
35A
  8
4
 10
467.6089600604673
 20
1289.356724771899
 30
0.0
 11
447.9790509080199
 21
1289.356724771899
 31
0.0
  0
LINE
  5
35B
  8
4
 10
467.6089600604673
 20
1291.856724771899
 30
0.0
 11
447.9790509080199
 21
1291.856724771899
 31
0.0
  0
LINE
  5
35C
  8
L-CENTER
 10
457.7940054842434
 20
1262.265190309463
 30
0.0
 11
457.7940054842434
 21
1301.724703026479
 31
0.0
  0
LINE
  5
35D
  8
4
 10
447.9790509080199
 20
1289.356724771899
 30
0.0
 11
447.9790509080199
 21
1297.953197826047
 31
0.0
  0
LINE
  5
35E
  8
4
 10
462.7014827723556
 20
1297.953197826047
 30
0.0
 11
462.7014827723556
 21
1291.856724771899
 31
0.0
  0
LINE
  5
35F
  8
4
 10
467.6089600604673
 20
1297.953197826047
 30
0.0
 11
467.6089600604673
 21
1289.356724771899
 31
0.0
  0
LINE
  5
360
  8
4
 10
452.8865281961316
 20
1297.953197826047
 30
0.0
 11
452.8865281961316
 21
1291.856724771899
 31
0.0
  0
ARC
  5
361
  8
4
 10
438.1334255843158
 20
1236.909284905328
 30
0.0
 40
50.0
 50
44.50317579547803
 51
61.75702891283468
  0
LINE
  5
362
  8
L-CENTER
 10
435.4585679077195
 20
1325.956724771899
 30
0.0
 11
478.1294430607672
 21
1325.956724771899
 31
0.0
  0
LINE
  5
363
  8
L-CENTER
 10
456.7940054842434
 20
1347.292162348423
 30
0.0
 11
456.7940054842434
 21
1304.621287195375
 31
0.0
  0
CIRCLE
  5
364
  8
4
 10
456.7940054842434
 20
1325.956724771899
 30
0.0
 40
11.0
  0
LINE
  5
365
  8
4
 10
496.7940054842434
 20
1350.956724771899
 30
0.0
 11
496.7940054842434
 21
1307.956724771899
 31
0.0
  0
LINE
  5
366
  8
4
 10
571.7940054842434
 20
1315.956724771899
 30
0.0
 11
485.7351819548317
 21
1289.356724771899
 31
0.0
  0
LINE
  5
367
  8
4
 10
478.9625523244208
 20
1289.356724771899
 30
0.0
 11
572.3611715124057
 21
1318.225388884549
 31
0.0
  0
LINE
  5
368
  8
4
 10
486.7940054842434
 20
1307.956724771899
 30
0.0
 11
536.7940054842434
 21
1307.956724771899
 31
0.0
  0
POLYLINE
  5
369
  8
4
 66
     1
 10
0.0
 20
0.0
 30
0.0
 70
     1
  0
VERTEX
  5
67D
  8
4
 10
566.7940054842434
 20
1195.956724771899
 30
0.0
  0
VERTEX
  5
67E
  8
4
 10
555.2940054842434
 20
1215.875309058941
 30
0.0
  0
VERTEX
  5
67F
  8
4
 10
532.2940054842434
 20
1215.875309058941
 30
0.0
  0
VERTEX
  5
680
  8
4
 10
520.7940054842434
 20
1195.956724771899
 30
0.0
  0
VERTEX
  5
681
  8
4
 10
532.2940054842434
 20
1176.038140484857
 30
0.0
  0
VERTEX
  5
682
  8
4
 10
555.2940054842434
 20
1176.038140484857
 30
0.0
  0
SEQEND
  5
6AD
  8
4
  0
LINE
  5
36A
  8
4
 10
592.1357084107616
 20
1076.733724771899
 30
0.0
 11
603.0287961300614
 21
1104.956724771899
 31
0.0
  0
LINE
  5
36B
  8
4
 10
591.0638087356483
 20
1076.733724771899
 30
0.0
 11
601.9568964549462
 21
1104.956724771899
 31
0.0
  0
CIRCLE
  5
36C
  8
4
 10
543.7940054842434
 20
1195.956724771899
 30
0.0
 40
23.0
  0
CIRCLE
  5
36D
  8
4
 10
543.7940054842434
 20
1195.956724771899
 30
0.0
 40
25.0
  0
LINE
  5
36E
  8
L-CENTER
 10
543.7940054842434
 20
1162.766259254753
 30
0.0
 11
543.7940054842434
 21
1229.147190289045
 31
0.0
  0
LINE
  5
36F
  8
L-CENTER
 10
469.7940054842434
 20
1177.637175710072
 30
0.0
 11
469.7940054842434
 21
1214.276273833726
 31
0.0
  0
CIRCLE
  5
370
  8
4
 10
469.7940054842434
 20
1195.956724771899
 30
0.0
 40
11.0
  0
LINE
  5
371
  8
4
 10
461.7940054842434
 20
1110.956724771899
 30
0.0
 11
461.7940054842434
 21
1119.956724771899
 31
0.0
  0
LINE
  5
372
  8
4
 10
447.7940054842434
 20
1104.956724771899
 30
0.0
 11
447.7940054842434
 21
1110.956724771899
 31
0.0
  0
ARC
  5
373
  8
4
 10
435.9940054842432
 20
1111.956724771899
 30
0.0
 40
1.0
 50
180.0
 51
270.0
  0
LINE
  5
374
  8
4
 10
435.9940054842432
 20
1110.956724771899
 30
0.0
 11
461.7940054842434
 21
1110.956724771899
 31
0.0
  0
LINE
  5
375
  8
4
 10
432.4941014842434
 20
1134.891296771899
 30
0.0
 11
432.4941014842434
 21
1154.491392771899
 31
0.0
  0
LINE
  5
376
  8
4
 10
434.9941014842434
 20
1134.876547690039
 30
0.0
 11
434.9941014842434
 21
1154.506456842486
 31
0.0
  0
LINE
  5
377
  8
4
 10
432.4941014842434
 20
1134.876547690039
 30
0.0
 11
432.4941014842434
 21
1154.506456842486
 31
0.0
  0
ARC
  5
378
  8
4
 10
438.1334255843158
 20
1155.00416463847
 30
0.0
 40
50.0
 50
298.2429710871652
 51
315.4968242045218
  0
LINE
  5
379
  8
4
 10
434.9940054842432
 20
1111.956724771899
 30
0.0
 11
434.9940054842436
 21
1279.956724771899
 31
0.0
  0
LINE
  5
37A
  8
4
 10
455.7940054842434
 20
1110.956724771899
 30
0.0
 11
455.7940054842434
 21
1280.956724771899
 31
0.0
  0
LINE
  5
37B
  8
4
 10
448.7940054842434
 20
1110.956724771899
 30
0.0
 11
448.7940054842434
 21
1280.956724771899
 31
0.0
  0
LINE
  5
37C
  8
4
 10
432.4941014842434
 20
1257.036901853759
 30
0.0
 11
432.4941014842434
 21
1237.406992701312
 31
0.0
  0
LINE
  5
37D
  8
4
 10
434.9941014842434
 20
1257.036901853759
 30
0.0
 11
434.9941014842434
 21
1237.406992701312
 31
0.0
  0
LINE
  5
37F
  8
4
 10
591.7940054842434
 20
1336.956724771899
 30
0.0
 11
691.7940054842434
 21
1336.956724771899
 31
0.0
  0
LINE
  5
380
  8
4
 10
591.7940054842434
 20
1317.956724771899
 30
0.0
 11
691.7940054842434
 21
1317.956724771899
 31
0.0
  0
LINE
  5
381
  8
4
 10
577.574781890648
 20
1335.956724771899
 30
0.0
 11
706.0132290778392
 21
1335.956724771899
 31
0.0
  0
LINE
  5
386
  8
4
 10
448.7940054842434
 20
1289.356724771899
 30
0.0
 11
834.7940054842434
 21
1289.356724771899
 31
0.0
  0
LINE
  5
387
  8
4
 10
447.7940054842434
 20
1104.956724771899
 30
0.0
 11
835.7940054842434
 21
1104.956724771899
 31
0.0
  0
LINE
  5
388
  8
4
 10
455.7940054842434
 20
1119.956724771899
 30
0.0
 11
827.7940054842434
 21
1119.956724771899
 31
0.0
  0
LINE
  5
389
  8
4
 10
455.7940054842434
 20
1271.956724771899
 30
0.0
 11
827.7940054842434
 21
1271.956724771899
 31
0.0
  0
LINE
  5
38A
  8
4
 10
470.5740223667376
 20
1274.956724771899
 30
0.0
 11
813.0139886017491
 21
1274.956724771899
 31
0.0
  0
LINE
  5
38B
  8
4
 10
472.7828423047454
 20
1272.956724771899
 30
0.0
 11
810.8051686637414
 21
1272.956724771899
 31
0.0
  0
LINE
  5
38C
  8
4
 10
472.7828423047454
 20
1118.956724771899
 30
0.0
 11
679.7511483408198
 21
1118.956724771899
 31
0.0
  0
LINE
  5
38D
  8
4
 10
799.7940054842468
 20
1118.956724771899
 30
0.0
 11
810.8051686637414
 21
1118.956724771899
 31
0.0
  0
LINE
  5
38E
  8
4
 10
804.6254586440659
 20
1289.356724771899
 30
0.0
 11
711.226839456081
 21
1318.225388884549
 31
0.0
  0
LINE
  5
38F
  8
4
 10
711.7940054842434
 20
1315.956724771899
 30
0.0
 11
797.8528290136551
 21
1289.356724771899
 31
0.0
  0
ARC
  5
390
  8
4
 10
791.7940054842434
 20
1350.956724771899
 30
0.0
 40
5.0
 50
90.0
 51
180.0
  0
ARC
  5
391
  8
4
 10
856.7940054842434
 20
1040.956724771899
 30
0.0
 40
5.0
 50
270.0
 51
0.0
  0
LINE
  5
392
  8
L-CENTER
 10
826.7940054842434
 20
1044.621287195375
 30
0.0
 11
826.7940054842434
 21
1087.292162348423
 31
0.0
  0
LINE
  5
393
  8
L-CENTER
 10
805.4585679077195
 20
1065.956724771899
 30
0.0
 11
848.1294430607672
 21
1065.956724771899
 31
0.0
  0
LINE
  5
394
  8
4
 10
791.7940054842434
 20
1035.956724771899
 30
0.0
 11
856.7940054842434
 21
1035.956724771899
 31
0.0
  0
CIRCLE
  5
395
  8
4
 10
826.7940054842434
 20
1065.956724771899
 30
0.0
 40
11.0
  0
LINE
  5
39F
  8
4
 10
857.1903825383911
 20
548.9445030748586
 30
0.0
 11
851.0939094842433
 21
548.9445030748586
 31
0.0
  0
LINE
  5
3A0
  8
4
 10
857.1903825383911
 20
553.8519803629704
 30
0.0
 11
848.5939094842433
 21
553.8519803629704
 31
0.0
  0
ARC
  5
3A1
  8
4
 10
854.310295555184
 20
551.3982417189143
 30
0.0
 40
3.783613929059507
 50
319.5701031551723
 51
40.42989684482771
  0
LINE
  5
3A2
  8
4
 10
824.7940054842434
 20
598.7718032811101
 30
0.0
 11
813.7940054842434
 21
598.7718032811101
 31
0.0
  0
LINE
  5
3A3
  8
4
 10
822.7940054842434
 20
599.7718032811101
 30
0.0
 11
813.7940054842434
 21
599.7718032811101
 31
0.0
  0
LINE
  5
3A4
  8
4
 10
813.7940054842434
 20
596.7718032811101
 30
0.0
 11
824.7940054842434
 21
596.7718032811101
 31
0.0
  0
ARC
  5
3A5
  8
4
 10
823.7940054842434
 20
582.7718032811101
 30
0.0
 40
4.0
 50
90.0
 51
180.0
  0
LINE
  5
3A6
  8
4
 10
823.7940054842434
 20
586.7718032811101
 30
0.0
 11
813.7940054842434
 21
586.7718032811101
 31
0.0
  0
ARC
  5
3A7
  8
4
 10
816.7940054842434
 20
577.7718032811101
 30
0.0
 40
5.0
 50
53.13010200000199
 51
126.869897999998
  0
LINE
  5
3A8
  8
4
 10
823.7940054842434
 20
586.7718032811101
 30
0.0
 11
823.7940054842434
 21
596.7718032811101
 31
0.0
  0
LINE
  5
3A9
  8
4
 10
824.7940054842434
 20
598.7718032811101
 30
0.0
 11
824.7940054842434
 21
596.7718032811101
 31
0.0
  0
LINE
  5
3AA
  8
4
 10
822.7940054842434
 20
599.7718032811101
 30
0.0
 11
824.7940054842434
 21
598.7718032811101
 31
0.0
  0
ARC
  5
3AB
  8
4
 10
803.7940054842434
 20
582.7718032811101
 30
0.0
 40
4.0
 50
0.0
 51
90.0
  0
LINE
  5
3AC
  8
4
 10
803.7940054842434
 20
586.7718032811101
 30
0.0
 11
803.7940054842434
 21
596.7718032811101
 31
0.0
  0
LINE
  5
3AD
  8
4
 10
804.7940054842434
 20
599.7718032811101
 30
0.0
 11
802.7940054842434
 21
598.7718032811101
 31
0.0
  0
LINE
  5
3AE
  8
4
 10
802.7940054842434
 20
598.7718032811101
 30
0.0
 11
802.7940054842434
 21
596.7718032811101
 31
0.0
  0
LINE
  5
3AF
  8
4
 10
816.7940054842434
 20
582.7718032811101
 30
0.0
 11
810.7940054842434
 21
582.7718032811101
 31
0.0
  0
ARC
  5
3B0
  8
4
 10
810.7940054842434
 20
577.7718032811101
 30
0.0
 40
5.0
 50
53.13010200000199
 51
126.869897999998
  0
LINE
  5
3B1
  8
4
 10
803.7940054842434
 20
586.7718032811101
 30
0.0
 11
813.7940054842434
 21
586.7718032811101
 31
0.0
  0
LINE
  5
3B2
  8
4
 10
813.7940054842434
 20
596.7718032811101
 30
0.0
 11
802.7940054842434
 21
596.7718032811101
 31
0.0
  0
LINE
  5
3B3
  8
4
 10
804.7940054842434
 20
599.7718032811101
 30
0.0
 11
813.7940054842434
 21
599.7718032811101
 31
0.0
  0
LINE
  5
3B4
  8
4
 10
802.7940054842434
 20
598.7718032811101
 30
0.0
 11
813.7940054842434
 21
598.7718032811101
 31
0.0
  0
LINE
  5
3B5
  8
4
 10
819.7940054842434
 20
577.7718032811101
 30
0.0
 11
813.7940054842434
 21
577.7718032811101
 31
0.0
  0
LINE
  5
3B6
  8
4
 10
807.7940054842434
 20
577.7718032811101
 30
0.0
 11
813.7940054842434
 21
577.7718032811101
 31
0.0
  0
LINE
  5
3B7
  8
L-CENTER
 10
813.7940054842434
 20
604.6413112811101
 30
0.0
 11
813.7940054842434
 21
565.5365019605445
 31
0.0
  0
LINE
  5
3B8
  8
4
 10
819.7940054842434
 20
577.7718032811101
 30
0.0
 11
819.7940054842434
 21
582.7718032811101
 31
0.0
  0
LINE
  5
3B9
  8
4
 10
807.7940054842434
 20
577.7718032811101
 30
0.0
 11
807.7940054842434
 21
582.7718032811101
 31
0.0
  0
LINE
  5
3BA
  8
L-CENTER
 10
862.9375614842434
 20
544.0371832811102
 30
0.0
 11
822.8359087157414
 21
544.0367429619862
 31
0.0
  0
LINE
  5
3C1
  8
4
 10
848.5939094842433
 20
534.2220712105229
 30
0.0
 11
857.1903825383911
 21
534.2220712105229
 31
0.0
  0
LINE
  5
3C2
  8
4
 10
857.1903825383911
 20
539.1295484986347
 30
0.0
 11
851.0939094842433
 21
539.1295484986347
 31
0.0
  0
ARC
  5
3C4
  8
4
 10
854.310295555184
 20
536.675809854579
 30
0.0
 40
3.783613929059507
 50
319.5701031551686
 51
40.42989684482771
  0
LINE
  5
3C8
  8
4
 10
821.7940054842434
 20
525.6493157014686
 30
0.0
 11
827.7940054842434
 21
525.6493157014686
 31
0.0
  0
ARC
  5
3C9
  8
4
 10
812.5027454842434
 20
463.4805432811102
 30
0.0
 40
4.999984
 50
14.21741799999944
 51
75.77919899999851
  0
LINE
  5
3CA
  8
4
 10
858.0939094842433
 20
448.8677967076412
 30
0.0
 11
858.0939094842433
 21
434.145364843306
 31
0.0
  0
LINE
  5
3CB
  8
4
 10
848.5939094842433
 20
451.3215353516973
 30
0.0
 11
857.1903825383911
 21
451.3215353516973
 31
0.0
  0
LINE
  5
3CC
  8
4
 10
848.5939094842433
 20
431.6916261992499
 30
0.0
 11
848.5939094842433
 21
451.3215353516973
 31
0.0
  0
LINE
  5
3CD
  8
4
 10
851.0939094842433
 20
431.6916261992499
 30
0.0
 11
851.0939094842433
 21
451.3215353516973
 31
0.0
  0
LINE
  5
3CE
  8
4
 10
857.1903825383911
 20
436.5991034873616
 30
0.0
 11
851.0939094842433
 21
436.5991034873616
 31
0.0
  0
LINE
  5
3CF
  8
4
 10
857.1903825383911
 20
446.4140580635856
 30
0.0
 11
851.0939094842433
 21
446.4140580635856
 31
0.0
  0
LINE
  5
3D0
  8
4
 10
857.1903825383911
 20
431.6916261992499
 30
0.0
 11
848.5939094842433
 21
431.6916261992499
 31
0.0
  0
ARC
  5
3D2
  8
4
 10
854.310295555184
 20
448.8677967076413
 30
0.0
 40
3.783613929059507
 50
319.5701031551699
 51
40.42989684483014
  0
ARC
  5
3D3
  8
4
 10
854.310295555184
 20
434.145364843306
 30
0.0
 40
3.783613929059507
 50
319.5701031551699
 51
40.42989684483014
  0
ARC
  5
3D4
  8
4
 10
844.3147441867836
 20
441.5065807754738
 30
0.0
 40
13.77916529745958
 50
339.1359356360801
 51
20.86406436391987
  0
LINE
  5
3D5
  8
4
 10
821.7940054842434
 20
460.6536372354209
 30
0.0
 11
827.7940054842434
 21
460.6536372354209
 31
0.0
  0
LINE
  5
3D6
  8
4
 10
827.7940054842434
 20
416.3799592811101
 30
0.0
 11
827.7940054842434
 21
460.6536372354209
 31
0.0
  0
LINE
  5
3D7
  8
4
 10
829.2830174842434
 20
407.7718032811101
 30
0.0
 11
848.5939094842433
 21
407.7718032811101
 31
0.0
  0
LINE
  5
3D8
  8
L-CENTER
 10
862.9375614842434
 20
441.5064232811101
 30
0.0
 11
822.834782930056
 21
441.5068636125953
 31
0.0
  0
ARC
  5
3D9
  8
4
 10
859.792563946171
 20
493.1514764684447
 30
0.0
 40
50.0
 50
139.4616562984866
 51
220.5383437015134
  0
LINE
  5
3DA
  8
4
 10
821.7940054842434
 20
525.6493157014686
 30
0.0
 11
821.7940054842434
 21
460.6536372354211
 31
0.0
  0
LINE
  5
3DF
  8
4
 10
858.0939094842433
 20
536.675809854579
 30
0.0
 11
858.0939094842433
 21
551.3982417189143
 31
0.0
  0
ARC
  5
3E0
  8
4
 10
844.3147441867836
 20
544.0370257867464
 30
0.0
 40
13.77916529745958
 50
339.1359356360805
 51
20.86406436391942
  0
LINE
  5
3E1
  8
4
 10
848.5939094842433
 20
553.8519803629704
 30
0.0
 11
848.5939094842433
 21
534.2220712105229
 31
0.0
  0
LINE
  5
3E2
  8
4
 10
851.0939094842433
 20
553.8519803629704
 30
0.0
 11
851.0939094842433
 21
534.2220712105229
 31
0.0
  0
LINE
  5
3E3
  8
4
 10
827.7940054842434
 20
525.6493157014686
 30
0.0
 11
827.7940054842434
 21
577.7718032811101
 31
0.0
  0
LINE
  5
3E4
  8
4
 10
848.5939094842433
 20
577.7718032811101
 30
0.0
 11
848.5939094842433
 21
407.7718032811101
 31
0.0
  0
LINE
  5
3E5
  8
4
 10
834.7940054842434
 20
407.7718032811101
 30
0.0
 11
834.7940054842434
 21
577.7718032811101
 31
0.0
  0
LINE
  5
3E9
  8
4
 10
786.7940054842434
 20
1040.956724771899
 30
0.0
 11
786.7940054842434
 21
1097.441573256748
 31
0.0
  0
ARC
  5
3EA
  8
4
 10
706.3632039934064
 20
1077.205445639354
 30
0.0
 40
1.0
 50
0.0
 51
64.48156447963977
  0
LINE
  5
3EB
  8
4
 10
707.3632039934064
 20
1076.456724771899
 30
0.0
 11
707.3632039934064
 21
1077.205445639354
 31
0.0
  0
LINE
  5
3EC
  8
4
 10
706.7940054842434
 20
1055.956724771899
 30
0.0
 11
711.7940054842434
 21
1073.956724771899
 31
0.0
  0
LINE
  5
3ED
  8
4
 10
691.5592148384253
 20
1076.456724771899
 30
0.0
 11
691.6220930689096
 21
1076.733724771899
 31
0.0
  0
LINE
  5
3EE
  8
4
 10
691.5592148384253
 20
1076.456724771899
 30
0.0
 11
691.4523025577237
 21
1076.733724771899
 31
0.0
  0
LINE
  5
3EF
  8
4
 10
691.4523025577237
 20
1076.733724771899
 30
0.0
 11
706.7940054842434
 21
1076.733724771899
 31
0.0
  0
LINE
  5
3F5
  8
4
 10
592.0287961300614
 20
1076.456724771899
 30
0.0
 11
591.9659178995771
 21
1076.733724771899
 31
0.0
  0
LINE
  5
3F6
  8
4
 10
592.0287961300614
 20
1076.456724771899
 30
0.0
 11
592.1357084107631
 21
1076.733724771899
 31
0.0
  0
LINE
  5
3F7
  8
4
 10
576.2248069750804
 20
1076.456724771899
 30
0.0
 11
576.2248069750804
 21
1077.205445639354
 31
0.0
  0
ARC
  5
3F8
  8
4
 10
577.2248069750804
 20
1077.205445639354
 30
0.0
 40
1.0
 50
115.5184355203603
 51
180.0
  0
LINE
  5
3F9
  8
4
 10
576.7940054842434
 20
1076.733724771899
 30
0.0
 11
592.1357084107631
 21
1076.733724771899
 31
0.0
  0
LINE
  5
3FA
  8
4
 10
576.7940054842434
 20
1055.956724771899
 30
0.0
 11
571.7940054842434
 21
1073.956724771899
 31
0.0
  0
ARC
  5
3FB
  8
4
 10
491.7940054842434
 20
1040.956724771899
 30
0.0
 40
5.0
 50
270.0
 51
0.0
  0
LINE
  5
3FC
  8
4
 10
496.7940054842434
 20
1040.956724771899
 30
0.0
 11
496.7940054842434
 21
1097.441573256748
 31
0.0
  0
LINE
  5
3FD
  8
L-CENTER
 10
456.7940054842434
 20
1044.621287195375
 30
0.0
 11
456.7940054842434
 21
1087.292162348423
 31
0.0
  0
CIRCLE
  5
3FE
  8
4
 10
456.7940054842434
 20
1065.956724771899
 30
0.0
 40
11.0
  0
LINE
  5
3FF
  8
L-CENTER
 10
435.4585679077195
 20
1065.956724771899
 30
0.0
 11
478.1294430607672
 21
1065.956724771899
 31
0.0
  0
LINE
  5
402
  8
4
 10
576.7940054842434
 20
1055.956724771899
 30
0.0
 11
706.7940054842434
 21
1055.956724771899
 31
0.0
  0
LINE
  5
403
  8
4
 10
571.7940054842434
 20
1073.956724771899
 30
0.0
 11
711.7940054842434
 21
1073.956724771899
 31
0.0
  0
LINE
  5
404
  8
4
 10
691.5592148384253
 20
1076.456724771899
 30
0.0
 11
592.0287961300614
 21
1076.456724771899
 31
0.0
  0
LINE
  5
405
  8
4
 10
654.4885854842432
 20
590.9156032811102
 30
0.0
 11
656.7940054842434
 21
580.7718032811101
 31
0.0
  0
ARC
  5
406
  8
4
 10
662.7495734842432
 20
581.49958728111
 30
0.0
 40
5.99994
 50
125.5991950000043
 51
186.9671230000005
  0
LINE
  5
407
  8
4
 10
661.7940054842434
 20
580.7718032811101
 30
0.0
 11
661.7940054842434
 21
577.7718032811101
 31
0.0
  0
LINE
  5
408
  8
4
 10
641.7940054842434
 20
593.2718032811101
 30
0.0
 11
653.5557254842433
 21
591.7627712811102
 31
0.0
  0
LINE
  5
409
  8
4
 10
629.0994254842435
 20
590.9156032811102
 30
0.0
 11
626.7940054842434
 21
580.7718032811101
 31
0.0
  0
ARC
  5
40A
  8
4
 10
620.8381934842432
 20
581.49958728111
 30
0.0
 40
6.00006
 50
353.0331589999992
 51
54.40080499999846
  0
ARC
  5
40B
  8
4
 10
630.1719334842433
 20
590.67170728111
 30
0.0
 40
1.100112
 50
90.0
 51
167.1912509999943
  0
LINE
  5
40C
  8
4
 10
630.1719334842433
 20
591.7718032811101
 30
0.0
 11
653.4158334842432
 21
591.7718032811101
 31
0.0
  0
LINE
  5
40D
  8
4
 10
641.7940054842434
 20
580.7718032811101
 30
0.0
 11
621.7940054842434
 21
580.7718032811101
 31
0.0
  0
LINE
  5
40E
  8
4
 10
641.7940054842434
 20
593.2718032811101
 30
0.0
 11
630.0320414842431
 21
591.7627712811102
 31
0.0
  0
LINE
  5
40F
  8
4
 10
621.7940054842434
 20
580.7718032811101
 30
0.0
 11
621.7940054842434
 21
577.7718032811101
 31
0.0
  0
LINE
  5
410
  8
4
 10
626.7940054842434
 20
580.7718032811101
 30
0.0
 11
656.7940054842434
 21
580.7718032811101
 31
0.0
  0
LINE
  5
411
  8
4
 10
641.7940054842434
 20
580.7718032811101
 30
0.0
 11
661.7940054842434
 21
580.7718032811101
 31
0.0
  0
ARC
  5
412
  8
4
 10
653.4158334842432
 20
590.67170728111
 30
0.0
 40
1.100112
 50
12.80876099999563
 51
90.0
  0
CIRCLE
  5
413
  8
4
 10
641.7940054842434
 20
610.7718032811101
 30
0.0
 40
17.5
  0
ARC
  5
414
  8
4
 10
641.7940054842434
 20
610.7718032811101
 30
0.0
 40
29.99998
 50
305.5998490000001
 51
234.4018309999996
  0
ARC
  5
415
  8
4
 10
691.2173454842432
 20
444.94709528111
 30
0.0
 40
8.999988
 50
72.00592399999893
 51
185.8464991824214
  0
LINE
  5
416
  8
4
 10
566.7940054842434
 20
582.2718032811101
 30
0.0
 11
566.7940054842434
 21
591.2718032811101
 31
0.0
  0
LINE
  5
417
  8
4
 10
565.7940054842434
 20
582.2718032811101
 30
0.0
 11
565.7940054842434
 21
580.7718032811101
 31
0.0
  0
LINE
  5
418
  8
4
 10
568.7940054842434
 20
577.7718032811101
 30
0.0
 11
568.7940054842434
 21
580.7718032811101
 31
0.0
  0
LINE
  5
419
  8
4
 10
555.2940054842434
 20
586.2718032811101
 30
0.0
 11
555.2940054842434
 21
591.2718032811101
 31
0.0
  0
LINE
  5
41A
  8
4
 10
532.2940054842434
 20
586.2718032811101
 30
0.0
 11
532.2940054842434
 21
591.2718032811101
 31
0.0
  0
LINE
  5
41B
  8
4
 10
520.7940054842434
 20
582.2718032811101
 30
0.0
 11
520.7940054842434
 21
591.2718032811101
 31
0.0
  0
LINE
  5
41C
  8
4
 10
521.7940054842434
 20
582.2718032811101
 30
0.0
 11
521.7940054842434
 21
580.7718032811101
 31
0.0
  0
LINE
  5
41D
  8
L-CENTER
 10
543.7940054842434
 20
562.6479198875315
 30
0.0
 11
543.7940054842434
 21
595.5975472811101
 31
0.0
  0
LINE
  5
41E
  8
4
 10
518.7940054842434
 20
577.7718032811101
 30
0.0
 11
518.7940054842434
 21
580.7718032811101
 31
0.0
  0
LINE
  5
41F
  8
4
 10
518.7940054842434
 20
580.7718032811101
 30
0.0
 11
568.7940054842434
 21
580.7718032811101
 31
0.0
  0
LINE
  5
420
  8
4
 10
520.7940054842434
 20
591.2718032811101
 30
0.0
 11
566.7940054842434
 21
591.2718032811101
 31
0.0
  0
LINE
  5
421
  8
4
 10
520.7940054842434
 20
586.2718032811101
 30
0.0
 11
566.7940054842434
 21
586.2718032811101
 31
0.0
  0
LINE
  5
422
  8
4
 10
520.7940054842434
 20
582.2718032811101
 30
0.0
 11
566.7940054842434
 21
582.2718032811101
 31
0.0
  0
LINE
  5
423
  8
4
 10
521.7940054842434
 20
580.7718032811101
 30
0.0
 11
565.7940054842434
 21
580.7718032811101
 31
0.0
  0
ARC
  5
424
  8
4
 10
479.7940054842434
 20
582.7718032811101
 30
0.0
 40
4.0
 50
90.0
 51
180.0
  0
LINE
  5
425
  8
4
 10
479.7940054842434
 20
586.7718032811101
 30
0.0
 11
479.7940054842434
 21
596.7718032811101
 31
0.0
  0
LINE
  5
426
  8
4
 10
480.7940054842434
 20
598.7718032811101
 30
0.0
 11
480.7940054842434
 21
596.7718032811101
 31
0.0
  0
LINE
  5
427
  8
4
 10
478.7940054842434
 20
599.7718032811101
 30
0.0
 11
480.7940054842434
 21
598.7718032811101
 31
0.0
  0
LINE
  5
428
  8
4
 10
475.7940054842434
 20
577.7718032811101
 30
0.0
 11
475.7940054842434
 21
582.7718032811101
 31
0.0
  0
LINE
  5
429
  8
4
 10
469.7940054842434
 20
596.7718032811101
 30
0.0
 11
458.7940054842434
 21
596.7718032811101
 31
0.0
  0
LINE
  5
42A
  8
4
 10
458.7940054842434
 20
598.7718032811101
 30
0.0
 11
469.7940054842434
 21
598.7718032811101
 31
0.0
  0
LINE
  5
42B
  8
4
 10
460.7940054842434
 20
599.7718032811101
 30
0.0
 11
469.7940054842434
 21
599.7718032811101
 31
0.0
  0
LINE
  5
42C
  8
4
 10
459.7940054842434
 20
586.7718032811101
 30
0.0
 11
469.7940054842434
 21
586.7718032811101
 31
0.0
  0
LINE
  5
42D
  8
4
 10
466.7940054842434
 20
582.7718032811101
 30
0.0
 11
472.7940054842434
 21
582.7718032811101
 31
0.0
  0
ARC
  5
42E
  8
4
 10
466.7940054842434
 20
577.7718032811101
 30
0.0
 40
5.0
 50
53.13010200000199
 51
126.869897999998
  0
ARC
  5
42F
  8
4
 10
459.7940054842434
 20
582.7718032811101
 30
0.0
 40
4.0
 50
0.0
 51
90.0
  0
LINE
  5
430
  8
4
 10
459.7940054842434
 20
586.7718032811101
 30
0.0
 11
459.7940054842434
 21
596.7718032811101
 31
0.0
  0
LINE
  5
431
  8
4
 10
460.7940054842434
 20
599.7718032811101
 30
0.0
 11
458.7940054842434
 21
598.7718032811101
 31
0.0
  0
LINE
  5
432
  8
4
 10
458.7940054842434
 20
598.7718032811101
 30
0.0
 11
458.7940054842434
 21
596.7718032811101
 31
0.0
  0
LINE
  5
433
  8
4
 10
463.7940054842434
 20
577.7718032811101
 30
0.0
 11
469.7940054842434
 21
577.7718032811101
 31
0.0
  0
LINE
  5
434
  8
4
 10
463.7940054842434
 20
577.7718032811101
 30
0.0
 11
463.7940054842434
 21
582.7718032811101
 31
0.0
  0
LINE
  5
435
  8
4
 10
479.7940054842434
 20
586.7718032811101
 30
0.0
 11
469.7940054842434
 21
586.7718032811101
 31
0.0
  0
ARC
  5
436
  8
4
 10
472.7940054842434
 20
577.7718032811101
 30
0.0
 40
5.0
 50
53.13010200000199
 51
126.869897999998
  0
LINE
  5
437
  8
4
 10
475.7940054842434
 20
577.7718032811101
 30
0.0
 11
469.7940054842434
 21
577.7718032811101
 31
0.0
  0
LINE
  5
438
  8
4
 10
480.7940054842434
 20
598.7718032811101
 30
0.0
 11
469.7940054842434
 21
598.7718032811101
 31
0.0
  0
LINE
  5
439
  8
4
 10
478.7940054842434
 20
599.7718032811101
 30
0.0
 11
469.7940054842434
 21
599.7718032811101
 31
0.0
  0
LINE
  5
43A
  8
4
 10
469.7940054842434
 20
596.7718032811101
 30
0.0
 11
480.7940054842434
 21
596.7718032811101
 31
0.0
  0
LINE
  5
43B
  8
4
 10
461.7940054842434
 20
525.6493157014686
 30
0.0
 11
455.7940054842434
 21
525.6493157014686
 31
0.0
  0
ARC
  5
43C
  8
4
 10
471.0852654842433
 20
463.4805432811102
 30
0.0
 40
4.999984
 50
104.2208010000015
 51
165.7825850000001
  0
LINE
  5
43D
  8
4
 10
461.7940054842434
 20
460.6536372354209
 30
0.0
 11
455.7940054842434
 21
460.6536372354209
 31
0.0
  0
LINE
  5
43E
  8
4
 10
432.4941014842434
 20
431.6916261992499
 30
0.0
 11
432.4941014842434
 21
451.3215353516973
 31
0.0
  0
LINE
  5
43F
  8
4
 10
434.9941014842434
 20
431.6916261992499
 30
0.0
 11
434.9941014842434
 21
451.3215353516973
 31
0.0
  0
LINE
  5
440
  8
4
 10
432.4941014842434
 20
431.7063752811102
 30
0.0
 11
432.4941014842434
 21
451.3064712811101
 31
0.0
  0
LINE
  5
441
  8
4
 10
454.3049934842434
 20
407.7718032811101
 30
0.0
 11
434.9941014842434
 21
407.7718032811101
 31
0.0
  0
LINE
  5
442
  8
4
 10
455.7940054842434
 20
416.3799592811101
 30
0.0
 11
455.7940054842434
 21
460.6536372354209
 31
0.0
  0
ARC
  5
443
  8
4
 10
423.7954470223158
 20
493.1514764684447
 30
0.0
 40
50.0
 50
319.4616562984866
 51
40.53834370151338
  0
LINE
  5
444
  8
4
 10
461.7940054842434
 20
525.6493157014686
 30
0.0
 11
461.7940054842434
 21
460.6536372354211
 31
0.0
  0
LINE
  5
445
  8
4
 10
434.9941014842434
 20
553.8519803629704
 30
0.0
 11
434.9941014842434
 21
534.2220712105229
 31
0.0
  0
LINE
  5
446
  8
4
 10
432.4941014842434
 20
553.8519803629704
 30
0.0
 11
432.4941014842434
 21
534.2220712105229
 31
0.0
  0
LINE
  5
447
  8
4
 10
455.7940054842434
 20
525.6493157014686
 30
0.0
 11
455.7940054842434
 21
577.7718032811101
 31
0.0
  0
LINE
  5
448
  8
4
 10
448.7940054842434
 20
407.7718032811101
 30
0.0
 11
448.7940054842434
 21
577.7718032811101
 31
0.0
  0
LINE
  5
449
  8
4
 10
434.9941014842434
 20
577.7718032811101
 30
0.0
 11
434.9941014842434
 21
407.7718032811101
 31
0.0
  0
LINE
  5
44A
  8
L-CENTER
 10
601.7940054842434
 20
610.7718032811101
 30
0.0
 11
681.7940054842434
 21
610.7718032811101
 31
0.0
  0
LINE
  5
44C
  8
4
 10
434.9941014842434
 20
577.7718032811101
 30
0.0
 11
848.5939094842433
 21
577.7718032811101
 31
0.0
  0
ARC
  5
44F
  8
4
 10
641.7942494842432
 20
-210.2282127188898
 30
0.0
 40
700.000032
 50
75.781311
 51
104.218794
  0
ARC
  5
451
  8
4
 10
791.7940054842434
 20
1040.956724771899
 30
0.0
 40
5.0
 50
180.0
 51
270.0
  0
LINE
  5
452
  8
L-CENTER
 10
641.7940054842434
 20
919.2231033817036
 30
0.0
 11
641.7940054842434
 21
1347.082407684078
 31
0.0
  0
LINE
  5
453
  8
4
 10
861.7940054842434
 20
1040.956724771899
 30
0.0
 11
861.7940054842434
 21
1350.956724771899
 31
0.0
  0
LINE
  5
454
  8
4
 10
472.7940054842434
 20
1104.956724771899
 30
0.0
 11
571.7940054842434
 21
1073.956724771899
 31
0.0
  0
LINE
  5
455
  8
4
 10
483.6424321704294
 20
1104.956724771899
 30
0.0
 11
575.6160257065376
 21
1078.381350369383
 31
0.0
  0
LINE
  5
456
  8
4
 10
576.2248069750804
 20
1076.456724771899
 30
0.0
 11
477.5903578013053
 21
1104.956724771899
 31
0.0
  0
LINE
  5
457
  8
4
 10
810.7940054842434
 20
1104.956724771899
 30
0.0
 11
711.7940054842434
 21
1073.956724771899
 31
0.0
  0
LINE
  5
458
  8
4
 10
707.3632039934064
 20
1076.456724771899
 30
0.0
 11
805.9976531671814
 21
1104.956724771899
 31
0.0
  0
LINE
  5
459
  8
4
 10
799.9455787980573
 20
1104.956724771899
 30
0.0
 11
707.9719852619492
 21
1078.381350369383
 31
0.0
  0
ARC
  5
45A
  8
4
 10
426.7940054842434
 20
1350.956724771899
 30
0.0
 40
5.0
 50
90.0
 51
180.0
  0
ARC
  5
45B
  8
4
 10
429.2777154133028
 20
1239.860731345368
 30
0.0
 40
3.783613929059507
 50
139.5701031551729
 51
220.4298968448271
  0
ARC
  5
45C
  8
4
 10
439.2732667817031
 20
1247.221947277535
 30
0.0
 40
13.77916529745958
 50
159.1359356360806
 51
200.8640643639194
  0
LINE
  5
45D
  8
4
 10
425.4941014842434
 20
1152.05271819843
 30
0.0
 11
425.4941014842434
 21
1137.330286334095
 31
0.0
  0
ARC
  5
45E
  8
4
 10
439.2732667817031
 20
1144.691502266263
 30
0.0
 40
13.77916529745958
 50
159.1359356360806
 51
200.8640643639194
  0
ARC
  5
45F
  8
4
 10
429.2777154133028
 20
1152.05271819843
 30
0.0
 40
3.783613929059507
 50
139.5701031551729
 51
220.4298968448271
  0
ARC
  5
460
  8
4
 10
429.2777154133028
 20
1137.330286334095
 30
0.0
 40
3.783613929059507
 50
139.5701031551729
 51
220.4298968448271
  0
LINE
  5
461
  8
4
 10
425.4941014842434
 20
1239.860731345368
 30
0.0
 11
425.4941014842434
 21
1254.583163209703
 31
0.0
  0
ARC
  5
462
  8
4
 10
429.2777154133028
 20
1254.583163209703
 30
0.0
 40
3.783613929059507
 50
139.5701031551729
 51
220.4298968448271
  0
ARC
  5
463
  8
4
 10
426.7940054842434
 20
1040.956724771899
 30
0.0
 40
5.0
 50
180.0
 51
270.0
  0
ARC
  5
465
  8
4
 10
429.2777154133028
 20
551.3982417189143
 30
0.0
 40
3.783613929059507
 50
139.5701031551729
 51
220.4298968448271
  0
ARC
  5
466
  8
4
 10
429.2777154133028
 20
536.675809854579
 30
0.0
 40
3.783613929059507
 50
139.5701031551729
 51
220.4298968448315
  0
ARC
  5
467
  8
4
 10
439.2732667817031
 20
441.5065807754738
 30
0.0
 40
13.77916529745958
 50
159.1359356360801
 51
200.8640643639194
  0
LINE
  5
468
  8
4
 10
425.4941014842434
 20
448.8677967076412
 30
0.0
 11
425.4941014842434
 21
434.145364843306
 31
0.0
  0
ARC
  5
469
  8
4
 10
429.2777154133028
 20
434.145364843306
 30
0.0
 40
3.783613929059507
 50
139.5701031551704
 51
220.4298968448296
  0
ARC
  5
46A
  8
4
 10
429.2777154133028
 20
448.8677967076413
 30
0.0
 40
3.783613929059507
 50
139.5701031551704
 51
220.4298968448296
  0
LINE
  5
46B
  8
4
 10
425.4941014842434
 20
536.675809854579
 30
0.0
 11
425.4941014842434
 21
551.3982417189143
 31
0.0
  0
ARC
  5
46C
  8
4
 10
439.2732667817031
 20
544.0370257867464
 30
0.0
 40
13.77916529745958
 50
159.1359356360806
 51
200.8640643639194
  0
LINE
  5
46E
  8
4
 10
421.7940054842434
 20
1040.956724771899
 30
0.0
 11
421.7940054842429
 21
1350.956724771899
 31
0.0
  0
LINE
  5
46F
  8
4
 10
426.7940054842434
 20
1355.956724771899
 30
0.0
 11
491.7940054842434
 21
1355.956724771899
 31
0.0
  0
LINE
  5
470
  8
4
 10
426.7940054842434
 20
1035.956724771899
 30
0.0
 11
491.7940054842434
 21
1035.956724771899
 31
0.0
  0
LINE
  5
471
  8
L-CENTER
 10
310.1166800069709
 20
1195.956724771899
 30
0.0
 11
870.4556949971851
 21
1195.956724771899
 31
0.0
  0
LINE
  5
472
  8
L-CENTER
 10
862.9375614842434
 20
492.7718032811101
 30
0.0
 11
308.9476694842433
 21
492.7718032811102
 31
0.0
  0
LINE
  5
473
  8
L-CENTER
 10
420.6504494842434
 20
441.5064232811101
 30
0.0
 11
460.7532280384307
 21
441.5068636125953
 31
0.0
  0
LINE
  5
474
  8
4
 10
426.3976284300957
 20
431.6916261992499
 30
0.0
 11
434.9941014842434
 21
431.6916261992499
 31
0.0
  0
LINE
  5
475
  8
4
 10
426.3976284300957
 20
446.4140580635856
 30
0.0
 11
432.4941014842434
 21
446.4140580635856
 31
0.0
  0
LINE
  5
476
  8
4
 10
426.3976284300957
 20
436.5991034873616
 30
0.0
 11
432.4941014842434
 21
436.5991034873616
 31
0.0
  0
LINE
  5
477
  8
4
 10
434.9941014842434
 20
451.3215353516973
 30
0.0
 11
426.3976284300957
 21
451.3215353516973
 31
0.0
  0
LINE
  5
478
  8
L-CENTER
 10
420.6504494842434
 20
544.0371832811102
 30
0.0
 11
460.7521022527453
 21
544.0367429619862
 31
0.0
  0
LINE
  5
479
  8
4
 10
434.9941014842434
 20
534.2220712105229
 30
0.0
 11
426.3976284300957
 21
534.2220712105229
 31
0.0
  0
LINE
  5
47A
  8
4
 10
426.3976284300957
 20
539.1295484986347
 30
0.0
 11
432.4941014842434
 21
539.1295484986347
 31
0.0
  0
LINE
  5
47B
  8
4
 10
426.3976284300957
 20
548.9445030748586
 30
0.0
 11
432.4941014842434
 21
548.9445030748586
 31
0.0
  0
LINE
  5
47C
  8
4
 10
426.3976284300957
 20
553.8519803629704
 30
0.0
 11
434.9941014842434
 21
553.8519803629704
 31
0.0
  0
LINE
  5
47F
  8
L-CENTER
 10
420.6504494842434
 20
1144.691344771899
 30
0.0
 11
463.2864654273021
 21
1144.691812918519
 31
0.0
  0
LINE
  5
480
  8
4
 10
426.3976284300957
 20
1139.78402497815
 30
0.0
 11
432.4941014842434
 21
1139.78402497815
 31
0.0
  0
LINE
  5
481
  8
4
 10
426.3976284300957
 20
1134.876547690039
 30
0.0
 11
434.9941014842434
 21
1134.876547690039
 31
0.0
  0
LINE
  5
482
  8
4
 10
434.9941014842434
 20
1154.506456842486
 30
0.0
 11
426.3976284300957
 21
1154.506456842486
 31
0.0
  0
LINE
  5
483
  8
4
 10
426.3976284300957
 20
1149.598979554374
 30
0.0
 11
432.4941014842434
 21
1149.598979554374
 31
0.0
  0
LINE
  5
484
  8
L-CENTER
 10
420.6504494842434
 20
1247.222104771899
 30
0.0
 11
463.285339642227
 21
1247.22163663764
 31
0.0
  0
LINE
  5
485
  8
4
 10
426.3976284300957
 20
1257.036901853759
 30
0.0
 11
434.9941014842434
 21
1257.036901853759
 31
0.0
  0
LINE
  5
486
  8
4
 10
426.3976284300957
 20
1242.314469989424
 30
0.0
 11
432.4941014842434
 21
1242.314469989424
 31
0.0
  0
LINE
  5
487
  8
4
 10
434.9941014842434
 20
1237.406992701312
 30
0.0
 11
426.3976284300957
 21
1237.406992701312
 31
0.0
  0
LINE
  5
488
  8
4
 10
426.3976284300957
 20
1252.129424565647
 30
0.0
 11
432.4941014842434
 21
1252.129424565647
 31
0.0
  0
ARC
  5
489
  8
4
 10
793.9692974842433
 20
342.1951432811102
 30
0.0
 40
8.999988
 50
263.6362980000018
 51
17.99259200000045
  0
ARC
  5
48A
  8
4
 10
793.9692974842433
 20
243.3484632811101
 30
0.0
 40
8.999952
 50
342.0088850000002
 51
96.36370199999875
  0
ARC
  5
48C
  8
4
 10
858.7940054842434
 20
91.77180328111012
 30
0.0
 40
3.0
 50
0.0
 51
90.0
  0
ARC
  5
48D
  8
4
 10
812.5027454842434
 20
122.0633072811102
 30
0.0
 40
4.999984
 50
284.2208010000015
 51
345.7825929999999
  0
ARC
  5
48E
  8
4
 10
641.7937614842435
 20
795.7720472811102
 30
0.0
 40
699.999936
 50
282.793324
 51
284.219248
  0
ARC
  5
48F
  8
4
 10
799.7940054842434
 20
97.77180328111012
 30
0.0
 40
3.0
 50
180.0
 51
270.0
  0
LINE
  5
490
  8
4
 10
789.7940054842434
 20
94.77180328111012
 30
0.0
 11
858.7940054842434
 21
94.77180328111012
 31
0.0
  0
ARC
  5
491
  8
4
 10
849.7940054842434
 20
109.7718032811101
 30
0.0
 40
15.0
 50
180.0
 51
270.0009360000004
  0
LINE
  5
492
  8
4
 10
796.7940054842434
 20
97.77180328111012
 30
0.0
 11
796.7940054842434
 21
152.7718032811101
 31
0.0
  0
LINE
  5
493
  8
4
 10
834.7940054842434
 20
218.0457272811102
 30
0.0
 11
834.7940054842434
 21
109.7718032811101
 31
0.0
  0
TEXT
  5
49E
  8
3
 10
1010.728084463567
 20
43.43559149018279
 30
0.0
 40
15.61517997527595
  1
LB8-03
  7
KANJI
  0
LINE
  5
49F
  8
4
 10
815.7940054842434
 20
52.77180328111012
 30
0.0
 11
815.7940054842434
 21
94.77180328111012
 31
0.0
  0
LINE
  5
4A1
  8
L-CENTER
 10
826.7940054842434
 20
37.77180328111012
 30
0.0
 11
826.7940054842434
 21
109.7718032811101
 31
0.0
  0
LINE
  5
4A2
  8
4
 10
861.7940054842434
 20
91.77180328111012
 30
0.0
 11
861.7940054842434
 21
52.77180328111012
 31
0.0
  0
LINE
  5
4A3
  8
4
 10
837.7940054842434
 20
52.77180328111012
 30
0.0
 11
837.7940054842434
 21
94.77180328111012
 31
0.0
  0
ARC
  5
4A5
  8
4
 10
714.4190054842434
 20
350.0606232811101
 30
0.0
 40
7.999956
 50
190.7197699999999
 51
263.6379929999992
  0
ARC
  5
4A6
  8
4
 10
714.4192494842432
 20
235.4829832811101
 30
0.0
 40
7.999967999999999
 50
96.36375099999859
 51
169.2802380000001
  0
ARC
  5
4A7
  8
4
 10
411.7940054842434
 20
292.7715592811101
 30
0.0
 40
299.999968
 50
349.112606
 51
10.88829900000003
  0
ARC
  5
4A8
  8
4
 10
406.7940054842434
 20
292.7715592811101
 30
0.0
 40
299.999948
 50
349.960456
 51
10.04034900000005
  0
LINE
  5
4A9
  8
4
 10
682.2641721136946
 20
444.0303234463315
 30
0.0
 11
691.1321414842432
 21
364.5103312811102
 31
0.0
  0
ARC
  5
4AA
  8
4
 10
699.0828254842436
 20
365.3970472811102
 30
0.0
 40
7.999967999999999
 50
186.3637430000001
 51
259.2802370000003
  0
ARC
  5
4AB
  8
4
 10
696.5733014842435
 20
237.9925072811102
 30
0.0
 40
10.000064
 50
280.8880100000006
 51
349.1133630000002
  0
ARC
  5
4AC
  8
4
 10
692.3528414842435
 20
242.2129632811102
 30
0.0
 40
10.000048
 50
280.0402299999993
 51
349.9611480000003
  0
ARC
  5
4AD
  8
4
 10
692.3528414842435
 20
343.33064328111
 30
0.0
 40
10.000068
 50
10.04022900000017
 51
79.9597709999991
  0
ARC
  5
4AE
  8
4
 10
696.5733014842435
 20
347.5510992811101
 30
0.0
 40
10.000088
 50
10.88800899999992
 51
79.1119900000005
  0
ARC
  5
4AF
  8
4
 10
753.7940054842434
 20
73.58576728111007
 30
0.0
 40
8.000060000000001
 50
0.0
 51
75.42517199999901
  0
ARC
  5
4B0
  8
4
 10
710.7710574842436
 20
84.77180328111012
 30
0.0
 40
8.000028
 50
75.4268629999983
 51
90.0
  0
LINE
  5
4B1
  8
4
 10
712.7839974842432
 20
92.5144792811102
 30
0.0
 11
755.8071894842433
 21
81.32844328111014
 31
0.0
  0
ARC
  5
4B2
  8
4
 10
691.2173454842432
 20
140.5965112811102
 30
0.0
 40
9.000028
 50
173.6362909999989
 51
287.9940780000009
  0
LINE
  5
4B3
  8
4
 10
691.1321414842432
 20
221.03327928111
 30
0.0
 11
682.2730094842432
 21
141.59406728111
 31
0.0
  0
ARC
  5
4B4
  8
4
 10
699.0828254842436
 20
220.1465592811101
 30
0.0
 40
7.999967999999999
 50
100.7197619999999
 51
173.6362489999998
  0
ARC
  5
4B5
  8
4
 10
587.0147094842432
 20
347.5510992811101
 30
0.0
 40
10.000088
 50
100.8880099999995
 51
169.1119910000001
  0
ARC
  5
4B6
  8
4
 10
591.2351694842432
 20
343.33064328111
 30
0.0
 40
10.000068
 50
100.0402340000005
 51
169.9597709999998
  0
ARC
  5
4B7
  8
4
 10
569.1690054842434
 20
350.0606232811101
 30
0.0
 40
7.999956
 50
276.3620140000006
 51
349.2802309999996
  0
ARC
  5
4B8
  8
4
 10
587.0147094842432
 20
237.9925072811102
 30
0.0
 40
10.000088
 50
190.8880089999999
 51
259.1119900000005
  0
ARC
  5
4B9
  8
4
 10
569.1687614842435
 20
235.4829832811101
 30
0.0
 40
7.999967999999999
 50
10.71976199999993
 51
83.6362490000014
  0
ARC
  5
4BA
  8
4
 10
591.2351694842432
 20
242.2129632811102
 30
0.0
 40
10.000068
 50
190.0402290000002
 51
259.9597649999991
  0
ARC
  5
4BB
  8
4
 10
876.7940054842434
 20
292.7715592811101
 30
0.0
 40
300.0
 50
169.96008
 51
190.040349
  0
ARC
  5
4BC
  8
4
 10
871.7940054842434
 20
292.7715592811101
 30
0.0
 40
299.99994
 50
169.112222
 51
190.8881070000001
  0
ARC
  5
4BD
  8
4
 10
489.6187134842435
 20
342.1951432811102
 30
0.0
 40
8.999988
 50
162.0074060000011
 51
276.3637089999996
  0
ARC
  5
4BE
  8
4
 10
489.6187134842435
 20
243.3484632811101
 30
0.0
 40
8.999988
 50
83.63629100000045
 51
197.9925939999982
  0
LINE
  5
4BF
  8
4
 10
447.4568454842433
 20
231.7718032811101
 30
0.0
 11
444.7940054842434
 21
231.7718032811101
 31
0.0
  0
LINE
  5
4C0
  8
4
 10
444.7940054842434
 20
228.7718032811101
 30
0.0
 11
442.7940054842434
 21
228.7718032811101
 31
0.0
  0
LINE
  5
4C1
  8
4
 10
442.7940054842434
 20
229.7718032811101
 30
0.0
 11
435.7940054842434
 21
229.7718032811101
 31
0.0
  0
LINE
  5
4C2
  8
4
 10
570.0554814842435
 20
342.1099392811102
 30
0.0
 11
490.6162694842433
 21
333.2505632811101
 31
0.0
  0
LINE
  5
4C3
  8
4
 10
570.0554814842435
 20
243.43366728111
 30
0.0
 11
490.6162694842433
 21
252.2930432811102
 31
0.0
  0
ARC
  5
4C4
  8
4
 10
592.3706654842435
 20
140.5965112811102
 30
0.0
 40
9.000028
 50
252.0059219999991
 51
6.36370900000107
  0
ARC
  5
4C5
  8
4
 10
572.8169534842432
 20
84.77180328111012
 30
0.0
 40
8.000028
 50
90.0
 51
104.5731370000017
  0
ARC
  5
4C6
  8
4
 10
529.7940054842434
 20
73.58576728111007
 30
0.0
 40
8.000060000000001
 50
104.5748210000012
 51
180.0
  0
LINE
  5
4C7
  8
4
 10
570.8040134842436
 20
92.5144792811102
 30
0.0
 11
527.7808214842435
 21
81.32844328111014
 31
0.0
  0
LINE
  5
4C8
  8
4
 10
592.4558694842435
 20
221.03327928111
 30
0.0
 11
601.3150014842436
 21
141.59406728111
 31
0.0
  0
LINE
  5
4C9
  8
4
 10
496.7940054842434
 20
152.7718032811101
 30
0.0
 11
486.7940054842434
 21
152.7718032811101
 31
0.0
  0
LINE
  5
4CA
  8
4
 10
444.7940054842434
 20
191.7718032811101
 30
0.0
 11
448.7940054842434
 21
191.7718032811101
 31
0.0
  0
LINE
  5
4CB
  8
4
 10
440.7940054842434
 20
220.7718032811101
 30
0.0
 11
435.7940054842434
 21
220.7718032811101
 31
0.0
  0
LINE
  5
4CC
  8
4
 10
442.7940054842434
 20
194.7718032811101
 30
0.0
 11
444.7940054842434
 21
194.7718032811101
 31
0.0
  0
LINE
  5
4CD
  8
4
 10
440.7940054842434
 20
202.7718032811101
 30
0.0
 11
435.7940054842434
 21
202.7718032811101
 31
0.0
  0
LINE
  5
4CE
  8
4
 10
442.7940054842434
 20
193.7718032811101
 30
0.0
 11
435.7940054842434
 21
193.7718032811101
 31
0.0
  0
LINE
  5
4CF
  8
L-CENTER
 10
428.6979374842435
 20
211.7718032811101
 30
0.0
 11
463.4744831150506
 21
211.7718032811101
 31
0.0
  0
ARC
  5
4D0
  8
4
 10
483.7940054842434
 20
97.77180328111012
 30
0.0
 40
3.0
 50
270.0
 51
0.0
  0
ARC
  5
4D1
  8
4
 10
493.7940054842434
 20
91.77180328111012
 30
0.0
 40
3.0
 50
0.0
 51
90.0
  0
ARC
  5
4D2
  8
4
 10
471.0852654842433
 20
122.0633072811102
 30
0.0
 40
4.999984
 50
194.2174039999995
 51
255.7791989999985
  0
LINE
  5
4D3
  8
4
 10
443.7940054842434
 20
109.7718032811101
 30
0.0
 11
443.7940054842434
 21
122.7718032811101
 31
0.0
  0
LINE
  5
4D4
  8
4
 10
448.7940054842434
 20
122.7718032811101
 30
0.0
 11
443.7940054842434
 21
122.7718032811101
 31
0.0
  0
LINE
  5
4D5
  8
4
 10
441.7940054842434
 20
115.2718032811101
 30
0.0
 11
443.7940054842434
 21
115.2718032811101
 31
0.0
  0
LINE
  5
4D6
  8
L-CENTER
 10
438.7135614842432
 20
107.7718032811101
 30
0.0
 11
466.2704471587621
 21
107.7718032811101
 31
0.0
  0
LINE
  5
4D7
  8
4
 10
441.7940054842434
 20
102.2884872811101
 30
0.0
 11
441.7940054842434
 21
115.2718032811101
 31
0.0
  0
ARC
  5
4D8
  8
4
 10
428.7940054842434
 20
109.7718032811101
 30
0.0
 40
15.0
 50
270.0009360000004
 51
0.0
  0
ARC
  5
4D9
  8
4
 10
433.7940054842434
 20
109.7718032811101
 30
0.0
 40
15.0
 50
270.0009360000004
 51
0.0
  0
ARC
  5
4DA
  8
4
 10
641.7942494842432
 20
795.7720472811102
 30
0.0
 40
700.000064
 50
255.781683
 51
257.207539
  0
LINE
  5
4DB
  8
4
 10
448.7940054842434
 20
218.0457272811102
 30
0.0
 11
448.7940054842434
 21
109.7718032811101
 31
0.0
  0
LINE
  5
4DC
  8
4
 10
486.7940054842434
 20
97.77180328111012
 30
0.0
 11
486.7940054842434
 21
152.7718032811101
 31
0.0
  0
LINE
  5
4DD
  8
4
 10
444.7940054842434
 20
231.7718032811101
 30
0.0
 11
444.7940054842434
 21
191.7718032811101
 31
0.0
  0
LINE
  5
4DE
  8
4
 10
435.7940054842434
 20
193.7718032811101
 30
0.0
 11
435.7940054842434
 21
229.7718032811101
 31
0.0
  0
LINE
  5
4DF
  8
4
 10
444.7940054842434
 20
194.7718032811101
 30
0.0
 11
444.7940054842434
 21
228.7718032811101
 31
0.0
  0
LINE
  5
4E0
  8
4
 10
442.7940054842434
 20
193.7718032811101
 30
0.0
 11
442.7940054842434
 21
229.7718032811101
 31
0.0
  0
LINE
  5
4E1
  8
4
 10
440.7940054842434
 20
193.7718032811101
 30
0.0
 11
440.7940054842434
 21
229.7718032811101
 31
0.0
  0
ARC
  5
4E2
  8
4
 10
584.5051854842432
 20
220.1465592811101
 30
0.0
 40
7.999967999999999
 50
6.3637510000002
 51
79.28023800000005
  0
ARC
  5
4E3
  8
4
 10
641.7940054842434
 20
57.77180328111012
 30
0.0
 40
299.999976
 50
79.95969799999997
 51
100.040351
  0
ARC
  5
4E4
  8
4
 10
641.7940054842434
 20
522.7718032811101
 30
0.0
 40
300.00002
 50
259.112083
 51
280.888819
  0
ARC
  5
4E5
  8
4
 10
641.7940054842434
 20
527.7718032811101
 30
0.0
 40
300.000068
 50
259.959987
 51
280.040823
  0
ARC
  5
4E6
  8
4
 10
641.7940054842434
 20
62.77180328111012
 30
0.0
 40
300.000008
 50
79.11180300000005
 51
100.8883920000001
  0
ARC
  5
4E7
  8
4
 10
641.7937614842435
 20
795.7720472811102
 30
0.0
 40
699.999956
 50
258.045518
 51
281.955459
  0
LINE
  5
4E8
  8
4
 10
572.8169534842432
 20
92.77180328111012
 30
0.0
 11
710.7710574842436
 21
92.77180328111012
 31
0.0
  0
LINE
  5
4F1
  8
L-CENTER
 10
456.7940054842434
 20
37.77180328111012
 30
0.0
 11
456.7940054842434
 21
109.7718032811101
 31
0.0
  0
LINE
  5
4F2
  8
4
 10
496.7940054842434
 20
152.7718032811101
 30
0.0
 11
496.7940054842434
 21
52.77180328111012
 31
0.0
  0
LINE
  5
4F3
  8
4
 10
786.7940054842434
 20
152.7718032811101
 30
0.0
 11
786.7940054842434
 21
52.77180328111012
 31
0.0
  0
LINE
  5
4F4
  8
4
 10
521.7940054842434
 20
73.58576728111007
 30
0.0
 11
521.7940054842434
 21
52.77180328111012
 31
0.0
  0
LINE
  5
4F5
  8
4
 10
761.7940054842434
 20
73.58576728111007
 30
0.0
 11
761.7940054842434
 21
52.77180328111012
 31
0.0
  0
LINE
  5
4F6
  8
L-CENTER
 10
851.4149614842436
 20
292.7718032811101
 30
0.0
 11
432.0072614842434
 21
292.7718032811101
 31
0.0
  0
LINE
  5
4F9
  8
4
 10
761.7940054842434
 20
52.77180328111012
 30
0.0
 11
861.7940054842434
 21
52.77180328111012
 31
0.0
  0
ARC
  5
4FA
  8
4
 10
789.7940054842434
 20
91.77180328111012
 30
0.0
 40
3.0
 50
90.0
 51
180.0
  0
LINE
  5
4FB
  8
4
 10
786.7940054842434
 20
152.7718032811101
 30
0.0
 11
796.7940054842434
 21
152.7718032811101
 31
0.0
  0
LINE
  5
4FC
  8
4
 10
713.5325294842432
 20
342.1099392811102
 30
0.0
 11
792.9717414842435
 21
333.2505632811101
 31
0.0
  0
LINE
  5
4FD
  8
4
 10
713.5325294842432
 20
243.43366728111
 30
0.0
 11
792.9717414842435
 21
252.2930432811102
 31
0.0
  0
ARC
  5
51E
  8
4
 10
424.7940054842434
 20
91.77180328111012
 30
0.0
 40
3.0
 50
90.0
 51
180.0
  0
LINE
  5
524
  8
4
 10
421.7940054842434
 20
91.77180328111012
 30
0.0
 11
421.7940054842434
 21
52.77180328111012
 31
0.0
  0
LINE
  5
528
  8
4
 10
220.5228162227376
 20
519.2718032811101
 30
0.0
 11
208.5228162227373
 21
519.2718032811101
 31
0.0
  0
LINE
  5
529
  8
4
 10
208.5228162227373
 20
511.2718032811101
 30
0.0
 11
220.5228162227376
 21
511.2718032811101
 31
0.0
  0
LINE
  5
52A
  8
4
 10
208.5228162227373
 20
511.2718032811101
 30
0.0
 11
208.5228162227373
 21
519.2718032811101
 31
0.0
  0
LINE
  5
52B
  8
4
 10
220.5228162227376
 20
511.2718032811101
 30
0.0
 11
220.5228162227376
 21
519.2718032811101
 31
0.0
  0
LINE
  5
52D
  8
L-CENTER
 10
183.0952715553293
 20
492.7718032811101
 30
0.0
 11
245.9503608901454
 21
492.7718032811101
 31
0.0
  0
LINE
  5
52F
  8
L-CENTER
 10
214.5228162227376
 20
461.3442586137021
 30
0.0
 11
214.5228162227376
 21
524.1993479485182
 31
0.0
  0
ARC
  5
530
  8
4
 10
214.5228162227376
 20
492.7718032811101
 30
0.0
 40
23.00001
 50
105.1216585832462
 51
74.87834200000036
  0
LINE
  5
53D
  8
4
 10
521.7940054842434
 20
52.77180328111012
 30
0.0
 11
421.7940054842434
 21
52.77180328111012
 31
0.0
  0
LINE
  5
53E
  8
4
 10
493.7940054842434
 20
94.77180328111012
 30
0.0
 11
424.7940054842434
 21
94.77180328111012
 31
0.0
  0
LINE
  5
544
  8
L-CENTER
 10
641.7940054842434
 20
650.7718032811101
 30
0.0
 11
641.7940054842434
 21
83.15084728110992
 31
0.0
  0
CIRCLE
  5
545
  8
4
 10
641.7940054842434
 20
292.7718032811101
 30
0.0
 40
194.0
  0
ARC
  5
546
  8
4
 10
641.7940054842434
 20
292.7718032811101
 30
0.0
 40
169.0
 50
98.4361163663814
 51
81.5638836336186
  0
ARC
  5
547
  8
4
 10
138.7940054842434
 20
292.7718032811101
 30
0.0
 40
699.999984
 50
345.782153
 51
14.21872899999995
  0
ARC
  5
548
  8
4
 10
1144.794005484243
 20
292.7718032811101
 30
0.0
 40
700.000108
 50
165.7817459999999
 51
194.218564
  0
LINE
  5
54D
  8
L-CENTER
 10
469.7940054842434
 20
604.6413112811101
 30
0.0
 11
469.7940054842434
 21
565.5365019605445
 31
0.0
  0
POLYLINE
  5
54E
  8
4
 66
     1
 10
0.0
 20
0.0
 30
0.0
  0
VERTEX
  5
683
  8
4
 10
799.4398440770804
 20
94.77180328111012
 30
0.0
  0
VERTEX
  5
684
  8
4
 10
799.1066934338158
 20
93.70151057518716
 30
0.0
  0
VERTEX
  5
685
  8
4
 10
798.8115835888261
 20
92.62594795746621
 30
0.0
  0
VERTEX
  5
686
  8
4
 10
798.5579252876804
 20
91.54694921267983
 30
0.0
  0
VERTEX
  5
687
  8
4
 10
798.3491292759463
 20
90.46634812556032
 30
0.0
  0
VERTEX
  5
688
  8
4
 10
798.1886062991925
 20
89.38597848084011
 30
0.0
  0
VERTEX
  5
689
  8
4
 10
798.0797671029875
 20
88.3076740632516
 30
0.0
  0
VERTEX
  5
68A
  8
4
 10
798.0260224328993
 20
87.23326865752719
 30
0.0
  0
VERTEX
  5
68B
  8
4
 10
798.0307830344963
 20
86.16459604839929
 30
0.0
  0
VERTEX
  5
68C
  8
4
 10
798.0974596533468
 20
85.10349002060026
 30
0.0
  0
VERTEX
  5
68D
  8
4
 10
798.2294630350193
 20
84.05178435886256
 30
0.0
  0
VERTEX
  5
68E
  8
4
 10
798.4302037653653
 20
83.01131280617521
 30
0.0
  0
VERTEX
  5
68F
  8
4
 10
798.7008419932981
 20
81.98332093385716
 30
0.0
  0
VERTEX
  5
690
  8
4
 10
799.0346279173365
 20
80.96698697747809
 30
0.0
  0
VERTEX
  5
691
  8
4
 10
799.4230747915182
 20
79.9610352067494
 30
0.0
  0
VERTEX
  5
692
  8
4
 10
799.8576958698811
 20
78.96418989138269
 30
0.0
  0
VERTEX
  5
693
  8
4
 10
800.3300044064629
 20
77.97517530108934
 30
0.0
  0
VERTEX
  5
694
  8
4
 10
800.8315136553015
 20
76.9927157055809
 30
0.0
  0
VERTEX
  5
695
  8
4
 10
801.3537368704349
 20
76.01553537456884
 30
0.0
  0
VERTEX
  5
696
  8
4
 10
801.888187305901
 20
75.04235857776465
 30
0.0
  0
VERTEX
  5
697
  8
4
 10
802.4263782157378
 20
74.07190958487982
 30
0.0
  0
VERTEX
  5
698
  8
4
 10
802.959822853983
 20
73.10291266562581
 30
0.0
  0
VERTEX
  5
699
  8
4
 10
803.4800344746748
 20
72.13409208971416
 30
0.0
  0
VERTEX
  5
69A
  8
4
 10
803.9785263318505
 20
71.1641721268563
 30
0.0
  0
VERTEX
  5
69B
  8
4
 10
804.4468116795489
 20
70.19187704676378
 30
0.0
  0
VERTEX
  5
69C
  8
4
 10
804.876403771807
 20
69.21593111914802
 30
0.0
  0
VERTEX
  5
69D
  8
4
 10
805.2588158626631
 20
68.23505861372055
 30
0.0
  0
VERTEX
  5
69E
  8
4
 10
805.5855612061549
 20
67.24798380019286
 30
0.0
  0
VERTEX
  5
69F
  8
4
 10
805.8481530563207
 20
66.2534309482764
 30
0.0
  0
VERTEX
  5
6A0
  8
4
 10
806.0382782634318
 20
65.25015379446334
 30
0.0
  0
VERTEX
  5
6A1
  8
4
 10
806.1532928812599
 20
64.23786838400308
 30
0.0
  0
VERTEX
  5
6A2
  8
4
 10
806.1973475911127
 20
63.21744410398224
 30
0.0
  0
VERTEX
  5
6A3
  8
4
 10
806.1749940715878
 20
62.18981840805162
 30
0.0
  0
VERTEX
  5
6A4
  8
4
 10
806.0907840012824
 20
61.15592874986199
 30
0.0
  0
VERTEX
  5
6A5
  8
4
 10
805.9492690587937
 20
60.11671258306404
 30
0.0
  0
VERTEX
  5
6A6
  8
4
 10
805.7550009227193
 20
59.0731073613086
 30
0.0
  0
VERTEX
  5
6A7
  8
4
 10
805.5125312716566
 20
58.02605053824639
 30
0.0
  0
VERTEX
  5
6A8
  8
4
 10
805.2264117842026
 20
56.97647956752816
 30
0.0
  0
VERTEX
  5
6A9
  8
4
 10
804.9011941389548
 20
55.92533190280468
 30
0.0
  0
VERTEX
  5
6AA
  8
4
 10
804.5414300145109
 20
54.87354499772672
 30
0.0
  0
VERTEX
  5
6AB
  8
4
 10
803.7364690424231
 20
52.77180328111024
 30
0.0
  0
SEQEND
  5
6AE
  8
4
  0
ARC
  5
54F
  8
4
 10
641.7940054842434
 20
442.7718032811101
 30
0.0
 40
22.5
 50
180.0
 51
0.0
  0
LINE
  5
550
  8
4
 10
664.2940054842434
 20
442.7718032811101
 30
0.0
 11
664.2940054842433
 21
457.9648721429725
 31
0.0
  0
LINE
  5
551
  8
4
 10
690.7511483408198
 20
549.9256494348244
 30
0.0
 11
690.7511483408198
 21
521.6179571251105
 31
0.0
  0
ARC
  5
552
  8
4
 10
700.597302187678
 20
529.6179571256819
 30
0.0
 40
1.846153846285714
 50
180.0
 51
270.0
  0
LINE
  5
553
  8
4
 10
692.5973021871059
 20
519.7718032788248
 30
0.0
 11
713.036862626534
 21
519.7718032788248
 31
0.0
  0
ARC
  5
554
  8
4
 10
692.5973021871059
 20
521.6179571251105
 30
0.0
 40
1.846153846285714
 50
180.0
 51
270.0
  0
LINE
  5
555
  8
4
 10
700.597302187678
 20
527.7718032793962
 30
0.0
 11
713.036862626534
 21
527.7718032793962
 31
0.0
  0
ARC
  5
556
  8
4
 10
713.036862626534
 20
526.0575175651104
 30
0.0
 40
1.714285714285714
 50
0.0
 51
90.0
  0
ARC
  5
557
  8
4
 10
713.036862626534
 20
521.4860889931106
 30
0.0
 40
1.714285714285714
 50
270.0
 51
0.0
  0
LINE
  5
558
  8
4
 10
714.7511483408198
 20
526.0575175651104
 30
0.0
 11
714.7511483408198
 21
521.4860889931106
 31
0.0
  0
LINE
  5
559
  8
4
 10
698.7511483413923
 20
549.9256494348244
 30
0.0
 11
698.7511483413923
 21
529.6179571256819
 31
0.0
  0
LINE
  5
55A
  8
4
 10
692.5973021871059
 20
551.7718032811101
 30
0.0
 11
696.9049944951066
 21
551.7718032811101
 31
0.0
  0
ARC
  5
55B
  8
4
 10
692.5973021871059
 20
549.9256494348244
 30
0.0
 40
1.846153846285714
 50
90.0
 51
180.0
  0
ARC
  5
55C
  8
4
 10
696.9049944951066
 20
549.9256494348244
 30
0.0
 40
1.846153846285714
 50
0.0
 51
90.0
  0
LINE
  5
55D
  8
4
 10
744.7654340551044
 20
528.6346627103721
 30
0.0
 11
744.7654340551053
 21
525.4860889931108
 31
0.0
  0
LINE
  5
55E
  8
4
 10
720.7654340551053
 20
550.057517566825
 30
0.0
 11
720.7654340551053
 21
521.4860889931108
 31
0.0
  0
LINE
  5
55F
  8
4
 10
722.4797197693911
 20
519.771803278825
 30
0.0
 11
739.0511483408195
 21
519.771803278825
 31
0.0
  0
ARC
  5
560
  8
4
 10
722.4797197693911
 20
521.4860889931108
 30
0.0
 40
1.714285714285714
 50
180.0
 51
270.0
  0
ARC
  5
561
  8
4
 10
739.0511483408195
 20
525.4860889931108
 30
0.0
 40
5.714285714285714
 50
270.0
 51
0.0
  0
LINE
  5
562
  8
4
 10
752.6258736156738
 20
539.7718032802532
 30
0.0
 11
756.9335659236735
 21
539.7718032802532
 31
0.0
  0
LINE
  5
563
  8
4
 10
752.6258736156751
 20
531.771803279682
 30
0.0
 11
756.9335659236745
 21
531.771803279682
 31
0.0
  0
LINE
  5
564
  8
4
 10
722.4797197693911
 20
551.7718032811108
 30
0.0
 11
739.051148340815
 21
551.7718032811108
 31
0.0
  0
ARC
  5
565
  8
4
 10
722.4797197693911
 20
550.057517566825
 30
0.0
 40
1.714285714285714
 50
90.0
 51
180.0
  0
ARC
  5
566
  8
4
 10
752.6258736156751
 20
533.6179571259675
 30
0.0
 40
1.846153846285714
 50
180.0
 51
270.0
  0
ARC
  5
567
  8
4
 10
752.6258736156738
 20
537.9256494339677
 30
0.0
 40
1.846153846285714
 50
90.0
 51
180.0
  0
LINE
  5
568
  8
4
 10
750.7797197693881
 20
537.9256494339677
 30
0.0
 11
750.779719769389
 21
533.6179571259675
 31
0.0
  0
ARC
  5
569
  8
4
 10
744.7654340551035
 20
535.7718032799705
 30
0.0
 40
3.428571428571428
 50
128.6821874535039
 51
231.3178125465258
  0
ARC
  5
56A
  8
4
 10
739.0511483408154
 20
542.9089438495673
 30
0.0
 40
5.714285714285714
 50
308.6821874535033
 51
0.0
  0
LINE
  5
56B
  8
4
 10
744.7654340551007
 20
546.0575175668262
 30
0.0
 11
744.7654340551012
 21
542.9089438495687
 31
0.0
  0
ARC
  5
56C
  8
4
 10
739.051148340815
 20
546.057517566825
 30
0.0
 40
5.714285714285714
 50
0.0
 51
90.0
  0
ARC
  5
56D
  8
4
 10
739.051148340819
 20
528.6346627103705
 30
0.0
 40
5.714285714285714
 50
0.0
 51
51.31781254652364
  0
LINE
  5
56E
  8
4
 10
758.7797197699597
 20
537.9256494339677
 30
0.0
 11
758.7797197699606
 21
533.6179571259675
 31
0.0
  0
ARC
  5
56F
  8
4
 10
756.9335659236745
 20
533.6179571259675
 30
0.0
 40
1.846153846285714
 50
270.0
 51
0.0
  0
ARC
  5
570
  8
4
 10
756.9335659236735
 20
537.9256494339677
 30
0.0
 40
1.846153846285714
 50
0.0
 51
90.0
  0
LINE
  5
571
  8
4
 10
799.7940054842411
 20
556.7718032811113
 30
0.0
 11
799.7940054842484
 21
514.7718032788262
 31
0.0
  0
LINE
  5
572
  8
4
 10
685.7511483408198
 20
562.7718032811101
 30
0.0
 11
793.7940054842411
 21
562.7718032811101
 31
0.0
  0
LINE
  5
573
  8
4
 10
685.7511483408198
 20
508.771803278825
 30
0.0
 11
793.7940054842484
 21
508.771803278825
 31
0.0
  0
LINE
  5
574
  8
4
 10
679.7511483408198
 20
556.7718032811101
 30
0.0
 11
679.7511483408198
 21
514.771803278825
 31
0.0
  0
ARC
  5
575
  8
4
 10
685.7511483408198
 20
556.7718032811101
 30
0.0
 40
6.0
 50
90.0
 51
180.0
  0
ARC
  5
576
  8
4
 10
793.7940054842411
 20
556.7718032811101
 30
0.0
 40
6.0
 50
0.0
 51
90.0
  0
ARC
  5
577
  8
4
 10
793.7940054842484
 20
514.771803278825
 30
0.0
 40
6.0
 50
270.0
 51
0.0
  0
ARC
  5
578
  8
4
 10
685.7511483408198
 20
514.771803278825
 30
0.0
 40
6.0
 50
180.0
 51
270.0
  0
ARC
  5
579
  8
4
 10
783.0797197699558
 20
528.6346627103705
 30
0.0
 40
5.714285714285714
 50
0.0
 51
51.31781254652364
  0
ARC
  5
57A
  8
4
 10
783.0797197699517
 20
546.057517566825
 30
0.0
 40
5.714285714285714
 50
0.0
 51
90.0
  0
LINE
  5
57B
  8
4
 10
788.7940054842375
 20
546.0575175668262
 30
0.0
 11
788.7940054842379
 21
542.9089438495687
 31
0.0
  0
ARC
  5
57C
  8
4
 10
783.0797197699521
 20
542.9089438495673
 30
0.0
 40
5.714285714285714
 50
308.6821874535033
 51
0.0
  0
ARC
  5
57D
  8
4
 10
788.7940054842402
 20
535.7718032799705
 30
0.0
 40
3.428571428571428
 50
128.6821874535039
 51
231.3178125465258
  0
LINE
  5
57E
  8
4
 10
770.5082911985328
 20
551.7718032811108
 30
0.0
 11
783.0797197699517
 21
551.7718032811108
 31
0.0
  0
ARC
  5
57F
  8
4
 10
783.0797197699562
 20
525.4860889931108
 30
0.0
 40
5.714285714285714
 50
270.0
 51
0.0
  0
LINE
  5
580
  8
4
 10
770.5082911985278
 20
519.771803278825
 30
0.0
 11
783.0797197699562
 21
519.771803278825
 31
0.0
  0
LINE
  5
581
  8
4
 10
788.7940054842411
 20
528.6346627103721
 30
0.0
 11
788.794005484242
 21
525.4860889931108
 31
0.0
  0
LINE
  5
582
  8
4
 10
764.7940054842434
 20
528.6346627103721
 30
0.0
 11
764.7940054842425
 21
525.4860889931108
 31
0.0
  0
ARC
  5
583
  8
4
 10
770.5082911985278
 20
525.4860889931108
 30
0.0
 40
5.714285714285714
 50
180.0
 51
270.0
  0
ARC
  5
584
  8
4
 10
764.7940054842443
 20
535.7718032799705
 30
0.0
 40
3.428571428571428
 50
308.6821874534742
 51
51.31781254649611
  0
ARC
  5
585
  8
4
 10
770.5082911985319
 20
542.9089438495673
 30
0.0
 40
5.714285714285714
 50
180.0
 51
231.3178125464945
  0
LINE
  5
586
  8
4
 10
764.794005484247
 20
546.0575175668262
 30
0.0
 11
764.7940054842466
 21
542.9089438495687
 31
0.0
  0
ARC
  5
587
  8
4
 10
770.5082911985328
 20
546.057517566825
 30
0.0
 40
5.714285714285714
 50
90.0
 51
180.0
  0
ARC
  5
588
  8
4
 10
770.5082911985282
 20
528.6346627103705
 30
0.0
 40
5.714285714285714
 50
128.6821874534764
 51
180.0
  0
LINE
  5
589
  8
4
 10
619.2940054842434
 20
442.7718032811101
 30
0.0
 11
619.2940054842435
 21
457.9648721429725
 31
0.0
  0
LINE
  5
58A
  8
4
 10
1382.409980383334
 20
562.6719465854037
 30
0.0
 11
1379.690590521036
 21
562.9070319427071
 31
0.0
  0
LINE
  5
58B
  8
4
 10
1377.52576890315
 20
561.0867167604563
 30
0.0
 11
1374.284502148297
 21
523.5928121835789
 31
0.0
  0
ARC
  5
58C
  8
4
 10
1379.518337303219
 20
560.9144635426387
 30
0.0
 40
2.0
 50
85.05918759826235
 51
175.0591875982559
  0
LINE
  5
58D
  8
4
 10
679.7511483408198
 20
1119.956724771899
 30
0.0
 11
679.7511483408198
 21
1117.956724771899
 31
0.0
  0
LINE
  5
58E
  8
4
 10
799.7940054842466
 20
1119.956724771899
 30
0.0
 11
799.794005484247
 21
1117.9567247719
 31
0.0
  0
LINE
  5
58F
  8
4
 10
681.7511483408198
 20
1115.956724771899
 30
0.0
 11
797.794005484247
 21
1115.956724771899
 31
0.0
  0
ARC
  5
590
  8
4
 10
681.7511483408198
 20
1117.956724771899
 30
0.0
 40
2.0
 50
180.0
 51
270.0
  0
ARC
  5
591
  8
4
 10
797.794005484247
 20
1117.956724771899
 30
0.0
 40
2.0
 50
270.0
 51
0.0
  0
ARC
  5
592
  8
4
 10
617.2940054842435
 20
457.9648721429725
 30
0.0
 40
2.0
 50
0.0
 51
98.43611636638005
  0
ARC
  5
593
  8
4
 10
666.2940054842433
 20
457.9648721429725
 30
0.0
 40
2.0
 50
81.56388363361995
 51
180.0
  0
ARC
  5
594
  8
4
 10
592.3706654842435
 20
444.9470952811099
 30
0.0
 40
8.999988
 50
354.1535008175786
 51
107.9940760000011
  0
LINE
  5
595
  8
4
 10
601.3238388547921
 20
444.0303234463314
 30
0.0
 11
592.4558694842436
 21
364.5103312811101
 31
0.0
  0
ARC
  5
596
  8
4
 10
584.5051854842433
 20
365.3970472811101
 30
0.0
 40
7.999967999999999
 50
280.7197629999997
 51
353.6362569999999
  0
LINE
  5
5BA
  8
4
 10
321.7940054842434
 20
514.7718032811097
 30
0.0
 11
322.7940054842434
 21
515.7718032811097
 31
0.0
  0
LINE
  5
5BB
  8
4
 10
322.7940054842434
 20
469.7718032811097
 30
0.0
 11
321.7940054842434
 21
470.7718032811097
 31
0.0
  0
LINE
  5
5BC
  8
4
 10
321.7940054842434
 20
519.2718032811097
 30
0.0
 11
321.7940054842434
 21
470.7718032811097
 31
0.0
  0
LINE
  5
5BD
  8
4
 10
322.7940054842434
 20
515.7718032811097
 30
0.0
 11
322.7940054842434
 21
469.7718032811097
 31
0.0
  0
LINE
  5
5BE
  8
4
 10
411.7940054842434
 20
519.2718032811097
 30
0.0
 11
411.7940054842434
 21
515.7718032811097
 31
0.0
  0
LINE
  5
5BF
  8
4
 10
433.9941014842434
 20
528.7718032811099
 30
0.0
 11
434.9941014842434
 21
528.7718032811099
 31
0.0
  0
LINE
  5
5C0
  8
4
 10
421.7940054842434
 20
517.7718032811097
 30
0.0
 11
433.9941014842434
 21
517.7718032811099
 31
0.0
  0
LINE
  5
5C1
  8
4
 10
433.9941014842434
 20
467.7718032811099
 30
0.0
 11
421.7940054842434
 21
467.7718032811098
 31
0.0
  0
LINE
  5
5C2
  8
4
 10
421.7940054842434
 20
517.7718032811097
 30
0.0
 11
421.7940054842434
 21
467.7718032811098
 31
0.0
  0
LINE
  5
5C3
  8
4
 10
433.9941014842435
 20
456.7718032811099
 30
0.0
 11
434.9941014842435
 21
456.7718032811099
 31
0.0
  0
LINE
  5
5C4
  8
4
 10
433.9941014842435
 20
456.7718032811099
 30
0.0
 11
433.9941014842434
 21
528.7718032811099
 31
0.0
  0
LINE
  5
5C5
  8
4
 10
421.7940054842434
 20
515.7718032811097
 30
0.0
 11
322.7940054842434
 21
515.7718032811097
 31
0.0
  0
LINE
  5
5C6
  8
4
 10
321.7940054842434
 20
519.2718032811097
 30
0.0
 11
411.7940054842434
 21
519.2718032811097
 31
0.0
  0
LINE
  5
5C7
  8
4
 10
421.7940054842434
 20
469.7718032811098
 30
0.0
 11
322.7940054842434
 21
469.7718032811097
 31
0.0
  0
LINE
  5
5DF
  8
4
 10
322.7940054842434
 20
1218.956724771899
 30
0.0
 11
321.7940054842434
 21
1217.956724771899
 31
0.0
  0
LINE
  5
5E0
  8
4
 10
322.7940054842434
 20
1218.956724771899
 30
0.0
 11
322.7940054842434
 21
1201.956724771899
 31
0.0
  0
LINE
  5
5E1
  8
4
 10
321.7940054842434
 20
1173.956724771899
 30
0.0
 11
322.7940054842434
 21
1172.956724771899
 31
0.0
  0
LINE
  5
5E2
  8
4
 10
321.7940054842434
 20
1217.956724771899
 30
0.0
 11
321.7940054842434
 21
1173.956724771899
 31
0.0
  0
LINE
  5
5E3
  8
4
 10
322.7940054842434
 20
1189.956724771899
 30
0.0
 11
322.7940054842434
 21
1172.956724771899
 31
0.0
  0
ARC
  5
5E4
  8
4
 10
419.7940054842434
 20
1220.956724771899
 30
0.0
 40
2.0
 50
270.0
 51
0.0
  0
LINE
  5
5E5
  8
4
 10
433.9940054842432
 20
1231.956724771899
 30
0.0
 11
434.9940054842432
 21
1231.956724771899
 31
0.0
  0
LINE
  5
5E6
  8
4
 10
421.7940054842434
 20
1220.956724771899
 30
0.0
 11
433.9940054842432
 21
1220.956724771899
 31
0.0
  0
ARC
  5
5E7
  8
4
 10
405.7940054842434
 20
1195.956724771899
 30
0.0
 40
6.0
 50
270.0
 51
90.0
  0
ARC
  5
5E8
  8
4
 10
419.7940054842434
 20
1170.956724771899
 30
0.0
 40
2.0
 50
0.0
 51
90.0
  0
LINE
  5
5E9
  8
4
 10
433.9940054842432
 20
1159.956724771899
 30
0.0
 11
434.9940054842432
 21
1159.956724771899
 31
0.0
  0
LINE
  5
5EA
  8
4
 10
421.7940054842434
 20
1170.956724771899
 30
0.0
 11
433.9940054842432
 21
1170.956724771899
 31
0.0
  0
LINE
  5
5EB
  8
4
 10
433.9940054842432
 20
1159.956724771899
 30
0.0
 11
433.9940054842432
 21
1231.956724771899
 31
0.0
  0
LINE
  5
5EC
  8
4
 10
421.7940054842434
 20
1170.956724771899
 30
0.0
 11
421.7940054842434
 21
1220.956724771899
 31
0.0
  0
LINE
  5
5ED
  8
4
 10
321.7940054842434
 20
1201.956724771899
 30
0.0
 11
405.7940054842434
 21
1201.956724771899
 31
0.0
  0
LINE
  5
5EE
  8
4
 10
321.7940054842434
 20
1189.956724771899
 30
0.0
 11
405.7940054842434
 21
1189.956724771899
 31
0.0
  0
LINE
  5
5EF
  8
4
 10
419.7940054842434
 20
1172.956724771899
 30
0.0
 11
322.7940054842434
 21
1172.956724771899
 31
0.0
  0
LINE
  5
5F0
  8
4
 10
419.7940054842434
 20
1218.956724771899
 30
0.0
 11
322.7940054842434
 21
1218.956724771899
 31
0.0
  0
LINE
  5
5F2
  8
4
 10
1183.499812601731
 20
325.7718032811101
 30
0.0
 11
1184.499812601731
 21
326.7718032811101
 31
0.0
  0
LINE
  5
5F3
  8
4
 10
1184.499812601731
 20
258.7718032811101
 30
0.0
 11
1183.499812601731
 21
259.7718032811101
 31
0.0
  0
LINE
  5
5F4
  8
4
 10
1183.499812601731
 20
332.7718032811101
 30
0.0
 11
1183.499812601731
 21
259.7718032811101
 31
0.0
  0
LINE
  5
5F5
  8
4
 10
1184.499812601731
 20
326.7718032811101
 30
0.0
 11
1184.499812601731
 21
258.7718032811101
 31
0.0
  0
LINE
  5
5F6
  8
4
 10
1293.499812601731
 20
332.7718032811101
 30
0.0
 11
1293.499812601731
 21
326.7718032811101
 31
0.0
  0
LINE
  5
5F7
  8
4
 10
1313.499812601731
 20
342.7718032811101
 30
0.0
 11
1312.499812601731
 21
342.7718032811101
 31
0.0
  0
LINE
  5
5F8
  8
4
 10
1303.499812601731
 20
327.7718032811101
 30
0.0
 11
1312.499812601731
 21
327.7718032811101
 31
0.0
  0
LINE
  5
5F9
  8
4
 10
1313.499812601731
 20
242.7718032811101
 30
0.0
 11
1312.499812601731
 21
242.7718032811101
 31
0.0
  0
LINE
  5
5FA
  8
4
 10
1312.499812601731
 20
257.7718032811101
 30
0.0
 11
1303.499812601731
 21
257.7718032811101
 31
0.0
  0
LINE
  5
5FB
  8
4
 10
1303.499812601731
 20
327.7718032811101
 30
0.0
 11
1303.499812601731
 21
257.7718032811101
 31
0.0
  0
LINE
  5
5FC
  8
4
 10
1312.499812601731
 20
242.7718032811101
 30
0.0
 11
1312.499812601731
 21
342.7718032811101
 31
0.0
  0
LINE
  5
5FD
  8
4
 10
1183.499812601731
 20
332.7718032811101
 30
0.0
 11
1293.499812601731
 21
332.7718032811101
 31
0.0
  0
LINE
  5
5FE
  8
4
 10
1303.499812601731
 20
326.7718032811101
 30
0.0
 11
1184.499812601731
 21
326.7718032811101
 31
0.0
  0
LINE
  5
5FF
  8
4
 10
1303.499812601731
 20
258.7718032811101
 30
0.0
 11
1184.499812601731
 21
258.7718032811101
 31
0.0
  0
LINE
  5
606
  8
4
 10
650.7940054842435
 20
332.7718032811101
 30
0.0
 11
650.7940054842435
 21
320.7718032811101
 31
0.0
  0
LINE
  5
607
  8
4
 10
632.7940054842435
 20
320.7718032811101
 30
0.0
 11
632.7940054842435
 21
332.7718032811101
 31
0.0
  0
LINE
  5
608
  8
4
 10
650.7940054842435
 20
320.7718032811101
 30
0.0
 11
632.7940054842435
 21
320.7718032811101
 31
0.0
  0
LINE
  5
609
  8
4
 10
650.7940054842435
 20
332.7718032811101
 30
0.0
 11
632.7940054842435
 21
332.7718032811101
 31
0.0
  0
ARC
  5
60A
  8
4
 10
641.7940054842435
 20
292.7718032811101
 30
0.0
 40
33.99992
 50
105.3495140230844
 51
74.65048600000011
  0
CIRCLE
  5
60C
  8
4
 10
641.7940054842435
 20
292.7718032811101
 30
0.0
 40
50.0
  0
LINE
  5
60D
  8
4
 10
675.7940054842434
 20
926.956724771899
 30
0.0
 11
674.7940054842434
 21
925.956724771899
 31
0.0
  0
LINE
  5
60E
  8
4
 10
674.7940054842434
 20
925.956724771899
 30
0.0
 11
608.7940054842434
 21
925.956724771899
 31
0.0
  0
LINE
  5
60F
  8
4
 10
650.7940054842434
 20
926.956724771899
 30
0.0
 11
675.7940054842434
 21
926.956724771899
 31
0.0
  0
LINE
  5
610
  8
4
 10
607.7940054842434
 20
926.956724771899
 30
0.0
 11
632.7940054842434
 21
926.956724771899
 31
0.0
  0
LINE
  5
611
  8
4
 10
607.7940054842434
 20
926.956724771899
 30
0.0
 11
608.7940054842434
 21
925.956724771899
 31
0.0
  0
LINE
  5
612
  8
4
 10
676.7940054842434
 20
1054.9567247719
 30
0.0
 11
676.7940054842434
 21
1045.956724771899
 31
0.0
  0
LINE
  5
613
  8
4
 10
691.7940054842434
 20
1054.956724771899
 30
0.0
 11
691.7940054842434
 21
1055.956724771899
 31
0.0
  0
ARC
  5
614
  8
4
 10
676.7940054842434
 20
1044.956724771899
 30
0.0
 40
1.0
 50
90.0
 51
180.0
  0
ARC
  5
615
  8
4
 10
641.7940054842434
 20
1026.956724771899
 30
0.0
 40
9.0
 50
0.0
 51
180.0
  0
ARC
  5
616
  8
4
 10
606.7940054842434
 20
1044.956724771899
 30
0.0
 40
1.0
 50
0.0
 51
90.0
  0
LINE
  5
617
  8
4
 10
591.7940054842434
 20
1054.956724771899
 30
0.0
 11
591.7940054842434
 21
1055.956724771899
 31
0.0
  0
LINE
  5
618
  8
4
 10
606.7940054842434
 20
1054.9567247719
 30
0.0
 11
606.7940054842434
 21
1045.956724771899
 31
0.0
  0
LINE
  5
619
  8
4
 10
606.7940054842434
 20
1045.956724771899
 30
0.0
 11
676.7940054842434
 21
1045.956724771899
 31
0.0
  0
LINE
  5
61A
  8
4
 10
591.7940054842434
 20
1054.956724771899
 30
0.0
 11
691.7940054842434
 21
1054.956724771899
 31
0.0
  0
LINE
  5
61B
  8
4
 10
650.7940054842434
 20
925.956724771899
 30
0.0
 11
650.7940054842434
 21
1026.956724771899
 31
0.0
  0
LINE
  5
61C
  8
4
 10
632.7940054842434
 20
925.956724771899
 30
0.0
 11
632.7940054842434
 21
1026.956724771899
 31
0.0
  0
LINE
  5
61D
  8
4
 10
607.7940054842434
 20
1044.956724771899
 30
0.0
 11
607.7940054842434
 21
926.956724771899
 31
0.0
  0
LINE
  5
61E
  8
4
 10
675.7940054842434
 20
1044.956724771899
 30
0.0
 11
675.7940054842434
 21
926.956724771899
 31
0.0
  0
CIRCLE
  5
673
  8
4
 10
1453.499812601731
 20
492.7718032811101
 30
0.0
 40
60.0
  0
ENDSEC
  0
EOF
