  0
SECTION
  2
HEADER
  9
$ACADVER
  1
AC1015
  9
$ACADMAINTVER
 70
     6
  9
$DWGCODEPAGE
  3
ANSI_932
  9
$INSBASE
 10
2327.308868348478
 20
683.589813689543
 30
0.0
  9
$EXTMIN
 10
412.2496117817604
 20
27.85251402533208
 30
0.0
  9
$EXTMAX
 10
1820.040461219828
 20
1371.133394719457
 30
0.0
  9
$LIMMIN
 10
0.0
 20
0.0
  9
$LIMMAX
 10
816.5000000000001
 20
565.0
  9
$ORTHOMODE
 70
     1
  9
$REGENMODE
 70
     1
  9
$FILLMODE
 70
     1
  9
$QTEXTMODE
 70
     0
  9
$MIRRTEXT
 70
     1
  9
$LTSCALE
 40
20.0
  9
$ATTMODE
 70
     1
  9
$TEXTSIZE
 40
15.0
  9
$TRACEWID
 40
0.05
  9
$TEXTSTYLE
  7
KANJI
  9
$CLAYER
  8
2
  9
$CELTYPE
  6
BYLAYER
  9
$CECOLOR
 62
   256
  9
$CELTSCALE
 40
1.0
  9
$DISPSILH
 70
     0
  9
$DIMSCALE
 40
5.0
  9
$DIMASZ
 40
2.0
  9
$DIMEXO
 40
0.5
  9
$DIMDLI
 40
0.0
  9
$DIMRND
 40
0.0
  9
$DIMDLE
 40
0.0
  9
$DIMEXE
 40
1.0
  9
$DIMTP
 40
0.0
  9
$DIMTM
 40
0.0
  9
$DIMTXT
 40
3.0
  9
$DIMCEN
 40
0.09
  9
$DIMTSZ
 40
0.0
  9
$DIMTOL
 70
     0
  9
$DIMLIM
 70
     0
  9
$DIMTIH
 70
     0
  9
$DIMTOH
 70
     0
  9
$DIMSE1
 70
     0
  9
$DIMSE2
 70
     0
  9
$DIMTAD
 70
     0
  9
$DIMZIN
 70
     8
  9
$DIMBLK
  1

  9
$DIMASO
 70
     0
  9
$DIMSHO
 70
     0
  9
$DIMPOST
  1

  9
$DIMAPOST
  1

  9
$DIMALT
 70
     0
  9
$DIMALTD
 70
     2
  9
$DIMALTF
 40
25.4
  9
$DIMLFAC
 40
1.0
  9
$DIMTOFL
 70
     1
  9
$DIMTVP
 40
1.0
  9
$DIMTIX
 70
     1
  9
$DIMSOXD
 70
     1
  9
$DIMSAH
 70
     0
  9
$DIMBLK1
  1

  9
$DIMBLK2
  1

  9
$DIMSTYLE
  2
STANDARD
  9
$DIMCLRD
 70
   256
  9
$DIMCLRE
 70
   256
  9
$DIMCLRT
 70
   256
  9
$DIMTFAC
 40
1.0
  9
$DIMGAP
 40
0.09
  9
$DIMJUST
 70
     0
  9
$DIMSD1
 70
     0
  9
$DIMSD2
 70
     0
  9
$DIMTOLJ
 70
     1
  9
$DIMTZIN
 70
     0
  9
$DIMALTZ
 70
     0
  9
$DIMALTTZ
 70
     0
  9
$DIMUPT
 70
     0
  9
$DIMDEC
 70
     1
  9
$DIMTDEC
 70
     4
  9
$DIMALTU
 70
     2
  9
$DIMALTTD
 70
     2
  9
$DIMTXSTY
  7
STANDARD
  9
$DIMAUNIT
 70
     0
  9
$DIMADEC
 70
     0
  9
$DIMALTRND
 40
0.0
  9
$DIMAZIN
 70
     0
  9
$DIMDSEP
 70
    46
  9
$DIMATFIT
 70
     3
  9
$DIMFRAC
 70
     0
  9
$DIMLDRBLK
  1

  9
$DIMLUNIT
 70
     2
  9
$DIMLWD
 70
    -2
  9
$DIMLWE
 70
    -2
  9
$DIMTMOVE
 70
     0
  9
$LUNITS
 70
     2
  9
$LUPREC
 70
     3
  9
$SKETCHINC
 40
0.1
  9
$FILLETRAD
 40
2.0
  9
$AUNITS
 70
     0
  9
$AUPREC
 70
     3
  9
$MENU
  1
C:\R13\WIN\SUPPORT\ACADFULL
  9
$ELEVATION
 40
0.0
  9
$PELEVATION
 40
0.0
  9
$THICKNESS
 40
0.0
  9
$LIMCHECK
 70
     0
  9
$CHAMFERA
 40
0.0
  9
$CHAMFERB
 40
0.0
  9
$CHAMFERC
 40
0.0
  9
$CHAMFERD
 40
0.0
  9
$SKPOLY
 70
     0
  9
$TDCREATE
 40
2457539.744020845
  9
$TDUCREATE
 40
2457539.369020845
  9
$TDUPDATE
 40
2457870.605520776
  9
$TDUUPDATE
 40
2457870.230520776
  9
$TDINDWG
 40
0.013825706
  9
$TDUSRTIMER
 40
0.0138252199
  9
$USRTIMER
 70
     1
  9
$ANGBASE
 50
0.0
  9
$ANGDIR
 70
     0
  9
$PDMODE
 70
     0
  9
$PDSIZE
 40
0.0
  9
$PLINEWID
 40
0.0
  9
$SPLFRAME
 70
     0
  9
$SPLINETYPE
 70
     6
  9
$SPLINESEGS
 70
     8
  9
$HANDSEED
  5
606
  9
$SURFTAB1
 70
     6
  9
$SURFTAB2
 70
     6
  9
$SURFTYPE
 70
     6
  9
$SURFU
 70
     6
  9
$SURFV
 70
     6
  9
$UCSBASE
  2

  9
$UCSNAME
  2

  9
$UCSORG
 10
0.0
 20
0.0
 30
0.0
  9
$UCSXDIR
 10
1.0
 20
0.0
 30
0.0
  9
$UCSYDIR
 10
0.0
 20
1.0
 30
0.0
  9
$UCSORTHOREF
  2

  9
$UCSORTHOVIEW
 70
     0
  9
$UCSORGTOP
 10
0.0
 20
0.0
 30
0.0
  9
$UCSORGBOTTOM
 10
0.0
 20
0.0
 30
0.0
  9
$UCSORGLEFT
 10
0.0
 20
0.0
 30
0.0
  9
$UCSORGRIGHT
 10
0.0
 20
0.0
 30
0.0
  9
$UCSORGFRONT
 10
0.0
 20
0.0
 30
0.0
  9
$UCSORGBACK
 10
0.0
 20
0.0
 30
0.0
  9
$PUCSBASE
  2

  9
$PUCSNAME
  2

  9
$PUCSORG
 10
0.0
 20
0.0
 30
0.0
  9
$PUCSXDIR
 10
1.0
 20
0.0
 30
0.0
  9
$PUCSYDIR
 10
0.0
 20
1.0
 30
0.0
  9
$PUCSORTHOREF
  2

  9
$PUCSORTHOVIEW
 70
     0
  9
$PUCSORGTOP
 10
0.0
 20
0.0
 30
0.0
  9
$PUCSORGBOTTOM
 10
0.0
 20
0.0
 30
0.0
  9
$PUCSORGLEFT
 10
0.0
 20
0.0
 30
0.0
  9
$PUCSORGRIGHT
 10
0.0
 20
0.0
 30
0.0
  9
$PUCSORGFRONT
 10
0.0
 20
0.0
 30
0.0
  9
$PUCSORGBACK
 10
0.0
 20
0.0
 30
0.0
  9
$USERI1
 70
     0
  9
$USERI2
 70
     0
  9
$USERI3
 70
     0
  9
$USERI4
 70
     0
  9
$USERI5
 70
     0
  9
$USERR1
 40
0.0
  9
$USERR2
 40
0.0
  9
$USERR3
 40
0.0
  9
$USERR4
 40
2448925.372986111
  9
$USERR5
 40
0.04166667
  9
$WORLDVIEW
 70
     1
  9
$SHADEDGE
 70
     3
  9
$SHADEDIF
 70
    70
  9
$TILEMODE
 70
     1
  9
$MAXACTVP
 70
    16
  9
$PINSBASE
 10
0.0
 20
0.0
 30
0.0
  9
$PLIMCHECK
 70
     0
  9
$PEXTMIN
 10
1.000000000000000E+20
 20
1.000000000000000E+20
 30
1.000000000000000E+20
  9
$PEXTMAX
 10
-1.000000000000000E+20
 20
-1.000000000000000E+20
 30
-1.000000000000000E+20
  9
$PLIMMIN
 10
0.0
 20
0.0
  9
$PLIMMAX
 10
12.0
 20
9.0
  9
$UNITMODE
 70
     0
  9
$VISRETAIN
 70
     0
  9
$PLINEGEN
 70
     0
  9
$PSLTSCALE
 70
     0
  9
$TREEDEPTH
 70
  3020
  9
$CMLSTYLE
  2
STANDARD
  9
$CMLJUST
 70
     0
  9
$CMLSCALE
 40
1.0
  9
$PROXYGRAPHICS
 70
     1
  9
$MEASUREMENT
 70
     0
  9
$CELWEIGHT
370
    -1
  9
$ENDCAPS
280
     0
  9
$JOINSTYLE
280
     0
  9
$LWDISPLAY
290
     0
  9
$INSUNITS
 70
     0
  9
$HYPERLINKBASE
  1

  9
$STYLESHEET
  1

  9
$XEDIT
290
     1
  9
$CEPSNTYPE
380
     0
  9
$PSTYLEMODE
290
     1
  9
$FINGERPRINTGUID
  2
{5E61AFAB-EE95-44EA-A1E6-B17F772D6316}
  9
$VERSIONGUID
  2
{8A822FD0-F6D6-4A0D-BB4E-0C9A4B32D6D8}
  9
$EXTNAMES
290
     1
  9
$PSVPSCALE
 40
0.0
  9
$OLESTARTUP
290
     0
  0
ENDSEC
  0
SECTION
  2
CLASSES
  0
CLASS
  1
ACDBDICTIONARYWDFLT
  2
AcDbDictionaryWithDefault
  3
ObjectDBX Classes
 90
        0
280
     0
281
     0
  0
CLASS
  1
MATERIAL
  2
AcDbMaterial
  3
ObjectDBX Classes
 90
     1153
280
     0
281
     0
  0
CLASS
  1
SORTENTSTABLE
  2
AcDbSortentsTable
  3
ObjectDBX Classes
 90
        0
280
     0
281
     0
  0
CLASS
  1
SCALE
  2
AcDbScale
  3
ObjectDBX Classes
 90
     1153
280
     0
281
     0
  0
CLASS
  1
DICTIONARYVAR
  2
AcDbDictionaryVar
  3
ObjectDBX Classes
 90
        0
280
     0
281
     0
  0
CLASS
  1
VISUALSTYLE
  2
AcDbVisualStyle
  3
ObjectDBX Classes
 90
     4095
280
     0
281
     0
  0
CLASS
  1
MLEADERSTYLE
  2
AcDbMLeaderStyle
  3
ACDB_MLEADERSTYLE_CLASS
 90
     4095
280
     0
281
     0
  0
CLASS
  1
TABLESTYLE
  2
AcDbTableStyle
  3
ObjectDBX Classes
 90
     4095
280
     0
281
     0
  0
CLASS
  1
ACDBPLACEHOLDER
  2
AcDbPlaceHolder
  3
ObjectDBX Classes
 90
        0
280
     0
281
     0
  0
CLASS
  1
LAYOUT
  2
AcDbLayout
  3
ObjectDBX Classes
 90
        0
280
     0
281
     0
  0
ENDSEC
  0
SECTION
  2
TABLES
  0
TABLE
  2
VPORT
  5
26
102
{ACAD_XDICTIONARY
360
5CB
102
}
330
0
100
AcDbSymbolTable
 70
     1
  0
VPORT
  5
2B
330
26
100
AcDbSymbolTableRecord
100
AcDbViewportTableRecord
  2
*Active
 70
     0
 10
0.0
 20
0.0
 11
1.0
 21
1.0
 12
1941.000783274939
 22
726.8762836704133
 13
0.0
 23
0.0
 14
1.0
 24
1.0
 15
50.0
 25
50.0
 16
0.0
 26
0.0
 36
1.0
 17
0.0
 27
0.0
 37
0.0
 40
2134.613297628547
 41
2.174107142857143
 42
50.0
 43
0.0
 44
0.0
 50
0.0
 51
0.0
 71
     0
 72
  5000
 73
     1
 74
     0
 75
     0
 76
     0
 77
     0
 78
     1
281
     0
 65
     1
110
0.0
120
0.0
130
0.0
111
1.0
121
0.0
131
0.0
112
0.0
122
1.0
132
0.0
 79
     0
146
0.0
  0
ENDTAB
  0
TABLE
  2
LTYPE
  5
B
330
0
100
AcDbSymbolTable
 70
     2
  0
LTYPE
  5
C
330
B
100
AcDbSymbolTableRecord
100
AcDbLinetypeTableRecord
  2
BYBLOCK
 70
     0
  3

 72
    65
 73
     0
 40
0.0
  0
LTYPE
  5
D
330
B
100
AcDbSymbolTableRecord
100
AcDbLinetypeTableRecord
  2
BYLAYER
 70
     0
  3

 72
    65
 73
     0
 40
0.0
  0
LTYPE
  5
A
330
B
100
AcDbSymbolTableRecord
100
AcDbLinetypeTableRecord
  2
CONTINUOUS
 70
     0
  3
Solid line
 72
    65
 73
     0
 40
0.0
  0
LTYPE
  5
73
330
B
100
AcDbSymbolTableRecord
100
AcDbLinetypeTableRecord
  2
CENTER
 70
     0
  3
Center ____ _ ____ _ ____ _ ____ _ ____ _ ____
 72
    65
 73
     4
 40
2.0
 49
1.25
 74
     0
 49
-0.25
 74
     0
 49
0.25
 74
     0
 49
-0.25
 74
     0
  0
ENDTAB
  0
TABLE
  2
LAYER
  5
2
330
0
100
AcDbSymbolTable
 70
     7
  0
LAYER
  5
1B
330
2
100
AcDbSymbolTableRecord
100
AcDbLayerTableRecord
  2
0
 70
     0
 62
     7
  6
CONTINUOUS
370
    -3
390
3
  0
LAYER
  5
E5
330
2
100
AcDbSymbolTableRecord
100
AcDbLayerTableRecord
  2
1
 70
     0
 62
     9
  6
CONTINUOUS
370
    -3
390
3
  0
LAYER
  5
1
330
2
100
AcDbSymbolTableRecord
100
AcDbLayerTableRecord
  2
2
 70
     0
 62
     4
  6
CONTINUOUS
370
    -3
390
3
  0
LAYER
  5
E2
330
2
100
AcDbSymbolTableRecord
100
AcDbLayerTableRecord
  2
4
 70
     0
 62
     3
  6
CONTINUOUS
370
    -3
390
3
  0
LAYER
  5
72
330
2
100
AcDbSymbolTableRecord
100
AcDbLayerTableRecord
  2
L-CENTER
 70
     0
 62
     1
  6
CENTER
370
    -3
390
3
  0
LAYER
  5
78
330
2
100
AcDbSymbolTableRecord
100
AcDbLayerTableRecord
  2
3
 70
     0
 62
     2
  6
CONTINUOUS
370
    -3
390
3
  0
LAYER
  5
DD
330
2
100
AcDbSymbolTableRecord
100
AcDbLayerTableRecord
  2
5
 70
     0
 62
     6
  6
CONTINUOUS
370
    -3
390
3
  0
ENDTAB
  0
TABLE
  2
STYLE
  5
F
330
0
100
AcDbSymbolTable
 70
     2
  0
STYLE
  5
13
330
F
100
AcDbSymbolTableRecord
100
AcDbTextStyleTableRecord
  2
STANDARD
 70
     0
 40
0.0
 41
1.0
 50
0.0
 71
     0
 42
9.0
  3
TXT
  4

  0
STYLE
  5
E
330
F
100
AcDbSymbolTableRecord
100
AcDbTextStyleTableRecord
  2
KANJI
 70
     0
 40
0.0
 41
1.0
 50
0.0
 71
     0
 42
15.0
  3
TXT
  4
BIGFONT
  0
ENDTAB
  0
TABLE
  2
VIEW
  5
24
330
0
100
AcDbSymbolTable
 70
     0
  0
ENDTAB
  0
TABLE
  2
UCS
  5
25
330
0
100
AcDbSymbolTable
 70
     0
  0
ENDTAB
  0
TABLE
  2
APPID
  5
9
330
0
100
AcDbSymbolTable
 70
     3
  0
APPID
  5
8
330
9
100
AcDbSymbolTableRecord
100
AcDbRegAppTableRecord
  2
ACAD
 70
     0
  0
APPID
  5
1F
330
9
100
AcDbSymbolTableRecord
100
AcDbRegAppTableRecord
  2
ACAD_PSEXT
 70
     0
  0
APPID
  5
5B6
330
9
100
AcDbSymbolTableRecord
100
AcDbRegAppTableRecord
  2
ACAD_MLEADERVER
 70
     0
  0
ENDTAB
  0
TABLE
  2
DIMSTYLE
  5
12
330
0
100
AcDbSymbolTable
 70
     1
100
AcDbDimStyleTable
  0
DIMSTYLE
105
11
330
12
100
AcDbSymbolTableRecord
100
AcDbDimStyleTableRecord
  2
STANDARD
 70
     0
178
     0
340
13
  0
ENDTAB
  0
TABLE
  2
BLOCK_RECORD
  5
16
330
0
100
AcDbSymbolTable
 70
     0
  0
BLOCK_RECORD
  5
17
102
{ACAD_XDICTIONARY
360
18
102
}
330
16
100
AcDbSymbolTableRecord
100
AcDbBlockTableRecord
  2
*MODEL_SPACE
340
1D
  0
BLOCK_RECORD
  5
20
330
16
100
AcDbSymbolTableRecord
100
AcDbBlockTableRecord
  2
*PAPER_SPACE
340
23
  0
ENDTAB
  0
ENDSEC
  0
SECTION
  2
BLOCKS
  0
BLOCK
  5
1A
330
17
100
AcDbEntity
  8
0
100
AcDbBlockBegin
  2
*MODEL_SPACE
 70
     0
 10
0.0
 20
0.0
 30
0.0
  3
*MODEL_SPACE
  1

  0
ENDBLK
  5
1C
330
17
100
AcDbEntity
  8
0
100
AcDbBlockEnd
  0
BLOCK
  5
21
330
20
100
AcDbEntity
 67
     1
  8
0
100
AcDbBlockBegin
  2
*PAPER_SPACE
 70
     0
 10
0.0
 20
0.0
 30
0.0
  3
*PAPER_SPACE
  1

  0
ENDBLK
  5
22
330
20
100
AcDbEntity
 67
     1
  8
0
100
AcDbBlockEnd
  0
ENDSEC
  0
SECTION
  2
ENTITIES
  0
ARC
  5
1B8
330
17
100
AcDbEntity
  8
4
100
AcDbCircle
 10
1439.90137309401
 20
619.8831329812178
 30
0.0
 40
5.000032
100
AcDbArc
 50
8.796780999999575
 51
82.43289400000018
  0
LINE
  5
1B9
330
17
100
AcDbEntity
  8
4
100
AcDbLine
 10
1416.50732909401
 20
597.9983649812177
 30
0.0
 11
1423.44751709401
 21
604.9387969812178
 31
0.0
  0
LINE
  5
1BA
330
17
100
AcDbEntity
  8
4
100
AcDbLine
 10
1423.44751709401
 20
604.9387969812178
 30
0.0
 11
1432.92798509401
 21
602.3985129812179
 31
0.0
  0
LINE
  5
1BB
330
17
100
AcDbEntity
  8
4
100
AcDbLine
 10
1432.92798509401
 20
602.3985129812179
 30
0.0
 11
1435.46826909401
 21
592.9180449812179
 31
0.0
  0
ARC
  5
1BC
330
17
100
AcDbEntity
  8
4
100
AcDbCircle
 10
1374.72241709401
 20
685.9431889812179
 30
0.0
 40
6.25
100
AcDbArc
 50
0.0
 51
180.0
  0
LINE
  5
1BD
330
17
100
AcDbEntity
  8
4
100
AcDbLine
 10
1394.64087309401
 20
638.1931889812179
 30
0.0
 11
1394.64087309401
 21
643.1931889812179
 31
0.0
  0
LINE
  5
1BE
330
17
100
AcDbEntity
  8
4
100
AcDbLine
 10
1396.72241709401
 20
634.1931889812179
 30
0.0
 11
1396.72241709401
 21
632.1931889812179
 31
0.0
  0
LINE
  5
1BF
330
17
100
AcDbEntity
  8
4
100
AcDbLine
 10
1397.72241709401
 20
634.1931889812179
 30
0.0
 11
1397.72241709401
 21
638.1931889812179
 31
0.0
  0
LINE
  5
1C0
330
17
100
AcDbEntity
  8
4
100
AcDbLine
 10
1388.35889309401
 20
638.1931889812179
 30
0.0
 11
1397.72241709401
 21
638.1931889812179
 31
0.0
  0
LINE
  5
1C1
330
17
100
AcDbEntity
  8
4
100
AcDbLine
 10
1389.26782909401
 20
634.1931889812179
 30
0.0
 11
1397.72241709401
 21
634.1931889812179
 31
0.0
  0
LINE
  5
1C2
330
17
100
AcDbEntity
  8
4
100
AcDbLine
 10
1385.72241709401
 20
650.1931889812179
 30
0.0
 11
1374.72241709401
 21
650.1931889812179
 31
0.0
  0
LINE
  5
1C3
330
17
100
AcDbEntity
  8
4
100
AcDbLine
 10
1374.72241709401
 20
648.1931889812179
 30
0.0
 11
1385.72241709401
 21
648.1931889812179
 31
0.0
  0
LINE
  5
1C4
330
17
100
AcDbEntity
  8
4
100
AcDbLine
 10
1383.72241709401
 20
651.1931889812179
 30
0.0
 11
1365.72241709401
 21
651.1931889812179
 31
0.0
  0
LINE
  5
1C5
330
17
100
AcDbEntity
  8
4
100
AcDbLine
 10
1384.72241709401
 20
638.1931889812179
 30
0.0
 11
1374.72241709401
 21
638.1931889812179
 31
0.0
  0
ARC
  5
1C6
330
17
100
AcDbEntity
  8
4
100
AcDbCircle
 10
1384.72241709401
 20
634.1931889812179
 30
0.0
 40
4.0
100
AcDbArc
 50
90.0
 51
180.0
  0
LINE
  5
1C7
330
17
100
AcDbEntity
  8
4
100
AcDbLine
 10
1379.59741709401
 20
634.1931889812179
 30
0.0
 11
1374.72241709401
 21
634.1931889812179
 31
0.0
  0
LINE
  5
1C8
330
17
100
AcDbEntity
  8
4
100
AcDbLine
 10
1380.72241709401
 20
634.1931889812179
 30
0.0
 11
1380.72241709401
 21
633.889476981218
 31
0.0
  0
ARC
  5
1C9
330
17
100
AcDbEntity
  8
4
100
AcDbCircle
 10
1379.59741709401
 20
631.9573489812178
 30
0.0
 40
2.235808
100
AcDbArc
 50
43.38061499999717
 51
136.6193850000028
  0
LINE
  5
1CA
330
17
100
AcDbEntity
  8
4
100
AcDbLine
 10
1368.72241709401
 20
634.1931889812179
 30
0.0
 11
1368.72241709401
 21
633.889476981218
 31
0.0
  0
ARC
  5
1CB
330
17
100
AcDbEntity
  8
4
100
AcDbCircle
 10
1369.84741709401
 20
631.9573489812178
 30
0.0
 40
2.235808
100
AcDbArc
 50
43.38061499999717
 51
136.6193850000028
  0
ARC
  5
1CC
330
17
100
AcDbEntity
  8
4
100
AcDbCircle
 10
1374.72241709401
 20
626.301588981218
 30
0.0
 40
7.891472
100
AcDbArc
 50
65.67971300000129
 51
114.3202869999987
  0
LINE
  5
1CD
330
17
100
AcDbEntity
  8
4
100
AcDbLine
 10
1369.84741709401
 20
634.1931889812179
 30
0.0
 11
1374.72241709401
 21
634.1931889812179
 31
0.0
  0
LINE
  5
1CE
330
17
100
AcDbEntity
  8
4
100
AcDbLine
 10
1384.72241709401
 20
638.1931889812179
 30
0.0
 11
1384.72241709401
 21
648.1931889812179
 31
0.0
  0
LINE
  5
1CF
330
17
100
AcDbEntity
  8
4
100
AcDbLine
 10
1385.72241709401
 20
650.1931889812179
 30
0.0
 11
1385.72241709401
 21
648.1931889812179
 31
0.0
  0
LINE
  5
1D0
330
17
100
AcDbEntity
  8
4
100
AcDbLine
 10
1383.72241709401
 20
651.1931889812179
 30
0.0
 11
1385.72241709401
 21
650.1931889812179
 31
0.0
  0
ARC
  5
1D1
330
17
100
AcDbEntity
  8
4
100
AcDbCircle
 10
1386.34424509401
 20
642.0930929812178
 30
0.0
 40
1.100112
100
AcDbArc
 50
12.80874900000706
 51
90.0
  0
LINE
  5
1D2
330
17
100
AcDbEntity
  8
4
100
AcDbLine
 10
1384.72241709401
 20
643.1931889812179
 30
0.0
 11
1386.34424509401
 21
643.1931889812179
 31
0.0
  0
LINE
  5
1D3
330
17
100
AcDbEntity
  8
4
100
AcDbLine
 10
1384.72241709401
 20
643.4102289812179
 30
0.0
 11
1386.48413709401
 21
643.1841569812179
 31
0.0
  0
LINE
  5
1D4
330
17
100
AcDbEntity
  8
4
100
AcDbLine
 10
1381.22241709401
 20
632.1931889812179
 30
0.0
 11
1396.72241709401
 21
632.1931889812179
 31
0.0
  0
LINE
  5
1D5
330
17
100
AcDbEntity
  8
4
100
AcDbLine
 10
1381.22241709401
 20
632.1931889812179
 30
0.0
 11
1396.72241709401
 21
632.1931889812179
 31
0.0
  0
LINE
  5
1D6
330
17
100
AcDbEntity
  8
4
100
AcDbLine
 10
1381.22241709401
 20
632.1931889812179
 30
0.0
 11
1389.72241709401
 21
632.1931889812179
 31
0.0
  0
LINE
  5
1D7
330
17
100
AcDbEntity
  8
4
100
AcDbLine
 10
1381.22241709401
 20
632.1931889812179
 30
0.0
 11
1399.72241709401
 21
632.1931889812179
 31
0.0
  0
LINE
  5
1D8
330
17
100
AcDbEntity
  8
4
100
AcDbLine
 10
1387.41699709401
 20
642.3369889812179
 30
0.0
 11
1389.72241709401
 21
632.1931889812179
 31
0.0
  0
LINE
  5
1D9
330
17
100
AcDbEntity
  8
4
100
AcDbLine
 10
1386.34424509401
 20
643.1931889812179
 30
0.0
 11
1394.64087309401
 21
643.1931889812179
 31
0.0
  0
LINE
  5
1DA
330
17
100
AcDbEntity
  8
4
100
AcDbLine
 10
1381.22241709401
 20
629.1931889812179
 30
0.0
 11
1374.72241709401
 21
629.1931889812179
 31
0.0
  0
LINE
  5
1DB
330
17
100
AcDbEntity
  8
4
100
AcDbLine
 10
1368.22241709401
 20
629.1931889812179
 30
0.0
 11
1374.72241709401
 21
629.1931889812179
 31
0.0
  0
LINE
  5
1DC
330
17
100
AcDbEntity
  8
4
100
AcDbLine
 10
1377.97241709401
 20
629.1931889812179
 30
0.0
 11
1377.97241709401
 21
633.4929929812179
 31
0.0
  0
LINE
  5
1DD
330
17
100
AcDbEntity
  8
4
100
AcDbLine
 10
1381.22241709401
 20
629.1931889812179
 30
0.0
 11
1381.22241709401
 21
633.4929929812179
 31
0.0
  0
LINE
  5
1DE
330
17
100
AcDbEntity
  8
4
100
AcDbLine
 10
1371.47241709401
 20
629.1931889812179
 30
0.0
 11
1371.47241709401
 21
633.4929929812179
 31
0.0
  0
LINE
  5
1DF
330
17
100
AcDbEntity
  8
4
100
AcDbLine
 10
1368.22241709401
 20
629.1931889812179
 30
0.0
 11
1368.22241709401
 21
633.4929929812179
 31
0.0
  0
LINE
  5
1E0
330
17
100
AcDbEntity
  8
4
100
AcDbLine
 10
1399.72241709401
 20
632.1931889812179
 30
0.0
 11
1399.72241709401
 21
628.567700981218
 31
0.0
  0
LINE
  5
1E1
330
17
100
AcDbEntity
  8
4
100
AcDbLine
 10
1394.72241709401
 20
632.1931889812179
 30
0.0
 11
1394.72241709401
 21
628.7930449812179
 31
0.0
  0
LINE
  5
1E2
330
17
100
AcDbEntity
  8
4
100
AcDbLine
 10
1362.02783709401
 20
642.3369889812179
 30
0.0
 11
1359.72241709401
 21
632.1931889812179
 31
0.0
  0
LINE
  5
1E3
330
17
100
AcDbEntity
  8
4
100
AcDbLine
 10
1354.80371709401
 20
638.1931889812179
 30
0.0
 11
1354.80371709401
 21
643.1931889812179
 31
0.0
  0
LINE
  5
1E4
330
17
100
AcDbEntity
  8
4
100
AcDbLine
 10
1364.72241709401
 20
638.1931889812179
 30
0.0
 11
1364.72241709401
 21
648.1931889812179
 31
0.0
  0
LINE
  5
1E5
330
17
100
AcDbEntity
  8
4
100
AcDbLine
 10
1351.72241709401
 20
638.1931889812179
 30
0.0
 11
1361.08594509401
 21
638.1931889812179
 31
0.0
  0
LINE
  5
1E6
330
17
100
AcDbEntity
  8
4
100
AcDbLine
 10
1351.72241709401
 20
634.1931889812179
 30
0.0
 11
1360.17700909401
 21
634.1931889812179
 31
0.0
  0
LINE
  5
1E7
330
17
100
AcDbEntity
  8
4
100
AcDbLine
 10
1352.72241709401
 20
632.1931889812179
 30
0.0
 11
1352.72241709401
 21
634.1931889812179
 31
0.0
  0
LINE
  5
1E8
330
17
100
AcDbEntity
  8
4
100
AcDbLine
 10
1351.72241709401
 20
634.1931889812179
 30
0.0
 11
1351.72241709401
 21
638.1931889812179
 31
0.0
  0
LINE
  5
1E9
330
17
100
AcDbEntity
  8
4
100
AcDbLine
 10
1354.80371709401
 20
643.1931889812179
 30
0.0
 11
1363.10059309401
 21
643.1931889812179
 31
0.0
  0
LINE
  5
1EA
330
17
100
AcDbEntity
  8
4
100
AcDbLine
 10
1363.72241709401
 20
650.1931889812179
 30
0.0
 11
1363.72241709401
 21
648.1931889812179
 31
0.0
  0
ARC
  5
1EB
330
17
100
AcDbEntity
  8
4
100
AcDbCircle
 10
1363.10059309401
 20
642.0930929812178
 30
0.0
 40
1.100112
100
AcDbArc
 50
90.0
 51
167.1912509999929
  0
LINE
  5
1EC
330
17
100
AcDbEntity
  8
4
100
AcDbLine
 10
1364.72241709401
 20
643.1931889812179
 30
0.0
 11
1363.10059309401
 21
643.1931889812179
 31
0.0
  0
LINE
  5
1ED
330
17
100
AcDbEntity
  8
4
100
AcDbLine
 10
1364.72241709401
 20
643.4102289812179
 30
0.0
 11
1362.96070109401
 21
643.1841569812179
 31
0.0
  0
LINE
  5
1EE
330
17
100
AcDbEntity
  8
4
100
AcDbLine
 10
1332.93750509401
 20
597.9983649812177
 30
0.0
 11
1325.99732109401
 21
604.9387969812178
 31
0.0
  0
LINE
  5
1EF
330
17
100
AcDbEntity
  8
4
100
AcDbLine
 10
1349.72241709401
 20
628.567700981218
 30
0.0
 11
1349.72241709401
 21
632.1931889812179
 31
0.0
  0
LINE
  5
1F0
330
17
100
AcDbEntity
  8
4
100
AcDbLine
 10
1354.72241709401
 20
628.7930449812179
 30
0.0
 11
1354.72241709401
 21
632.1931889812179
 31
0.0
  0
LINE
  5
1F1
330
17
100
AcDbEntity
  8
L-CENTER
100
AcDbLine
 10
1387.22241709401
 20
662.1931889812179
 30
0.0
 11
1362.22241709401
 21
662.1931889812179
 31
0.0
  0
ARC
  5
1F2
330
17
100
AcDbEntity
  8
4
100
AcDbCircle
 10
1364.72241709401
 20
634.1931889812179
 30
0.0
 40
4.0
100
AcDbArc
 50
0.0
 51
90.0
  0
LINE
  5
1F3
330
17
100
AcDbEntity
  8
4
100
AcDbLine
 10
1352.72241709401
 20
632.1931889812179
 30
0.0
 11
1368.22241709401
 21
632.1931889812179
 31
0.0
  0
LINE
  5
1F4
330
17
100
AcDbEntity
  8
4
100
AcDbLine
 10
1352.72241709401
 20
632.1931889812179
 30
0.0
 11
1368.22241709401
 21
632.1931889812179
 31
0.0
  0
LINE
  5
1F5
330
17
100
AcDbEntity
  8
4
100
AcDbLine
 10
1349.72241709401
 20
632.1931889812179
 30
0.0
 11
1368.22241709401
 21
632.1931889812179
 31
0.0
  0
LINE
  5
1F6
330
17
100
AcDbEntity
  8
4
100
AcDbLine
 10
1359.72241709401
 20
632.1931889812179
 30
0.0
 11
1368.22241709401
 21
632.1931889812179
 31
0.0
  0
LINE
  5
1F7
330
17
100
AcDbEntity
  8
4
100
AcDbLine
 10
1364.72241709401
 20
638.1931889812179
 30
0.0
 11
1374.72241709401
 21
638.1931889812179
 31
0.0
  0
LINE
  5
1F8
330
17
100
AcDbEntity
  8
4
100
AcDbLine
 10
1365.72241709401
 20
651.1931889812179
 30
0.0
 11
1363.72241709401
 21
650.1931889812179
 31
0.0
  0
LINE
  5
1F9
330
17
100
AcDbEntity
  8
4
100
AcDbLine
 10
1374.72241709401
 20
648.1931889812179
 30
0.0
 11
1363.72241709401
 21
648.1931889812179
 31
0.0
  0
LINE
  5
1FA
330
17
100
AcDbEntity
  8
4
100
AcDbLine
 10
1363.72241709401
 20
650.1931889812179
 30
0.0
 11
1374.72241709401
 21
650.1931889812179
 31
0.0
  0
LINE
  5
1FB
330
17
100
AcDbEntity
  8
4
100
AcDbLine
 10
1368.47241709401
 20
651.1931889812179
 30
0.0
 11
1368.47241709401
 21
685.9431889812179
 31
0.0
  0
LINE
  5
1FC
330
17
100
AcDbEntity
  8
4
100
AcDbLine
 10
1380.97241709401
 20
651.1931889812179
 30
0.0
 11
1380.97241709401
 21
685.9431889812179
 31
0.0
  0
LINE
  5
1FD
330
17
100
AcDbEntity
  8
4
100
AcDbLine
 10
1476.618794148158
 20
513.3568178537786
 30
0.0
 11
1468.02232109401
 21
513.3568178537786
 31
0.0
  0
LINE
  5
1FE
330
17
100
AcDbEntity
  8
4
100
AcDbLine
 10
1468.02232109401
 20
538.1931889812179
 30
0.0
 11
1459.510505094011
 21
538.1931889812179
 31
0.0
  0
LINE
  5
1FF
330
17
100
AcDbEntity
  8
4
100
AcDbLine
 10
1419.04761309401
 20
588.5181409812178
 30
0.0
 11
1428.52808109401
 21
585.9776129812178
 31
0.0
  0
LINE
  5
200
330
17
100
AcDbEntity
  8
4
100
AcDbLine
 10
1468.02232109401
 20
493.7269087013311
 30
0.0
 11
1476.618794148158
 21
493.7269087013311
 31
0.0
  0
LINE
  5
201
330
17
100
AcDbEntity
  8
4
100
AcDbLine
 10
1476.618794148158
 20
508.4493405656668
 30
0.0
 11
1470.52232109401
 21
508.4493405656668
 31
0.0
  0
LINE
  5
202
330
17
100
AcDbEntity
  8
4
100
AcDbLine
 10
1476.618794148158
 20
498.6343859894429
 30
0.0
 11
1470.52232109401
 21
498.6343859894429
 31
0.0
  0
LINE
  5
203
330
17
100
AcDbEntity
  8
4
100
AcDbLine
 10
1477.52232109401
 20
496.1806473453872
 30
0.0
 11
1477.52232109401
 21
510.9030792097225
 31
0.0
  0
ARC
  5
204
330
17
100
AcDbEntity
  8
4
100
AcDbCircle
 10
1463.743155796551
 20
503.5418632775546
 30
0.0
 40
13.77916529745958
100
AcDbArc
 50
339.1359356360799
 51
20.86406436392003
  0
ARC
  5
205
330
17
100
AcDbEntity
  8
4
100
AcDbCircle
 10
1473.738707164951
 20
496.1806473453872
 30
0.0
 40
3.783613929059507
100
AcDbArc
 50
319.5701031551699
 51
40.42989684483014
  0
LINE
  5
206
330
17
100
AcDbEntity
  8
4
100
AcDbLine
 10
1484.62217309401
 20
494.1931889812179
 30
0.0
 11
1476.955016983124
 21
494.1931889812179
 31
0.0
  0
LINE
  5
207
330
17
100
AcDbEntity
  8
4
100
AcDbLine
 10
1484.62217309401
 20
494.1931889812179
 30
0.0
 11
1484.62217309401
 21
454.1931889812179
 31
0.0
  0
LINE
  5
208
330
17
100
AcDbEntity
  8
4
100
AcDbLine
 10
1419.04761309401
 20
499.8682369812179
 30
0.0
 11
1428.52808109401
 21
502.4087649812179
 31
0.0
  0
LINE
  5
209
330
17
100
AcDbEntity
  8
4
100
AcDbLine
 10
1423.44751709401
 20
483.4475849812179
 30
0.0
 11
1432.92798509401
 21
485.9878689812178
 31
0.0
  0
LINE
  5
20A
330
17
100
AcDbEntity
  8
4
100
AcDbLine
 10
1416.50732909401
 20
490.3880129812178
 30
0.0
 11
1419.04761309401
 21
499.8682369812179
 31
0.0
  0
LINE
  5
20B
330
17
100
AcDbEntity
  8
4
100
AcDbLine
 10
1416.50732909401
 20
490.3880129812178
 30
0.0
 11
1423.44751709401
 21
483.4475849812179
 31
0.0
  0
CIRCLE
  5
20C
330
17
100
AcDbEntity
  8
4
100
AcDbCircle
 10
1425.98779709401
 20
492.9280529812179
 30
0.0
 40
8.5
  0
LINE
  5
20D
330
17
100
AcDbEntity
  8
L-CENTER
100
AcDbLine
 10
1438.85083709401
 20
480.0645249812181
 30
0.0
 11
1413.124236365769
 21
505.7911257094589
 31
0.0
  0
LINE
  5
20E
330
17
100
AcDbEntity
  8
4
100
AcDbLine
 10
1432.92798509401
 20
485.9878689812178
 30
0.0
 11
1435.46826909401
 21
495.4683369812178
 31
0.0
  0
LINE
  5
20F
330
17
100
AcDbEntity
  8
4
100
AcDbLine
 10
1428.52808109401
 20
502.4087649812179
 30
0.0
 11
1435.46826909401
 21
495.4683369812178
 31
0.0
  0
LINE
  5
210
330
17
100
AcDbEntity
  8
L-CENTER
100
AcDbLine
 10
1437.745539544072
 20
503.5418632775546
 30
0.0
 11
1480.39029934859
 21
503.5418632775546
 31
0.0
  0
LINE
  5
211
330
17
100
AcDbEntity
  8
4
100
AcDbLine
 10
1468.02232109401
 20
513.3568178537786
 30
0.0
 11
1468.02232109401
 21
493.7269087013311
 31
0.0
  0
ARC
  5
212
330
17
100
AcDbEntity
  8
4
100
AcDbCircle
 10
1473.738707164951
 20
510.9030792097225
 30
0.0
 40
3.783613929059507
100
AcDbArc
 50
319.5701031551699
 51
40.42989684483014
  0
LINE
  5
213
330
17
100
AcDbEntity
  8
4
100
AcDbLine
 10
1470.52232109401
 20
513.3568178537786
 30
0.0
 11
1470.52232109401
 21
493.7269087013311
 31
0.0
  0
LINE
  5
214
330
17
100
AcDbEntity
  8
4
100
AcDbLine
 10
1380.72241709401
 20
562.6931889812179
 30
0.0
 11
1380.72241709401
 21
570.6931889812179
 31
0.0
  0
LINE
  5
215
330
17
100
AcDbEntity
  8
4
100
AcDbLine
 10
1368.72241709401
 20
562.6931889812179
 30
0.0
 11
1368.72241709401
 21
570.6931889812179
 31
0.0
  0
LINE
  5
216
330
17
100
AcDbEntity
  8
4
100
AcDbLine
 10
1380.72241709401
 20
570.6931889812179
 30
0.0
 11
1368.72241709401
 21
570.6931889812179
 31
0.0
  0
LINE
  5
217
330
17
100
AcDbEntity
  8
4
100
AcDbLine
 10
1368.72241709401
 20
562.6931889812179
 30
0.0
 11
1380.72241709401
 21
562.6931889812179
 31
0.0
  0
LINE
  5
218
330
17
100
AcDbEntity
  8
4
100
AcDbLine
 10
1330.397221094011
 20
588.5181409812178
 30
0.0
 11
1320.91675309401
 21
585.9776129812178
 31
0.0
  0
ARC
  5
219
330
17
100
AcDbEntity
  8
4
100
AcDbCircle
 10
1374.72241709401
 20
544.1931889812179
 30
0.0
 40
23.000012
100
AcDbArc
 50
105.1216579999997
 51
74.87834200000026
  0
LINE
  5
21A
330
17
100
AcDbEntity
  8
4
100
AcDbLine
 10
1332.93750509401
 20
490.3880129812178
 30
0.0
 11
1325.99732109401
 21
483.4475849812179
 31
0.0
  0
LINE
  5
21B
330
17
100
AcDbEntity
  8
4
100
AcDbLine
 10
1332.93750509401
 20
490.3880129812178
 30
0.0
 11
1330.397221094011
 21
499.8682369812179
 31
0.0
  0
LINE
  5
21C
330
17
100
AcDbEntity
  8
4
100
AcDbLine
 10
1330.397221094011
 20
499.8682369812179
 30
0.0
 11
1320.91675309401
 21
502.4087649812179
 31
0.0
  0
CIRCLE
  5
21D
330
17
100
AcDbEntity
  8
4
100
AcDbCircle
 10
1374.72241709401
 20
544.1931889812179
 30
0.0
 40
36.0
  0
LINE
  5
21E
330
17
100
AcDbEntity
  8
4
100
AcDbLine
 10
1332.93750509401
 20
597.9983649812177
 30
0.0
 11
1330.397221094011
 21
588.5181409812178
 31
0.0
  0
ARC
  5
21F
330
17
100
AcDbEntity
  8
4
100
AcDbCircle
 10
950.7224170940103
 20
544.1931889812179
 30
0.0
 40
499.999976
100
AcDbArc
 50
4.738148000000038
 51
8.7955559999999
  0
CIRCLE
  5
220
330
17
100
AcDbEntity
  8
4
100
AcDbCircle
 10
1425.98779709401
 20
595.4583249812179
 30
0.0
 40
8.5
  0
LINE
  5
221
330
17
100
AcDbEntity
  8
L-CENTER
100
AcDbLine
 10
1438.85108109401
 20
608.3216089812179
 30
0.0
 11
1413.124480365769
 21
582.595008252977
 31
0.0
  0
LINE
  5
222
330
17
100
AcDbEntity
  8
4
100
AcDbLine
 10
1416.50732909401
 20
597.9983649812177
 30
0.0
 11
1419.04761309401
 21
588.5181409812178
 31
0.0
  0
LINE
  5
223
330
17
100
AcDbEntity
  8
4
100
AcDbLine
 10
1428.52808109401
 20
585.9776129812178
 30
0.0
 11
1435.46826909401
 21
592.9180449812179
 31
0.0
  0
LINE
  5
229
330
17
100
AcDbEntity
  8
4
100
AcDbLine
 10
1316.51685309401
 20
602.3985129812179
 30
0.0
 11
1313.97656909401
 21
592.9180449812179
 31
0.0
  0
ARC
  5
22A
330
17
100
AcDbEntity
  8
4
100
AcDbCircle
 10
1309.54346109401
 20
619.8831329812178
 30
0.0
 40
5.000032
100
AcDbArc
 50
97.56709499999964
 51
171.2032190000004
  0
LINE
  5
22B
330
17
100
AcDbEntity
  8
4
100
AcDbLine
 10
1285.72241709401
 20
538.1931889812179
 30
0.0
 11
1289.934333094011
 21
538.1931889812179
 31
0.0
  0
ARC
  5
22C
330
17
100
AcDbEntity
  8
4
100
AcDbCircle
 10
1285.72241709401
 20
536.1931889812179
 30
0.0
 40
2.0
100
AcDbArc
 50
90.0
 51
180.0
  0
LINE
  5
22D
330
17
100
AcDbEntity
  8
4
100
AcDbLine
 10
1316.51685309401
 20
485.9878689812178
 30
0.0
 11
1313.97656909401
 21
495.4683369812178
 31
0.0
  0
ARC
  5
22E
330
17
100
AcDbEntity
  8
4
100
AcDbCircle
 10
1798.72241709401
 20
544.1931889812179
 30
0.0
 40
499.999972
100
AcDbArc
 50
171.204982
 51
175.2622169999999
  0
ARC
  5
23D
330
17
100
AcDbEntity
  8
4
100
AcDbCircle
 10
1374.72241709401
 20
129.1931889812179
 30
0.0
 40
499.999968
100
AcDbArc
 50
82.43361599999996
 51
97.566751
  0
LINE
  5
23E
330
17
100
AcDbEntity
  8
L-CENTER
100
AcDbLine
 10
1466.312407197355
 20
544.1931889812179
 30
0.0
 11
1283.132426990666
 21
544.1931889812179
 31
0.0
  0
CIRCLE
  5
23F
330
17
100
AcDbEntity
  8
4
100
AcDbCircle
 10
1374.72241709401
 20
544.1931889812179
 30
0.0
 40
85.0
  0
CIRCLE
  5
240
330
17
100
AcDbEntity
  8
L-CENTER
100
AcDbCircle
 10
1374.72241709401
 20
544.1931889812179
 30
0.0
 40
72.5
  0
LINE
  5
241
330
17
100
AcDbEntity
  8
L-CENTER
100
AcDbLine
 10
1310.593997094011
 20
480.0645249812181
 30
0.0
 11
1336.320597822251
 21
505.7911257094588
 31
0.0
  0
CIRCLE
  5
242
330
17
100
AcDbEntity
  8
4
100
AcDbCircle
 10
1323.457037094011
 20
595.4583249812179
 30
0.0
 40
8.5
  0
LINE
  5
243
330
17
100
AcDbEntity
  8
L-CENTER
100
AcDbLine
 10
1310.59375709401
 20
608.3216089812179
 30
0.0
 11
1336.320355822246
 21
582.5950102529816
 31
0.0
  0
CIRCLE
  5
244
330
17
100
AcDbEntity
  8
4
100
AcDbCircle
 10
1323.457037094011
 20
492.9280529812179
 30
0.0
 40
8.5
  0
LINE
  5
245
330
17
100
AcDbEntity
  8
4
100
AcDbLine
 10
1320.91675309401
 20
502.4087649812179
 30
0.0
 11
1313.97656909401
 21
495.4683369812178
 31
0.0
  0
LINE
  5
246
330
17
100
AcDbEntity
  8
4
100
AcDbLine
 10
1325.99732109401
 20
483.4475849812179
 30
0.0
 11
1316.51685309401
 21
485.9878689812178
 31
0.0
  0
LINE
  5
247
330
17
100
AcDbEntity
  8
4
100
AcDbLine
 10
1320.91675309401
 20
585.9776129812178
 30
0.0
 11
1313.97656909401
 21
592.9180449812179
 31
0.0
  0
LINE
  5
248
330
17
100
AcDbEntity
  8
4
100
AcDbLine
 10
1325.99732109401
 20
604.9387969812178
 30
0.0
 11
1316.51685309401
 21
602.3985129812179
 31
0.0
  0
LINE
  5
24B
330
17
100
AcDbEntity
  8
4
100
AcDbLine
 10
1644.72241709401
 20
377.1931889812179
 30
0.0
 11
1643.72241709401
 21
378.1931889812179
 31
0.0
  0
LINE
  5
24D
330
17
100
AcDbEntity
  8
4
100
AcDbLine
 10
1643.72241709401
 20
310.1931889812179
 30
0.0
 11
1644.72241709401
 21
311.1931889812179
 31
0.0
  0
LINE
  5
24E
330
17
100
AcDbEntity
  8
4
100
AcDbLine
 10
1644.72241709401
 20
384.1931889812179
 30
0.0
 11
1644.72241709401
 21
311.1931889812179
 31
0.0
  0
LINE
  5
24F
330
17
100
AcDbEntity
  8
4
100
AcDbLine
 10
1643.72241709401
 20
378.1931889812179
 30
0.0
 11
1643.72241709401
 21
310.1931889812179
 31
0.0
  0
LINE
  5
250
330
17
100
AcDbEntity
  8
4
100
AcDbLine
 10
1534.72241709401
 20
384.1931889812179
 30
0.0
 11
1534.72241709401
 21
378.1931889812179
 31
0.0
  0
LINE
  5
251
330
17
100
AcDbEntity
  8
4
100
AcDbLine
 10
1514.62217309401
 20
394.1931889812179
 30
0.0
 11
1515.62217309401
 21
394.1931889812179
 31
0.0
  0
LINE
  5
252
330
17
100
AcDbEntity
  8
4
100
AcDbLine
 10
1524.72241709401
 20
379.1931889812179
 30
0.0
 11
1515.62217309401
 21
379.1931889812179
 31
0.0
  0
LINE
  5
253
330
17
100
AcDbEntity
  8
4
100
AcDbLine
 10
1514.62217309401
 20
294.1931889812179
 30
0.0
 11
1515.62217309401
 21
294.1931889812179
 31
0.0
  0
LINE
  5
254
330
17
100
AcDbEntity
  8
4
100
AcDbLine
 10
1515.62217309401
 20
309.1931889812179
 30
0.0
 11
1524.72241709401
 21
309.1931889812179
 31
0.0
  0
LINE
  5
255
330
17
100
AcDbEntity
  8
4
100
AcDbLine
 10
1514.62217309401
 20
409.1931889812179
 30
0.0
 11
1514.62217309401
 21
279.1931889812179
 31
0.0
  0
LINE
  5
256
330
17
100
AcDbEntity
  8
4
100
AcDbLine
 10
1524.72241709401
 20
379.1931889812179
 30
0.0
 11
1524.72241709401
 21
309.1931889812179
 31
0.0
  0
LINE
  5
257
330
17
100
AcDbEntity
  8
4
100
AcDbLine
 10
1515.62217309401
 20
294.1931889812179
 30
0.0
 11
1515.62217309401
 21
394.1931889812179
 31
0.0
  0
LINE
  5
258
330
17
100
AcDbEntity
  8
4
100
AcDbLine
 10
1644.72241709401
 20
384.1931889812179
 30
0.0
 11
1534.72241709401
 21
384.1931889812179
 31
0.0
  0
LINE
  5
259
330
17
100
AcDbEntity
  8
4
100
AcDbLine
 10
1524.72241709401
 20
378.1931889812179
 30
0.0
 11
1643.72241709401
 21
378.1931889812179
 31
0.0
  0
LINE
  5
25A
330
17
100
AcDbEntity
  8
4
100
AcDbLine
 10
1524.72241709401
 20
310.1931889812179
 30
0.0
 11
1643.72241709401
 21
310.1931889812179
 31
0.0
  0
ARC
  5
25B
330
17
100
AcDbEntity
  8
4
100
AcDbCircle
 10
1531.72241709401
 20
143.1931889812179
 30
0.0
 40
3.0
100
AcDbArc
 50
0.0
 51
90.0
  0
LINE
  5
25C
330
17
100
AcDbEntity
  8
4
100
AcDbLine
 10
1494.62217309401
 20
394.1931889812179
 30
0.0
 11
1468.02232109401
 21
383.1931889812179
 31
0.0
  0
LINE
  5
25D
330
17
100
AcDbEntity
  8
4
100
AcDbLine
 10
1468.02232109401
 20
334.3782344049944
 30
0.0
 11
1476.618794148158
 21
334.3782344049944
 31
0.0
  0
LINE
  5
25E
330
17
100
AcDbEntity
  8
4
100
AcDbLine
 10
1476.618794148158
 20
354.0081435574418
 30
0.0
 11
1468.02232109401
 21
354.0081435574418
 31
0.0
  0
LINE
  5
25F
330
17
100
AcDbEntity
  8
4
100
AcDbLine
 10
1468.02232109401
 20
354.0081435574418
 30
0.0
 11
1468.02232109401
 21
334.3782344049944
 31
0.0
  0
ARC
  5
260
330
17
100
AcDbEntity
  8
4
100
AcDbCircle
 10
1473.738707164951
 20
336.8319730490505
 30
0.0
 40
3.783613929059507
100
AcDbArc
 50
319.5701031551699
 51
40.42989684483014
  0
LINE
  5
261
330
17
100
AcDbEntity
  8
4
100
AcDbLine
 10
1476.618794148158
 20
339.2857116931061
 30
0.0
 11
1470.52232109401
 21
339.2857116931061
 31
0.0
  0
ARC
  5
262
330
17
100
AcDbEntity
  8
4
100
AcDbCircle
 10
1473.738707164951
 20
351.5544049133857
 30
0.0
 40
3.783613929059507
100
AcDbArc
 50
319.5701031551699
 51
40.42989684483014
  0
LINE
  5
263
330
17
100
AcDbEntity
  8
4
100
AcDbLine
 10
1476.618794148158
 20
349.1006662693301
 30
0.0
 11
1470.52232109401
 21
349.1006662693301
 31
0.0
  0
LINE
  5
264
330
17
100
AcDbEntity
  8
4
100
AcDbLine
 10
1470.52232109401
 20
354.0081435574418
 30
0.0
 11
1470.52232109401
 21
334.3782344049944
 31
0.0
  0
ARC
  5
265
330
17
100
AcDbEntity
  8
4
100
AcDbCircle
 10
1463.743155796551
 20
344.1931889812179
 30
0.0
 40
13.77916529745958
100
AcDbArc
 50
339.1359356360799
 51
20.86406436392003
  0
LINE
  5
266
330
17
100
AcDbEntity
  8
4
100
AcDbLine
 10
1477.52232109401
 20
336.8319730490505
 30
0.0
 11
1477.52232109401
 21
351.5544049133857
 31
0.0
  0
LINE
  5
267
330
17
100
AcDbEntity
  8
4
100
AcDbLine
 10
1494.62217309401
 20
294.1931889812179
 30
0.0
 11
1468.02232109401
 21
305.1931889812179
 31
0.0
  0
ARC
  5
268
330
17
100
AcDbEntity
  8
4
100
AcDbCircle
 10
1473.738707164951
 20
192.2057306170485
 30
0.0
 40
3.783613929059507
100
AcDbArc
 50
333.937135365935
 51
40.42989684483014
  0
LINE
  5
269
330
17
100
AcDbEntity
  8
4
100
AcDbLine
 10
1477.52232109401
 20
192.2057306170485
 30
0.0
 11
1477.52232109401
 21
190.2307669812179
 31
0.0
  0
LINE
  5
26A
330
17
100
AcDbEntity
  8
4
100
AcDbLine
 10
1472.071610595688
 20
194.6594692611047
 30
0.0
 11
1476.618794148158
 21
194.6594692611046
 31
0.0
  0
LINE
  5
26B
330
17
100
AcDbEntity
  8
4
100
AcDbLine
 10
1484.62217309401
 20
194.1931889812179
 30
0.0
 11
1476.958294656365
 21
194.1931889812179
 31
0.0
  0
ARC
  5
26C
330
17
100
AcDbEntity
  8
4
100
AcDbCircle
 10
1465.72241709401
 20
161.1931889812179
 30
0.0
 40
15.0
100
AcDbArc
 50
180.0
 51
270.000932
  0
LINE
  5
26D
330
17
100
AcDbEntity
  8
4
100
AcDbLine
 10
1496.89083720666
 20
274.7603550093802
 30
0.0
 11
1472.127787197955
 21
194.6446049812176
 31
0.0
  0
LINE
  5
26E
330
17
100
AcDbEntity
  8
4
100
AcDbLine
 10
1470.44701771163
 20
195.9794509794013
 30
0.0
 11
1494.62217309401
 21
274.1931889812179
 31
0.0
  0
LINE
  5
26F
330
17
100
AcDbEntity
  8
4
100
AcDbLine
 10
1484.62217309401
 20
194.1931889812179
 30
0.0
 11
1484.62217309401
 21
234.1931889812179
 31
0.0
  0
LINE
  5
270
330
17
100
AcDbEntity
  8
4
100
AcDbLine
 10
1494.62217309401
 20
414.1931889812179
 30
0.0
 11
1494.62217309401
 21
274.1931889812179
 31
0.0
  0
LINE
  5
271
330
17
100
AcDbEntity
  8
4
100
AcDbLine
 10
1494.62217309401
 20
274.1931889812179
 30
0.0
 11
1514.62217309401
 21
279.1931889812179
 31
0.0
  0
LINE
  5
272
330
17
100
AcDbEntity
  8
4
100
AcDbLine
 10
1494.62217309401
 20
414.1931889812179
 30
0.0
 11
1514.62217309401
 21
409.1931889812179
 31
0.0
  0
LINE
  5
273
330
17
100
AcDbEntity
  8
4
100
AcDbLine
 10
1531.72241709401
 20
146.1931889812179
 30
0.0
 11
1450.72241709401
 21
212.0056889812179
 31
0.0
  0
LINE
  5
27A
330
17
100
AcDbEntity
  8
4
100
AcDbLine
 10
1534.72241709401
 20
104.1931889812179
 30
0.0
 11
1534.72241709401
 21
143.1931889812179
 31
0.0
  0
LINE
  5
27B
330
17
100
AcDbEntity
  8
L-CENTER
100
AcDbLine
 10
1504.72241709401
 20
161.1931889812179
 30
0.0
 11
1504.72241709401
 21
89.19318898121787
 31
0.0
  0
ARC
  5
27C
330
17
100
AcDbEntity
  8
4
100
AcDbCircle
 10
1255.971137961465
 20
408.7623874903809
 30
0.0
 40
1.0
100
AcDbArc
 50
0.0
 51
90.0
  0
LINE
  5
27D
330
17
100
AcDbEntity
  8
4
100
AcDbLine
 10
1255.22241709401
 20
409.7623874903809
 30
0.0
 11
1255.971137961465
 21
409.7623874903809
 31
0.0
  0
LINE
  5
27E
330
17
100
AcDbEntity
  8
4
100
AcDbLine
 10
1234.72241709401
 20
409.1931889812179
 30
0.0
 11
1252.72241709401
 21
414.1931889812179
 31
0.0
  0
LINE
  5
27F
330
17
100
AcDbEntity
  8
4
100
AcDbLine
 10
1255.22241709401
 20
393.9583983353998
 30
0.0
 11
1256.192503583169
 21
394.1786052735049
 31
0.0
  0
ARC
  5
280
330
17
100
AcDbEntity
  8
4
100
AcDbCircle
 10
1255.971137961465
 20
395.1537961581664
 30
0.0
 40
1.0
100
AcDbArc
 50
282.7892551895715
 51
0.0
  0
LINE
  5
281
330
17
100
AcDbEntity
  8
4
100
AcDbLine
 10
1256.971137961465
 20
395.1537961581664
 30
0.0
 11
1256.971137961465
 21
408.7623874903809
 31
0.0
  0
LINE
  5
282
330
17
100
AcDbEntity
  8
4
100
AcDbLine
 10
1256.971137961465
 20
394.3553531143045
 30
0.0
 11
1283.72241709401
 21
384.030298010515
 31
0.0
  0
LINE
  5
283
330
17
100
AcDbEntity
  8
4
100
AcDbLine
 10
1255.22241709401
 20
393.9583983353998
 30
0.0
 11
1283.72241709401
 21
382.9583983353998
 31
0.0
  0
LINE
  5
284
330
17
100
AcDbEntity
  8
4
100
AcDbLine
 10
1256.971137961465
 20
293.2325818042693
 30
0.0
 11
1256.971137961465
 21
279.6239904720549
 31
0.0
  0
LINE
  5
285
330
17
100
AcDbEntity
  8
4
100
AcDbLine
 10
1255.22241709401
 20
278.6239904720549
 30
0.0
 11
1255.971137961465
 21
278.6239904720549
 31
0.0
  0
ARC
  5
286
330
17
100
AcDbEntity
  8
4
100
AcDbCircle
 10
1255.971137961465
 20
279.6239904720549
 30
0.0
 40
1.0
100
AcDbArc
 50
270.0
 51
0.0
  0
ARC
  5
287
330
17
100
AcDbEntity
  8
4
100
AcDbCircle
 10
1255.971137961465
 20
293.2325818042693
 30
0.0
 40
1.0
100
AcDbArc
 50
0.0
 51
77.21074481042851
  0
LINE
  5
288
330
17
100
AcDbEntity
  8
4
100
AcDbLine
 10
1255.22241709401
 20
294.4279796270359
 30
0.0
 11
1256.192503583169
 21
294.2077726889308
 31
0.0
  0
LINE
  5
289
330
17
100
AcDbEntity
  8
4
100
AcDbLine
 10
1256.971137961465
 20
294.0310248481312
 30
0.0
 11
1283.72241709401
 21
304.3560799519207
 31
0.0
  0
LINE
  5
28A
330
17
100
AcDbEntity
  8
4
100
AcDbLine
 10
1255.22241709401
 20
294.4279796270359
 30
0.0
 11
1283.72241709401
 21
305.4279796270359
 31
0.0
  0
LINE
  5
28B
330
17
100
AcDbEntity
  8
4
100
AcDbLine
 10
1234.72241709401
 20
278.9583983353998
 30
0.0
 11
1234.72241709401
 21
408.9583983353998
 31
0.0
  0
LINE
  5
28C
330
17
100
AcDbEntity
  8
4
100
AcDbLine
 10
1234.72241709401
 20
409.1931889812179
 30
0.0
 11
1234.72241709401
 21
279.1931889812179
 31
0.0
  0
LINE
  5
28D
330
17
100
AcDbEntity
  8
4
100
AcDbLine
 10
1255.22241709401
 20
294.4279796270359
 30
0.0
 11
1255.22241709401
 21
393.9583983353998
 31
0.0
  0
ARC
  5
28E
330
17
100
AcDbEntity
  8
4
100
AcDbCircle
 10
1283.72241709401
 20
161.1931889812179
 30
0.0
 40
15.0
100
AcDbArc
 50
270.000932
 51
0.0
  0
LINE
  5
28F
330
17
100
AcDbEntity
  8
4
100
AcDbLine
 10
1277.575461885153
 20
194.8237878740211
 30
0.0
 11
1252.72241709401
 21
274.1931889812179
 31
0.0
  0
ARC
  5
290
330
17
100
AcDbEntity
  8
4
100
AcDbCircle
 10
1217.72241709401
 20
143.1931889812179
 30
0.0
 40
3.0
100
AcDbArc
 50
90.0
 51
180.0
  0
LINE
  5
291
330
17
100
AcDbEntity
  8
4
100
AcDbLine
 10
1217.72241709401
 20
146.1931889812179
 30
0.0
 11
1297.72241709401
 21
211.1931889812179
 31
0.0
  0
LINE
  5
292
330
17
100
AcDbEntity
  8
4
100
AcDbLine
 10
1252.72241709401
 20
414.1931889812179
 30
0.0
 11
1252.72241709401
 21
274.1931889812179
 31
0.0
  0
LINE
  5
293
330
17
100
AcDbEntity
  8
4
100
AcDbLine
 10
1234.72241709401
 20
279.1931889812179
 30
0.0
 11
1252.72241709401
 21
274.1931889812179
 31
0.0
  0
LINE
  5
294
330
17
100
AcDbEntity
  8
4
100
AcDbLine
 10
1280.498588492095
 20
197.1988282421617
 30
0.0
 11
1257.147042691494
 21
278.0152092035121
 31
0.0
  0
LINE
  5
295
330
17
100
AcDbEntity
  8
4
100
AcDbLine
 10
1255.22241709401
 20
278.6239904720549
 30
0.0
 11
1279.082354570374
 21
196.0481381807631
 31
0.0
  0
LINE
  5
2A7
330
17
100
AcDbEntity
  8
4
100
AcDbLine
 10
1214.72241709401
 20
104.1931889812179
 30
0.0
 11
1214.72241709401
 21
143.1931889812179
 31
0.0
  0
LINE
  5
2A8
330
17
100
AcDbEntity
  8
L-CENTER
100
AcDbLine
 10
1244.72241709401
 20
89.19318898121787
 30
0.0
 11
1244.72241709401
 21
161.1931889812179
 31
0.0
  0
LINE
  5
2AA
330
17
100
AcDbEntity
  8
L-CENTER
100
AcDbLine
 10
1652.554724217695
 20
344.1931889812179
 30
0.0
 11
1226.610979280551
 21
344.1931889812179
 31
0.0
  0
LINE
  5
2AD
330
17
100
AcDbEntity
  8
4
100
AcDbLine
 10
1531.72241709401
 20
146.1931889812179
 30
0.0
 11
1217.72241709401
 21
146.1931889812179
 31
0.0
  0
LINE
  5
2AE
330
17
100
AcDbEntity
  8
4
100
AcDbLine
 10
1534.72241709401
 20
104.1931889812179
 30
0.0
 11
1214.72241709401
 21
104.1931889812179
 31
0.0
  0
LINE
  5
2B0
330
17
100
AcDbEntity
  8
4
100
AcDbLine
 10
1470.039023362339
 20
493.726908701331
 30
0.0
 11
1494.62217309401
 21
414.1931889812179
 31
0.0
  0
LINE
  5
2B1
330
17
100
AcDbEntity
  8
4
100
AcDbLine
 10
1496.89083720666
 20
413.6260229530556
 30
0.0
 11
1472.127787197955
 21
493.7417729812181
 31
0.0
  0
LINE
  5
2B2
330
17
100
AcDbEntity
  8
4
100
AcDbLine
 10
1283.72241709401
 20
513.1931889812179
 30
0.0
 11
1252.72241709401
 21
414.1931889812179
 31
0.0
  0
LINE
  5
2B3
330
17
100
AcDbEntity
  8
4
100
AcDbLine
 10
1255.22241709401
 20
409.7623874903809
 30
0.0
 11
1283.72241709401
 21
508.3968366641559
 31
0.0
  0
LINE
  5
2B4
330
17
100
AcDbEntity
  8
4
100
AcDbLine
 10
1283.72241709401
 20
502.3447622950316
 30
0.0
 11
1257.147042691494
 21
410.3711687589237
 31
0.0
  0
LINE
  5
2B7
330
17
100
AcDbEntity
  8
4
100
AcDbLine
 10
1453.72241709401
 20
209.5681889812179
 30
0.0
 11
1453.72241709401
 21
512.8245369812178
 31
0.0
  0
LINE
  5
2B8
330
17
100
AcDbEntity
  8
4
100
AcDbLine
 10
1451.72241709401
 20
211.1931889812179
 30
0.0
 11
1451.72241709401
 21
508.1931889812179
 31
0.0
  0
LINE
  5
2B9
330
17
100
AcDbEntity
  8
4
100
AcDbLine
 10
1468.02232109401
 20
197.8682689812179
 30
0.0
 11
1468.02232109401
 21
538.1931889812179
 31
0.0
  0
LINE
  5
2BC
330
17
100
AcDbEntity
  8
4
100
AcDbLine
 10
1283.72241709401
 20
199.8181889812179
 30
0.0
 11
1283.72241709401
 21
536.1931889812179
 31
0.0
  0
LINE
  5
2C0
330
17
100
AcDbEntity
  8
4
100
AcDbLine
 10
1450.72241709401
 20
161.1931889812179
 30
0.0
 11
1450.72241709401
 21
506.1275169812179
 31
0.0
  0
LINE
  5
2C1
330
17
100
AcDbEntity
  8
4
100
AcDbLine
 10
1298.72241709401
 20
161.1931889812179
 30
0.0
 11
1298.72241709401
 21
506.1275169812179
 31
0.0
  0
LINE
  5
2C2
330
17
100
AcDbEntity
  8
4
100
AcDbLine
 10
1297.72241709401
 20
155.8079329812178
 30
0.0
 11
1297.72241709401
 21
508.1931889812179
 31
0.0
  0
LINE
  5
2C3
330
17
100
AcDbEntity
  8
L-CENTER
100
AcDbLine
 10
1374.72241709401
 20
699.165600981218
 30
0.0
 11
1374.72241709401
 21
90.89872519045025
 31
0.0
  0
ARC
  5
2C4
330
17
100
AcDbEntity
  8
4
100
AcDbCircle
 10
856.7940054842434
 20
1249.399773329262
 30
0.0
 40
5.0
100
AcDbArc
 50
0.0
 51
90.0
  0
LINE
  5
2C5
330
17
100
AcDbEntity
  8
4
100
AcDbLine
 10
791.7940054842434
 20
1254.399773329262
 30
0.0
 11
856.7940054842434
 21
1254.399773329262
 31
0.0
  0
LINE
  5
2C6
330
17
100
AcDbEntity
  8
4
100
AcDbLine
 10
857.1903825383911
 20
1155.479950411122
 30
0.0
 11
848.5939094842433
 21
1155.479950411122
 31
0.0
  0
ARC
  5
2C7
330
17
100
AcDbEntity
  8
4
100
AcDbCircle
 10
834.7940054842434
 20
1186.799773329262
 30
0.0
 40
1.0
100
AcDbArc
 50
0.0
 51
90.0
  0
LINE
  5
2C8
330
17
100
AcDbEntity
  8
4
100
AcDbLine
 10
835.7940054842434
 20
1186.799773329262
 30
0.0
 11
835.7940054842434
 21
1179.399773329262
 31
0.0
  0
LINE
  5
2C9
330
17
100
AcDbEntity
  8
4
100
AcDbLine
 10
835.7940054842434
 20
1186.799773329262
 30
0.0
 11
835.7940054842434
 21
1179.399773329262
 31
0.0
  0
ARC
  5
2CA
330
17
100
AcDbEntity
  8
4
100
AcDbCircle
 10
847.5940054842436
 20
1178.399773329262
 30
0.0
 40
1.0
100
AcDbArc
 50
0.0
 51
90.0
  0
LINE
  5
2CB
330
17
100
AcDbEntity
  8
4
100
AcDbLine
 10
835.6089600604669
 20
1187.799773329262
 30
0.0
 11
835.6089600604669
 21
1196.39624638341
 31
0.0
  0
LINE
  5
2CC
330
17
100
AcDbEntity
  8
4
100
AcDbLine
 10
833.1552214164108
 20
1197.299773329262
 30
0.0
 11
818.4327895520755
 21
1197.299773329262
 31
0.0
  0
ARC
  5
2CD
330
17
100
AcDbEntity
  8
4
100
AcDbCircle
 10
825.7940054842434
 20
1183.520608031803
 30
0.0
 40
13.77916529745958
100
AcDbArc
 50
69.13593563607864
 51
110.8640643639196
  0
ARC
  5
2CE
330
17
100
AcDbEntity
  8
4
100
AcDbCircle
 10
818.4327895520755
 20
1193.516159400203
 30
0.0
 40
3.783613929059507
100
AcDbArc
 50
49.57010315516856
 51
130.4298968448253
  0
LINE
  5
2CF
330
17
100
AcDbEntity
  8
4
100
AcDbLine
 10
821.7940054842434
 20
1170.399773329262
 30
0.0
 11
821.7940054842434
 21
1179.399773329262
 31
0.0
  0
ARC
  5
2D0
330
17
100
AcDbEntity
  8
4
100
AcDbCircle
 10
845.454585384171
 20
1135.352333462692
 30
0.0
 40
50.0
100
AcDbArc
 50
118.2429710871652
 51
135.4968242045219
  0
LINE
  5
2D1
330
17
100
AcDbEntity
  8
4
100
AcDbLine
 10
815.9790509080194
 20
1196.39624638341
 30
0.0
 11
815.9790509080194
 21
1187.799773329262
 31
0.0
  0
LINE
  5
2D2
330
17
100
AcDbEntity
  8
4
100
AcDbLine
 10
820.8865281961312
 20
1196.39624638341
 30
0.0
 11
820.8865281961312
 21
1190.299773329262
 31
0.0
  0
LINE
  5
2D3
330
17
100
AcDbEntity
  8
4
100
AcDbLine
 10
830.7014827723551
 20
1196.39624638341
 30
0.0
 11
830.7014827723551
 21
1190.299773329262
 31
0.0
  0
LINE
  5
2D4
330
17
100
AcDbEntity
  8
L-CENTER
100
AcDbLine
 10
825.7940054842434
 20
1160.708238866826
 30
0.0
 11
825.7940054842434
 21
1200.167751583842
 31
0.0
  0
LINE
  5
2D5
330
17
100
AcDbEntity
  8
4
100
AcDbLine
 10
815.9790509080194
 20
1187.799773329262
 30
0.0
 11
835.6089600604669
 21
1187.799773329262
 31
0.0
  0
LINE
  5
2D6
330
17
100
AcDbEntity
  8
4
100
AcDbLine
 10
815.9790509080194
 20
1190.299773329262
 30
0.0
 11
835.6089600604669
 21
1190.299773329262
 31
0.0
  0
LINE
  5
2D7
330
17
100
AcDbEntity
  8
4
100
AcDbLine
 10
821.7940054842434
 20
1179.399773329262
 30
0.0
 11
847.5940054842436
 21
1179.399773329262
 31
0.0
  0
LINE
  5
2D8
330
17
100
AcDbEntity
  8
L-CENTER
100
AcDbLine
 10
805.4585679077195
 20
1224.399773329262
 30
0.0
 11
848.1294430607672
 21
1224.399773329262
 31
0.0
  0
ARC
  5
2D9
330
17
100
AcDbEntity
  8
4
100
AcDbCircle
 10
833.1552214164108
 20
1193.516159400203
 30
0.0
 40
3.783613929059507
100
AcDbArc
 50
49.57010315516856
 51
130.4298968448253
  0
CIRCLE
  5
2DA
330
17
100
AcDbEntity
  8
4
100
AcDbCircle
 10
826.7940054842434
 20
1224.399773329262
 30
0.0
 40
11.0
  0
LINE
  5
2DB
330
17
100
AcDbEntity
  8
L-CENTER
100
AcDbLine
 10
826.7940054842434
 20
1245.735210905786
 30
0.0
 11
826.7940054842434
 21
1203.064335752739
 31
0.0
  0
LINE
  5
2DC
330
17
100
AcDbEntity
  8
4
100
AcDbLine
 10
960.7940054842434
 20
1117.399773329262
 30
0.0
 11
961.7940054842434
 21
1116.399773329262
 31
0.0
  0
LINE
  5
2DD
330
17
100
AcDbEntity
  8
4
100
AcDbLine
 10
960.7940054842434
 20
1117.399773329262
 30
0.0
 11
960.7940054842434
 21
1100.399773329262
 31
0.0
  0
LINE
  5
2DE
330
17
100
AcDbEntity
  8
4
100
AcDbLine
 10
961.7940054842434
 20
1072.399773329262
 30
0.0
 11
960.7940054842434
 21
1071.399773329262
 31
0.0
  0
LINE
  5
2DF
330
17
100
AcDbEntity
  8
4
100
AcDbLine
 10
961.7940054842434
 20
1116.399773329262
 30
0.0
 11
961.7940054842434
 21
1072.399773329262
 31
0.0
  0
LINE
  5
2E0
330
17
100
AcDbEntity
  8
4
100
AcDbLine
 10
960.7940054842434
 20
1088.399773329262
 30
0.0
 11
960.7940054842434
 21
1071.399773329262
 31
0.0
  0
ARC
  5
2E1
330
17
100
AcDbEntity
  8
4
100
AcDbCircle
 10
863.7940054842434
 20
1119.399773329262
 30
0.0
 40
2.0
100
AcDbArc
 50
180.0
 51
270.0
  0
LINE
  5
2E2
330
17
100
AcDbEntity
  8
4
100
AcDbLine
 10
857.1903825383911
 20
1150.572473123011
 30
0.0
 11
851.0939094842433
 21
1150.572473123011
 31
0.0
  0
LINE
  5
2E3
330
17
100
AcDbEntity
  8
4
100
AcDbLine
 10
848.5939094842433
 20
1135.850041258675
 30
0.0
 11
857.1903825383911
 21
1135.850041258675
 31
0.0
  0
LINE
  5
2E4
330
17
100
AcDbEntity
  8
4
100
AcDbLine
 10
857.1903825383911
 20
1140.757518546787
 30
0.0
 11
851.0939094842433
 21
1140.757518546787
 31
0.0
  0
LINE
  5
2E5
330
17
100
AcDbEntity
  8
4
100
AcDbLine
 10
849.5940054842436
 20
1130.399773329262
 30
0.0
 11
848.5940054842436
 21
1130.399773329262
 31
0.0
  0
LINE
  5
2E6
330
17
100
AcDbEntity
  8
4
100
AcDbLine
 10
861.7940054842434
 20
1119.399773329262
 30
0.0
 11
849.5940054842436
 21
1119.399773329262
 31
0.0
  0
ARC
  5
2E7
330
17
100
AcDbEntity
  8
4
100
AcDbCircle
 10
844.3147441867836
 20
1145.664995834898
 30
0.0
 40
13.77916529745958
100
AcDbArc
 50
339.1359356360805
 51
20.86406436391942
  0
ARC
  5
2E8
330
17
100
AcDbEntity
  8
4
100
AcDbCircle
 10
854.310295555184
 20
1138.303779902731
 30
0.0
 40
3.783613929059507
100
AcDbArc
 50
319.5701031551723
 51
40.42989684482771
  0
ARC
  5
2E9
330
17
100
AcDbEntity
  8
4
100
AcDbCircle
 10
877.7940054842434
 20
1094.399773329262
 30
0.0
 40
6.0
100
AcDbArc
 50
90.0
 51
270.0
  0
LINE
  5
2EA
330
17
100
AcDbEntity
  8
L-CENTER
100
AcDbLine
 10
813.7940054842434
 20
1076.080224267435
 30
0.0
 11
813.7940054842434
 21
1112.719322391089
 31
0.0
  0
CIRCLE
  5
2EB
330
17
100
AcDbEntity
  8
4
100
AcDbCircle
 10
813.7940054842434
 20
1094.399773329262
 30
0.0
 40
11.0
  0
LINE
  5
2EC
330
17
100
AcDbEntity
  8
L-CENTER
100
AcDbLine
 10
862.9375614842434
 20
1145.665153329262
 30
0.0
 11
820.3015455411846
 21
1145.664685182642
 31
0.0
  0
LINE
  5
2ED
330
17
100
AcDbEntity
  8
4
100
AcDbLine
 10
858.0939094842433
 20
1050.495766755793
 30
0.0
 11
858.0939094842433
 21
1035.773334891458
 31
0.0
  0
ARC
  5
2EE
330
17
100
AcDbEntity
  8
4
100
AcDbCircle
 10
863.7940054842434
 20
1069.399773329262
 30
0.0
 40
2.0
100
AcDbArc
 50
90.0
 51
180.0
  0
LINE
  5
2EF
330
17
100
AcDbEntity
  8
4
100
AcDbLine
 10
857.1903825383911
 20
1038.227073535514
 30
0.0
 11
851.0939094842433
 21
1038.227073535514
 31
0.0
  0
LINE
  5
2F0
330
17
100
AcDbEntity
  8
4
100
AcDbLine
 10
857.1903825383911
 20
1048.042028111738
 30
0.0
 11
851.0939094842433
 21
1048.042028111738
 31
0.0
  0
LINE
  5
2F1
330
17
100
AcDbEntity
  8
4
100
AcDbLine
 10
848.5939094842433
 20
1052.949505399849
 30
0.0
 11
857.1903825383911
 21
1052.949505399849
 31
0.0
  0
LINE
  5
2F2
330
17
100
AcDbEntity
  8
4
100
AcDbLine
 10
849.5940054842436
 20
1058.399773329262
 30
0.0
 11
848.5940054842436
 21
1058.399773329262
 31
0.0
  0
ARC
  5
2F3
330
17
100
AcDbEntity
  8
4
100
AcDbCircle
 10
844.3147441867836
 20
1043.134550823626
 30
0.0
 40
13.77916529745958
100
AcDbArc
 50
339.1359356360805
 51
20.86406436391942
  0
ARC
  5
2F4
330
17
100
AcDbEntity
  8
4
100
AcDbCircle
 10
854.310295555184
 20
1050.495766755793
 30
0.0
 40
3.783613929059507
100
AcDbArc
 50
319.5701031551723
 51
40.42989684482771
  0
LINE
  5
2F5
330
17
100
AcDbEntity
  8
4
100
AcDbLine
 10
861.7940054842434
 20
1069.399773329262
 30
0.0
 11
849.5940054842436
 21
1069.399773329262
 31
0.0
  0
LINE
  5
2F6
330
17
100
AcDbEntity
  8
4
100
AcDbLine
 10
835.7940054842434
 20
1003.399773329263
 30
0.0
 11
835.7940054842434
 21
1009.399773329262
 31
0.0
  0
LINE
  5
2F7
330
17
100
AcDbEntity
  8
4
100
AcDbLine
 10
857.1903825383911
 20
1033.319596247402
 30
0.0
 11
848.5939094842433
 21
1033.319596247402
 31
0.0
  0
ARC
  5
2F8
330
17
100
AcDbEntity
  8
4
100
AcDbCircle
 10
847.5940054842436
 20
1010.399773329262
 30
0.0
 40
1.0
100
AcDbArc
 50
270.0
 51
0.0
  0
LINE
  5
2F9
330
17
100
AcDbEntity
  8
4
100
AcDbLine
 10
851.0939094842433
 20
1033.319596247402
 30
0.0
 11
851.0939094842433
 21
1052.949505399849
 31
0.0
  0
LINE
  5
2FA
330
17
100
AcDbEntity
  8
4
100
AcDbLine
 10
848.5939094842433
 20
1033.319596247402
 30
0.0
 11
848.5939094842433
 21
1052.949505399849
 31
0.0
  0
ARC
  5
2FB
330
17
100
AcDbEntity
  8
4
100
AcDbCircle
 10
854.310295555184
 20
1035.773334891458
 30
0.0
 40
3.783613929059507
100
AcDbArc
 50
319.5701031551723
 51
40.42989684482771
  0
LINE
  5
2FC
330
17
100
AcDbEntity
  8
4
100
AcDbLine
 10
821.7940054842434
 20
1009.399773329262
 30
0.0
 11
821.7940054842434
 21
1018.399773329262
 31
0.0
  0
ARC
  5
2FD
330
17
100
AcDbEntity
  8
4
100
AcDbCircle
 10
845.454585384171
 20
1053.447213195833
 30
0.0
 40
50.0
100
AcDbArc
 50
224.503175795478
 51
241.7570289128348
  0
LINE
  5
2FE
330
17
100
AcDbEntity
  8
4
100
AcDbLine
 10
821.7940054842434
 20
1009.399773329262
 30
0.0
 11
847.5940054842436
 21
1009.399773329262
 31
0.0
  0
LINE
  5
2FF
330
17
100
AcDbEntity
  8
L-CENTER
100
AcDbLine
 10
862.9375614842434
 20
1043.134393329262
 30
0.0
 11
820.3015455411846
 21
1043.134861475882
 31
0.0
  0
LINE
  5
300
330
17
100
AcDbEntity
  8
4
100
AcDbLine
 10
849.5940054842436
 20
1058.399773329262
 30
0.0
 11
849.5940054842436
 21
1130.399773329262
 31
0.0
  0
LINE
  5
301
330
17
100
AcDbEntity
  8
4
100
AcDbLine
 10
861.7940054842434
 20
1069.399773329262
 30
0.0
 11
861.7940054842434
 21
1119.399773329262
 31
0.0
  0
LINE
  5
302
330
17
100
AcDbEntity
  8
4
100
AcDbLine
 10
961.7940054842434
 20
1100.399773329262
 30
0.0
 11
877.7940054842434
 21
1100.399773329262
 31
0.0
  0
LINE
  5
303
330
17
100
AcDbEntity
  8
4
100
AcDbLine
 10
961.7940054842434
 20
1088.399773329262
 30
0.0
 11
877.7940054842434
 21
1088.399773329262
 31
0.0
  0
LINE
  5
304
330
17
100
AcDbEntity
  8
4
100
AcDbLine
 10
863.7940054842434
 20
1071.399773329262
 30
0.0
 11
960.7940054842434
 21
1071.399773329262
 31
0.0
  0
LINE
  5
305
330
17
100
AcDbEntity
  8
4
100
AcDbLine
 10
863.7940054842434
 20
1117.399773329262
 30
0.0
 11
960.7940054842434
 21
1117.399773329262
 31
0.0
  0
LINE
  5
306
330
17
100
AcDbEntity
  8
4
100
AcDbLine
 10
848.5940054842436
 20
1010.399773329262
 30
0.0
 11
848.5940054842436
 21
1178.399773329262
 31
0.0
  0
LINE
  5
307
330
17
100
AcDbEntity
  8
4
100
AcDbLine
 10
834.7940054842434
 20
1009.399773329262
 30
0.0
 11
834.7940054842434
 21
1179.399773329262
 31
0.0
  0
LINE
  5
308
330
17
100
AcDbEntity
  8
4
100
AcDbLine
 10
827.7940054842434
 20
1009.399773329262
 30
0.0
 11
827.7940054842434
 21
1179.399773329262
 31
0.0
  0
ARC
  5
309
330
17
100
AcDbEntity
  8
4
100
AcDbCircle
 10
854.310295555184
 20
1153.026211767066
 30
0.0
 40
3.783613929059507
100
AcDbArc
 50
319.5701031551723
 51
40.42989684482771
  0
LINE
  5
30A
330
17
100
AcDbEntity
  8
4
100
AcDbLine
 10
858.0939094842433
 20
1138.303779902731
 30
0.0
 11
858.0939094842433
 21
1153.026211767066
 31
0.0
  0
LINE
  5
30B
330
17
100
AcDbEntity
  8
4
100
AcDbLine
 10
848.5939094842433
 20
1155.479950411122
 30
0.0
 11
848.5939094842433
 21
1135.850041258675
 31
0.0
  0
LINE
  5
30C
330
17
100
AcDbEntity
  8
4
100
AcDbLine
 10
851.0939094842433
 20
1155.479950411122
 30
0.0
 11
851.0939094842433
 21
1135.850041258675
 31
0.0
  0
LINE
  5
30D
330
17
100
AcDbEntity
  8
4
100
AcDbLine
 10
675.7940054842434
 20
1363.399773329262
 30
0.0
 11
674.7940054842434
 21
1364.399773329262
 31
0.0
  0
LINE
  5
30E
330
17
100
AcDbEntity
  8
4
100
AcDbLine
 10
674.7940054842434
 20
1364.399773329262
 30
0.0
 11
608.7940054842434
 21
1364.399773329262
 31
0.0
  0
LINE
  5
30F
330
17
100
AcDbEntity
  8
4
100
AcDbLine
 10
650.7940054842434
 20
1363.399773329262
 30
0.0
 11
675.7940054842434
 21
1363.399773329262
 31
0.0
  0
LINE
  5
310
330
17
100
AcDbEntity
  8
4
100
AcDbLine
 10
607.7940054842434
 20
1363.399773329262
 30
0.0
 11
632.7940054842434
 21
1363.399773329262
 31
0.0
  0
LINE
  5
311
330
17
100
AcDbEntity
  8
4
100
AcDbLine
 10
607.7940054842434
 20
1363.399773329262
 30
0.0
 11
608.7940054842434
 21
1364.399773329262
 31
0.0
  0
ARC
  5
312
330
17
100
AcDbEntity
  8
4
100
AcDbCircle
 10
706.0132290778392
 20
1233.399773329262
 30
0.0
 40
1.0
100
AcDbArc
 50
14.03624346792014
 51
90.0
  0
ARC
  5
313
330
17
100
AcDbEntity
  8
4
100
AcDbCircle
 10
749.8244971667232
 20
1204.747677033208
 30
0.0
 40
2.0
100
AcDbArc
 50
342.5661388826788
 51
349.9823318517376
  0
LINE
  5
314
330
17
100
AcDbEntity
  8
4
100
AcDbLine
 10
741.1552214164108
 20
1197.299773329262
 30
0.0
 11
726.4327895520755
 21
1197.299773329262
 31
0.0
  0
ARC
  5
315
330
17
100
AcDbEntity
  8
4
100
AcDbCircle
 10
733.7940054842434
 20
1183.520608031803
 30
0.0
 40
13.77916529745958
100
AcDbArc
 50
69.13593563608042
 51
110.8640643639196
  0
ARC
  5
316
330
17
100
AcDbEntity
  8
4
100
AcDbCircle
 10
726.4327895520755
 20
1193.516159400203
 30
0.0
 40
3.783613929059507
100
AcDbArc
 50
49.57010315517471
 51
130.4298968448253
  0
ARC
  5
317
330
17
100
AcDbEntity
  8
4
100
AcDbCircle
 10
741.1552214164108
 20
1193.516159400203
 30
0.0
 40
3.783613929059507
100
AcDbArc
 50
49.57010315516856
 51
130.4298968448315
  0
LINE
  5
318
330
17
100
AcDbEntity
  8
4
100
AcDbLine
 10
723.9790509080194
 20
1187.799773329262
 30
0.0
 11
743.6089600604669
 21
1187.799773329262
 31
0.0
  0
LINE
  5
319
330
17
100
AcDbEntity
  8
4
100
AcDbLine
 10
723.9790509080194
 20
1190.299773329262
 30
0.0
 11
743.6089600604669
 21
1190.299773329262
 31
0.0
  0
LINE
  5
31A
330
17
100
AcDbEntity
  8
4
100
AcDbLine
 10
723.9790509080194
 20
1196.39624638341
 30
0.0
 11
723.9790509080194
 21
1187.799773329262
 31
0.0
  0
LINE
  5
31B
330
17
100
AcDbEntity
  8
4
100
AcDbLine
 10
728.8865281961312
 20
1196.39624638341
 30
0.0
 11
728.8865281961312
 21
1190.299773329262
 31
0.0
  0
LINE
  5
31C
330
17
100
AcDbEntity
  8
4
100
AcDbLine
 10
743.6089600604669
 20
1187.799773329262
 30
0.0
 11
743.6089600604669
 21
1196.39624638341
 31
0.0
  0
LINE
  5
31D
330
17
100
AcDbEntity
  8
4
100
AcDbLine
 10
738.7014827723551
 20
1196.39624638341
 30
0.0
 11
738.7014827723551
 21
1190.299773329262
 31
0.0
  0
LINE
  5
31E
330
17
100
AcDbEntity
  8
L-CENTER
100
AcDbLine
 10
733.7940054842434
 20
1160.708238866826
 30
0.0
 11
733.7940054842434
 21
1200.167751583842
 31
0.0
  0
LINE
  5
31F
330
17
100
AcDbEntity
  8
4
100
AcDbLine
 10
711.7940054842438
 20
1214.399773329262
 30
0.0
 11
706.9833715779841
 21
1233.642308954299
 31
0.0
  0
LINE
  5
320
330
17
100
AcDbEntity
  8
4
100
AcDbLine
 10
786.7940054842434
 20
1249.399773329262
 30
0.0
 11
786.7940054842434
 21
1193.311313396844
 31
0.0
  0
LINE
  5
321
330
17
100
AcDbEntity
  8
4
100
AcDbLine
 10
676.7940054842434
 20
1235.399773329262
 30
0.0
 11
676.7940054842434
 21
1244.399773329262
 31
0.0
  0
LINE
  5
322
330
17
100
AcDbEntity
  8
4
100
AcDbLine
 10
691.7940054842434
 20
1235.399773329262
 30
0.0
 11
691.7940054842434
 21
1234.399773329262
 31
0.0
  0
ARC
  5
323
330
17
100
AcDbEntity
  8
4
100
AcDbCircle
 10
676.7940054842434
 20
1245.399773329262
 30
0.0
 40
1.0
100
AcDbArc
 50
180.0
 51
270.0
  0
ARC
  5
324
330
17
100
AcDbEntity
  8
4
100
AcDbCircle
 10
641.7940054842434
 20
1263.399773329262
 30
0.0
 40
9.0
100
AcDbArc
 50
180.0
 51
0.0
  0
LINE
  5
325
330
17
100
AcDbEntity
  8
4
100
AcDbLine
 10
691.7940054842434
 20
1216.399773329262
 30
0.0
 11
691.7940054842434
 21
1214.399773329262
 31
0.0
  0
LINE
  5
326
330
17
100
AcDbEntity
  8
4
100
AcDbLine
 10
661.7940054842434
 20
1204.399773329262
 30
0.0
 11
661.7940054842434
 21
1191.765858851389
 31
0.0
  0
LINE
  5
327
330
17
100
AcDbEntity
  8
4
100
AcDbLine
 10
691.7940054842434
 20
1214.399773329262
 30
0.0
 11
682.2319139809756
 21
1187.799773329262
 31
0.0
  0
LINE
  5
328
330
17
100
AcDbEntity
  8
4
100
AcDbLine
 10
691.7940054842434
 20
1216.399773329262
 30
0.0
 11
681.5129597326095
 21
1187.799773329262
 31
0.0
  0
LINE
  5
329
330
17
100
AcDbEntity
  8
4
100
AcDbLine
 10
621.7940054842434
 20
1204.399773329262
 30
0.0
 11
621.7940054842434
 21
1191.765858851389
 31
0.0
  0
LINE
  5
32A
330
17
100
AcDbEntity
  8
4
100
AcDbLine
 10
661.7940054842434
 20
1204.399773329262
 30
0.0
 11
621.7940054842434
 21
1204.399773329262
 31
0.0
  0
LINE
  5
32B
330
17
100
AcDbEntity
  8
4
100
AcDbLine
 10
661.7940054842429
 20
1191.765858851389
 30
0.0
 11
621.7940054842434
 21
1191.765858851389
 31
0.0
  0
LINE
  5
32C
330
17
100
AcDbEntity
  8
4
100
AcDbLine
 10
691.7940054842434
 20
1214.399773329262
 30
0.0
 11
706.0132290778392
 21
1214.399773329262
 31
0.0
  0
ARC
  5
32D
330
17
100
AcDbEntity
  8
4
100
AcDbCircle
 10
665.5440054842434
 20
1094.399773329262
 30
0.0
 40
6.25
100
AcDbArc
 50
270.0
 51
90.0
  0
ARC
  5
32E
330
17
100
AcDbEntity
  8
4
100
AcDbCircle
 10
618.0440054842434
 20
1094.399773329262
 30
0.0
 40
6.25
100
AcDbArc
 50
90.0
 51
270.0
  0
ARC
  5
32F
330
17
100
AcDbEntity
  8
4
100
AcDbCircle
 10
641.7940054842434
 20
1094.399773329262
 30
0.0
 40
13.5
100
AcDbArc
 50
27.57846797812199
 51
152.421532021878
  0
ARC
  5
330
330
17
100
AcDbEntity
  8
4
100
AcDbCircle
 10
641.7940054842434
 20
1094.399773329262
 30
0.0
 40
13.5
100
AcDbArc
 50
207.5784679781241
 51
332.4215320218769
  0
ARC
  5
331
330
17
100
AcDbEntity
  8
4
100
AcDbCircle
 10
641.7940054842434
 20
1094.399773329262
 30
0.0
 40
20.0
100
AcDbArc
 50
198.209956864283
 51
341.790043135717
  0
LINE
  5
332
330
17
100
AcDbEntity
  8
4
100
AcDbLine
 10
618.0440054842434
 20
1088.149773329262
 30
0.0
 11
665.5440054842434
 21
1088.149773329262
 31
0.0
  0
LINE
  5
333
330
17
100
AcDbEntity
  8
4
100
AcDbLine
 10
618.0440054842434
 20
1100.649773329262
 30
0.0
 11
665.5440054842434
 21
1100.649773329262
 31
0.0
  0
ARC
  5
334
330
17
100
AcDbEntity
  8
4
100
AcDbCircle
 10
641.7940054842434
 20
1094.399773329262
 30
0.0
 40
15.0
100
AcDbArc
 50
24.62431835216307
 51
155.3756816478369
  0
ARC
  5
335
330
17
100
AcDbEntity
  8
4
100
AcDbCircle
 10
641.7940054842434
 20
1094.399773329262
 30
0.0
 40
15.0
100
AcDbArc
 50
204.624318352165
 51
335.3756816478359
  0
ARC
  5
336
330
17
100
AcDbEntity
  8
4
100
AcDbCircle
 10
641.7940054842434
 20
1094.399773329262
 30
0.0
 40
20.0
100
AcDbArc
 50
18.20995686428299
 51
161.790043135717
  0
LINE
  5
337
330
17
100
AcDbEntity
  8
4
100
AcDbLine
 10
691.452302557725
 20
975.1767733292627
 30
0.0
 11
680.5592148384253
 21
1003.399773329262
 31
0.0
  0
LINE
  5
338
330
17
100
AcDbEntity
  8
4
100
AcDbLine
 10
692.5242022328382
 20
975.1767733292627
 30
0.0
 11
681.6311145135405
 21
1003.399773329262
 31
0.0
  0
ARC
  5
339
330
17
100
AcDbEntity
  8
4
100
AcDbCircle
 10
606.7940054842434
 20
1245.399773329262
 30
0.0
 40
1.0
100
AcDbArc
 50
270.0
 51
0.0
  0
LINE
  5
33A
330
17
100
AcDbEntity
  8
4
100
AcDbLine
 10
591.7940054842434
 20
1235.399773329262
 30
0.0
 11
591.7940054842434
 21
1234.399773329262
 31
0.0
  0
LINE
  5
33B
330
17
100
AcDbEntity
  8
4
100
AcDbLine
 10
606.7940054842434
 20
1235.399773329262
 30
0.0
 11
606.7940054842434
 21
1244.399773329262
 31
0.0
  0
ARC
  5
33C
330
17
100
AcDbEntity
  8
4
100
AcDbCircle
 10
577.574781890648
 20
1233.399773329262
 30
0.0
 40
1.0
100
AcDbArc
 50
90.0
 51
165.9637565320799
  0
LINE
  5
33D
330
17
100
AcDbEntity
  8
4
100
AcDbLine
 10
591.7940054842434
 20
1216.399773329262
 30
0.0
 11
591.7940054842434
 21
1214.399773329262
 31
0.0
  0
LINE
  5
33E
330
17
100
AcDbEntity
  8
4
100
AcDbLine
 10
577.574781890648
 20
1214.399773329262
 30
0.0
 11
591.7940054842434
 21
1214.399773329262
 31
0.0
  0
LINE
  5
33F
330
17
100
AcDbEntity
  8
4
100
AcDbLine
 10
591.7940054842434
 20
1216.399773329262
 30
0.0
 11
602.0750512358777
 21
1187.799773329262
 31
0.0
  0
LINE
  5
340
330
17
100
AcDbEntity
  8
4
100
AcDbLine
 10
591.7940054842434
 20
1214.399773329262
 30
0.0
 11
601.3560969875111
 21
1187.799773329262
 31
0.0
  0
ARC
  5
341
330
17
100
AcDbEntity
  8
4
100
AcDbCircle
 10
557.1552214164112
 20
1193.516159400203
 30
0.0
 40
3.783613929059507
100
AcDbArc
 50
49.57010315517471
 51
130.4298968448253
  0
LINE
  5
342
330
17
100
AcDbEntity
  8
4
100
AcDbLine
 10
542.432789552076
 20
1197.299773329262
 30
0.0
 11
557.1552214164112
 21
1197.299773329262
 31
0.0
  0
ARC
  5
343
330
17
100
AcDbEntity
  8
4
100
AcDbCircle
 10
549.7940054842434
 20
1183.520608031803
 30
0.0
 40
13.77916529745958
100
AcDbArc
 50
69.13593563608042
 51
110.8640643639196
  0
ARC
  5
344
330
17
100
AcDbEntity
  8
4
100
AcDbCircle
 10
538.7940054842434
 20
1206.293131578662
 30
0.0
 40
2.0
100
AcDbArc
 50
180.0
 51
197.1759036157507
  0
LINE
  5
345
330
17
100
AcDbEntity
  8
4
100
AcDbLine
 10
536.7940054842434
 20
1206.399773329262
 30
0.0
 11
536.7940054842434
 21
1206.293131578662
 31
0.0
  0
ARC
  5
346
330
17
100
AcDbEntity
  8
4
100
AcDbCircle
 10
542.432789552076
 20
1193.516159400203
 30
0.0
 40
3.783613929059507
100
AcDbArc
 50
49.57010315516856
 51
130.4298968448315
  0
LINE
  5
347
330
17
100
AcDbEntity
  8
4
100
AcDbLine
 10
559.6089600604673
 20
1190.299773329262
 30
0.0
 11
539.9790509080199
 21
1190.299773329262
 31
0.0
  0
LINE
  5
348
330
17
100
AcDbEntity
  8
4
100
AcDbLine
 10
559.6089600604673
 20
1187.799773329262
 30
0.0
 11
539.9790509080199
 21
1187.799773329262
 31
0.0
  0
LINE
  5
349
330
17
100
AcDbEntity
  8
L-CENTER
100
AcDbLine
 10
549.7940054842434
 20
1160.708238866826
 30
0.0
 11
549.7940054842434
 21
1200.167751583842
 31
0.0
  0
LINE
  5
34A
330
17
100
AcDbEntity
  8
4
100
AcDbLine
 10
554.7014827723556
 20
1196.39624638341
 30
0.0
 11
554.7014827723556
 21
1190.299773329262
 31
0.0
  0
LINE
  5
34B
330
17
100
AcDbEntity
  8
4
100
AcDbLine
 10
544.8865281961316
 20
1196.39624638341
 30
0.0
 11
544.8865281961316
 21
1190.299773329262
 31
0.0
  0
LINE
  5
34C
330
17
100
AcDbEntity
  8
4
100
AcDbLine
 10
539.9790509080199
 20
1187.799773329262
 30
0.0
 11
539.9790509080199
 21
1196.39624638341
 31
0.0
  0
LINE
  5
34D
330
17
100
AcDbEntity
  8
4
100
AcDbLine
 10
559.6089600604673
 20
1196.39624638341
 30
0.0
 11
559.6089600604673
 21
1187.799773329262
 31
0.0
  0
LINE
  5
34E
330
17
100
AcDbEntity
  8
4
100
AcDbLine
 10
571.7940054842434
 20
1214.399773329262
 30
0.0
 11
576.6046393905026
 21
1233.642308954299
 31
0.0
  0
ARC
  5
34F
330
17
100
AcDbEntity
  8
4
100
AcDbCircle
 10
491.7940054842434
 20
1249.399773329262
 30
0.0
 40
5.0
100
AcDbArc
 50
0.0
 51
90.0
  0
LINE
  5
350
330
17
100
AcDbEntity
  8
4
100
AcDbLine
 10
486.7940054842434
 20
1206.399773329262
 30
0.0
 11
486.7940054842434
 21
1190.220404305935
 31
0.0
  0
ARC
  5
351
330
17
100
AcDbEntity
  8
4
100
AcDbCircle
 10
465.1552214164112
 20
1193.516159400203
 30
0.0
 40
3.783613929059507
100
AcDbArc
 50
49.57010315517471
 51
130.4298968448315
  0
ARC
  5
352
330
17
100
AcDbEntity
  8
4
100
AcDbCircle
 10
457.7940054842434
 20
1183.520608031803
 30
0.0
 40
13.77916529745958
100
AcDbArc
 50
69.13593563607996
 51
110.8640643639201
  0
LINE
  5
353
330
17
100
AcDbEntity
  8
4
100
AcDbLine
 10
450.432789552076
 20
1197.299773329262
 30
0.0
 11
465.1552214164112
 21
1197.299773329262
 31
0.0
  0
ARC
  5
354
330
17
100
AcDbEntity
  8
4
100
AcDbCircle
 10
450.432789552076
 20
1193.516159400203
 30
0.0
 40
3.783613929059507
100
AcDbArc
 50
49.57010315517471
 51
130.4298968448315
  0
LINE
  5
355
330
17
100
AcDbEntity
  8
4
100
AcDbLine
 10
461.7940054842434
 20
1170.399773329263
 30
0.0
 11
461.7940054842434
 21
1179.399773329262
 31
0.0
  0
ARC
  5
356
330
17
100
AcDbEntity
  8
4
100
AcDbCircle
 10
435.9940054842436
 20
1178.399773329262
 30
0.0
 40
1.0
100
AcDbArc
 50
90.0
 51
180.0
  0
ARC
  5
357
330
17
100
AcDbEntity
  8
4
100
AcDbCircle
 10
448.7940054842434
 20
1186.799773329262
 30
0.0
 40
1.0
100
AcDbArc
 50
90.0
 51
180.0
  0
LINE
  5
358
330
17
100
AcDbEntity
  8
4
100
AcDbLine
 10
447.7940054842434
 20
1186.799773329262
 30
0.0
 11
447.7940054842434
 21
1179.399773329262
 31
0.0
  0
LINE
  5
359
330
17
100
AcDbEntity
  8
4
100
AcDbLine
 10
435.9940054842436
 20
1179.399773329262
 30
0.0
 11
461.7940054842434
 21
1179.399773329262
 31
0.0
  0
LINE
  5
35A
330
17
100
AcDbEntity
  8
4
100
AcDbLine
 10
467.6089600604673
 20
1187.799773329262
 30
0.0
 11
447.9790509080199
 21
1187.799773329262
 31
0.0
  0
LINE
  5
35B
330
17
100
AcDbEntity
  8
4
100
AcDbLine
 10
467.6089600604673
 20
1190.299773329262
 30
0.0
 11
447.9790509080199
 21
1190.299773329262
 31
0.0
  0
LINE
  5
35C
330
17
100
AcDbEntity
  8
L-CENTER
100
AcDbLine
 10
457.7940054842434
 20
1160.708238866826
 30
0.0
 11
457.7940054842434
 21
1200.167751583842
 31
0.0
  0
LINE
  5
35D
330
17
100
AcDbEntity
  8
4
100
AcDbLine
 10
447.9790509080199
 20
1187.799773329262
 30
0.0
 11
447.9790509080199
 21
1196.39624638341
 31
0.0
  0
LINE
  5
35E
330
17
100
AcDbEntity
  8
4
100
AcDbLine
 10
462.7014827723556
 20
1196.39624638341
 30
0.0
 11
462.7014827723556
 21
1190.299773329262
 31
0.0
  0
LINE
  5
35F
330
17
100
AcDbEntity
  8
4
100
AcDbLine
 10
467.6089600604673
 20
1196.39624638341
 30
0.0
 11
467.6089600604673
 21
1187.799773329262
 31
0.0
  0
LINE
  5
360
330
17
100
AcDbEntity
  8
4
100
AcDbLine
 10
452.8865281961316
 20
1196.39624638341
 30
0.0
 11
452.8865281961316
 21
1190.299773329262
 31
0.0
  0
ARC
  5
361
330
17
100
AcDbEntity
  8
4
100
AcDbCircle
 10
438.1334255843158
 20
1135.352333462692
 30
0.0
 40
50.0
100
AcDbArc
 50
44.50317579547807
 51
61.75702891283468
  0
LINE
  5
362
330
17
100
AcDbEntity
  8
L-CENTER
100
AcDbLine
 10
435.4585679077195
 20
1224.399773329262
 30
0.0
 11
478.1294430607672
 21
1224.399773329262
 31
0.0
  0
LINE
  5
363
330
17
100
AcDbEntity
  8
L-CENTER
100
AcDbLine
 10
456.7940054842434
 20
1245.735210905786
 30
0.0
 11
456.7940054842434
 21
1203.064335752739
 31
0.0
  0
CIRCLE
  5
364
330
17
100
AcDbEntity
  8
4
100
AcDbCircle
 10
456.7940054842434
 20
1224.399773329262
 30
0.0
 40
11.0
  0
LINE
  5
365
330
17
100
AcDbEntity
  8
4
100
AcDbLine
 10
496.7940054842434
 20
1249.399773329262
 30
0.0
 11
496.7940054842434
 21
1206.399773329262
 31
0.0
  0
LINE
  5
366
330
17
100
AcDbEntity
  8
4
100
AcDbLine
 10
571.7940054842434
 20
1214.399773329262
 30
0.0
 11
485.7351819548317
 21
1187.799773329262
 31
0.0
  0
LINE
  5
367
330
17
100
AcDbEntity
  8
4
100
AcDbLine
 10
478.9625523244208
 20
1187.799773329262
 30
0.0
 11
572.3611715124057
 21
1216.668437441912
 31
0.0
  0
LINE
  5
368
330
17
100
AcDbEntity
  8
4
100
AcDbLine
 10
486.7940054842434
 20
1206.399773329262
 30
0.0
 11
536.7940054842434
 21
1206.399773329262
 31
0.0
  0
LWPOLYLINE
  5
369
330
17
100
AcDbEntity
  8
4
100
AcDbPolyline
 90
        6
 70
     1
 43
0.0
 10
566.7940054842434
 20
1094.399773329262
 10
555.2940054842434
 20
1114.318357616304
 10
532.2940054842434
 20
1114.318357616304
 10
520.7940054842434
 20
1094.399773329262
 10
532.2940054842434
 20
1074.48118904222
 10
555.2940054842434
 20
1074.48118904222
  0
LINE
  5
36A
330
17
100
AcDbEntity
  8
4
100
AcDbLine
 10
592.1357084107616
 20
975.1767733292622
 30
0.0
 11
603.0287961300614
 21
1003.399773329262
 31
0.0
  0
LINE
  5
36B
330
17
100
AcDbEntity
  8
4
100
AcDbLine
 10
591.0638087356483
 20
975.1767733292622
 30
0.0
 11
601.9568964549462
 21
1003.399773329262
 31
0.0
  0
CIRCLE
  5
36C
330
17
100
AcDbEntity
  8
4
100
AcDbCircle
 10
543.7940054842434
 20
1094.399773329262
 30
0.0
 40
23.0
  0
CIRCLE
  5
36D
330
17
100
AcDbEntity
  8
4
100
AcDbCircle
 10
543.7940054842434
 20
1094.399773329262
 30
0.0
 40
25.0
  0
LINE
  5
36E
330
17
100
AcDbEntity
  8
L-CENTER
100
AcDbLine
 10
543.7940054842434
 20
1061.209307812117
 30
0.0
 11
543.7940054842434
 21
1127.590238846408
 31
0.0
  0
LINE
  5
36F
330
17
100
AcDbEntity
  8
L-CENTER
100
AcDbLine
 10
469.7940054842434
 20
1076.080224267435
 30
0.0
 11
469.7940054842434
 21
1112.719322391089
 31
0.0
  0
CIRCLE
  5
370
330
17
100
AcDbEntity
  8
4
100
AcDbCircle
 10
469.7940054842434
 20
1094.399773329262
 30
0.0
 40
11.0
  0
LINE
  5
371
330
17
100
AcDbEntity
  8
4
100
AcDbLine
 10
461.7940054842434
 20
1009.399773329262
 30
0.0
 11
461.7940054842434
 21
1018.399773329262
 31
0.0
  0
LINE
  5
372
330
17
100
AcDbEntity
  8
4
100
AcDbLine
 10
447.7940054842434
 20
1003.399773329262
 30
0.0
 11
447.7940054842434
 21
1009.399773329262
 31
0.0
  0
ARC
  5
373
330
17
100
AcDbEntity
  8
4
100
AcDbCircle
 10
435.9940054842432
 20
1010.399773329262
 30
0.0
 40
1.0
100
AcDbArc
 50
180.0
 51
270.0
  0
LINE
  5
374
330
17
100
AcDbEntity
  8
4
100
AcDbLine
 10
435.9940054842432
 20
1009.399773329262
 30
0.0
 11
461.7940054842434
 21
1009.399773329262
 31
0.0
  0
LINE
  5
375
330
17
100
AcDbEntity
  8
4
100
AcDbLine
 10
432.4941014842434
 20
1033.334345329262
 30
0.0
 11
432.4941014842434
 21
1052.934441329262
 31
0.0
  0
LINE
  5
376
330
17
100
AcDbEntity
  8
4
100
AcDbLine
 10
434.9941014842434
 20
1033.319596247402
 30
0.0
 11
434.9941014842434
 21
1052.949505399849
 31
0.0
  0
LINE
  5
377
330
17
100
AcDbEntity
  8
4
100
AcDbLine
 10
432.4941014842434
 20
1033.319596247402
 30
0.0
 11
432.4941014842434
 21
1052.949505399849
 31
0.0
  0
ARC
  5
378
330
17
100
AcDbEntity
  8
4
100
AcDbCircle
 10
438.1334255843158
 20
1053.447213195833
 30
0.0
 40
50.0
100
AcDbArc
 50
298.2429710871652
 51
315.4968242045218
  0
LINE
  5
379
330
17
100
AcDbEntity
  8
4
100
AcDbLine
 10
434.9940054842432
 20
1010.399773329262
 30
0.0
 11
434.9940054842436
 21
1178.399773329262
 31
0.0
  0
LINE
  5
37A
330
17
100
AcDbEntity
  8
4
100
AcDbLine
 10
455.7940054842434
 20
1009.399773329262
 30
0.0
 11
455.7940054842434
 21
1179.399773329262
 31
0.0
  0
LINE
  5
37B
330
17
100
AcDbEntity
  8
4
100
AcDbLine
 10
448.7940054842434
 20
1009.399773329262
 30
0.0
 11
448.7940054842434
 21
1179.399773329262
 31
0.0
  0
LINE
  5
37C
330
17
100
AcDbEntity
  8
4
100
AcDbLine
 10
432.4941014842434
 20
1155.479950411122
 30
0.0
 11
432.4941014842434
 21
1135.850041258675
 31
0.0
  0
LINE
  5
37D
330
17
100
AcDbEntity
  8
4
100
AcDbLine
 10
434.9941014842434
 20
1155.479950411122
 30
0.0
 11
434.9941014842434
 21
1135.850041258675
 31
0.0
  0
LINE
  5
37E
330
17
100
AcDbEntity
  8
4
100
AcDbLine
 10
606.7940054842434
 20
1244.399773329262
 30
0.0
 11
676.7940054842434
 21
1244.399773329262
 31
0.0
  0
LINE
  5
37F
330
17
100
AcDbEntity
  8
4
100
AcDbLine
 10
591.7940054842434
 20
1235.399773329262
 30
0.0
 11
691.7940054842434
 21
1235.399773329262
 31
0.0
  0
LINE
  5
380
330
17
100
AcDbEntity
  8
4
100
AcDbLine
 10
591.7940054842434
 20
1216.399773329262
 30
0.0
 11
691.7940054842434
 21
1216.399773329262
 31
0.0
  0
LINE
  5
381
330
17
100
AcDbEntity
  8
4
100
AcDbLine
 10
577.574781890648
 20
1234.399773329262
 30
0.0
 11
706.0132290778392
 21
1234.399773329262
 31
0.0
  0
LINE
  5
382
330
17
100
AcDbEntity
  8
4
100
AcDbLine
 10
650.7940054842434
 20
1364.399773329262
 30
0.0
 11
650.7940054842434
 21
1263.399773329262
 31
0.0
  0
LINE
  5
383
330
17
100
AcDbEntity
  8
4
100
AcDbLine
 10
632.7940054842434
 20
1364.399773329262
 30
0.0
 11
632.7940054842434
 21
1263.399773329262
 31
0.0
  0
LINE
  5
384
330
17
100
AcDbEntity
  8
4
100
AcDbLine
 10
607.7940054842434
 20
1245.399773329262
 30
0.0
 11
607.7940054842434
 21
1363.399773329262
 31
0.0
  0
LINE
  5
385
330
17
100
AcDbEntity
  8
4
100
AcDbLine
 10
675.7940054842434
 20
1245.399773329262
 30
0.0
 11
675.7940054842434
 21
1363.399773329262
 31
0.0
  0
LINE
  5
386
330
17
100
AcDbEntity
  8
4
100
AcDbLine
 10
448.7940054842434
 20
1187.799773329262
 30
0.0
 11
834.7940054842434
 21
1187.799773329262
 31
0.0
  0
LINE
  5
387
330
17
100
AcDbEntity
  8
4
100
AcDbLine
 10
447.7940054842434
 20
1003.399773329262
 30
0.0
 11
835.7940054842434
 21
1003.399773329263
 31
0.0
  0
LINE
  5
388
330
17
100
AcDbEntity
  8
4
100
AcDbLine
 10
455.7940054842434
 20
1018.399773329262
 30
0.0
 11
827.7940054842434
 21
1018.399773329262
 31
0.0
  0
LINE
  5
389
330
17
100
AcDbEntity
  8
4
100
AcDbLine
 10
455.7940054842434
 20
1170.399773329262
 30
0.0
 11
827.7940054842434
 21
1170.399773329262
 31
0.0
  0
LINE
  5
38A
330
17
100
AcDbEntity
  8
4
100
AcDbLine
 10
470.5740223667376
 20
1173.399773329262
 30
0.0
 11
813.0139886017491
 21
1173.399773329262
 31
0.0
  0
LINE
  5
38B
330
17
100
AcDbEntity
  8
4
100
AcDbLine
 10
472.7828423047454
 20
1171.399773329262
 30
0.0
 11
810.8051686637414
 21
1171.399773329262
 31
0.0
  0
LINE
  5
38C
330
17
100
AcDbEntity
  8
4
100
AcDbLine
 10
472.7828423047454
 20
1017.399773329262
 30
0.0
 11
679.7511483408198
 21
1017.399773329262
 31
0.0
  0
LINE
  5
38D
330
17
100
AcDbEntity
  8
4
100
AcDbLine
 10
799.7940054842468
 20
1017.399773329263
 30
0.0
 11
810.8051686637414
 21
1017.399773329263
 31
0.0
  0
LINE
  5
38E
330
17
100
AcDbEntity
  8
4
100
AcDbLine
 10
804.6254586440659
 20
1187.799773329262
 30
0.0
 11
711.226839456081
 21
1216.668437441912
 31
0.0
  0
LINE
  5
38F
330
17
100
AcDbEntity
  8
4
100
AcDbLine
 10
711.7940054842434
 20
1214.399773329262
 30
0.0
 11
797.8528290136551
 21
1187.799773329262
 31
0.0
  0
ARC
  5
390
330
17
100
AcDbEntity
  8
4
100
AcDbCircle
 10
791.7940054842434
 20
1249.399773329262
 30
0.0
 40
5.0
100
AcDbArc
 50
90.0
 51
180.0
  0
ARC
  5
391
330
17
100
AcDbEntity
  8
4
100
AcDbCircle
 10
856.7940054842434
 20
939.3997733292624
 30
0.0
 40
5.0
100
AcDbArc
 50
270.0
 51
0.0
  0
LINE
  5
392
330
17
100
AcDbEntity
  8
L-CENTER
100
AcDbLine
 10
826.7940054842434
 20
943.0643357527385
 30
0.0
 11
826.7940054842434
 21
985.7352109057858
 31
0.0
  0
LINE
  5
393
330
17
100
AcDbEntity
  8
L-CENTER
100
AcDbLine
 10
805.4585679077195
 20
964.3997733292622
 30
0.0
 11
848.1294430607672
 21
964.3997733292622
 31
0.0
  0
LINE
  5
394
330
17
100
AcDbEntity
  8
4
100
AcDbLine
 10
791.7940054842434
 20
934.3997733292622
 30
0.0
 11
856.7940054842434
 21
934.3997733292624
 31
0.0
  0
CIRCLE
  5
395
330
17
100
AcDbEntity
  8
4
100
AcDbCircle
 10
826.7940054842434
 20
964.3997733292622
 30
0.0
 40
11.0
  0
LINE
  5
39F
330
17
100
AcDbEntity
  8
4
100
AcDbLine
 10
857.1903825383911
 20
600.3658887749664
 30
0.0
 11
851.0939094842433
 21
600.3658887749664
 31
0.0
  0
LINE
  5
3A0
330
17
100
AcDbEntity
  8
4
100
AcDbLine
 10
857.1903825383911
 20
605.2733660630781
 30
0.0
 11
848.5939094842433
 21
605.2733660630781
 31
0.0
  0
ARC
  5
3A1
330
17
100
AcDbEntity
  8
4
100
AcDbCircle
 10
854.310295555184
 20
602.819627419022
 30
0.0
 40
3.783613929059507
100
AcDbArc
 50
319.5701031551723
 51
40.42989684482771
  0
LINE
  5
3A2
330
17
100
AcDbEntity
  8
4
100
AcDbLine
 10
824.7940054842434
 20
650.1931889812179
 30
0.0
 11
813.7940054842434
 21
650.1931889812179
 31
0.0
  0
LINE
  5
3A3
330
17
100
AcDbEntity
  8
4
100
AcDbLine
 10
822.7940054842434
 20
651.1931889812179
 30
0.0
 11
813.7940054842434
 21
651.1931889812179
 31
0.0
  0
LINE
  5
3A4
330
17
100
AcDbEntity
  8
4
100
AcDbLine
 10
813.7940054842434
 20
648.1931889812179
 30
0.0
 11
824.7940054842434
 21
648.1931889812179
 31
0.0
  0
ARC
  5
3A5
330
17
100
AcDbEntity
  8
4
100
AcDbCircle
 10
823.7940054842434
 20
634.1931889812179
 30
0.0
 40
4.0
100
AcDbArc
 50
90.0
 51
180.0
  0
LINE
  5
3A6
330
17
100
AcDbEntity
  8
4
100
AcDbLine
 10
823.7940054842434
 20
638.1931889812179
 30
0.0
 11
813.7940054842434
 21
638.1931889812179
 31
0.0
  0
ARC
  5
3A7
330
17
100
AcDbEntity
  8
4
100
AcDbCircle
 10
816.7940054842434
 20
629.1931889812179
 30
0.0
 40
5.0
100
AcDbArc
 50
53.13010200000199
 51
126.869897999998
  0
LINE
  5
3A8
330
17
100
AcDbEntity
  8
4
100
AcDbLine
 10
823.7940054842434
 20
638.1931889812179
 30
0.0
 11
823.7940054842434
 21
648.1931889812179
 31
0.0
  0
LINE
  5
3A9
330
17
100
AcDbEntity
  8
4
100
AcDbLine
 10
824.7940054842434
 20
650.1931889812179
 30
0.0
 11
824.7940054842434
 21
648.1931889812179
 31
0.0
  0
LINE
  5
3AA
330
17
100
AcDbEntity
  8
4
100
AcDbLine
 10
822.7940054842434
 20
651.1931889812179
 30
0.0
 11
824.7940054842434
 21
650.1931889812179
 31
0.0
  0
ARC
  5
3AB
330
17
100
AcDbEntity
  8
4
100
AcDbCircle
 10
803.7940054842434
 20
634.1931889812179
 30
0.0
 40
4.0
100
AcDbArc
 50
0.0
 51
90.0
  0
LINE
  5
3AC
330
17
100
AcDbEntity
  8
4
100
AcDbLine
 10
803.7940054842434
 20
638.1931889812179
 30
0.0
 11
803.7940054842434
 21
648.1931889812179
 31
0.0
  0
LINE
  5
3AD
330
17
100
AcDbEntity
  8
4
100
AcDbLine
 10
804.7940054842434
 20
651.1931889812179
 30
0.0
 11
802.7940054842434
 21
650.1931889812179
 31
0.0
  0
LINE
  5
3AE
330
17
100
AcDbEntity
  8
4
100
AcDbLine
 10
802.7940054842434
 20
650.1931889812179
 30
0.0
 11
802.7940054842434
 21
648.1931889812179
 31
0.0
  0
LINE
  5
3AF
330
17
100
AcDbEntity
  8
4
100
AcDbLine
 10
816.7940054842434
 20
634.1931889812179
 30
0.0
 11
810.7940054842434
 21
634.1931889812179
 31
0.0
  0
ARC
  5
3B0
330
17
100
AcDbEntity
  8
4
100
AcDbCircle
 10
810.7940054842434
 20
629.1931889812179
 30
0.0
 40
5.0
100
AcDbArc
 50
53.13010200000199
 51
126.869897999998
  0
LINE
  5
3B1
330
17
100
AcDbEntity
  8
4
100
AcDbLine
 10
803.7940054842434
 20
638.1931889812179
 30
0.0
 11
813.7940054842434
 21
638.1931889812179
 31
0.0
  0
LINE
  5
3B2
330
17
100
AcDbEntity
  8
4
100
AcDbLine
 10
813.7940054842434
 20
648.1931889812179
 30
0.0
 11
802.7940054842434
 21
648.1931889812179
 31
0.0
  0
LINE
  5
3B3
330
17
100
AcDbEntity
  8
4
100
AcDbLine
 10
804.7940054842434
 20
651.1931889812179
 30
0.0
 11
813.7940054842434
 21
651.1931889812179
 31
0.0
  0
LINE
  5
3B4
330
17
100
AcDbEntity
  8
4
100
AcDbLine
 10
802.7940054842434
 20
650.1931889812179
 30
0.0
 11
813.7940054842434
 21
650.1931889812179
 31
0.0
  0
LINE
  5
3B5
330
17
100
AcDbEntity
  8
4
100
AcDbLine
 10
819.7940054842434
 20
629.1931889812179
 30
0.0
 11
813.7940054842434
 21
629.1931889812179
 31
0.0
  0
LINE
  5
3B6
330
17
100
AcDbEntity
  8
4
100
AcDbLine
 10
807.7940054842434
 20
629.1931889812179
 30
0.0
 11
813.7940054842434
 21
629.1931889812179
 31
0.0
  0
LINE
  5
3B7
330
17
100
AcDbEntity
  8
L-CENTER
100
AcDbLine
 10
813.7940054842434
 20
656.0626969812179
 30
0.0
 11
813.7940054842434
 21
616.9578876606522
 31
0.0
  0
LINE
  5
3B8
330
17
100
AcDbEntity
  8
4
100
AcDbLine
 10
819.7940054842434
 20
629.1931889812179
 30
0.0
 11
819.7940054842434
 21
634.1931889812179
 31
0.0
  0
LINE
  5
3B9
330
17
100
AcDbEntity
  8
4
100
AcDbLine
 10
807.7940054842434
 20
629.1931889812179
 30
0.0
 11
807.7940054842434
 21
634.1931889812179
 31
0.0
  0
LINE
  5
3BA
330
17
100
AcDbEntity
  8
L-CENTER
100
AcDbLine
 10
862.9375614842434
 20
595.4585689812179
 30
0.0
 11
822.8359087157414
 21
595.4581286620939
 31
0.0
  0
LINE
  5
3BC
330
17
100
AcDbEntity
  8
4
100
AcDbLine
 10
961.7940054842434
 20
566.1931889812179
 30
0.0
 11
960.7940054842434
 21
567.1931889812179
 31
0.0
  0
LINE
  5
3BD
330
17
100
AcDbEntity
  8
4
100
AcDbLine
 10
960.7940054842434
 20
521.1931889812179
 30
0.0
 11
961.7940054842434
 21
522.1931889812179
 31
0.0
  0
LINE
  5
3BE
330
17
100
AcDbEntity
  8
4
100
AcDbLine
 10
961.7940054842434
 20
570.6931889812179
 30
0.0
 11
961.7940054842434
 21
522.1931889812179
 31
0.0
  0
LINE
  5
3BF
330
17
100
AcDbEntity
  8
4
100
AcDbLine
 10
960.7940054842434
 20
567.1931889812179
 30
0.0
 11
960.7940054842434
 21
521.1931889812179
 31
0.0
  0
LINE
  5
3C0
330
17
100
AcDbEntity
  8
4
100
AcDbLine
 10
871.7940054842434
 20
570.6931889812179
 30
0.0
 11
871.7940054842434
 21
567.1931889812179
 31
0.0
  0
LINE
  5
3C1
330
17
100
AcDbEntity
  8
4
100
AcDbLine
 10
848.5939094842433
 20
585.6434569106307
 30
0.0
 11
857.1903825383911
 21
585.6434569106307
 31
0.0
  0
LINE
  5
3C2
330
17
100
AcDbEntity
  8
4
100
AcDbLine
 10
857.1903825383911
 20
590.5509341987424
 30
0.0
 11
851.0939094842433
 21
590.5509341987424
 31
0.0
  0
LINE
  5
3C3
330
17
100
AcDbEntity
  8
4
100
AcDbLine
 10
849.5939094842433
 20
580.1931889812179
 30
0.0
 11
848.5939094842433
 21
580.1931889812179
 31
0.0
  0
ARC
  5
3C4
330
17
100
AcDbEntity
  8
4
100
AcDbCircle
 10
854.310295555184
 20
588.0971955546868
 30
0.0
 40
3.783613929059507
100
AcDbArc
 50
319.5701031551699
 51
40.42989684482771
  0
LINE
  5
3C5
330
17
100
AcDbEntity
  8
4
100
AcDbLine
 10
861.7940054842434
 20
569.1931889812179
 30
0.0
 11
849.5939094842433
 21
569.1931889812179
 31
0.0
  0
LINE
  5
3C6
330
17
100
AcDbEntity
  8
4
100
AcDbLine
 10
849.5939094842433
 20
519.1931889812179
 30
0.0
 11
861.7940054842434
 21
519.1931889812179
 31
0.0
  0
LINE
  5
3C7
330
17
100
AcDbEntity
  8
4
100
AcDbLine
 10
861.7940054842434
 20
569.1931889812179
 30
0.0
 11
861.7940054842434
 21
519.1931889812179
 31
0.0
  0
LINE
  5
3C8
330
17
100
AcDbEntity
  8
4
100
AcDbLine
 10
821.7940054842434
 20
577.0707014015762
 30
0.0
 11
827.7940054842434
 21
577.0707014015762
 31
0.0
  0
ARC
  5
3C9
330
17
100
AcDbEntity
  8
4
100
AcDbCircle
 10
812.5027454842434
 20
514.9019289812179
 30
0.0
 40
4.999984
100
AcDbArc
 50
14.21741799999944
 51
75.77919899999851
  0
LINE
  5
3CA
330
17
100
AcDbEntity
  8
4
100
AcDbLine
 10
858.0939094842433
 20
500.289182407749
 30
0.0
 11
858.0939094842433
 21
485.5667505434137
 31
0.0
  0
LINE
  5
3CB
330
17
100
AcDbEntity
  8
4
100
AcDbLine
 10
848.5939094842433
 20
502.7429210518051
 30
0.0
 11
857.1903825383911
 21
502.7429210518051
 31
0.0
  0
LINE
  5
3CC
330
17
100
AcDbEntity
  8
4
100
AcDbLine
 10
848.5939094842433
 20
483.1130118993576
 30
0.0
 11
848.5939094842433
 21
502.7429210518051
 31
0.0
  0
LINE
  5
3CD
330
17
100
AcDbEntity
  8
4
100
AcDbLine
 10
851.0939094842433
 20
483.1130118993576
 30
0.0
 11
851.0939094842433
 21
502.7429210518051
 31
0.0
  0
LINE
  5
3CE
330
17
100
AcDbEntity
  8
4
100
AcDbLine
 10
857.1903825383911
 20
488.0204891874694
 30
0.0
 11
851.0939094842433
 21
488.0204891874694
 31
0.0
  0
LINE
  5
3CF
330
17
100
AcDbEntity
  8
4
100
AcDbLine
 10
857.1903825383911
 20
497.8354437636933
 30
0.0
 11
851.0939094842433
 21
497.8354437636933
 31
0.0
  0
LINE
  5
3D0
330
17
100
AcDbEntity
  8
4
100
AcDbLine
 10
857.1903825383911
 20
483.1130118993576
 30
0.0
 11
848.5939094842433
 21
483.1130118993576
 31
0.0
  0
LINE
  5
3D1
330
17
100
AcDbEntity
  8
4
100
AcDbLine
 10
849.5939094842433
 20
508.1931889812179
 30
0.0
 11
848.5939094842433
 21
508.1931889812179
 31
0.0
  0
ARC
  5
3D2
330
17
100
AcDbEntity
  8
4
100
AcDbCircle
 10
854.310295555184
 20
500.2891824077491
 30
0.0
 40
3.783613929059507
100
AcDbArc
 50
319.5701031551699
 51
40.42989684483014
  0
ARC
  5
3D3
330
17
100
AcDbEntity
  8
4
100
AcDbCircle
 10
854.310295555184
 20
485.5667505434137
 30
0.0
 40
3.783613929059507
100
AcDbArc
 50
319.5701031551699
 51
40.42989684483014
  0
ARC
  5
3D4
330
17
100
AcDbEntity
  8
4
100
AcDbCircle
 10
844.3147441867836
 20
492.9279664755816
 30
0.0
 40
13.77916529745958
100
AcDbArc
 50
339.1359356360801
 51
20.86406436391987
  0
LINE
  5
3D5
330
17
100
AcDbEntity
  8
4
100
AcDbLine
 10
821.7940054842434
 20
512.0750229355286
 30
0.0
 11
827.7940054842434
 21
512.0750229355286
 31
0.0
  0
LINE
  5
3D6
330
17
100
AcDbEntity
  8
4
100
AcDbLine
 10
827.7940054842434
 20
467.8013449812179
 30
0.0
 11
827.7940054842434
 21
512.0750229355286
 31
0.0
  0
LINE
  5
3D7
330
17
100
AcDbEntity
  8
4
100
AcDbLine
 10
829.2830174842434
 20
459.1931889812179
 30
0.0
 11
848.5939094842433
 21
459.1931889812179
 31
0.0
  0
LINE
  5
3D8
330
17
100
AcDbEntity
  8
L-CENTER
100
AcDbLine
 10
862.9375614842434
 20
492.9278089812178
 30
0.0
 11
822.834782930056
 21
492.9282493127031
 31
0.0
  0
ARC
  5
3D9
330
17
100
AcDbEntity
  8
4
100
AcDbCircle
 10
859.792563946171
 20
544.5728621685524
 30
0.0
 40
50.0
100
AcDbArc
 50
139.4616562984866
 51
220.5383437015134
  0
LINE
  5
3DA
330
17
100
AcDbEntity
  8
4
100
AcDbLine
 10
821.7940054842434
 20
577.0707014015762
 30
0.0
 11
821.7940054842434
 21
512.0750229355289
 31
0.0
  0
LINE
  5
3DB
330
17
100
AcDbEntity
  8
4
100
AcDbLine
 10
849.5939094842433
 20
508.1931889812179
 30
0.0
 11
849.5939094842433
 21
580.1931889812179
 31
0.0
  0
LINE
  5
3DC
330
17
100
AcDbEntity
  8
4
100
AcDbLine
 10
861.7940054842434
 20
567.1931889812179
 30
0.0
 11
960.7940054842434
 21
567.1931889812179
 31
0.0
  0
LINE
  5
3DD
330
17
100
AcDbEntity
  8
4
100
AcDbLine
 10
961.7940054842434
 20
570.6931889812179
 30
0.0
 11
871.7940054842434
 21
570.6931889812179
 31
0.0
  0
LINE
  5
3DE
330
17
100
AcDbEntity
  8
4
100
AcDbLine
 10
861.7940054842434
 20
521.1931889812179
 30
0.0
 11
960.7940054842434
 21
521.1931889812179
 31
0.0
  0
LINE
  5
3DF
330
17
100
AcDbEntity
  8
4
100
AcDbLine
 10
858.0939094842433
 20
588.0971955546868
 30
0.0
 11
858.0939094842433
 21
602.819627419022
 31
0.0
  0
ARC
  5
3E0
330
17
100
AcDbEntity
  8
4
100
AcDbCircle
 10
844.3147441867836
 20
595.4584114868542
 30
0.0
 40
13.77916529745958
100
AcDbArc
 50
339.1359356360805
 51
20.86406436391942
  0
LINE
  5
3E1
330
17
100
AcDbEntity
  8
4
100
AcDbLine
 10
848.5939094842433
 20
605.2733660630781
 30
0.0
 11
848.5939094842433
 21
585.6434569106307
 31
0.0
  0
LINE
  5
3E2
330
17
100
AcDbEntity
  8
4
100
AcDbLine
 10
851.0939094842433
 20
605.2733660630781
 30
0.0
 11
851.0939094842433
 21
585.6434569106307
 31
0.0
  0
LINE
  5
3E3
330
17
100
AcDbEntity
  8
4
100
AcDbLine
 10
827.7940054842434
 20
577.0707014015762
 30
0.0
 11
827.7940054842434
 21
629.1931889812179
 31
0.0
  0
LINE
  5
3E4
330
17
100
AcDbEntity
  8
4
100
AcDbLine
 10
848.5939094842433
 20
629.1931889812179
 30
0.0
 11
848.5939094842433
 21
459.1931889812179
 31
0.0
  0
LINE
  5
3E5
330
17
100
AcDbEntity
  8
4
100
AcDbLine
 10
834.7940054842434
 20
459.1931889812179
 30
0.0
 11
834.7940054842434
 21
629.1931889812179
 31
0.0
  0
LINE
  5
3E9
330
17
100
AcDbEntity
  8
4
100
AcDbLine
 10
786.7940054842434
 20
939.3997733292622
 30
0.0
 11
786.7940054842434
 21
995.8846218141109
 31
0.0
  0
ARC
  5
3EA
330
17
100
AcDbEntity
  8
4
100
AcDbCircle
 10
706.3632039934064
 20
975.6484941967174
 30
0.0
 40
1.0
100
AcDbArc
 50
0.0
 51
64.48156447963977
  0
LINE
  5
3EB
330
17
100
AcDbEntity
  8
4
100
AcDbLine
 10
707.3632039934064
 20
974.8997733292624
 30
0.0
 11
707.3632039934064
 21
975.6484941967171
 31
0.0
  0
LINE
  5
3EC
330
17
100
AcDbEntity
  8
4
100
AcDbLine
 10
706.7940054842434
 20
954.3997733292624
 30
0.0
 11
711.7940054842434
 21
972.3997733292624
 31
0.0
  0
LINE
  5
3ED
330
17
100
AcDbEntity
  8
4
100
AcDbLine
 10
691.5592148384253
 20
974.8997733292624
 30
0.0
 11
691.6220930689096
 21
975.1767733292627
 31
0.0
  0
LINE
  5
3EE
330
17
100
AcDbEntity
  8
4
100
AcDbLine
 10
691.5592148384253
 20
974.8997733292624
 30
0.0
 11
691.4523025577237
 21
975.1767733292625
 31
0.0
  0
LINE
  5
3EF
330
17
100
AcDbEntity
  8
4
100
AcDbLine
 10
691.4523025577237
 20
975.1767733292627
 30
0.0
 11
706.7940054842434
 21
975.1767733292625
 31
0.0
  0
LINE
  5
3F5
330
17
100
AcDbEntity
  8
4
100
AcDbLine
 10
592.0287961300614
 20
974.8997733292624
 30
0.0
 11
591.9659178995771
 21
975.1767733292625
 31
0.0
  0
LINE
  5
3F6
330
17
100
AcDbEntity
  8
4
100
AcDbLine
 10
592.0287961300614
 20
974.8997733292624
 30
0.0
 11
592.1357084107631
 21
975.1767733292625
 31
0.0
  0
LINE
  5
3F7
330
17
100
AcDbEntity
  8
4
100
AcDbLine
 10
576.2248069750804
 20
974.8997733292624
 30
0.0
 11
576.2248069750804
 21
975.6484941967171
 31
0.0
  0
ARC
  5
3F8
330
17
100
AcDbEntity
  8
4
100
AcDbCircle
 10
577.2248069750804
 20
975.6484941967174
 30
0.0
 40
1.0
100
AcDbArc
 50
115.5184355203603
 51
180.0
  0
LINE
  5
3F9
330
17
100
AcDbEntity
  8
4
100
AcDbLine
 10
576.7940054842434
 20
975.1767733292622
 30
0.0
 11
592.1357084107631
 21
975.1767733292622
 31
0.0
  0
LINE
  5
3FA
330
17
100
AcDbEntity
  8
4
100
AcDbLine
 10
576.7940054842434
 20
954.3997733292624
 30
0.0
 11
571.7940054842434
 21
972.3997733292624
 31
0.0
  0
ARC
  5
3FB
330
17
100
AcDbEntity
  8
4
100
AcDbCircle
 10
491.7940054842434
 20
939.3997733292622
 30
0.0
 40
5.0
100
AcDbArc
 50
270.0
 51
0.0
  0
LINE
  5
3FC
330
17
100
AcDbEntity
  8
4
100
AcDbLine
 10
496.7940054842434
 20
939.3997733292622
 30
0.0
 11
496.7940054842434
 21
995.8846218141111
 31
0.0
  0
LINE
  5
3FD
330
17
100
AcDbEntity
  8
L-CENTER
100
AcDbLine
 10
456.7940054842434
 20
943.0643357527385
 30
0.0
 11
456.7940054842434
 21
985.7352109057858
 31
0.0
  0
CIRCLE
  5
3FE
330
17
100
AcDbEntity
  8
4
100
AcDbCircle
 10
456.7940054842434
 20
964.3997733292622
 30
0.0
 40
11.0
  0
LINE
  5
3FF
330
17
100
AcDbEntity
  8
L-CENTER
100
AcDbLine
 10
435.4585679077195
 20
964.3997733292622
 30
0.0
 11
478.1294430607672
 21
964.3997733292622
 31
0.0
  0
LINE
  5
402
330
17
100
AcDbEntity
  8
4
100
AcDbLine
 10
576.7940054842434
 20
954.3997733292624
 30
0.0
 11
706.7940054842434
 21
954.3997733292624
 31
0.0
  0
LINE
  5
403
330
17
100
AcDbEntity
  8
4
100
AcDbLine
 10
571.7940054842434
 20
972.3997733292624
 30
0.0
 11
711.7940054842434
 21
972.3997733292624
 31
0.0
  0
LINE
  5
404
330
17
100
AcDbEntity
  8
4
100
AcDbLine
 10
691.5592148384253
 20
974.8997733292624
 30
0.0
 11
592.0287961300614
 21
974.8997733292624
 31
0.0
  0
LINE
  5
405
330
17
100
AcDbEntity
  8
4
100
AcDbLine
 10
654.4885854842432
 20
642.3369889812179
 30
0.0
 11
656.7940054842434
 21
632.1931889812179
 31
0.0
  0
ARC
  5
406
330
17
100
AcDbEntity
  8
4
100
AcDbCircle
 10
662.7495734842432
 20
632.9209729812178
 30
0.0
 40
5.99994
100
AcDbArc
 50
125.5991950000043
 51
186.9671230000005
  0
LINE
  5
407
330
17
100
AcDbEntity
  8
4
100
AcDbLine
 10
661.7940054842434
 20
632.1931889812179
 30
0.0
 11
661.7940054842434
 21
629.1931889812179
 31
0.0
  0
LINE
  5
408
330
17
100
AcDbEntity
  8
4
100
AcDbLine
 10
641.7940054842434
 20
644.6931889812179
 30
0.0
 11
653.5557254842433
 21
643.1841569812179
 31
0.0
  0
LINE
  5
409
330
17
100
AcDbEntity
  8
4
100
AcDbLine
 10
629.0994254842435
 20
642.3369889812179
 30
0.0
 11
626.7940054842434
 21
632.1931889812179
 31
0.0
  0
ARC
  5
40A
330
17
100
AcDbEntity
  8
4
100
AcDbCircle
 10
620.8381934842432
 20
632.9209729812178
 30
0.0
 40
6.00006
100
AcDbArc
 50
353.0331589999992
 51
54.40080499999933
  0
ARC
  5
40B
330
17
100
AcDbEntity
  8
4
100
AcDbCircle
 10
630.1719334842433
 20
642.0930929812178
 30
0.0
 40
1.100112
100
AcDbArc
 50
90.0
 51
167.1912509999943
  0
LINE
  5
40C
330
17
100
AcDbEntity
  8
4
100
AcDbLine
 10
630.1719334842433
 20
643.1931889812179
 30
0.0
 11
653.4158334842432
 21
643.1931889812179
 31
0.0
  0
LINE
  5
40D
330
17
100
AcDbEntity
  8
4
100
AcDbLine
 10
641.7940054842434
 20
632.1931889812179
 30
0.0
 11
621.7940054842434
 21
632.1931889812179
 31
0.0
  0
LINE
  5
40E
330
17
100
AcDbEntity
  8
4
100
AcDbLine
 10
641.7940054842434
 20
644.6931889812179
 30
0.0
 11
630.0320414842431
 21
643.1841569812179
 31
0.0
  0
LINE
  5
40F
330
17
100
AcDbEntity
  8
4
100
AcDbLine
 10
621.7940054842434
 20
632.1931889812179
 30
0.0
 11
621.7940054842434
 21
629.1931889812179
 31
0.0
  0
LINE
  5
410
330
17
100
AcDbEntity
  8
4
100
AcDbLine
 10
626.7940054842434
 20
632.1931889812179
 30
0.0
 11
656.7940054842434
 21
632.1931889812179
 31
0.0
  0
LINE
  5
411
330
17
100
AcDbEntity
  8
4
100
AcDbLine
 10
641.7940054842434
 20
632.1931889812179
 30
0.0
 11
661.7940054842434
 21
632.1931889812179
 31
0.0
  0
ARC
  5
412
330
17
100
AcDbEntity
  8
4
100
AcDbCircle
 10
653.4158334842432
 20
642.0930929812178
 30
0.0
 40
1.100112
100
AcDbArc
 50
12.80876099999563
 51
90.0
  0
CIRCLE
  5
413
330
17
100
AcDbEntity
  8
4
100
AcDbCircle
 10
641.7940054842434
 20
662.1931889812179
 30
0.0
 40
17.5
  0
ARC
  5
414
330
17
100
AcDbEntity
  8
4
100
AcDbCircle
 10
641.7940054842434
 20
662.1931889812179
 30
0.0
 40
29.99998
100
AcDbArc
 50
305.5998490000001
 51
234.4018309999996
  0
ARC
  5
415
330
17
100
AcDbEntity
  8
4
100
AcDbCircle
 10
691.2173454842432
 20
496.3684809812178
 30
0.0
 40
8.999988
100
AcDbArc
 50
72.00592399999893
 51
185.8464991824214
  0
LINE
  5
416
330
17
100
AcDbEntity
  8
4
100
AcDbLine
 10
566.7940054842434
 20
633.6931889812179
 30
0.0
 11
566.7940054842434
 21
642.6931889812179
 31
0.0
  0
LINE
  5
417
330
17
100
AcDbEntity
  8
4
100
AcDbLine
 10
565.7940054842434
 20
633.6931889812179
 30
0.0
 11
565.7940054842434
 21
632.1931889812179
 31
0.0
  0
LINE
  5
418
330
17
100
AcDbEntity
  8
4
100
AcDbLine
 10
568.7940054842434
 20
629.1931889812179
 30
0.0
 11
568.7940054842434
 21
632.1931889812179
 31
0.0
  0
LINE
  5
419
330
17
100
AcDbEntity
  8
4
100
AcDbLine
 10
555.2940054842434
 20
637.6931889812179
 30
0.0
 11
555.2940054842434
 21
642.6931889812179
 31
0.0
  0
LINE
  5
41A
330
17
100
AcDbEntity
  8
4
100
AcDbLine
 10
532.2940054842434
 20
637.6931889812179
 30
0.0
 11
532.2940054842434
 21
642.6931889812179
 31
0.0
  0
LINE
  5
41B
330
17
100
AcDbEntity
  8
4
100
AcDbLine
 10
520.7940054842434
 20
633.6931889812179
 30
0.0
 11
520.7940054842434
 21
642.6931889812179
 31
0.0
  0
LINE
  5
41C
330
17
100
AcDbEntity
  8
4
100
AcDbLine
 10
521.7940054842434
 20
633.6931889812179
 30
0.0
 11
521.7940054842434
 21
632.1931889812179
 31
0.0
  0
LINE
  5
41D
330
17
100
AcDbEntity
  8
L-CENTER
100
AcDbLine
 10
543.7940054842434
 20
614.0693055876393
 30
0.0
 11
543.7940054842434
 21
647.0189329812179
 31
0.0
  0
LINE
  5
41E
330
17
100
AcDbEntity
  8
4
100
AcDbLine
 10
518.7940054842434
 20
629.1931889812179
 30
0.0
 11
518.7940054842434
 21
632.1931889812179
 31
0.0
  0
LINE
  5
41F
330
17
100
AcDbEntity
  8
4
100
AcDbLine
 10
518.7940054842434
 20
632.1931889812179
 30
0.0
 11
568.7940054842434
 21
632.1931889812179
 31
0.0
  0
LINE
  5
420
330
17
100
AcDbEntity
  8
4
100
AcDbLine
 10
520.7940054842434
 20
642.6931889812179
 30
0.0
 11
566.7940054842434
 21
642.6931889812179
 31
0.0
  0
LINE
  5
421
330
17
100
AcDbEntity
  8
4
100
AcDbLine
 10
520.7940054842434
 20
637.6931889812179
 30
0.0
 11
566.7940054842434
 21
637.6931889812179
 31
0.0
  0
LINE
  5
422
330
17
100
AcDbEntity
  8
4
100
AcDbLine
 10
520.7940054842434
 20
633.6931889812179
 30
0.0
 11
566.7940054842434
 21
633.6931889812179
 31
0.0
  0
LINE
  5
423
330
17
100
AcDbEntity
  8
4
100
AcDbLine
 10
521.7940054842434
 20
632.1931889812179
 30
0.0
 11
565.7940054842434
 21
632.1931889812179
 31
0.0
  0
ARC
  5
424
330
17
100
AcDbEntity
  8
4
100
AcDbCircle
 10
479.7940054842434
 20
634.1931889812179
 30
0.0
 40
4.0
100
AcDbArc
 50
90.0
 51
180.0
  0
LINE
  5
425
330
17
100
AcDbEntity
  8
4
100
AcDbLine
 10
479.7940054842434
 20
638.1931889812179
 30
0.0
 11
479.7940054842434
 21
648.1931889812179
 31
0.0
  0
LINE
  5
426
330
17
100
AcDbEntity
  8
4
100
AcDbLine
 10
480.7940054842434
 20
650.1931889812179
 30
0.0
 11
480.7940054842434
 21
648.1931889812179
 31
0.0
  0
LINE
  5
427
330
17
100
AcDbEntity
  8
4
100
AcDbLine
 10
478.7940054842434
 20
651.1931889812179
 30
0.0
 11
480.7940054842434
 21
650.1931889812179
 31
0.0
  0
LINE
  5
428
330
17
100
AcDbEntity
  8
4
100
AcDbLine
 10
475.7940054842434
 20
629.1931889812179
 30
0.0
 11
475.7940054842434
 21
634.1931889812179
 31
0.0
  0
LINE
  5
429
330
17
100
AcDbEntity
  8
4
100
AcDbLine
 10
469.7940054842434
 20
648.1931889812179
 30
0.0
 11
458.7940054842434
 21
648.1931889812179
 31
0.0
  0
LINE
  5
42A
330
17
100
AcDbEntity
  8
4
100
AcDbLine
 10
458.7940054842434
 20
650.1931889812179
 30
0.0
 11
469.7940054842434
 21
650.1931889812179
 31
0.0
  0
LINE
  5
42B
330
17
100
AcDbEntity
  8
4
100
AcDbLine
 10
460.7940054842434
 20
651.1931889812179
 30
0.0
 11
469.7940054842434
 21
651.1931889812179
 31
0.0
  0
LINE
  5
42C
330
17
100
AcDbEntity
  8
4
100
AcDbLine
 10
459.7940054842434
 20
638.1931889812179
 30
0.0
 11
469.7940054842434
 21
638.1931889812179
 31
0.0
  0
LINE
  5
42D
330
17
100
AcDbEntity
  8
4
100
AcDbLine
 10
466.7940054842434
 20
634.1931889812179
 30
0.0
 11
472.7940054842434
 21
634.1931889812179
 31
0.0
  0
ARC
  5
42E
330
17
100
AcDbEntity
  8
4
100
AcDbCircle
 10
466.7940054842434
 20
629.1931889812179
 30
0.0
 40
5.0
100
AcDbArc
 50
53.13010200000199
 51
126.869897999998
  0
ARC
  5
42F
330
17
100
AcDbEntity
  8
4
100
AcDbCircle
 10
459.7940054842434
 20
634.1931889812179
 30
0.0
 40
4.0
100
AcDbArc
 50
0.0
 51
90.0
  0
LINE
  5
430
330
17
100
AcDbEntity
  8
4
100
AcDbLine
 10
459.7940054842434
 20
638.1931889812179
 30
0.0
 11
459.7940054842434
 21
648.1931889812179
 31
0.0
  0
LINE
  5
431
330
17
100
AcDbEntity
  8
4
100
AcDbLine
 10
460.7940054842434
 20
651.1931889812179
 30
0.0
 11
458.7940054842434
 21
650.1931889812179
 31
0.0
  0
LINE
  5
432
330
17
100
AcDbEntity
  8
4
100
AcDbLine
 10
458.7940054842434
 20
650.1931889812179
 30
0.0
 11
458.7940054842434
 21
648.1931889812179
 31
0.0
  0
LINE
  5
433
330
17
100
AcDbEntity
  8
4
100
AcDbLine
 10
463.7940054842434
 20
629.1931889812179
 30
0.0
 11
469.7940054842434
 21
629.1931889812179
 31
0.0
  0
LINE
  5
434
330
17
100
AcDbEntity
  8
4
100
AcDbLine
 10
463.7940054842434
 20
629.1931889812179
 30
0.0
 11
463.7940054842434
 21
634.1931889812179
 31
0.0
  0
LINE
  5
435
330
17
100
AcDbEntity
  8
4
100
AcDbLine
 10
479.7940054842434
 20
638.1931889812179
 30
0.0
 11
469.7940054842434
 21
638.1931889812179
 31
0.0
  0
ARC
  5
436
330
17
100
AcDbEntity
  8
4
100
AcDbCircle
 10
472.7940054842434
 20
629.1931889812179
 30
0.0
 40
5.0
100
AcDbArc
 50
53.13010200000199
 51
126.869897999998
  0
LINE
  5
437
330
17
100
AcDbEntity
  8
4
100
AcDbLine
 10
475.7940054842434
 20
629.1931889812179
 30
0.0
 11
469.7940054842434
 21
629.1931889812179
 31
0.0
  0
LINE
  5
438
330
17
100
AcDbEntity
  8
4
100
AcDbLine
 10
480.7940054842434
 20
650.1931889812179
 30
0.0
 11
469.7940054842434
 21
650.1931889812179
 31
0.0
  0
LINE
  5
439
330
17
100
AcDbEntity
  8
4
100
AcDbLine
 10
478.7940054842434
 20
651.1931889812179
 30
0.0
 11
469.7940054842434
 21
651.1931889812179
 31
0.0
  0
LINE
  5
43A
330
17
100
AcDbEntity
  8
4
100
AcDbLine
 10
469.7940054842434
 20
648.1931889812179
 30
0.0
 11
480.7940054842434
 21
648.1931889812179
 31
0.0
  0
LINE
  5
43B
330
17
100
AcDbEntity
  8
4
100
AcDbLine
 10
461.7940054842434
 20
577.0707014015762
 30
0.0
 11
455.7940054842434
 21
577.0707014015762
 31
0.0
  0
ARC
  5
43C
330
17
100
AcDbEntity
  8
4
100
AcDbCircle
 10
471.0852654842433
 20
514.9019289812179
 30
0.0
 40
4.999984
100
AcDbArc
 50
104.2208010000015
 51
165.7825850000001
  0
LINE
  5
43D
330
17
100
AcDbEntity
  8
4
100
AcDbLine
 10
461.7940054842434
 20
512.0750229355286
 30
0.0
 11
455.7940054842434
 21
512.0750229355286
 31
0.0
  0
LINE
  5
43E
330
17
100
AcDbEntity
  8
4
100
AcDbLine
 10
432.4941014842434
 20
483.1130118993576
 30
0.0
 11
432.4941014842434
 21
502.7429210518051
 31
0.0
  0
LINE
  5
43F
330
17
100
AcDbEntity
  8
4
100
AcDbLine
 10
434.9941014842434
 20
483.1130118993576
 30
0.0
 11
434.9941014842434
 21
502.7429210518051
 31
0.0
  0
LINE
  5
440
330
17
100
AcDbEntity
  8
4
100
AcDbLine
 10
432.4941014842434
 20
483.127760981218
 30
0.0
 11
432.4941014842434
 21
502.7278569812179
 31
0.0
  0
LINE
  5
441
330
17
100
AcDbEntity
  8
4
100
AcDbLine
 10
454.3049934842434
 20
459.1931889812179
 30
0.0
 11
434.9941014842434
 21
459.1931889812179
 31
0.0
  0
LINE
  5
442
330
17
100
AcDbEntity
  8
4
100
AcDbLine
 10
455.7940054842434
 20
467.8013449812179
 30
0.0
 11
455.7940054842434
 21
512.0750229355286
 31
0.0
  0
ARC
  5
443
330
17
100
AcDbEntity
  8
4
100
AcDbCircle
 10
423.7954470223158
 20
544.5728621685524
 30
0.0
 40
50.0
100
AcDbArc
 50
319.4616562984866
 51
40.53834370151338
  0
LINE
  5
444
330
17
100
AcDbEntity
  8
4
100
AcDbLine
 10
461.7940054842434
 20
577.0707014015762
 30
0.0
 11
461.7940054842434
 21
512.0750229355289
 31
0.0
  0
LINE
  5
445
330
17
100
AcDbEntity
  8
4
100
AcDbLine
 10
434.9941014842434
 20
605.2733660630781
 30
0.0
 11
434.9941014842434
 21
585.6434569106307
 31
0.0
  0
LINE
  5
446
330
17
100
AcDbEntity
  8
4
100
AcDbLine
 10
432.4941014842434
 20
605.2733660630781
 30
0.0
 11
432.4941014842434
 21
585.6434569106307
 31
0.0
  0
LINE
  5
447
330
17
100
AcDbEntity
  8
4
100
AcDbLine
 10
455.7940054842434
 20
577.0707014015762
 30
0.0
 11
455.7940054842434
 21
629.1931889812179
 31
0.0
  0
LINE
  5
448
330
17
100
AcDbEntity
  8
4
100
AcDbLine
 10
448.7940054842434
 20
459.1931889812179
 30
0.0
 11
448.7940054842434
 21
629.1931889812179
 31
0.0
  0
LINE
  5
449
330
17
100
AcDbEntity
  8
4
100
AcDbLine
 10
434.9941014842434
 20
629.1931889812179
 30
0.0
 11
434.9941014842434
 21
459.1931889812179
 31
0.0
  0
LINE
  5
44A
330
17
100
AcDbEntity
  8
L-CENTER
100
AcDbLine
 10
601.7940054842434
 20
662.1931889812179
 30
0.0
 11
681.7940054842434
 21
662.1931889812179
 31
0.0
  0
LINE
  5
44C
330
17
100
AcDbEntity
  8
4
100
AcDbLine
 10
434.9941014842434
 20
629.1931889812179
 30
0.0
 11
848.5939094842433
 21
629.1931889812179
 31
0.0
  0
ARC
  5
44F
330
17
100
AcDbEntity
  8
4
100
AcDbCircle
 10
641.7942494842432
 20
-158.8068270187821
 30
0.0
 40
700.000032
100
AcDbArc
 50
75.781311
 51
104.218794
  0
ARC
  5
451
330
17
100
AcDbEntity
  8
4
100
AcDbCircle
 10
791.7940054842434
 20
939.3997733292622
 30
0.0
 40
5.0
100
AcDbArc
 50
180.0
 51
270.0
  0
LINE
  5
452
330
17
100
AcDbEntity
  8
L-CENTER
100
AcDbLine
 10
641.7940054842434
 20
942.4554711415353
 30
0.0
 11
641.7940054842434
 21
1371.133394719458
 31
0.0
  0
LINE
  5
453
330
17
100
AcDbEntity
  8
4
100
AcDbLine
 10
861.7940054842434
 20
939.3997733292624
 30
0.0
 11
861.7940054842434
 21
1249.399773329262
 31
0.0
  0
LINE
  5
454
330
17
100
AcDbEntity
  8
4
100
AcDbLine
 10
472.7940054842434
 20
1003.399773329262
 30
0.0
 11
571.7940054842434
 21
972.3997733292624
 31
0.0
  0
LINE
  5
455
330
17
100
AcDbEntity
  8
4
100
AcDbLine
 10
483.6424321704294
 20
1003.399773329262
 30
0.0
 11
575.6160257065376
 21
976.8243989267464
 31
0.0
  0
LINE
  5
456
330
17
100
AcDbEntity
  8
4
100
AcDbLine
 10
576.2248069750804
 20
974.8997733292624
 30
0.0
 11
477.5903578013053
 21
1003.399773329262
 31
0.0
  0
LINE
  5
457
330
17
100
AcDbEntity
  8
4
100
AcDbLine
 10
810.7940054842434
 20
1003.399773329262
 30
0.0
 11
711.7940054842434
 21
972.3997733292624
 31
0.0
  0
LINE
  5
458
330
17
100
AcDbEntity
  8
4
100
AcDbLine
 10
707.3632039934064
 20
974.8997733292624
 30
0.0
 11
805.9976531671814
 21
1003.399773329262
 31
0.0
  0
LINE
  5
459
330
17
100
AcDbEntity
  8
4
100
AcDbLine
 10
799.9455787980573
 20
1003.399773329262
 30
0.0
 11
707.9719852619492
 21
976.8243989267464
 31
0.0
  0
ARC
  5
45A
330
17
100
AcDbEntity
  8
4
100
AcDbCircle
 10
426.7940054842434
 20
1249.399773329262
 30
0.0
 40
5.0
100
AcDbArc
 50
90.0
 51
180.0
  0
ARC
  5
45B
330
17
100
AcDbEntity
  8
4
100
AcDbCircle
 10
429.2777154133028
 20
1138.303779902731
 30
0.0
 40
3.783613929059507
100
AcDbArc
 50
139.5701031551729
 51
220.4298968448271
  0
ARC
  5
45C
330
17
100
AcDbEntity
  8
4
100
AcDbCircle
 10
439.2732667817031
 20
1145.664995834898
 30
0.0
 40
13.77916529745958
100
AcDbArc
 50
159.1359356360806
 51
200.8640643639194
  0
LINE
  5
45D
330
17
100
AcDbEntity
  8
4
100
AcDbLine
 10
425.4941014842434
 20
1050.495766755793
 30
0.0
 11
425.4941014842434
 21
1035.773334891458
 31
0.0
  0
ARC
  5
45E
330
17
100
AcDbEntity
  8
4
100
AcDbCircle
 10
439.2732667817031
 20
1043.134550823626
 30
0.0
 40
13.77916529745958
100
AcDbArc
 50
159.1359356360806
 51
200.8640643639194
  0
ARC
  5
45F
330
17
100
AcDbEntity
  8
4
100
AcDbCircle
 10
429.2777154133028
 20
1050.495766755793
 30
0.0
 40
3.783613929059507
100
AcDbArc
 50
139.5701031551729
 51
220.4298968448271
  0
ARC
  5
460
330
17
100
AcDbEntity
  8
4
100
AcDbCircle
 10
429.2777154133028
 20
1035.773334891458
 30
0.0
 40
3.783613929059507
100
AcDbArc
 50
139.5701031551729
 51
220.4298968448271
  0
LINE
  5
461
330
17
100
AcDbEntity
  8
4
100
AcDbLine
 10
425.4941014842434
 20
1138.303779902731
 30
0.0
 11
425.4941014842434
 21
1153.026211767066
 31
0.0
  0
ARC
  5
462
330
17
100
AcDbEntity
  8
4
100
AcDbCircle
 10
429.2777154133028
 20
1153.026211767066
 30
0.0
 40
3.783613929059507
100
AcDbArc
 50
139.5701031551729
 51
220.4298968448271
  0
ARC
  5
463
330
17
100
AcDbEntity
  8
4
100
AcDbCircle
 10
426.7940054842434
 20
939.3997733292622
 30
0.0
 40
5.0
100
AcDbArc
 50
180.0
 51
270.0
  0
ARC
  5
465
330
17
100
AcDbEntity
  8
4
100
AcDbCircle
 10
429.2777154133028
 20
602.819627419022
 30
0.0
 40
3.783613929059507
100
AcDbArc
 50
139.5701031551723
 51
220.4298968448277
  0
ARC
  5
466
330
17
100
AcDbEntity
  8
4
100
AcDbCircle
 10
429.2777154133028
 20
588.0971955546868
 30
0.0
 40
3.783613929059507
100
AcDbArc
 50
139.5701031551723
 51
220.4298968448296
  0
ARC
  5
467
330
17
100
AcDbEntity
  8
4
100
AcDbCircle
 10
439.2732667817031
 20
492.9279664755816
 30
0.0
 40
13.77916529745958
100
AcDbArc
 50
159.1359356360801
 51
200.8640643639194
  0
LINE
  5
468
330
17
100
AcDbEntity
  8
4
100
AcDbLine
 10
425.4941014842434
 20
500.289182407749
 30
0.0
 11
425.4941014842434
 21
485.5667505434137
 31
0.0
  0
ARC
  5
469
330
17
100
AcDbEntity
  8
4
100
AcDbCircle
 10
429.2777154133028
 20
485.5667505434137
 30
0.0
 40
3.783613929059507
100
AcDbArc
 50
139.5701031551704
 51
220.4298968448296
  0
ARC
  5
46A
330
17
100
AcDbEntity
  8
4
100
AcDbCircle
 10
429.2777154133028
 20
500.2891824077491
 30
0.0
 40
3.783613929059507
100
AcDbArc
 50
139.5701031551704
 51
220.4298968448296
  0
LINE
  5
46B
330
17
100
AcDbEntity
  8
4
100
AcDbLine
 10
425.4941014842434
 20
588.0971955546868
 30
0.0
 11
425.4941014842434
 21
602.819627419022
 31
0.0
  0
ARC
  5
46C
330
17
100
AcDbEntity
  8
4
100
AcDbCircle
 10
439.2732667817031
 20
595.4584114868542
 30
0.0
 40
13.77916529745958
100
AcDbArc
 50
159.1359356360806
 51
200.8640643639194
  0
LINE
  5
46E
330
17
100
AcDbEntity
  8
4
100
AcDbLine
 10
421.7940054842434
 20
939.3997733292622
 30
0.0
 11
421.7940054842429
 21
1249.399773329262
 31
0.0
  0
LINE
  5
46F
330
17
100
AcDbEntity
  8
4
100
AcDbLine
 10
426.7940054842434
 20
1254.399773329262
 30
0.0
 11
491.7940054842434
 21
1254.399773329262
 31
0.0
  0
LINE
  5
470
330
17
100
AcDbEntity
  8
4
100
AcDbLine
 10
426.7940054842434
 20
934.3997733292622
 30
0.0
 11
491.7940054842434
 21
934.3997733292622
 31
0.0
  0
LINE
  5
471
330
17
100
AcDbEntity
  8
L-CENTER
100
AcDbLine
 10
412.2496117817604
 20
1094.399773329262
 30
0.0
 11
973.4713309615158
 21
1094.399773329262
 31
0.0
  0
LINE
  5
472
330
17
100
AcDbEntity
  8
L-CENTER
100
AcDbLine
 10
974.6403414842434
 20
544.1931889812179
 30
0.0
 11
428.4395119816286
 21
544.193188981218
 31
0.0
  0
LINE
  5
473
330
17
100
AcDbEntity
  8
L-CENTER
100
AcDbLine
 10
420.6504494842434
 20
492.9278089812178
 30
0.0
 11
460.7532280384307
 21
492.9282493127031
 31
0.0
  0
LINE
  5
474
330
17
100
AcDbEntity
  8
4
100
AcDbLine
 10
426.3976284300957
 20
483.1130118993576
 30
0.0
 11
434.9941014842434
 21
483.1130118993576
 31
0.0
  0
LINE
  5
475
330
17
100
AcDbEntity
  8
4
100
AcDbLine
 10
426.3976284300957
 20
497.8354437636933
 30
0.0
 11
432.4941014842434
 21
497.8354437636933
 31
0.0
  0
LINE
  5
476
330
17
100
AcDbEntity
  8
4
100
AcDbLine
 10
426.3976284300957
 20
488.0204891874694
 30
0.0
 11
432.4941014842434
 21
488.0204891874694
 31
0.0
  0
LINE
  5
477
330
17
100
AcDbEntity
  8
4
100
AcDbLine
 10
434.9941014842434
 20
502.7429210518051
 30
0.0
 11
426.3976284300957
 21
502.7429210518051
 31
0.0
  0
LINE
  5
478
330
17
100
AcDbEntity
  8
L-CENTER
100
AcDbLine
 10
420.6504494842434
 20
595.4585689812179
 30
0.0
 11
460.7521022527453
 21
595.4581286620939
 31
0.0
  0
LINE
  5
479
330
17
100
AcDbEntity
  8
4
100
AcDbLine
 10
434.9941014842434
 20
585.6434569106307
 30
0.0
 11
426.3976284300957
 21
585.6434569106307
 31
0.0
  0
LINE
  5
47A
330
17
100
AcDbEntity
  8
4
100
AcDbLine
 10
426.3976284300957
 20
590.5509341987424
 30
0.0
 11
432.4941014842434
 21
590.5509341987424
 31
0.0
  0
LINE
  5
47B
330
17
100
AcDbEntity
  8
4
100
AcDbLine
 10
426.3976284300957
 20
600.3658887749664
 30
0.0
 11
432.4941014842434
 21
600.3658887749664
 31
0.0
  0
LINE
  5
47C
330
17
100
AcDbEntity
  8
4
100
AcDbLine
 10
426.3976284300957
 20
605.2733660630781
 30
0.0
 11
434.9941014842434
 21
605.2733660630781
 31
0.0
  0
LINE
  5
47F
330
17
100
AcDbEntity
  8
L-CENTER
100
AcDbLine
 10
420.6504494842434
 20
1043.134393329262
 30
0.0
 11
463.2864654273021
 21
1043.134861475882
 31
0.0
  0
LINE
  5
480
330
17
100
AcDbEntity
  8
4
100
AcDbLine
 10
426.3976284300957
 20
1038.227073535514
 30
0.0
 11
432.4941014842434
 21
1038.227073535514
 31
0.0
  0
LINE
  5
481
330
17
100
AcDbEntity
  8
4
100
AcDbLine
 10
426.3976284300957
 20
1033.319596247402
 30
0.0
 11
434.9941014842434
 21
1033.319596247402
 31
0.0
  0
LINE
  5
482
330
17
100
AcDbEntity
  8
4
100
AcDbLine
 10
434.9941014842434
 20
1052.949505399849
 30
0.0
 11
426.3976284300957
 21
1052.949505399849
 31
0.0
  0
LINE
  5
483
330
17
100
AcDbEntity
  8
4
100
AcDbLine
 10
426.3976284300957
 20
1048.042028111738
 30
0.0
 11
432.4941014842434
 21
1048.042028111738
 31
0.0
  0
LINE
  5
484
330
17
100
AcDbEntity
  8
L-CENTER
100
AcDbLine
 10
420.6504494842434
 20
1145.665153329262
 30
0.0
 11
463.285339642227
 21
1145.664685195004
 31
0.0
  0
LINE
  5
485
330
17
100
AcDbEntity
  8
4
100
AcDbLine
 10
426.3976284300957
 20
1155.479950411122
 30
0.0
 11
434.9941014842434
 21
1155.479950411122
 31
0.0
  0
LINE
  5
486
330
17
100
AcDbEntity
  8
4
100
AcDbLine
 10
426.3976284300957
 20
1140.757518546787
 30
0.0
 11
432.4941014842434
 21
1140.757518546787
 31
0.0
  0
LINE
  5
487
330
17
100
AcDbEntity
  8
4
100
AcDbLine
 10
434.9941014842434
 20
1135.850041258675
 30
0.0
 11
426.3976284300957
 21
1135.850041258675
 31
0.0
  0
LINE
  5
488
330
17
100
AcDbEntity
  8
4
100
AcDbLine
 10
426.3976284300957
 20
1150.572473123011
 30
0.0
 11
432.4941014842434
 21
1150.572473123011
 31
0.0
  0
ARC
  5
489
330
17
100
AcDbEntity
  8
4
100
AcDbCircle
 10
793.9692974842433
 20
393.6165289812179
 30
0.0
 40
8.999988
100
AcDbArc
 50
263.6362980000018
 51
17.99259200000045
  0
ARC
  5
48A
330
17
100
AcDbEntity
  8
4
100
AcDbCircle
 10
793.9692974842433
 20
294.7698489812178
 30
0.0
 40
8.999952
100
AcDbArc
 50
342.0088850000002
 51
96.36370199999875
  0
ARC
  5
48C
330
17
100
AcDbEntity
  8
4
100
AcDbCircle
 10
858.7940054842434
 20
143.1931889812179
 30
0.0
 40
3.0
100
AcDbArc
 50
0.0
 51
90.0
  0
ARC
  5
48D
330
17
100
AcDbEntity
  8
4
100
AcDbCircle
 10
812.5027454842434
 20
173.4846929812179
 30
0.0
 40
4.999984
100
AcDbArc
 50
284.2208010000015
 51
345.7825929999999
  0
ARC
  5
48E
330
17
100
AcDbEntity
  8
4
100
AcDbCircle
 10
641.7937614842435
 20
847.1934329812179
 30
0.0
 40
699.999936
100
AcDbArc
 50
282.793324
 51
284.219248
  0
ARC
  5
48F
330
17
100
AcDbEntity
  8
4
100
AcDbCircle
 10
799.7940054842434
 20
149.1931889812179
 30
0.0
 40
3.0
100
AcDbArc
 50
180.0
 51
270.0
  0
LINE
  5
490
330
17
100
AcDbEntity
  8
4
100
AcDbLine
 10
789.7940054842434
 20
146.1931889812179
 30
0.0
 11
858.7940054842434
 21
146.1931889812179
 31
0.0
  0
ARC
  5
491
330
17
100
AcDbEntity
  8
4
100
AcDbCircle
 10
849.7940054842434
 20
161.1931889812179
 30
0.0
 40
15.0
100
AcDbArc
 50
180.0
 51
270.0009360000004
  0
LINE
  5
492
330
17
100
AcDbEntity
  8
4
100
AcDbLine
 10
796.7940054842434
 20
149.1931889812179
 30
0.0
 11
796.7940054842434
 21
204.1931889812179
 31
0.0
  0
LINE
  5
493
330
17
100
AcDbEntity
  8
4
100
AcDbLine
 10
834.7940054842434
 20
269.467112981218
 30
0.0
 11
834.7940054842434
 21
161.1931889812179
 31
0.0
  0
TEXT
  5
49E
330
17
100
AcDbEntity
  8
3
100
AcDbText
 10
985.415287267916
 20
27.85251402533208
 30
0.0
 40
15.61517997527595
  1
LB8-00
  7
KANJI
100
AcDbText
  0
LINE
  5
49F
330
17
100
AcDbEntity
  8
4
100
AcDbLine
 10
815.7940054842434
 20
104.1931889812179
 30
0.0
 11
815.7940054842434
 21
146.1931889812179
 31
0.0
  0
LINE
  5
4A1
330
17
100
AcDbEntity
  8
L-CENTER
100
AcDbLine
 10
826.7940054842434
 20
89.19318898121787
 30
0.0
 11
826.7940054842434
 21
161.1931889812179
 31
0.0
  0
LINE
  5
4A2
330
17
100
AcDbEntity
  8
4
100
AcDbLine
 10
861.7940054842434
 20
143.1931889812179
 30
0.0
 11
861.7940054842434
 21
104.1931889812179
 31
0.0
  0
LINE
  5
4A3
330
17
100
AcDbEntity
  8
4
100
AcDbLine
 10
837.7940054842434
 20
104.1931889812179
 30
0.0
 11
837.7940054842434
 21
146.1931889812179
 31
0.0
  0
ARC
  5
4A5
330
17
100
AcDbEntity
  8
4
100
AcDbCircle
 10
714.4190054842434
 20
401.4820089812179
 30
0.0
 40
7.999956
100
AcDbArc
 50
190.7197699999999
 51
263.6379929999992
  0
ARC
  5
4A6
330
17
100
AcDbEntity
  8
4
100
AcDbCircle
 10
714.4192494842432
 20
286.9043689812179
 30
0.0
 40
7.999967999999999
100
AcDbArc
 50
96.36375099999859
 51
169.2802380000001
  0
ARC
  5
4A7
330
17
100
AcDbEntity
  8
4
100
AcDbCircle
 10
411.7940054842434
 20
344.1929449812178
 30
0.0
 40
299.999968
100
AcDbArc
 50
349.112606
 51
10.88829900000003
  0
ARC
  5
4A8
330
17
100
AcDbEntity
  8
4
100
AcDbCircle
 10
406.7940054842434
 20
344.1929449812178
 30
0.0
 40
299.999948
100
AcDbArc
 50
349.960456
 51
10.04034900000005
  0
LINE
  5
4A9
330
17
100
AcDbEntity
  8
4
100
AcDbLine
 10
682.2641721136946
 20
495.4517091464393
 30
0.0
 11
691.1321414842432
 21
415.931716981218
 31
0.0
  0
ARC
  5
4AA
330
17
100
AcDbEntity
  8
4
100
AcDbCircle
 10
699.0828254842436
 20
416.8184329812179
 30
0.0
 40
7.999967999999999
100
AcDbArc
 50
186.3637430000001
 51
259.2802370000003
  0
ARC
  5
4AB
330
17
100
AcDbEntity
  8
4
100
AcDbCircle
 10
696.5733014842435
 20
289.4138929812179
 30
0.0
 40
10.000064
100
AcDbArc
 50
280.8880100000006
 51
349.1133630000002
  0
ARC
  5
4AC
330
17
100
AcDbEntity
  8
4
100
AcDbCircle
 10
692.3528414842435
 20
293.634348981218
 30
0.0
 40
10.000048
100
AcDbArc
 50
280.0402299999993
 51
349.9611480000003
  0
ARC
  5
4AD
330
17
100
AcDbEntity
  8
4
100
AcDbCircle
 10
692.3528414842435
 20
394.7520289812178
 30
0.0
 40
10.000068
100
AcDbArc
 50
10.04022900000017
 51
79.9597709999991
  0
ARC
  5
4AE
330
17
100
AcDbEntity
  8
4
100
AcDbCircle
 10
696.5733014842435
 20
398.9724849812178
 30
0.0
 40
10.000088
100
AcDbArc
 50
10.88800899999992
 51
79.1119900000005
  0
ARC
  5
4AF
330
17
100
AcDbEntity
  8
4
100
AcDbCircle
 10
753.7940054842434
 20
125.0071529812178
 30
0.0
 40
8.000060000000001
100
AcDbArc
 50
0.0
 51
75.42517199999901
  0
ARC
  5
4B0
330
17
100
AcDbEntity
  8
4
100
AcDbCircle
 10
710.7710574842436
 20
136.1931889812179
 30
0.0
 40
8.000028
100
AcDbArc
 50
75.4268629999983
 51
90.0
  0
LINE
  5
4B1
330
17
100
AcDbEntity
  8
4
100
AcDbLine
 10
712.7839974842432
 20
143.9358649812179
 30
0.0
 11
755.8071894842433
 21
132.7498289812179
 31
0.0
  0
ARC
  5
4B2
330
17
100
AcDbEntity
  8
4
100
AcDbCircle
 10
691.2173454842432
 20
192.017896981218
 30
0.0
 40
9.000028
100
AcDbArc
 50
173.6362909999989
 51
287.9940780000009
  0
LINE
  5
4B3
330
17
100
AcDbEntity
  8
4
100
AcDbLine
 10
691.1321414842432
 20
272.4546649812178
 30
0.0
 11
682.2730094842432
 21
193.0154529812178
 31
0.0
  0
ARC
  5
4B4
330
17
100
AcDbEntity
  8
4
100
AcDbCircle
 10
699.0828254842436
 20
271.5679449812178
 30
0.0
 40
7.999967999999999
100
AcDbArc
 50
100.7197619999999
 51
173.6362489999998
  0
ARC
  5
4B5
330
17
100
AcDbEntity
  8
4
100
AcDbCircle
 10
587.0147094842432
 20
398.9724849812178
 30
0.0
 40
10.000088
100
AcDbArc
 50
100.8880099999995
 51
169.1119910000001
  0
ARC
  5
4B6
330
17
100
AcDbEntity
  8
4
100
AcDbCircle
 10
591.2351694842432
 20
394.7520289812178
 30
0.0
 40
10.000068
100
AcDbArc
 50
100.0402340000005
 51
169.9597709999998
  0
ARC
  5
4B7
330
17
100
AcDbEntity
  8
4
100
AcDbCircle
 10
569.1690054842434
 20
401.4820089812179
 30
0.0
 40
7.999956
100
AcDbArc
 50
276.3620140000006
 51
349.2802309999996
  0
ARC
  5
4B8
330
17
100
AcDbEntity
  8
4
100
AcDbCircle
 10
587.0147094842432
 20
289.4138929812179
 30
0.0
 40
10.000088
100
AcDbArc
 50
190.8880089999999
 51
259.1119900000005
  0
ARC
  5
4B9
330
17
100
AcDbEntity
  8
4
100
AcDbCircle
 10
569.1687614842435
 20
286.9043689812179
 30
0.0
 40
7.999967999999999
100
AcDbArc
 50
10.71976199999993
 51
83.6362490000014
  0
ARC
  5
4BA
330
17
100
AcDbEntity
  8
4
100
AcDbCircle
 10
591.2351694842432
 20
293.634348981218
 30
0.0
 40
10.000068
100
AcDbArc
 50
190.0402290000002
 51
259.9597649999991
  0
ARC
  5
4BB
330
17
100
AcDbEntity
  8
4
100
AcDbCircle
 10
876.7940054842434
 20
344.1929449812178
 30
0.0
 40
300.0
100
AcDbArc
 50
169.96008
 51
190.040349
  0
ARC
  5
4BC
330
17
100
AcDbEntity
  8
4
100
AcDbCircle
 10
871.7940054842434
 20
344.1929449812178
 30
0.0
 40
299.99994
100
AcDbArc
 50
169.112222
 51
190.8881070000001
  0
ARC
  5
4BD
330
17
100
AcDbEntity
  8
4
100
AcDbCircle
 10
489.6187134842435
 20
393.6165289812179
 30
0.0
 40
8.999988
100
AcDbArc
 50
162.0074060000011
 51
276.3637089999996
  0
ARC
  5
4BE
330
17
100
AcDbEntity
  8
4
100
AcDbCircle
 10
489.6187134842435
 20
294.7698489812178
 30
0.0
 40
8.999988
100
AcDbArc
 50
83.63629100000045
 51
197.9925939999982
  0
LINE
  5
4BF
330
17
100
AcDbEntity
  8
4
100
AcDbLine
 10
447.4568454842433
 20
283.1931889812179
 30
0.0
 11
444.7940054842434
 21
283.1931889812179
 31
0.0
  0
LINE
  5
4C0
330
17
100
AcDbEntity
  8
4
100
AcDbLine
 10
444.7940054842434
 20
280.1931889812179
 30
0.0
 11
442.7940054842434
 21
280.1931889812179
 31
0.0
  0
LINE
  5
4C1
330
17
100
AcDbEntity
  8
4
100
AcDbLine
 10
442.7940054842434
 20
281.1931889812179
 30
0.0
 11
435.7940054842434
 21
281.1931889812179
 31
0.0
  0
LINE
  5
4C2
330
17
100
AcDbEntity
  8
4
100
AcDbLine
 10
570.0554814842435
 20
393.5313249812179
 30
0.0
 11
490.6162694842433
 21
384.6719489812178
 31
0.0
  0
LINE
  5
4C3
330
17
100
AcDbEntity
  8
4
100
AcDbLine
 10
570.0554814842435
 20
294.8550529812178
 30
0.0
 11
490.6162694842433
 21
303.7144289812179
 31
0.0
  0
ARC
  5
4C4
330
17
100
AcDbEntity
  8
4
100
AcDbCircle
 10
592.3706654842435
 20
192.017896981218
 30
0.0
 40
9.000028
100
AcDbArc
 50
252.0059219999991
 51
6.36370900000107
  0
ARC
  5
4C5
330
17
100
AcDbEntity
  8
4
100
AcDbCircle
 10
572.8169534842432
 20
136.1931889812179
 30
0.0
 40
8.000028
100
AcDbArc
 50
90.0
 51
104.5731370000017
  0
ARC
  5
4C6
330
17
100
AcDbEntity
  8
4
100
AcDbCircle
 10
529.7940054842434
 20
125.0071529812178
 30
0.0
 40
8.000060000000001
100
AcDbArc
 50
104.5748210000012
 51
180.0
  0
LINE
  5
4C7
330
17
100
AcDbEntity
  8
4
100
AcDbLine
 10
570.8040134842436
 20
143.9358649812179
 30
0.0
 11
527.7808214842435
 21
132.7498289812179
 31
0.0
  0
LINE
  5
4C8
330
17
100
AcDbEntity
  8
4
100
AcDbLine
 10
592.4558694842435
 20
272.4546649812178
 30
0.0
 11
601.3150014842436
 21
193.0154529812178
 31
0.0
  0
LINE
  5
4C9
330
17
100
AcDbEntity
  8
4
100
AcDbLine
 10
496.7940054842434
 20
204.1931889812179
 30
0.0
 11
486.7940054842434
 21
204.1931889812179
 31
0.0
  0
LINE
  5
4CA
330
17
100
AcDbEntity
  8
4
100
AcDbLine
 10
444.7940054842434
 20
243.1931889812179
 30
0.0
 11
448.7940054842434
 21
243.1931889812179
 31
0.0
  0
LINE
  5
4CB
330
17
100
AcDbEntity
  8
4
100
AcDbLine
 10
440.7940054842434
 20
272.1931889812179
 30
0.0
 11
435.7940054842434
 21
272.1931889812179
 31
0.0
  0
LINE
  5
4CC
330
17
100
AcDbEntity
  8
4
100
AcDbLine
 10
442.7940054842434
 20
246.1931889812179
 30
0.0
 11
444.7940054842434
 21
246.1931889812179
 31
0.0
  0
LINE
  5
4CD
330
17
100
AcDbEntity
  8
4
100
AcDbLine
 10
440.7940054842434
 20
254.1931889812179
 30
0.0
 11
435.7940054842434
 21
254.1931889812179
 31
0.0
  0
LINE
  5
4CE
330
17
100
AcDbEntity
  8
4
100
AcDbLine
 10
442.7940054842434
 20
245.1931889812179
 30
0.0
 11
435.7940054842434
 21
245.1931889812179
 31
0.0
  0
LINE
  5
4CF
330
17
100
AcDbEntity
  8
L-CENTER
100
AcDbLine
 10
428.6979374842435
 20
263.1931889812179
 30
0.0
 11
463.4744831150506
 21
263.1931889812179
 31
0.0
  0
ARC
  5
4D0
330
17
100
AcDbEntity
  8
4
100
AcDbCircle
 10
483.7940054842434
 20
149.1931889812179
 30
0.0
 40
3.0
100
AcDbArc
 50
270.0
 51
0.0
  0
ARC
  5
4D1
330
17
100
AcDbEntity
  8
4
100
AcDbCircle
 10
493.7940054842434
 20
143.1931889812179
 30
0.0
 40
3.0
100
AcDbArc
 50
0.0
 51
90.0
  0
ARC
  5
4D2
330
17
100
AcDbEntity
  8
4
100
AcDbCircle
 10
471.0852654842433
 20
173.4846929812179
 30
0.0
 40
4.999984
100
AcDbArc
 50
194.2174039999995
 51
255.7791989999985
  0
LINE
  5
4D3
330
17
100
AcDbEntity
  8
4
100
AcDbLine
 10
443.7940054842434
 20
161.1931889812179
 30
0.0
 11
443.7940054842434
 21
174.1931889812179
 31
0.0
  0
LINE
  5
4D4
330
17
100
AcDbEntity
  8
4
100
AcDbLine
 10
448.7940054842434
 20
174.1931889812179
 30
0.0
 11
443.7940054842434
 21
174.1931889812179
 31
0.0
  0
LINE
  5
4D5
330
17
100
AcDbEntity
  8
4
100
AcDbLine
 10
441.7940054842434
 20
166.6931889812179
 30
0.0
 11
443.7940054842434
 21
166.6931889812179
 31
0.0
  0
LINE
  5
4D6
330
17
100
AcDbEntity
  8
L-CENTER
100
AcDbLine
 10
438.7135614842432
 20
159.1931889812179
 30
0.0
 11
466.2704471587621
 21
159.1931889812179
 31
0.0
  0
LINE
  5
4D7
330
17
100
AcDbEntity
  8
4
100
AcDbLine
 10
441.7940054842434
 20
153.7098729812178
 30
0.0
 11
441.7940054842434
 21
166.6931889812179
 31
0.0
  0
ARC
  5
4D8
330
17
100
AcDbEntity
  8
4
100
AcDbCircle
 10
428.7940054842434
 20
161.1931889812179
 30
0.0
 40
15.0
100
AcDbArc
 50
270.0009360000004
 51
0.0
  0
ARC
  5
4D9
330
17
100
AcDbEntity
  8
4
100
AcDbCircle
 10
433.7940054842434
 20
161.1931889812179
 30
0.0
 40
15.0
100
AcDbArc
 50
270.0009360000004
 51
0.0
  0
ARC
  5
4DA
330
17
100
AcDbEntity
  8
4
100
AcDbCircle
 10
641.7942494842432
 20
847.1934329812179
 30
0.0
 40
700.000064
100
AcDbArc
 50
255.781683
 51
257.207539
  0
LINE
  5
4DB
330
17
100
AcDbEntity
  8
4
100
AcDbLine
 10
448.7940054842434
 20
269.467112981218
 30
0.0
 11
448.7940054842434
 21
161.1931889812179
 31
0.0
  0
LINE
  5
4DC
330
17
100
AcDbEntity
  8
4
100
AcDbLine
 10
486.7940054842434
 20
149.1931889812179
 30
0.0
 11
486.7940054842434
 21
204.1931889812179
 31
0.0
  0
LINE
  5
4DD
330
17
100
AcDbEntity
  8
4
100
AcDbLine
 10
444.7940054842434
 20
283.1931889812179
 30
0.0
 11
444.7940054842434
 21
243.1931889812179
 31
0.0
  0
LINE
  5
4DE
330
17
100
AcDbEntity
  8
4
100
AcDbLine
 10
435.7940054842434
 20
245.1931889812179
 30
0.0
 11
435.7940054842434
 21
281.1931889812179
 31
0.0
  0
LINE
  5
4DF
330
17
100
AcDbEntity
  8
4
100
AcDbLine
 10
444.7940054842434
 20
246.1931889812179
 30
0.0
 11
444.7940054842434
 21
280.1931889812179
 31
0.0
  0
LINE
  5
4E0
330
17
100
AcDbEntity
  8
4
100
AcDbLine
 10
442.7940054842434
 20
245.1931889812179
 30
0.0
 11
442.7940054842434
 21
281.1931889812179
 31
0.0
  0
LINE
  5
4E1
330
17
100
AcDbEntity
  8
4
100
AcDbLine
 10
440.7940054842434
 20
245.1931889812179
 30
0.0
 11
440.7940054842434
 21
281.1931889812179
 31
0.0
  0
ARC
  5
4E2
330
17
100
AcDbEntity
  8
4
100
AcDbCircle
 10
584.5051854842432
 20
271.5679449812178
 30
0.0
 40
7.999967999999999
100
AcDbArc
 50
6.3637510000002
 51
79.28023800000005
  0
ARC
  5
4E3
330
17
100
AcDbEntity
  8
4
100
AcDbCircle
 10
641.7940054842434
 20
109.1931889812179
 30
0.0
 40
299.999976
100
AcDbArc
 50
79.95969799999997
 51
100.040351
  0
ARC
  5
4E4
330
17
100
AcDbEntity
  8
4
100
AcDbCircle
 10
641.7940054842434
 20
574.1931889812179
 30
0.0
 40
300.00002
100
AcDbArc
 50
259.112083
 51
280.888819
  0
ARC
  5
4E5
330
17
100
AcDbEntity
  8
4
100
AcDbCircle
 10
641.7940054842434
 20
579.1931889812179
 30
0.0
 40
300.000068
100
AcDbArc
 50
259.959987
 51
280.040823
  0
ARC
  5
4E6
330
17
100
AcDbEntity
  8
4
100
AcDbCircle
 10
641.7940054842434
 20
114.1931889812179
 30
0.0
 40
300.000008
100
AcDbArc
 50
79.11180300000005
 51
100.8883920000001
  0
ARC
  5
4E7
330
17
100
AcDbEntity
  8
4
100
AcDbCircle
 10
641.7937614842435
 20
847.1934329812179
 30
0.0
 40
699.999956
100
AcDbArc
 50
258.045518
 51
281.955459
  0
LINE
  5
4E8
330
17
100
AcDbEntity
  8
4
100
AcDbLine
 10
572.8169534842432
 20
144.1931889812179
 30
0.0
 11
710.7710574842436
 21
144.1931889812179
 31
0.0
  0
LINE
  5
4F1
330
17
100
AcDbEntity
  8
L-CENTER
100
AcDbLine
 10
456.7940054842434
 20
89.19318898121787
 30
0.0
 11
456.7940054842434
 21
161.1931889812179
 31
0.0
  0
LINE
  5
4F2
330
17
100
AcDbEntity
  8
4
100
AcDbLine
 10
496.7940054842434
 20
204.1931889812179
 30
0.0
 11
496.7940054842434
 21
104.1931889812179
 31
0.0
  0
LINE
  5
4F3
330
17
100
AcDbEntity
  8
4
100
AcDbLine
 10
786.7940054842434
 20
204.1931889812179
 30
0.0
 11
786.7940054842434
 21
104.1931889812179
 31
0.0
  0
LINE
  5
4F4
330
17
100
AcDbEntity
  8
4
100
AcDbLine
 10
521.7940054842434
 20
125.0071529812178
 30
0.0
 11
521.7940054842434
 21
104.1931889812179
 31
0.0
  0
LINE
  5
4F5
330
17
100
AcDbEntity
  8
4
100
AcDbLine
 10
761.7940054842434
 20
125.0071529812178
 30
0.0
 11
761.7940054842434
 21
104.1931889812179
 31
0.0
  0
LINE
  5
4F6
330
17
100
AcDbEntity
  8
L-CENTER
100
AcDbLine
 10
851.4149614842436
 20
344.1931889812179
 30
0.0
 11
432.0072614842434
 21
344.1931889812179
 31
0.0
  0
LINE
  5
4F9
330
17
100
AcDbEntity
  8
4
100
AcDbLine
 10
761.7940054842434
 20
104.1931889812179
 30
0.0
 11
861.7940054842434
 21
104.1931889812179
 31
0.0
  0
ARC
  5
4FA
330
17
100
AcDbEntity
  8
4
100
AcDbCircle
 10
789.7940054842434
 20
143.1931889812179
 30
0.0
 40
3.0
100
AcDbArc
 50
90.0
 51
180.0
  0
LINE
  5
4FB
330
17
100
AcDbEntity
  8
4
100
AcDbLine
 10
786.7940054842434
 20
204.1931889812179
 30
0.0
 11
796.7940054842434
 21
204.1931889812179
 31
0.0
  0
LINE
  5
4FC
330
17
100
AcDbEntity
  8
4
100
AcDbLine
 10
713.5325294842432
 20
393.5313249812179
 30
0.0
 11
792.9717414842435
 21
384.6719489812178
 31
0.0
  0
LINE
  5
4FD
330
17
100
AcDbEntity
  8
4
100
AcDbLine
 10
713.5325294842432
 20
294.8550529812178
 30
0.0
 11
792.9717414842435
 21
303.7144289812179
 31
0.0
  0
ARC
  5
51E
330
17
100
AcDbEntity
  8
4
100
AcDbCircle
 10
424.7940054842434
 20
143.1931889812179
 30
0.0
 40
3.0
100
AcDbArc
 50
90.0
 51
180.0
  0
LINE
  5
524
330
17
100
AcDbEntity
  8
4
100
AcDbLine
 10
421.7940054842434
 20
143.1931889812179
 30
0.0
 11
421.7940054842434
 21
104.1931889812179
 31
0.0
  0
LINE
  5
53D
330
17
100
AcDbEntity
  8
4
100
AcDbLine
 10
521.7940054842434
 20
104.1931889812179
 30
0.0
 11
421.7940054842434
 21
104.1931889812179
 31
0.0
  0
LINE
  5
53E
330
17
100
AcDbEntity
  8
4
100
AcDbLine
 10
493.7940054842434
 20
146.1931889812179
 30
0.0
 11
424.7940054842434
 21
146.1931889812179
 31
0.0
  0
LINE
  5
544
330
17
100
AcDbEntity
  8
L-CENTER
100
AcDbLine
 10
641.7940054842434
 20
702.1931889812179
 30
0.0
 11
641.7940054842434
 21
134.5722329812177
 31
0.0
  0
CIRCLE
  5
545
330
17
100
AcDbEntity
  8
4
100
AcDbCircle
 10
641.7940054842434
 20
344.1931889812179
 30
0.0
 40
194.0
  0
ARC
  5
546
330
17
100
AcDbEntity
  8
4
100
AcDbCircle
 10
641.7940054842434
 20
344.1931889812179
 30
0.0
 40
169.0
100
AcDbArc
 50
98.4361163663814
 51
81.5638836336186
  0
ARC
  5
547
330
17
100
AcDbEntity
  8
4
100
AcDbCircle
 10
138.7940054842434
 20
344.1931889812179
 30
0.0
 40
699.999984
100
AcDbArc
 50
345.782153
 51
14.21872899999995
  0
ARC
  5
548
330
17
100
AcDbEntity
  8
4
100
AcDbCircle
 10
1144.794005484243
 20
344.1931889812179
 30
0.0
 40
700.000108
100
AcDbArc
 50
165.7817459999999
 51
194.218564
  0
LINE
  5
54D
330
17
100
AcDbEntity
  8
L-CENTER
100
AcDbLine
 10
469.7940054842434
 20
656.0626969812179
 30
0.0
 11
469.7940054842434
 21
616.9578876606522
 31
0.0
  0
SPLINE
  5
54E
330
17
100
AcDbEntity
  8
4
100
AcDbSpline
210
0.0
220
0.0
230
1.0
 70
     8
 71
     3
 72
    10
 73
     6
 74
     0
 42
0.000000001
 43
0.0
 40
9.157390938127389
 40
9.157390938127389
 40
9.157390938127389
 40
9.157390938127389
 40
20.94039049464871
 40
39.88094739165081
 40
53.24894958819971
 40
53.24894958819971
 40
53.24894958819971
 40
53.24894958819971
 10
799.4398440770804
 20
146.1931889812179
 30
0.0
 10
798.1577722643319
 20
142.2960458840743
 30
0.0
 10
796.6215369834787
 20
131.7638384797685
 30
0.0
 10
808.4731682004494
 20
119.184714740904
 30
0.0
 10
805.5033095788756
 20
108.541120844211
 30
0.0
 10
803.7364690424231
 20
104.193188981218
 30
0.0
  0
ARC
  5
54F
330
17
100
AcDbEntity
  8
4
100
AcDbCircle
 10
641.7940054842434
 20
494.1931889812179
 30
0.0
 40
22.5
100
AcDbArc
 50
180.0
 51
0.0
  0
LINE
  5
550
330
17
100
AcDbEntity
  8
4
100
AcDbLine
 10
664.2940054842434
 20
494.1931889812179
 30
0.0
 11
664.2940054842433
 21
509.3862578430802
 31
0.0
  0
LINE
  5
551
330
17
100
AcDbEntity
  8
4
100
AcDbLine
 10
690.7511483408198
 20
601.3470351349322
 30
0.0
 11
690.7511483408198
 21
573.0393428252182
 31
0.0
  0
ARC
  5
552
330
17
100
AcDbEntity
  8
4
100
AcDbCircle
 10
700.597302187678
 20
581.0393428257896
 30
0.0
 40
1.846153846285714
100
AcDbArc
 50
180.0
 51
270.0
  0
LINE
  5
553
330
17
100
AcDbEntity
  8
4
100
AcDbLine
 10
692.5973021871059
 20
571.1931889789325
 30
0.0
 11
713.036862626534
 21
571.1931889789325
 31
0.0
  0
ARC
  5
554
330
17
100
AcDbEntity
  8
4
100
AcDbCircle
 10
692.5973021871059
 20
573.0393428252182
 30
0.0
 40
1.846153846285714
100
AcDbArc
 50
180.0
 51
270.0
  0
LINE
  5
555
330
17
100
AcDbEntity
  8
4
100
AcDbLine
 10
700.597302187678
 20
579.1931889795039
 30
0.0
 11
713.036862626534
 21
579.1931889795039
 31
0.0
  0
ARC
  5
556
330
17
100
AcDbEntity
  8
4
100
AcDbCircle
 10
713.036862626534
 20
577.4789032652182
 30
0.0
 40
1.714285714285714
100
AcDbArc
 50
0.0
 51
90.0
  0
ARC
  5
557
330
17
100
AcDbEntity
  8
4
100
AcDbCircle
 10
713.036862626534
 20
572.9074746932183
 30
0.0
 40
1.714285714285714
100
AcDbArc
 50
270.0
 51
0.0
  0
LINE
  5
558
330
17
100
AcDbEntity
  8
4
100
AcDbLine
 10
714.7511483408198
 20
577.4789032652182
 30
0.0
 11
714.7511483408198
 21
572.9074746932183
 31
0.0
  0
LINE
  5
559
330
17
100
AcDbEntity
  8
4
100
AcDbLine
 10
698.7511483413923
 20
601.3470351349322
 30
0.0
 11
698.7511483413923
 21
581.0393428257896
 31
0.0
  0
LINE
  5
55A
330
17
100
AcDbEntity
  8
4
100
AcDbLine
 10
692.5973021871059
 20
603.1931889812179
 30
0.0
 11
696.9049944951066
 21
603.1931889812179
 31
0.0
  0
ARC
  5
55B
330
17
100
AcDbEntity
  8
4
100
AcDbCircle
 10
692.5973021871059
 20
601.3470351349322
 30
0.0
 40
1.846153846285714
100
AcDbArc
 50
90.0
 51
180.0
  0
ARC
  5
55C
330
17
100
AcDbEntity
  8
4
100
AcDbCircle
 10
696.9049944951066
 20
601.3470351349322
 30
0.0
 40
1.846153846285714
100
AcDbArc
 50
0.0
 51
90.0
  0
LINE
  5
55D
330
17
100
AcDbEntity
  8
4
100
AcDbLine
 10
744.7654340551044
 20
580.0560484104799
 30
0.0
 11
744.7654340551053
 21
576.9074746932185
 31
0.0
  0
LINE
  5
55E
330
17
100
AcDbEntity
  8
4
100
AcDbLine
 10
720.7654340551053
 20
601.4789032669328
 30
0.0
 11
720.7654340551053
 21
572.9074746932185
 31
0.0
  0
LINE
  5
55F
330
17
100
AcDbEntity
  8
4
100
AcDbLine
 10
722.4797197693911
 20
571.1931889789328
 30
0.0
 11
739.0511483408195
 21
571.1931889789328
 31
0.0
  0
ARC
  5
560
330
17
100
AcDbEntity
  8
4
100
AcDbCircle
 10
722.4797197693911
 20
572.9074746932185
 30
0.0
 40
1.714285714285714
100
AcDbArc
 50
180.0
 51
270.0
  0
ARC
  5
561
330
17
100
AcDbEntity
  8
4
100
AcDbCircle
 10
739.0511483408195
 20
576.9074746932185
 30
0.0
 40
5.714285714285714
100
AcDbArc
 50
270.0
 51
0.0
  0
LINE
  5
562
330
17
100
AcDbEntity
  8
4
100
AcDbLine
 10
752.6258736156738
 20
591.1931889803609
 30
0.0
 11
756.9335659236735
 21
591.1931889803609
 31
0.0
  0
LINE
  5
563
330
17
100
AcDbEntity
  8
4
100
AcDbLine
 10
752.6258736156751
 20
583.1931889797897
 30
0.0
 11
756.9335659236745
 21
583.1931889797897
 31
0.0
  0
LINE
  5
564
330
17
100
AcDbEntity
  8
4
100
AcDbLine
 10
722.4797197693911
 20
603.1931889812186
 30
0.0
 11
739.051148340815
 21
603.1931889812186
 31
0.0
  0
ARC
  5
565
330
17
100
AcDbEntity
  8
4
100
AcDbCircle
 10
722.4797197693911
 20
601.4789032669328
 30
0.0
 40
1.714285714285714
100
AcDbArc
 50
90.0
 51
180.0
  0
ARC
  5
566
330
17
100
AcDbEntity
  8
4
100
AcDbCircle
 10
752.6258736156751
 20
585.0393428260752
 30
0.0
 40
1.846153846285714
100
AcDbArc
 50
180.0
 51
270.0
  0
ARC
  5
567
330
17
100
AcDbEntity
  8
4
100
AcDbCircle
 10
752.6258736156738
 20
589.3470351340754
 30
0.0
 40
1.846153846285714
100
AcDbArc
 50
90.0
 51
180.0
  0
LINE
  5
568
330
17
100
AcDbEntity
  8
4
100
AcDbLine
 10
750.7797197693881
 20
589.3470351340754
 30
0.0
 11
750.779719769389
 21
585.0393428260752
 31
0.0
  0
ARC
  5
569
330
17
100
AcDbEntity
  8
4
100
AcDbCircle
 10
744.7654340551035
 20
587.1931889800783
 30
0.0
 40
3.428571428571428
100
AcDbArc
 50
128.6821874535039
 51
231.3178125465258
  0
ARC
  5
56A
330
17
100
AcDbEntity
  8
4
100
AcDbCircle
 10
739.0511483408154
 20
594.3303295496751
 30
0.0
 40
5.714285714285714
100
AcDbArc
 50
308.6821874535033
 51
0.0
  0
LINE
  5
56B
330
17
100
AcDbEntity
  8
4
100
AcDbLine
 10
744.7654340551007
 20
597.4789032669339
 30
0.0
 11
744.7654340551012
 21
594.3303295496764
 31
0.0
  0
ARC
  5
56C
330
17
100
AcDbEntity
  8
4
100
AcDbCircle
 10
739.051148340815
 20
597.4789032669328
 30
0.0
 40
5.714285714285714
100
AcDbArc
 50
0.0
 51
90.0
  0
ARC
  5
56D
330
17
100
AcDbEntity
  8
4
100
AcDbCircle
 10
739.051148340819
 20
580.0560484104783
 30
0.0
 40
5.714285714285714
100
AcDbArc
 50
0.0
 51
51.31781254652364
  0
LINE
  5
56E
330
17
100
AcDbEntity
  8
4
100
AcDbLine
 10
758.7797197699597
 20
589.3470351340754
 30
0.0
 11
758.7797197699606
 21
585.0393428260752
 31
0.0
  0
ARC
  5
56F
330
17
100
AcDbEntity
  8
4
100
AcDbCircle
 10
756.9335659236745
 20
585.0393428260752
 30
0.0
 40
1.846153846285714
100
AcDbArc
 50
270.0
 51
0.0
  0
ARC
  5
570
330
17
100
AcDbEntity
  8
4
100
AcDbCircle
 10
756.9335659236735
 20
589.3470351340754
 30
0.0
 40
1.846153846285714
100
AcDbArc
 50
0.0
 51
90.0
  0
LINE
  5
571
330
17
100
AcDbEntity
  8
4
100
AcDbLine
 10
799.7940054842411
 20
608.193188981219
 30
0.0
 11
799.7940054842484
 21
566.1931889789339
 31
0.0
  0
LINE
  5
572
330
17
100
AcDbEntity
  8
4
100
AcDbLine
 10
685.7511483408198
 20
614.1931889812179
 30
0.0
 11
793.7940054842411
 21
614.1931889812179
 31
0.0
  0
LINE
  5
573
330
17
100
AcDbEntity
  8
4
100
AcDbLine
 10
685.7511483408198
 20
560.1931889789328
 30
0.0
 11
793.7940054842484
 21
560.1931889789328
 31
0.0
  0
LINE
  5
574
330
17
100
AcDbEntity
  8
4
100
AcDbLine
 10
679.7511483408198
 20
608.1931889812179
 30
0.0
 11
679.7511483408198
 21
566.1931889789328
 31
0.0
  0
ARC
  5
575
330
17
100
AcDbEntity
  8
4
100
AcDbCircle
 10
685.7511483408198
 20
608.1931889812179
 30
0.0
 40
6.0
100
AcDbArc
 50
90.0
 51
180.0
  0
ARC
  5
576
330
17
100
AcDbEntity
  8
4
100
AcDbCircle
 10
793.7940054842411
 20
608.1931889812179
 30
0.0
 40
6.0
100
AcDbArc
 50
0.0
 51
90.0
  0
ARC
  5
577
330
17
100
AcDbEntity
  8
4
100
AcDbCircle
 10
793.7940054842484
 20
566.1931889789328
 30
0.0
 40
6.0
100
AcDbArc
 50
270.0
 51
0.0
  0
ARC
  5
578
330
17
100
AcDbEntity
  8
4
100
AcDbCircle
 10
685.7511483408198
 20
566.1931889789328
 30
0.0
 40
6.0
100
AcDbArc
 50
180.0
 51
270.0
  0
ARC
  5
579
330
17
100
AcDbEntity
  8
4
100
AcDbCircle
 10
783.0797197699558
 20
580.0560484104783
 30
0.0
 40
5.714285714285714
100
AcDbArc
 50
0.0
 51
51.31781254652364
  0
ARC
  5
57A
330
17
100
AcDbEntity
  8
4
100
AcDbCircle
 10
783.0797197699517
 20
597.4789032669328
 30
0.0
 40
5.714285714285714
100
AcDbArc
 50
0.0
 51
90.0
  0
LINE
  5
57B
330
17
100
AcDbEntity
  8
4
100
AcDbLine
 10
788.7940054842375
 20
597.4789032669339
 30
0.0
 11
788.7940054842379
 21
594.3303295496764
 31
0.0
  0
ARC
  5
57C
330
17
100
AcDbEntity
  8
4
100
AcDbCircle
 10
783.0797197699521
 20
594.3303295496751
 30
0.0
 40
5.714285714285714
100
AcDbArc
 50
308.6821874535033
 51
0.0
  0
ARC
  5
57D
330
17
100
AcDbEntity
  8
4
100
AcDbCircle
 10
788.7940054842402
 20
587.1931889800783
 30
0.0
 40
3.428571428571428
100
AcDbArc
 50
128.6821874535039
 51
231.3178125465258
  0
LINE
  5
57E
330
17
100
AcDbEntity
  8
4
100
AcDbLine
 10
770.5082911985328
 20
603.1931889812186
 30
0.0
 11
783.0797197699517
 21
603.1931889812186
 31
0.0
  0
ARC
  5
57F
330
17
100
AcDbEntity
  8
4
100
AcDbCircle
 10
783.0797197699562
 20
576.9074746932185
 30
0.0
 40
5.714285714285714
100
AcDbArc
 50
270.0
 51
0.0
  0
LINE
  5
580
330
17
100
AcDbEntity
  8
4
100
AcDbLine
 10
770.5082911985278
 20
571.1931889789328
 30
0.0
 11
783.0797197699562
 21
571.1931889789328
 31
0.0
  0
LINE
  5
581
330
17
100
AcDbEntity
  8
4
100
AcDbLine
 10
788.7940054842411
 20
580.0560484104799
 30
0.0
 11
788.794005484242
 21
576.9074746932185
 31
0.0
  0
LINE
  5
582
330
17
100
AcDbEntity
  8
4
100
AcDbLine
 10
764.7940054842434
 20
580.0560484104799
 30
0.0
 11
764.7940054842425
 21
576.9074746932185
 31
0.0
  0
ARC
  5
583
330
17
100
AcDbEntity
  8
4
100
AcDbCircle
 10
770.5082911985278
 20
576.9074746932185
 30
0.0
 40
5.714285714285714
100
AcDbArc
 50
180.0
 51
270.0
  0
ARC
  5
584
330
17
100
AcDbEntity
  8
4
100
AcDbCircle
 10
764.7940054842443
 20
587.1931889800783
 30
0.0
 40
3.428571428571428
100
AcDbArc
 50
308.6821874534742
 51
51.31781254649611
  0
ARC
  5
585
330
17
100
AcDbEntity
  8
4
100
AcDbCircle
 10
770.5082911985319
 20
594.3303295496751
 30
0.0
 40
5.714285714285714
100
AcDbArc
 50
180.0
 51
231.3178125464945
  0
LINE
  5
586
330
17
100
AcDbEntity
  8
4
100
AcDbLine
 10
764.794005484247
 20
597.4789032669339
 30
0.0
 11
764.7940054842466
 21
594.3303295496764
 31
0.0
  0
ARC
  5
587
330
17
100
AcDbEntity
  8
4
100
AcDbCircle
 10
770.5082911985328
 20
597.4789032669328
 30
0.0
 40
5.714285714285714
100
AcDbArc
 50
90.0
 51
180.0
  0
ARC
  5
588
330
17
100
AcDbEntity
  8
4
100
AcDbCircle
 10
770.5082911985282
 20
580.0560484104783
 30
0.0
 40
5.714285714285714
100
AcDbArc
 50
128.6821874534764
 51
180.0
  0
LINE
  5
589
330
17
100
AcDbEntity
  8
4
100
AcDbLine
 10
619.2940054842434
 20
494.1931889812179
 30
0.0
 11
619.2940054842435
 21
509.3862578430802
 31
0.0
  0
LINE
  5
58A
330
17
100
AcDbEntity
  8
4
100
AcDbLine
 10
1303.632584875614
 20
614.0933322855115
 30
0.0
 11
1300.913195013316
 21
614.3284176428149
 31
0.0
  0
LINE
  5
58B
330
17
100
AcDbEntity
  8
4
100
AcDbLine
 10
1298.74837339543
 20
612.508102460564
 30
0.0
 11
1295.507106640576
 21
575.0141978836866
 31
0.0
  0
ARC
  5
58C
330
17
100
AcDbEntity
  8
4
100
AcDbCircle
 10
1300.740941795498
 20
612.3358492427465
 30
0.0
 40
2.0
100
AcDbArc
 50
85.05918759826235
 51
175.0591875982559
  0
LINE
  5
58D
330
17
100
AcDbEntity
  8
4
100
AcDbLine
 10
679.7511483408198
 20
1018.399773329262
 30
0.0
 11
679.7511483408198
 21
1016.399773329262
 31
0.0
  0
LINE
  5
58E
330
17
100
AcDbEntity
  8
4
100
AcDbLine
 10
799.7940054842466
 20
1018.399773329262
 30
0.0
 11
799.794005484247
 21
1016.399773329263
 31
0.0
  0
LINE
  5
58F
330
17
100
AcDbEntity
  8
4
100
AcDbLine
 10
681.7511483408198
 20
1014.399773329262
 30
0.0
 11
797.794005484247
 21
1014.399773329262
 31
0.0
  0
ARC
  5
590
330
17
100
AcDbEntity
  8
4
100
AcDbCircle
 10
681.7511483408198
 20
1016.399773329262
 30
0.0
 40
2.0
100
AcDbArc
 50
180.0
 51
270.0
  0
ARC
  5
591
330
17
100
AcDbEntity
  8
4
100
AcDbCircle
 10
797.794005484247
 20
1016.399773329262
 30
0.0
 40
2.0
100
AcDbArc
 50
270.0
 51
0.0
  0
ARC
  5
592
330
17
100
AcDbEntity
  8
4
100
AcDbCircle
 10
617.2940054842435
 20
509.3862578430802
 30
0.0
 40
2.0
100
AcDbArc
 50
0.0
 51
98.43611636638005
  0
ARC
  5
593
330
17
100
AcDbEntity
  8
4
100
AcDbCircle
 10
666.2940054842433
 20
509.3862578430802
 30
0.0
 40
2.0
100
AcDbArc
 50
81.56388363361995
 51
180.0
  0
ARC
  5
594
330
17
100
AcDbEntity
  8
4
100
AcDbCircle
 10
592.3706654842435
 20
496.3684809812177
 30
0.0
 40
8.999988
100
AcDbArc
 50
354.1535008175786
 51
107.9940760000011
  0
LINE
  5
595
330
17
100
AcDbEntity
  8
4
100
AcDbLine
 10
601.3238388547921
 20
495.4517091464392
 30
0.0
 11
592.4558694842436
 21
415.9317169812178
 31
0.0
  0
ARC
  5
596
330
17
100
AcDbEntity
  8
4
100
AcDbCircle
 10
584.5051854842433
 20
416.8184329812178
 30
0.0
 40
7.999967999999999
100
AcDbArc
 50
280.7197629999997
 51
353.6362569999999
  0
LINE
  5
5B9
330
17
100
AcDbEntity
  8
4
100
AcDbLine
 10
1781.255532521712
 20
384.1931889812179
 30
0.0
 11
1781.255532521712
 21
372.1931889812179
 31
0.0
  0
LINE
  5
5BB
330
17
100
AcDbEntity
  8
4
100
AcDbLine
 10
1763.255532521712
 20
372.1931889812179
 30
0.0
 11
1763.255532521712
 21
384.1931889812179
 31
0.0
  0
LINE
  5
5BD
330
17
100
AcDbEntity
  8
4
100
AcDbLine
 10
1781.255532521712
 20
372.1931889812179
 30
0.0
 11
1763.255532521712
 21
372.1931889812179
 31
0.0
  0
LINE
  5
5BE
330
17
100
AcDbEntity
  8
4
100
AcDbLine
 10
1781.255532521712
 20
384.1931889812179
 30
0.0
 11
1763.255532521712
 21
384.1931889812179
 31
0.0
  0
ARC
  5
5BF
330
17
100
AcDbEntity
  8
4
100
AcDbCircle
 10
1772.255532521712
 20
344.1931889812179
 30
0.0
 40
33.99992
100
AcDbArc
 50
105.3495140230844
 51
74.65048600000011
  0
LINE
  5
5C0
330
17
100
AcDbEntity
  8
L-CENTER
100
AcDbLine
 10
1772.255532521712
 20
391.9781176793333
 30
0.0
 11
1772.255532521712
 21
296.4082602831024
 31
0.0
  0
LINE
  5
5C1
330
17
100
AcDbEntity
  8
L-CENTER
100
AcDbLine
 10
1724.470603823597
 20
344.1931889812179
 30
0.0
 11
1820.040461219828
 21
344.1931889812179
 31
0.0
  0
ENDSEC
  0
SECTION
  2
OBJECTS
  0
DICTIONARY
  5
5
330
0
100
AcDbDictionary
281
     1
  3
ACAD_COLOR
350
29
  3
ACAD_GROUP
350
27
  3
ACAD_LAYOUT
350
1E
  3
ACAD_MATERIAL
350
7
  3
ACAD_MLEADERSTYLE
350
59A
  3
ACAD_MLINESTYLE
350
15
  3
ACAD_PLOTSETTINGS
350
28
  3
ACAD_PLOTSTYLENAME
350
4
  3
ACAD_SCALELIST
350
2D
  3
ACAD_TABLESTYLE
350
599
  3
ACAD_VISUALSTYLE
350
2A
  3
ACDBHEADERROUNDTRIPXREC
350
5C7
  3
AcDbVariableDictionary
350
597
  3
DWGPROPS
350
5CA
  0
DICTIONARY
  5
5CB
330
26
100
AcDbDictionary
280
     1
281
     1
  3
ACAD_XREC_ROUNDTRIP
360
5CC
  0
DICTIONARY
  5
18
330
17
100
AcDbDictionary
280
     1
281
     1
  3
ACAD_SORTENTS
360
19
  0
DICTIONARY
  5
29
102
{ACAD_REACTORS
330
5
102
}
330
5
100
AcDbDictionary
281
     1
  0
DICTIONARY
  5
27
102
{ACAD_REACTORS
330
5
102
}
330
5
100
AcDbDictionary
281
     1
  0
DICTIONARY
  5
1E
102
{ACAD_REACTORS
330
5
102
}
330
5
100
AcDbDictionary
281
     1
  3
Model
350
1D
  3
ﾚｲｱｳﾄ1
350
23
  0
DICTIONARY
  5
7
102
{ACAD_REACTORS
330
5
102
}
330
5
100
AcDbDictionary
281
     1
  3
ByBlock
350
70
  3
ByLayer
350
10
  3
Global
350
6
  0
DICTIONARY
  5
59A
102
{ACAD_REACTORS
330
5
102
}
330
5
100
AcDbDictionary
281
     1
  3
Standard
350
5B5
  0
DICTIONARY
  5
15
102
{ACAD_REACTORS
330
5
102
}
330
5
100
AcDbDictionary
281
     1
  3
STANDARD
350
14
  0
DICTIONARY
  5
28
102
{ACAD_REACTORS
330
5
102
}
330
5
100
AcDbDictionary
281
     1
  0
ACDBDICTIONARYWDFLT
  5
4
102
{ACAD_REACTORS
330
5
102
}
330
5
100
AcDbDictionary
281
     1
  3
Normal
350
3
100
AcDbDictionaryWithDefault
340
3
  0
DICTIONARY
  5
2D
102
{ACAD_REACTORS
330
5
102
}
330
5
100
AcDbDictionary
281
     1
  3
*A1
350
4F
  3
*A10
350
58
  3
*A11
350
59
  3
*A12
350
5A
  3
*A13
350
5B
  3
*A14
350
5C
  3
*A15
350
5D
  3
*A16
350
5E
  3
*A17
350
5F
  3
*A18
350
60
  3
*A19
350
61
  3
*A2
350
50
  3
*A20
350
62
  3
*A21
350
63
  3
*A22
350
64
  3
*A23
350
65
  3
*A24
350
66
  3
*A25
350
67
  3
*A26
350
68
  3
*A27
350
69
  3
*A28
350
6A
  3
*A29
350
6B
  3
*A3
350
51
  3
*A30
350
6C
  3
*A31
350
6D
  3
*A32
350
6E
  3
*A33
350
6F
  3
*A4
350
52
  3
*A5
350
53
  3
*A6
350
54
  3
*A7
350
55
  3
*A8
350
56
  3
*A9
350
57
  0
DICTIONARY
  5
599
102
{ACAD_REACTORS
330
5
102
}
330
5
100
AcDbDictionary
281
     1
  3
Standard
350
5C2
  0
DICTIONARY
  5
2A
102
{ACAD_REACTORS
330
5
102
}
330
5
100
AcDbDictionary
281
     1
  3
2dWireframe
350
5A1
  3
Basic
350
5A4
  3
Brighten
350
5A8
  3
ColorChange
350
5AC
  3
Conceptual
350
5A6
  3
Dim
350
5A7
  3
EdgeColorOff
350
5AF
  3
Facepattern
350
5AB
  3
Flat
350
59D
  3
FlatWithEdges
350
59E
  3
Gouraud
350
59F
  3
GouraudWithEdges
350
5A0
  3
Hidden
350
5A3
  3
JitterOff
350
5AD
  3
Linepattern
350
5AA
  3
OverhangOff
350
5AE
  3
Realistic
350
5A5
  3
Shaded
350
5B4
  3
Shaded with edges
350
5B3
  3
Shades of Gray
350
5B0
  3
Sketchy
350
5B1
  3
Thicken
350
5A9
  3
Wireframe
350
5A2
  3
X-Ray
350
5B2
  0
DICTIONARY
  5
5C7
102
{ACAD_REACTORS
330
5
102
}
330
5
100
AcDbDictionary
281
     1
  3
COLORDICT
350
5C8
  3
MATERIALDICT
350
5C9
  0
DICTIONARY
  5
597
102
{ACAD_REACTORS
330
5
102
}
330
5
100
AcDbDictionary
281
     1
  3
CANNOSCALE
350
598
  3
CMLEADERSTYLE
350
5B7
  3
CTABLESTYLE
350
5C3
  3
DIMASSOC
350
5C4
  3
HIDETEXT
350
5C6
  3
MSLTSCALE
350
5CD
  3
XCLIPFRAME
350
5C5
  0
XRECORD
  5
5CA
102
{ACAD_REACTORS
330
5
102
}
330
5
100
AcDbXrecord
280
     1
  1
DWGPROPS COOKIE
  2

  3

  4

  6

  7

  8
sg-d04
  9

300
=
301
=
302
=
303
=
304
=
305
=
306
=
307
=
308
=
309
=
 40
0.0
 41
2457539.369020845
 42
2457870.230520776
  1

 90
        0
  0
XRECORD
  5
5CC
102
{ACAD_REACTORS
330
5CB
102
}
330
5CB
100
AcDbXrecord
280
     1
102
VTR_0.000_0.000_1.000_1.000_VISUALSTYLE
340
5A1
102
VTR_0.000_0.000_1.000_1.000_GRIDDISPLAY
 70
     3
102
VTR_0.000_0.000_1.000_1.000_GRIDMAJOR
 70
     5
102
VTR_0.000_0.000_1.000_1.000_DEFAULTLIGHTING
280
     1
102
VTR_0.000_0.000_1.000_1.000_DEFAULTLIGHTINGTYPE
 70
     1
102
VTR_0.000_0.000_1.000_1.000_BRIGHTNESS
141
0.0
102
VTR_0.000_0.000_1.000_1.000_CONTRAST
142
0.0
  0
SORTENTSTABLE
  5
19
102
{ACAD_REACTORS
330
18
102
}
330
18
100
AcDbSortentsTable
330
17
  0
LAYOUT
  5
1D
102
{ACAD_REACTORS
330
1E
102
}
330
1E
100
AcDbPlotSettings
  1

  2
Bullzip PDF Printer.pc3
  4
A3
  6

 40
0.2
 41
0.0
 42
0.0
 43
0.0
 44
420.2
 45
297.1
 46
25.0
 47
12.0
 48
149.9999998416665
 49
10.0
140
2059.999995466667
141
1372.499996820833
142
1.0
143
5.0
 70
 11936
 72
     1
 73
     0
 74
     4
  7
monochrome.ctb
 75
     0
147
0.2
148
-149.9999998416665
149
-10.0
100
AcDbLayout
  1
Model
 70
     0
 71
     0
 10
0.0
 20
0.0
 11
12.0
 21
9.0
 12
0.0
 22
0.0
 32
0.0
 14
412.2496117817604
 24
27.85251402533208
 34
0.0
 15
1820.040461219828
 25
1371.133394719457
 35
0.0
146
0.0
 13
0.0
 23
0.0
 33
0.0
 16
1.0
 26
0.0
 36
0.0
 17
0.0
 27
1.0
 37
0.0
 76
     0
330
17
331
2B
1001
ACAD_PSEXT
1000
Bullzip PDF Printer.pc3
1000
Bullzip PDF Printer
1000
BULLZIP
1000
Bullzip PDF Printer 10.1.0.1871
1070
     0
  0
LAYOUT
  5
23
102
{ACAD_REACTORS
330
1E
102
}
330
1E
100
AcDbPlotSettings
  1

  2
C:\Program Files\ACAD LT 2000\plotters\Draftpro-DXL (7575A).pc3
  4

  6

 40
0.0
 41
0.0
 42
0.0
 43
0.0
 44
0.0
 45
0.0
 46
0.0
 47
0.0
 48
0.0
 49
0.0
140
0.0
141
0.0
142
1.0
143
1.0
 70
   688
 72
     0
 73
     0
 74
     5
  7
monochrome.ctb
 75
    16
147
1.0
148
0.0
149
0.0
100
AcDbLayout
  1
ﾚｲｱｳﾄ1
 70
     0
 71
     1
 10
0.0
 20
0.0
 11
12.0
 21
9.0
 12
0.0
 22
0.0
 32
0.0
 14
1.000000000000000E+20
 24
1.000000000000000E+20
 34
1.000000000000000E+20
 15
-1.000000000000000E+20
 25
-1.000000000000000E+20
 35
-1.000000000000000E+20
146
0.0
 13
0.0
 23
0.0
 33
0.0
 16
1.0
 26
0.0
 36
0.0
 17
0.0
 27
1.0
 37
0.0
 76
     0
330
20
  0
MATERIAL
  5
70
102
{ACAD_REACTORS
330
7
102
}
102
{ACAD_XDICTIONARY
360
5D2
102
}
330
7
100
AcDbMaterial
  1
ByBlock
  0
MATERIAL
  5
10
102
{ACAD_REACTORS
330
7
102
}
102
{ACAD_XDICTIONARY
360
5CE
102
}
330
7
100
AcDbMaterial
  1
ByLayer
  0
MATERIAL
  5
6
102
{ACAD_REACTORS
330
7
102
}
102
{ACAD_XDICTIONARY
360
5D0
102
}
330
7
100
AcDbMaterial
  1
Global
1001
ACAD
1070
    -1
1070
     3
1070
     0
1000

1071
        0
  0
MLEADERSTYLE
  5
5B5
102
{ACAD_REACTORS
330
59A
102
}
102
{ACAD_XDICTIONARY
360
604
102
}
330
59A
100
AcDbMLeaderStyle
170
     2
171
     1
172
     0
 90
        2
 40
0.0
 41
0.0
173
     1
 91
-1056964608
340
D
 92
       -2
290
     1
 42
0.09
291
     1
 43
0.36
  3
Standard
341
0
 44
0.18
300

342
E
174
     1
178
     6
175
     1
176
     0
 93
-1056964608
 45
0.18
292
     0
297
     0
 46
0.18
343
0
 94
-1056964608
 47
1.0
 49
1.0
140
1.0
293
     1
141
0.0
294
     1
177
     0
142
1.0
295
     0
296
     0
143
0.125
1001
ACAD_MLEADERVER
1070
     2
  0
MLINESTYLE
  5
14
102
{ACAD_REACTORS
330
15
102
}
330
15
100
AcDbMlineStyle
  2
STANDARD
 70
     0
  3

 62
     0
 51
90.0
 52
90.0
 71
     2
 49
0.5
 62
   256
  6
BYLAYER
 49
-0.5
 62
   256
  6
BYLAYER
  0
ACDBPLACEHOLDER
  5
3
102
{ACAD_REACTORS
330
4
102
}
330
4
  0
SCALE
  5
4F
102
{ACAD_REACTORS
330
2D
102
}
330
2D
100
AcDbScale
 70
     0
300
1:1
140
1.0
141
1.0
290
     1
  0
SCALE
  5
58
102
{ACAD_REACTORS
330
2D
102
}
330
2D
100
AcDbScale
 70
     0
300
1:40
140
1.0
141
40.0
290
     0
  0
SCALE
  5
59
102
{ACAD_REACTORS
330
2D
102
}
330
2D
100
AcDbScale
 70
     0
300
1:50
140
1.0
141
50.0
290
     0
  0
SCALE
  5
5A
102
{ACAD_REACTORS
330
2D
102
}
330
2D
100
AcDbScale
 70
     0
300
1:100
140
1.0
141
100.0
290
     0
  0
SCALE
  5
5B
102
{ACAD_REACTORS
330
2D
102
}
330
2D
100
AcDbScale
 70
     0
300
2:1
140
2.0
141
1.0
290
     0
  0
SCALE
  5
5C
102
{ACAD_REACTORS
330
2D
102
}
330
2D
100
AcDbScale
 70
     0
300
4:1
140
4.0
141
1.0
290
     0
  0
SCALE
  5
5D
102
{ACAD_REACTORS
330
2D
102
}
330
2D
100
AcDbScale
 70
     0
300
8:1
140
8.0
141
1.0
290
     0
  0
SCALE
  5
5E
102
{ACAD_REACTORS
330
2D
102
}
330
2D
100
AcDbScale
 70
     0
300
10:1
140
10.0
141
1.0
290
     0
  0
SCALE
  5
5F
102
{ACAD_REACTORS
330
2D
102
}
330
2D
100
AcDbScale
 70
     0
300
100:1
140
100.0
141
1.0
290
     0
  0
SCALE
  5
60
102
{ACAD_REACTORS
330
2D
102
}
330
2D
100
AcDbScale
 70
     0
300
1/128" = 1'-0"
140
0.0078125
141
12.0
290
     0
  0
SCALE
  5
61
102
{ACAD_REACTORS
330
2D
102
}
330
2D
100
AcDbScale
 70
     0
300
1/64" = 1'-0"
140
0.015625
141
12.0
290
     0
  0
SCALE
  5
50
102
{ACAD_REACTORS
330
2D
102
}
330
2D
100
AcDbScale
 70
     0
300
1:2
140
1.0
141
2.0
290
     0
  0
SCALE
  5
62
102
{ACAD_REACTORS
330
2D
102
}
330
2D
100
AcDbScale
 70
     0
300
1/32" = 1'-0"
140
0.03125
141
12.0
290
     0
  0
SCALE
  5
63
102
{ACAD_REACTORS
330
2D
102
}
330
2D
100
AcDbScale
 70
     0
300
1/16" = 1'-0"
140
0.0625
141
12.0
290
     0
  0
SCALE
  5
64
102
{ACAD_REACTORS
330
2D
102
}
330
2D
100
AcDbScale
 70
     0
300
3/32" = 1'-0"
140
0.09375
141
12.0
290
     0
  0
SCALE
  5
65
102
{ACAD_REACTORS
330
2D
102
}
330
2D
100
AcDbScale
 70
     0
300
1/8" = 1'-0"
140
0.125
141
12.0
290
     0
  0
SCALE
  5
66
102
{ACAD_REACTORS
330
2D
102
}
330
2D
100
AcDbScale
 70
     0
300
3/16" = 1'-0"
140
0.1875
141
12.0
290
     0
  0
SCALE
  5
67
102
{ACAD_REACTORS
330
2D
102
}
330
2D
100
AcDbScale
 70
     0
300
1/4" = 1'-0"
140
0.25
141
12.0
290
     0
  0
SCALE
  5
68
102
{ACAD_REACTORS
330
2D
102
}
330
2D
100
AcDbScale
 70
     0
300
3/8" = 1'-0"
140
0.375
141
12.0
290
     0
  0
SCALE
  5
69
102
{ACAD_REACTORS
330
2D
102
}
330
2D
100
AcDbScale
 70
     0
300
1/2" = 1'-0"
140
0.5
141
12.0
290
     0
  0
SCALE
  5
6A
102
{ACAD_REACTORS
330
2D
102
}
330
2D
100
AcDbScale
 70
     0
300
3/4" = 1'-0"
140
0.75
141
12.0
290
     0
  0
SCALE
  5
6B
102
{ACAD_REACTORS
330
2D
102
}
330
2D
100
AcDbScale
 70
     0
300
1" = 1'-0"
140
1.0
141
12.0
290
     0
  0
SCALE
  5
51
102
{ACAD_REACTORS
330
2D
102
}
330
2D
100
AcDbScale
 70
     0
300
1:4
140
1.0
141
4.0
290
     0
  0
SCALE
  5
6C
102
{ACAD_REACTORS
330
2D
102
}
330
2D
100
AcDbScale
 70
     0
300
1-1/2" = 1'-0"
140
1.5
141
12.0
290
     0
  0
SCALE
  5
6D
102
{ACAD_REACTORS
330
2D
102
}
330
2D
100
AcDbScale
 70
     0
300
3" = 1'-0"
140
3.0
141
12.0
290
     0
  0
SCALE
  5
6E
102
{ACAD_REACTORS
330
2D
102
}
330
2D
100
AcDbScale
 70
     0
300
6" = 1'-0"
140
6.0
141
12.0
290
     0
  0
SCALE
  5
6F
102
{ACAD_REACTORS
330
2D
102
}
330
2D
100
AcDbScale
 70
     0
300
1'-0" = 1'-0"
140
12.0
141
12.0
290
     0
  0
SCALE
  5
52
102
{ACAD_REACTORS
330
2D
102
}
330
2D
100
AcDbScale
 70
     0
300
1:5
140
1.0
141
5.0
290
     0
  0
SCALE
  5
53
102
{ACAD_REACTORS
330
2D
102
}
330
2D
100
AcDbScale
 70
     0
300
1:8
140
1.0
141
8.0
290
     0
  0
SCALE
  5
54
102
{ACAD_REACTORS
330
2D
102
}
330
2D
100
AcDbScale
 70
     0
300
1:10
140
1.0
141
10.0
290
     0
  0
SCALE
  5
55
102
{ACAD_REACTORS
330
2D
102
}
330
2D
100
AcDbScale
 70
     0
300
1:16
140
1.0
141
16.0
290
     0
  0
SCALE
  5
56
102
{ACAD_REACTORS
330
2D
102
}
330
2D
100
AcDbScale
 70
     0
300
1:20
140
1.0
141
20.0
290
     0
  0
SCALE
  5
57
102
{ACAD_REACTORS
330
2D
102
}
330
2D
100
AcDbScale
 70
     0
300
1:30
140
1.0
141
30.0
290
     0
  0
TABLESTYLE
  5
5C2
102
{ACAD_REACTORS
330
599
102
}
330
599
100
AcDbTableStyle
  3
Standard
 70
     0
 71
     0
 40
0.06
 41
0.06
280
     0
281
     0
  7
STANDARD
140
0.18
170
     2
 62
     0
 63
   257
283
     0
274
    -2
284
     1
 64
     0
275
    -2
285
     1
 65
     0
276
    -2
286
     1
 66
     0
277
    -2
287
     1
 67
     0
278
    -2
288
     1
 68
     0
279
    -2
289
     1
 69
     0
  7
STANDARD
140
0.25
170
     5
 62
     0
 63
   257
283
     0
274
    -2
284
     1
 64
     0
275
    -2
285
     1
 65
     0
276
    -2
286
     1
 66
     0
277
    -2
287
     1
 67
     0
278
    -2
288
     1
 68
     0
279
    -2
289
     1
 69
     0
  7
STANDARD
140
0.18
170
     5
 62
     0
 63
   257
283
     0
274
    -2
284
     1
 64
     0
275
    -2
285
     1
 65
     0
276
    -2
286
     1
 66
     0
277
    -2
287
     1
 67
     0
278
    -2
288
     1
 68
     0
279
    -2
289
     1
 69
     0
  0
VISUALSTYLE
  5
5A1
102
{ACAD_REACTORS
330
2A
102
}
102
{ACAD_XDICTIONARY
360
5DC
102
}
330
2A
100
AcDbVisualStyle
  2
2dWireframe
 70
     4
 71
     0
 72
     2
 73
     0
 90
        0
 40
0.6
 41
30.0
 62
     5
 63
     7
 74
     1
 91
        4
 64
     7
 65
   257
 75
     1
175
     1
 42
1.0
 92
        0
 66
   257
 43
1.0
 76
     1
 77
     6
 78
     2
 67
     7
 79
     5
170
     0
171
     0
290
     0
174
     0
 93
        1
 44
0.0
173
     0
291
     0
 45
0.0
1001
ACAD
1000
AcDbSavedByObjectVersion
1070
     0
  0
VISUALSTYLE
  5
5A4
102
{ACAD_REACTORS
330
2A
102
}
102
{ACAD_XDICTIONARY
360
5E2
102
}
330
2A
100
AcDbVisualStyle
  2
Basic
 70
     7
 71
     1
 72
     0
 73
     1
 90
        0
 40
0.6
 41
30.0
 62
     5
 63
     7
 74
     0
 91
        4
 64
     7
 65
   257
 75
     1
175
     1
 42
1.0
 92
        8
 66
     7
 43
1.0
 76
     1
 77
     6
 78
     2
 67
     7
 79
     5
170
     0
171
     0
290
     0
174
     0
 93
        1
 44
0.0
173
     0
291
     1
 45
0.0
1001
ACAD
1000
AcDbSavedByObjectVersion
1070
     0
  0
VISUALSTYLE
  5
5A8
102
{ACAD_REACTORS
330
2A
102
}
102
{ACAD_XDICTIONARY
360
5EA
102
}
330
2A
100
AcDbVisualStyle
  2
Brighten
 70
    12
 71
     2
 72
     2
 73
     0
 90
        0
 40
0.6
 41
30.0
 62
     5
 63
     7
 74
     1
 91
        4
 64
     7
 65
   257
 75
     1
175
     1
 42
1.0
 92
        8
 66
     7
 43
1.0
 76
     1
 77
     6
 78
     2
 67
     7
 79
     5
170
     0
171
     0
290
     0
174
     0
 93
        1
 44
50.0
173
     0
291
     1
 45
0.0
1001
ACAD
1000
AcDbSavedByObjectVersion
1070
     0
  0
VISUALSTYLE
  5
5AC
102
{ACAD_REACTORS
330
2A
102
}
102
{ACAD_XDICTIONARY
360
5F2
102
}
330
2A
100
AcDbVisualStyle
  2
ColorChange
 70
    16
 71
     2
 72
     2
 73
     3
 90
        0
 40
0.6
 41
30.0
 62
     5
 63
     8
 74
     1
 91
        4
 64
     7
 65
   257
 75
     1
175
     1
 42
1.0
 92
        8
 66
     8
 43
1.0
 76
     1
 77
     6
 78
     2
 67
     7
 79
     5
170
     0
171
     0
290
     0
174
     0
 93
        1
 44
0.0
173
     0
291
     1
 45
0.0
1001
ACAD
1000
AcDbSavedByObjectVersion
1070
     0
  0
VISUALSTYLE
  5
5A6
102
{ACAD_REACTORS
330
2A
102
}
102
{ACAD_XDICTIONARY
360
5E6
102
}
330
2A
100
AcDbVisualStyle
  2
Conceptual
 70
     9
 71
     3
 72
     2
 73
     0
 90
        0
 40
0.6
 41
30.0
 62
     5
 63
     7
 74
     2
 91
        2
 64
     7
 65
   257
 75
     1
175
     1
 42
40.0
 92
        8
 66
     7
 43
1.0
 76
     1
 77
     6
 78
     2
 67
     7
 79
     3
170
     0
171
     0
290
     0
174
     0
 93
        1
 44
0.0
173
     0
291
     0
 45
0.0
1001
ACAD
1000
AcDbSavedByObjectVersion
1070
     0
  0
VISUALSTYLE
  5
5A7
102
{ACAD_REACTORS
330
2A
102
}
102
{ACAD_XDICTIONARY
360
5E8
102
}
330
2A
100
AcDbVisualStyle
  2
Dim
 70
    11
 71
     2
 72
     2
 73
     0
 90
        0
 40
0.6
 41
30.0
 62
     5
 63
     7
 74
     1
 91
        4
 64
     7
 65
   257
 75
     1
175
     1
 42
1.0
 92
        8
 66
     7
 43
1.0
 76
     1
 77
     6
 78
     2
 67
     7
 79
     5
170
     0
171
     0
290
     0
174
     0
 93
        1
 44
-50.0
173
     0
291
     1
 45
0.0
1001
ACAD
1000
AcDbSavedByObjectVersion
1070
     0
  0
VISUALSTYLE
  5
5AF
102
{ACAD_REACTORS
330
2A
102
}
102
{ACAD_XDICTIONARY
360
5F8
102
}
330
2A
100
AcDbVisualStyle
  2
EdgeColorOff
 70
    22
 71
     2
 72
     2
 73
     0
 90
        0
 40
0.6
 41
30.0
 62
     5
 63
     7
 74
     1
 91
        4
 64
     7
 65
   257
 75
     1
175
     1
 42
1.0
 92
        8
 66
     7
 43
1.0
 76
     1
 77
     6
 78
     2
 67
     7
 79
     5
170
     0
171
     0
290
     0
174
     0
 93
        1
 44
0.0
173
     0
291
     1
 45
0.0
1001
ACAD
1000
AcDbSavedByObjectVersion
1070
     0
  0
VISUALSTYLE
  5
5AB
102
{ACAD_REACTORS
330
2A
102
}
102
{ACAD_XDICTIONARY
360
5F0
102
}
330
2A
100
AcDbVisualStyle
  2
Facepattern
 70
    15
 71
     2
 72
     2
 73
     0
 90
        0
 40
0.6
 41
30.0
 62
     5
 63
     7
 74
     1
 91
        4
 64
     7
 65
   257
 75
     1
175
     1
 42
1.0
 92
        8
 66
     7
 43
1.0
 76
     1
 77
     6
 78
     2
 67
     7
 79
     5
170
     0
171
     0
290
     0
174
     0
 93
        1
 44
0.0
173
     0
291
     1
 45
0.0
1001
ACAD
1000
AcDbSavedByObjectVersion
1070
     0
  0
VISUALSTYLE
  5
59D
102
{ACAD_REACTORS
330
2A
102
}
102
{ACAD_XDICTIONARY
360
5D4
102
}
330
2A
100
AcDbVisualStyle
  2
Flat
 70
     0
 71
     2
 72
     1
 73
     1
 90
        2
 40
0.6
 41
30.0
 62
     5
 63
     7
 74
     0
 91
        4
 64
     7
 65
   257
 75
     1
175
     1
 42
1.0
 92
        8
 66
     7
 43
1.0
 76
     1
 77
     6
 78
     2
 67
     7
 79
     5
170
     0
171
     0
290
     0
174
     0
 93
       13
 44
0.0
173
     0
291
     1
 45
0.0
1001
ACAD
1000
AcDbSavedByObjectVersion
1070
     0
  0
VISUALSTYLE
  5
59E
102
{ACAD_REACTORS
330
2A
102
}
102
{ACAD_XDICTIONARY
360
5D6
102
}
330
2A
100
AcDbVisualStyle
  2
FlatWithEdges
 70
     1
 71
     2
 72
     1
 73
     1
 90
        2
 40
0.6
 41
30.0
 62
     5
 63
     7
 74
     1
 91
        4
 64
     7
 65
   257
 75
     1
175
     1
 42
1.0
 92
        0
 66
   257
 43
1.0
 76
     1
 77
     6
 78
     2
 67
     7
 79
     5
170
     0
171
     0
290
     0
174
     0
 93
       13
 44
0.0
173
     0
291
     1
 45
0.0
1001
ACAD
1000
AcDbSavedByObjectVersion
1070
     0
  0
VISUALSTYLE
  5
59F
102
{ACAD_REACTORS
330
2A
102
}
102
{ACAD_XDICTIONARY
360
5D8
102
}
330
2A
100
AcDbVisualStyle
  2
Gouraud
 70
     2
 71
     2
 72
     2
 73
     1
 90
        2
 40
0.6
 41
30.0
 62
     5
 63
     7
 74
     0
 91
        4
 64
     7
 65
   257
 75
     1
175
     1
 42
1.0
 92
        0
 66
     7
 43
1.0
 76
     1
 77
     6
 78
     2
 67
     7
 79
     5
170
     0
171
     0
290
     0
174
     0
 93
       13
 44
0.0
173
     0
291
     1
 45
0.0
1001
ACAD
1000
AcDbSavedByObjectVersion
1070
     0
  0
VISUALSTYLE
  5
5A0
102
{ACAD_REACTORS
330
2A
102
}
102
{ACAD_XDICTIONARY
360
5DA
102
}
330
2A
100
AcDbVisualStyle
  2
GouraudWithEdges
 70
     3
 71
     2
 72
     2
 73
     1
 90
        2
 40
0.6
 41
30.0
 62
     5
 63
     7
 74
     1
 91
        4
 64
     7
 65
   257
 75
     1
175
     1
 42
1.0
 92
        0
 66
   257
 43
1.0
 76
     1
 77
     6
 78
     2
 67
     7
 79
     5
170
     0
171
     0
290
     0
174
     0
 93
       13
 44
0.0
173
     0
291
     1
 45
0.0
1001
ACAD
1000
AcDbSavedByObjectVersion
1070
     0
  0
VISUALSTYLE
  5
5A3
102
{ACAD_REACTORS
330
2A
102
}
102
{ACAD_XDICTIONARY
360
5E0
102
}
330
2A
100
AcDbVisualStyle
  2
Hidden
 70
     6
 71
     1
 72
     2
 73
     2
 90
        0
 40
0.6
 41
30.0
 62
     5
 63
     7
 74
     2
 91
        2
 64
     7
 65
   257
 75
     2
175
     1
 42
40.0
 92
        0
 66
   257
 43
1.0
 76
     1
 77
     6
 78
     2
 67
     7
 79
     3
170
     0
171
     0
290
     0
174
     0
 93
        1
 44
0.0
173
     0
291
     0
 45
0.0
1001
ACAD
1000
AcDbSavedByObjectVersion
1070
     0
  0
VISUALSTYLE
  5
5AD
102
{ACAD_REACTORS
330
2A
102
}
102
{ACAD_XDICTIONARY
360
5F4
102
}
330
2A
100
AcDbVisualStyle
  2
JitterOff
 70
    20
 71
     2
 72
     2
 73
     0
 90
        0
 40
0.6
 41
30.0
 62
     5
 63
     7
 74
     1
 91
        4
 64
     7
 65
   257
 75
     1
175
     1
 42
1.0
 92
       10
 66
     7
 43
1.0
 76
     1
 77
     6
 78
     2
 67
     7
 79
     5
170
     0
171
     0
290
     0
174
     0
 93
        1
 44
0.0
173
     0
291
     1
 45
0.0
1001
ACAD
1000
AcDbSavedByObjectVersion
1070
     0
  0
VISUALSTYLE
  5
5AA
102
{ACAD_REACTORS
330
2A
102
}
102
{ACAD_XDICTIONARY
360
5EE
102
}
330
2A
100
AcDbVisualStyle
  2
Linepattern
 70
    14
 71
     2
 72
     2
 73
     0
 90
        0
 40
0.6
 41
30.0
 62
     5
 63
     7
 74
     1
 91
        4
 64
     7
 65
   257
 75
     7
175
     7
 42
1.0
 92
        8
 66
     7
 43
1.0
 76
     1
 77
     6
 78
     2
 67
     7
 79
     5
170
     0
171
     0
290
     0
174
     0
 93
        1
 44
0.0
173
     0
291
     1
 45
0.0
1001
ACAD
1000
AcDbSavedByObjectVersion
1070
     0
  0
VISUALSTYLE
  5
5AE
102
{ACAD_REACTORS
330
2A
102
}
102
{ACAD_XDICTIONARY
360
5F6
102
}
330
2A
100
AcDbVisualStyle
  2
OverhangOff
 70
    21
 71
     2
 72
     2
 73
     0
 90
        0
 40
0.6
 41
30.0
 62
     5
 63
     7
 74
     1
 91
        4
 64
     7
 65
   257
 75
     1
175
     1
 42
1.0
 92
        9
 66
     7
 43
1.0
 76
     1
 77
     6
 78
     2
 67
     7
 79
     5
170
     0
171
     0
290
     0
174
     0
 93
        1
 44
0.0
173
     0
291
     1
 45
0.0
1001
ACAD
1000
AcDbSavedByObjectVersion
1070
     0
  0
VISUALSTYLE
  5
5A5
102
{ACAD_REACTORS
330
2A
102
}
102
{ACAD_XDICTIONARY
360
5E4
102
}
330
2A
100
AcDbVisualStyle
  2
Realistic
 70
     8
 71
     2
 72
     3
 73
     0
 90
        2
 40
0.6
 41
30.0
 62
     5
 63
     7
 74
     0
 91
        0
 64
     7
 65
   257
 75
     1
175
     1
 42
1.0
 92
        8
 66
   257
 43
1.0
 76
     1
 77
     6
 78
     2
 67
     7
 79
     3
170
     0
171
     0
290
     0
174
     0
 93
       13
 44
0.0
173
     0
291
     0
 45
0.0
1001
ACAD
1000
AcDbSavedByObjectVersion
1070
     0
  0
VISUALSTYLE
  5
5B4
102
{ACAD_REACTORS
330
2A
102
}
102
{ACAD_XDICTIONARY
360
602
102
}
330
2A
100
AcDbVisualStyle
  2
Shaded
 70
    27
 71
     2
 72
     2
 73
     1
 90
        2
 40
0.6
 41
30.0
 62
     5
 63
     7
 74
     0
 91
        4
 64
     7
 65
   257
 75
     1
175
     1
 42
1.0
 92
        8
 66
   257
 43
1.0
 76
     1
 77
     6
 78
     2
 67
   251
 79
     3
170
     0
171
     0
290
     0
174
     0
 93
        5
 44
0.0
173
     0
291
     0
 45
0.0
1001
ACAD
1000
AcDbSavedByObjectVersion
1070
     0
  0
VISUALSTYLE
  5
5B3
102
{ACAD_REACTORS
330
2A
102
}
102
{ACAD_XDICTIONARY
360
600
102
}
330
2A
100
AcDbVisualStyle
  2
Shaded with edges
 70
    26
 71
     2
 72
     2
 73
     1
 90
        2
 40
0.6
 41
30.0
 62
     5
 63
     7
 74
     1
 91
       10
 64
     7
 65
   257
 75
     2
175
     1
 42
1.0
 92
        8
 66
   257
 43
1.0
 76
     1
 77
     6
 78
     2
 67
     7
 79
     3
170
     0
171
     0
290
     0
174
     0
 93
        5
 44
0.0
173
     0
291
     0
 45
0.0
1001
ACAD
1000
AcDbSavedByObjectVersion
1070
     0
  0
VISUALSTYLE
  5
5B0
102
{ACAD_REACTORS
330
2A
102
}
102
{ACAD_XDICTIONARY
360
5FA
102
}
330
2A
100
AcDbVisualStyle
  2
Shades of Gray
 70
    23
 71
     2
 72
     2
 73
     3
 90
        0
 40
0.6
 41
30.0
 62
     5
 63
     7
 74
     2
 91
        2
 64
     7
 65
     7
 75
     1
175
     1
 42
40.0
 92
        8
 66
     7
 43
1.0
 76
     1
 77
     6
 78
     2
 67
     7
 79
     3
170
     0
171
     0
290
     0
174
     0
 93
        1
 44
0.0
173
     0
291
     0
 45
0.0
1001
ACAD
1000
AcDbSavedByObjectVersion
1070
     0
  0
VISUALSTYLE
  5
5B1
102
{ACAD_REACTORS
330
2A
102
}
102
{ACAD_XDICTIONARY
360
5FC
102
}
330
2A
100
AcDbVisualStyle
  2
Sketchy
 70
    24
 71
     1
 72
     2
 73
     2
 90
        0
 40
0.6
 41
30.0
 62
     5
 63
     7
 74
     2
 91
        2
 64
     7
 65
     7
 75
     1
175
     1
 42
40.0
 92
       11
 66
     7
 43
1.0
 76
     1
 77
     6
 78
     2
 67
     7
 79
     6
170
     0
171
     0
290
     0
174
     0
 93
        1
 44
0.0
173
     0
291
     0
 45
0.0
1001
ACAD
1000
AcDbSavedByObjectVersion
1070
     0
  0
VISUALSTYLE
  5
5A9
102
{ACAD_REACTORS
330
2A
102
}
102
{ACAD_XDICTIONARY
360
5EC
102
}
330
2A
100
AcDbVisualStyle
  2
Thicken
 70
    13
 71
     2
 72
     2
 73
     0
 90
        0
 40
0.6
 41
30.0
 62
     5
 63
     7
 74
     1
 91
        4
 64
     7
 65
   257
 75
     1
175
     1
 42
1.0
 92
       12
 66
     7
 43
1.0
 76
     1
 77
     6
 78
     2
 67
     7
 79
     5
170
     0
171
     0
290
     0
174
     0
 93
        1
 44
0.0
173
     0
291
     1
 45
0.0
1001
ACAD
1000
AcDbSavedByObjectVersion
1070
     0
  0
VISUALSTYLE
  5
5A2
102
{ACAD_REACTORS
330
2A
102
}
102
{ACAD_XDICTIONARY
360
5DE
102
}
330
2A
100
AcDbVisualStyle
  2
Wireframe
 70
     5
 71
     0
 72
     2
 73
     0
 90
        0
 40
0.6
 41
30.0
 62
     5
 63
     7
 74
     1
 91
        4
 64
     7
 65
   257
 75
     1
175
     1
 42
1.0
 92
        0
 66
   257
 43
1.0
 76
     1
 77
     6
 78
     2
 67
     7
 79
     5
170
     0
171
     0
290
     0
174
     0
 93
        1
 44
0.0
173
     0
291
     0
 45
0.0
1001
ACAD
1000
AcDbSavedByObjectVersion
1070
     0
  0
VISUALSTYLE
  5
5B2
102
{ACAD_REACTORS
330
2A
102
}
102
{ACAD_XDICTIONARY
360
5FE
102
}
330
2A
100
AcDbVisualStyle
  2
X-Ray
 70
    25
 71
     2
 72
     2
 73
     1
 90
        1
 40
0.5
 41
30.0
 62
     5
 63
     7
 74
     1
 91
        0
 64
     7
 65
   257
 75
     1
175
     1
 42
1.0
 92
        8
 66
     7
 43
1.0
 76
     1
 77
     6
 78
     2
 67
     7
 79
     3
170
     0
171
     0
290
     0
174
     0
 93
       13
 44
0.0
173
     0
291
     0
 45
0.0
1001
ACAD
1000
AcDbSavedByObjectVersion
1070
     0
  0
XRECORD
  5
5C8
102
{ACAD_REACTORS
330
5C7
102
}
330
5C7
100
AcDbXrecord
280
     1
340
29
  0
XRECORD
  5
5C9
102
{ACAD_REACTORS
330
5C7
102
}
330
5C7
100
AcDbXrecord
280
     1
340
7
  0
DICTIONARYVAR
  5
598
102
{ACAD_REACTORS
330
597
102
}
330
597
100
DictionaryVariables
280
     0
  1
1:1
  0
DICTIONARYVAR
  5
5B7
102
{ACAD_REACTORS
330
597
102
}
330
597
100
DictionaryVariables
280
     0
  1
Standard
  0
DICTIONARYVAR
  5
5C3
102
{ACAD_REACTORS
330
597
102
}
330
597
100
DictionaryVariables
280
     0
  1
Standard
  0
DICTIONARYVAR
  5
5C4
102
{ACAD_REACTORS
330
597
102
}
330
597
100
DictionaryVariables
280
     0
  1
0
  0
DICTIONARYVAR
  5
5C6
102
{ACAD_REACTORS
330
597
102
}
330
597
100
DictionaryVariables
280
     0
  1
1
  0
DICTIONARYVAR
  5
5CD
102
{ACAD_REACTORS
330
597
102
}
330
597
100
DictionaryVariables
280
     0
  1
1
  0
DICTIONARYVAR
  5
5C5
102
{ACAD_REACTORS
330
597
102
}
330
597
100
DictionaryVariables
280
     0
  1
0
  0
DICTIONARY
  5
5D2
330
70
100
AcDbDictionary
280
     1
281
     1
  3
ACAD_XREC_ROUNDTRIP
360
5D3
  0
DICTIONARY
  5
5CE
330
10
100
AcDbDictionary
280
     1
281
     1
  3
ACAD_XREC_ROUNDTRIP
360
5CF
  0
DICTIONARY
  5
5D0
330
6
100
AcDbDictionary
280
     1
281
     1
  3
ACAD_XREC_ROUNDTRIP
360
5D1
  0
DICTIONARY
  5
604
330
5B5
100
AcDbDictionary
280
     1
281
     1
  3
ACAD_XREC_ROUNDTRIP
360
605
  0
DICTIONARY
  5
5DC
330
5A1
100
AcDbDictionary
280
     1
281
     1
  3
ACAD_XREC_ROUNDTRIP
360
5DD
  0
DICTIONARY
  5
5E2
330
5A4
100
AcDbDictionary
280
     1
281
     1
  3
ACAD_XREC_ROUNDTRIP
360
5E3
  0
DICTIONARY
  5
5EA
330
5A8
100
AcDbDictionary
280
     1
281
     1
  3
ACAD_XREC_ROUNDTRIP
360
5EB
  0
DICTIONARY
  5
5F2
330
5AC
100
AcDbDictionary
280
     1
281
     1
  3
ACAD_XREC_ROUNDTRIP
360
5F3
  0
DICTIONARY
  5
5E6
330
5A6
100
AcDbDictionary
280
     1
281
     1
  3
ACAD_XREC_ROUNDTRIP
360
5E7
  0
DICTIONARY
  5
5E8
330
5A7
100
AcDbDictionary
280
     1
281
     1
  3
ACAD_XREC_ROUNDTRIP
360
5E9
  0
DICTIONARY
  5
5F8
330
5AF
100
AcDbDictionary
280
     1
281
     1
  3
ACAD_XREC_ROUNDTRIP
360
5F9
  0
DICTIONARY
  5
5F0
330
5AB
100
AcDbDictionary
280
     1
281
     1
  3
ACAD_XREC_ROUNDTRIP
360
5F1
  0
DICTIONARY
  5
5D4
330
59D
100
AcDbDictionary
280
     1
281
     1
  3
ACAD_XREC_ROUNDTRIP
360
5D5
  0
DICTIONARY
  5
5D6
330
59E
100
AcDbDictionary
280
     1
281
     1
  3
ACAD_XREC_ROUNDTRIP
360
5D7
  0
DICTIONARY
  5
5D8
330
59F
100
AcDbDictionary
280
     1
281
     1
  3
ACAD_XREC_ROUNDTRIP
360
5D9
  0
DICTIONARY
  5
5DA
330
5A0
100
AcDbDictionary
280
     1
281
     1
  3
ACAD_XREC_ROUNDTRIP
360
5DB
  0
DICTIONARY
  5
5E0
330
5A3
100
AcDbDictionary
280
     1
281
     1
  3
ACAD_XREC_ROUNDTRIP
360
5E1
  0
DICTIONARY
  5
5F4
330
5AD
100
AcDbDictionary
280
     1
281
     1
  3
ACAD_XREC_ROUNDTRIP
360
5F5
  0
DICTIONARY
  5
5EE
330
5AA
100
AcDbDictionary
280
     1
281
     1
  3
ACAD_XREC_ROUNDTRIP
360
5EF
  0
DICTIONARY
  5
5F6
330
5AE
100
AcDbDictionary
280
     1
281
     1
  3
ACAD_XREC_ROUNDTRIP
360
5F7
  0
DICTIONARY
  5
5E4
330
5A5
100
AcDbDictionary
280
     1
281
     1
  3
ACAD_XREC_ROUNDTRIP
360
5E5
  0
DICTIONARY
  5
602
330
5B4
100
AcDbDictionary
280
     1
281
     1
  3
ACAD_XREC_ROUNDTRIP
360
603
  0
DICTIONARY
  5
600
330
5B3
100
AcDbDictionary
280
     1
281
     1
  3
ACAD_XREC_ROUNDTRIP
360
601
  0
DICTIONARY
  5
5FA
330
5B0
100
AcDbDictionary
280
     1
281
     1
  3
ACAD_XREC_ROUNDTRIP
360
5FB
  0
DICTIONARY
  5
5FC
330
5B1
100
AcDbDictionary
280
     1
281
     1
  3
ACAD_XREC_ROUNDTRIP
360
5FD
  0
DICTIONARY
  5
5EC
330
5A9
100
AcDbDictionary
280
     1
281
     1
  3
ACAD_XREC_ROUNDTRIP
360
5ED
  0
DICTIONARY
  5
5DE
330
5A2
100
AcDbDictionary
280
     1
281
     1
  3
ACAD_XREC_ROUNDTRIP
360
5DF
  0
DICTIONARY
  5
5FE
330
5B2
100
AcDbDictionary
280
     1
281
     1
  3
ACAD_XREC_ROUNDTRIP
360
5FF
  0
XRECORD
  5
5D3
102
{ACAD_REACTORS
330
5D2
102
}
330
5D2
100
AcDbXrecord
280
     1
102
MATERIAL
148
0.0
149
0.0
149
0.0
 93
        0
 94
      127
282
     0
 72
     1
 77
     1
171
     1
175
     1
179
     1
273
     0
  0
XRECORD
  5
5CF
102
{ACAD_REACTORS
330
5CE
102
}
330
5CE
100
AcDbXrecord
280
     1
102
MATERIAL
148
0.0
149
0.0
149
0.0
 93
        0
 94
      127
282
     0
 72
     1
 77
     1
171
     1
175
     1
179
     1
273
     0
  0
XRECORD
  5
5D1
102
{ACAD_REACTORS
330
5D0
102
}
330
5D0
100
AcDbXrecord
280
     1
102
MATERIAL
148
0.0
149
0.0
149
0.0
 93
        0
 94
      127
282
     0
 72
     1
 77
     1
171
     1
175
     1
179
     1
273
     0
  0
XRECORD
  5
605
102
{ACAD_REACTORS
330
604
102
}
330
604
100
AcDbXrecord
280
     1
102
ACAD_ROUNDTRIP_2010_MLEADER_STYLE
  0
XRECORD
  5
5DD
102
{ACAD_REACTORS
330
5DC
102
}
330
5DC
100
AcDbXrecord
280
     1
102
RTVSPropertyOp0
 70
     1
102
RTVSPropertyOp1
 70
     1
102
RTVSPropertyOp2
 70
     1
102
RTVSPropertyOp3
 70
     1
102
RTVSPropertyOp4
 70
     1
102
RTVSPropertyOp5
 70
     1
102
RTVSPropertyOp6
 70
     1
102
RTVSPropertyOp7
 70
     1
102
RTVSPropertyOp8
 70
     1
102
RTVSPropertyOp9
 70
     1
102
RTVSPropertyOp10
 70
     1
102
RTVSPropertyOp11
 70
     1
102
RTVSPropertyOp12
 70
     1
102
RTVSPropertyOp13
 70
     1
102
RTVSPropertyOp14
 70
     1
102
RTVSPropertyOp15
 70
     1
102
RTVSPropertyOp16
 70
     1
102
RTVSPropertyOp17
 70
     1
102
RTVSPropertyOp18
 70
     1
102
RTVSPropertyOp19
 70
     1
102
RTVSPropertyOp20
 70
     1
102
RTVSPropertyOp21
 70
     1
102
RTVSPropertyOp22
 70
     1
102
RTVSPropertyOp23
 70
     1
102
RTVSPropertyOp24
 70
     1
102
RTVSPropertyOp25
 70
     1
102
RTVSPropertyOp26
 70
     1
102
RTVSPropertyOp27
 70
     1
102
RTVSPropertyOp28
 70
     1
102
RTVSPropertyOp29
 70
     1
102
RTVSPropertyOp30
 70
     1
102
RTVSPropertyOp31
 70
     1
102
RTVSPropertyOp32
 70
     1
102
RTVSPropertyOp33
 70
     1
102
RTVSPropertyOp34
 70
     1
102
RTVSPropertyOp35
 70
     1
102
RTVSPropertyOp36
 70
     1
102
RTVSPropertyOp37
 70
     1
102
RTVSPropertyOp38
 70
     1
102
RTVSPropertyOp39
 70
     1
102
RTVSPropertyOp40
 70
     1
102
RTVSPropertyOp41
 70
     1
102
RTVSPropertyOp42
 70
     1
102
RTVSPropertyOp43
 70
     1
102
RTVSPropertyOp44
 70
     1
102
RTVSPropertyOp45
 70
     1
102
RTVSPropertyOp46
 70
     1
102
RTVSPropertyOp47
 70
     1
102
RTVSPropertyOp48
 70
     1
102
RTVSPropertyOp49
 70
     1
102
RTVSPropertyOp50
 70
     1
102
RTVSPropertyOp51
 70
     0
102
RTVSPropertyOp52
 70
     0
102
RTVSPropertyOp53
 70
     1
102
RTVSPropertyOp54
 70
     1
102
RTVSPropertyOp55
 70
     1
102
RTVSPropertyOp56
 70
     1
102
RTVSPropertyOp57
 70
     1
102
RTVSPost2010Prop28
280
     1
102
RTVSPost2010PropOp28
 70
     1
102
RTVSPost2010Prop29
280
     1
102
RTVSPost2010PropOp29
 70
     1
102
RTVSPost2010Prop30
280
     0
102
RTVSPost2010PropOp30
 70
     1
102
RTVSPost2010Prop31
280
     0
102
RTVSPost2010PropOp31
 70
     1
102
RTVSPost2010Prop32
280
     0
102
RTVSPost2010PropOp32
 70
     1
102
RTVSPost2010Prop33
280
     0
102
RTVSPost2010PropOp33
 70
     1
102
RTVSPost2010Prop34
280
     0
102
RTVSPost2010PropOp34
 70
     1
102
RTVSPost2010Prop35
280
     0
102
RTVSPost2010PropOp35
 70
     1
102
RTVSPost2010Prop36
280
     0
102
RTVSPost2010PropOp36
 70
     1
102
RTVSPost2010Prop37
 90
       50
102
RTVSPost2010PropOp37
 70
     1
102
RTVSPost2010Prop38
140
0.0
102
RTVSPost2010PropOp38
 70
     1
102
RTVSPost2010Prop39
140
1.0
102
RTVSPost2010PropOp39
 70
     1
102
RTVSPost2010Prop40
 90
        0
102
RTVSPost2010PropOp40
 70
     1
102
RTVSPost2010Prop41ColorIndex
 90
       18
102
RTVSPost2010Prop41ColorRGB
 90
        0
102
RTVSPost2010PropOp41
 70
     1
102
RTVSPost2010Prop42
 90
       50
102
RTVSPost2010PropOp42
 70
     1
102
RTVSPost2010Prop43
 90
        3
102
RTVSPost2010PropOp43
 70
     1
102
RTVSPost2010Prop44ColorIndex
 90
        5
102
RTVSPost2010Prop44ColorRGB
 90
      255
102
RTVSPost2010PropOp44
 70
     1
102
RTVSPost2010Prop45
280
     0
102
RTVSPost2010PropOp45
 70
     1
102
RTVSPost2010Prop46
 90
       50
102
RTVSPost2010PropOp46
 70
     1
102
RTVSPost2010Prop47
 90
       50
102
RTVSPost2010PropOp47
 70
     1
102
RTVSPost2010Prop48
 90
       50
102
RTVSPost2010PropOp48
 70
     1
102
RTVSPost2010Prop49
280
     0
102
RTVSPost2010PropOp49
 70
     1
102
RTVSPost2010Prop50
 90
       50
102
RTVSPost2010PropOp50
 70
     1
102
RTVSPost2010Prop51ColorIndex
 90
      256
102
RTVSPost2010Prop51ColorRGB
 90
-16777216
102
RTVSPost2010PropOp51
 70
     0
102
RTVSPost2010Prop52
140
1.0
102
RTVSPost2010PropOp52
 70
     0
102
RTVSPost2010Prop53
 90
        2
102
RTVSPost2010PropOp53
 70
     1
102
RTVSPost2010Prop54
  1
strokes_ogs.tif
102
RTVSPost2010PropOp54
 70
     1
102
RTVSPost2010Prop55
280
     0
102
RTVSPost2010PropOp55
 70
     1
102
RTVSPost2010Prop56
140
1.0
102
RTVSPost2010PropOp56
 70
     1
102
RTVSPost2010Prop57
140
1.0
102
RTVSPost2010PropOp57
 70
     1
  0
XRECORD
  5
5E3
102
{ACAD_REACTORS
330
5E2
102
}
330
5E2
100
AcDbXrecord
280
     1
102
RTVSPropertyOp0
 70
     1
102
RTVSPropertyOp1
 70
     1
102
RTVSPropertyOp2
 70
     1
102
RTVSPropertyOp3
 70
     1
102
RTVSPropertyOp4
 70
     1
102
RTVSPropertyOp5
 70
     1
102
RTVSPropertyOp6
 70
     1
102
RTVSPropertyOp7
 70
     1
102
RTVSPropertyOp8
 70
     1
102
RTVSPropertyOp9
 70
     1
102
RTVSPropertyOp10
 70
     1
102
RTVSPropertyOp11
 70
     1
102
RTVSPropertyOp12
 70
     1
102
RTVSPropertyOp13
 70
     1
102
RTVSPropertyOp14
 70
     1
102
RTVSPropertyOp15
 70
     1
102
RTVSPropertyOp16
 70
     1
102
RTVSPropertyOp17
 70
     1
102
RTVSPropertyOp18
 70
     1
102
RTVSPropertyOp19
 70
     1
102
RTVSPropertyOp20
 70
     1
102
RTVSPropertyOp21
 70
     1
102
RTVSPropertyOp22
 70
     1
102
RTVSPropertyOp23
 70
     1
102
RTVSPropertyOp24
 70
     1
102
RTVSPropertyOp25
 70
     1
102
RTVSPropertyOp26
 70
     1
102
RTVSPropertyOp27
 70
     1
102
RTVSPropertyOp28
 70
     1
102
RTVSPropertyOp29
 70
     1
102
RTVSPropertyOp30
 70
     1
102
RTVSPropertyOp31
 70
     1
102
RTVSPropertyOp32
 70
     1
102
RTVSPropertyOp33
 70
     1
102
RTVSPropertyOp34
 70
     1
102
RTVSPropertyOp35
 70
     1
102
RTVSPropertyOp36
 70
     1
102
RTVSPropertyOp37
 70
     1
102
RTVSPropertyOp38
 70
     1
102
RTVSPropertyOp39
 70
     1
102
RTVSPropertyOp40
 70
     1
102
RTVSPropertyOp41
 70
     1
102
RTVSPropertyOp42
 70
     1
102
RTVSPropertyOp43
 70
     1
102
RTVSPropertyOp44
 70
     1
102
RTVSPropertyOp45
 70
     1
102
RTVSPropertyOp46
 70
     1
102
RTVSPropertyOp47
 70
     1
102
RTVSPropertyOp48
 70
     1
102
RTVSPropertyOp49
 70
     1
102
RTVSPropertyOp50
 70
     1
102
RTVSPropertyOp51
 70
     0
102
RTVSPropertyOp52
 70
     0
102
RTVSPropertyOp53
 70
     1
102
RTVSPropertyOp54
 70
     1
102
RTVSPropertyOp55
 70
     1
102
RTVSPropertyOp56
 70
     1
102
RTVSPropertyOp57
 70
     1
102
RTVSPost2010Prop28
280
     0
102
RTVSPost2010PropOp28
 70
     1
102
RTVSPost2010Prop29
280
     1
102
RTVSPost2010PropOp29
 70
     1
102
RTVSPost2010Prop30
280
     1
102
RTVSPost2010PropOp30
 70
     1
102
RTVSPost2010Prop31
280
     0
102
RTVSPost2010PropOp31
 70
     1
102
RTVSPost2010Prop32
280
     0
102
RTVSPost2010PropOp32
 70
     1
102
RTVSPost2010Prop33
280
     0
102
RTVSPost2010PropOp33
 70
     1
102
RTVSPost2010Prop34
280
     0
102
RTVSPost2010PropOp34
 70
     1
102
RTVSPost2010Prop35
280
     0
102
RTVSPost2010PropOp35
 70
     1
102
RTVSPost2010Prop36
280
     0
102
RTVSPost2010PropOp36
 70
     1
102
RTVSPost2010Prop37
 90
       50
102
RTVSPost2010PropOp37
 70
     1
102
RTVSPost2010Prop38
140
0.0
102
RTVSPost2010PropOp38
 70
     1
102
RTVSPost2010Prop39
140
1.0
102
RTVSPost2010PropOp39
 70
     1
102
RTVSPost2010Prop40
 90
        0
102
RTVSPost2010PropOp40
 70
     1
102
RTVSPost2010Prop41ColorIndex
 90
       18
102
RTVSPost2010Prop41ColorRGB
 90
        0
102
RTVSPost2010PropOp41
 70
     1
102
RTVSPost2010Prop42
 90
       50
102
RTVSPost2010PropOp42
 70
     1
102
RTVSPost2010Prop43
 90
        3
102
RTVSPost2010PropOp43
 70
     1
102
RTVSPost2010Prop44ColorIndex
 90
        5
102
RTVSPost2010Prop44ColorRGB
 90
      255
102
RTVSPost2010PropOp44
 70
     1
102
RTVSPost2010Prop45
280
     0
102
RTVSPost2010PropOp45
 70
     1
102
RTVSPost2010Prop46
 90
       50
102
RTVSPost2010PropOp46
 70
     1
102
RTVSPost2010Prop47
 90
       50
102
RTVSPost2010PropOp47
 70
     1
102
RTVSPost2010Prop48
 90
       50
102
RTVSPost2010PropOp48
 70
     1
102
RTVSPost2010Prop49
280
     0
102
RTVSPost2010PropOp49
 70
     1
102
RTVSPost2010Prop50
 90
       50
102
RTVSPost2010PropOp50
 70
     1
102
RTVSPost2010Prop51ColorIndex
 90
      256
102
RTVSPost2010Prop51ColorRGB
 90
-16777216
102
RTVSPost2010PropOp51
 70
     0
102
RTVSPost2010Prop52
140
1.0
102
RTVSPost2010PropOp52
 70
     0
102
RTVSPost2010Prop53
 90
        2
102
RTVSPost2010PropOp53
 70
     1
102
RTVSPost2010Prop54
  1
strokes_ogs.tif
102
RTVSPost2010PropOp54
 70
     1
102
RTVSPost2010Prop55
280
     0
102
RTVSPost2010PropOp55
 70
     1
102
RTVSPost2010Prop56
140
1.0
102
RTVSPost2010PropOp56
 70
     1
102
RTVSPost2010Prop57
140
1.0
102
RTVSPost2010PropOp57
 70
     1
  0
XRECORD
  5
5EB
102
{ACAD_REACTORS
330
5EA
102
}
330
5EA
100
AcDbXrecord
280
     1
102
RTVSPropertyOp0
 70
     1
102
RTVSPropertyOp1
 70
     1
102
RTVSPropertyOp2
 70
     1
102
RTVSPropertyOp3
 70
     1
102
RTVSPropertyOp4
 70
     1
102
RTVSPropertyOp5
 70
     1
102
RTVSPropertyOp6
 70
     1
102
RTVSPropertyOp7
 70
     1
102
RTVSPropertyOp8
 70
     1
102
RTVSPropertyOp9
 70
     1
102
RTVSPropertyOp10
 70
     1
102
RTVSPropertyOp11
 70
     1
102
RTVSPropertyOp12
 70
     1
102
RTVSPropertyOp13
 70
     1
102
RTVSPropertyOp14
 70
     1
102
RTVSPropertyOp15
 70
     1
102
RTVSPropertyOp16
 70
     1
102
RTVSPropertyOp17
 70
     1
102
RTVSPropertyOp18
 70
     1
102
RTVSPropertyOp19
 70
     1
102
RTVSPropertyOp20
 70
     1
102
RTVSPropertyOp21
 70
     1
102
RTVSPropertyOp22
 70
     1
102
RTVSPropertyOp23
 70
     1
102
RTVSPropertyOp24
 70
     1
102
RTVSPropertyOp25
 70
     1
102
RTVSPropertyOp26
 70
     1
102
RTVSPropertyOp27
 70
     1
102
RTVSPropertyOp28
 70
     1
102
RTVSPropertyOp29
 70
     1
102
RTVSPropertyOp30
 70
     1
102
RTVSPropertyOp31
 70
     1
102
RTVSPropertyOp32
 70
     1
102
RTVSPropertyOp33
 70
     1
102
RTVSPropertyOp34
 70
     1
102
RTVSPropertyOp35
 70
     1
102
RTVSPropertyOp36
 70
     1
102
RTVSPropertyOp37
 70
     1
102
RTVSPropertyOp38
 70
     1
102
RTVSPropertyOp39
 70
     1
102
RTVSPropertyOp40
 70
     1
102
RTVSPropertyOp41
 70
     1
102
RTVSPropertyOp42
 70
     1
102
RTVSPropertyOp43
 70
     1
102
RTVSPropertyOp44
 70
     1
102
RTVSPropertyOp45
 70
     1
102
RTVSPropertyOp46
 70
     1
102
RTVSPropertyOp47
 70
     1
102
RTVSPropertyOp48
 70
     1
102
RTVSPropertyOp49
 70
     1
102
RTVSPropertyOp50
 70
     1
102
RTVSPropertyOp51
 70
     0
102
RTVSPropertyOp52
 70
     0
102
RTVSPropertyOp53
 70
     1
102
RTVSPropertyOp54
 70
     1
102
RTVSPropertyOp55
 70
     1
102
RTVSPropertyOp56
 70
     1
102
RTVSPropertyOp57
 70
     1
102
RTVSPost2010Prop28
280
     0
102
RTVSPost2010PropOp28
 70
     1
102
RTVSPost2010Prop29
280
     1
102
RTVSPost2010PropOp29
 70
     1
102
RTVSPost2010Prop30
280
     1
102
RTVSPost2010PropOp30
 70
     1
102
RTVSPost2010Prop31
280
     0
102
RTVSPost2010PropOp31
 70
     1
102
RTVSPost2010Prop32
280
     0
102
RTVSPost2010PropOp32
 70
     1
102
RTVSPost2010Prop33
280
     0
102
RTVSPost2010PropOp33
 70
     1
102
RTVSPost2010Prop34
280
     0
102
RTVSPost2010PropOp34
 70
     1
102
RTVSPost2010Prop35
280
     0
102
RTVSPost2010PropOp35
 70
     1
102
RTVSPost2010Prop36
280
     0
102
RTVSPost2010PropOp36
 70
     1
102
RTVSPost2010Prop37
 90
       50
102
RTVSPost2010PropOp37
 70
     1
102
RTVSPost2010Prop38
140
0.0
102
RTVSPost2010PropOp38
 70
     1
102
RTVSPost2010Prop39
140
1.0
102
RTVSPost2010PropOp39
 70
     1
102
RTVSPost2010Prop40
 90
        0
102
RTVSPost2010PropOp40
 70
     1
102
RTVSPost2010Prop41ColorIndex
 90
       18
102
RTVSPost2010Prop41ColorRGB
 90
        0
102
RTVSPost2010PropOp41
 70
     1
102
RTVSPost2010Prop42
 90
       50
102
RTVSPost2010PropOp42
 70
     1
102
RTVSPost2010Prop43
 90
        3
102
RTVSPost2010PropOp43
 70
     1
102
RTVSPost2010Prop44ColorIndex
 90
        5
102
RTVSPost2010Prop44ColorRGB
 90
      255
102
RTVSPost2010PropOp44
 70
     1
102
RTVSPost2010Prop45
280
     0
102
RTVSPost2010PropOp45
 70
     1
102
RTVSPost2010Prop46
 90
       50
102
RTVSPost2010PropOp46
 70
     1
102
RTVSPost2010Prop47
 90
       50
102
RTVSPost2010PropOp47
 70
     1
102
RTVSPost2010Prop48
 90
       50
102
RTVSPost2010PropOp48
 70
     1
102
RTVSPost2010Prop49
280
     0
102
RTVSPost2010PropOp49
 70
     1
102
RTVSPost2010Prop50
 90
       50
102
RTVSPost2010PropOp50
 70
     1
102
RTVSPost2010Prop51ColorIndex
 90
      256
102
RTVSPost2010Prop51ColorRGB
 90
-16777216
102
RTVSPost2010PropOp51
 70
     0
102
RTVSPost2010Prop52
140
1.0
102
RTVSPost2010PropOp52
 70
     0
102
RTVSPost2010Prop53
 90
        2
102
RTVSPost2010PropOp53
 70
     1
102
RTVSPost2010Prop54
  1
strokes_ogs.tif
102
RTVSPost2010PropOp54
 70
     1
102
RTVSPost2010Prop55
280
     0
102
RTVSPost2010PropOp55
 70
     1
102
RTVSPost2010Prop56
140
1.0
102
RTVSPost2010PropOp56
 70
     1
102
RTVSPost2010Prop57
140
1.0
102
RTVSPost2010PropOp57
 70
     1
  0
XRECORD
  5
5F3
102
{ACAD_REACTORS
330
5F2
102
}
330
5F2
100
AcDbXrecord
280
     1
102
RTVSPropertyOp0
 70
     1
102
RTVSPropertyOp1
 70
     1
102
RTVSPropertyOp2
 70
     1
102
RTVSPropertyOp3
 70
     1
102
RTVSPropertyOp4
 70
     1
102
RTVSPropertyOp5
 70
     1
102
RTVSPropertyOp6
 70
     1
102
RTVSPropertyOp7
 70
     1
102
RTVSPropertyOp8
 70
     1
102
RTVSPropertyOp9
 70
     1
102
RTVSPropertyOp10
 70
     1
102
RTVSPropertyOp11
 70
     1
102
RTVSPropertyOp12
 70
     1
102
RTVSPropertyOp13
 70
     1
102
RTVSPropertyOp14
 70
     1
102
RTVSPropertyOp15
 70
     1
102
RTVSPropertyOp16
 70
     1
102
RTVSPropertyOp17
 70
     1
102
RTVSPropertyOp18
 70
     1
102
RTVSPropertyOp19
 70
     1
102
RTVSPropertyOp20
 70
     1
102
RTVSPropertyOp21
 70
     1
102
RTVSPropertyOp22
 70
     1
102
RTVSPropertyOp23
 70
     1
102
RTVSPropertyOp24
 70
     1
102
RTVSPropertyOp25
 70
     1
102
RTVSPropertyOp26
 70
     1
102
RTVSPropertyOp27
 70
     1
102
RTVSPropertyOp28
 70
     1
102
RTVSPropertyOp29
 70
     1
102
RTVSPropertyOp30
 70
     1
102
RTVSPropertyOp31
 70
     1
102
RTVSPropertyOp32
 70
     1
102
RTVSPropertyOp33
 70
     1
102
RTVSPropertyOp34
 70
     1
102
RTVSPropertyOp35
 70
     1
102
RTVSPropertyOp36
 70
     1
102
RTVSPropertyOp37
 70
     1
102
RTVSPropertyOp38
 70
     1
102
RTVSPropertyOp39
 70
     1
102
RTVSPropertyOp40
 70
     1
102
RTVSPropertyOp41
 70
     1
102
RTVSPropertyOp42
 70
     1
102
RTVSPropertyOp43
 70
     1
102
RTVSPropertyOp44
 70
     1
102
RTVSPropertyOp45
 70
     1
102
RTVSPropertyOp46
 70
     1
102
RTVSPropertyOp47
 70
     1
102
RTVSPropertyOp48
 70
     1
102
RTVSPropertyOp49
 70
     1
102
RTVSPropertyOp50
 70
     1
102
RTVSPropertyOp51
 70
     0
102
RTVSPropertyOp52
 70
     0
102
RTVSPropertyOp53
 70
     1
102
RTVSPropertyOp54
 70
     1
102
RTVSPropertyOp55
 70
     1
102
RTVSPropertyOp56
 70
     1
102
RTVSPropertyOp57
 70
     1
102
RTVSPost2010Prop28
280
     0
102
RTVSPost2010PropOp28
 70
     1
102
RTVSPost2010Prop29
280
     1
102
RTVSPost2010PropOp29
 70
     1
102
RTVSPost2010Prop30
280
     1
102
RTVSPost2010PropOp30
 70
     1
102
RTVSPost2010Prop31
280
     0
102
RTVSPost2010PropOp31
 70
     1
102
RTVSPost2010Prop32
280
     0
102
RTVSPost2010PropOp32
 70
     1
102
RTVSPost2010Prop33
280
     0
102
RTVSPost2010PropOp33
 70
     1
102
RTVSPost2010Prop34
280
     0
102
RTVSPost2010PropOp34
 70
     1
102
RTVSPost2010Prop35
280
     0
102
RTVSPost2010PropOp35
 70
     1
102
RTVSPost2010Prop36
280
     0
102
RTVSPost2010PropOp36
 70
     1
102
RTVSPost2010Prop37
 90
       50
102
RTVSPost2010PropOp37
 70
     1
102
RTVSPost2010Prop38
140
0.0
102
RTVSPost2010PropOp38
 70
     1
102
RTVSPost2010Prop39
140
1.0
102
RTVSPost2010PropOp39
 70
     1
102
RTVSPost2010Prop40
 90
        0
102
RTVSPost2010PropOp40
 70
     1
102
RTVSPost2010Prop41ColorIndex
 90
       18
102
RTVSPost2010Prop41ColorRGB
 90
        0
102
RTVSPost2010PropOp41
 70
     1
102
RTVSPost2010Prop42
 90
       50
102
RTVSPost2010PropOp42
 70
     1
102
RTVSPost2010Prop43
 90
        3
102
RTVSPost2010PropOp43
 70
     1
102
RTVSPost2010Prop44ColorIndex
 90
        5
102
RTVSPost2010Prop44ColorRGB
 90
      255
102
RTVSPost2010PropOp44
 70
     1
102
RTVSPost2010Prop45
280
     0
102
RTVSPost2010PropOp45
 70
     1
102
RTVSPost2010Prop46
 90
       50
102
RTVSPost2010PropOp46
 70
     1
102
RTVSPost2010Prop47
 90
       50
102
RTVSPost2010PropOp47
 70
     1
102
RTVSPost2010Prop48
 90
       50
102
RTVSPost2010PropOp48
 70
     1
102
RTVSPost2010Prop49
280
     0
102
RTVSPost2010PropOp49
 70
     1
102
RTVSPost2010Prop50
 90
       50
102
RTVSPost2010PropOp50
 70
     1
102
RTVSPost2010Prop51ColorIndex
 90
      256
102
RTVSPost2010Prop51ColorRGB
 90
-16777216
102
RTVSPost2010PropOp51
 70
     0
102
RTVSPost2010Prop52
140
1.0
102
RTVSPost2010PropOp52
 70
     0
102
RTVSPost2010Prop53
 90
        2
102
RTVSPost2010PropOp53
 70
     1
102
RTVSPost2010Prop54
  1
strokes_ogs.tif
102
RTVSPost2010PropOp54
 70
     1
102
RTVSPost2010Prop55
280
     0
102
RTVSPost2010PropOp55
 70
     1
102
RTVSPost2010Prop56
140
1.0
102
RTVSPost2010PropOp56
 70
     1
102
RTVSPost2010Prop57
140
1.0
102
RTVSPost2010PropOp57
 70
     1
  0
XRECORD
  5
5E7
102
{ACAD_REACTORS
330
5E6
102
}
330
5E6
100
AcDbXrecord
280
     1
102
RTVSPropertyOp0
 70
     1
102
RTVSPropertyOp1
 70
     1
102
RTVSPropertyOp2
 70
     1
102
RTVSPropertyOp3
 70
     1
102
RTVSPropertyOp4
 70
     1
102
RTVSPropertyOp5
 70
     1
102
RTVSPropertyOp6
 70
     1
102
RTVSPropertyOp7
 70
     1
102
RTVSPropertyOp8
 70
     1
102
RTVSPropertyOp9
 70
     1
102
RTVSPropertyOp10
 70
     1
102
RTVSPropertyOp11
 70
     1
102
RTVSPropertyOp12
 70
     1
102
RTVSPropertyOp13
 70
     1
102
RTVSPropertyOp14
 70
     1
102
RTVSPropertyOp15
 70
     1
102
RTVSPropertyOp16
 70
     1
102
RTVSPropertyOp17
 70
     1
102
RTVSPropertyOp18
 70
     1
102
RTVSPropertyOp19
 70
     1
102
RTVSPropertyOp20
 70
     1
102
RTVSPropertyOp21
 70
     1
102
RTVSPropertyOp22
 70
     1
102
RTVSPropertyOp23
 70
     1
102
RTVSPropertyOp24
 70
     1
102
RTVSPropertyOp25
 70
     1
102
RTVSPropertyOp26
 70
     1
102
RTVSPropertyOp27
 70
     1
102
RTVSPropertyOp28
 70
     1
102
RTVSPropertyOp29
 70
     1
102
RTVSPropertyOp30
 70
     1
102
RTVSPropertyOp31
 70
     1
102
RTVSPropertyOp32
 70
     1
102
RTVSPropertyOp33
 70
     1
102
RTVSPropertyOp34
 70
     1
102
RTVSPropertyOp35
 70
     1
102
RTVSPropertyOp36
 70
     1
102
RTVSPropertyOp37
 70
     1
102
RTVSPropertyOp38
 70
     1
102
RTVSPropertyOp39
 70
     1
102
RTVSPropertyOp40
 70
     1
102
RTVSPropertyOp41
 70
     1
102
RTVSPropertyOp42
 70
     1
102
RTVSPropertyOp43
 70
     1
102
RTVSPropertyOp44
 70
     1
102
RTVSPropertyOp45
 70
     1
102
RTVSPropertyOp46
 70
     1
102
RTVSPropertyOp47
 70
     1
102
RTVSPropertyOp48
 70
     1
102
RTVSPropertyOp49
 70
     1
102
RTVSPropertyOp50
 70
     1
102
RTVSPropertyOp51
 70
     0
102
RTVSPropertyOp52
 70
     0
102
RTVSPropertyOp53
 70
     1
102
RTVSPropertyOp54
 70
     1
102
RTVSPropertyOp55
 70
     1
102
RTVSPropertyOp56
 70
     1
102
RTVSPropertyOp57
 70
     1
102
RTVSPost2010Prop28
280
     0
102
RTVSPost2010PropOp28
 70
     1
102
RTVSPost2010Prop29
280
     1
102
RTVSPost2010PropOp29
 70
     1
102
RTVSPost2010Prop30
280
     1
102
RTVSPost2010PropOp30
 70
     1
102
RTVSPost2010Prop31
280
     0
102
RTVSPost2010PropOp31
 70
     1
102
RTVSPost2010Prop32
280
     0
102
RTVSPost2010PropOp32
 70
     1
102
RTVSPost2010Prop33
280
     0
102
RTVSPost2010PropOp33
 70
     1
102
RTVSPost2010Prop34
280
     0
102
RTVSPost2010PropOp34
 70
     1
102
RTVSPost2010Prop35
280
     0
102
RTVSPost2010PropOp35
 70
     1
102
RTVSPost2010Prop36
280
     0
102
RTVSPost2010PropOp36
 70
     1
102
RTVSPost2010Prop37
 90
       50
102
RTVSPost2010PropOp37
 70
     1
102
RTVSPost2010Prop38
140
0.0
102
RTVSPost2010PropOp38
 70
     1
102
RTVSPost2010Prop39
140
1.0
102
RTVSPost2010PropOp39
 70
     1
102
RTVSPost2010Prop40
 90
        0
102
RTVSPost2010PropOp40
 70
     1
102
RTVSPost2010Prop41ColorIndex
 90
       18
102
RTVSPost2010Prop41ColorRGB
 90
        0
102
RTVSPost2010PropOp41
 70
     1
102
RTVSPost2010Prop42
 90
       50
102
RTVSPost2010PropOp42
 70
     1
102
RTVSPost2010Prop43
 90
        3
102
RTVSPost2010PropOp43
 70
     1
102
RTVSPost2010Prop44ColorIndex
 90
        5
102
RTVSPost2010Prop44ColorRGB
 90
      255
102
RTVSPost2010PropOp44
 70
     1
102
RTVSPost2010Prop45
280
     0
102
RTVSPost2010PropOp45
 70
     1
102
RTVSPost2010Prop46
 90
       50
102
RTVSPost2010PropOp46
 70
     1
102
RTVSPost2010Prop47
 90
       50
102
RTVSPost2010PropOp47
 70
     1
102
RTVSPost2010Prop48
 90
       50
102
RTVSPost2010PropOp48
 70
     1
102
RTVSPost2010Prop49
280
     0
102
RTVSPost2010PropOp49
 70
     1
102
RTVSPost2010Prop50
 90
       50
102
RTVSPost2010PropOp50
 70
     1
102
RTVSPost2010Prop51ColorIndex
 90
      256
102
RTVSPost2010Prop51ColorRGB
 90
-16777216
102
RTVSPost2010PropOp51
 70
     0
102
RTVSPost2010Prop52
140
1.0
102
RTVSPost2010PropOp52
 70
     0
102
RTVSPost2010Prop53
 90
        2
102
RTVSPost2010PropOp53
 70
     1
102
RTVSPost2010Prop54
  1
strokes_ogs.tif
102
RTVSPost2010PropOp54
 70
     1
102
RTVSPost2010Prop55
280
     0
102
RTVSPost2010PropOp55
 70
     1
102
RTVSPost2010Prop56
140
1.0
102
RTVSPost2010PropOp56
 70
     1
102
RTVSPost2010Prop57
140
1.0
102
RTVSPost2010PropOp57
 70
     1
  0
XRECORD
  5
5E9
102
{ACAD_REACTORS
330
5E8
102
}
330
5E8
100
AcDbXrecord
280
     1
102
RTVSPropertyOp0
 70
     1
102
RTVSPropertyOp1
 70
     1
102
RTVSPropertyOp2
 70
     1
102
RTVSPropertyOp3
 70
     1
102
RTVSPropertyOp4
 70
     1
102
RTVSPropertyOp5
 70
     1
102
RTVSPropertyOp6
 70
     1
102
RTVSPropertyOp7
 70
     1
102
RTVSPropertyOp8
 70
     1
102
RTVSPropertyOp9
 70
     1
102
RTVSPropertyOp10
 70
     1
102
RTVSPropertyOp11
 70
     1
102
RTVSPropertyOp12
 70
     1
102
RTVSPropertyOp13
 70
     1
102
RTVSPropertyOp14
 70
     1
102
RTVSPropertyOp15
 70
     1
102
RTVSPropertyOp16
 70
     1
102
RTVSPropertyOp17
 70
     1
102
RTVSPropertyOp18
 70
     1
102
RTVSPropertyOp19
 70
     1
102
RTVSPropertyOp20
 70
     1
102
RTVSPropertyOp21
 70
     1
102
RTVSPropertyOp22
 70
     1
102
RTVSPropertyOp23
 70
     1
102
RTVSPropertyOp24
 70
     1
102
RTVSPropertyOp25
 70
     1
102
RTVSPropertyOp26
 70
     1
102
RTVSPropertyOp27
 70
     1
102
RTVSPropertyOp28
 70
     1
102
RTVSPropertyOp29
 70
     1
102
RTVSPropertyOp30
 70
     1
102
RTVSPropertyOp31
 70
     1
102
RTVSPropertyOp32
 70
     1
102
RTVSPropertyOp33
 70
     1
102
RTVSPropertyOp34
 70
     1
102
RTVSPropertyOp35
 70
     1
102
RTVSPropertyOp36
 70
     1
102
RTVSPropertyOp37
 70
     1
102
RTVSPropertyOp38
 70
     1
102
RTVSPropertyOp39
 70
     1
102
RTVSPropertyOp40
 70
     1
102
RTVSPropertyOp41
 70
     1
102
RTVSPropertyOp42
 70
     1
102
RTVSPropertyOp43
 70
     1
102
RTVSPropertyOp44
 70
     1
102
RTVSPropertyOp45
 70
     1
102
RTVSPropertyOp46
 70
     1
102
RTVSPropertyOp47
 70
     1
102
RTVSPropertyOp48
 70
     1
102
RTVSPropertyOp49
 70
     1
102
RTVSPropertyOp50
 70
     1
102
RTVSPropertyOp51
 70
     0
102
RTVSPropertyOp52
 70
     0
102
RTVSPropertyOp53
 70
     1
102
RTVSPropertyOp54
 70
     1
102
RTVSPropertyOp55
 70
     1
102
RTVSPropertyOp56
 70
     1
102
RTVSPropertyOp57
 70
     1
102
RTVSPost2010Prop28
280
     0
102
RTVSPost2010PropOp28
 70
     1
102
RTVSPost2010Prop29
280
     1
102
RTVSPost2010PropOp29
 70
     1
102
RTVSPost2010Prop30
280
     1
102
RTVSPost2010PropOp30
 70
     1
102
RTVSPost2010Prop31
280
     0
102
RTVSPost2010PropOp31
 70
     1
102
RTVSPost2010Prop32
280
     0
102
RTVSPost2010PropOp32
 70
     1
102
RTVSPost2010Prop33
280
     0
102
RTVSPost2010PropOp33
 70
     1
102
RTVSPost2010Prop34
280
     0
102
RTVSPost2010PropOp34
 70
     1
102
RTVSPost2010Prop35
280
     0
102
RTVSPost2010PropOp35
 70
     1
102
RTVSPost2010Prop36
280
     0
102
RTVSPost2010PropOp36
 70
     1
102
RTVSPost2010Prop37
 90
       50
102
RTVSPost2010PropOp37
 70
     1
102
RTVSPost2010Prop38
140
0.0
102
RTVSPost2010PropOp38
 70
     1
102
RTVSPost2010Prop39
140
1.0
102
RTVSPost2010PropOp39
 70
     1
102
RTVSPost2010Prop40
 90
        0
102
RTVSPost2010PropOp40
 70
     1
102
RTVSPost2010Prop41ColorIndex
 90
       18
102
RTVSPost2010Prop41ColorRGB
 90
        0
102
RTVSPost2010PropOp41
 70
     1
102
RTVSPost2010Prop42
 90
       50
102
RTVSPost2010PropOp42
 70
     1
102
RTVSPost2010Prop43
 90
        3
102
RTVSPost2010PropOp43
 70
     1
102
RTVSPost2010Prop44ColorIndex
 90
        5
102
RTVSPost2010Prop44ColorRGB
 90
      255
102
RTVSPost2010PropOp44
 70
     1
102
RTVSPost2010Prop45
280
     0
102
RTVSPost2010PropOp45
 70
     1
102
RTVSPost2010Prop46
 90
       50
102
RTVSPost2010PropOp46
 70
     1
102
RTVSPost2010Prop47
 90
       50
102
RTVSPost2010PropOp47
 70
     1
102
RTVSPost2010Prop48
 90
       50
102
RTVSPost2010PropOp48
 70
     1
102
RTVSPost2010Prop49
280
     0
102
RTVSPost2010PropOp49
 70
     1
102
RTVSPost2010Prop50
 90
       50
102
RTVSPost2010PropOp50
 70
     1
102
RTVSPost2010Prop51ColorIndex
 90
      256
102
RTVSPost2010Prop51ColorRGB
 90
-16777216
102
RTVSPost2010PropOp51
 70
     0
102
RTVSPost2010Prop52
140
1.0
102
RTVSPost2010PropOp52
 70
     0
102
RTVSPost2010Prop53
 90
        2
102
RTVSPost2010PropOp53
 70
     1
102
RTVSPost2010Prop54
  1
strokes_ogs.tif
102
RTVSPost2010PropOp54
 70
     1
102
RTVSPost2010Prop55
280
     0
102
RTVSPost2010PropOp55
 70
     1
102
RTVSPost2010Prop56
140
1.0
102
RTVSPost2010PropOp56
 70
     1
102
RTVSPost2010Prop57
140
1.0
102
RTVSPost2010PropOp57
 70
     1
  0
XRECORD
  5
5F9
102
{ACAD_REACTORS
330
5F8
102
}
330
5F8
100
AcDbXrecord
280
     1
102
RTVSPropertyOp0
 70
     0
102
RTVSPropertyOp1
 70
     0
102
RTVSPropertyOp2
 70
     0
102
RTVSPropertyOp3
 70
     0
102
RTVSPropertyOp4
 70
     0
102
RTVSPropertyOp5
 70
     0
102
RTVSPropertyOp6
 70
     0
102
RTVSPropertyOp7
 70
     0
102
RTVSPropertyOp8
 70
     0
102
RTVSPropertyOp9
 70
     0
102
RTVSPropertyOp10
 70
     0
102
RTVSPropertyOp11
 70
     0
102
RTVSPropertyOp12
 70
     0
102
RTVSPropertyOp13
 70
     0
102
RTVSPropertyOp14
 70
     0
102
RTVSPropertyOp15
 70
     0
102
RTVSPropertyOp16
 70
     0
102
RTVSPropertyOp17
 70
     0
102
RTVSPropertyOp18
 70
     0
102
RTVSPropertyOp19
 70
     0
102
RTVSPropertyOp20
 70
     0
102
RTVSPropertyOp21
 70
     0
102
RTVSPropertyOp22
 70
     0
102
RTVSPropertyOp23
 70
     0
102
RTVSPropertyOp24
 70
     0
102
RTVSPropertyOp25
 70
     0
102
RTVSPropertyOp26
 70
     0
102
RTVSPropertyOp27
 70
     0
102
RTVSPropertyOp28
 70
     1
102
RTVSPropertyOp29
 70
     1
102
RTVSPropertyOp30
 70
     1
102
RTVSPropertyOp31
 70
     1
102
RTVSPropertyOp32
 70
     1
102
RTVSPropertyOp33
 70
     1
102
RTVSPropertyOp34
 70
     1
102
RTVSPropertyOp35
 70
     1
102
RTVSPropertyOp36
 70
     1
102
RTVSPropertyOp37
 70
     1
102
RTVSPropertyOp38
 70
     1
102
RTVSPropertyOp39
 70
     1
102
RTVSPropertyOp40
 70
     1
102
RTVSPropertyOp41
 70
     1
102
RTVSPropertyOp42
 70
     1
102
RTVSPropertyOp43
 70
     1
102
RTVSPropertyOp44
 70
     1
102
RTVSPropertyOp45
 70
     1
102
RTVSPropertyOp46
 70
     1
102
RTVSPropertyOp47
 70
     1
102
RTVSPropertyOp48
 70
     1
102
RTVSPropertyOp49
 70
     1
102
RTVSPropertyOp50
 70
     1
102
RTVSPropertyOp51
 70
     0
102
RTVSPropertyOp52
 70
     0
102
RTVSPropertyOp53
 70
     1
102
RTVSPropertyOp54
 70
     1
102
RTVSPropertyOp55
 70
     1
102
RTVSPropertyOp56
 70
     1
102
RTVSPropertyOp57
 70
     1
102
RTVSPost2010Prop28
280
     0
102
RTVSPost2010PropOp28
 70
     1
102
RTVSPost2010Prop29
280
     1
102
RTVSPost2010PropOp29
 70
     1
102
RTVSPost2010Prop30
280
     1
102
RTVSPost2010PropOp30
 70
     1
102
RTVSPost2010Prop31
280
     0
102
RTVSPost2010PropOp31
 70
     1
102
RTVSPost2010Prop32
280
     0
102
RTVSPost2010PropOp32
 70
     1
102
RTVSPost2010Prop33
280
     0
102
RTVSPost2010PropOp33
 70
     1
102
RTVSPost2010Prop34
280
     0
102
RTVSPost2010PropOp34
 70
     1
102
RTVSPost2010Prop35
280
     0
102
RTVSPost2010PropOp35
 70
     1
102
RTVSPost2010Prop36
280
     0
102
RTVSPost2010PropOp36
 70
     1
102
RTVSPost2010Prop37
 90
       50
102
RTVSPost2010PropOp37
 70
     1
102
RTVSPost2010Prop38
140
0.0
102
RTVSPost2010PropOp38
 70
     1
102
RTVSPost2010Prop39
140
1.0
102
RTVSPost2010PropOp39
 70
     1
102
RTVSPost2010Prop40
 90
        0
102
RTVSPost2010PropOp40
 70
     1
102
RTVSPost2010Prop41ColorIndex
 90
       18
102
RTVSPost2010Prop41ColorRGB
 90
        0
102
RTVSPost2010PropOp41
 70
     1
102
RTVSPost2010Prop42
 90
       50
102
RTVSPost2010PropOp42
 70
     1
102
RTVSPost2010Prop43
 90
        3
102
RTVSPost2010PropOp43
 70
     1
102
RTVSPost2010Prop44ColorIndex
 90
        5
102
RTVSPost2010Prop44ColorRGB
 90
      255
102
RTVSPost2010PropOp44
 70
     1
102
RTVSPost2010Prop45
280
     0
102
RTVSPost2010PropOp45
 70
     1
102
RTVSPost2010Prop46
 90
       50
102
RTVSPost2010PropOp46
 70
     1
102
RTVSPost2010Prop47
 90
       50
102
RTVSPost2010PropOp47
 70
     1
102
RTVSPost2010Prop48
 90
       50
102
RTVSPost2010PropOp48
 70
     1
102
RTVSPost2010Prop49
280
     0
102
RTVSPost2010PropOp49
 70
     1
102
RTVSPost2010Prop50
 90
       50
102
RTVSPost2010PropOp50
 70
     1
102
RTVSPost2010Prop51ColorIndex
 90
      256
102
RTVSPost2010Prop51ColorRGB
 90
-16777216
102
RTVSPost2010PropOp51
 70
     0
102
RTVSPost2010Prop52
140
1.0
102
RTVSPost2010PropOp52
 70
     0
102
RTVSPost2010Prop53
 90
        2
102
RTVSPost2010PropOp53
 70
     1
102
RTVSPost2010Prop54
  1
strokes_ogs.tif
102
RTVSPost2010PropOp54
 70
     1
102
RTVSPost2010Prop55
280
     0
102
RTVSPost2010PropOp55
 70
     1
102
RTVSPost2010Prop56
140
1.0
102
RTVSPost2010PropOp56
 70
     1
102
RTVSPost2010Prop57
140
1.0
102
RTVSPost2010PropOp57
 70
     1
  0
XRECORD
  5
5F1
102
{ACAD_REACTORS
330
5F0
102
}
330
5F0
100
AcDbXrecord
280
     1
102
RTVSPropertyOp0
 70
     1
102
RTVSPropertyOp1
 70
     1
102
RTVSPropertyOp2
 70
     1
102
RTVSPropertyOp3
 70
     1
102
RTVSPropertyOp4
 70
     1
102
RTVSPropertyOp5
 70
     1
102
RTVSPropertyOp6
 70
     1
102
RTVSPropertyOp7
 70
     1
102
RTVSPropertyOp8
 70
     1
102
RTVSPropertyOp9
 70
     1
102
RTVSPropertyOp10
 70
     1
102
RTVSPropertyOp11
 70
     1
102
RTVSPropertyOp12
 70
     1
102
RTVSPropertyOp13
 70
     1
102
RTVSPropertyOp14
 70
     1
102
RTVSPropertyOp15
 70
     1
102
RTVSPropertyOp16
 70
     1
102
RTVSPropertyOp17
 70
     1
102
RTVSPropertyOp18
 70
     1
102
RTVSPropertyOp19
 70
     1
102
RTVSPropertyOp20
 70
     1
102
RTVSPropertyOp21
 70
     1
102
RTVSPropertyOp22
 70
     1
102
RTVSPropertyOp23
 70
     1
102
RTVSPropertyOp24
 70
     1
102
RTVSPropertyOp25
 70
     1
102
RTVSPropertyOp26
 70
     1
102
RTVSPropertyOp27
 70
     1
102
RTVSPropertyOp28
 70
     1
102
RTVSPropertyOp29
 70
     1
102
RTVSPropertyOp30
 70
     1
102
RTVSPropertyOp31
 70
     1
102
RTVSPropertyOp32
 70
     1
102
RTVSPropertyOp33
 70
     1
102
RTVSPropertyOp34
 70
     1
102
RTVSPropertyOp35
 70
     1
102
RTVSPropertyOp36
 70
     1
102
RTVSPropertyOp37
 70
     1
102
RTVSPropertyOp38
 70
     1
102
RTVSPropertyOp39
 70
     1
102
RTVSPropertyOp40
 70
     1
102
RTVSPropertyOp41
 70
     1
102
RTVSPropertyOp42
 70
     1
102
RTVSPropertyOp43
 70
     1
102
RTVSPropertyOp44
 70
     1
102
RTVSPropertyOp45
 70
     1
102
RTVSPropertyOp46
 70
     1
102
RTVSPropertyOp47
 70
     1
102
RTVSPropertyOp48
 70
     1
102
RTVSPropertyOp49
 70
     1
102
RTVSPropertyOp50
 70
     1
102
RTVSPropertyOp51
 70
     0
102
RTVSPropertyOp52
 70
     0
102
RTVSPropertyOp53
 70
     1
102
RTVSPropertyOp54
 70
     1
102
RTVSPropertyOp55
 70
     1
102
RTVSPropertyOp56
 70
     1
102
RTVSPropertyOp57
 70
     1
102
RTVSPost2010Prop28
280
     0
102
RTVSPost2010PropOp28
 70
     1
102
RTVSPost2010Prop29
280
     1
102
RTVSPost2010PropOp29
 70
     1
102
RTVSPost2010Prop30
280
     1
102
RTVSPost2010PropOp30
 70
     1
102
RTVSPost2010Prop31
280
     0
102
RTVSPost2010PropOp31
 70
     1
102
RTVSPost2010Prop32
280
     0
102
RTVSPost2010PropOp32
 70
     1
102
RTVSPost2010Prop33
280
     0
102
RTVSPost2010PropOp33
 70
     1
102
RTVSPost2010Prop34
280
     0
102
RTVSPost2010PropOp34
 70
     1
102
RTVSPost2010Prop35
280
     0
102
RTVSPost2010PropOp35
 70
     1
102
RTVSPost2010Prop36
280
     0
102
RTVSPost2010PropOp36
 70
     1
102
RTVSPost2010Prop37
 90
       50
102
RTVSPost2010PropOp37
 70
     1
102
RTVSPost2010Prop38
140
0.0
102
RTVSPost2010PropOp38
 70
     1
102
RTVSPost2010Prop39
140
1.0
102
RTVSPost2010PropOp39
 70
     1
102
RTVSPost2010Prop40
 90
        0
102
RTVSPost2010PropOp40
 70
     1
102
RTVSPost2010Prop41ColorIndex
 90
       18
102
RTVSPost2010Prop41ColorRGB
 90
        0
102
RTVSPost2010PropOp41
 70
     1
102
RTVSPost2010Prop42
 90
       50
102
RTVSPost2010PropOp42
 70
     1
102
RTVSPost2010Prop43
 90
        3
102
RTVSPost2010PropOp43
 70
     1
102
RTVSPost2010Prop44ColorIndex
 90
        5
102
RTVSPost2010Prop44ColorRGB
 90
      255
102
RTVSPost2010PropOp44
 70
     1
102
RTVSPost2010Prop45
280
     0
102
RTVSPost2010PropOp45
 70
     1
102
RTVSPost2010Prop46
 90
       50
102
RTVSPost2010PropOp46
 70
     1
102
RTVSPost2010Prop47
 90
       50
102
RTVSPost2010PropOp47
 70
     1
102
RTVSPost2010Prop48
 90
       50
102
RTVSPost2010PropOp48
 70
     1
102
RTVSPost2010Prop49
280
     0
102
RTVSPost2010PropOp49
 70
     1
102
RTVSPost2010Prop50
 90
       50
102
RTVSPost2010PropOp50
 70
     1
102
RTVSPost2010Prop51ColorIndex
 90
      256
102
RTVSPost2010Prop51ColorRGB
 90
-16777216
102
RTVSPost2010PropOp51
 70
     0
102
RTVSPost2010Prop52
140
1.0
102
RTVSPost2010PropOp52
 70
     0
102
RTVSPost2010Prop53
 90
        2
102
RTVSPost2010PropOp53
 70
     1
102
RTVSPost2010Prop54
  1
strokes_ogs.tif
102
RTVSPost2010PropOp54
 70
     1
102
RTVSPost2010Prop55
280
     0
102
RTVSPost2010PropOp55
 70
     1
102
RTVSPost2010Prop56
140
1.0
102
RTVSPost2010PropOp56
 70
     1
102
RTVSPost2010Prop57
140
1.0
102
RTVSPost2010PropOp57
 70
     1
  0
XRECORD
  5
5D5
102
{ACAD_REACTORS
330
5D4
102
}
330
5D4
100
AcDbXrecord
280
     1
102
RTVSPropertyOp0
 70
     1
102
RTVSPropertyOp1
 70
     1
102
RTVSPropertyOp2
 70
     1
102
RTVSPropertyOp3
 70
     1
102
RTVSPropertyOp4
 70
     1
102
RTVSPropertyOp5
 70
     1
102
RTVSPropertyOp6
 70
     1
102
RTVSPropertyOp7
 70
     1
102
RTVSPropertyOp8
 70
     1
102
RTVSPropertyOp9
 70
     1
102
RTVSPropertyOp10
 70
     1
102
RTVSPropertyOp11
 70
     1
102
RTVSPropertyOp12
 70
     1
102
RTVSPropertyOp13
 70
     1
102
RTVSPropertyOp14
 70
     1
102
RTVSPropertyOp15
 70
     1
102
RTVSPropertyOp16
 70
     1
102
RTVSPropertyOp17
 70
     1
102
RTVSPropertyOp18
 70
     1
102
RTVSPropertyOp19
 70
     1
102
RTVSPropertyOp20
 70
     1
102
RTVSPropertyOp21
 70
     1
102
RTVSPropertyOp22
 70
     1
102
RTVSPropertyOp23
 70
     1
102
RTVSPropertyOp24
 70
     1
102
RTVSPropertyOp25
 70
     1
102
RTVSPropertyOp26
 70
     1
102
RTVSPropertyOp27
 70
     1
102
RTVSPropertyOp28
 70
     1
102
RTVSPropertyOp29
 70
     1
102
RTVSPropertyOp30
 70
     1
102
RTVSPropertyOp31
 70
     1
102
RTVSPropertyOp32
 70
     1
102
RTVSPropertyOp33
 70
     1
102
RTVSPropertyOp34
 70
     1
102
RTVSPropertyOp35
 70
     1
102
RTVSPropertyOp36
 70
     1
102
RTVSPropertyOp37
 70
     1
102
RTVSPropertyOp38
 70
     1
102
RTVSPropertyOp39
 70
     1
102
RTVSPropertyOp40
 70
     1
102
RTVSPropertyOp41
 70
     1
102
RTVSPropertyOp42
 70
     1
102
RTVSPropertyOp43
 70
     1
102
RTVSPropertyOp44
 70
     1
102
RTVSPropertyOp45
 70
     1
102
RTVSPropertyOp46
 70
     1
102
RTVSPropertyOp47
 70
     1
102
RTVSPropertyOp48
 70
     1
102
RTVSPropertyOp49
 70
     1
102
RTVSPropertyOp50
 70
     1
102
RTVSPropertyOp51
 70
     0
102
RTVSPropertyOp52
 70
     0
102
RTVSPropertyOp53
 70
     1
102
RTVSPropertyOp54
 70
     1
102
RTVSPropertyOp55
 70
     1
102
RTVSPropertyOp56
 70
     1
102
RTVSPropertyOp57
 70
     1
102
RTVSPost2010Prop28
280
     0
102
RTVSPost2010PropOp28
 70
     1
102
RTVSPost2010Prop29
280
     1
102
RTVSPost2010PropOp29
 70
     1
102
RTVSPost2010Prop30
280
     1
102
RTVSPost2010PropOp30
 70
     1
102
RTVSPost2010Prop31
280
     0
102
RTVSPost2010PropOp31
 70
     1
102
RTVSPost2010Prop32
280
     0
102
RTVSPost2010PropOp32
 70
     1
102
RTVSPost2010Prop33
280
     0
102
RTVSPost2010PropOp33
 70
     1
102
RTVSPost2010Prop34
280
     0
102
RTVSPost2010PropOp34
 70
     1
102
RTVSPost2010Prop35
280
     0
102
RTVSPost2010PropOp35
 70
     1
102
RTVSPost2010Prop36
280
     0
102
RTVSPost2010PropOp36
 70
     1
102
RTVSPost2010Prop37
 90
       50
102
RTVSPost2010PropOp37
 70
     1
102
RTVSPost2010Prop38
140
0.0
102
RTVSPost2010PropOp38
 70
     1
102
RTVSPost2010Prop39
140
1.0
102
RTVSPost2010PropOp39
 70
     1
102
RTVSPost2010Prop40
 90
        0
102
RTVSPost2010PropOp40
 70
     1
102
RTVSPost2010Prop41ColorIndex
 90
       18
102
RTVSPost2010Prop41ColorRGB
 90
        0
102
RTVSPost2010PropOp41
 70
     1
102
RTVSPost2010Prop42
 90
       50
102
RTVSPost2010PropOp42
 70
     1
102
RTVSPost2010Prop43
 90
        3
102
RTVSPost2010PropOp43
 70
     1
102
RTVSPost2010Prop44ColorIndex
 90
        5
102
RTVSPost2010Prop44ColorRGB
 90
      255
102
RTVSPost2010PropOp44
 70
     1
102
RTVSPost2010Prop45
280
     0
102
RTVSPost2010PropOp45
 70
     1
102
RTVSPost2010Prop46
 90
       50
102
RTVSPost2010PropOp46
 70
     1
102
RTVSPost2010Prop47
 90
       50
102
RTVSPost2010PropOp47
 70
     1
102
RTVSPost2010Prop48
 90
       50
102
RTVSPost2010PropOp48
 70
     1
102
RTVSPost2010Prop49
280
     0
102
RTVSPost2010PropOp49
 70
     1
102
RTVSPost2010Prop50
 90
       50
102
RTVSPost2010PropOp50
 70
     1
102
RTVSPost2010Prop51ColorIndex
 90
      256
102
RTVSPost2010Prop51ColorRGB
 90
-16777216
102
RTVSPost2010PropOp51
 70
     0
102
RTVSPost2010Prop52
140
1.0
102
RTVSPost2010PropOp52
 70
     0
102
RTVSPost2010Prop53
 90
        2
102
RTVSPost2010PropOp53
 70
     1
102
RTVSPost2010Prop54
  1
strokes_ogs.tif
102
RTVSPost2010PropOp54
 70
     1
102
RTVSPost2010Prop55
280
     0
102
RTVSPost2010PropOp55
 70
     1
102
RTVSPost2010Prop56
140
1.0
102
RTVSPost2010PropOp56
 70
     1
102
RTVSPost2010Prop57
140
1.0
102
RTVSPost2010PropOp57
 70
     1
  0
XRECORD
  5
5D7
102
{ACAD_REACTORS
330
5D6
102
}
330
5D6
100
AcDbXrecord
280
     1
102
RTVSPropertyOp0
 70
     1
102
RTVSPropertyOp1
 70
     1
102
RTVSPropertyOp2
 70
     1
102
RTVSPropertyOp3
 70
     1
102
RTVSPropertyOp4
 70
     1
102
RTVSPropertyOp5
 70
     1
102
RTVSPropertyOp6
 70
     1
102
RTVSPropertyOp7
 70
     1
102
RTVSPropertyOp8
 70
     1
102
RTVSPropertyOp9
 70
     1
102
RTVSPropertyOp10
 70
     1
102
RTVSPropertyOp11
 70
     1
102
RTVSPropertyOp12
 70
     1
102
RTVSPropertyOp13
 70
     1
102
RTVSPropertyOp14
 70
     1
102
RTVSPropertyOp15
 70
     1
102
RTVSPropertyOp16
 70
     1
102
RTVSPropertyOp17
 70
     1
102
RTVSPropertyOp18
 70
     1
102
RTVSPropertyOp19
 70
     1
102
RTVSPropertyOp20
 70
     1
102
RTVSPropertyOp21
 70
     1
102
RTVSPropertyOp22
 70
     1
102
RTVSPropertyOp23
 70
     1
102
RTVSPropertyOp24
 70
     1
102
RTVSPropertyOp25
 70
     1
102
RTVSPropertyOp26
 70
     1
102
RTVSPropertyOp27
 70
     1
102
RTVSPropertyOp28
 70
     1
102
RTVSPropertyOp29
 70
     1
102
RTVSPropertyOp30
 70
     1
102
RTVSPropertyOp31
 70
     1
102
RTVSPropertyOp32
 70
     1
102
RTVSPropertyOp33
 70
     1
102
RTVSPropertyOp34
 70
     1
102
RTVSPropertyOp35
 70
     1
102
RTVSPropertyOp36
 70
     1
102
RTVSPropertyOp37
 70
     1
102
RTVSPropertyOp38
 70
     1
102
RTVSPropertyOp39
 70
     1
102
RTVSPropertyOp40
 70
     1
102
RTVSPropertyOp41
 70
     1
102
RTVSPropertyOp42
 70
     1
102
RTVSPropertyOp43
 70
     1
102
RTVSPropertyOp44
 70
     1
102
RTVSPropertyOp45
 70
     1
102
RTVSPropertyOp46
 70
     1
102
RTVSPropertyOp47
 70
     1
102
RTVSPropertyOp48
 70
     1
102
RTVSPropertyOp49
 70
     1
102
RTVSPropertyOp50
 70
     1
102
RTVSPropertyOp51
 70
     0
102
RTVSPropertyOp52
 70
     0
102
RTVSPropertyOp53
 70
     1
102
RTVSPropertyOp54
 70
     1
102
RTVSPropertyOp55
 70
     1
102
RTVSPropertyOp56
 70
     1
102
RTVSPropertyOp57
 70
     1
102
RTVSPost2010Prop28
280
     0
102
RTVSPost2010PropOp28
 70
     1
102
RTVSPost2010Prop29
280
     1
102
RTVSPost2010PropOp29
 70
     1
102
RTVSPost2010Prop30
280
     1
102
RTVSPost2010PropOp30
 70
     1
102
RTVSPost2010Prop31
280
     0
102
RTVSPost2010PropOp31
 70
     1
102
RTVSPost2010Prop32
280
     0
102
RTVSPost2010PropOp32
 70
     1
102
RTVSPost2010Prop33
280
     0
102
RTVSPost2010PropOp33
 70
     1
102
RTVSPost2010Prop34
280
     0
102
RTVSPost2010PropOp34
 70
     1
102
RTVSPost2010Prop35
280
     0
102
RTVSPost2010PropOp35
 70
     1
102
RTVSPost2010Prop36
280
     0
102
RTVSPost2010PropOp36
 70
     1
102
RTVSPost2010Prop37
 90
       50
102
RTVSPost2010PropOp37
 70
     1
102
RTVSPost2010Prop38
140
0.0
102
RTVSPost2010PropOp38
 70
     1
102
RTVSPost2010Prop39
140
1.0
102
RTVSPost2010PropOp39
 70
     1
102
RTVSPost2010Prop40
 90
        0
102
RTVSPost2010PropOp40
 70
     1
102
RTVSPost2010Prop41ColorIndex
 90
       18
102
RTVSPost2010Prop41ColorRGB
 90
        0
102
RTVSPost2010PropOp41
 70
     1
102
RTVSPost2010Prop42
 90
       50
102
RTVSPost2010PropOp42
 70
     1
102
RTVSPost2010Prop43
 90
        3
102
RTVSPost2010PropOp43
 70
     1
102
RTVSPost2010Prop44ColorIndex
 90
        5
102
RTVSPost2010Prop44ColorRGB
 90
      255
102
RTVSPost2010PropOp44
 70
     1
102
RTVSPost2010Prop45
280
     0
102
RTVSPost2010PropOp45
 70
     1
102
RTVSPost2010Prop46
 90
       50
102
RTVSPost2010PropOp46
 70
     1
102
RTVSPost2010Prop47
 90
       50
102
RTVSPost2010PropOp47
 70
     1
102
RTVSPost2010Prop48
 90
       50
102
RTVSPost2010PropOp48
 70
     1
102
RTVSPost2010Prop49
280
     0
102
RTVSPost2010PropOp49
 70
     1
102
RTVSPost2010Prop50
 90
       50
102
RTVSPost2010PropOp50
 70
     1
102
RTVSPost2010Prop51ColorIndex
 90
      256
102
RTVSPost2010Prop51ColorRGB
 90
-16777216
102
RTVSPost2010PropOp51
 70
     0
102
RTVSPost2010Prop52
140
1.0
102
RTVSPost2010PropOp52
 70
     0
102
RTVSPost2010Prop53
 90
        2
102
RTVSPost2010PropOp53
 70
     1
102
RTVSPost2010Prop54
  1
strokes_ogs.tif
102
RTVSPost2010PropOp54
 70
     1
102
RTVSPost2010Prop55
280
     0
102
RTVSPost2010PropOp55
 70
     1
102
RTVSPost2010Prop56
140
1.0
102
RTVSPost2010PropOp56
 70
     1
102
RTVSPost2010Prop57
140
1.0
102
RTVSPost2010PropOp57
 70
     1
  0
XRECORD
  5
5D9
102
{ACAD_REACTORS
330
5D8
102
}
330
5D8
100
AcDbXrecord
280
     1
102
RTVSPropertyOp0
 70
     1
102
RTVSPropertyOp1
 70
     1
102
RTVSPropertyOp2
 70
     1
102
RTVSPropertyOp3
 70
     1
102
RTVSPropertyOp4
 70
     1
102
RTVSPropertyOp5
 70
     1
102
RTVSPropertyOp6
 70
     1
102
RTVSPropertyOp7
 70
     1
102
RTVSPropertyOp8
 70
     1
102
RTVSPropertyOp9
 70
     1
102
RTVSPropertyOp10
 70
     1
102
RTVSPropertyOp11
 70
     1
102
RTVSPropertyOp12
 70
     1
102
RTVSPropertyOp13
 70
     1
102
RTVSPropertyOp14
 70
     1
102
RTVSPropertyOp15
 70
     1
102
RTVSPropertyOp16
 70
     1
102
RTVSPropertyOp17
 70
     1
102
RTVSPropertyOp18
 70
     1
102
RTVSPropertyOp19
 70
     1
102
RTVSPropertyOp20
 70
     1
102
RTVSPropertyOp21
 70
     1
102
RTVSPropertyOp22
 70
     1
102
RTVSPropertyOp23
 70
     1
102
RTVSPropertyOp24
 70
     1
102
RTVSPropertyOp25
 70
     1
102
RTVSPropertyOp26
 70
     1
102
RTVSPropertyOp27
 70
     1
102
RTVSPropertyOp28
 70
     1
102
RTVSPropertyOp29
 70
     1
102
RTVSPropertyOp30
 70
     1
102
RTVSPropertyOp31
 70
     1
102
RTVSPropertyOp32
 70
     1
102
RTVSPropertyOp33
 70
     1
102
RTVSPropertyOp34
 70
     1
102
RTVSPropertyOp35
 70
     1
102
RTVSPropertyOp36
 70
     1
102
RTVSPropertyOp37
 70
     1
102
RTVSPropertyOp38
 70
     1
102
RTVSPropertyOp39
 70
     1
102
RTVSPropertyOp40
 70
     1
102
RTVSPropertyOp41
 70
     1
102
RTVSPropertyOp42
 70
     1
102
RTVSPropertyOp43
 70
     1
102
RTVSPropertyOp44
 70
     1
102
RTVSPropertyOp45
 70
     1
102
RTVSPropertyOp46
 70
     1
102
RTVSPropertyOp47
 70
     1
102
RTVSPropertyOp48
 70
     1
102
RTVSPropertyOp49
 70
     1
102
RTVSPropertyOp50
 70
     1
102
RTVSPropertyOp51
 70
     0
102
RTVSPropertyOp52
 70
     0
102
RTVSPropertyOp53
 70
     1
102
RTVSPropertyOp54
 70
     1
102
RTVSPropertyOp55
 70
     1
102
RTVSPropertyOp56
 70
     1
102
RTVSPropertyOp57
 70
     1
102
RTVSPost2010Prop28
280
     0
102
RTVSPost2010PropOp28
 70
     1
102
RTVSPost2010Prop29
280
     1
102
RTVSPost2010PropOp29
 70
     1
102
RTVSPost2010Prop30
280
     1
102
RTVSPost2010PropOp30
 70
     1
102
RTVSPost2010Prop31
280
     0
102
RTVSPost2010PropOp31
 70
     1
102
RTVSPost2010Prop32
280
     0
102
RTVSPost2010PropOp32
 70
     1
102
RTVSPost2010Prop33
280
     0
102
RTVSPost2010PropOp33
 70
     1
102
RTVSPost2010Prop34
280
     0
102
RTVSPost2010PropOp34
 70
     1
102
RTVSPost2010Prop35
280
     0
102
RTVSPost2010PropOp35
 70
     1
102
RTVSPost2010Prop36
280
     0
102
RTVSPost2010PropOp36
 70
     1
102
RTVSPost2010Prop37
 90
       50
102
RTVSPost2010PropOp37
 70
     1
102
RTVSPost2010Prop38
140
0.0
102
RTVSPost2010PropOp38
 70
     1
102
RTVSPost2010Prop39
140
1.0
102
RTVSPost2010PropOp39
 70
     1
102
RTVSPost2010Prop40
 90
        0
102
RTVSPost2010PropOp40
 70
     1
102
RTVSPost2010Prop41ColorIndex
 90
       18
102
RTVSPost2010Prop41ColorRGB
 90
        0
102
RTVSPost2010PropOp41
 70
     1
102
RTVSPost2010Prop42
 90
       50
102
RTVSPost2010PropOp42
 70
     1
102
RTVSPost2010Prop43
 90
        3
102
RTVSPost2010PropOp43
 70
     1
102
RTVSPost2010Prop44ColorIndex
 90
        5
102
RTVSPost2010Prop44ColorRGB
 90
      255
102
RTVSPost2010PropOp44
 70
     1
102
RTVSPost2010Prop45
280
     0
102
RTVSPost2010PropOp45
 70
     1
102
RTVSPost2010Prop46
 90
       50
102
RTVSPost2010PropOp46
 70
     1
102
RTVSPost2010Prop47
 90
       50
102
RTVSPost2010PropOp47
 70
     1
102
RTVSPost2010Prop48
 90
       50
102
RTVSPost2010PropOp48
 70
     1
102
RTVSPost2010Prop49
280
     0
102
RTVSPost2010PropOp49
 70
     1
102
RTVSPost2010Prop50
 90
       50
102
RTVSPost2010PropOp50
 70
     1
102
RTVSPost2010Prop51ColorIndex
 90
      256
102
RTVSPost2010Prop51ColorRGB
 90
-16777216
102
RTVSPost2010PropOp51
 70
     0
102
RTVSPost2010Prop52
140
1.0
102
RTVSPost2010PropOp52
 70
     0
102
RTVSPost2010Prop53
 90
        2
102
RTVSPost2010PropOp53
 70
     1
102
RTVSPost2010Prop54
  1
strokes_ogs.tif
102
RTVSPost2010PropOp54
 70
     1
102
RTVSPost2010Prop55
280
     0
102
RTVSPost2010PropOp55
 70
     1
102
RTVSPost2010Prop56
140
1.0
102
RTVSPost2010PropOp56
 70
     1
102
RTVSPost2010Prop57
140
1.0
102
RTVSPost2010PropOp57
 70
     1
  0
XRECORD
  5
5DB
102
{ACAD_REACTORS
330
5DA
102
}
330
5DA
100
AcDbXrecord
280
     1
102
RTVSPropertyOp0
 70
     1
102
RTVSPropertyOp1
 70
     1
102
RTVSPropertyOp2
 70
     1
102
RTVSPropertyOp3
 70
     1
102
RTVSPropertyOp4
 70
     1
102
RTVSPropertyOp5
 70
     1
102
RTVSPropertyOp6
 70
     1
102
RTVSPropertyOp7
 70
     1
102
RTVSPropertyOp8
 70
     1
102
RTVSPropertyOp9
 70
     1
102
RTVSPropertyOp10
 70
     1
102
RTVSPropertyOp11
 70
     1
102
RTVSPropertyOp12
 70
     1
102
RTVSPropertyOp13
 70
     1
102
RTVSPropertyOp14
 70
     1
102
RTVSPropertyOp15
 70
     1
102
RTVSPropertyOp16
 70
     1
102
RTVSPropertyOp17
 70
     1
102
RTVSPropertyOp18
 70
     1
102
RTVSPropertyOp19
 70
     1
102
RTVSPropertyOp20
 70
     1
102
RTVSPropertyOp21
 70
     1
102
RTVSPropertyOp22
 70
     1
102
RTVSPropertyOp23
 70
     1
102
RTVSPropertyOp24
 70
     1
102
RTVSPropertyOp25
 70
     1
102
RTVSPropertyOp26
 70
     1
102
RTVSPropertyOp27
 70
     1
102
RTVSPropertyOp28
 70
     1
102
RTVSPropertyOp29
 70
     1
102
RTVSPropertyOp30
 70
     1
102
RTVSPropertyOp31
 70
     1
102
RTVSPropertyOp32
 70
     1
102
RTVSPropertyOp33
 70
     1
102
RTVSPropertyOp34
 70
     1
102
RTVSPropertyOp35
 70
     1
102
RTVSPropertyOp36
 70
     1
102
RTVSPropertyOp37
 70
     1
102
RTVSPropertyOp38
 70
     1
102
RTVSPropertyOp39
 70
     1
102
RTVSPropertyOp40
 70
     1
102
RTVSPropertyOp41
 70
     1
102
RTVSPropertyOp42
 70
     1
102
RTVSPropertyOp43
 70
     1
102
RTVSPropertyOp44
 70
     1
102
RTVSPropertyOp45
 70
     1
102
RTVSPropertyOp46
 70
     1
102
RTVSPropertyOp47
 70
     1
102
RTVSPropertyOp48
 70
     1
102
RTVSPropertyOp49
 70
     1
102
RTVSPropertyOp50
 70
     1
102
RTVSPropertyOp51
 70
     0
102
RTVSPropertyOp52
 70
     0
102
RTVSPropertyOp53
 70
     1
102
RTVSPropertyOp54
 70
     1
102
RTVSPropertyOp55
 70
     1
102
RTVSPropertyOp56
 70
     1
102
RTVSPropertyOp57
 70
     1
102
RTVSPost2010Prop28
280
     0
102
RTVSPost2010PropOp28
 70
     1
102
RTVSPost2010Prop29
280
     1
102
RTVSPost2010PropOp29
 70
     1
102
RTVSPost2010Prop30
280
     1
102
RTVSPost2010PropOp30
 70
     1
102
RTVSPost2010Prop31
280
     0
102
RTVSPost2010PropOp31
 70
     1
102
RTVSPost2010Prop32
280
     0
102
RTVSPost2010PropOp32
 70
     1
102
RTVSPost2010Prop33
280
     0
102
RTVSPost2010PropOp33
 70
     1
102
RTVSPost2010Prop34
280
     0
102
RTVSPost2010PropOp34
 70
     1
102
RTVSPost2010Prop35
280
     0
102
RTVSPost2010PropOp35
 70
     1
102
RTVSPost2010Prop36
280
     0
102
RTVSPost2010PropOp36
 70
     1
102
RTVSPost2010Prop37
 90
       50
102
RTVSPost2010PropOp37
 70
     1
102
RTVSPost2010Prop38
140
0.0
102
RTVSPost2010PropOp38
 70
     1
102
RTVSPost2010Prop39
140
1.0
102
RTVSPost2010PropOp39
 70
     1
102
RTVSPost2010Prop40
 90
        0
102
RTVSPost2010PropOp40
 70
     1
102
RTVSPost2010Prop41ColorIndex
 90
       18
102
RTVSPost2010Prop41ColorRGB
 90
        0
102
RTVSPost2010PropOp41
 70
     1
102
RTVSPost2010Prop42
 90
       50
102
RTVSPost2010PropOp42
 70
     1
102
RTVSPost2010Prop43
 90
        3
102
RTVSPost2010PropOp43
 70
     1
102
RTVSPost2010Prop44ColorIndex
 90
        5
102
RTVSPost2010Prop44ColorRGB
 90
      255
102
RTVSPost2010PropOp44
 70
     1
102
RTVSPost2010Prop45
280
     0
102
RTVSPost2010PropOp45
 70
     1
102
RTVSPost2010Prop46
 90
       50
102
RTVSPost2010PropOp46
 70
     1
102
RTVSPost2010Prop47
 90
       50
102
RTVSPost2010PropOp47
 70
     1
102
RTVSPost2010Prop48
 90
       50
102
RTVSPost2010PropOp48
 70
     1
102
RTVSPost2010Prop49
280
     0
102
RTVSPost2010PropOp49
 70
     1
102
RTVSPost2010Prop50
 90
       50
102
RTVSPost2010PropOp50
 70
     1
102
RTVSPost2010Prop51ColorIndex
 90
      256
102
RTVSPost2010Prop51ColorRGB
 90
-16777216
102
RTVSPost2010PropOp51
 70
     0
102
RTVSPost2010Prop52
140
1.0
102
RTVSPost2010PropOp52
 70
     0
102
RTVSPost2010Prop53
 90
        2
102
RTVSPost2010PropOp53
 70
     1
102
RTVSPost2010Prop54
  1
strokes_ogs.tif
102
RTVSPost2010PropOp54
 70
     1
102
RTVSPost2010Prop55
280
     0
102
RTVSPost2010PropOp55
 70
     1
102
RTVSPost2010Prop56
140
1.0
102
RTVSPost2010PropOp56
 70
     1
102
RTVSPost2010Prop57
140
1.0
102
RTVSPost2010PropOp57
 70
     1
  0
XRECORD
  5
5E1
102
{ACAD_REACTORS
330
5E0
102
}
330
5E0
100
AcDbXrecord
280
     1
102
RTVSPropertyOp0
 70
     1
102
RTVSPropertyOp1
 70
     1
102
RTVSPropertyOp2
 70
     1
102
RTVSPropertyOp3
 70
     1
102
RTVSPropertyOp4
 70
     1
102
RTVSPropertyOp5
 70
     1
102
RTVSPropertyOp6
 70
     1
102
RTVSPropertyOp7
 70
     1
102
RTVSPropertyOp8
 70
     1
102
RTVSPropertyOp9
 70
     1
102
RTVSPropertyOp10
 70
     1
102
RTVSPropertyOp11
 70
     1
102
RTVSPropertyOp12
 70
     1
102
RTVSPropertyOp13
 70
     1
102
RTVSPropertyOp14
 70
     1
102
RTVSPropertyOp15
 70
     1
102
RTVSPropertyOp16
 70
     1
102
RTVSPropertyOp17
 70
     1
102
RTVSPropertyOp18
 70
     1
102
RTVSPropertyOp19
 70
     1
102
RTVSPropertyOp20
 70
     1
102
RTVSPropertyOp21
 70
     1
102
RTVSPropertyOp22
 70
     1
102
RTVSPropertyOp23
 70
     1
102
RTVSPropertyOp24
 70
     1
102
RTVSPropertyOp25
 70
     1
102
RTVSPropertyOp26
 70
     1
102
RTVSPropertyOp27
 70
     1
102
RTVSPropertyOp28
 70
     1
102
RTVSPropertyOp29
 70
     1
102
RTVSPropertyOp30
 70
     1
102
RTVSPropertyOp31
 70
     1
102
RTVSPropertyOp32
 70
     1
102
RTVSPropertyOp33
 70
     1
102
RTVSPropertyOp34
 70
     1
102
RTVSPropertyOp35
 70
     1
102
RTVSPropertyOp36
 70
     1
102
RTVSPropertyOp37
 70
     1
102
RTVSPropertyOp38
 70
     1
102
RTVSPropertyOp39
 70
     1
102
RTVSPropertyOp40
 70
     1
102
RTVSPropertyOp41
 70
     1
102
RTVSPropertyOp42
 70
     1
102
RTVSPropertyOp43
 70
     1
102
RTVSPropertyOp44
 70
     1
102
RTVSPropertyOp45
 70
     1
102
RTVSPropertyOp46
 70
     1
102
RTVSPropertyOp47
 70
     1
102
RTVSPropertyOp48
 70
     1
102
RTVSPropertyOp49
 70
     1
102
RTVSPropertyOp50
 70
     1
102
RTVSPropertyOp51
 70
     0
102
RTVSPropertyOp52
 70
     0
102
RTVSPropertyOp53
 70
     1
102
RTVSPropertyOp54
 70
     1
102
RTVSPropertyOp55
 70
     1
102
RTVSPropertyOp56
 70
     1
102
RTVSPropertyOp57
 70
     1
102
RTVSPost2010Prop28
280
     0
102
RTVSPost2010PropOp28
 70
     1
102
RTVSPost2010Prop29
280
     1
102
RTVSPost2010PropOp29
 70
     1
102
RTVSPost2010Prop30
280
     1
102
RTVSPost2010PropOp30
 70
     1
102
RTVSPost2010Prop31
280
     0
102
RTVSPost2010PropOp31
 70
     1
102
RTVSPost2010Prop32
280
     0
102
RTVSPost2010PropOp32
 70
     1
102
RTVSPost2010Prop33
280
     0
102
RTVSPost2010PropOp33
 70
     1
102
RTVSPost2010Prop34
280
     0
102
RTVSPost2010PropOp34
 70
     1
102
RTVSPost2010Prop35
280
     0
102
RTVSPost2010PropOp35
 70
     1
102
RTVSPost2010Prop36
280
     0
102
RTVSPost2010PropOp36
 70
     1
102
RTVSPost2010Prop37
 90
       50
102
RTVSPost2010PropOp37
 70
     1
102
RTVSPost2010Prop38
140
0.0
102
RTVSPost2010PropOp38
 70
     1
102
RTVSPost2010Prop39
140
1.0
102
RTVSPost2010PropOp39
 70
     1
102
RTVSPost2010Prop40
 90
        0
102
RTVSPost2010PropOp40
 70
     1
102
RTVSPost2010Prop41ColorIndex
 90
       18
102
RTVSPost2010Prop41ColorRGB
 90
        0
102
RTVSPost2010PropOp41
 70
     1
102
RTVSPost2010Prop42
 90
       50
102
RTVSPost2010PropOp42
 70
     1
102
RTVSPost2010Prop43
 90
        3
102
RTVSPost2010PropOp43
 70
     1
102
RTVSPost2010Prop44ColorIndex
 90
        5
102
RTVSPost2010Prop44ColorRGB
 90
      255
102
RTVSPost2010PropOp44
 70
     1
102
RTVSPost2010Prop45
280
     0
102
RTVSPost2010PropOp45
 70
     1
102
RTVSPost2010Prop46
 90
       50
102
RTVSPost2010PropOp46
 70
     1
102
RTVSPost2010Prop47
 90
       50
102
RTVSPost2010PropOp47
 70
     1
102
RTVSPost2010Prop48
 90
       50
102
RTVSPost2010PropOp48
 70
     1
102
RTVSPost2010Prop49
280
     0
102
RTVSPost2010PropOp49
 70
     1
102
RTVSPost2010Prop50
 90
       50
102
RTVSPost2010PropOp50
 70
     1
102
RTVSPost2010Prop51ColorIndex
 90
      256
102
RTVSPost2010Prop51ColorRGB
 90
-16777216
102
RTVSPost2010PropOp51
 70
     0
102
RTVSPost2010Prop52
140
1.0
102
RTVSPost2010PropOp52
 70
     0
102
RTVSPost2010Prop53
 90
        2
102
RTVSPost2010PropOp53
 70
     1
102
RTVSPost2010Prop54
  1
strokes_ogs.tif
102
RTVSPost2010PropOp54
 70
     1
102
RTVSPost2010Prop55
280
     0
102
RTVSPost2010PropOp55
 70
     1
102
RTVSPost2010Prop56
140
1.0
102
RTVSPost2010PropOp56
 70
     1
102
RTVSPost2010Prop57
140
1.0
102
RTVSPost2010PropOp57
 70
     1
  0
XRECORD
  5
5F5
102
{ACAD_REACTORS
330
5F4
102
}
330
5F4
100
AcDbXrecord
280
     1
102
RTVSPropertyOp0
 70
     0
102
RTVSPropertyOp1
 70
     0
102
RTVSPropertyOp2
 70
     0
102
RTVSPropertyOp3
 70
     0
102
RTVSPropertyOp4
 70
     0
102
RTVSPropertyOp5
 70
     0
102
RTVSPropertyOp6
 70
     0
102
RTVSPropertyOp7
 70
     0
102
RTVSPropertyOp8
 70
     0
102
RTVSPropertyOp9
 70
     0
102
RTVSPropertyOp10
 70
     0
102
RTVSPropertyOp11
 70
     0
102
RTVSPropertyOp12
 70
     0
102
RTVSPropertyOp13
 70
     0
102
RTVSPropertyOp14
 70
     0
102
RTVSPropertyOp15
 70
     0
102
RTVSPropertyOp16
 70
     0
102
RTVSPropertyOp17
 70
     0
102
RTVSPropertyOp18
 70
     0
102
RTVSPropertyOp19
 70
     0
102
RTVSPropertyOp20
 70
     0
102
RTVSPropertyOp21
 70
     0
102
RTVSPropertyOp22
 70
     0
102
RTVSPropertyOp23
 70
     0
102
RTVSPropertyOp24
 70
     0
102
RTVSPropertyOp25
 70
     0
102
RTVSPropertyOp26
 70
     0
102
RTVSPropertyOp27
 70
     0
102
RTVSPropertyOp28
 70
     1
102
RTVSPropertyOp29
 70
     1
102
RTVSPropertyOp30
 70
     1
102
RTVSPropertyOp31
 70
     1
102
RTVSPropertyOp32
 70
     1
102
RTVSPropertyOp33
 70
     1
102
RTVSPropertyOp34
 70
     1
102
RTVSPropertyOp35
 70
     1
102
RTVSPropertyOp36
 70
     1
102
RTVSPropertyOp37
 70
     1
102
RTVSPropertyOp38
 70
     1
102
RTVSPropertyOp39
 70
     1
102
RTVSPropertyOp40
 70
     1
102
RTVSPropertyOp41
 70
     1
102
RTVSPropertyOp42
 70
     1
102
RTVSPropertyOp43
 70
     1
102
RTVSPropertyOp44
 70
     1
102
RTVSPropertyOp45
 70
     1
102
RTVSPropertyOp46
 70
     1
102
RTVSPropertyOp47
 70
     1
102
RTVSPropertyOp48
 70
     1
102
RTVSPropertyOp49
 70
     1
102
RTVSPropertyOp50
 70
     1
102
RTVSPropertyOp51
 70
     0
102
RTVSPropertyOp52
 70
     0
102
RTVSPropertyOp53
 70
     1
102
RTVSPropertyOp54
 70
     1
102
RTVSPropertyOp55
 70
     1
102
RTVSPropertyOp56
 70
     1
102
RTVSPropertyOp57
 70
     1
102
RTVSPost2010Prop28
280
     0
102
RTVSPost2010PropOp28
 70
     1
102
RTVSPost2010Prop29
280
     1
102
RTVSPost2010PropOp29
 70
     1
102
RTVSPost2010Prop30
280
     1
102
RTVSPost2010PropOp30
 70
     1
102
RTVSPost2010Prop31
280
     0
102
RTVSPost2010PropOp31
 70
     1
102
RTVSPost2010Prop32
280
     0
102
RTVSPost2010PropOp32
 70
     1
102
RTVSPost2010Prop33
280
     0
102
RTVSPost2010PropOp33
 70
     1
102
RTVSPost2010Prop34
280
     0
102
RTVSPost2010PropOp34
 70
     1
102
RTVSPost2010Prop35
280
     0
102
RTVSPost2010PropOp35
 70
     1
102
RTVSPost2010Prop36
280
     0
102
RTVSPost2010PropOp36
 70
     1
102
RTVSPost2010Prop37
 90
       50
102
RTVSPost2010PropOp37
 70
     1
102
RTVSPost2010Prop38
140
0.0
102
RTVSPost2010PropOp38
 70
     1
102
RTVSPost2010Prop39
140
1.0
102
RTVSPost2010PropOp39
 70
     1
102
RTVSPost2010Prop40
 90
        0
102
RTVSPost2010PropOp40
 70
     1
102
RTVSPost2010Prop41ColorIndex
 90
       18
102
RTVSPost2010Prop41ColorRGB
 90
        0
102
RTVSPost2010PropOp41
 70
     1
102
RTVSPost2010Prop42
 90
       50
102
RTVSPost2010PropOp42
 70
     1
102
RTVSPost2010Prop43
 90
        3
102
RTVSPost2010PropOp43
 70
     1
102
RTVSPost2010Prop44ColorIndex
 90
        5
102
RTVSPost2010Prop44ColorRGB
 90
      255
102
RTVSPost2010PropOp44
 70
     1
102
RTVSPost2010Prop45
280
     0
102
RTVSPost2010PropOp45
 70
     1
102
RTVSPost2010Prop46
 90
       50
102
RTVSPost2010PropOp46
 70
     1
102
RTVSPost2010Prop47
 90
       50
102
RTVSPost2010PropOp47
 70
     1
102
RTVSPost2010Prop48
 90
       50
102
RTVSPost2010PropOp48
 70
     1
102
RTVSPost2010Prop49
280
     0
102
RTVSPost2010PropOp49
 70
     1
102
RTVSPost2010Prop50
 90
       50
102
RTVSPost2010PropOp50
 70
     1
102
RTVSPost2010Prop51ColorIndex
 90
      256
102
RTVSPost2010Prop51ColorRGB
 90
-16777216
102
RTVSPost2010PropOp51
 70
     0
102
RTVSPost2010Prop52
140
1.0
102
RTVSPost2010PropOp52
 70
     0
102
RTVSPost2010Prop53
 90
        2
102
RTVSPost2010PropOp53
 70
     1
102
RTVSPost2010Prop54
  1
strokes_ogs.tif
102
RTVSPost2010PropOp54
 70
     1
102
RTVSPost2010Prop55
280
     0
102
RTVSPost2010PropOp55
 70
     1
102
RTVSPost2010Prop56
140
1.0
102
RTVSPost2010PropOp56
 70
     1
102
RTVSPost2010Prop57
140
1.0
102
RTVSPost2010PropOp57
 70
     1
  0
XRECORD
  5
5EF
102
{ACAD_REACTORS
330
5EE
102
}
330
5EE
100
AcDbXrecord
280
     1
102
RTVSPropertyOp0
 70
     1
102
RTVSPropertyOp1
 70
     1
102
RTVSPropertyOp2
 70
     1
102
RTVSPropertyOp3
 70
     1
102
RTVSPropertyOp4
 70
     1
102
RTVSPropertyOp5
 70
     1
102
RTVSPropertyOp6
 70
     1
102
RTVSPropertyOp7
 70
     1
102
RTVSPropertyOp8
 70
     1
102
RTVSPropertyOp9
 70
     1
102
RTVSPropertyOp10
 70
     1
102
RTVSPropertyOp11
 70
     1
102
RTVSPropertyOp12
 70
     1
102
RTVSPropertyOp13
 70
     1
102
RTVSPropertyOp14
 70
     1
102
RTVSPropertyOp15
 70
     1
102
RTVSPropertyOp16
 70
     1
102
RTVSPropertyOp17
 70
     1
102
RTVSPropertyOp18
 70
     1
102
RTVSPropertyOp19
 70
     1
102
RTVSPropertyOp20
 70
     1
102
RTVSPropertyOp21
 70
     1
102
RTVSPropertyOp22
 70
     1
102
RTVSPropertyOp23
 70
     1
102
RTVSPropertyOp24
 70
     1
102
RTVSPropertyOp25
 70
     1
102
RTVSPropertyOp26
 70
     1
102
RTVSPropertyOp27
 70
     1
102
RTVSPropertyOp28
 70
     1
102
RTVSPropertyOp29
 70
     1
102
RTVSPropertyOp30
 70
     1
102
RTVSPropertyOp31
 70
     1
102
RTVSPropertyOp32
 70
     1
102
RTVSPropertyOp33
 70
     1
102
RTVSPropertyOp34
 70
     1
102
RTVSPropertyOp35
 70
     1
102
RTVSPropertyOp36
 70
     1
102
RTVSPropertyOp37
 70
     1
102
RTVSPropertyOp38
 70
     1
102
RTVSPropertyOp39
 70
     1
102
RTVSPropertyOp40
 70
     1
102
RTVSPropertyOp41
 70
     1
102
RTVSPropertyOp42
 70
     1
102
RTVSPropertyOp43
 70
     1
102
RTVSPropertyOp44
 70
     1
102
RTVSPropertyOp45
 70
     1
102
RTVSPropertyOp46
 70
     1
102
RTVSPropertyOp47
 70
     1
102
RTVSPropertyOp48
 70
     1
102
RTVSPropertyOp49
 70
     1
102
RTVSPropertyOp50
 70
     1
102
RTVSPropertyOp51
 70
     0
102
RTVSPropertyOp52
 70
     0
102
RTVSPropertyOp53
 70
     1
102
RTVSPropertyOp54
 70
     1
102
RTVSPropertyOp55
 70
     1
102
RTVSPropertyOp56
 70
     1
102
RTVSPropertyOp57
 70
     1
102
RTVSPost2010Prop28
280
     0
102
RTVSPost2010PropOp28
 70
     1
102
RTVSPost2010Prop29
280
     1
102
RTVSPost2010PropOp29
 70
     1
102
RTVSPost2010Prop30
280
     1
102
RTVSPost2010PropOp30
 70
     1
102
RTVSPost2010Prop31
280
     0
102
RTVSPost2010PropOp31
 70
     1
102
RTVSPost2010Prop32
280
     0
102
RTVSPost2010PropOp32
 70
     1
102
RTVSPost2010Prop33
280
     0
102
RTVSPost2010PropOp33
 70
     1
102
RTVSPost2010Prop34
280
     0
102
RTVSPost2010PropOp34
 70
     1
102
RTVSPost2010Prop35
280
     0
102
RTVSPost2010PropOp35
 70
     1
102
RTVSPost2010Prop36
280
     0
102
RTVSPost2010PropOp36
 70
     1
102
RTVSPost2010Prop37
 90
       50
102
RTVSPost2010PropOp37
 70
     1
102
RTVSPost2010Prop38
140
0.0
102
RTVSPost2010PropOp38
 70
     1
102
RTVSPost2010Prop39
140
1.0
102
RTVSPost2010PropOp39
 70
     1
102
RTVSPost2010Prop40
 90
        0
102
RTVSPost2010PropOp40
 70
     1
102
RTVSPost2010Prop41ColorIndex
 90
       18
102
RTVSPost2010Prop41ColorRGB
 90
        0
102
RTVSPost2010PropOp41
 70
     1
102
RTVSPost2010Prop42
 90
       50
102
RTVSPost2010PropOp42
 70
     1
102
RTVSPost2010Prop43
 90
        3
102
RTVSPost2010PropOp43
 70
     1
102
RTVSPost2010Prop44ColorIndex
 90
        5
102
RTVSPost2010Prop44ColorRGB
 90
      255
102
RTVSPost2010PropOp44
 70
     1
102
RTVSPost2010Prop45
280
     0
102
RTVSPost2010PropOp45
 70
     1
102
RTVSPost2010Prop46
 90
       50
102
RTVSPost2010PropOp46
 70
     1
102
RTVSPost2010Prop47
 90
       50
102
RTVSPost2010PropOp47
 70
     1
102
RTVSPost2010Prop48
 90
       50
102
RTVSPost2010PropOp48
 70
     1
102
RTVSPost2010Prop49
280
     0
102
RTVSPost2010PropOp49
 70
     1
102
RTVSPost2010Prop50
 90
       50
102
RTVSPost2010PropOp50
 70
     1
102
RTVSPost2010Prop51ColorIndex
 90
      256
102
RTVSPost2010Prop51ColorRGB
 90
-16777216
102
RTVSPost2010PropOp51
 70
     0
102
RTVSPost2010Prop52
140
1.0
102
RTVSPost2010PropOp52
 70
     0
102
RTVSPost2010Prop53
 90
        2
102
RTVSPost2010PropOp53
 70
     1
102
RTVSPost2010Prop54
  1
strokes_ogs.tif
102
RTVSPost2010PropOp54
 70
     1
102
RTVSPost2010Prop55
280
     0
102
RTVSPost2010PropOp55
 70
     1
102
RTVSPost2010Prop56
140
1.0
102
RTVSPost2010PropOp56
 70
     1
102
RTVSPost2010Prop57
140
1.0
102
RTVSPost2010PropOp57
 70
     1
  0
XRECORD
  5
5F7
102
{ACAD_REACTORS
330
5F6
102
}
330
5F6
100
AcDbXrecord
280
     1
102
RTVSPropertyOp0
 70
     0
102
RTVSPropertyOp1
 70
     0
102
RTVSPropertyOp2
 70
     0
102
RTVSPropertyOp3
 70
     0
102
RTVSPropertyOp4
 70
     0
102
RTVSPropertyOp5
 70
     0
102
RTVSPropertyOp6
 70
     0
102
RTVSPropertyOp7
 70
     0
102
RTVSPropertyOp8
 70
     0
102
RTVSPropertyOp9
 70
     0
102
RTVSPropertyOp10
 70
     0
102
RTVSPropertyOp11
 70
     0
102
RTVSPropertyOp12
 70
     0
102
RTVSPropertyOp13
 70
     0
102
RTVSPropertyOp14
 70
     0
102
RTVSPropertyOp15
 70
     0
102
RTVSPropertyOp16
 70
     0
102
RTVSPropertyOp17
 70
     0
102
RTVSPropertyOp18
 70
     0
102
RTVSPropertyOp19
 70
     0
102
RTVSPropertyOp20
 70
     0
102
RTVSPropertyOp21
 70
     0
102
RTVSPropertyOp22
 70
     0
102
RTVSPropertyOp23
 70
     0
102
RTVSPropertyOp24
 70
     0
102
RTVSPropertyOp25
 70
     0
102
RTVSPropertyOp26
 70
     0
102
RTVSPropertyOp27
 70
     0
102
RTVSPropertyOp28
 70
     1
102
RTVSPropertyOp29
 70
     1
102
RTVSPropertyOp30
 70
     1
102
RTVSPropertyOp31
 70
     1
102
RTVSPropertyOp32
 70
     1
102
RTVSPropertyOp33
 70
     1
102
RTVSPropertyOp34
 70
     1
102
RTVSPropertyOp35
 70
     1
102
RTVSPropertyOp36
 70
     1
102
RTVSPropertyOp37
 70
     1
102
RTVSPropertyOp38
 70
     1
102
RTVSPropertyOp39
 70
     1
102
RTVSPropertyOp40
 70
     1
102
RTVSPropertyOp41
 70
     1
102
RTVSPropertyOp42
 70
     1
102
RTVSPropertyOp43
 70
     1
102
RTVSPropertyOp44
 70
     1
102
RTVSPropertyOp45
 70
     1
102
RTVSPropertyOp46
 70
     1
102
RTVSPropertyOp47
 70
     1
102
RTVSPropertyOp48
 70
     1
102
RTVSPropertyOp49
 70
     1
102
RTVSPropertyOp50
 70
     1
102
RTVSPropertyOp51
 70
     0
102
RTVSPropertyOp52
 70
     0
102
RTVSPropertyOp53
 70
     1
102
RTVSPropertyOp54
 70
     1
102
RTVSPropertyOp55
 70
     1
102
RTVSPropertyOp56
 70
     1
102
RTVSPropertyOp57
 70
     1
102
RTVSPost2010Prop28
280
     0
102
RTVSPost2010PropOp28
 70
     1
102
RTVSPost2010Prop29
280
     1
102
RTVSPost2010PropOp29
 70
     1
102
RTVSPost2010Prop30
280
     1
102
RTVSPost2010PropOp30
 70
     1
102
RTVSPost2010Prop31
280
     0
102
RTVSPost2010PropOp31
 70
     1
102
RTVSPost2010Prop32
280
     0
102
RTVSPost2010PropOp32
 70
     1
102
RTVSPost2010Prop33
280
     0
102
RTVSPost2010PropOp33
 70
     1
102
RTVSPost2010Prop34
280
     0
102
RTVSPost2010PropOp34
 70
     1
102
RTVSPost2010Prop35
280
     0
102
RTVSPost2010PropOp35
 70
     1
102
RTVSPost2010Prop36
280
     0
102
RTVSPost2010PropOp36
 70
     1
102
RTVSPost2010Prop37
 90
       50
102
RTVSPost2010PropOp37
 70
     1
102
RTVSPost2010Prop38
140
0.0
102
RTVSPost2010PropOp38
 70
     1
102
RTVSPost2010Prop39
140
1.0
102
RTVSPost2010PropOp39
 70
     1
102
RTVSPost2010Prop40
 90
        0
102
RTVSPost2010PropOp40
 70
     1
102
RTVSPost2010Prop41ColorIndex
 90
       18
102
RTVSPost2010Prop41ColorRGB
 90
        0
102
RTVSPost2010PropOp41
 70
     1
102
RTVSPost2010Prop42
 90
       50
102
RTVSPost2010PropOp42
 70
     1
102
RTVSPost2010Prop43
 90
        3
102
RTVSPost2010PropOp43
 70
     1
102
RTVSPost2010Prop44ColorIndex
 90
        5
102
RTVSPost2010Prop44ColorRGB
 90
      255
102
RTVSPost2010PropOp44
 70
     1
102
RTVSPost2010Prop45
280
     0
102
RTVSPost2010PropOp45
 70
     1
102
RTVSPost2010Prop46
 90
       50
102
RTVSPost2010PropOp46
 70
     1
102
RTVSPost2010Prop47
 90
       50
102
RTVSPost2010PropOp47
 70
     1
102
RTVSPost2010Prop48
 90
       50
102
RTVSPost2010PropOp48
 70
     1
102
RTVSPost2010Prop49
280
     0
102
RTVSPost2010PropOp49
 70
     1
102
RTVSPost2010Prop50
 90
       50
102
RTVSPost2010PropOp50
 70
     1
102
RTVSPost2010Prop51ColorIndex
 90
      256
102
RTVSPost2010Prop51ColorRGB
 90
-16777216
102
RTVSPost2010PropOp51
 70
     0
102
RTVSPost2010Prop52
140
1.0
102
RTVSPost2010PropOp52
 70
     0
102
RTVSPost2010Prop53
 90
        2
102
RTVSPost2010PropOp53
 70
     1
102
RTVSPost2010Prop54
  1
strokes_ogs.tif
102
RTVSPost2010PropOp54
 70
     1
102
RTVSPost2010Prop55
280
     0
102
RTVSPost2010PropOp55
 70
     1
102
RTVSPost2010Prop56
140
1.0
102
RTVSPost2010PropOp56
 70
     1
102
RTVSPost2010Prop57
140
1.0
102
RTVSPost2010PropOp57
 70
     1
  0
XRECORD
  5
5E5
102
{ACAD_REACTORS
330
5E4
102
}
330
5E4
100
AcDbXrecord
280
     1
102
RTVSPropertyOp0
 70
     1
102
RTVSPropertyOp1
 70
     1
102
RTVSPropertyOp2
 70
     1
102
RTVSPropertyOp3
 70
     1
102
RTVSPropertyOp4
 70
     1
102
RTVSPropertyOp5
 70
     1
102
RTVSPropertyOp6
 70
     1
102
RTVSPropertyOp7
 70
     1
102
RTVSPropertyOp8
 70
     1
102
RTVSPropertyOp9
 70
     1
102
RTVSPropertyOp10
 70
     1
102
RTVSPropertyOp11
 70
     1
102
RTVSPropertyOp12
 70
     1
102
RTVSPropertyOp13
 70
     1
102
RTVSPropertyOp14
 70
     1
102
RTVSPropertyOp15
 70
     1
102
RTVSPropertyOp16
 70
     1
102
RTVSPropertyOp17
 70
     1
102
RTVSPropertyOp18
 70
     1
102
RTVSPropertyOp19
 70
     1
102
RTVSPropertyOp20
 70
     1
102
RTVSPropertyOp21
 70
     1
102
RTVSPropertyOp22
 70
     1
102
RTVSPropertyOp23
 70
     1
102
RTVSPropertyOp24
 70
     1
102
RTVSPropertyOp25
 70
     1
102
RTVSPropertyOp26
 70
     1
102
RTVSPropertyOp27
 70
     1
102
RTVSPropertyOp28
 70
     1
102
RTVSPropertyOp29
 70
     1
102
RTVSPropertyOp30
 70
     1
102
RTVSPropertyOp31
 70
     1
102
RTVSPropertyOp32
 70
     1
102
RTVSPropertyOp33
 70
     1
102
RTVSPropertyOp34
 70
     1
102
RTVSPropertyOp35
 70
     1
102
RTVSPropertyOp36
 70
     1
102
RTVSPropertyOp37
 70
     1
102
RTVSPropertyOp38
 70
     1
102
RTVSPropertyOp39
 70
     1
102
RTVSPropertyOp40
 70
     1
102
RTVSPropertyOp41
 70
     1
102
RTVSPropertyOp42
 70
     1
102
RTVSPropertyOp43
 70
     1
102
RTVSPropertyOp44
 70
     1
102
RTVSPropertyOp45
 70
     1
102
RTVSPropertyOp46
 70
     1
102
RTVSPropertyOp47
 70
     1
102
RTVSPropertyOp48
 70
     1
102
RTVSPropertyOp49
 70
     1
102
RTVSPropertyOp50
 70
     1
102
RTVSPropertyOp51
 70
     0
102
RTVSPropertyOp52
 70
     0
102
RTVSPropertyOp53
 70
     1
102
RTVSPropertyOp54
 70
     1
102
RTVSPropertyOp55
 70
     1
102
RTVSPropertyOp56
 70
     1
102
RTVSPropertyOp57
 70
     1
102
RTVSPost2010Prop28
280
     0
102
RTVSPost2010PropOp28
 70
     1
102
RTVSPost2010Prop29
280
     1
102
RTVSPost2010PropOp29
 70
     1
102
RTVSPost2010Prop30
280
     1
102
RTVSPost2010PropOp30
 70
     1
102
RTVSPost2010Prop31
280
     0
102
RTVSPost2010PropOp31
 70
     1
102
RTVSPost2010Prop32
280
     0
102
RTVSPost2010PropOp32
 70
     1
102
RTVSPost2010Prop33
280
     0
102
RTVSPost2010PropOp33
 70
     1
102
RTVSPost2010Prop34
280
     0
102
RTVSPost2010PropOp34
 70
     1
102
RTVSPost2010Prop35
280
     0
102
RTVSPost2010PropOp35
 70
     1
102
RTVSPost2010Prop36
280
     0
102
RTVSPost2010PropOp36
 70
     1
102
RTVSPost2010Prop37
 90
       50
102
RTVSPost2010PropOp37
 70
     1
102
RTVSPost2010Prop38
140
0.0
102
RTVSPost2010PropOp38
 70
     1
102
RTVSPost2010Prop39
140
1.0
102
RTVSPost2010PropOp39
 70
     1
102
RTVSPost2010Prop40
 90
        0
102
RTVSPost2010PropOp40
 70
     1
102
RTVSPost2010Prop41ColorIndex
 90
       18
102
RTVSPost2010Prop41ColorRGB
 90
        0
102
RTVSPost2010PropOp41
 70
     1
102
RTVSPost2010Prop42
 90
       50
102
RTVSPost2010PropOp42
 70
     1
102
RTVSPost2010Prop43
 90
        3
102
RTVSPost2010PropOp43
 70
     1
102
RTVSPost2010Prop44ColorIndex
 90
        5
102
RTVSPost2010Prop44ColorRGB
 90
      255
102
RTVSPost2010PropOp44
 70
     1
102
RTVSPost2010Prop45
280
     0
102
RTVSPost2010PropOp45
 70
     1
102
RTVSPost2010Prop46
 90
       50
102
RTVSPost2010PropOp46
 70
     1
102
RTVSPost2010Prop47
 90
       50
102
RTVSPost2010PropOp47
 70
     1
102
RTVSPost2010Prop48
 90
       50
102
RTVSPost2010PropOp48
 70
     1
102
RTVSPost2010Prop49
280
     0
102
RTVSPost2010PropOp49
 70
     1
102
RTVSPost2010Prop50
 90
       50
102
RTVSPost2010PropOp50
 70
     1
102
RTVSPost2010Prop51ColorIndex
 90
      256
102
RTVSPost2010Prop51ColorRGB
 90
-16777216
102
RTVSPost2010PropOp51
 70
     0
102
RTVSPost2010Prop52
140
1.0
102
RTVSPost2010PropOp52
 70
     0
102
RTVSPost2010Prop53
 90
        2
102
RTVSPost2010PropOp53
 70
     1
102
RTVSPost2010Prop54
  1
strokes_ogs.tif
102
RTVSPost2010PropOp54
 70
     1
102
RTVSPost2010Prop55
280
     0
102
RTVSPost2010PropOp55
 70
     1
102
RTVSPost2010Prop56
140
1.0
102
RTVSPost2010PropOp56
 70
     1
102
RTVSPost2010Prop57
140
1.0
102
RTVSPost2010PropOp57
 70
     1
  0
XRECORD
  5
603
102
{ACAD_REACTORS
330
602
102
}
330
602
100
AcDbXrecord
280
     1
102
RTVSPropertyOp0
 70
     1
102
RTVSPropertyOp1
 70
     1
102
RTVSPropertyOp2
 70
     1
102
RTVSPropertyOp3
 70
     1
102
RTVSPropertyOp4
 70
     1
102
RTVSPropertyOp5
 70
     1
102
RTVSPropertyOp6
 70
     1
102
RTVSPropertyOp7
 70
     1
102
RTVSPropertyOp8
 70
     1
102
RTVSPropertyOp9
 70
     1
102
RTVSPropertyOp10
 70
     1
102
RTVSPropertyOp11
 70
     1
102
RTVSPropertyOp12
 70
     1
102
RTVSPropertyOp13
 70
     1
102
RTVSPropertyOp14
 70
     1
102
RTVSPropertyOp15
 70
     1
102
RTVSPropertyOp16
 70
     1
102
RTVSPropertyOp17
 70
     1
102
RTVSPropertyOp18
 70
     1
102
RTVSPropertyOp19
 70
     1
102
RTVSPropertyOp20
 70
     1
102
RTVSPropertyOp21
 70
     1
102
RTVSPropertyOp22
 70
     1
102
RTVSPropertyOp23
 70
     1
102
RTVSPropertyOp24
 70
     1
102
RTVSPropertyOp25
 70
     1
102
RTVSPropertyOp26
 70
     1
102
RTVSPropertyOp27
 70
     1
102
RTVSPropertyOp28
 70
     1
102
RTVSPropertyOp29
 70
     1
102
RTVSPropertyOp30
 70
     1
102
RTVSPropertyOp31
 70
     1
102
RTVSPropertyOp32
 70
     1
102
RTVSPropertyOp33
 70
     1
102
RTVSPropertyOp34
 70
     1
102
RTVSPropertyOp35
 70
     1
102
RTVSPropertyOp36
 70
     1
102
RTVSPropertyOp37
 70
     1
102
RTVSPropertyOp38
 70
     1
102
RTVSPropertyOp39
 70
     1
102
RTVSPropertyOp40
 70
     1
102
RTVSPropertyOp41
 70
     1
102
RTVSPropertyOp42
 70
     1
102
RTVSPropertyOp43
 70
     1
102
RTVSPropertyOp44
 70
     1
102
RTVSPropertyOp45
 70
     1
102
RTVSPropertyOp46
 70
     1
102
RTVSPropertyOp47
 70
     1
102
RTVSPropertyOp48
 70
     1
102
RTVSPropertyOp49
 70
     1
102
RTVSPropertyOp50
 70
     1
102
RTVSPropertyOp51
 70
     0
102
RTVSPropertyOp52
 70
     0
102
RTVSPropertyOp53
 70
     1
102
RTVSPropertyOp54
 70
     1
102
RTVSPropertyOp55
 70
     1
102
RTVSPropertyOp56
 70
     1
102
RTVSPropertyOp57
 70
     1
102
RTVSPost2010Prop28
280
     0
102
RTVSPost2010PropOp28
 70
     1
102
RTVSPost2010Prop29
280
     1
102
RTVSPost2010PropOp29
 70
     1
102
RTVSPost2010Prop30
280
     1
102
RTVSPost2010PropOp30
 70
     1
102
RTVSPost2010Prop31
280
     0
102
RTVSPost2010PropOp31
 70
     1
102
RTVSPost2010Prop32
280
     0
102
RTVSPost2010PropOp32
 70
     1
102
RTVSPost2010Prop33
280
     0
102
RTVSPost2010PropOp33
 70
     1
102
RTVSPost2010Prop34
280
     0
102
RTVSPost2010PropOp34
 70
     1
102
RTVSPost2010Prop35
280
     0
102
RTVSPost2010PropOp35
 70
     1
102
RTVSPost2010Prop36
280
     0
102
RTVSPost2010PropOp36
 70
     1
102
RTVSPost2010Prop37
 90
       50
102
RTVSPost2010PropOp37
 70
     1
102
RTVSPost2010Prop38
140
0.0
102
RTVSPost2010PropOp38
 70
     1
102
RTVSPost2010Prop39
140
1.0
102
RTVSPost2010PropOp39
 70
     1
102
RTVSPost2010Prop40
 90
        0
102
RTVSPost2010PropOp40
 70
     1
102
RTVSPost2010Prop41ColorIndex
 90
       18
102
RTVSPost2010Prop41ColorRGB
 90
        0
102
RTVSPost2010PropOp41
 70
     1
102
RTVSPost2010Prop42
 90
       50
102
RTVSPost2010PropOp42
 70
     1
102
RTVSPost2010Prop43
 90
        3
102
RTVSPost2010PropOp43
 70
     1
102
RTVSPost2010Prop44ColorIndex
 90
        5
102
RTVSPost2010Prop44ColorRGB
 90
      255
102
RTVSPost2010PropOp44
 70
     1
102
RTVSPost2010Prop45
280
     0
102
RTVSPost2010PropOp45
 70
     1
102
RTVSPost2010Prop46
 90
       50
102
RTVSPost2010PropOp46
 70
     1
102
RTVSPost2010Prop47
 90
       50
102
RTVSPost2010PropOp47
 70
     1
102
RTVSPost2010Prop48
 90
       50
102
RTVSPost2010PropOp48
 70
     1
102
RTVSPost2010Prop49
280
     0
102
RTVSPost2010PropOp49
 70
     1
102
RTVSPost2010Prop50
 90
       50
102
RTVSPost2010PropOp50
 70
     1
102
RTVSPost2010Prop51ColorIndex
 90
      256
102
RTVSPost2010Prop51ColorRGB
 90
-16777216
102
RTVSPost2010PropOp51
 70
     0
102
RTVSPost2010Prop52
140
1.0
102
RTVSPost2010PropOp52
 70
     0
102
RTVSPost2010Prop53
 90
        2
102
RTVSPost2010PropOp53
 70
     1
102
RTVSPost2010Prop54
  1
strokes_ogs.tif
102
RTVSPost2010PropOp54
 70
     1
102
RTVSPost2010Prop55
280
     0
102
RTVSPost2010PropOp55
 70
     1
102
RTVSPost2010Prop56
140
1.0
102
RTVSPost2010PropOp56
 70
     1
102
RTVSPost2010Prop57
140
1.0
102
RTVSPost2010PropOp57
 70
     1
  0
XRECORD
  5
601
102
{ACAD_REACTORS
330
600
102
}
330
600
100
AcDbXrecord
280
     1
102
RTVSPropertyOp0
 70
     1
102
RTVSPropertyOp1
 70
     1
102
RTVSPropertyOp2
 70
     1
102
RTVSPropertyOp3
 70
     1
102
RTVSPropertyOp4
 70
     1
102
RTVSPropertyOp5
 70
     1
102
RTVSPropertyOp6
 70
     1
102
RTVSPropertyOp7
 70
     1
102
RTVSPropertyOp8
 70
     1
102
RTVSPropertyOp9
 70
     1
102
RTVSPropertyOp10
 70
     1
102
RTVSPropertyOp11
 70
     1
102
RTVSPropertyOp12
 70
     1
102
RTVSPropertyOp13
 70
     1
102
RTVSPropertyOp14
 70
     1
102
RTVSPropertyOp15
 70
     1
102
RTVSPropertyOp16
 70
     1
102
RTVSPropertyOp17
 70
     1
102
RTVSPropertyOp18
 70
     1
102
RTVSPropertyOp19
 70
     1
102
RTVSPropertyOp20
 70
     1
102
RTVSPropertyOp21
 70
     1
102
RTVSPropertyOp22
 70
     1
102
RTVSPropertyOp23
 70
     1
102
RTVSPropertyOp24
 70
     1
102
RTVSPropertyOp25
 70
     1
102
RTVSPropertyOp26
 70
     1
102
RTVSPropertyOp27
 70
     1
102
RTVSPropertyOp28
 70
     1
102
RTVSPropertyOp29
 70
     1
102
RTVSPropertyOp30
 70
     1
102
RTVSPropertyOp31
 70
     1
102
RTVSPropertyOp32
 70
     1
102
RTVSPropertyOp33
 70
     1
102
RTVSPropertyOp34
 70
     1
102
RTVSPropertyOp35
 70
     1
102
RTVSPropertyOp36
 70
     1
102
RTVSPropertyOp37
 70
     1
102
RTVSPropertyOp38
 70
     1
102
RTVSPropertyOp39
 70
     1
102
RTVSPropertyOp40
 70
     1
102
RTVSPropertyOp41
 70
     1
102
RTVSPropertyOp42
 70
     1
102
RTVSPropertyOp43
 70
     1
102
RTVSPropertyOp44
 70
     1
102
RTVSPropertyOp45
 70
     1
102
RTVSPropertyOp46
 70
     1
102
RTVSPropertyOp47
 70
     1
102
RTVSPropertyOp48
 70
     1
102
RTVSPropertyOp49
 70
     1
102
RTVSPropertyOp50
 70
     1
102
RTVSPropertyOp51
 70
     0
102
RTVSPropertyOp52
 70
     0
102
RTVSPropertyOp53
 70
     1
102
RTVSPropertyOp54
 70
     1
102
RTVSPropertyOp55
 70
     1
102
RTVSPropertyOp56
 70
     1
102
RTVSPropertyOp57
 70
     1
102
RTVSPost2010Prop28
280
     0
102
RTVSPost2010PropOp28
 70
     1
102
RTVSPost2010Prop29
280
     1
102
RTVSPost2010PropOp29
 70
     1
102
RTVSPost2010Prop30
280
     1
102
RTVSPost2010PropOp30
 70
     1
102
RTVSPost2010Prop31
280
     0
102
RTVSPost2010PropOp31
 70
     1
102
RTVSPost2010Prop32
280
     0
102
RTVSPost2010PropOp32
 70
     1
102
RTVSPost2010Prop33
280
     0
102
RTVSPost2010PropOp33
 70
     1
102
RTVSPost2010Prop34
280
     0
102
RTVSPost2010PropOp34
 70
     1
102
RTVSPost2010Prop35
280
     0
102
RTVSPost2010PropOp35
 70
     1
102
RTVSPost2010Prop36
280
     0
102
RTVSPost2010PropOp36
 70
     1
102
RTVSPost2010Prop37
 90
       50
102
RTVSPost2010PropOp37
 70
     1
102
RTVSPost2010Prop38
140
0.0
102
RTVSPost2010PropOp38
 70
     1
102
RTVSPost2010Prop39
140
1.0
102
RTVSPost2010PropOp39
 70
     1
102
RTVSPost2010Prop40
 90
        0
102
RTVSPost2010PropOp40
 70
     1
102
RTVSPost2010Prop41ColorIndex
 90
       18
102
RTVSPost2010Prop41ColorRGB
 90
        0
102
RTVSPost2010PropOp41
 70
     1
102
RTVSPost2010Prop42
 90
       50
102
RTVSPost2010PropOp42
 70
     1
102
RTVSPost2010Prop43
 90
        3
102
RTVSPost2010PropOp43
 70
     1
102
RTVSPost2010Prop44ColorIndex
 90
        5
102
RTVSPost2010Prop44ColorRGB
 90
      255
102
RTVSPost2010PropOp44
 70
     1
102
RTVSPost2010Prop45
280
     0
102
RTVSPost2010PropOp45
 70
     1
102
RTVSPost2010Prop46
 90
       50
102
RTVSPost2010PropOp46
 70
     1
102
RTVSPost2010Prop47
 90
       50
102
RTVSPost2010PropOp47
 70
     1
102
RTVSPost2010Prop48
 90
       50
102
RTVSPost2010PropOp48
 70
     1
102
RTVSPost2010Prop49
280
     0
102
RTVSPost2010PropOp49
 70
     1
102
RTVSPost2010Prop50
 90
       50
102
RTVSPost2010PropOp50
 70
     1
102
RTVSPost2010Prop51ColorIndex
 90
      256
102
RTVSPost2010Prop51ColorRGB
 90
-16777216
102
RTVSPost2010PropOp51
 70
     0
102
RTVSPost2010Prop52
140
1.0
102
RTVSPost2010PropOp52
 70
     0
102
RTVSPost2010Prop53
 90
        2
102
RTVSPost2010PropOp53
 70
     1
102
RTVSPost2010Prop54
  1
strokes_ogs.tif
102
RTVSPost2010PropOp54
 70
     1
102
RTVSPost2010Prop55
280
     0
102
RTVSPost2010PropOp55
 70
     1
102
RTVSPost2010Prop56
140
1.0
102
RTVSPost2010PropOp56
 70
     1
102
RTVSPost2010Prop57
140
1.0
102
RTVSPost2010PropOp57
 70
     1
  0
XRECORD
  5
5FB
102
{ACAD_REACTORS
330
5FA
102
}
330
5FA
100
AcDbXrecord
280
     1
102
RTVSPropertyOp0
 70
     1
102
RTVSPropertyOp1
 70
     1
102
RTVSPropertyOp2
 70
     1
102
RTVSPropertyOp3
 70
     1
102
RTVSPropertyOp4
 70
     1
102
RTVSPropertyOp5
 70
     1
102
RTVSPropertyOp6
 70
     1
102
RTVSPropertyOp7
 70
     1
102
RTVSPropertyOp8
 70
     1
102
RTVSPropertyOp9
 70
     1
102
RTVSPropertyOp10
 70
     1
102
RTVSPropertyOp11
 70
     1
102
RTVSPropertyOp12
 70
     1
102
RTVSPropertyOp13
 70
     1
102
RTVSPropertyOp14
 70
     1
102
RTVSPropertyOp15
 70
     1
102
RTVSPropertyOp16
 70
     1
102
RTVSPropertyOp17
 70
     1
102
RTVSPropertyOp18
 70
     1
102
RTVSPropertyOp19
 70
     1
102
RTVSPropertyOp20
 70
     1
102
RTVSPropertyOp21
 70
     1
102
RTVSPropertyOp22
 70
     1
102
RTVSPropertyOp23
 70
     1
102
RTVSPropertyOp24
 70
     1
102
RTVSPropertyOp25
 70
     1
102
RTVSPropertyOp26
 70
     1
102
RTVSPropertyOp27
 70
     1
102
RTVSPropertyOp28
 70
     1
102
RTVSPropertyOp29
 70
     1
102
RTVSPropertyOp30
 70
     1
102
RTVSPropertyOp31
 70
     1
102
RTVSPropertyOp32
 70
     1
102
RTVSPropertyOp33
 70
     1
102
RTVSPropertyOp34
 70
     1
102
RTVSPropertyOp35
 70
     1
102
RTVSPropertyOp36
 70
     1
102
RTVSPropertyOp37
 70
     1
102
RTVSPropertyOp38
 70
     1
102
RTVSPropertyOp39
 70
     1
102
RTVSPropertyOp40
 70
     1
102
RTVSPropertyOp41
 70
     1
102
RTVSPropertyOp42
 70
     1
102
RTVSPropertyOp43
 70
     1
102
RTVSPropertyOp44
 70
     1
102
RTVSPropertyOp45
 70
     1
102
RTVSPropertyOp46
 70
     1
102
RTVSPropertyOp47
 70
     1
102
RTVSPropertyOp48
 70
     1
102
RTVSPropertyOp49
 70
     1
102
RTVSPropertyOp50
 70
     1
102
RTVSPropertyOp51
 70
     0
102
RTVSPropertyOp52
 70
     0
102
RTVSPropertyOp53
 70
     1
102
RTVSPropertyOp54
 70
     1
102
RTVSPropertyOp55
 70
     1
102
RTVSPropertyOp56
 70
     1
102
RTVSPropertyOp57
 70
     1
102
RTVSPost2010Prop28
280
     0
102
RTVSPost2010PropOp28
 70
     1
102
RTVSPost2010Prop29
280
     1
102
RTVSPost2010PropOp29
 70
     1
102
RTVSPost2010Prop30
280
     1
102
RTVSPost2010PropOp30
 70
     1
102
RTVSPost2010Prop31
280
     0
102
RTVSPost2010PropOp31
 70
     1
102
RTVSPost2010Prop32
280
     0
102
RTVSPost2010PropOp32
 70
     1
102
RTVSPost2010Prop33
280
     0
102
RTVSPost2010PropOp33
 70
     1
102
RTVSPost2010Prop34
280
     0
102
RTVSPost2010PropOp34
 70
     1
102
RTVSPost2010Prop35
280
     0
102
RTVSPost2010PropOp35
 70
     1
102
RTVSPost2010Prop36
280
     0
102
RTVSPost2010PropOp36
 70
     1
102
RTVSPost2010Prop37
 90
       50
102
RTVSPost2010PropOp37
 70
     1
102
RTVSPost2010Prop38
140
0.0
102
RTVSPost2010PropOp38
 70
     1
102
RTVSPost2010Prop39
140
1.0
102
RTVSPost2010PropOp39
 70
     1
102
RTVSPost2010Prop40
 90
        0
102
RTVSPost2010PropOp40
 70
     1
102
RTVSPost2010Prop41ColorIndex
 90
       18
102
RTVSPost2010Prop41ColorRGB
 90
        0
102
RTVSPost2010PropOp41
 70
     1
102
RTVSPost2010Prop42
 90
       50
102
RTVSPost2010PropOp42
 70
     1
102
RTVSPost2010Prop43
 90
        3
102
RTVSPost2010PropOp43
 70
     1
102
RTVSPost2010Prop44ColorIndex
 90
        5
102
RTVSPost2010Prop44ColorRGB
 90
      255
102
RTVSPost2010PropOp44
 70
     1
102
RTVSPost2010Prop45
280
     0
102
RTVSPost2010PropOp45
 70
     1
102
RTVSPost2010Prop46
 90
       50
102
RTVSPost2010PropOp46
 70
     1
102
RTVSPost2010Prop47
 90
       50
102
RTVSPost2010PropOp47
 70
     1
102
RTVSPost2010Prop48
 90
       50
102
RTVSPost2010PropOp48
 70
     1
102
RTVSPost2010Prop49
280
     0
102
RTVSPost2010PropOp49
 70
     1
102
RTVSPost2010Prop50
 90
       50
102
RTVSPost2010PropOp50
 70
     1
102
RTVSPost2010Prop51ColorIndex
 90
      256
102
RTVSPost2010Prop51ColorRGB
 90
-16777216
102
RTVSPost2010PropOp51
 70
     0
102
RTVSPost2010Prop52
140
1.0
102
RTVSPost2010PropOp52
 70
     0
102
RTVSPost2010Prop53
 90
        2
102
RTVSPost2010PropOp53
 70
     1
102
RTVSPost2010Prop54
  1
strokes_ogs.tif
102
RTVSPost2010PropOp54
 70
     1
102
RTVSPost2010Prop55
280
     0
102
RTVSPost2010PropOp55
 70
     1
102
RTVSPost2010Prop56
140
1.0
102
RTVSPost2010PropOp56
 70
     1
102
RTVSPost2010Prop57
140
1.0
102
RTVSPost2010PropOp57
 70
     1
  0
XRECORD
  5
5FD
102
{ACAD_REACTORS
330
5FC
102
}
330
5FC
100
AcDbXrecord
280
     1
102
RTVSPropertyOp0
 70
     1
102
RTVSPropertyOp1
 70
     1
102
RTVSPropertyOp2
 70
     1
102
RTVSPropertyOp3
 70
     1
102
RTVSPropertyOp4
 70
     1
102
RTVSPropertyOp5
 70
     1
102
RTVSPropertyOp6
 70
     1
102
RTVSPropertyOp7
 70
     1
102
RTVSPropertyOp8
 70
     1
102
RTVSPropertyOp9
 70
     1
102
RTVSPropertyOp10
 70
     1
102
RTVSPropertyOp11
 70
     1
102
RTVSPropertyOp12
 70
     1
102
RTVSPropertyOp13
 70
     1
102
RTVSPropertyOp14
 70
     1
102
RTVSPropertyOp15
 70
     1
102
RTVSPropertyOp16
 70
     1
102
RTVSPropertyOp17
 70
     1
102
RTVSPropertyOp18
 70
     1
102
RTVSPropertyOp19
 70
     1
102
RTVSPropertyOp20
 70
     1
102
RTVSPropertyOp21
 70
     1
102
RTVSPropertyOp22
 70
     1
102
RTVSPropertyOp23
 70
     1
102
RTVSPropertyOp24
 70
     1
102
RTVSPropertyOp25
 70
     1
102
RTVSPropertyOp26
 70
     1
102
RTVSPropertyOp27
 70
     1
102
RTVSPropertyOp28
 70
     1
102
RTVSPropertyOp29
 70
     1
102
RTVSPropertyOp30
 70
     1
102
RTVSPropertyOp31
 70
     1
102
RTVSPropertyOp32
 70
     1
102
RTVSPropertyOp33
 70
     1
102
RTVSPropertyOp34
 70
     1
102
RTVSPropertyOp35
 70
     1
102
RTVSPropertyOp36
 70
     1
102
RTVSPropertyOp37
 70
     1
102
RTVSPropertyOp38
 70
     1
102
RTVSPropertyOp39
 70
     1
102
RTVSPropertyOp40
 70
     1
102
RTVSPropertyOp41
 70
     1
102
RTVSPropertyOp42
 70
     1
102
RTVSPropertyOp43
 70
     1
102
RTVSPropertyOp44
 70
     1
102
RTVSPropertyOp45
 70
     1
102
RTVSPropertyOp46
 70
     1
102
RTVSPropertyOp47
 70
     1
102
RTVSPropertyOp48
 70
     1
102
RTVSPropertyOp49
 70
     1
102
RTVSPropertyOp50
 70
     1
102
RTVSPropertyOp51
 70
     0
102
RTVSPropertyOp52
 70
     0
102
RTVSPropertyOp53
 70
     1
102
RTVSPropertyOp54
 70
     1
102
RTVSPropertyOp55
 70
     1
102
RTVSPropertyOp56
 70
     1
102
RTVSPropertyOp57
 70
     1
102
RTVSPost2010Prop28
280
     0
102
RTVSPost2010PropOp28
 70
     1
102
RTVSPost2010Prop29
280
     1
102
RTVSPost2010PropOp29
 70
     1
102
RTVSPost2010Prop30
280
     1
102
RTVSPost2010PropOp30
 70
     1
102
RTVSPost2010Prop31
280
     0
102
RTVSPost2010PropOp31
 70
     1
102
RTVSPost2010Prop32
280
     0
102
RTVSPost2010PropOp32
 70
     1
102
RTVSPost2010Prop33
280
     0
102
RTVSPost2010PropOp33
 70
     1
102
RTVSPost2010Prop34
280
     0
102
RTVSPost2010PropOp34
 70
     1
102
RTVSPost2010Prop35
280
     0
102
RTVSPost2010PropOp35
 70
     1
102
RTVSPost2010Prop36
280
     0
102
RTVSPost2010PropOp36
 70
     1
102
RTVSPost2010Prop37
 90
       50
102
RTVSPost2010PropOp37
 70
     1
102
RTVSPost2010Prop38
140
0.0
102
RTVSPost2010PropOp38
 70
     1
102
RTVSPost2010Prop39
140
1.0
102
RTVSPost2010PropOp39
 70
     1
102
RTVSPost2010Prop40
 90
        0
102
RTVSPost2010PropOp40
 70
     1
102
RTVSPost2010Prop41ColorIndex
 90
       18
102
RTVSPost2010Prop41ColorRGB
 90
        0
102
RTVSPost2010PropOp41
 70
     1
102
RTVSPost2010Prop42
 90
       50
102
RTVSPost2010PropOp42
 70
     1
102
RTVSPost2010Prop43
 90
        3
102
RTVSPost2010PropOp43
 70
     1
102
RTVSPost2010Prop44ColorIndex
 90
        5
102
RTVSPost2010Prop44ColorRGB
 90
      255
102
RTVSPost2010PropOp44
 70
     1
102
RTVSPost2010Prop45
280
     0
102
RTVSPost2010PropOp45
 70
     1
102
RTVSPost2010Prop46
 90
       50
102
RTVSPost2010PropOp46
 70
     1
102
RTVSPost2010Prop47
 90
       50
102
RTVSPost2010PropOp47
 70
     1
102
RTVSPost2010Prop48
 90
       50
102
RTVSPost2010PropOp48
 70
     1
102
RTVSPost2010Prop49
280
     0
102
RTVSPost2010PropOp49
 70
     1
102
RTVSPost2010Prop50
 90
       50
102
RTVSPost2010PropOp50
 70
     1
102
RTVSPost2010Prop51ColorIndex
 90
      256
102
RTVSPost2010Prop51ColorRGB
 90
-16777216
102
RTVSPost2010PropOp51
 70
     0
102
RTVSPost2010Prop52
140
1.0
102
RTVSPost2010PropOp52
 70
     0
102
RTVSPost2010Prop53
 90
        2
102
RTVSPost2010PropOp53
 70
     1
102
RTVSPost2010Prop54
  1
strokes_ogs.tif
102
RTVSPost2010PropOp54
 70
     1
102
RTVSPost2010Prop55
280
     0
102
RTVSPost2010PropOp55
 70
     1
102
RTVSPost2010Prop56
140
1.0
102
RTVSPost2010PropOp56
 70
     1
102
RTVSPost2010Prop57
140
1.0
102
RTVSPost2010PropOp57
 70
     1
  0
XRECORD
  5
5ED
102
{ACAD_REACTORS
330
5EC
102
}
330
5EC
100
AcDbXrecord
280
     1
102
RTVSPropertyOp0
 70
     1
102
RTVSPropertyOp1
 70
     1
102
RTVSPropertyOp2
 70
     1
102
RTVSPropertyOp3
 70
     1
102
RTVSPropertyOp4
 70
     1
102
RTVSPropertyOp5
 70
     1
102
RTVSPropertyOp6
 70
     1
102
RTVSPropertyOp7
 70
     1
102
RTVSPropertyOp8
 70
     1
102
RTVSPropertyOp9
 70
     1
102
RTVSPropertyOp10
 70
     1
102
RTVSPropertyOp11
 70
     1
102
RTVSPropertyOp12
 70
     1
102
RTVSPropertyOp13
 70
     1
102
RTVSPropertyOp14
 70
     1
102
RTVSPropertyOp15
 70
     1
102
RTVSPropertyOp16
 70
     1
102
RTVSPropertyOp17
 70
     1
102
RTVSPropertyOp18
 70
     1
102
RTVSPropertyOp19
 70
     1
102
RTVSPropertyOp20
 70
     1
102
RTVSPropertyOp21
 70
     1
102
RTVSPropertyOp22
 70
     1
102
RTVSPropertyOp23
 70
     1
102
RTVSPropertyOp24
 70
     1
102
RTVSPropertyOp25
 70
     1
102
RTVSPropertyOp26
 70
     1
102
RTVSPropertyOp27
 70
     1
102
RTVSPropertyOp28
 70
     1
102
RTVSPropertyOp29
 70
     1
102
RTVSPropertyOp30
 70
     1
102
RTVSPropertyOp31
 70
     1
102
RTVSPropertyOp32
 70
     1
102
RTVSPropertyOp33
 70
     1
102
RTVSPropertyOp34
 70
     1
102
RTVSPropertyOp35
 70
     1
102
RTVSPropertyOp36
 70
     1
102
RTVSPropertyOp37
 70
     1
102
RTVSPropertyOp38
 70
     1
102
RTVSPropertyOp39
 70
     1
102
RTVSPropertyOp40
 70
     1
102
RTVSPropertyOp41
 70
     1
102
RTVSPropertyOp42
 70
     1
102
RTVSPropertyOp43
 70
     1
102
RTVSPropertyOp44
 70
     1
102
RTVSPropertyOp45
 70
     1
102
RTVSPropertyOp46
 70
     1
102
RTVSPropertyOp47
 70
     1
102
RTVSPropertyOp48
 70
     1
102
RTVSPropertyOp49
 70
     1
102
RTVSPropertyOp50
 70
     1
102
RTVSPropertyOp51
 70
     0
102
RTVSPropertyOp52
 70
     0
102
RTVSPropertyOp53
 70
     1
102
RTVSPropertyOp54
 70
     1
102
RTVSPropertyOp55
 70
     1
102
RTVSPropertyOp56
 70
     1
102
RTVSPropertyOp57
 70
     1
102
RTVSPost2010Prop28
280
     0
102
RTVSPost2010PropOp28
 70
     1
102
RTVSPost2010Prop29
280
     1
102
RTVSPost2010PropOp29
 70
     1
102
RTVSPost2010Prop30
280
     1
102
RTVSPost2010PropOp30
 70
     1
102
RTVSPost2010Prop31
280
     0
102
RTVSPost2010PropOp31
 70
     1
102
RTVSPost2010Prop32
280
     0
102
RTVSPost2010PropOp32
 70
     1
102
RTVSPost2010Prop33
280
     0
102
RTVSPost2010PropOp33
 70
     1
102
RTVSPost2010Prop34
280
     0
102
RTVSPost2010PropOp34
 70
     1
102
RTVSPost2010Prop35
280
     0
102
RTVSPost2010PropOp35
 70
     1
102
RTVSPost2010Prop36
280
     0
102
RTVSPost2010PropOp36
 70
     1
102
RTVSPost2010Prop37
 90
       50
102
RTVSPost2010PropOp37
 70
     1
102
RTVSPost2010Prop38
140
0.0
102
RTVSPost2010PropOp38
 70
     1
102
RTVSPost2010Prop39
140
1.0
102
RTVSPost2010PropOp39
 70
     1
102
RTVSPost2010Prop40
 90
        0
102
RTVSPost2010PropOp40
 70
     1
102
RTVSPost2010Prop41ColorIndex
 90
       18
102
RTVSPost2010Prop41ColorRGB
 90
        0
102
RTVSPost2010PropOp41
 70
     1
102
RTVSPost2010Prop42
 90
       50
102
RTVSPost2010PropOp42
 70
     1
102
RTVSPost2010Prop43
 90
        3
102
RTVSPost2010PropOp43
 70
     1
102
RTVSPost2010Prop44ColorIndex
 90
        5
102
RTVSPost2010Prop44ColorRGB
 90
      255
102
RTVSPost2010PropOp44
 70
     1
102
RTVSPost2010Prop45
280
     0
102
RTVSPost2010PropOp45
 70
     1
102
RTVSPost2010Prop46
 90
       50
102
RTVSPost2010PropOp46
 70
     1
102
RTVSPost2010Prop47
 90
       50
102
RTVSPost2010PropOp47
 70
     1
102
RTVSPost2010Prop48
 90
       50
102
RTVSPost2010PropOp48
 70
     1
102
RTVSPost2010Prop49
280
     0
102
RTVSPost2010PropOp49
 70
     1
102
RTVSPost2010Prop50
 90
       50
102
RTVSPost2010PropOp50
 70
     1
102
RTVSPost2010Prop51ColorIndex
 90
      256
102
RTVSPost2010Prop51ColorRGB
 90
-16777216
102
RTVSPost2010PropOp51
 70
     0
102
RTVSPost2010Prop52
140
1.0
102
RTVSPost2010PropOp52
 70
     0
102
RTVSPost2010Prop53
 90
        2
102
RTVSPost2010PropOp53
 70
     1
102
RTVSPost2010Prop54
  1
strokes_ogs.tif
102
RTVSPost2010PropOp54
 70
     1
102
RTVSPost2010Prop55
280
     0
102
RTVSPost2010PropOp55
 70
     1
102
RTVSPost2010Prop56
140
1.0
102
RTVSPost2010PropOp56
 70
     1
102
RTVSPost2010Prop57
140
1.0
102
RTVSPost2010PropOp57
 70
     1
  0
XRECORD
  5
5DF
102
{ACAD_REACTORS
330
5DE
102
}
330
5DE
100
AcDbXrecord
280
     1
102
RTVSPropertyOp0
 70
     1
102
RTVSPropertyOp1
 70
     1
102
RTVSPropertyOp2
 70
     1
102
RTVSPropertyOp3
 70
     1
102
RTVSPropertyOp4
 70
     1
102
RTVSPropertyOp5
 70
     1
102
RTVSPropertyOp6
 70
     1
102
RTVSPropertyOp7
 70
     1
102
RTVSPropertyOp8
 70
     1
102
RTVSPropertyOp9
 70
     1
102
RTVSPropertyOp10
 70
     1
102
RTVSPropertyOp11
 70
     1
102
RTVSPropertyOp12
 70
     1
102
RTVSPropertyOp13
 70
     1
102
RTVSPropertyOp14
 70
     1
102
RTVSPropertyOp15
 70
     1
102
RTVSPropertyOp16
 70
     1
102
RTVSPropertyOp17
 70
     1
102
RTVSPropertyOp18
 70
     1
102
RTVSPropertyOp19
 70
     1
102
RTVSPropertyOp20
 70
     1
102
RTVSPropertyOp21
 70
     1
102
RTVSPropertyOp22
 70
     1
102
RTVSPropertyOp23
 70
     1
102
RTVSPropertyOp24
 70
     1
102
RTVSPropertyOp25
 70
     1
102
RTVSPropertyOp26
 70
     1
102
RTVSPropertyOp27
 70
     1
102
RTVSPropertyOp28
 70
     1
102
RTVSPropertyOp29
 70
     1
102
RTVSPropertyOp30
 70
     1
102
RTVSPropertyOp31
 70
     1
102
RTVSPropertyOp32
 70
     1
102
RTVSPropertyOp33
 70
     1
102
RTVSPropertyOp34
 70
     1
102
RTVSPropertyOp35
 70
     1
102
RTVSPropertyOp36
 70
     1
102
RTVSPropertyOp37
 70
     1
102
RTVSPropertyOp38
 70
     1
102
RTVSPropertyOp39
 70
     1
102
RTVSPropertyOp40
 70
     1
102
RTVSPropertyOp41
 70
     1
102
RTVSPropertyOp42
 70
     1
102
RTVSPropertyOp43
 70
     1
102
RTVSPropertyOp44
 70
     1
102
RTVSPropertyOp45
 70
     1
102
RTVSPropertyOp46
 70
     1
102
RTVSPropertyOp47
 70
     1
102
RTVSPropertyOp48
 70
     1
102
RTVSPropertyOp49
 70
     1
102
RTVSPropertyOp50
 70
     1
102
RTVSPropertyOp51
 70
     0
102
RTVSPropertyOp52
 70
     0
102
RTVSPropertyOp53
 70
     1
102
RTVSPropertyOp54
 70
     1
102
RTVSPropertyOp55
 70
     1
102
RTVSPropertyOp56
 70
     1
102
RTVSPropertyOp57
 70
     1
102
RTVSPost2010Prop28
280
     0
102
RTVSPost2010PropOp28
 70
     1
102
RTVSPost2010Prop29
280
     1
102
RTVSPost2010PropOp29
 70
     1
102
RTVSPost2010Prop30
280
     1
102
RTVSPost2010PropOp30
 70
     1
102
RTVSPost2010Prop31
280
     0
102
RTVSPost2010PropOp31
 70
     1
102
RTVSPost2010Prop32
280
     0
102
RTVSPost2010PropOp32
 70
     1
102
RTVSPost2010Prop33
280
     0
102
RTVSPost2010PropOp33
 70
     1
102
RTVSPost2010Prop34
280
     0
102
RTVSPost2010PropOp34
 70
     1
102
RTVSPost2010Prop35
280
     0
102
RTVSPost2010PropOp35
 70
     1
102
RTVSPost2010Prop36
280
     0
102
RTVSPost2010PropOp36
 70
     1
102
RTVSPost2010Prop37
 90
       50
102
RTVSPost2010PropOp37
 70
     1
102
RTVSPost2010Prop38
140
0.0
102
RTVSPost2010PropOp38
 70
     1
102
RTVSPost2010Prop39
140
1.0
102
RTVSPost2010PropOp39
 70
     1
102
RTVSPost2010Prop40
 90
        0
102
RTVSPost2010PropOp40
 70
     1
102
RTVSPost2010Prop41ColorIndex
 90
       18
102
RTVSPost2010Prop41ColorRGB
 90
        0
102
RTVSPost2010PropOp41
 70
     1
102
RTVSPost2010Prop42
 90
       50
102
RTVSPost2010PropOp42
 70
     1
102
RTVSPost2010Prop43
 90
        3
102
RTVSPost2010PropOp43
 70
     1
102
RTVSPost2010Prop44ColorIndex
 90
        5
102
RTVSPost2010Prop44ColorRGB
 90
      255
102
RTVSPost2010PropOp44
 70
     1
102
RTVSPost2010Prop45
280
     0
102
RTVSPost2010PropOp45
 70
     1
102
RTVSPost2010Prop46
 90
       50
102
RTVSPost2010PropOp46
 70
     1
102
RTVSPost2010Prop47
 90
       50
102
RTVSPost2010PropOp47
 70
     1
102
RTVSPost2010Prop48
 90
       50
102
RTVSPost2010PropOp48
 70
     1
102
RTVSPost2010Prop49
280
     0
102
RTVSPost2010PropOp49
 70
     1
102
RTVSPost2010Prop50
 90
       50
102
RTVSPost2010PropOp50
 70
     1
102
RTVSPost2010Prop51ColorIndex
 90
      256
102
RTVSPost2010Prop51ColorRGB
 90
-16777216
102
RTVSPost2010PropOp51
 70
     0
102
RTVSPost2010Prop52
140
1.0
102
RTVSPost2010PropOp52
 70
     0
102
RTVSPost2010Prop53
 90
        2
102
RTVSPost2010PropOp53
 70
     1
102
RTVSPost2010Prop54
  1
strokes_ogs.tif
102
RTVSPost2010PropOp54
 70
     1
102
RTVSPost2010Prop55
280
     0
102
RTVSPost2010PropOp55
 70
     1
102
RTVSPost2010Prop56
140
1.0
102
RTVSPost2010PropOp56
 70
     1
102
RTVSPost2010Prop57
140
1.0
102
RTVSPost2010PropOp57
 70
     1
  0
XRECORD
  5
5FF
102
{ACAD_REACTORS
330
5FE
102
}
330
5FE
100
AcDbXrecord
280
     1
102
RTVSPropertyOp0
 70
     1
102
RTVSPropertyOp1
 70
     1
102
RTVSPropertyOp2
 70
     1
102
RTVSPropertyOp3
 70
     1
102
RTVSPropertyOp4
 70
     1
102
RTVSPropertyOp5
 70
     1
102
RTVSPropertyOp6
 70
     1
102
RTVSPropertyOp7
 70
     1
102
RTVSPropertyOp8
 70
     1
102
RTVSPropertyOp9
 70
     1
102
RTVSPropertyOp10
 70
     1
102
RTVSPropertyOp11
 70
     1
102
RTVSPropertyOp12
 70
     1
102
RTVSPropertyOp13
 70
     1
102
RTVSPropertyOp14
 70
     1
102
RTVSPropertyOp15
 70
     1
102
RTVSPropertyOp16
 70
     1
102
RTVSPropertyOp17
 70
     1
102
RTVSPropertyOp18
 70
     1
102
RTVSPropertyOp19
 70
     1
102
RTVSPropertyOp20
 70
     1
102
RTVSPropertyOp21
 70
     1
102
RTVSPropertyOp22
 70
     1
102
RTVSPropertyOp23
 70
     1
102
RTVSPropertyOp24
 70
     1
102
RTVSPropertyOp25
 70
     1
102
RTVSPropertyOp26
 70
     1
102
RTVSPropertyOp27
 70
     1
102
RTVSPropertyOp28
 70
     1
102
RTVSPropertyOp29
 70
     1
102
RTVSPropertyOp30
 70
     1
102
RTVSPropertyOp31
 70
     1
102
RTVSPropertyOp32
 70
     1
102
RTVSPropertyOp33
 70
     1
102
RTVSPropertyOp34
 70
     1
102
RTVSPropertyOp35
 70
     1
102
RTVSPropertyOp36
 70
     1
102
RTVSPropertyOp37
 70
     1
102
RTVSPropertyOp38
 70
     1
102
RTVSPropertyOp39
 70
     1
102
RTVSPropertyOp40
 70
     1
102
RTVSPropertyOp41
 70
     1
102
RTVSPropertyOp42
 70
     1
102
RTVSPropertyOp43
 70
     1
102
RTVSPropertyOp44
 70
     1
102
RTVSPropertyOp45
 70
     1
102
RTVSPropertyOp46
 70
     1
102
RTVSPropertyOp47
 70
     1
102
RTVSPropertyOp48
 70
     1
102
RTVSPropertyOp49
 70
     1
102
RTVSPropertyOp50
 70
     1
102
RTVSPropertyOp51
 70
     0
102
RTVSPropertyOp52
 70
     0
102
RTVSPropertyOp53
 70
     1
102
RTVSPropertyOp54
 70
     1
102
RTVSPropertyOp55
 70
     1
102
RTVSPropertyOp56
 70
     1
102
RTVSPropertyOp57
 70
     1
102
RTVSPost2010Prop28
280
     0
102
RTVSPost2010PropOp28
 70
     1
102
RTVSPost2010Prop29
280
     1
102
RTVSPost2010PropOp29
 70
     1
102
RTVSPost2010Prop30
280
     1
102
RTVSPost2010PropOp30
 70
     1
102
RTVSPost2010Prop31
280
     0
102
RTVSPost2010PropOp31
 70
     1
102
RTVSPost2010Prop32
280
     0
102
RTVSPost2010PropOp32
 70
     1
102
RTVSPost2010Prop33
280
     0
102
RTVSPost2010PropOp33
 70
     1
102
RTVSPost2010Prop34
280
     0
102
RTVSPost2010PropOp34
 70
     1
102
RTVSPost2010Prop35
280
     0
102
RTVSPost2010PropOp35
 70
     1
102
RTVSPost2010Prop36
280
     0
102
RTVSPost2010PropOp36
 70
     1
102
RTVSPost2010Prop37
 90
       50
102
RTVSPost2010PropOp37
 70
     1
102
RTVSPost2010Prop38
140
0.0
102
RTVSPost2010PropOp38
 70
     1
102
RTVSPost2010Prop39
140
1.0
102
RTVSPost2010PropOp39
 70
     1
102
RTVSPost2010Prop40
 90
        0
102
RTVSPost2010PropOp40
 70
     1
102
RTVSPost2010Prop41ColorIndex
 90
       18
102
RTVSPost2010Prop41ColorRGB
 90
        0
102
RTVSPost2010PropOp41
 70
     1
102
RTVSPost2010Prop42
 90
       50
102
RTVSPost2010PropOp42
 70
     1
102
RTVSPost2010Prop43
 90
        3
102
RTVSPost2010PropOp43
 70
     1
102
RTVSPost2010Prop44ColorIndex
 90
        5
102
RTVSPost2010Prop44ColorRGB
 90
      255
102
RTVSPost2010PropOp44
 70
     1
102
RTVSPost2010Prop45
280
     0
102
RTVSPost2010PropOp45
 70
     1
102
RTVSPost2010Prop46
 90
       50
102
RTVSPost2010PropOp46
 70
     1
102
RTVSPost2010Prop47
 90
       50
102
RTVSPost2010PropOp47
 70
     1
102
RTVSPost2010Prop48
 90
       50
102
RTVSPost2010PropOp48
 70
     1
102
RTVSPost2010Prop49
280
     0
102
RTVSPost2010PropOp49
 70
     1
102
RTVSPost2010Prop50
 90
       50
102
RTVSPost2010PropOp50
 70
     1
102
RTVSPost2010Prop51ColorIndex
 90
      256
102
RTVSPost2010Prop51ColorRGB
 90
-16777216
102
RTVSPost2010PropOp51
 70
     0
102
RTVSPost2010Prop52
140
1.0
102
RTVSPost2010PropOp52
 70
     0
102
RTVSPost2010Prop53
 90
        2
102
RTVSPost2010PropOp53
 70
     1
102
RTVSPost2010Prop54
  1
strokes_ogs.tif
102
RTVSPost2010PropOp54
 70
     1
102
RTVSPost2010Prop55
280
     0
102
RTVSPost2010PropOp55
 70
     1
102
RTVSPost2010Prop56
140
1.0
102
RTVSPost2010PropOp56
 70
     1
102
RTVSPost2010Prop57
140
1.0
102
RTVSPost2010PropOp57
 70
     1
  0
ENDSEC
  0
EOF
