  0
SECTION
  2
HEADER
  9
$ACADVER
  1
AC1015
  9
$ACADMAINTVER
 70
     6
  9
$DWGCODEPAGE
  3
ANSI_932
  9
$INSBASE
 10
-28.57408741326981
 20
-82.8115125315162
 30
0.0
  9
$EXTMIN
 10
248.427400012672
 20
28.06865058182626
 30
0.0
  9
$EXTMAX
 10
1486.694761026745
 20
1303.732737497244
 30
0.0
  9
$LIMMIN
 10
-210.0
 20
-148.5
  9
$LIMMAX
 10
210.0
 20
148.5
  9
$ORTHOMODE
 70
     1
  9
$REGENMODE
 70
     1
  9
$FILLMODE
 70
     1
  9
$QTEXTMODE
 70
     0
  9
$MIRRTEXT
 70
     1
  9
$LTSCALE
 40
3.0
  9
$ATTMODE
 70
     1
  9
$TEXTSIZE
 40
12.0
  9
$TRACEWID
 40
0.05
  9
$TEXTSTYLE
  7
KANJI
  9
$CLAYER
  8
2
  9
$CELTYPE
  6
BYLAYER
  9
$CECOLOR
 62
   256
  9
$CELTSCALE
 40
1.0
  9
$DISPSILH
 70
     0
  9
$DIMSCALE
 40
4.0
  9
$DIMASZ
 40
2.0
  9
$DIMEXO
 40
0.5
  9
$DIMDLI
 40
10.0
  9
$DIMRND
 40
0.0
  9
$DIMDLE
 40
0.0
  9
$DIMEXE
 40
1.0
  9
$DIMTP
 40
0.0
  9
$DIMTM
 40
0.0
  9
$DIMTXT
 40
3.0
  9
$DIMCEN
 40
0.09
  9
$DIMTSZ
 40
0.0
  9
$DIMTOL
 70
     0
  9
$DIMLIM
 70
     0
  9
$DIMTIH
 70
     0
  9
$DIMTOH
 70
     0
  9
$DIMSE1
 70
     0
  9
$DIMSE2
 70
     0
  9
$DIMTAD
 70
     1
  9
$DIMZIN
 70
     8
  9
$DIMBLK
  1

  9
$DIMASO
 70
     0
  9
$DIMSHO
 70
     0
  9
$DIMPOST
  1

  9
$DIMAPOST
  1

  9
$DIMALT
 70
     0
  9
$DIMALTD
 70
     2
  9
$DIMALTF
 40
25.4
  9
$DIMLFAC
 40
1.0
  9
$DIMTOFL
 70
     1
  9
$DIMTVP
 40
1.0
  9
$DIMTIX
 70
     1
  9
$DIMSOXD
 70
     1
  9
$DIMSAH
 70
     0
  9
$DIMBLK1
  1

  9
$DIMBLK2
  1

  9
$DIMSTYLE
  2
STANDARD
  9
$DIMCLRD
 70
   256
  9
$DIMCLRE
 70
   256
  9
$DIMCLRT
 70
   256
  9
$DIMTFAC
 40
1.0
  9
$DIMGAP
 40
1.0
  9
$DIMJUST
 70
     0
  9
$DIMSD1
 70
     0
  9
$DIMSD2
 70
     0
  9
$DIMTOLJ
 70
     1
  9
$DIMTZIN
 70
     0
  9
$DIMALTZ
 70
     0
  9
$DIMALTTZ
 70
     0
  9
$DIMUPT
 70
     0
  9
$DIMDEC
 70
     1
  9
$DIMTDEC
 70
     4
  9
$DIMALTU
 70
     2
  9
$DIMALTTD
 70
     2
  9
$DIMTXSTY
  7
STANDARD
  9
$DIMAUNIT
 70
     0
  9
$DIMADEC
 70
     0
  9
$DIMALTRND
 40
0.0
  9
$DIMAZIN
 70
     0
  9
$DIMDSEP
 70
    46
  9
$DIMATFIT
 70
     3
  9
$DIMFRAC
 70
     0
  9
$DIMLDRBLK
  1

  9
$DIMLUNIT
 70
     2
  9
$DIMLWD
 70
    -2
  9
$DIMLWE
 70
    -2
  9
$DIMTMOVE
 70
     0
  9
$LUNITS
 70
     2
  9
$LUPREC
 70
     4
  9
$SKETCHINC
 40
0.1
  9
$FILLETRAD
 40
2.0
  9
$AUNITS
 70
     0
  9
$AUPREC
 70
     0
  9
$MENU
  1
.
  9
$ELEVATION
 40
0.0
  9
$PELEVATION
 40
0.0
  9
$THICKNESS
 40
0.0
  9
$LIMCHECK
 70
     0
  9
$CHAMFERA
 40
0.0
  9
$CHAMFERB
 40
0.0
  9
$CHAMFERC
 40
0.0
  9
$CHAMFERD
 40
0.0
  9
$SKPOLY
 70
     0
  9
$TDCREATE
 40
2457345.818211678
  9
$TDUCREATE
 40
2457345.443211678
  9
$TDUPDATE
 40
2457871.83234485
  9
$TDUUPDATE
 40
2457871.45734485
  9
$TDINDWG
 40
0.0334784722
  9
$TDUSRTIMER
 40
0.0334780903
  9
$USRTIMER
 70
     1
  9
$ANGBASE
 50
0.0
  9
$ANGDIR
 70
     0
  9
$PDMODE
 70
     0
  9
$PDSIZE
 40
0.0
  9
$PLINEWID
 40
0.0
  9
$SPLFRAME
 70
     0
  9
$SPLINETYPE
 70
     6
  9
$SPLINESEGS
 70
     8
  9
$HANDSEED
  5
BFF
  9
$SURFTAB1
 70
     6
  9
$SURFTAB2
 70
     6
  9
$SURFTYPE
 70
     6
  9
$SURFU
 70
     6
  9
$SURFV
 70
     6
  9
$UCSBASE
  2

  9
$UCSNAME
  2

  9
$UCSORG
 10
0.0
 20
0.0
 30
0.0
  9
$UCSXDIR
 10
1.0
 20
0.0
 30
0.0
  9
$UCSYDIR
 10
0.0
 20
1.0
 30
0.0
  9
$UCSORTHOREF
  2

  9
$UCSORTHOVIEW
 70
     0
  9
$UCSORGTOP
 10
0.0
 20
0.0
 30
0.0
  9
$UCSORGBOTTOM
 10
0.0
 20
0.0
 30
0.0
  9
$UCSORGLEFT
 10
0.0
 20
0.0
 30
0.0
  9
$UCSORGRIGHT
 10
0.0
 20
0.0
 30
0.0
  9
$UCSORGFRONT
 10
0.0
 20
0.0
 30
0.0
  9
$UCSORGBACK
 10
0.0
 20
0.0
 30
0.0
  9
$PUCSBASE
  2

  9
$PUCSNAME
  2

  9
$PUCSORG
 10
0.0
 20
0.0
 30
0.0
  9
$PUCSXDIR
 10
1.0
 20
0.0
 30
0.0
  9
$PUCSYDIR
 10
0.0
 20
1.0
 30
0.0
  9
$PUCSORTHOREF
  2

  9
$PUCSORTHOVIEW
 70
     0
  9
$PUCSORGTOP
 10
0.0
 20
0.0
 30
0.0
  9
$PUCSORGBOTTOM
 10
0.0
 20
0.0
 30
0.0
  9
$PUCSORGLEFT
 10
0.0
 20
0.0
 30
0.0
  9
$PUCSORGRIGHT
 10
0.0
 20
0.0
 30
0.0
  9
$PUCSORGFRONT
 10
0.0
 20
0.0
 30
0.0
  9
$PUCSORGBACK
 10
0.0
 20
0.0
 30
0.0
  9
$USERI1
 70
     0
  9
$USERI2
 70
     0
  9
$USERI3
 70
     0
  9
$USERI4
 70
     0
  9
$USERI5
 70
     0
  9
$USERR1
 40
0.0
  9
$USERR2
 40
0.0
  9
$USERR3
 40
0.0
  9
$USERR4
 40
0.0
  9
$USERR5
 40
0.0
  9
$WORLDVIEW
 70
     1
  9
$SHADEDGE
 70
     3
  9
$SHADEDIF
 70
    70
  9
$TILEMODE
 70
     1
  9
$MAXACTVP
 70
    16
  9
$PINSBASE
 10
0.0
 20
0.0
 30
0.0
  9
$PLIMCHECK
 70
     0
  9
$PEXTMIN
 10
1.000000000000000E+20
 20
1.000000000000000E+20
 30
1.000000000000000E+20
  9
$PEXTMAX
 10
-1.000000000000000E+20
 20
-1.000000000000000E+20
 30
-1.000000000000000E+20
  9
$PLIMMIN
 10
0.0
 20
0.0
  9
$PLIMMAX
 10
12.0
 20
9.0
  9
$UNITMODE
 70
     0
  9
$VISRETAIN
 70
     0
  9
$PLINEGEN
 70
     0
  9
$PSLTSCALE
 70
     1
  9
$TREEDEPTH
 70
  3020
  9
$CMLSTYLE
  2
STANDARD
  9
$CMLJUST
 70
     0
  9
$CMLSCALE
 40
1.0
  9
$PROXYGRAPHICS
 70
     1
  9
$MEASUREMENT
 70
     0
  9
$CELWEIGHT
370
    -1
  9
$ENDCAPS
280
     0
  9
$JOINSTYLE
280
     0
  9
$LWDISPLAY
290
     0
  9
$INSUNITS
 70
     0
  9
$HYPERLINKBASE
  1

  9
$STYLESHEET
  1

  9
$XEDIT
290
     1
  9
$CEPSNTYPE
380
     0
  9
$PSTYLEMODE
290
     1
  9
$FINGERPRINTGUID
  2
{EBC2A2BE-6A7B-4CD0-A29B-4AC117BC1E75}
  9
$VERSIONGUID
  2
{B495D273-9958-48D7-B930-5DF9B7CBA39F}
  9
$EXTNAMES
290
     1
  9
$PSVPSCALE
 40
0.0
  9
$OLESTARTUP
290
     0
  0
ENDSEC
  0
SECTION
  2
CLASSES
  0
CLASS
  1
LWPOLYLINE
  2
AcDbPolyline
  3
AutoCAD 2000
 90
        0
280
     0
281
     1
  0
CLASS
  1
XRECORD
  2
AcDbXrecord
  3
AutoCAD 2000
 90
        0
280
     0
281
     0
  0
CLASS
  1
ACDBDICTIONARYWDFLT
  2
AcDbDictionaryWithDefault
  3
ObjectDBX Classes
 90
        0
280
     0
281
     0
  0
CLASS
  1
ACDBPLACEHOLDER
  2
AcDbPlaceHolder
  3
ObjectDBX Classes
 90
        0
280
     0
281
     0
  0
CLASS
  1
LAYOUT
  2
AcDbLayout
  3
ObjectDBX Classes
 90
        0
280
     0
281
     0
  0
CLASS
  1
DICTIONARYVAR
  2
AcDbDictionaryVar
  3
ObjectDBX Classes
 90
        0
280
     0
281
     0
  0
CLASS
  1
DUMMY
  2
AcDbLongTransaction
  3
DUMMY
 90
        0
280
     0
281
     0
  0
CLASS
  1
LWPOLYLINE
  2
AcDbPolyline
  3
AutoCAD 2000
 90
        0
280
     0
281
     1
  0
CLASS
  1
HATCH
  2
AcDbHatch
  3
AutoCAD 2000
 90
        0
280
     0
281
     1
  0
CLASS
  1
XRECORD
  2
AcDbXrecord
  3
AutoCAD 2000
 90
        0
280
     0
281
     0
  0
CLASS
  1
DUMMY
  2
AcDbLongTransaction
  3
DUMMY
 90
        0
280
     0
281
     0
  0
CLASS
  1
LWPOLYLINE
  2
AcDbPolyline
  3
AutoCAD 2000
 90
        0
280
     0
281
     1
  0
CLASS
  1
HATCH
  2
AcDbHatch
  3
AutoCAD 2000
 90
        0
280
     0
281
     1
  0
CLASS
  1
XRECORD
  2
AcDbXrecord
  3
AutoCAD 2000
 90
        0
280
     0
281
     0
  0
CLASS
  1
DUMMY
  2
AcDbLongTransaction
  3
DUMMY
 90
        0
280
     0
281
     0
  0
CLASS
  1
LWPOLYLINE
  2
AcDbPolyline
  3
AutoCAD 2000
 90
        0
280
     0
281
     1
  0
CLASS
  1
HATCH
  2
AcDbHatch
  3
AutoCAD 2000
 90
        0
280
     0
281
     1
  0
CLASS
  1
XRECORD
  2
AcDbXrecord
  3
AutoCAD 2000
 90
        0
280
     0
281
     0
  0
CLASS
  1
DUMMY
  2
AcDbLongTransaction
  3
DUMMY
 90
        0
280
     0
281
     0
  0
CLASS
  1
LWPOLYLINE
  2
AcDbPolyline
  3
AutoCAD 2000
 90
        0
280
     0
281
     1
  0
CLASS
  1
HATCH
  2
AcDbHatch
  3
AutoCAD 2000
 90
        0
280
     0
281
     1
  0
CLASS
  1
XRECORD
  2
AcDbXrecord
  3
AutoCAD 2000
 90
        0
280
     0
281
     0
  0
CLASS
  1
DUMMY
  2
AcDbLongTransaction
  3
DUMMY
 90
        0
280
     0
281
     0
  0
CLASS
  1
LWPOLYLINE
  2
AcDbPolyline
  3
AutoCAD 2000
 90
        0
280
     0
281
     1
  0
CLASS
  1
HATCH
  2
AcDbHatch
  3
AutoCAD 2000
 90
        0
280
     0
281
     1
  0
CLASS
  1
XRECORD
  2
AcDbXrecord
  3
AutoCAD 2000
 90
        0
280
     0
281
     0
  0
CLASS
  1
DUMMY
  2
AcDbLongTransaction
  3
DUMMY
 90
        0
280
     0
281
     0
  0
CLASS
  1
LWPOLYLINE
  2
AcDbPolyline
  3
AutoCAD 2000
 90
        0
280
     0
281
     1
  0
CLASS
  1
HATCH
  2
AcDbHatch
  3
AutoCAD 2000
 90
        0
280
     0
281
     1
  0
CLASS
  1
XRECORD
  2
AcDbXrecord
  3
AutoCAD 2000
 90
        0
280
     0
281
     0
  0
CLASS
  1
DUMMY
  2
AcDbLongTransaction
  3
DUMMY
 90
        0
280
     0
281
     0
  0
CLASS
  1
LWPOLYLINE
  2
AcDbPolyline
  3
AutoCAD 2000
 90
        0
280
     0
281
     1
  0
CLASS
  1
HATCH
  2
AcDbHatch
  3
AutoCAD 2000
 90
        0
280
     0
281
     1
  0
CLASS
  1
XRECORD
  2
AcDbXrecord
  3
AutoCAD 2000
 90
        0
280
     0
281
     0
  0
CLASS
  1
DUMMY
  2
AcDbLongTransaction
  3
DUMMY
 90
        0
280
     0
281
     0
  0
CLASS
  1
LWPOLYLINE
  2
AcDbPolyline
  3
AutoCAD 2000
 90
        0
280
     0
281
     1
  0
CLASS
  1
HATCH
  2
AcDbHatch
  3
AutoCAD 2000
 90
        0
280
     0
281
     1
  0
CLASS
  1
XRECORD
  2
AcDbXrecord
  3
AutoCAD 2000
 90
        0
280
     0
281
     0
  0
CLASS
  1
DUMMY
  2
AcDbLongTransaction
  3
DUMMY
 90
        0
280
     0
281
     0
  0
CLASS
  1
LWPOLYLINE
  2
AcDbPolyline
  3
AutoCAD 2000
 90
        0
280
     0
281
     1
  0
CLASS
  1
HATCH
  2
AcDbHatch
  3
AutoCAD 2000
 90
        0
280
     0
281
     1
  0
CLASS
  1
XRECORD
  2
AcDbXrecord
  3
AutoCAD 2000
 90
        0
280
     0
281
     0
  0
CLASS
  1
MATERIAL
  2
AcDbMaterial
  3
ObjectDBX Classes
 90
     1153
280
     0
281
     0
  0
CLASS
  1
VISUALSTYLE
  2
AcDbVisualStyle
  3
ObjectDBX Classes
 90
     4095
280
     0
281
     0
  0
CLASS
  1
TABLESTYLE
  2
AcDbTableStyle
  3
ObjectDBX Classes
 90
     4095
280
     0
281
     0
  0
CLASS
  1
SCALE
  2
AcDbScale
  3
ObjectDBX Classes
 90
     1153
280
     0
281
     0
  0
CLASS
  1
MLEADERSTYLE
  2
AcDbMLeaderStyle
  3
ACDB_MLEADERSTYLE_CLASS
 90
     4095
280
     0
281
     0
  0
CLASS
  1
ACDBSECTIONVIEWSTYLE
  2
AcDbSectionViewStyle
  3
ObjectDBX Classes
 90
     1025
280
     0
281
     0
  0
CLASS
  1
ACDBDETAILVIEWSTYLE
  2
AcDbDetailViewStyle
  3
ObjectDBX Classes
 90
     1025
280
     0
281
     0
  0
CLASS
  1
SORTENTSTABLE
  2
AcDbSortentsTable
  3
ObjectDBX Classes
 90
        0
280
     0
281
     0
  0
ENDSEC
  0
SECTION
  2
TABLES
  0
TABLE
  2
VPORT
  5
1D
102
{ACAD_XDICTIONARY
360
BC3
102
}
330
0
100
AcDbSymbolTable
 70
     1
  0
VPORT
  5
998
330
1D
100
AcDbSymbolTableRecord
100
AcDbViewportTableRecord
  2
*ACTIVE
 70
     0
 10
0.0
 20
0.0
 11
1.0
 21
1.0
 12
1199.778991096543
 22
619.0479127586782
 13
0.0
 23
0.0
 14
1.0
 24
1.0
 15
0.0
 25
0.0
 16
0.0
 26
0.0
 36
1.0
 17
0.0
 27
0.0
 37
0.0
 40
1555.357469358661
 41
2.174107142857143
 42
50.0
 43
0.0
 44
0.0
 50
0.0
 51
0.0
 71
     0
 72
 20000
 73
     1
 74
     0
 75
     0
 76
     0
 77
     0
 78
     0
281
     0
 65
     1
110
0.0
120
0.0
130
0.0
111
1.0
121
0.0
131
0.0
112
0.0
122
1.0
132
0.0
 79
     0
146
0.0
1001
ACAD_NAV_VCDISPLAY
1070
     3
  0
ENDTAB
  0
TABLE
  2
LTYPE
  5
18
330
0
100
AcDbSymbolTable
 70
     2
  0
LTYPE
  5
19
330
18
100
AcDbSymbolTableRecord
100
AcDbLinetypeTableRecord
  2
BYBLOCK
 70
     0
  3

 72
    65
 73
     0
 40
0.0
  0
LTYPE
  5
1A
330
18
100
AcDbSymbolTableRecord
100
AcDbLinetypeTableRecord
  2
BYLAYER
 70
     0
  3

 72
    65
 73
     0
 40
0.0
  0
LTYPE
  5
A
330
18
100
AcDbSymbolTableRecord
100
AcDbLinetypeTableRecord
  2
CONTINUOUS
 70
     0
  3
Solid line
 72
    65
 73
     0
 40
0.0
  0
LTYPE
  5
2F
330
18
100
AcDbSymbolTableRecord
100
AcDbLinetypeTableRecord
  2
CENTER
 70
     0
  3
Center ____ _ ____ _ ____ _ ____ _ ____ _ ____
 72
    65
 73
     4
 40
2.0
 49
1.25
 74
     0
 49
-0.25
 74
     0
 49
0.25
 74
     0
 49
-0.25
 74
     0
  0
ENDTAB
  0
TABLE
  2
LAYER
  5
14
102
{ACAD_XDICTIONARY
360
9FA
102
}
330
0
100
AcDbSymbolTable
 70
     8
  0
LAYER
  5
6
102
{ACAD_XDICTIONARY
360
9EB
102
}
330
14
100
AcDbSymbolTableRecord
100
AcDbLayerTableRecord
  2
0
 70
     0
 62
     7
  6
CONTINUOUS
370
    -3
390
7
  0
LAYER
  5
2C
102
{ACAD_XDICTIONARY
360
9ED
102
}
330
14
100
AcDbSymbolTableRecord
100
AcDbLayerTableRecord
  2
1
 70
     0
 62
     9
  6
CONTINUOUS
370
    -3
390
7
  0
LAYER
  5
26
102
{ACAD_XDICTIONARY
360
9EF
102
}
330
14
100
AcDbSymbolTableRecord
100
AcDbLayerTableRecord
  2
2
 70
     0
 62
     4
  6
CONTINUOUS
370
    -3
390
7
  0
LAYER
  5
3E
102
{ACAD_XDICTIONARY
360
9F1
102
}
330
14
100
AcDbSymbolTableRecord
100
AcDbLayerTableRecord
  2
4
 70
     0
 62
     3
  6
CONTINUOUS
370
    -3
390
7
  0
LAYER
  5
2E
102
{ACAD_XDICTIONARY
360
9F3
102
}
330
14
100
AcDbSymbolTableRecord
100
AcDbLayerTableRecord
  2
L-CENTER
 70
     0
 62
     1
  6
CENTER
370
    -3
390
7
  0
LAYER
  5
45
102
{ACAD_XDICTIONARY
360
9F5
102
}
330
14
100
AcDbSymbolTableRecord
100
AcDbLayerTableRecord
  2
3
 70
     0
 62
     2
  6
CONTINUOUS
370
    -3
390
7
  0
LAYER
  5
32B
102
{ACAD_XDICTIONARY
360
32C
102
}
330
14
100
AcDbSymbolTableRecord
100
AcDbLayerTableRecord
  2
5
 70
     0
 62
     6
  6
CONTINUOUS
370
    -3
390
7
  0
LAYER
  5
B5B
330
14
100
AcDbSymbolTableRecord
100
AcDbLayerTableRecord
  2
Defpoints
 70
     0
 62
     7
  6
CONTINUOUS
290
     0
370
    -3
390
7
  0
ENDTAB
  0
TABLE
  2
STYLE
  5
15
330
0
100
AcDbSymbolTable
 70
     2
  0
STYLE
  5
16
330
15
100
AcDbSymbolTableRecord
100
AcDbTextStyleTableRecord
  2
STANDARD
 70
     0
 40
0.0
 41
1.0
 50
0.0
 71
     0
 42
7.2
  3
txt
  4

  0
STYLE
  5
27
330
15
100
AcDbSymbolTableRecord
100
AcDbTextStyleTableRecord
  2
KANJI
 70
     0
 40
0.0
 41
1.0
 50
0.0
 71
     0
 42
12.0
  3
TXT
  4
BIGFONT
  0
ENDTAB
  0
TABLE
  2
VIEW
  5
1B
330
0
100
AcDbSymbolTable
 70
     0
  0
ENDTAB
  0
TABLE
  2
UCS
  5
1C
330
0
100
AcDbSymbolTable
 70
     0
  0
ENDTAB
  0
TABLE
  2
APPID
  5
1F
330
0
100
AcDbSymbolTable
 70
     4
  0
APPID
  5
20
330
1F
100
AcDbSymbolTableRecord
100
AcDbRegAppTableRecord
  2
ACAD
 70
     0
  0
APPID
  5
A00
330
1F
100
AcDbSymbolTableRecord
100
AcDbRegAppTableRecord
  2
ACAD_NAV_VCDISPLAY
 70
     0
  0
APPID
  5
A0F
330
1F
100
AcDbSymbolTableRecord
100
AcDbRegAppTableRecord
  2
ACAD_MLEADERVER
 70
     0
  0
APPID
  5
B1E
330
1F
100
AcDbSymbolTableRecord
100
AcDbRegAppTableRecord
  2
ACAD_PSEXT
 70
     0
  0
ENDTAB
  0
TABLE
  2
DIMSTYLE
  5
21
330
0
100
AcDbSymbolTable
 70
     1
100
AcDbDimStyleTable
  0
DIMSTYLE
105
29
330
21
100
AcDbSymbolTableRecord
100
AcDbDimStyleTableRecord
  2
STANDARD
 70
     0
178
     0
340
16
  0
ENDTAB
  0
TABLE
  2
BLOCK_RECORD
  5
1
330
0
100
AcDbSymbolTable
 70
     0
  0
BLOCK_RECORD
  5
2
102
{ACAD_XDICTIONARY
360
B18
102
}
330
1
100
AcDbSymbolTableRecord
100
AcDbBlockTableRecord
  2
*MODEL_SPACE
340
C
  0
BLOCK_RECORD
  5
E
330
1
100
AcDbSymbolTableRecord
100
AcDbBlockTableRecord
  2
*PAPER_SPACE
340
13
  0
ENDTAB
  0
ENDSEC
  0
SECTION
  2
BLOCKS
  0
BLOCK
  5
5
330
2
100
AcDbEntity
  8
0
100
AcDbBlockBegin
  2
*MODEL_SPACE
 70
     0
 10
0.0
 20
0.0
 30
0.0
  3
*MODEL_SPACE
  1

  0
ENDBLK
  5
B
330
2
100
AcDbEntity
  8
0
100
AcDbBlockEnd
  0
BLOCK
  5
11
330
E
100
AcDbEntity
 67
     1
  8
0
100
AcDbBlockBegin
  2
*PAPER_SPACE
 70
     0
 10
0.0
 20
0.0
 30
0.0
  3
*PAPER_SPACE
  1

  0
ENDBLK
  5
12
330
E
100
AcDbEntity
 67
     1
  8
0
100
AcDbBlockEnd
  0
ENDSEC
  0
SECTION
  2
ENTITIES
  0
LINE
  5
63
330
2
100
AcDbEntity
  8
4
100
AcDbLine
 10
648.6350357047759
 20
517.5420065451613
 30
0.0
 11
631.8351357047759
 21
517.5420065451613
 31
0.0
  0
LINE
  5
64
330
2
100
AcDbEntity
  8
L-CENTER
 48
8.0
100
AcDbLine
 10
662.8784477047757
 20
489.9685225451612
 30
0.0
 11
623.3563398982824
 21
489.9685225451612
 31
0.0
  0
LINE
  5
65
330
2
100
AcDbEntity
  8
4
100
AcDbLine
 10
631.8351357047759
 20
377.5420065451613
 30
0.0
 11
648.6350357047759
 21
377.5420065451613
 31
0.0
  0
LINE
  5
66
330
2
100
AcDbEntity
  8
L-CENTER
 48
8.0
100
AcDbLine
 10
662.8784477047757
 20
405.1154945451613
 30
0.0
 11
623.3563398982824
 21
405.1154945451613
 31
0.0
  0
LINE
  5
67
330
2
100
AcDbEntity
  8
4
100
AcDbLine
 10
660.8351357047759
 20
109.5420065451613
 30
0.0
 11
613.8351357047759
 21
109.5420065451613
 31
0.0
  0
LINE
  5
68
330
2
100
AcDbEntity
  8
4
100
AcDbLine
 10
558.8351357047759
 20
72.54200654516126
 30
0.0
 11
663.8351357047759
 21
72.54200654516126
 31
0.0
  0
LINE
  5
6A
330
2
100
AcDbEntity
  8
L-CENTER
 48
8.0
100
AcDbLine
 10
278.4436743413307
 20
272.5420065451613
 30
0.0
 11
649.226597068221
 21
272.5420065451613
 31
0.0
  0
LINE
  5
6C
330
2
100
AcDbEntity
  8
L-CENTER
 48
8.0
100
AcDbLine
 10
751.3020767756616
 20
447.5420065451613
 30
0.0
 11
274.1266471881729
 21
447.5420065451613
 31
0.0
  0
LINE
  5
C7
330
2
100
AcDbEntity
  8
4
100
AcDbLine
 10
279.0352317047759
 20
517.5420065451613
 30
0.0
 11
295.8351357047759
 21
517.5420065451613
 31
0.0
  0
LINE
  5
C8
330
2
100
AcDbEntity
  8
4
100
AcDbLine
 10
295.8351357047759
 20
377.5420065451613
 30
0.0
 11
279.0352317047759
 21
377.5420065451613
 31
0.0
  0
LINE
  5
C9
330
2
100
AcDbEntity
  8
L-CENTER
 48
8.0
100
AcDbLine
 10
264.7918237047761
 20
489.9685225451612
 30
0.0
 11
304.3139315112694
 21
489.9685225451612
 31
0.0
  0
LINE
  5
CA
330
2
100
AcDbEntity
  8
L-CENTER
 48
8.0
100
AcDbLine
 10
264.7918237047761
 20
405.1154945451613
 30
0.0
 11
304.3139315112694
 21
405.1154945451613
 31
0.0
  0
LINE
  5
CB
330
2
100
AcDbEntity
  8
4
100
AcDbLine
 10
290.8351357047759
 20
219.5420065451613
 30
0.0
 11
289.3351357047759
 21
219.5420065451613
 31
0.0
  0
LINE
  5
CC
330
2
100
AcDbEntity
  8
L-CENTER
 48
8.0
100
AcDbLine
 10
307.9233095914969
 20
202.5420065451613
 30
0.0
 11
278.5954517047758
 21
202.5420065451613
 31
0.0
  0
LINE
  5
CD
330
2
100
AcDbEntity
  8
4
100
AcDbLine
 10
289.3351357047759
 20
185.5420065451613
 30
0.0
 11
290.8351357047759
 21
185.5420065451613
 31
0.0
  0
LINE
  5
CE
330
2
100
AcDbEntity
  8
4
100
AcDbLine
 10
288.8351357047759
 20
132.5420065451613
 30
0.0
 11
293.8351357047759
 21
132.5420065451613
 31
0.0
  0
ARC
  5
CF
330
2
100
AcDbEntity
  8
4
100
AcDbCircle
 10
276.8351357047759
 20
121.5420065451613
 30
0.0
 40
12.0
100
AcDbArc
 50
270.0
 51
0.0
  0
ARC
  5
D0
330
2
100
AcDbEntity
  8
4
100
AcDbCircle
 10
281.8351357047759
 20
121.5420065451613
 30
0.0
 40
12.0
100
AcDbArc
 50
270.0
 51
0.0
  0
LINE
  5
D1
330
2
100
AcDbEntity
  8
L-CENTER
 48
8.0
100
AcDbLine
 10
306.6175964884133
 20
117.5420065451613
 30
0.0
 11
282.9753317047757
 21
117.5420065451613
 31
0.0
  0
LINE
  5
D2
330
2
100
AcDbEntity
  8
4
100
AcDbLine
 10
266.8351357047759
 20
109.5420065451613
 30
0.0
 11
313.8351357047759
 21
109.5420065451613
 31
0.0
  0
LINE
  5
D3
330
2
100
AcDbEntity
  8
4
100
AcDbLine
 10
368.8351357047759
 20
72.54200654516126
 30
0.0
 11
263.8351357047759
 21
72.54200654516126
 31
0.0
  0
ARC
  5
D4
330
2
100
AcDbEntity
  8
4
100
AcDbCircle
 10
789.8351357047759
 20
272.5420065451613
 30
0.0
 40
500.0000679999999
100
AcDbArc
 50
162.755659
 51
197.244925
  0
LINE
  5
D5
330
2
100
AcDbEntity
  8
4
100
AcDbLine
 10
282.3351357047759
 20
184.5420065451613
 30
0.0
 11
282.3351357047759
 21
220.5420065451613
 31
0.0
  0
LINE
  5
D6
330
2
100
AcDbEntity
  8
4
100
AcDbLine
 10
289.3351357047759
 20
184.5420065451613
 30
0.0
 11
289.3351357047759
 21
220.5420065451613
 31
0.0
  0
LINE
  5
D7
330
2
100
AcDbEntity
  8
4
100
AcDbLine
 10
287.3351357047759
 20
184.5420065451613
 30
0.0
 11
287.3351357047759
 21
220.5420065451613
 31
0.0
  0
LINE
  5
DB
330
2
100
AcDbEntity
  8
4
100
AcDbLine
 10
288.8351357047759
 20
121.5420065451613
 30
0.0
 11
288.8351357047759
 21
132.5420065451613
 31
0.0
  0
LINE
  5
DD
330
2
100
AcDbEntity
  8
4
100
AcDbLine
 10
286.8351357047759
 20
114.9087585451613
 30
0.0
 11
286.8351357047759
 21
125.0420065451613
 31
0.0
  0
LINE
  5
DE
330
2
100
AcDbEntity
  8
4
100
AcDbLine
 10
288.8351357047759
 20
125.0420065451613
 30
0.0
 11
286.8351357047759
 21
125.0420065451613
 31
0.0
  0
ARC
  5
DF
330
2
100
AcDbEntity
  8
4
100
AcDbCircle
 10
266.8351357047759
 20
106.5420065451613
 30
0.0
 40
3.0
100
AcDbArc
 50
90.0
 51
180.0
  0
LINE
  5
E0
330
2
100
AcDbEntity
  8
4
100
AcDbLine
 10
263.8351357047759
 20
106.5420065451613
 30
0.0
 11
263.8351357047759
 21
72.54200654516126
 31
0.0
  0
LINE
  5
E1
330
2
100
AcDbEntity
  8
L-CENTER
 48
8.0
100
AcDbLine
 10
288.8351357047759
 20
124.5420065451613
 30
0.0
 11
288.8351357047759
 21
57.54200654516126
 31
0.0
  0
LINE
  5
E2
330
2
100
AcDbEntity
  8
4
100
AcDbLine
 10
287.3351357047759
 20
193.5420065451613
 30
0.0
 11
282.3351357047759
 21
193.5420065451613
 31
0.0
  0
LINE
  5
E3
330
2
100
AcDbEntity
  8
4
100
AcDbLine
 10
289.3351357047759
 20
184.5420065451613
 30
0.0
 11
282.3351357047759
 21
184.5420065451613
 31
0.0
  0
LINE
  5
E8
330
2
100
AcDbEntity
  8
4
100
AcDbLine
 10
287.3351357047759
 20
211.5420065451613
 30
0.0
 11
282.3351357047759
 21
211.5420065451613
 31
0.0
  0
LINE
  5
E9
330
2
100
AcDbEntity
  8
4
100
AcDbLine
 10
289.3351357047759
 20
220.5420065451613
 30
0.0
 11
282.3351357047759
 21
220.5420065451613
 31
0.0
  0
LINE
  5
ED
330
2
100
AcDbEntity
  8
4
100
AcDbLine
 10
276.5352317047759
 20
480.1684705451612
 30
0.0
 11
276.5352317047759
 21
499.7685705451613
 31
0.0
  0
LINE
  5
EE
330
2
100
AcDbEntity
  8
4
100
AcDbLine
 10
279.0352317047759
 20
480.7685705451613
 30
0.0
 11
279.0352317047759
 21
499.1684705451612
 31
0.0
  0
LINE
  5
EF
330
2
100
AcDbEntity
  8
4
100
AcDbLine
 10
279.0352317047759
 20
517.5420065451613
 30
0.0
 11
279.0352317047759
 21
377.5420065451613
 31
0.0
  0
LINE
  5
F0
330
2
100
AcDbEntity
  8
4
100
AcDbLine
 10
269.5352317047759
 20
482.6147625451613
 30
0.0
 11
269.5352317047759
 21
497.3222825451612
 31
0.0
  0
ARC
  5
F1
330
2
100
AcDbEntity
  8
4
100
AcDbCircle
 10
283.4387957047757
 20
489.9685225451612
 30
0.0
 40
13.90362
100
AcDbArc
 50
159.3323260000002
 51
200.6686179999999
  0
LINE
  5
100
330
2
100
AcDbEntity
  8
4
100
AcDbLine
 10
279.0352317047759
 20
414.3154465451612
 30
0.0
 11
279.0352317047759
 21
395.9155425451613
 31
0.0
  0
LINE
  5
101
330
2
100
AcDbEntity
  8
4
100
AcDbLine
 10
276.5352317047759
 20
414.9155425451612
 30
0.0
 11
276.5352317047759
 21
395.3154465451612
 31
0.0
  0
LINE
  5
102
330
2
100
AcDbEntity
  8
4
100
AcDbLine
 10
279.0352317047759
 20
395.9155425451613
 30
0.0
 11
276.5352317047759
 21
395.9155425451613
 31
0.0
  0
LINE
  5
103
330
2
100
AcDbEntity
  8
4
100
AcDbLine
 10
276.5352317047759
 20
414.3154465451612
 30
0.0
 11
279.0352317047759
 21
414.3154465451612
 31
0.0
  0
ARC
  5
104
330
2
100
AcDbEntity
  8
4
100
AcDbCircle
 10
273.3262477047761
 20
397.7617345451613
 30
0.0
 40
3.79102
100
AcDbArc
 50
139.8117440000003
 51
220.1858760000003
  0
ARC
  5
105
330
2
100
AcDbEntity
  8
4
100
AcDbCircle
 10
273.3262477047761
 20
412.4692545451612
 30
0.0
 40
3.790928
100
AcDbArc
 50
139.8117440000006
 51
220.1882559999994
  0
LINE
  5
106
330
2
100
AcDbEntity
  8
4
100
AcDbLine
 10
269.5352317047759
 20
412.4692545451612
 30
0.0
 11
269.5352317047759
 21
397.7617345451613
 31
0.0
  0
ARC
  5
107
330
2
100
AcDbEntity
  8
4
100
AcDbCircle
 10
283.4387957047757
 20
405.1154945451613
 30
0.0
 40
13.90362
100
AcDbArc
 50
159.331382
 51
200.6676739999998
  0
LINE
  5
108
330
2
100
AcDbEntity
  8
4
100
AcDbLine
 10
276.5352317047759
 20
410.0229625451612
 30
0.0
 11
270.4302517047759
 21
410.0229625451612
 31
0.0
  0
LINE
  5
109
330
2
100
AcDbEntity
  8
4
100
AcDbLine
 10
270.4302517047759
 20
414.9155425451612
 30
0.0
 11
276.5352317047759
 21
414.9155425451612
 31
0.0
  0
LINE
  5
10A
330
2
100
AcDbEntity
  8
4
100
AcDbLine
 10
276.5352317047759
 20
400.2080225451613
 30
0.0
 11
270.4302517047759
 21
400.2080225451613
 31
0.0
  0
LINE
  5
10B
330
2
100
AcDbEntity
  8
4
100
AcDbLine
 10
270.4302517047759
 20
395.3154465451612
 30
0.0
 11
276.5352317047759
 21
395.3154465451612
 31
0.0
  0
LINE
  5
111
330
2
100
AcDbEntity
  8
4
100
AcDbLine
 10
276.5352317047759
 20
480.7685705451613
 30
0.0
 11
279.0352317047759
 21
480.7685705451613
 31
0.0
  0
ARC
  5
112
330
2
100
AcDbEntity
  8
4
100
AcDbCircle
 10
273.3262477047761
 20
482.6147625451613
 30
0.0
 40
3.79102
100
AcDbArc
 50
139.8141239999997
 51
220.1882559999997
  0
LINE
  5
113
330
2
100
AcDbEntity
  8
4
100
AcDbLine
 10
270.4302517047759
 20
480.1684705451612
 30
0.0
 11
276.5352317047759
 21
480.1684705451612
 31
0.0
  0
LINE
  5
114
330
2
100
AcDbEntity
  8
4
100
AcDbLine
 10
276.5352317047759
 20
485.0610505451614
 30
0.0
 11
270.4302517047759
 21
485.0610505451614
 31
0.0
  0
LINE
  5
11B
330
2
100
AcDbEntity
  8
4
100
AcDbLine
 10
279.0352317047759
 20
499.1684705451612
 30
0.0
 11
276.5352317047759
 21
499.1684705451612
 31
0.0
  0
ARC
  5
11C
330
2
100
AcDbEntity
  8
4
100
AcDbCircle
 10
273.3262477047761
 20
497.3222825451612
 30
0.0
 40
3.79102
100
AcDbArc
 50
139.8141239999997
 51
220.1882670000003
  0
LINE
  5
11D
330
2
100
AcDbEntity
  8
4
100
AcDbLine
 10
270.4302517047759
 20
499.7685705451613
 30
0.0
 11
276.5352317047759
 21
499.7685705451613
 31
0.0
  0
LINE
  5
11E
330
2
100
AcDbEntity
  8
4
100
AcDbLine
 10
276.5352317047759
 20
494.8759905451611
 30
0.0
 11
270.4302517047759
 21
494.8759905451611
 31
0.0
  0
LINE
  5
11F
330
2
100
AcDbEntity
  8
4
100
AcDbLine
 10
430.3771277047758
 20
414.6308745451613
 30
0.0
 11
421.413991704776
 21
331.7915185451612
 31
0.0
  0
LINE
  5
120
330
2
100
AcDbEntity
  8
4
100
AcDbLine
 10
497.293143704776
 20
414.6308745451613
 30
0.0
 11
506.2562797047758
 21
331.7915185451612
 31
0.0
  0
ARC
  5
121
330
2
100
AcDbEntity
  8
4
100
AcDbCircle
 10
463.8351357047759
 20
272.5420065451613
 30
0.0
 40
150.0
100
AcDbArc
 50
99.7249686749924
 51
80.27503132500743
  0
CIRCLE
  5
122
330
2
100
AcDbEntity
  8
4
100
AcDbCircle
 10
463.8351357047759
 20
272.5420065451613
 30
0.0
 40
172.0
  0
ARC
  5
123
330
2
100
AcDbEntity
  8
4
100
AcDbCircle
 10
137.8351357047759
 20
272.5420065451613
 30
0.0
 40
500.00002
100
AcDbArc
 50
342.755952
 51
17.244898
  0
LINE
  5
124
330
2
100
AcDbEntity
  8
L-CENTER
 48
8.0
100
AcDbLine
 10
463.8351357047759
 20
596.3125145451613
 30
0.0
 11
463.8351357047759
 21
87.1505451817161
 31
0.0
  0
ARC
  5
125
330
2
100
AcDbEntity
  8
4
100
AcDbCircle
 10
463.8351357047759
 20
29.54200654516126
 30
0.0
 40
299.999952
100
AcDbArc
 50
80.90485100000001
 51
99.095489
  0
ARC
  5
126
330
2
100
AcDbEntity
  8
4
100
AcDbCircle
 10
463.8351357047759
 20
25.54200654516126
 30
0.0
 40
300.00004
100
AcDbArc
 50
81.590664
 51
98.409623
  0
ARC
  5
127
330
2
100
AcDbEntity
  8
4
100
AcDbCircle
 10
463.8351357047759
 20
519.5420065451613
 30
0.0
 40
299.999944
100
AcDbArc
 50
261.590937
 51
278.4099959999999
  0
ARC
  5
128
330
2
100
AcDbEntity
  8
4
100
AcDbCircle
 10
463.8351357047759
 20
515.5420065451613
 30
0.0
 40
300.000044
100
AcDbArc
 50
260.905178
 51
279.09567
  0
LINE
  5
129
330
2
100
AcDbEntity
  8
4
100
AcDbLine
 10
395.3070597047758
 20
96.54200654516126
 30
0.0
 11
532.363211704776
 21
96.54200654516126
 31
0.0
  0
ARC
  5
12A
330
2
100
AcDbEntity
  8
4
100
AcDbCircle
 10
463.8353797047757
 20
598.5420065451613
 30
0.0
 40
499.99998
100
AcDbArc
 50
254.335962
 51
285.664911
  0
LINE
  5
12B
330
2
100
AcDbEntity
  8
4
100
AcDbLine
 10
430.3771277047758
 20
130.4531385451612
 30
0.0
 11
421.413991704776
 21
213.2924945451613
 31
0.0
  0
LINE
  5
12C
330
2
100
AcDbEntity
  8
4
100
AcDbLine
 10
290.8351357047759
 20
185.5420065451613
 30
0.0
 11
290.8351357047759
 21
219.5420065451613
 31
0.0
  0
LINE
  5
12D
330
2
100
AcDbEntity
  8
4
100
AcDbLine
 10
290.8351357047759
 20
182.5420065451613
 30
0.0
 11
290.8351357047759
 21
222.5420065451613
 31
0.0
  0
LINE
  5
12E
330
2
100
AcDbEntity
  8
4
100
AcDbLine
 10
293.8351357047759
 20
209.4231105451613
 30
0.0
 11
293.8351357047759
 21
121.5420065451613
 31
0.0
  0
LINE
  5
12F
330
2
100
AcDbEntity
  8
4
100
AcDbLine
 10
392.4879677047761
 20
95.94923454516129
 30
0.0
 11
373.0160437047757
 21
87.38160654516128
 31
0.0
  0
LINE
  5
130
330
2
100
AcDbEntity
  8
4
100
AcDbLine
 10
318.8351357047759
 20
114.5420065451613
 30
0.0
 11
318.8351357047759
 21
150.5420065451613
 31
0.0
  0
LINE
  5
131
330
2
100
AcDbEntity
  8
4
100
AcDbLine
 10
328.8351357047759
 20
150.5420065451613
 30
0.0
 11
328.8351357047759
 21
72.54200654516126
 31
0.0
  0
ARC
  5
132
330
2
100
AcDbEntity
  8
4
100
AcDbCircle
 10
313.8351357047759
 20
114.5420065451613
 30
0.0
 40
5.0
100
AcDbArc
 50
270.0
 51
0.0
  0
ARC
  5
133
330
2
100
AcDbEntity
  8
4
100
AcDbCircle
 10
463.8353797047757
 20
598.5420065451613
 30
0.0
 40
500.000064
100
AcDbArc
 50
252.755191
 51
253.14234
  0
ARC
  5
134
330
2
100
AcDbEntity
  8
4
100
AcDbCircle
 10
317.0875757047761
 20
125.7946905451613
 30
0.0
 40
5.00004
100
AcDbArc
 50
197.2467140000002
 51
252.7567990000003
  0
LINE
  5
135
330
2
100
AcDbEntity
  8
4
100
AcDbLine
 10
368.8351357047759
 20
80.97437854516124
 30
0.0
 11
368.8351357047759
 21
72.54200654516126
 31
0.0
  0
ARC
  5
136
330
2
100
AcDbEntity
  8
4
100
AcDbCircle
 10
375.8351357047759
 20
80.97437854516124
 30
0.0
 40
6.999996
100
AcDbArc
 50
113.7488360000001
 51
180.0
  0
LINE
  5
137
330
2
100
AcDbEntity
  8
4
100
AcDbLine
 10
293.8351357047759
 20
182.5420065451613
 30
0.0
 11
290.8351357047759
 21
182.5420065451613
 31
0.0
  0
LINE
  5
138
330
2
100
AcDbEntity
  8
4
100
AcDbLine
 10
318.8351357047759
 20
150.5420065451613
 30
0.0
 11
328.8351357047759
 21
150.5420065451613
 31
0.0
  0
ARC
  5
139
330
2
100
AcDbEntity
  8
4
100
AcDbCircle
 10
395.3070597047758
 20
89.54200654516126
 30
0.0
 40
6.999996
100
AcDbArc
 50
90.0
 51
113.7488360000001
  0
ARC
  5
13A
330
2
100
AcDbEntity
  8
4
100
AcDbCircle
 10
427.3944597047757
 20
130.1303865451613
 30
0.0
 40
3.0001
100
AcDbArc
 50
255.6482580000001
 51
6.175939999999565
  0
LINE
  5
13B
330
2
100
AcDbEntity
  8
4
100
AcDbLine
 10
321.7462677047761
 20
239.0837545451612
 30
0.0
 11
404.5858677047759
 21
230.1206185451613
 31
0.0
  0
LINE
  5
13C
330
2
100
AcDbEntity
  8
4
100
AcDbLine
 10
321.7462677047761
 20
306.0002585451613
 30
0.0
 11
404.5858677047759
 21
314.9633945451612
 31
0.0
  0
ARC
  5
13D
330
2
100
AcDbEntity
  8
4
100
AcDbCircle
 10
321.423515704776
 20
236.1010905451612
 30
0.0
 40
2.99998
100
AcDbArc
 50
83.82405999999983
 51
194.3528979999996
  0
LINE
  5
13E
330
2
100
AcDbEntity
  8
4
100
AcDbLine
 10
292.3414837047758
 20
222.5420065451613
 30
0.0
 11
290.8351357047759
 21
222.5420065451613
 31
0.0
  0
ARC
  5
13F
330
2
100
AcDbEntity
  8
4
100
AcDbCircle
 10
321.423515704776
 20
308.9829265451613
 30
0.0
 40
2.99998
100
AcDbArc
 50
165.6471020000004
 51
276.1759400000001
  0
ARC
  5
140
330
2
100
AcDbEntity
  8
4
100
AcDbCircle
 10
710.8353797047757
 20
272.5417625451613
 30
0.0
 40
300.000004
100
AcDbArc
 50
171.590893
 51
188.409621
  0
ARC
  5
141
330
2
100
AcDbEntity
  8
4
100
AcDbCircle
 10
706.8353797047757
 20
272.5417625451613
 30
0.0
 40
300.000012
100
AcDbArc
 50
170.90508
 51
189.095434
  0
ARC
  5
142
330
2
100
AcDbEntity
  8
4
100
AcDbCircle
 10
414.454519704776
 20
212.5393225451612
 30
0.0
 40
7.000096000000001
100
AcDbArc
 50
6.176666000000007
 51
80.74366200000009
  0
ARC
  5
143
330
2
100
AcDbEntity
  8
4
100
AcDbCircle
 10
403.8326957047757
 20
223.1611465451613
 30
0.0
 40
7.000096000000001
100
AcDbArc
 50
9.256338000000442
 51
83.82333400000005
  0
ARC
  5
144
330
2
100
AcDbEntity
  8
4
100
AcDbCircle
 10
417.5192157047759
 20
226.2258465451613
 30
0.0
 40
7.000103999999999
100
AcDbArc
 50
189.0943789999999
 51
260.9056210000001
  0
ARC
  5
145
330
2
100
AcDbEntity
  8
4
100
AcDbCircle
 10
420.9855277047759
 20
229.6921545451612
 30
0.0
 40
7.00006
100
AcDbArc
 50
188.409035
 51
261.5909650000001
  0
ARC
  5
146
330
2
100
AcDbEntity
  8
4
100
AcDbCircle
 10
414.454519704776
 20
332.5446905451613
 30
0.0
 40
7.000096000000001
100
AcDbArc
 50
279.2563379999999
 51
353.823334
  0
ARC
  5
147
330
2
100
AcDbEntity
  8
4
100
AcDbCircle
 10
403.832939704776
 20
321.9228665451612
 30
0.0
 40
7.000083999999999
100
AcDbArc
 50
276.1746799999997
 51
350.7436619999996
  0
ARC
  5
148
330
2
100
AcDbEntity
  8
4
100
AcDbCircle
 10
417.5192157047759
 20
318.8581705451612
 30
0.0
 40
7.000103999999999
100
AcDbArc
 50
99.0943780000002
 51
170.9056129999999
  0
ARC
  5
149
330
2
100
AcDbEntity
  8
4
100
AcDbCircle
 10
420.9855277047759
 20
315.3918625451613
 30
0.0
 40
7.00006
100
AcDbArc
 50
98.40903600000007
 51
171.5909740000003
  0
LINE
  5
14A
330
2
100
AcDbEntity
  8
4
100
AcDbLine
 10
633.8351357047759
 20
209.4231105451613
 30
0.0
 11
633.8351357047759
 21
121.5420065451613
 31
0.0
  0
LINE
  5
14B
330
2
100
AcDbEntity
  8
4
100
AcDbLine
 10
497.293143704776
 20
130.4531385451612
 30
0.0
 11
506.2562797047758
 21
213.2924945451613
 31
0.0
  0
ARC
  5
14C
330
2
100
AcDbEntity
  8
4
100
AcDbCircle
 10
551.8351357047759
 20
80.97437854516124
 30
0.0
 40
6.999996
100
AcDbArc
 50
0.0
 51
66.2511640000003
  0
ARC
  5
14D
330
2
100
AcDbEntity
  8
4
100
AcDbCircle
 10
532.363211704776
 20
89.54200654516126
 30
0.0
 40
6.999996
100
AcDbArc
 50
66.2511640000003
 51
90.0
  0
LINE
  5
14E
330
2
100
AcDbEntity
  8
4
100
AcDbLine
 10
535.1823037047761
 20
95.94923454516129
 30
0.0
 11
554.6542277047756
 21
87.38160654516128
 31
0.0
  0
ARC
  5
14F
330
2
100
AcDbEntity
  8
4
100
AcDbCircle
 10
500.2758077047761
 20
130.1303865451613
 30
0.0
 40
2.99998
100
AcDbArc
 50
173.8240599999997
 51
284.3528979999996
  0
LINE
  5
150
330
2
100
AcDbEntity
  8
4
100
AcDbLine
 10
608.8351357047759
 20
114.5420065451613
 30
0.0
 11
608.8351357047759
 21
150.5420065451613
 31
0.0
  0
LINE
  5
151
330
2
100
AcDbEntity
  8
4
100
AcDbLine
 10
598.8351357047759
 20
150.5420065451613
 30
0.0
 11
598.8351357047759
 21
72.54200654516126
 31
0.0
  0
LINE
  5
152
330
2
100
AcDbEntity
  8
4
100
AcDbLine
 10
558.8351357047759
 20
80.97437854516124
 30
0.0
 11
558.8351357047759
 21
72.54200654516126
 31
0.0
  0
ARC
  5
153
330
2
100
AcDbEntity
  8
4
100
AcDbCircle
 10
645.8351357047759
 20
121.5420065451613
 30
0.0
 40
12.0
100
AcDbArc
 50
180.0
 51
270.0011650000001
  0
ARC
  5
154
330
2
100
AcDbEntity
  8
4
100
AcDbCircle
 10
613.8351357047759
 20
114.5420065451613
 30
0.0
 40
5.0
100
AcDbArc
 50
180.0
 51
270.0
  0
ARC
  5
155
330
2
100
AcDbEntity
  8
4
100
AcDbCircle
 10
463.8348917047761
 20
598.5420065451613
 30
0.0
 40
500.00002
100
AcDbArc
 50
286.858598
 51
287.245747
  0
ARC
  5
156
330
2
100
AcDbEntity
  8
4
100
AcDbCircle
 10
610.5826957047757
 20
125.7946905451613
 30
0.0
 40
4.999924
100
AcDbArc
 50
287.2440290000005
 51
342.7532860000005
  0
LINE
  5
158
330
2
100
AcDbEntity
  8
4
100
AcDbLine
 10
628.8351357047759
 20
72.54200654516126
 30
0.0
 11
628.8351357047759
 21
109.5420065451613
 31
0.0
  0
LWPOLYLINE
  5
159
330
2
100
AcDbEntity
  8
4
100
AcDbPolyline
 90
       32
 70
     0
 43
0.0
 10
619.0266157047758
 20
109.5420825451613
 10
618.317275704776
 20
108.6068985451612
 10
617.7084037047762
 20
107.6658265451613
 10
617.229375704776
 20
106.7171465451613
 10
616.9095637047758
 20
105.7591345451613
 10
616.7783357047756
 20
104.7900665451613
 10
616.8650717047758
 20
103.8082265451612
 10
617.134083704776
 20
102.9220385451613
 10
617.5256357047756
 20
102.0283385451612
 10
617.9658877047759
 20
101.1311265451612
 10
618.3809957047761
 20
100.2343985451612
 10
618.697119704776
 20
99.34215854516128
 10
618.8404157047758
 20
98.45839454516124
 10
618.7917517047758
 20
97.75856254516134
 10
618.6126077047757
 20
97.06469854516126
 10
618.3308077047759
 20
96.37475854516128
 10
617.1476357047759
 20
94.30806254516119
 10
616.7333877047759
 20
93.61339454516133
 10
616.3555757047761
 20
92.91244254516118
 10
616.0420157047756
 20
92.20316254516126
 10
615.709027704776
 20
90.99365054516124
 10
615.596059704776
 20
89.75955454516122
 10
615.6649917047762
 20
88.50536654516122
 10
616.582039704776
 20
84.66718254516127
 10
617.7640557047762
 20
80.80993454516124
 10
618.0390677047758
 20
79.54091454516129
 10
618.1910637047758
 20
78.28775054516132
 10
618.1819237047757
 20
77.05493054516126
 10
617.9982517047756
 20
75.90038254516128
 10
617.6617997047761
 20
74.7648825451613
 10
617.2011997047757
 20
73.64485854516124
 10
616.6451037047759
 20
72.53674254516125
  0
LINE
  5
15A
330
2
100
AcDbEntity
  8
L-CENTER
 48
8.0
100
AcDbLine
 10
638.8351357047759
 20
124.5420065451613
 30
0.0
 11
638.8351357047759
 21
57.54200654516126
 31
0.0
  0
LINE
  5
15B
330
2
100
AcDbEntity
  8
4
100
AcDbLine
 10
608.8351357047759
 20
150.5420065451613
 30
0.0
 11
598.8351357047759
 21
150.5420065451613
 31
0.0
  0
LINE
  5
15C
330
2
100
AcDbEntity
  8
4
100
AcDbLine
 10
605.9240037047757
 20
239.0837545451612
 30
0.0
 11
523.0844037047759
 21
230.1206185451613
 31
0.0
  0
LINE
  5
15D
330
2
100
AcDbEntity
  8
4
100
AcDbLine
 10
605.9240037047757
 20
306.0002585451613
 30
0.0
 11
523.0844037047759
 21
314.9633945451612
 31
0.0
  0
ARC
  5
15E
330
2
100
AcDbEntity
  8
4
100
AcDbCircle
 10
220.8348917047761
 20
272.5417625451613
 30
0.0
 40
299.999984
100
AcDbArc
 50
350.905601
 51
9.095295999999994
  0
ARC
  5
15F
330
2
100
AcDbEntity
  8
4
100
AcDbCircle
 10
216.8348917047758
 20
272.5417625451613
 30
0.0
 40
300.000028
100
AcDbArc
 50
351.591322
 51
8.409483000000021
  0
ARC
  5
160
330
2
100
AcDbEntity
  8
4
100
AcDbCircle
 10
506.6847437047759
 20
229.6921545451612
 30
0.0
 40
7.00006
100
AcDbArc
 50
278.4090349999999
 51
351.5909650000002
  0
ARC
  5
161
330
2
100
AcDbEntity
  8
4
100
AcDbCircle
 10
510.1510517047759
 20
226.2258465451613
 30
0.0
 40
7.000103999999999
100
AcDbArc
 50
279.0943789999999
 51
350.9056210000001
  0
ARC
  5
162
330
2
100
AcDbEntity
  8
4
100
AcDbCircle
 10
513.2157517047758
 20
212.5393225451612
 30
0.0
 40
7.000096000000001
100
AcDbArc
 50
99.2563380000004
 51
173.823334
  0
ARC
  5
163
330
2
100
AcDbEntity
  8
4
100
AcDbCircle
 10
523.8375757047761
 20
223.1611465451613
 30
0.0
 40
7.000096000000001
100
AcDbArc
 50
96.17666599999995
 51
170.7436619999996
  0
ARC
  5
164
330
2
100
AcDbEntity
  8
4
100
AcDbCircle
 10
506.6847437047759
 20
315.3918625451613
 30
0.0
 40
7.00006
100
AcDbArc
 50
8.409027000000155
 51
81.59096399999994
  0
ARC
  5
165
330
2
100
AcDbEntity
  8
4
100
AcDbCircle
 10
510.1510517047759
 20
318.8581705451612
 30
0.0
 40
7.000103999999999
100
AcDbArc
 50
9.094387000000209
 51
80.9056219999998
  0
ARC
  5
166
330
2
100
AcDbEntity
  8
4
100
AcDbCircle
 10
513.2157517047758
 20
332.5446905451613
 30
0.0
 40
7.000096000000001
100
AcDbArc
 50
186.176666
 51
260.7436619999996
  0
ARC
  5
167
330
2
100
AcDbEntity
  8
4
100
AcDbCircle
 10
523.8373317047758
 20
321.9228665451612
 30
0.0
 40
7.000083999999999
100
AcDbArc
 50
189.2563380000004
 51
263.8253199999997
  0
ARC
  5
168
330
2
100
AcDbEntity
  8
4
100
AcDbCircle
 10
606.2467557047758
 20
236.1010905451612
 30
0.0
 40
3.0001
100
AcDbArc
 50
345.6482580000001
 51
96.17594000000075
  0
ARC
  5
169
330
2
100
AcDbEntity
  8
4
100
AcDbCircle
 10
606.2467557047758
 20
308.9829265451613
 30
0.0
 40
2.99998
100
AcDbArc
 50
263.8240599999998
 51
14.35289799999935
  0
ARC
  5
16B
330
2
100
AcDbEntity
  8
4
100
AcDbCircle
 10
463.8351357047754
 20
407.5420065451615
 30
0.0
 40
23.0
100
AcDbArc
 50
180.0
 51
0.0
  0
LINE
  5
16C
330
2
100
AcDbEntity
  8
4
100
AcDbLine
 10
443.8351357047759
 20
537.5420065451613
 30
0.0
 11
483.8351357047759
 21
537.5420065451613
 31
0.0
  0
LINE
  5
16D
330
2
100
AcDbEntity
  8
4
100
AcDbLine
 10
476.3351357047759
 20
546.5420065451613
 30
0.0
 11
451.3351357047759
 21
546.5420065451613
 31
0.0
  0
LINE
  5
16E
330
2
100
AcDbEntity
  8
4
100
AcDbLine
 10
463.8351357047759
 20
548.5420065451613
 30
0.0
 11
476.3351357047759
 21
546.5420065451613
 31
0.0
  0
CIRCLE
  5
16F
330
2
100
AcDbEntity
  8
4
100
AcDbCircle
 10
463.8351357047759
 20
563.5420065451613
 30
0.0
 40
15.0
  0
LINE
  5
170
330
2
100
AcDbEntity
  8
L-CENTER
 48
8.0
100
AcDbLine
 10
496.605643704776
 20
563.5420065451613
 30
0.0
 11
431.0646277047758
 21
563.5420065451613
 31
0.0
  0
ARC
  5
171
330
2
100
AcDbEntity
  8
4
100
AcDbCircle
 10
463.8351357047759
 20
563.5420065451613
 30
0.0
 40
24.999952
100
AcDbArc
 50
301.7709889999999
 51
240.0
  0
LINE
  5
172
330
2
100
AcDbEntity
  8
4
100
AcDbLine
 10
295.8351357047759
 20
521.5420065451613
 30
0.0
 11
631.8351357047759
 21
521.5420065451613
 31
0.0
  0
ARC
  5
173
330
2
100
AcDbEntity
  8
4
100
AcDbCircle
 10
463.8348917047761
 20
-53.45799345483874
 30
0.0
 40
500.000032
100
AcDbArc
 50
72.75489999999999
 51
107.245404
  0
LINE
  5
174
330
2
100
AcDbEntity
  8
4
100
AcDbLine
 10
290.8351357047759
 20
377.5420065451613
 30
0.0
 11
290.8351357047759
 21
517.5420065451613
 31
0.0
  0
LINE
  5
175
330
2
100
AcDbEntity
  8
4
100
AcDbLine
 10
295.8351357047759
 20
462.5420065451613
 30
0.0
 11
295.8351357047759
 21
521.5420065451613
 31
0.0
  0
LINE
  5
176
330
2
100
AcDbEntity
  8
4
100
AcDbLine
 10
295.8351357047759
 20
349.7690585451612
 30
0.0
 11
295.8351357047759
 21
432.5420065451613
 31
0.0
  0
ARC
  5
177
330
2
100
AcDbEntity
  8
4
100
AcDbCircle
 10
317.0875757047761
 20
419.2893225451612
 30
0.0
 40
4.999924
100
AcDbArc
 50
107.2440329999999
 51
162.7532969999999
  0
ARC
  5
178
330
2
100
AcDbEntity
  8
4
100
AcDbCircle
 10
290.8351357047759
 20
462.5420065451613
 30
0.0
 40
5.0
100
AcDbArc
 50
270.0
 51
0.0
  0
ARC
  5
179
330
2
100
AcDbEntity
  8
4
100
AcDbCircle
 10
290.8351357047759
 20
432.5420065451613
 30
0.0
 40
5.0
100
AcDbArc
 50
0.0
 51
90.0
  0
ARC
  5
17A
330
2
100
AcDbEntity
  8
4
100
AcDbCircle
 10
438.8351357047763
 20
418.4152391822699
 30
0.0
 40
2.0
100
AcDbArc
 50
0.0
 51
99.72496867499517
  0
LINE
  5
17B
330
2
100
AcDbEntity
  8
4
100
AcDbLine
 10
440.8351357047763
 20
407.5420065451615
 30
0.0
 11
440.8351357047763
 21
418.4152391822701
 31
0.0
  0
ARC
  5
17C
330
2
100
AcDbEntity
  8
4
100
AcDbCircle
 10
427.3944597047757
 20
414.9536265451612
 30
0.0
 40
3.0001
100
AcDbArc
 50
353.8240599999993
 51
104.3517419999999
  0
LINE
  5
17D
330
2
100
AcDbEntity
  8
4
100
AcDbLine
 10
340.8351357047759
 20
524.5420065451613
 30
0.0
 11
390.8351357047759
 21
524.5420065451613
 31
0.0
  0
LINE
  5
17E
330
2
100
AcDbEntity
  8
4
100
AcDbLine
 10
342.8351357047759
 20
535.0420065451613
 30
0.0
 11
388.8351357047759
 21
535.0420065451613
 31
0.0
  0
LINE
  5
17F
330
2
100
AcDbEntity
  8
4
100
AcDbLine
 10
342.8351357047759
 20
530.0420065451613
 30
0.0
 11
388.8351357047759
 21
530.0420065451613
 31
0.0
  0
LINE
  5
180
330
2
100
AcDbEntity
  8
4
100
AcDbLine
 10
342.8351357047759
 20
526.0420065451613
 30
0.0
 11
388.8351357047759
 21
526.0420065451613
 31
0.0
  0
LINE
  5
181
330
2
100
AcDbEntity
  8
4
100
AcDbLine
 10
343.8351357047759
 20
524.5420065451613
 30
0.0
 11
387.8351357047759
 21
524.5420065451613
 31
0.0
  0
ARC
  5
183
330
2
100
AcDbEntity
  8
4
100
AcDbCircle
 10
317.8351357047759
 20
526.5420065451613
 30
0.0
 40
4.0
100
AcDbArc
 50
90.0
 51
180.0
  0
LINE
  5
184
330
2
100
AcDbEntity
  8
4
100
AcDbLine
 10
313.8351357047759
 20
521.5420065451613
 30
0.0
 11
313.8351357047759
 21
526.5420065451613
 31
0.0
  0
LINE
  5
185
330
2
100
AcDbEntity
  8
4
100
AcDbLine
 10
317.8351357047759
 20
530.5420065451613
 30
0.0
 11
317.8351357047759
 21
540.5420065451613
 31
0.0
  0
LINE
  5
186
330
2
100
AcDbEntity
  8
4
100
AcDbLine
 10
316.8351357047759
 20
543.5420065451613
 30
0.0
 11
318.8351357047759
 21
542.5420065451613
 31
0.0
  0
LINE
  5
187
330
2
100
AcDbEntity
  8
4
100
AcDbLine
 10
318.8351357047759
 20
542.5420065451613
 30
0.0
 11
318.8351357047759
 21
540.5420065451613
 31
0.0
  0
ARC
  5
188
330
2
100
AcDbEntity
  8
4
100
AcDbCircle
 10
297.8351357047759
 20
526.5420065451613
 30
0.0
 40
4.0
100
AcDbArc
 50
0.0
 51
90.0
  0
ARC
  5
189
330
2
100
AcDbEntity
  8
4
100
AcDbCircle
 10
304.8351357047759
 20
521.5420065451613
 30
0.0
 40
5.0
100
AcDbArc
 50
53.13010200000015
 51
126.8698979999998
  0
LINE
  5
18A
330
2
100
AcDbEntity
  8
4
100
AcDbLine
 10
301.8351357047759
 20
521.5420065451613
 30
0.0
 11
301.8351357047759
 21
526.5420065451613
 31
0.0
  0
LINE
  5
18B
330
2
100
AcDbEntity
  8
4
100
AcDbLine
 10
301.8351357047759
 20
521.5420065451613
 30
0.0
 11
307.8351357047759
 21
521.5420065451613
 31
0.0
  0
LINE
  5
18C
330
2
100
AcDbEntity
  8
4
100
AcDbLine
 10
297.8351357047759
 20
530.5420065451613
 30
0.0
 11
297.8351357047759
 21
540.5420065451613
 31
0.0
  0
LINE
  5
18D
330
2
100
AcDbEntity
  8
4
100
AcDbLine
 10
297.8351357047759
 20
530.5420065451613
 30
0.0
 11
307.8351357047759
 21
530.5420065451613
 31
0.0
  0
LINE
  5
18E
330
2
100
AcDbEntity
  8
4
100
AcDbLine
 10
298.8351357047759
 20
543.5420065451613
 30
0.0
 11
296.8351357047759
 21
542.5420065451613
 31
0.0
  0
LINE
  5
18F
330
2
100
AcDbEntity
  8
4
100
AcDbLine
 10
296.8351357047759
 20
542.5420065451613
 30
0.0
 11
296.8351357047759
 21
540.5420065451613
 31
0.0
  0
LINE
  5
190
330
2
100
AcDbEntity
  8
4
100
AcDbLine
 10
296.8351357047759
 20
542.5420065451613
 30
0.0
 11
307.8351357047759
 21
542.5420065451613
 31
0.0
  0
LINE
  5
191
330
2
100
AcDbEntity
  8
4
100
AcDbLine
 10
298.8351357047759
 20
543.5420065451613
 30
0.0
 11
307.8351357047759
 21
543.5420065451613
 31
0.0
  0
LINE
  5
192
330
2
100
AcDbEntity
  8
4
100
AcDbLine
 10
307.8351357047759
 20
540.5420065451613
 30
0.0
 11
296.8351357047759
 21
540.5420065451613
 31
0.0
  0
LINE
  5
193
330
2
100
AcDbEntity
  8
L-CENTER
 48
8.0
100
AcDbLine
 10
307.8351357047759
 20
548.6063017912206
 30
0.0
 11
307.8351357047759
 21
511.5986697912206
 31
0.0
  0
LINE
  5
194
330
2
100
AcDbEntity
  8
4
100
AcDbLine
 10
313.8351357047759
 20
521.5420065451613
 30
0.0
 11
307.8351357047759
 21
521.5420065451613
 31
0.0
  0
ARC
  5
195
330
2
100
AcDbEntity
  8
4
100
AcDbCircle
 10
310.8351357047759
 20
521.5420065451613
 30
0.0
 40
5.0
100
AcDbArc
 50
53.13010200000015
 51
126.8698979999998
  0
LINE
  5
196
330
2
100
AcDbEntity
  8
4
100
AcDbLine
 10
317.8351357047759
 20
530.5420065451613
 30
0.0
 11
307.8351357047759
 21
530.5420065451613
 31
0.0
  0
LINE
  5
197
330
2
100
AcDbEntity
  8
4
100
AcDbLine
 10
310.8351357047759
 20
526.5420065451613
 30
0.0
 11
304.8351357047759
 21
526.5420065451613
 31
0.0
  0
LINE
  5
198
330
2
100
AcDbEntity
  8
4
100
AcDbLine
 10
316.8351357047759
 20
543.5420065451613
 30
0.0
 11
307.8351357047759
 21
543.5420065451613
 31
0.0
  0
LINE
  5
199
330
2
100
AcDbEntity
  8
4
100
AcDbLine
 10
318.8351357047759
 20
542.5420065451613
 30
0.0
 11
307.8351357047759
 21
542.5420065451613
 31
0.0
  0
LINE
  5
19A
330
2
100
AcDbEntity
  8
4
100
AcDbLine
 10
307.8351357047759
 20
540.5420065451613
 30
0.0
 11
318.8351357047759
 21
540.5420065451613
 31
0.0
  0
LINE
  5
19C
330
2
100
AcDbEntity
  8
4
100
AcDbLine
 10
377.3351357047759
 20
530.0420065451613
 30
0.0
 11
377.3351357047759
 21
535.0420065451613
 31
0.0
  0
LINE
  5
19D
330
2
100
AcDbEntity
  8
4
100
AcDbLine
 10
354.3351357047759
 20
530.0420065451613
 30
0.0
 11
354.3351357047759
 21
535.0420065451613
 31
0.0
  0
LINE
  5
19E
330
2
100
AcDbEntity
  8
L-CENTER
 48
8.0
100
AcDbLine
 10
365.8351357047759
 20
504.1254970269006
 30
0.0
 11
365.8351357047759
 21
540.1484225451613
 31
0.0
  0
LINE
  5
19F
330
2
100
AcDbEntity
  8
4
100
AcDbLine
 10
342.8351357047759
 20
526.0420065451613
 30
0.0
 11
342.8351357047759
 21
535.0420065451613
 31
0.0
  0
LINE
  5
1A0
330
2
100
AcDbEntity
  8
4
100
AcDbLine
 10
340.8351357047759
 20
521.5420065451613
 30
0.0
 11
340.8351357047759
 21
524.5420065451613
 31
0.0
  0
LINE
  5
1A1
330
2
100
AcDbEntity
  8
4
100
AcDbLine
 10
343.8351357047759
 20
526.0420065451613
 30
0.0
 11
343.8351357047759
 21
524.5420065451613
 31
0.0
  0
LINE
  5
1A3
330
2
100
AcDbEntity
  8
4
100
AcDbLine
 10
388.8351357047759
 20
526.0420065451613
 30
0.0
 11
388.8351357047759
 21
535.0420065451613
 31
0.0
  0
LINE
  5
1A4
330
2
100
AcDbEntity
  8
4
100
AcDbLine
 10
390.8351357047759
 20
521.5420065451613
 30
0.0
 11
390.8351357047759
 21
524.5420065451613
 31
0.0
  0
LINE
  5
1A5
330
2
100
AcDbEntity
  8
4
100
AcDbLine
 10
387.8351357047759
 20
526.0420065451613
 30
0.0
 11
387.8351357047759
 21
524.5420065451613
 31
0.0
  0
ARC
  5
1A6
330
2
100
AcDbEntity
  8
4
100
AcDbCircle
 10
441.8351357047758
 20
523.5420065451611
 30
0.0
 40
2.0
100
AcDbArc
 50
270.0
 51
0.0
  0
LINE
  5
1A7
330
2
100
AcDbEntity
  8
4
100
AcDbLine
 10
451.3351357047759
 20
537.5420065451613
 30
0.0
 11
451.3351357047759
 21
546.5420065451613
 31
0.0
  0
ARC
  5
1A8
330
2
100
AcDbEntity
  8
4
100
AcDbCircle
 10
449.935231704776
 20
541.0976705451612
 30
0.0
 40
1.399916
100
AcDbArc
 50
0.0
 51
58.23083899999887
  0
LINE
  5
1A9
330
2
100
AcDbEntity
  8
4
100
AcDbLine
 10
451.3351357047759
 20
546.5420065451613
 30
0.0
 11
463.8351357047759
 21
548.5420065451613
 31
0.0
  0
LINE
  5
1AA
330
2
100
AcDbEntity
  8
4
100
AcDbLine
 10
443.8351357047759
 20
523.5420065451611
 30
0.0
 11
443.8351357047759
 21
537.5420065451614
 31
0.0
  0
LINE
  5
1B3
330
2
100
AcDbEntity
  8
4
100
AcDbLine
 10
621.8351357047718
 20
506.5420065451624
 30
0.0
 11
621.8351357047818
 21
466.5420065431636
 31
0.0
  0
LINE
  5
1B4
330
2
100
AcDbEntity
  8
4
100
AcDbLine
 10
514.8351357042789
 20
506.5420065451628
 30
0.0
 11
514.8351357042784
 21
466.5420065431623
 31
0.0
  0
ARC
  5
1B5
330
2
100
AcDbEntity
  8
4
100
AcDbCircle
 10
594.9187278402724
 20
488.5420065451617
 30
0.0
 40
5.0
100
AcDbArc
 50
333.4349488251161
 51
89.99999999999739
  0
LINE
  5
1B6
330
2
100
AcDbEntity
  8
4
100
AcDbLine
 10
600.7497255081407
 20
473.3711861499633
 30
0.0
 11
610.6767764913002
 21
493.2252881181823
 31
0.0
  0
ARC
  5
1B7
330
2
100
AcDbEntity
  8
4
100
AcDbCircle
 10
567.8351357042752
 20
492.7870045425617
 30
0.0
 40
5.0
100
AcDbArc
 50
308.6821874535028
 51
0.0
  0
LINE
  5
1B8
330
2
100
AcDbEntity
  8
4
100
AcDbLine
 10
551.8351357042789
 20
499.0420065451623
 30
0.0
 11
551.8351357042789
 21
474.0420065431623
 31
0.0
  0
LINE
  5
1B9
330
2
100
AcDbEntity
  8
4
100
AcDbLine
 10
525.8351357042789
 20
498.9266219296617
 30
0.0
 11
525.8351357042789
 21
474.157391158662
 31
0.0
  0
LINE
  5
1BA
330
2
100
AcDbEntity
  8
4
100
AcDbLine
 10
532.8351357047795
 20
498.9266219296617
 30
0.0
 11
532.8351357047795
 21
481.157391159162
 31
0.0
  0
LINE
  5
1BB
330
2
100
AcDbEntity
  8
4
100
AcDbLine
 10
636.8351357047759
 20
377.5420065451613
 30
0.0
 11
636.8351357047759
 21
517.5420065451613
 31
0.0
  0
LINE
  5
1BC
330
2
100
AcDbEntity
  8
4
100
AcDbLine
 10
631.8351357047759
 20
462.5420065451613
 30
0.0
 11
631.8351357047759
 21
521.5420065451613
 31
0.0
  0
LINE
  5
1BD
330
2
100
AcDbEntity
  8
4
100
AcDbLine
 10
519.8351357042784
 20
461.5420065431624
 30
0.0
 11
616.8351357047818
 21
461.5420065431623
 31
0.0
  0
LINE
  5
1BE
330
2
100
AcDbEntity
  8
4
100
AcDbLine
 10
553.3351357042789
 20
472.5420065431623
 30
0.0
 11
567.8351357042789
 21
472.5420065431623
 31
0.0
  0
ARC
  5
1BF
330
2
100
AcDbEntity
  8
4
100
AcDbCircle
 10
488.8351357047759
 20
418.4152391822698
 30
0.0
 40
2.0
100
AcDbArc
 50
80.27503132500483
 51
180.0
  0
LINE
  5
1C0
330
2
100
AcDbEntity
  8
4
100
AcDbLine
 10
486.8351357047754
 20
407.5420065451615
 30
0.0
 11
486.8351357047754
 21
418.4152391822698
 31
0.0
  0
ARC
  5
1C1
330
2
100
AcDbEntity
  8
4
100
AcDbCircle
 10
500.2758077047761
 20
414.9536265451612
 30
0.0
 40
2.99998
100
AcDbArc
 50
75.64710200000069
 51
186.1759400000003
  0
ARC
  5
1C2
330
2
100
AcDbEntity
  8
4
100
AcDbCircle
 10
519.8351357042784
 20
466.5420065431623
 30
0.0
 40
5.0
100
AcDbArc
 50
180.0
 51
270.0
  0
ARC
  5
1C3
330
2
100
AcDbEntity
  8
4
100
AcDbCircle
 10
553.3351357042789
 20
474.0420065431623
 30
0.0
 40
1.5
100
AcDbArc
 50
180.0
 51
270.0
  0
ARC
  5
1C4
330
2
100
AcDbEntity
  8
4
100
AcDbCircle
 10
545.3351357042789
 20
474.042006543162
 30
0.0
 40
1.5
100
AcDbArc
 50
270.0
 51
0.0
  0
ARC
  5
1C5
330
2
100
AcDbEntity
  8
4
100
AcDbCircle
 10
545.3351357042789
 20
478.0420065436618
 30
0.0
 40
1.5
100
AcDbArc
 50
0.0
 51
90.0
  0
LINE
  5
1C6
330
2
100
AcDbEntity
  8
4
100
AcDbLine
 10
546.8351357042789
 20
478.0420065436618
 30
0.0
 11
546.8351357042789
 21
474.042006543162
 31
0.0
  0
ARC
  5
1C7
330
2
100
AcDbEntity
  8
4
100
AcDbCircle
 10
534.4505203202798
 20
481.157391159162
 30
0.0
 40
1.6153846155
100
AcDbArc
 50
180.0
 51
270.0
  0
LINE
  5
1C8
330
2
100
AcDbEntity
  8
4
100
AcDbLine
 10
534.4505203202798
 20
479.542006543662
 30
0.0
 11
545.3351357042789
 21
479.5420065436618
 31
0.0
  0
LINE
  5
1C9
330
2
100
AcDbEntity
  8
4
100
AcDbLine
 10
527.4505203197787
 20
472.542006543162
 30
0.0
 11
545.3351357042789
 21
472.542006543162
 31
0.0
  0
ARC
  5
1CA
330
2
100
AcDbEntity
  8
4
100
AcDbCircle
 10
527.4505203197787
 20
474.157391158662
 30
0.0
 40
1.6153846155
100
AcDbArc
 50
180.0
 51
270.0
  0
LINE
  5
1CB
330
2
100
AcDbEntity
  8
4
100
AcDbLine
 10
631.8351357047759
 20
349.7690585451612
 30
0.0
 11
631.8351357047759
 21
432.5420065451613
 31
0.0
  0
ARC
  5
1CC
330
2
100
AcDbEntity
  8
4
100
AcDbCircle
 10
599.4080847216155
 20
474.0420065431618
 30
0.0
 40
1.5
100
AcDbArc
 50
270.0
 51
333.4349488251145
  0
ARC
  5
1CD
330
2
100
AcDbEntity
  8
4
100
AcDbCircle
 10
594.9359487667016
 20
474.0420065431618
 30
0.0
 40
1.5
100
AcDbArc
 50
153.4349488251146
 51
270.0
  0
LINE
  5
1CE
330
2
100
AcDbEntity
  8
4
100
AcDbLine
 10
593.5943079801759
 20
474.7128269363604
 30
0.0
 11
599.3908637953573
 21
486.3059385678331
 31
0.0
  0
ARC
  5
1CF
330
2
100
AcDbEntity
  8
4
100
AcDbCircle
 10
567.8351357042784
 20
480.2970085457647
 30
0.0
 40
5.0
100
AcDbArc
 50
0.0
 51
51.31781254652588
  0
LINE
  5
1D0
330
2
100
AcDbEntity
  8
4
100
AcDbLine
 10
572.8351357042784
 20
480.2970085457658
 30
0.0
 11
572.8351357042789
 21
477.5420065431623
 31
0.0
  0
ARC
  5
1D1
330
2
100
AcDbEntity
  8
4
100
AcDbCircle
 10
572.8351357042766
 20
486.5420065441645
 30
0.0
 40
3.0
100
AcDbArc
 50
128.6821874535029
 51
231.3178125465249
  0
ARC
  5
1D2
330
2
100
AcDbEntity
  8
4
100
AcDbCircle
 10
567.8351357042789
 20
477.5420065431623
 30
0.0
 40
5.0
100
AcDbArc
 50
270.0
 51
0.0
  0
LINE
  5
1D3
330
2
100
AcDbEntity
  8
4
100
AcDbLine
 10
584.8351357047763
 20
488.426621928912
 30
0.0
 11
584.8351357047773
 21
484.657391159412
 31
0.0
  0
ARC
  5
1D4
330
2
100
AcDbEntity
  8
4
100
AcDbCircle
 10
583.219751089277
 20
484.657391159412
 30
0.0
 40
1.6153846155
100
AcDbArc
 50
270.0
 51
0.0
  0
ARC
  5
1D5
330
2
100
AcDbEntity
  8
4
100
AcDbCircle
 10
583.2197510892761
 20
488.426621928912
 30
0.0
 40
1.6153846155
100
AcDbArc
 50
0.0
 51
90.0
  0
LINE
  5
1D6
330
2
100
AcDbEntity
  8
4
100
AcDbLine
 10
594.9359487667016
 20
472.5420065431618
 30
0.0
 11
599.4080847216155
 21
472.5420065431618
 31
0.0
  0
ARC
  5
1D7
330
2
100
AcDbEntity
  8
4
100
AcDbCircle
 10
579.4505203197773
 20
484.657391159412
 30
0.0
 40
1.6153846155
100
AcDbArc
 50
180.0
 51
270.0
  0
ARC
  5
1D8
330
2
100
AcDbEntity
  8
4
100
AcDbCircle
 10
579.4505203197759
 20
488.426621928912
 30
0.0
 40
1.6153846155
100
AcDbArc
 50
90.0
 51
180.0
  0
LINE
  5
1D9
330
2
100
AcDbEntity
  8
4
100
AcDbLine
 10
577.8351357042761
 20
488.426621928912
 30
0.0
 11
577.835135704277
 21
484.657391159412
 31
0.0
  0
LINE
  5
1DA
330
2
100
AcDbEntity
  8
4
100
AcDbLine
 10
579.4505203197759
 20
490.0420065444119
 30
0.0
 11
583.2197510892761
 21
490.0420065444119
 31
0.0
  0
LINE
  5
1DB
330
2
100
AcDbEntity
  8
4
100
AcDbLine
 10
579.4505203197773
 20
483.042006543912
 30
0.0
 11
583.219751089277
 21
483.042006543912
 31
0.0
  0
ARC
  5
1DC
330
2
100
AcDbEntity
  8
4
100
AcDbCircle
 10
616.8351357047818
 20
466.5420065431623
 30
0.0
 40
5.0
100
AcDbArc
 50
270.0
 51
0.0
  0
ARC
  5
1DD
330
2
100
AcDbEntity
  8
4
100
AcDbCircle
 10
636.8351357047759
 20
462.5420065451613
 30
0.0
 40
5.0
100
AcDbArc
 50
180.0
 51
270.0
  0
ARC
  5
1DE
330
2
100
AcDbEntity
  8
4
100
AcDbCircle
 10
636.8351357047759
 20
432.5420065451613
 30
0.0
 40
5.0
100
AcDbArc
 50
90.0
 51
180.0
  0
ARC
  5
1DF
330
2
100
AcDbEntity
  8
4
100
AcDbCircle
 10
610.5826957047757
 20
419.2893225451612
 30
0.0
 40
5.00004
100
AcDbArc
 50
17.24670299999975
 51
72.75679599999998
  0
LINE
  5
1E1
330
2
100
AcDbEntity
  8
4
100
AcDbLine
 10
519.8351357042793
 20
511.5420065451628
 30
0.0
 11
616.8351357047718
 21
511.5420065451611
 31
0.0
  0
LINE
  5
1E2
330
2
100
AcDbEntity
  8
4
100
AcDbLine
 10
553.3351357042789
 20
500.5420065451623
 30
0.0
 11
567.8351357042748
 21
500.5420065451621
 31
0.0
  0
ARC
  5
1E3
330
2
100
AcDbEntity
  8
4
100
AcDbCircle
 10
485.8351357047759
 20
523.5420065451611
 30
0.0
 40
2.0
100
AcDbArc
 50
180.0
 51
270.0
  0
ARC
  5
1E4
330
2
100
AcDbEntity
  8
4
100
AcDbCircle
 10
477.7352797047761
 20
541.0976705451612
 30
0.0
 40
1.399916
100
AcDbArc
 50
121.7691610000011
 51
180.0
  0
LINE
  5
1E5
330
2
100
AcDbEntity
  8
4
100
AcDbLine
 10
476.3351357047759
 20
537.5420065451613
 30
0.0
 11
476.3351357047759
 21
546.5420065451613
 31
0.0
  0
LINE
  5
1E6
330
2
100
AcDbEntity
  8
4
100
AcDbLine
 10
483.8351357047759
 20
523.5420065451611
 30
0.0
 11
483.8351357047759
 21
537.5420065451614
 31
0.0
  0
ARC
  5
1E7
330
2
100
AcDbEntity
  8
4
100
AcDbCircle
 10
519.8351357042789
 20
506.5420065451628
 30
0.0
 40
5.0
100
AcDbArc
 50
89.9999999999987
 51
180.0
  0
ARC
  5
1E8
330
2
100
AcDbEntity
  8
4
100
AcDbCircle
 10
553.3351357042789
 20
499.0420065451623
 30
0.0
 40
1.5
100
AcDbArc
 50
90.0
 51
180.0
  0
ARC
  5
1E9
330
2
100
AcDbEntity
  8
4
100
AcDbCircle
 10
531.2197510892797
 20
498.9266219296617
 30
0.0
 40
1.6153846155
100
AcDbArc
 50
0.0
 51
90.0
  0
ARC
  5
1EA
330
2
100
AcDbEntity
  8
4
100
AcDbCircle
 10
527.4505203197787
 20
498.9266219296617
 30
0.0
 40
1.6153846155
100
AcDbArc
 50
90.0
 51
180.0
  0
LINE
  5
1EB
330
2
100
AcDbEntity
  8
4
100
AcDbLine
 10
527.4505203197787
 20
500.5420065451617
 30
0.0
 11
531.2197510892797
 21
500.5420065451617
 31
0.0
  0
LINE
  5
1EC
330
2
100
AcDbEntity
  8
4
100
AcDbLine
 10
591.3351357047736
 20
500.5420065451617
 30
0.0
 11
609.3351357047736
 21
500.5420065451617
 31
0.0
  0
ARC
  5
1ED
330
2
100
AcDbEntity
  8
4
100
AcDbCircle
 10
591.3351357047745
 20
495.0420065451619
 30
0.0
 40
1.5
100
AcDbArc
 50
180.0
 51
270.0
  0
LINE
  5
1EE
330
2
100
AcDbEntity
  8
4
100
AcDbLine
 10
591.3351357047745
 20
493.5420065451619
 30
0.0
 11
594.9187278402724
 21
493.5420065451617
 31
0.0
  0
ARC
  5
1EF
330
2
100
AcDbEntity
  8
4
100
AcDbCircle
 10
591.3351357047736
 20
499.0420065451617
 30
0.0
 40
1.5
100
AcDbArc
 50
90.0
 51
180.0
  0
LINE
  5
1F0
330
2
100
AcDbEntity
  8
4
100
AcDbLine
 10
589.8351357047736
 20
499.0420065451614
 30
0.0
 11
589.8351357047745
 21
495.0420065451616
 31
0.0
  0
ARC
  5
1F1
330
2
100
AcDbEntity
  8
4
100
AcDbCircle
 10
567.8351357042748
 20
495.5420065451621
 30
0.0
 40
5.0
100
AcDbArc
 50
0.0
 51
90.0
  0
LINE
  5
1F2
330
2
100
AcDbEntity
  8
4
100
AcDbLine
 10
572.8351357042748
 20
495.5420065451632
 30
0.0
 11
572.8351357042752
 21
492.787004542563
 31
0.0
  0
ARC
  5
1F3
330
2
100
AcDbEntity
  8
4
100
AcDbCircle
 10
616.8351357047718
 20
506.5420065451611
 30
0.0
 40
5.0
100
AcDbArc
 50
0.0
 51
89.9999999999987
  0
ARC
  5
1F4
330
2
100
AcDbEntity
  8
4
100
AcDbCircle
 10
609.335135704775
 20
493.8961085113809
 30
0.0
 40
1.5
100
AcDbArc
 50
333.4349488251145
 51
0.0
  0
ARC
  5
1F5
330
2
100
AcDbEntity
  8
4
100
AcDbCircle
 10
609.3351357047736
 20
499.0420065451617
 30
0.0
 40
1.5
100
AcDbArc
 50
0.0
 51
90.0
  0
LINE
  5
1F6
330
2
100
AcDbEntity
  8
4
100
AcDbLine
 10
610.8351357047736
 20
499.0420065451621
 30
0.0
 11
610.835135704775
 21
493.8961085113813
 31
0.0
  0
LINE
  5
1F7
330
2
100
AcDbEntity
  8
4
100
AcDbLine
 10
625.8351357047759
 20
521.5420065451613
 30
0.0
 11
625.8351357047759
 21
526.5420065451613
 31
0.0
  0
LINE
  5
1F8
330
2
100
AcDbEntity
  8
4
100
AcDbLine
 10
629.8351357047759
 20
530.5420065451613
 30
0.0
 11
629.8351357047759
 21
540.5420065451613
 31
0.0
  0
LINE
  5
1F9
330
2
100
AcDbEntity
  8
4
100
AcDbLine
 10
628.8351357047759
 20
543.5420065451613
 30
0.0
 11
630.8351357047759
 21
542.5420065451613
 31
0.0
  0
LINE
  5
1FA
330
2
100
AcDbEntity
  8
4
100
AcDbLine
 10
630.8351357047759
 20
542.5420065451613
 30
0.0
 11
630.8351357047759
 21
540.5420065451613
 31
0.0
  0
ARC
  5
1FB
330
2
100
AcDbEntity
  8
4
100
AcDbCircle
 10
609.8351357047759
 20
526.5420065451613
 30
0.0
 40
4.0
100
AcDbArc
 50
0.0
 51
90.0
  0
ARC
  5
1FC
330
2
100
AcDbEntity
  8
4
100
AcDbCircle
 10
616.8351357047759
 20
521.5420065451613
 30
0.0
 40
5.0
100
AcDbArc
 50
53.13010200000015
 51
126.8698979999998
  0
LINE
  5
1FD
330
2
100
AcDbEntity
  8
4
100
AcDbLine
 10
613.8351357047759
 20
521.5420065451613
 30
0.0
 11
613.8351357047759
 21
526.5420065451613
 31
0.0
  0
LINE
  5
1FE
330
2
100
AcDbEntity
  8
4
100
AcDbLine
 10
613.8351357047759
 20
521.5420065451613
 30
0.0
 11
619.8351357047759
 21
521.5420065451613
 31
0.0
  0
LINE
  5
1FF
330
2
100
AcDbEntity
  8
4
100
AcDbLine
 10
616.8351357047759
 20
526.5420065451613
 30
0.0
 11
622.8351357047759
 21
526.5420065451613
 31
0.0
  0
LINE
  5
200
330
2
100
AcDbEntity
  8
4
100
AcDbLine
 10
609.8351357047759
 20
530.5420065451613
 30
0.0
 11
609.8351357047759
 21
540.5420065451613
 31
0.0
  0
LINE
  5
201
330
2
100
AcDbEntity
  8
4
100
AcDbLine
 10
609.8351357047759
 20
530.5420065451613
 30
0.0
 11
619.8351357047759
 21
530.5420065451613
 31
0.0
  0
LINE
  5
202
330
2
100
AcDbEntity
  8
4
100
AcDbLine
 10
610.8351357047759
 20
543.5420065451613
 30
0.0
 11
619.8351357047759
 21
543.5420065451613
 31
0.0
  0
LINE
  5
203
330
2
100
AcDbEntity
  8
4
100
AcDbLine
 10
608.8351357047759
 20
542.5420065451613
 30
0.0
 11
619.8351357047759
 21
542.5420065451613
 31
0.0
  0
LINE
  5
204
330
2
100
AcDbEntity
  8
4
100
AcDbLine
 10
610.8351357047759
 20
543.5420065451613
 30
0.0
 11
608.8351357047759
 21
542.5420065451613
 31
0.0
  0
LINE
  5
205
330
2
100
AcDbEntity
  8
4
100
AcDbLine
 10
619.8351357047759
 20
540.5420065451613
 30
0.0
 11
608.8351357047759
 21
540.5420065451613
 31
0.0
  0
LINE
  5
206
330
2
100
AcDbEntity
  8
4
100
AcDbLine
 10
608.8351357047759
 20
542.5420065451613
 30
0.0
 11
608.8351357047759
 21
540.5420065451613
 31
0.0
  0
LINE
  5
207
330
2
100
AcDbEntity
  8
L-CENTER
 48
8.0
100
AcDbLine
 10
619.8351357047759
 20
548.6063017912206
 30
0.0
 11
619.8351357047759
 21
511.5986697912206
 31
0.0
  0
ARC
  5
208
330
2
100
AcDbEntity
  8
4
100
AcDbCircle
 10
629.8351357047759
 20
526.5420065451613
 30
0.0
 40
4.0
100
AcDbArc
 50
90.0
 51
180.0
  0
LINE
  5
209
330
2
100
AcDbEntity
  8
4
100
AcDbLine
 10
625.8351357047759
 20
521.5420065451613
 30
0.0
 11
619.8351357047759
 21
521.5420065451613
 31
0.0
  0
ARC
  5
20A
330
2
100
AcDbEntity
  8
4
100
AcDbCircle
 10
622.8351357047759
 20
521.5420065451613
 30
0.0
 40
5.0
100
AcDbArc
 50
53.13010200000015
 51
126.8698979999998
  0
LINE
  5
20B
330
2
100
AcDbEntity
  8
4
100
AcDbLine
 10
629.8351357047759
 20
530.5420065451613
 30
0.0
 11
619.8351357047759
 21
530.5420065451613
 31
0.0
  0
LINE
  5
20C
330
2
100
AcDbEntity
  8
4
100
AcDbLine
 10
619.8351357047759
 20
540.5420065451613
 30
0.0
 11
630.8351357047759
 21
540.5420065451613
 31
0.0
  0
LINE
  5
20D
330
2
100
AcDbEntity
  8
4
100
AcDbLine
 10
628.8351357047759
 20
543.5420065451613
 30
0.0
 11
619.8351357047759
 21
543.5420065451613
 31
0.0
  0
LINE
  5
20E
330
2
100
AcDbEntity
  8
4
100
AcDbLine
 10
630.8351357047759
 20
542.5420065451613
 30
0.0
 11
619.8351357047759
 21
542.5420065451613
 31
0.0
  0
TEXT
  5
266
330
2
100
AcDbEntity
  8
3
100
AcDbText
 10
816.2187585747075
 20
28.06865058182626
 30
0.0
 40
12.31020678973231
  1
LB7-05
  7
KANJI
100
AcDbText
  0
LINE
  5
36B
330
2
100
AcDbEntity
  8
4
100
AcDbLine
 10
1368.254696007335
 20
325.5420065451614
 30
0.0
 11
1349.95485773152
 21
330.1169661141157
 31
0.0
  0
LINE
  5
36C
330
2
100
AcDbEntity
  8
4
100
AcDbLine
 10
1368.254696007335
 20
219.5420065451614
 30
0.0
 11
1349.954857709032
 21
214.9670469705854
 31
0.0
  0
ARC
  5
36D
330
2
100
AcDbEntity
  8
4
100
AcDbCircle
 10
1360.354940007335
 20
106.5420065451613
 30
0.0
 40
3.0
100
AcDbArc
 50
0.0
 51
90.0
  0
LINE
  5
36E
330
2
100
AcDbEntity
  8
L-CENTER
 48
8.0
100
AcDbLine
 10
1486.694761026745
 20
272.5420065451613
 30
0.0
 11
990.0151189879252
 21
272.5420065451613
 31
0.0
  0
LINE
  5
36F
330
2
100
AcDbEntity
  8
4
100
AcDbLine
 10
1113.354940007335
 20
72.54200654516126
 30
0.0
 11
1363.354940007335
 21
72.54200654516126
 31
0.0
  0
ARC
  5
37A
330
2
100
AcDbEntity
  8
4
100
AcDbCircle
 10
660.8351357047759
 20
106.5420065451613
 30
0.0
 40
3.0
100
AcDbArc
 50
0.0
 51
90.0
  0
LINE
  5
37B
330
2
100
AcDbEntity
  8
4
100
AcDbLine
 10
648.8351357047759
 20
72.54200654516126
 30
0.0
 11
648.8351357047759
 21
109.5420065451613
 31
0.0
  0
LINE
  5
37C
330
2
100
AcDbEntity
  8
4
100
AcDbLine
 10
663.8351357047759
 20
106.5420065451613
 30
0.0
 11
663.8351357047759
 21
72.54200654516126
 31
0.0
  0
LINE
  5
386
330
2
100
AcDbEntity
  8
4
100
AcDbLine
 10
658.1350357047759
 20
497.3222825451612
 30
0.0
 11
658.1350357047759
 21
482.6147625451613
 31
0.0
  0
LINE
  5
387
330
2
100
AcDbEntity
  8
4
100
AcDbLine
 10
648.6350357047759
 20
499.1684705451612
 30
0.0
 11
648.6350357047759
 21
480.7685705451613
 31
0.0
  0
LINE
  5
388
330
2
100
AcDbEntity
  8
4
100
AcDbLine
 10
651.1350357047759
 20
499.7685705451613
 30
0.0
 11
651.1350357047759
 21
480.1684705451612
 31
0.0
  0
LINE
  5
389
330
2
100
AcDbEntity
  8
4
100
AcDbLine
 10
648.6350357047759
 20
517.5420065451613
 30
0.0
 11
648.6350357047759
 21
377.5420065451613
 31
0.0
  0
ARC
  5
38A
330
2
100
AcDbEntity
  8
4
100
AcDbCircle
 10
644.2314717047757
 20
489.9685225451612
 30
0.0
 40
13.90362
100
AcDbArc
 50
339.3323219999999
 51
20.66861499999984
  0
LINE
  5
38B
330
2
100
AcDbEntity
  8
4
100
AcDbLine
 10
648.6350357047759
 20
395.9155425451613
 30
0.0
 11
648.6350357047759
 21
414.3154465451612
 31
0.0
  0
LINE
  5
38C
330
2
100
AcDbEntity
  8
4
100
AcDbLine
 10
651.1350357047759
 20
395.3154465451612
 30
0.0
 11
651.1350357047759
 21
414.9155425451612
 31
0.0
  0
ARC
  5
38D
330
2
100
AcDbEntity
  8
4
100
AcDbCircle
 10
654.3440237047757
 20
397.7617345451613
 30
0.0
 40
3.790928
100
AcDbArc
 50
319.8117440000006
 51
40.18825599999942
  0
LINE
  5
38E
330
2
100
AcDbEntity
  8
4
100
AcDbLine
 10
651.1350357047759
 20
395.9155425451613
 30
0.0
 11
648.6350357047759
 21
395.9155425451613
 31
0.0
  0
LINE
  5
38F
330
2
100
AcDbEntity
  8
4
100
AcDbLine
 10
657.2400197047759
 20
395.3154465451612
 30
0.0
 11
651.1350357047759
 21
395.3154465451612
 31
0.0
  0
LINE
  5
390
330
2
100
AcDbEntity
  8
4
100
AcDbLine
 10
658.1350357047759
 20
397.7617345451613
 30
0.0
 11
658.1350357047759
 21
412.4692545451612
 31
0.0
  0
LINE
  5
391
330
2
100
AcDbEntity
  8
4
100
AcDbLine
 10
657.2400197047759
 20
414.9155425451612
 30
0.0
 11
651.1350357047759
 21
414.9155425451612
 31
0.0
  0
LINE
  5
392
330
2
100
AcDbEntity
  8
4
100
AcDbLine
 10
651.1350357047759
 20
410.0229625451612
 30
0.0
 11
657.2400197047759
 21
410.0229625451612
 31
0.0
  0
LINE
  5
393
330
2
100
AcDbEntity
  8
4
100
AcDbLine
 10
648.6350357047759
 20
414.3154465451612
 30
0.0
 11
651.1350357047759
 21
414.3154465451612
 31
0.0
  0
LINE
  5
394
330
2
100
AcDbEntity
  8
4
100
AcDbLine
 10
651.1350357047759
 20
400.2080225451613
 30
0.0
 11
657.2400197047759
 21
400.2080225451613
 31
0.0
  0
ARC
  5
395
330
2
100
AcDbEntity
  8
4
100
AcDbCircle
 10
654.3440237047757
 20
412.4692545451612
 30
0.0
 40
3.791112
100
AcDbArc
 50
319.814124
 51
40.18587600000109
  0
ARC
  5
396
330
2
100
AcDbEntity
  8
4
100
AcDbCircle
 10
644.2314717047757
 20
405.1154945451613
 30
0.0
 40
13.90362
100
AcDbArc
 50
339.3313850000002
 51
20.66767800000014
  0
LINE
  5
397
330
2
100
AcDbEntity
  8
4
100
AcDbLine
 10
651.1350357047759
 20
485.0610505451614
 30
0.0
 11
657.2400197047759
 21
485.0610505451614
 31
0.0
  0
LINE
  5
398
330
2
100
AcDbEntity
  8
4
100
AcDbLine
 10
657.2400197047759
 20
480.1684705451612
 30
0.0
 11
651.1350357047759
 21
480.1684705451612
 31
0.0
  0
LINE
  5
399
330
2
100
AcDbEntity
  8
4
100
AcDbLine
 10
648.6350357047759
 20
480.7685705451613
 30
0.0
 11
651.1350357047759
 21
480.7685705451613
 31
0.0
  0
ARC
  5
39A
330
2
100
AcDbEntity
  8
4
100
AcDbCircle
 10
654.3440237047757
 20
482.6147625451613
 30
0.0
 40
3.79102
100
AcDbArc
 50
319.8141239999997
 51
40.18825600000022
  0
ARC
  5
39C
330
2
100
AcDbEntity
  8
4
100
AcDbCircle
 10
654.3440237047757
 20
497.3222825451612
 30
0.0
 40
3.79102
100
AcDbArc
 50
319.814112
 51
40.18825600000022
  0
LINE
  5
39D
330
2
100
AcDbEntity
  8
4
100
AcDbLine
 10
651.1350357047759
 20
494.8759905451611
 30
0.0
 11
657.2400197047759
 21
494.8759905451611
 31
0.0
  0
LINE
  5
39E
330
2
100
AcDbEntity
  8
4
100
AcDbLine
 10
657.2400197047759
 20
499.7685705451613
 30
0.0
 11
651.1350357047759
 21
499.7685705451613
 31
0.0
  0
LINE
  5
39F
330
2
100
AcDbEntity
  8
4
100
AcDbLine
 10
651.1350357047759
 20
499.1684705451612
 30
0.0
 11
648.6350357047759
 21
499.1684705451612
 31
0.0
  0
LINE
  5
3AB
330
2
100
AcDbEntity
  8
4
100
AcDbLine
 10
1154.354940007335
 20
419.5420065451613
 30
0.0
 11
1124.354940007335
 21
329.5420065451611
 31
0.0
  0
LINE
  5
3AC
330
2
100
AcDbEntity
  8
4
100
AcDbLine
 10
1154.354940007335
 20
140.7020065451612
 30
0.0
 11
1154.354940007335
 21
444.5420065451613
 31
0.0
  0
LINE
  5
3AD
330
2
100
AcDbEntity
  8
4
100
AcDbLine
 10
1166.354940007335
 20
116.7461065451612
 30
0.0
 11
1166.354940007335
 21
446.5420065451613
 31
0.0
  0
LINE
  5
3AE
330
2
100
AcDbEntity
  8
4
100
AcDbLine
 10
1167.354940007335
 20
121.5420065451613
 30
0.0
 11
1167.354940007335
 21
447.5420065451613
 31
0.0
  0
LINE
  5
3AF
330
2
100
AcDbEntity
  8
4
100
AcDbLine
 10
1312.354940007335
 20
148.1302425451613
 30
0.0
 11
1312.354940007335
 21
444.5420065451613
 31
0.0
  0
LINE
  5
3B0
330
2
100
AcDbEntity
  8
4
100
AcDbLine
 10
1310.354940007335
 20
116.7461745451612
 30
0.0
 11
1310.354940007335
 21
446.5420065451613
 31
0.0
  0
LINE
  5
3B1
330
2
100
AcDbEntity
  8
4
100
AcDbLine
 10
1309.354940007335
 20
121.5420065451613
 30
0.0
 11
1309.354940007335
 21
447.5420065451613
 31
0.0
  0
LINE
  5
3B2
330
2
100
AcDbEntity
  8
4
100
AcDbLine
 10
1324.654840007335
 20
444.5420065451613
 30
0.0
 11
1324.654840007335
 21
138.2420825451613
 31
0.0
  0
LINE
  5
3B3
330
2
100
AcDbEntity
  8
L-CENTER
 48
8.0
100
AcDbLine
 10
1238.354940007335
 20
592.9293149738573
 30
0.0
 11
1238.354940007335
 21
63.39986920292176
 31
0.0
  0
LINE
  5
3B4
330
2
100
AcDbEntity
  8
4
100
AcDbLine
 10
1154.354940007335
 20
413.2174512248247
 30
0.0
 11
1126.654778305639
 21
330.1169661197373
 31
0.0
  0
LINE
  5
3B5
330
2
100
AcDbEntity
  8
4
100
AcDbLine
 10
1325.941467006784
 20
402.1571419782329
 30
0.0
 11
1349.95485773152
 21
330.1169661141157
 31
0.0
  0
LINE
  5
3B6
330
2
100
AcDbEntity
  8
4
100
AcDbLine
 10
1328.049652102764
 20
402.1571419782329
 30
0.0
 11
1352.254696007335
 21
329.5420065451617
 31
0.0
  0
LINE
  5
3B7
330
2
100
AcDbEntity
  8
4
100
AcDbLine
 10
1116.354940007335
 20
109.5420065451613
 30
0.0
 11
1360.354940007335
 21
109.5420065451613
 31
0.0
  0
LINE
  5
3B8
330
2
100
AcDbEntity
  8
4
100
AcDbLine
 10
1150.386352007336
 20
137.4477665451612
 30
0.0
 11
1124.354940007335
 21
215.5420065451609
 31
0.0
  0
LINE
  5
3B9
330
2
100
AcDbEntity
  8
4
100
AcDbLine
 10
1152.041995336519
 20
138.8053919150918
 30
0.0
 11
1126.654778283151
 21
214.9670469762069
 31
0.0
  0
LINE
  5
3BE
330
2
100
AcDbEntity
  8
4
100
AcDbLine
 10
1116.354940007335
 20
109.5420065451613
 30
0.0
 11
1166.354940007335
 21
150.5420065451613
 31
0.0
  0
ARC
  5
3BF
330
2
100
AcDbEntity
  8
4
100
AcDbCircle
 10
1116.354940007335
 20
106.5420065451613
 30
0.0
 40
3.0
100
AcDbArc
 50
90.0
 51
180.0
  0
LINE
  5
3C0
330
2
100
AcDbEntity
  8
4
100
AcDbLine
 10
1113.354940007335
 20
72.54200654516126
 30
0.0
 11
1113.354940007335
 21
106.5420065451613
 31
0.0
  0
LINE
  5
3C1
330
2
100
AcDbEntity
  8
L-CENTER
 48
8.0
100
AcDbLine
 10
1138.354940007335
 20
57.54200654516126
 30
0.0
 11
1138.354940007335
 21
124.5420065451613
 31
0.0
  0
ARC
  5
3C2
330
2
100
AcDbEntity
  8
4
100
AcDbCircle
 10
1155.354940007335
 20
121.5420065451613
 30
0.0
 40
12.0
100
AcDbArc
 50
270.0011650000001
 51
0.0
  0
LINE
  5
3C7
330
2
100
AcDbEntity
  8
4
100
AcDbLine
 10
1124.354940007335
 20
315.5420065451611
 30
0.0
 11
1124.354940007335
 21
229.5420065451613
 31
0.0
  0
LINE
  5
3C8
330
2
100
AcDbEntity
  8
4
100
AcDbLine
 10
1108.354940007335
 20
325.5420065451613
 30
0.0
 11
1108.354940007335
 21
219.5420065451613
 31
0.0
  0
LINE
  5
3C9
330
2
100
AcDbEntity
  8
4
100
AcDbLine
 10
1124.354940007335
 20
229.5420065451613
 30
0.0
 11
1154.354940007335
 21
239.5420065451613
 31
0.0
  0
LINE
  5
3CA
330
2
100
AcDbEntity
  8
4
100
AcDbLine
 10
1126.654778285997
 20
229.5420065451613
 30
0.0
 11
1154.354940007335
 21
238.7753937856073
 31
0.0
  0
LINE
  5
3CB
330
2
100
AcDbEntity
  8
4
100
AcDbLine
 10
1124.354940007335
 20
229.5420065451613
 30
0.0
 11
1126.654778285997
 21
229.5420065451613
 31
0.0
  0
LINE
  5
3CC
330
2
100
AcDbEntity
  8
4
100
AcDbLine
 10
1108.354940007335
 20
219.5420065451613
 30
0.0
 11
1126.654778283151
 21
214.9670469762069
 31
0.0
  0
LINE
  5
3CD
330
2
100
AcDbEntity
  8
4
100
AcDbLine
 10
1126.654778285997
 20
229.5420065451611
 30
0.0
 11
1126.654778283151
 21
214.9670469762069
 31
0.0
  0
LINE
  5
3CE
330
2
100
AcDbEntity
  8
4
100
AcDbLine
 10
1124.354940007335
 20
315.5420065451613
 30
0.0
 11
1154.354940007335
 21
305.5420065451613
 31
0.0
  0
LINE
  5
3CF
330
2
100
AcDbEntity
  8
4
100
AcDbLine
 10
1126.654778285997
 20
315.5420065451613
 30
0.0
 11
1154.354940007335
 21
306.3086193047153
 31
0.0
  0
LINE
  5
3D0
330
2
100
AcDbEntity
  8
4
100
AcDbLine
 10
1108.354940007335
 20
325.5420065451613
 30
0.0
 11
1126.654778305639
 21
330.1169661197372
 31
0.0
  0
LINE
  5
3D1
330
2
100
AcDbEntity
  8
4
100
AcDbLine
 10
1124.354940007335
 20
315.5420065451613
 30
0.0
 11
1126.654778302793
 21
315.5420065451611
 31
0.0
  0
LINE
  5
3D2
330
2
100
AcDbEntity
  8
4
100
AcDbLine
 10
1126.654778305639
 20
330.1169661197372
 30
0.0
 11
1126.654778302793
 21
315.542006545161
 31
0.0
  0
LINE
  5
3D3
330
2
100
AcDbEntity
  8
4
100
AcDbLine
 10
1325.941465756199
 20
142.9268711120897
 30
0.0
 11
1349.954857709031
 21
214.9670469705853
 31
0.0
  0
LINE
  5
3D4
330
2
100
AcDbEntity
  8
4
100
AcDbLine
 10
1328.049650862978
 20
142.9268711120897
 30
0.0
 11
1352.254696007336
 21
215.5420065451615
 31
0.0
  0
LINE
  5
3D5
330
2
100
AcDbEntity
  8
4
100
AcDbLine
 10
1360.354940007335
 20
109.5420065451613
 30
0.0
 11
1310.354940007335
 21
149.7380865451613
 31
0.0
  0
ARC
  5
3D6
330
2
100
AcDbEntity
  8
4
100
AcDbCircle
 10
1321.354940007335
 20
121.5420065451613
 30
0.0
 40
12.0
100
AcDbArc
 50
180.0
 51
270.0011650000001
  0
LINE
  5
3D7
330
2
100
AcDbEntity
  8
L-CENTER
 48
8.0
100
AcDbLine
 10
1338.354940007335
 20
124.5420065451613
 30
0.0
 11
1338.354940007335
 21
57.54200654516126
 31
0.0
  0
LINE
  5
3D8
330
2
100
AcDbEntity
  8
L-CENTER
 48
8.0
100
AcDbLine
 10
1301.742493286244
 20
133.1119165358662
 30
0.0
 11
1337.022818261915
 21
133.1119165358662
 31
0.0
  0
LINE
  5
3D9
330
2
100
AcDbEntity
  8
4
100
AcDbLine
 10
1338.254696007335
 20
167.5420065451613
 30
0.0
 11
1336.254696007335
 21
167.5420065451613
 31
0.0
  0
ARC
  5
3DA
330
2
100
AcDbEntity
  8
4
100
AcDbCircle
 10
1320.375674709876
 20
133.1119165358662
 30
0.0
 40
13.77916529745958
100
AcDbArc
 50
350.1996414585433
 51
20.86406436391982
  0
LINE
  5
3DB
330
2
100
AcDbEntity
  8
4
100
AcDbLine
 10
1334.154840007335
 20
140.4731324680336
 30
0.0
 11
1334.154840007335
 21
130.6048328573213
 31
0.0
  0
ARC
  5
3DC
330
2
100
AcDbEntity
  8
4
100
AcDbCircle
 10
1330.371226078276
 20
140.4731324680336
 30
0.0
 40
3.783613929059507
100
AcDbArc
 50
319.5701031551727
 51
40.42989684482724
  0
LINE
  5
3DD
330
2
100
AcDbEntity
  8
4
100
AcDbLine
 10
1327.154840007335
 20
136.2322840573213
 30
0.0
 11
1327.154840007335
 21
142.9268711120897
 31
0.0
  0
LINE
  5
3DE
330
2
100
AcDbEntity
  8
4
100
AcDbLine
 10
1324.654840007335
 20
138.2420880573213
 30
0.0
 11
1324.654840007335
 21
142.9268711120897
 31
0.0
  0
LINE
  5
3DF
330
2
100
AcDbEntity
  8
4
100
AcDbLine
 10
1333.251313061483
 20
138.0193938239779
 30
0.0
 11
1327.154840007335
 21
138.0193938239779
 31
0.0
  0
LINE
  5
3E0
330
2
100
AcDbEntity
  8
4
100
AcDbLine
 10
1324.654840007335
 20
142.9268711120897
 30
0.0
 11
1333.251313061483
 21
142.9268711120897
 31
0.0
  0
LINE
  5
3E1
330
2
100
AcDbEntity
  8
4
100
AcDbLine
 10
1338.254696007335
 20
127.5420065451613
 30
0.0
 11
1338.254696007335
 21
167.5420065451613
 31
0.0
  0
LINE
  5
3E2
330
2
100
AcDbEntity
  8
4
100
AcDbLine
 10
1324.654840007335
 20
282.3569611213852
 30
0.0
 11
1324.654840007335
 21
262.7270519689378
 31
0.0
  0
LINE
  5
3E3
330
2
100
AcDbEntity
  8
4
100
AcDbLine
 10
1327.154840007335
 20
282.3569611213852
 30
0.0
 11
1327.154840007335
 21
262.7270519689378
 31
0.0
  0
LINE
  5
3E4
330
2
100
AcDbEntity
  8
4
100
AcDbLine
 10
1334.154840007335
 20
265.1807906129939
 30
0.0
 11
1334.154840007335
 21
279.9032224773291
 31
0.0
  0
ARC
  5
3E5
330
2
100
AcDbEntity
  8
4
100
AcDbCircle
 10
1320.375674709876
 20
272.5420065451613
 30
0.0
 40
13.77916529745958
100
AcDbArc
 50
339.1359356360799
 51
20.86406436392003
  0
LINE
  5
3E6
330
2
100
AcDbEntity
  8
4
100
AcDbLine
 10
1352.254696007335
 20
229.5420065451615
 30
0.0
 11
1352.254696007335
 21
315.5420065451614
 31
0.0
  0
LINE
  5
3E7
330
2
100
AcDbEntity
  8
4
100
AcDbLine
 10
1352.254696007335
 20
229.5420065451614
 30
0.0
 11
1349.954857711878
 21
229.5420065451615
 31
0.0
  0
ARC
  5
3E8
330
2
100
AcDbEntity
  8
4
100
AcDbCircle
 10
1330.371226078276
 20
265.1807906129939
 30
0.0
 40
3.783613929059507
100
AcDbArc
 50
319.5701031551734
 51
40.42989684482659
  0
LINE
  5
3E9
330
2
100
AcDbEntity
  8
4
100
AcDbLine
 10
1324.654840007335
 20
262.7270519689378
 30
0.0
 11
1333.251313061483
 21
262.7270519689378
 31
0.0
  0
LINE
  5
3EA
330
2
100
AcDbEntity
  8
4
100
AcDbLine
 10
1333.251313061483
 20
267.6345292570495
 30
0.0
 11
1327.154840007335
 21
267.6345292570495
 31
0.0
  0
LINE
  5
3EB
330
2
100
AcDbEntity
  8
4
100
AcDbLine
 10
1349.954857728673
 20
229.5420065451611
 30
0.0
 11
1324.654840007335
 21
238.7087274589725
 31
0.0
  0
LINE
  5
3EC
330
2
100
AcDbEntity
  8
4
100
AcDbLine
 10
1352.254696007335
 20
229.5420065451611
 30
0.0
 11
1324.654840007335
 21
239.5420065451613
 31
0.0
  0
LINE
  5
3ED
330
2
100
AcDbEntity
  8
4
100
AcDbLine
 10
1349.954857709031
 20
214.9670469705854
 30
0.0
 11
1349.954857711878
 21
229.5420065451616
 31
0.0
  0
LINE
  5
3EE
330
2
100
AcDbEntity
  8
4
100
AcDbLine
 10
1352.254696007335
 20
315.5420065451614
 30
0.0
 11
1349.954857728673
 21
315.5420065451614
 31
0.0
  0
LINE
  5
3EF
330
2
100
AcDbEntity
  8
4
100
AcDbLine
 10
1349.954857728673
 20
315.5420065451615
 30
0.0
 11
1349.95485773152
 21
330.1169661141157
 31
0.0
  0
LINE
  5
3F0
330
2
100
AcDbEntity
  8
4
100
AcDbLine
 10
1352.254696007335
 20
315.5420065451614
 30
0.0
 11
1324.654840007335
 21
305.5420065451613
 31
0.0
  0
LINE
  5
3F1
330
2
100
AcDbEntity
  8
4
100
AcDbLine
 10
1349.954857728673
 20
315.5420065451614
 30
0.0
 11
1324.654840007335
 21
306.37528563135
 31
0.0
  0
LINE
  5
3F2
330
2
100
AcDbEntity
  8
4
100
AcDbLine
 10
1333.251313061483
 20
277.4494838332735
 30
0.0
 11
1327.154840007335
 21
277.4494838332735
 31
0.0
  0
LINE
  5
3F3
330
2
100
AcDbEntity
  8
4
100
AcDbLine
 10
1333.251313061483
 20
282.3569611213852
 30
0.0
 11
1324.654840007335
 21
282.3569611213852
 31
0.0
  0
ARC
  5
3F4
330
2
100
AcDbEntity
  8
4
100
AcDbCircle
 10
1330.371226078276
 20
279.9032224773291
 30
0.0
 40
3.783613929059507
100
AcDbArc
 50
319.5701031551734
 51
40.42989684482659
  0
ARC
  5
3F7
330
2
100
AcDbEntity
  8
4
100
AcDbCircle
 10
1238.354940007335
 20
121.5420065451613
 30
0.0
 40
400.000032
100
AcDbArc
 50
81.15580100000001
 51
98.84427300000002
  0
CIRCLE
  5
3F8
330
2
100
AcDbEntity
  8
4
100
AcDbCircle
 10
1238.354940007335
 20
447.5420065451613
 30
0.0
 40
70.0
  0
LINE
  5
3F9
330
2
100
AcDbEntity
  8
L-CENTER
 48
8.0
100
AcDbLine
 10
1317.394552325684
 20
447.5420065451613
 30
0.0
 11
1159.315327688986
 21
447.5420065451613
 31
0.0
  0
LINE
  5
3FA
330
2
100
AcDbEntity
  8
4
100
AcDbLine
 10
1167.534298247509
 20
509.8998940556024
 30
0.0
 11
1163.040428549461
 21
464.119929713797
 31
0.0
  0
ARC
  5
3FB
330
2
100
AcDbEntity
  8
4
100
AcDbCircle
 10
1567.354940007335
 20
447.5420065451613
 30
0.0
 40
400.000064
100
AcDbArc
 50
170.631452
 51
180.0003849998515
  0
ARC
  5
3FF
330
2
100
AcDbEntity
  8
4
100
AcDbCircle
 10
1165.030861781714
 20
463.9245440747515
 30
0.0
 40
2.0
100
AcDbArc
 50
174.3936718254994
 51
264.3936718254993
  0
LINE
  5
400
330
2
100
AcDbEntity
  8
4
100
AcDbLine
 10
1167.604183008142
 20
461.6623280208125
 30
0.0
 11
1164.835476142669
 21
461.9341108424991
 31
0.0
  0
LINE
  5
401
330
2
100
AcDbEntity
  8
4
100
AcDbLine
 10
1154.354940007335
 20
444.5420065451613
 30
0.0
 11
1166.354940007335
 21
444.5420065451613
 31
0.0
  0
LINE
  5
402
330
2
100
AcDbEntity
  8
4
100
AcDbLine
 10
1166.354940007335
 20
446.5420065451613
 30
0.0
 11
1167.354940007335
 21
446.5420065451613
 31
0.0
  0
ARC
  5
403
330
2
100
AcDbEntity
  8
4
100
AcDbCircle
 10
1169.524731479762
 20
509.7045084165569
 30
0.0
 40
2.0
100
AcDbArc
 50
84.39367182549938
 51
174.3936718254994
  0
LINE
  5
404
330
2
100
AcDbEntity
  8
4
100
AcDbLine
 10
1172.48882398428
 20
511.4231588271226
 30
0.0
 11
1169.720117118807
 21
511.6949416488093
 31
0.0
  0
ARC
  5
405
330
2
100
AcDbEntity
  8
4
100
AcDbCircle
 10
1177.624224007335
 20
511.8454745451613
 30
0.0
 40
4.999968
100
AcDbArc
 50
98.84506100000107
 51
170.6310399999997
  0
LINE
  5
40A
330
2
100
AcDbEntity
  8
4
100
AcDbLine
 10
1205.408892007335
 20
492.5088025451612
 30
0.0
 11
1198.468464007336
 21
499.4489905451612
 31
0.0
  0
LINE
  5
40B
330
2
100
AcDbEntity
  8
L-CENTER
 48
8.0
100
AcDbLine
 10
1207.67009426495
 20
478.2268522875474
 30
0.0
 11
1184.186972007335
 21
501.7099745451612
 31
0.0
  0
CIRCLE
  5
40C
330
2
100
AcDbEntity
  8
4
100
AcDbCircle
 10
1195.928424007336
 20
489.9685225451612
 30
0.0
 40
8.5
  0
LINE
  5
40D
330
2
100
AcDbEntity
  8
4
100
AcDbLine
 10
1188.988240007336
 20
496.9087065451613
 30
0.0
 11
1186.447712007335
 21
487.4279945451613
 31
0.0
  0
LINE
  5
40E
330
2
100
AcDbEntity
  8
4
100
AcDbLine
 10
1271.300984007336
 20
492.5088025451612
 30
0.0
 11
1278.241412007335
 21
499.4489905451612
 31
0.0
  0
CIRCLE
  5
40F
330
2
100
AcDbEntity
  8
4
100
AcDbCircle
 10
1280.781452007335
 20
489.9685225451612
 30
0.0
 40
8.5
  0
LINE
  5
410
330
2
100
AcDbEntity
  8
L-CENTER
 48
8.0
100
AcDbLine
 10
1269.039783749721
 20
478.2268542875471
 30
0.0
 11
1292.522906007335
 21
501.709976545161
 31
0.0
  0
LINE
  5
411
330
2
100
AcDbEntity
  8
4
100
AcDbLine
 10
1287.721640007336
 20
496.9087065451613
 30
0.0
 11
1290.262164007336
 21
487.4279945451613
 31
0.0
  0
ARC
  5
412
330
2
100
AcDbEntity
  8
4
100
AcDbCircle
 10
909.3549400073352
 20
447.5420065451613
 30
0.0
 40
400.00002
100
AcDbArc
 50
0.0
 51
9.369116999999983
  0
LINE
  5
414
330
2
100
AcDbEntity
  8
4
100
AcDbLine
 10
1271.300984007336
 20
492.5088025451612
 30
0.0
 11
1273.841268007335
 21
483.0283345451612
 31
0.0
  0
CIRCLE
  5
415
330
2
100
AcDbEntity
  8
4
100
AcDbCircle
 10
1280.781452007335
 20
405.1154945451613
 30
0.0
 40
8.5
  0
LINE
  5
416
330
2
100
AcDbEntity
  8
L-CENTER
 48
8.0
100
AcDbLine
 10
1292.522908007335
 20
393.3740385451613
 30
0.0
 11
1269.039785749721
 21
416.8571608027756
 31
0.0
  0
LINE
  5
417
330
2
100
AcDbEntity
  8
4
100
AcDbLine
 10
1271.300984007336
 20
402.5752105451613
 30
0.0
 11
1273.841268007335
 21
412.0556785451613
 31
0.0
  0
LINE
  5
418
330
2
100
AcDbEntity
  8
4
100
AcDbLine
 10
1271.300984007336
 20
402.5752105451613
 30
0.0
 11
1278.241412007335
 21
395.6350265451613
 31
0.0
  0
LINE
  5
41A
330
2
100
AcDbEntity
  8
4
100
AcDbLine
 10
1205.408892007335
 20
402.5752105451613
 30
0.0
 11
1202.868612007335
 21
412.0556785451613
 31
0.0
  0
LINE
  5
41B
330
2
100
AcDbEntity
  8
4
100
AcDbLine
 10
1188.988240007336
 20
398.1753065451612
 30
0.0
 11
1186.447712007335
 21
407.6560225451612
 31
0.0
  0
LINE
  5
41C
330
2
100
AcDbEntity
  8
4
100
AcDbLine
 10
1193.388140007336
 20
414.5962065451613
 30
0.0
 11
1186.447712007335
 21
407.6560225451612
 31
0.0
  0
LINE
  5
41D
330
2
100
AcDbEntity
  8
4
100
AcDbLine
 10
1198.468464007336
 20
395.6350265451613
 30
0.0
 11
1188.988240007336
 21
398.1753065451612
 31
0.0
  0
LINE
  5
41E
330
2
100
AcDbEntity
  8
L-CENTER
 48
8.0
100
AcDbLine
 10
1184.186972007335
 20
393.3740385451613
 30
0.0
 11
1207.670092114441
 21
416.8571629532839
 31
0.0
  0
LINE
  5
41F
330
2
100
AcDbEntity
  8
4
100
AcDbLine
 10
1202.868612007335
 20
412.0556785451613
 30
0.0
 11
1193.388140007336
 21
414.5962065451613
 31
0.0
  0
LINE
  5
420
330
2
100
AcDbEntity
  8
4
100
AcDbLine
 10
1205.408892007335
 20
402.5752105451613
 30
0.0
 11
1198.468464007336
 21
395.6350265451613
 31
0.0
  0
CIRCLE
  5
421
330
2
100
AcDbEntity
  8
4
100
AcDbCircle
 10
1195.928424007336
 20
405.1154945451613
 30
0.0
 40
8.5
  0
LINE
  5
422
330
2
100
AcDbEntity
  8
4
100
AcDbLine
 10
1205.408892007335
 20
492.5088025451612
 30
0.0
 11
1202.868612007335
 21
483.0283345451612
 31
0.0
  0
LINE
  5
423
330
2
100
AcDbEntity
  8
4
100
AcDbLine
 10
1193.388140007336
 20
480.4878065451612
 30
0.0
 11
1186.447712007335
 21
487.4279945451613
 31
0.0
  0
LINE
  5
424
330
2
100
AcDbEntity
  8
4
100
AcDbLine
 10
1202.868612007335
 20
483.0283345451612
 30
0.0
 11
1193.388140007336
 21
480.4878065451612
 31
0.0
  0
LINE
  5
425
330
2
100
AcDbEntity
  8
4
100
AcDbLine
 10
1334.154840007335
 20
404.610880622289
 30
0.0
 11
1334.154840007335
 21
419.3333124866242
 31
0.0
  0
ARC
  5
426
330
2
100
AcDbEntity
  8
4
100
AcDbCircle
 10
1330.371226078276
 20
419.3333124866242
 30
0.0
 40
3.783613929059507
100
AcDbArc
 50
319.5701031551734
 51
40.42989684482659
  0
LINE
  5
427
330
2
100
AcDbEntity
  8
4
100
AcDbLine
 10
1324.654840007335
 20
421.7870511306803
 30
0.0
 11
1324.654840007335
 21
402.1571419782329
 31
0.0
  0
LINE
  5
428
330
2
100
AcDbEntity
  8
4
100
AcDbLine
 10
1327.154840007335
 20
421.7870511306803
 30
0.0
 11
1327.154840007335
 21
402.1571419782329
 31
0.0
  0
LINE
  5
429
330
2
100
AcDbEntity
  8
L-CENTER
 48
8.0
100
AcDbLine
 10
1301.742493286244
 20
411.9720965544564
 30
0.0
 11
1337.022818261915
 21
411.9720965544564
 31
0.0
  0
LINE
  5
42A
330
2
100
AcDbEntity
  8
4
100
AcDbLine
 10
1273.841268007335
 20
412.0556785451613
 30
0.0
 11
1283.321736007335
 21
414.5962065451613
 31
0.0
  0
LINE
  5
42B
330
2
100
AcDbEntity
  8
4
100
AcDbLine
 10
1283.321736007335
 20
414.5962065451613
 30
0.0
 11
1290.262164007336
 21
407.6560225451612
 31
0.0
  0
LINE
  5
42C
330
2
100
AcDbEntity
  8
4
100
AcDbLine
 10
1287.721640007336
 20
398.1753065451612
 30
0.0
 11
1290.262164007336
 21
407.6560225451612
 31
0.0
  0
LINE
  5
42D
330
2
100
AcDbEntity
  8
4
100
AcDbLine
 10
1278.241412007335
 20
395.6350265451613
 30
0.0
 11
1287.721640007336
 21
398.1753065451612
 31
0.0
  0
LINE
  5
42E
330
2
100
AcDbEntity
  8
4
100
AcDbLine
 10
1333.251313061483
 20
416.8795738425686
 30
0.0
 11
1327.154840007335
 21
416.8795738425686
 31
0.0
  0
LINE
  5
42F
330
2
100
AcDbEntity
  8
4
100
AcDbLine
 10
1324.654840007335
 20
402.1571419782329
 30
0.0
 11
1333.251313061483
 21
402.1571419782329
 31
0.0
  0
LINE
  5
430
330
2
100
AcDbEntity
  8
4
100
AcDbLine
 10
1333.251313061483
 20
407.0646192663446
 30
0.0
 11
1327.154840007335
 21
407.0646192663446
 31
0.0
  0
ARC
  5
431
330
2
100
AcDbEntity
  8
4
100
AcDbCircle
 10
1320.375674709876
 20
411.9720965544564
 30
0.0
 40
13.77916529745958
100
AcDbArc
 50
339.1359356360799
 51
20.86406436392003
  0
ARC
  5
432
330
2
100
AcDbEntity
  8
4
100
AcDbCircle
 10
1330.371226078276
 20
404.610880622289
 30
0.0
 40
3.783613929059507
100
AcDbArc
 50
319.5701031551734
 51
40.42989684482659
  0
LINE
  5
433
330
2
100
AcDbEntity
  8
4
100
AcDbLine
 10
1338.254696007335
 20
417.5420065451613
 30
0.0
 11
1334.154840007335
 21
417.5420065451613
 31
0.0
  0
LINE
  5
434
330
2
100
AcDbEntity
  8
4
100
AcDbLine
 10
1338.254696007335
 20
377.5420065451613
 30
0.0
 11
1336.254696826858
 21
377.5420065451611
 31
0.0
  0
LINE
  5
435
330
2
100
AcDbEntity
  8
4
100
AcDbLine
 10
1338.254696007335
 20
417.5420065451613
 30
0.0
 11
1338.254696007335
 21
377.5420065451613
 31
0.0
  0
LINE
  5
436
330
2
100
AcDbEntity
  8
4
100
AcDbLine
 10
1324.654840007335
 20
444.5420065451613
 30
0.0
 11
1310.354940007335
 21
444.5420065451613
 31
0.0
  0
LINE
  5
437
330
2
100
AcDbEntity
  8
4
100
AcDbLine
 10
1273.841268007335
 20
483.0283345451612
 30
0.0
 11
1283.321736007335
 21
480.4878065451612
 31
0.0
  0
LINE
  5
438
330
2
100
AcDbEntity
  8
4
100
AcDbLine
 10
1283.321736007335
 20
480.4878065451612
 30
0.0
 11
1290.262164007336
 21
487.4279945451613
 31
0.0
  0
LINE
  5
439
330
2
100
AcDbEntity
  8
4
100
AcDbLine
 10
1309.354940007335
 20
446.5420065451613
 30
0.0
 11
1310.354940007335
 21
446.5420065451613
 31
0.0
  0
LINE
  5
43A
330
2
100
AcDbEntity
  8
4
100
AcDbLine
 10
1333.251313061483
 20
421.7870511306803
 30
0.0
 11
1324.654840007335
 21
421.7870511306803
 31
0.0
  0
LINE
  5
43B
330
2
100
AcDbEntity
  8
4
100
AcDbLine
 10
1243.354940007335
 20
543.5420065451613
 30
0.0
 11
1243.354940007335
 21
583.5420065451613
 31
0.0
  0
LINE
  5
43C
330
2
100
AcDbEntity
  8
4
100
AcDbLine
 10
1233.354940007335
 20
543.5420065451613
 30
0.0
 11
1233.354940007335
 21
583.5420065451613
 31
0.0
  0
LINE
  5
43D
330
2
100
AcDbEntity
  8
4
100
AcDbLine
 10
1225.854940007335
 20
546.5420065451614
 30
0.0
 11
1233.354940007335
 21
546.5420065451613
 31
0.0
  0
LINE
  5
43E
330
2
100
AcDbEntity
  8
4
100
AcDbLine
 10
1233.354940007335
 20
547.7417185451608
 30
0.0
 11
1225.854940007335
 21
546.5420065451613
 31
0.0
  0
LINE
  5
43F
330
2
100
AcDbEntity
  8
4
100
AcDbLine
 10
1229.354940007335
 20
543.5420065451613
 30
0.0
 11
1227.354940007335
 21
542.5420065451613
 31
0.0
  0
LINE
  5
440
330
2
100
AcDbEntity
  8
4
100
AcDbLine
 10
1218.354940007335
 20
537.5420065451613
 30
0.0
 11
1228.354940007335
 21
537.5420065451613
 31
0.0
  0
LINE
  5
441
330
2
100
AcDbEntity
  8
4
100
AcDbLine
 10
1238.354940007335
 20
540.5420065451613
 30
0.0
 11
1227.354940007335
 21
540.5420065451613
 31
0.0
  0
LINE
  5
442
330
2
100
AcDbEntity
  8
4
100
AcDbLine
 10
1227.354940007335
 20
542.5420065451613
 30
0.0
 11
1238.354940007335
 21
542.5420065451613
 31
0.0
  0
LINE
  5
443
330
2
100
AcDbEntity
  8
4
100
AcDbLine
 10
1198.468464007336
 20
499.4489905451612
 30
0.0
 11
1188.988240007336
 21
496.9087065451613
 31
0.0
  0
LINE
  5
444
330
2
100
AcDbEntity
  8
4
100
AcDbLine
 10
1225.854940007335
 20
537.5420065451613
 30
0.0
 11
1225.854940007335
 21
546.5420065451613
 31
0.0
  0
LINE
  5
445
330
2
100
AcDbEntity
  8
4
100
AcDbLine
 10
1227.354940007335
 20
542.5420065451613
 30
0.0
 11
1227.354940007335
 21
540.5420065451613
 31
0.0
  0
LINE
  5
446
330
2
100
AcDbEntity
  8
4
100
AcDbLine
 10
1215.354940007335
 20
526.5420065451613
 30
0.0
 11
1215.354940007335
 21
530.5420065451613
 31
0.0
  0
LINE
  5
447
330
2
100
AcDbEntity
  8
4
100
AcDbLine
 10
1216.354940007335
 20
524.5420065451613
 30
0.0
 11
1216.354940007335
 21
526.5420065451613
 31
0.0
  0
LINE
  5
448
330
2
100
AcDbEntity
  8
4
100
AcDbLine
 10
1218.354940007335
 20
521.0417625451612
 30
0.0
 11
1218.354940007335
 21
537.5420065451613
 31
0.0
  0
LINE
  5
449
330
2
100
AcDbEntity
  8
4
100
AcDbLine
 10
1213.354940007335
 20
520.7600265451613
 30
0.0
 11
1213.354940007335
 21
524.5420065451613
 31
0.0
  0
LINE
  5
44A
330
2
100
AcDbEntity
  8
4
100
AcDbLine
 10
1216.354940007335
 20
524.5420065451613
 30
0.0
 11
1218.354940007335
 21
524.5420065451614
 31
0.0
  0
LINE
  5
44B
330
2
100
AcDbEntity
  8
4
100
AcDbLine
 10
1213.354940007335
 20
524.5420065451613
 30
0.0
 11
1218.354940007335
 21
524.5420065451611
 31
0.0
  0
LINE
  5
44C
330
2
100
AcDbEntity
  8
4
100
AcDbLine
 10
1215.354940007335
 20
526.5420065451613
 30
0.0
 11
1218.354940007335
 21
526.5420065451611
 31
0.0
  0
LINE
  5
44D
330
2
100
AcDbEntity
  8
4
100
AcDbLine
 10
1215.354940007335
 20
530.5420065451613
 30
0.0
 11
1218.354940007335
 21
530.5420065451611
 31
0.0
  0
LINE
  5
44E
330
2
100
AcDbEntity
  8
4
100
AcDbLine
 10
1243.354940007335
 20
546.5420065451613
 30
0.0
 11
1250.854940007335
 21
546.5420065451613
 31
0.0
  0
LINE
  5
44F
330
2
100
AcDbEntity
  8
4
100
AcDbLine
 10
1261.354940007335
 20
526.5420065451613
 30
0.0
 11
1261.354940007335
 21
530.5420065451613
 31
0.0
  0
LINE
  5
450
330
2
100
AcDbEntity
  8
4
100
AcDbLine
 10
1260.354940007335
 20
526.5420065451613
 30
0.0
 11
1260.354940007335
 21
524.5420065451613
 31
0.0
  0
LINE
  5
451
330
2
100
AcDbEntity
  8
4
100
AcDbLine
 10
1263.354940007335
 20
520.7600265451613
 30
0.0
 11
1263.354940007335
 21
524.5420065451613
 31
0.0
  0
LINE
  5
452
330
2
100
AcDbEntity
  8
4
100
AcDbLine
 10
1258.354940007335
 20
521.0417625451612
 30
0.0
 11
1258.354940007335
 21
537.5420065451611
 31
0.0
  0
LINE
  5
453
330
2
100
AcDbEntity
  8
4
100
AcDbLine
 10
1250.854940007335
 20
537.5420065451613
 30
0.0
 11
1250.854940007335
 21
546.5420065451613
 31
0.0
  0
ARC
  5
454
330
2
100
AcDbEntity
  8
4
100
AcDbCircle
 10
1248.354940007335
 20
526.5420065451613
 30
0.0
 40
4.0
100
AcDbArc
 50
90.0
 51
180.0
  0
LINE
  5
455
330
2
100
AcDbEntity
  8
4
100
AcDbLine
 10
1244.854940007335
 20
521.5420065451613
 30
0.0
 11
1238.354940007335
 21
521.5420065451613
 31
0.0
  0
LINE
  5
456
330
2
100
AcDbEntity
  8
4
100
AcDbLine
 10
1243.229940007335
 20
526.5420065451613
 30
0.0
 11
1238.354940007335
 21
526.5420065451613
 31
0.0
  0
LINE
  5
457
330
2
100
AcDbEntity
  8
4
100
AcDbLine
 10
1244.354940007335
 20
526.5420065451613
 30
0.0
 11
1244.354940007335
 21
526.2382945451614
 31
0.0
  0
LINE
  5
458
330
2
100
AcDbEntity
  8
4
100
AcDbLine
 10
1241.604940007335
 20
521.5420065451613
 30
0.0
 11
1241.604940007335
 21
525.8418105451613
 31
0.0
  0
LINE
  5
459
330
2
100
AcDbEntity
  8
4
100
AcDbLine
 10
1244.854940007335
 20
521.5420065451613
 30
0.0
 11
1244.854940007335
 21
525.8418105451613
 31
0.0
  0
ARC
  5
45A
330
2
100
AcDbEntity
  8
4
100
AcDbCircle
 10
1243.229940007335
 20
524.3061665451612
 30
0.0
 40
2.235808
100
AcDbArc
 50
43.38061500000116
 51
136.6193849999988
  0
LINE
  5
45B
330
2
100
AcDbEntity
  8
4
100
AcDbLine
 10
1248.354940007335
 20
537.5420065451613
 30
0.0
 11
1258.354940007335
 21
537.5420065451611
 31
0.0
  0
LINE
  5
45C
330
2
100
AcDbEntity
  8
4
100
AcDbLine
 10
1248.354940007335
 20
530.5420065451613
 30
0.0
 11
1248.354940007335
 21
540.5420065451613
 31
0.0
  0
LINE
  5
45D
330
2
100
AcDbEntity
  8
4
100
AcDbLine
 10
1243.354940007335
 20
547.7417185451607
 30
0.0
 11
1250.854940007335
 21
546.5420065451613
 31
0.0
  0
LINE
  5
45E
330
2
100
AcDbEntity
  8
4
100
AcDbLine
 10
1247.354940007335
 20
543.5420065451613
 30
0.0
 11
1249.354940007335
 21
542.5420065451613
 31
0.0
  0
LINE
  5
45F
330
2
100
AcDbEntity
  8
4
100
AcDbLine
 10
1249.354940007335
 20
542.5420065451613
 30
0.0
 11
1249.354940007335
 21
540.5420065451613
 31
0.0
  0
LINE
  5
460
330
2
100
AcDbEntity
  8
4
100
AcDbLine
 10
1248.354940007335
 20
530.5420065451613
 30
0.0
 11
1238.354940007335
 21
530.5420065451613
 31
0.0
  0
LINE
  5
461
330
2
100
AcDbEntity
  8
4
100
AcDbLine
 10
1249.354940007335
 20
542.5420065451613
 30
0.0
 11
1238.354940007335
 21
542.5420065451613
 31
0.0
  0
LINE
  5
462
330
2
100
AcDbEntity
  8
4
100
AcDbLine
 10
1238.354940007335
 20
540.5420065451613
 30
0.0
 11
1249.354940007335
 21
540.5420065451613
 31
0.0
  0
LINE
  5
463
330
2
100
AcDbEntity
  8
4
100
AcDbLine
 10
1258.354940007335
 20
526.5420065451613
 30
0.0
 11
1261.354940007335
 21
526.5420065451613
 31
0.0
  0
LINE
  5
464
330
2
100
AcDbEntity
  8
4
100
AcDbLine
 10
1258.354940007335
 20
524.5420065451614
 30
0.0
 11
1260.354940007335
 21
524.5420065451613
 31
0.0
  0
LINE
  5
465
330
2
100
AcDbEntity
  8
4
100
AcDbLine
 10
1258.354940007335
 20
524.5420065451614
 30
0.0
 11
1260.354940007335
 21
524.5420065451613
 31
0.0
  0
LINE
  5
466
330
2
100
AcDbEntity
  8
4
100
AcDbLine
 10
1258.354940007335
 20
524.5420065451611
 30
0.0
 11
1263.354940007335
 21
524.5420065451613
 31
0.0
  0
LINE
  5
467
330
2
100
AcDbEntity
  8
4
100
AcDbLine
 10
1258.354940007335
 20
530.5420065451613
 30
0.0
 11
1261.354940007335
 21
530.5420065451613
 31
0.0
  0
ARC
  5
468
330
2
100
AcDbEntity
  8
4
100
AcDbCircle
 10
1228.354940007335
 20
526.5420065451613
 30
0.0
 40
4.0
100
AcDbArc
 50
0.0
 51
90.0
  0
ARC
  5
469
330
2
100
AcDbEntity
  8
4
100
AcDbCircle
 10
1233.479940007335
 20
524.3061665451612
 30
0.0
 40
2.235808
100
AcDbArc
 50
43.38061500000116
 51
136.6193849999988
  0
LINE
  5
46A
330
2
100
AcDbEntity
  8
4
100
AcDbLine
 10
1231.854940007335
 20
521.5420065451613
 30
0.0
 11
1231.854940007335
 21
525.8418105451613
 31
0.0
  0
LINE
  5
46B
330
2
100
AcDbEntity
  8
4
100
AcDbLine
 10
1235.104940007335
 20
521.5420065451613
 30
0.0
 11
1235.104940007335
 21
525.8418105451613
 31
0.0
  0
LINE
  5
46C
330
2
100
AcDbEntity
  8
4
100
AcDbLine
 10
1232.354940007335
 20
526.5420065451613
 30
0.0
 11
1232.354940007335
 21
526.2382945451614
 31
0.0
  0
LINE
  5
46D
330
2
100
AcDbEntity
  8
4
100
AcDbLine
 10
1228.354940007335
 20
530.5420065451613
 30
0.0
 11
1228.354940007335
 21
540.5420065451613
 31
0.0
  0
ARC
  5
46E
330
2
100
AcDbEntity
  8
4
100
AcDbCircle
 10
1238.354940007335
 20
518.6504065451613
 30
0.0
 40
7.891472
100
AcDbArc
 50
65.6797129999998
 51
114.3202870000002
  0
LINE
  5
46F
330
2
100
AcDbEntity
  8
4
100
AcDbLine
 10
1233.479940007335
 20
526.5420065451613
 30
0.0
 11
1238.354940007335
 21
526.5420065451613
 31
0.0
  0
LINE
  5
470
330
2
100
AcDbEntity
  8
4
100
AcDbLine
 10
1231.854940007335
 20
521.5420065451613
 30
0.0
 11
1238.354940007335
 21
521.5420065451613
 31
0.0
  0
LINE
  5
471
330
2
100
AcDbEntity
  8
4
100
AcDbLine
 10
1228.354940007335
 20
530.5420065451613
 30
0.0
 11
1238.354940007335
 21
530.5420065451613
 31
0.0
  0
LINE
  5
472
330
2
100
AcDbEntity
  8
L-CENTER
 48
4.0
100
AcDbLine
 10
1246.181112007335
 20
563.5420065451613
 30
0.0
 11
1229.198444007336
 21
563.5420065451613
 31
0.0
  0
LINE
  5
473
330
2
100
AcDbEntity
  8
4
100
AcDbLine
 10
1247.354940007335
 20
543.5420065451613
 30
0.0
 11
1229.354940007335
 21
543.5420065451613
 31
0.0
  0
ARC
  5
478
330
2
100
AcDbEntity
  8
4
100
AcDbCircle
 10
1238.354940007335
 20
583.5420065451613
 30
0.0
 40
5.0
100
AcDbArc
 50
0.0
 51
180.0
  0
LINE
  5
47B
330
2
100
AcDbEntity
  8
4
100
AcDbLine
 10
1278.241412007335
 20
499.4489905451612
 30
0.0
 11
1287.721640007336
 21
496.9087065451613
 31
0.0
  0
ARC
  5
47C
330
2
100
AcDbEntity
  8
4
100
AcDbCircle
 10
1299.085652007336
 20
511.8454745451613
 30
0.0
 40
4.999968
100
AcDbArc
 50
9.36895799999972
 51
81.15492800000129
  0
LINE
  5
543
330
2
100
AcDbEntity
  8
4
100
AcDbLine
 10
1363.354940007335
 20
72.54200654516126
 30
0.0
 11
1363.354940007335
 21
106.5420065451613
 31
0.0
  0
LINE
  5
544
330
2
100
AcDbEntity
  8
4
100
AcDbLine
 10
1378.354940007335
 20
301.5420065451613
 30
0.0
 11
1477.354940007335
 21
301.5420065451613
 31
0.0
  0
LINE
  5
545
330
2
100
AcDbEntity
  8
4
100
AcDbLine
 10
1478.354940007335
 20
306.5420065451613
 30
0.0
 11
1388.354940007335
 21
306.5420065451613
 31
0.0
  0
LINE
  5
546
330
2
100
AcDbEntity
  8
4
100
AcDbLine
 10
1378.354940007335
 20
243.5420065451613
 30
0.0
 11
1477.354940007335
 21
243.5420065451613
 31
0.0
  0
LINE
  5
549
330
2
100
AcDbEntity
  8
4
100
AcDbLine
 10
1378.354940007335
 20
302.5420065451613
 30
0.0
 11
1378.354940007335
 21
242.5420065451613
 31
0.0
  0
LINE
  5
54A
330
2
100
AcDbEntity
  8
4
100
AcDbLine
 10
1369.254696007335
 20
315.0420065451613
 30
0.0
 11
1369.254696007335
 21
230.0420065451613
 31
0.0
  0
LINE
  5
54B
330
2
100
AcDbEntity
  8
4
100
AcDbLine
 10
1368.254696007335
 20
325.5420065451613
 30
0.0
 11
1368.254696007335
 21
219.5420065451613
 31
0.0
  0
LINE
  5
54C
330
2
100
AcDbEntity
  8
4
100
AcDbLine
 10
1369.254696007335
 20
230.0420065451613
 30
0.0
 11
1368.254696007335
 21
230.0420065451613
 31
0.0
  0
LINE
  5
54D
330
2
100
AcDbEntity
  8
4
100
AcDbLine
 10
1369.254696007335
 20
242.5420065451613
 30
0.0
 11
1378.354940007335
 21
242.5420065451613
 31
0.0
  0
LINE
  5
54E
330
2
100
AcDbEntity
  8
4
100
AcDbLine
 10
1388.354940007335
 20
306.5420065451613
 30
0.0
 11
1388.354940007335
 21
301.5420065451613
 31
0.0
  0
LINE
  5
54F
330
2
100
AcDbEntity
  8
4
100
AcDbLine
 10
1369.254696007335
 20
315.0420065451613
 30
0.0
 11
1368.254696007335
 21
315.0420065451613
 31
0.0
  0
LINE
  5
550
330
2
100
AcDbEntity
  8
4
100
AcDbLine
 10
1378.354940007335
 20
302.5420065451613
 30
0.0
 11
1369.254696007335
 21
302.5420065451613
 31
0.0
  0
LINE
  5
551
330
2
100
AcDbEntity
  8
4
100
AcDbLine
 10
1477.354940007335
 20
301.5420065451613
 30
0.0
 11
1477.354940007335
 21
243.5420065451613
 31
0.0
  0
LINE
  5
552
330
2
100
AcDbEntity
  8
4
100
AcDbLine
 10
1478.354940007335
 20
306.5420065451613
 30
0.0
 11
1478.354940007335
 21
244.5420065451613
 31
0.0
  0
LINE
  5
554
330
2
100
AcDbEntity
  8
4
100
AcDbLine
 10
1477.354940007335
 20
243.5420065451613
 30
0.0
 11
1478.354940007335
 21
244.5420065451613
 31
0.0
  0
LINE
  5
555
330
2
100
AcDbEntity
  8
4
100
AcDbLine
 10
1478.354940007335
 20
300.5420065451613
 30
0.0
 11
1477.354940007335
 21
301.5420065451613
 31
0.0
  0
ARC
  5
A10
330
2
100
AcDbEntity
  8
4
100
AcDbCircle
 10
650.6048394748495
 20
1174.135298526238
 30
0.0
 40
8.0
100
AcDbArc
 50
0.0
 51
90.0
  0
LINE
  5
A11
330
2
100
AcDbEntity
  8
L-CENTER
 48
8.0
100
AcDbLine
 10
657.7481514748497
 20
1014.708786526238
 30
0.0
 11
635.5263234748495
 21
1014.708786526238
 31
0.0
  0
LINE
  5
A12
330
2
100
AcDbEntity
  8
L-CENTER
 48
8.0
100
AcDbLine
 10
657.7482514748499
 20
1099.561814526238
 30
0.0
 11
635.5264234748497
 21
1099.561814526238
 31
0.0
  0
LINE
  5
A13
330
2
100
AcDbEntity
  8
L-CENTER
 48
8.0
100
AcDbLine
 10
748.1692772013457
 20
1057.135298526238
 30
0.0
 11
248.4274000126724
 21
1057.135298526238
 31
0.0
  0
ARC
  5
A14
330
2
100
AcDbEntity
  8
4
100
AcDbCircle
 10
650.6048394748495
 20
940.1352985262374
 30
0.0
 40
8.0
100
AcDbArc
 50
270.0
 51
0.0
  0
LINE
  5
A15
330
2
100
AcDbEntity
  8
4
100
AcDbLine
 10
626.6048394748495
 20
986.1352985262383
 30
0.0
 11
626.6048394748495
 21
1128.135298526238
 31
0.0
  0
LINE
  5
A16
330
2
100
AcDbEntity
  8
4
100
AcDbLine
 10
631.6048394748495
 20
987.1352985262379
 30
0.0
 11
631.6048394748495
 21
1127.135298526238
 31
0.0
  0
LINE
  5
A17
330
2
100
AcDbEntity
  8
4
100
AcDbLine
 10
643.4048394748497
 20
987.1352985262379
 30
0.0
 11
643.4048394748497
 21
1127.135298526238
 31
0.0
  0
LINE
  5
A18
330
2
100
AcDbEntity
  8
L-CENTER
 48
8.0
100
AcDbLine
 10
360.6048394748495
 20
1025.553305461542
 30
0.0
 11
360.6048394748495
 21
1088.803095293008
 31
0.0
  0
LINE
  5
A19
330
2
100
AcDbEntity
  8
4
100
AcDbLine
 10
285.60483947485
 20
987.1352985262379
 30
0.0
 11
285.6048394748495
 21
1127.135298526238
 31
0.0
  0
LINE
  5
A1A
330
2
100
AcDbEntity
  8
4
100
AcDbLine
 10
290.6048394748495
 20
986.1352985262374
 30
0.0
 11
290.6048394748495
 21
1128.135298526238
 31
0.0
  0
LINE
  5
A1C
330
2
100
AcDbEntity
  8
4
100
AcDbLine
 10
273.8048394748503
 20
987.1352985262383
 30
0.0
 11
273.8048394748494
 21
1127.135298526238
 31
0.0
  0
LINE
  5
A1D
330
2
100
AcDbEntity
  8
4
100
AcDbLine
 10
258.6048394748495
 20
940.1352985262379
 30
0.0
 11
258.6048394748495
 21
1174.135298526238
 31
0.0
  0
LINE
  5
A1E
330
2
100
AcDbEntity
  8
L-CENTER
 48
8.0
100
AcDbLine
 10
458.6048394748495
 20
810.5378595552324
 30
0.0
 11
458.6048394748495
 21
1303.732737497243
 31
0.0
  0
LINE
  5
A1F
330
2
100
AcDbEntity
  8
4
100
AcDbLine
 10
290.6048394748495
 20
986.1352985262374
 30
0.0
 11
626.6048394748495
 21
986.1352985262383
 31
0.0
  0
LINE
  5
A20
330
2
100
AcDbEntity
  8
4
100
AcDbLine
 10
284.6048394748495
 20
985.1352985262374
 30
0.0
 11
509.6048394743525
 21
985.1352985262379
 31
0.0
  0
LINE
  5
A21
330
2
100
AcDbEntity
  8
4
100
AcDbLine
 10
286.6048394748495
 20
973.1352985262374
 30
0.0
 11
630.6048394748495
 21
973.1352985262383
 31
0.0
  0
LINE
  5
A22
330
2
100
AcDbEntity
  8
L-CENTER
 48
8.0
100
AcDbLine
 10
261.9780234235295
 20
957.1352985262379
 30
0.0
 11
305.2316555261696
 21
957.1352985262379
 31
0.0
  0
LINE
  5
A23
330
2
100
AcDbEntity
  8
4
100
AcDbLine
 10
266.6048394748495
 20
932.1352985262379
 30
0.0
 11
315.6048394748495
 21
932.1352985262379
 31
0.0
  0
CIRCLE
  5
A24
330
2
100
AcDbEntity
  8
4
100
AcDbCircle
 10
283.6048394748495
 20
957.1352985262379
 30
0.0
 40
10.0
  0
LINE
  5
A25
330
2
100
AcDbEntity
  8
L-CENTER
 48
8.0
100
AcDbLine
 10
283.6048394748495
 20
935.5084824749179
 30
0.0
 11
283.6048394748495
 21
978.7621145775579
 31
0.0
  0
ARC
  5
A26
330
2
100
AcDbEntity
  8
4
100
AcDbCircle
 10
266.6048394748495
 20
940.1352985262379
 30
0.0
 40
8.0
100
AcDbArc
 50
180.0
 51
270.0
  0
LINE
  5
A27
330
2
100
AcDbEntity
  8
4
100
AcDbLine
 10
284.6048394748495
 20
985.1352985262374
 30
0.0
 11
284.6048394748495
 21
987.1352985262383
 31
0.0
  0
LINE
  5
A28
330
2
100
AcDbEntity
  8
4
100
AcDbLine
 10
286.6048394748495
 20
973.1352985262374
 30
0.0
 11
286.6048394748495
 21
985.1352985262374
 31
0.0
  0
LINE
  5
A29
330
2
100
AcDbEntity
  8
4
100
AcDbLine
 10
271.3048394748498
 20
1019.616254526238
 30
0.0
 11
265.1998594748497
 21
1019.616254526238
 31
0.0
  0
LINE
  5
A2A
330
2
100
AcDbEntity
  8
4
100
AcDbLine
 10
265.1998594748497
 20
1024.508834526238
 30
0.0
 11
271.3048394748498
 21
1024.508834526238
 31
0.0
  0
LINE
  5
A2B
330
2
100
AcDbEntity
  8
4
100
AcDbLine
 10
271.3048394748498
 20
1009.801314526238
 30
0.0
 11
265.1998594748497
 21
1009.801314526238
 31
0.0
  0
LINE
  5
A2C
330
2
100
AcDbEntity
  8
4
100
AcDbLine
 10
265.1998594748497
 20
1004.908738526238
 30
0.0
 11
271.3048394748498
 21
1004.908738526238
 31
0.0
  0
LINE
  5
A2D
330
2
100
AcDbEntity
  8
4
100
AcDbLine
 10
273.8048394748498
 20
1023.908738526238
 30
0.0
 11
273.8048394748498
 21
1005.508834526238
 31
0.0
  0
LINE
  5
A2E
330
2
100
AcDbEntity
  8
4
100
AcDbLine
 10
271.3048394748498
 20
1024.508834526238
 30
0.0
 11
271.3048394748498
 21
1004.908738526238
 31
0.0
  0
LINE
  5
A2F
330
2
100
AcDbEntity
  8
4
100
AcDbLine
 10
273.8048394748498
 20
1005.508834526238
 30
0.0
 11
271.3048394748498
 21
1005.508834526238
 31
0.0
  0
LINE
  5
A30
330
2
100
AcDbEntity
  8
4
100
AcDbLine
 10
271.3048394748498
 20
1023.908738526238
 30
0.0
 11
273.8048394748498
 21
1023.908738526238
 31
0.0
  0
LINE
  5
A32
330
2
100
AcDbEntity
  8
4
100
AcDbLine
 10
264.3048394748498
 20
1022.062546526238
 30
0.0
 11
264.3048394748498
 21
1007.355026526238
 31
0.0
  0
LINE
  5
A33
330
2
100
AcDbEntity
  8
L-CENTER
 48
8.0
100
AcDbLine
 10
259.56143147485
 20
1014.708786526238
 30
0.0
 11
281.6832594748498
 21
1014.708786526238
 31
0.0
  0
ARC
  5
A34
330
2
100
AcDbEntity
  8
4
100
AcDbCircle
 10
268.0958554748499
 20
1022.062546526238
 30
0.0
 40
3.790928
100
AcDbArc
 50
139.8117439999993
 51
220.1882560000007
  0
ARC
  5
A35
330
2
100
AcDbEntity
  8
4
100
AcDbCircle
 10
278.2084034748495
 20
1014.708786526238
 30
0.0
 40
13.90362
100
AcDbArc
 50
159.3313819999991
 51
200.6676740000003
  0
ARC
  5
A36
330
2
100
AcDbEntity
  8
4
100
AcDbCircle
 10
268.0958554748499
 20
1007.355026526238
 30
0.0
 40
3.79102
100
AcDbArc
 50
139.8117440000009
 51
220.1858760000027
  0
LINE
  5
A37
330
2
100
AcDbEntity
  8
4
100
AcDbLine
 10
290.6048394748495
 20
987.1352985262374
 30
0.0
 11
273.8048394748503
 21
987.1352985262383
 31
0.0
  0
LINE
  5
A38
330
2
100
AcDbEntity
  8
4
100
AcDbLine
 10
405.6048394748495
 20
927.1352985262374
 30
0.0
 11
511.6048394748495
 21
927.1352985262383
 31
0.0
  0
LINE
  5
A39
330
2
100
AcDbEntity
  8
4
100
AcDbLine
 10
415.6048394748495
 20
943.1352985262379
 30
0.0
 11
501.6048394748495
 21
943.1352985262379
 31
0.0
  0
LINE
  5
A3A
330
2
100
AcDbEntity
  8
4
100
AcDbLine
 10
311.6048394748495
 20
973.1352985262379
 30
0.0
 11
401.6048394748495
 21
943.1352985262374
 31
0.0
  0
LINE
  5
A3B
330
2
100
AcDbEntity
  8
4
100
AcDbLine
 10
317.929394795186
 20
973.1352985262379
 30
0.0
 11
401.0298799002735
 21
945.435136824542
 31
0.0
  0
LINE
  5
A3C
330
2
100
AcDbEntity
  8
4
100
AcDbLine
 10
323.6048394748495
 20
940.1352985262379
 30
0.0
 11
323.6048394748495
 21
969.1352985262379
 31
0.0
  0
ARC
  5
A3D
330
2
100
AcDbEntity
  8
4
100
AcDbCircle
 10
315.6048394748495
 20
940.1352985262379
 30
0.0
 40
8.0
100
AcDbArc
 50
270.0
 51
0.0
  0
LINE
  5
A3E
330
2
100
AcDbEntity
  8
4
100
AcDbLine
 10
415.6048394748495
 20
945.4351368049001
 30
0.0
 11
424.8382267152956
 21
973.1352985262374
 31
0.0
  0
LINE
  5
A3F
330
2
100
AcDbEntity
  8
4
100
AcDbLine
 10
415.6048394748495
 20
943.1352985262379
 30
0.0
 11
425.6048394748495
 21
973.1352985262374
 31
0.0
  0
LINE
  5
A40
330
2
100
AcDbEntity
  8
4
100
AcDbLine
 10
415.6048394748495
 20
943.1352985262379
 30
0.0
 11
415.6048394748495
 21
945.4351368216958
 31
0.0
  0
LINE
  5
A41
330
2
100
AcDbEntity
  8
4
100
AcDbLine
 10
401.0298799002735
 20
945.435136824542
 30
0.0
 11
415.6048394748495
 21
945.4351368216958
 31
0.0
  0
LINE
  5
A42
330
2
100
AcDbEntity
  8
4
100
AcDbLine
 10
405.6048394748495
 20
927.1352985262379
 30
0.0
 11
401.0298799002735
 21
945.4351368245416
 31
0.0
  0
LINE
  5
A43
330
2
100
AcDbEntity
  8
4
100
AcDbLine
 10
511.6048394743525
 20
982.1352985262379
 30
0.0
 11
614.6048394748491
 21
982.1352985262383
 31
0.0
  0
LINE
  5
A44
330
2
100
AcDbEntity
  8
4
100
AcDbLine
 10
605.6048440846644
 20
973.1352985262383
 30
0.0
 11
515.60483947485
 21
943.1352985262383
 31
0.0
  0
LINE
  5
A45
330
2
100
AcDbEntity
  8
4
100
AcDbLine
 10
599.2802884727776
 20
973.1352985262383
 30
0.0
 11
516.179799043804
 21
945.4351368020534
 31
0.0
  0
LINE
  5
A46
330
2
100
AcDbEntity
  8
4
100
AcDbLine
 10
501.6048394748495
 20
945.4351368049001
 30
0.0
 11
492.3714522344035
 21
973.1352985262379
 31
0.0
  0
LINE
  5
A47
330
2
100
AcDbEntity
  8
4
100
AcDbLine
 10
501.6048394748495
 20
943.1352985262379
 30
0.0
 11
491.60483947485
 21
973.1352985262374
 31
0.0
  0
LINE
  5
A48
330
2
100
AcDbEntity
  8
4
100
AcDbLine
 10
501.6048394748495
 20
943.1352985262379
 30
0.0
 11
501.6048394748495
 21
945.4351368049001
 31
0.0
  0
LINE
  5
A49
330
2
100
AcDbEntity
  8
4
100
AcDbLine
 10
501.6048394748495
 20
945.4351368049001
 30
0.0
 11
516.179799043804
 21
945.4351368020534
 31
0.0
  0
LINE
  5
A4A
330
2
100
AcDbEntity
  8
4
100
AcDbLine
 10
511.6048394748495
 20
927.1352985262379
 30
0.0
 11
516.179799043804
 21
945.4351368020534
 31
0.0
  0
LINE
  5
A4B
330
2
100
AcDbEntity
  8
4
100
AcDbLine
 10
509.6048394743525
 20
986.1352985262379
 30
0.0
 11
509.6048394743525
 21
984.1352985262379
 31
0.0
  0
ARC
  5
A4C
330
2
100
AcDbEntity
  8
4
100
AcDbCircle
 10
511.6048394743525
 20
984.1352985262379
 30
0.0
 40
2.0
100
AcDbArc
 50
180.0
 51
270.0
  0
CIRCLE
  5
A4D
330
2
100
AcDbEntity
  8
4
100
AcDbCircle
 10
633.6048394748495
 20
957.1352985262374
 30
0.0
 40
10.0
  0
LINE
  5
A4E
330
2
100
AcDbEntity
  8
4
100
AcDbLine
 10
593.6048394748505
 20
940.1352985262379
 30
0.0
 11
593.6048394748505
 21
969.1352971945144
 31
0.0
  0
LINE
  5
A4F
330
2
100
AcDbEntity
  8
L-CENTER
 48
8.0
100
AcDbLine
 10
633.6048394748495
 20
935.5084824749174
 30
0.0
 11
633.6048394748495
 21
978.7621145775574
 31
0.0
  0
LINE
  5
A50
330
2
100
AcDbEntity
  8
4
100
AcDbLine
 10
601.6048394748505
 20
932.1352985262374
 30
0.0
 11
650.6048394748495
 21
932.1352985262374
 31
0.0
  0
ARC
  5
A51
330
2
100
AcDbEntity
  8
4
100
AcDbCircle
 10
601.6048394748505
 20
940.1352985262379
 30
0.0
 40
8.0
100
AcDbArc
 50
180.0
 51
270.0
  0
LINE
  5
A52
330
2
100
AcDbEntity
  8
L-CENTER
 48
8.0
100
AcDbLine
 10
611.9780234235295
 20
957.1352985262374
 30
0.0
 11
655.2316555261696
 21
957.1352985262374
 31
0.0
  0
LINE
  5
A53
330
2
100
AcDbEntity
  8
4
100
AcDbLine
 10
643.4048394748497
 20
1005.508834526238
 30
0.0
 11
643.4048394748497
 21
1023.908738526238
 31
0.0
  0
LINE
  5
A54
330
2
100
AcDbEntity
  8
4
100
AcDbLine
 10
652.9048394748497
 20
1007.355026526238
 30
0.0
 11
652.9048394748497
 21
1022.062546526238
 31
0.0
  0
LINE
  5
A55
330
2
100
AcDbEntity
  8
4
100
AcDbLine
 10
645.9048394748497
 20
1004.908738526238
 30
0.0
 11
645.9048394748497
 21
1024.508834526238
 31
0.0
  0
ARC
  5
A56
330
2
100
AcDbEntity
  8
4
100
AcDbCircle
 10
649.1138274748496
 20
1022.062546526238
 30
0.0
 40
3.791112
100
AcDbArc
 50
319.814124
 51
40.18587599999998
  0
ARC
  5
A57
330
2
100
AcDbEntity
  8
4
100
AcDbCircle
 10
639.0012754748495
 20
1014.708786526238
 30
0.0
 40
13.90362
100
AcDbArc
 50
339.3313849999993
 51
20.6676779999991
  0
LINE
  5
A58
330
2
100
AcDbEntity
  8
4
100
AcDbLine
 10
645.9048394748497
 20
1005.508834526238
 30
0.0
 11
643.4048394748497
 21
1005.508834526238
 31
0.0
  0
LINE
  5
A59
330
2
100
AcDbEntity
  8
4
100
AcDbLine
 10
645.9048394748497
 20
1009.801314526238
 30
0.0
 11
652.0098234748498
 21
1009.801314526238
 31
0.0
  0
LINE
  5
A5A
330
2
100
AcDbEntity
  8
4
100
AcDbLine
 10
652.0098234748498
 20
1004.908738526238
 30
0.0
 11
645.9048394748497
 21
1004.908738526238
 31
0.0
  0
ARC
  5
A5B
330
2
100
AcDbEntity
  8
4
100
AcDbCircle
 10
649.1138274748496
 20
1007.355026526238
 30
0.0
 40
3.790928
100
AcDbArc
 50
319.8117439999993
 51
40.18825600000074
  0
LINE
  5
A5C
330
2
100
AcDbEntity
  8
4
100
AcDbLine
 10
645.9048394748497
 20
1019.616254526238
 30
0.0
 11
652.0098234748498
 21
1019.616254526238
 31
0.0
  0
LINE
  5
A5D
330
2
100
AcDbEntity
  8
4
100
AcDbLine
 10
652.0098234748498
 20
1024.508834526238
 30
0.0
 11
645.9048394748497
 21
1024.508834526238
 31
0.0
  0
LINE
  5
A5E
330
2
100
AcDbEntity
  8
4
100
AcDbLine
 10
643.4048394748497
 20
1023.908738526238
 30
0.0
 11
645.9048394748497
 21
1023.908738526238
 31
0.0
  0
LINE
  5
A5F
330
2
100
AcDbEntity
  8
4
100
AcDbLine
 10
632.6048394748495
 20
985.1352985262383
 30
0.0
 11
632.6048394748495
 21
987.1352985262379
 31
0.0
  0
LINE
  5
A60
330
2
100
AcDbEntity
  8
4
100
AcDbLine
 10
630.6048394748495
 20
973.1352985262383
 30
0.0
 11
630.6048394748495
 21
985.1352985262383
 31
0.0
  0
LINE
  5
A61
330
2
100
AcDbEntity
  8
4
100
AcDbLine
 10
616.6048394748486
 20
986.1352985262379
 30
0.0
 11
616.6048394748491
 21
984.1352985262383
 31
0.0
  0
ARC
  5
A62
330
2
100
AcDbEntity
  8
4
100
AcDbCircle
 10
614.6048394748491
 20
984.1352985262383
 30
0.0
 40
2.0
100
AcDbArc
 50
270.0
 51
0.0
  0
LINE
  5
A63
330
2
100
AcDbEntity
  8
4
100
AcDbLine
 10
616.6048394748491
 20
985.1352985262383
 30
0.0
 11
632.6048394748495
 21
985.1352985262383
 31
0.0
  0
LINE
  5
A64
330
2
100
AcDbEntity
  8
4
100
AcDbLine
 10
643.4048394748497
 20
987.1352985262379
 30
0.0
 11
626.6048394748495
 21
987.1352985262379
 31
0.0
  0
LINE
  5
A65
330
2
100
AcDbEntity
  8
4
100
AcDbLine
 10
307.4197940510726
 20
1143.535298526238
 30
0.0
 11
287.7898848986251
 21
1143.535298526238
 31
0.0
  0
LINE
  5
A66
330
2
100
AcDbEntity
  8
4
100
AcDbLine
 10
307.4197940510726
 20
1146.035298526238
 30
0.0
 11
287.7898848986251
 21
1146.035298526238
 31
0.0
  0
ARC
  5
A67
330
2
100
AcDbEntity
  8
4
100
AcDbCircle
 10
297.6048394748486
 20
1139.256133228779
 30
0.0
 40
13.77916529745958
100
AcDbArc
 50
69.13593563608097
 51
110.864064363919
  0
LINE
  5
A68
330
2
100
AcDbEntity
  8
4
100
AcDbLine
 10
290.2436235426812
 20
1153.035298526238
 30
0.0
 11
304.9660554070165
 21
1153.035298526238
 31
0.0
  0
CIRCLE
  5
A69
330
2
100
AcDbEntity
  8
4
100
AcDbCircle
 10
302.6048394748495
 20
1057.135298526238
 30
0.0
 40
11.0
  0
LINE
  5
A6A
330
2
100
AcDbEntity
  8
4
100
AcDbLine
 10
266.6048394748495
 20
1182.135298526238
 30
0.0
 11
315.6048394748495
 21
1182.135298526238
 31
0.0
  0
LINE
  5
A6B
330
2
100
AcDbEntity
  8
L-CENTER
 48
8.0
100
AcDbLine
 10
261.9780234235295
 20
1157.135298526238
 30
0.0
 11
305.2316555261696
 21
1157.135298526238
 31
0.0
  0
LINE
  5
A6C
330
2
100
AcDbEntity
  8
4
100
AcDbLine
 10
290.6048394748495
 20
1128.135298526238
 30
0.0
 11
626.6048394748495
 21
1128.135298526238
 31
0.0
  0
LINE
  5
A6D
330
2
100
AcDbEntity
  8
4
100
AcDbLine
 10
284.6048394748495
 20
1129.135298526238
 30
0.0
 11
632.6048394748495
 21
1129.135298526238
 31
0.0
  0
LINE
  5
A6E
330
2
100
AcDbEntity
  8
4
100
AcDbLine
 10
286.6048394748495
 20
1131.135298526238
 30
0.0
 11
630.6048394748495
 21
1131.135298526238
 31
0.0
  0
LINE
  5
A6F
330
2
100
AcDbEntity
  8
4
100
AcDbLine
 10
287.6048394748495
 20
1143.535298526238
 30
0.0
 11
629.6048394748491
 21
1143.535298526238
 31
0.0
  0
LINE
  5
A70
330
2
100
AcDbEntity
  8
L-CENTER
 48
8.0
100
AcDbLine
 10
283.6048394748495
 20
1178.762114577558
 30
0.0
 11
283.6048394748495
 21
1135.508482474918
 31
0.0
  0
ARC
  5
A71
330
2
100
AcDbEntity
  8
4
100
AcDbCircle
 10
266.6048394748495
 20
1174.135298526238
 30
0.0
 40
8.0
100
AcDbArc
 50
90.0
 51
180.0
  0
LINE
  5
A7B
330
2
100
AcDbEntity
  8
4
100
AcDbLine
 10
264.3048394748498
 20
1092.208054526238
 30
0.0
 11
264.3048394748498
 21
1106.915574526238
 31
0.0
  0
ARC
  5
A7C
330
2
100
AcDbEntity
  8
4
100
AcDbCircle
 10
278.2084034748495
 20
1099.561814526238
 30
0.0
 40
13.90362
100
AcDbArc
 50
159.3323259999997
 51
200.6686180000009
  0
LINE
  5
A7D
330
2
100
AcDbEntity
  8
4
100
AcDbLine
 10
271.3048394748498
 20
1089.761762526238
 30
0.0
 11
271.3048394748498
 21
1109.361862526238
 31
0.0
  0
LINE
  5
A7E
330
2
100
AcDbEntity
  8
4
100
AcDbLine
 10
273.8048394748498
 20
1090.361862526238
 30
0.0
 11
273.8048394748498
 21
1108.761762526238
 31
0.0
  0
LINE
  5
A80
330
2
100
AcDbEntity
  8
4
100
AcDbLine
 10
265.1998594748497
 20
1089.761762526238
 30
0.0
 11
271.3048394748498
 21
1089.761762526238
 31
0.0
  0
LINE
  5
A81
330
2
100
AcDbEntity
  8
4
100
AcDbLine
 10
271.3048394748498
 20
1094.654342526238
 30
0.0
 11
265.1998594748497
 21
1094.654342526238
 31
0.0
  0
LINE
  5
A82
330
2
100
AcDbEntity
  8
4
100
AcDbLine
 10
271.3048394748498
 20
1090.361862526238
 30
0.0
 11
273.8048394748498
 21
1090.361862526238
 31
0.0
  0
LINE
  5
A85
330
2
100
AcDbEntity
  8
L-CENTER
 48
8.0
100
AcDbLine
 10
259.56143147485
 20
1099.561814526238
 30
0.0
 11
281.6832594748498
 21
1099.561814526238
 31
0.0
  0
ARC
  5
A86
330
2
100
AcDbEntity
  8
4
100
AcDbCircle
 10
268.0958554748499
 20
1092.208054526238
 30
0.0
 40
3.79102
100
AcDbArc
 50
139.8141239999973
 51
220.1882559999991
  0
ARC
  5
A8B
330
2
100
AcDbEntity
  8
4
100
AcDbCircle
 10
290.2436235426812
 20
1149.251684597179
 30
0.0
 40
3.783613929059507
100
AcDbArc
 50
49.57010315516856
 51
130.4298968448315
  0
LINE
  5
A8C
330
2
100
AcDbEntity
  8
4
100
AcDbLine
 10
287.7898848986251
 20
1143.535298526238
 30
0.0
 11
287.7898848986251
 21
1152.131771580386
 31
0.0
  0
LINE
  5
A8D
330
2
100
AcDbEntity
  8
4
100
AcDbLine
 10
292.6973621867369
 20
1152.131771580386
 30
0.0
 11
292.6973621867369
 21
1146.035298526238
 31
0.0
  0
LINE
  5
A8E
330
2
100
AcDbEntity
  8
4
100
AcDbLine
 10
286.6048394748495
 20
1129.135298526237
 30
0.0
 11
286.6048394748495
 21
1142.535298526238
 31
0.0
  0
LINE
  5
A8F
330
2
100
AcDbEntity
  8
4
100
AcDbLine
 10
284.6048394748495
 20
1127.135298526238
 30
0.0
 11
284.6048394748495
 21
1129.135298526238
 31
0.0
  0
LINE
  5
A90
330
2
100
AcDbEntity
  8
L-CENTER
 48
8.0
100
AcDbLine
 10
297.6048394748486
 20
1120.622951805147
 30
0.0
 11
297.6048394748486
 21
1155.903276780818
 31
0.0
  0
ARC
  5
A91
330
2
100
AcDbEntity
  8
4
100
AcDbCircle
 10
287.6048394748495
 20
1142.535298526238
 30
0.0
 40
1.0
100
AcDbArc
 50
90.0
 51
180.0
  0
ARC
  5
A92
330
2
100
AcDbEntity
  8
4
100
AcDbCircle
 10
287.6048394748495
 20
1142.535298526238
 30
0.0
 40
1.0
100
AcDbArc
 50
90.0
 51
180.0
  0
LINE
  5
A93
330
2
100
AcDbEntity
  8
4
100
AcDbLine
 10
265.1998594748497
 20
1109.361862526238
 30
0.0
 11
271.3048394748498
 21
1109.361862526238
 31
0.0
  0
LINE
  5
A94
330
2
100
AcDbEntity
  8
4
100
AcDbLine
 10
273.8048394748498
 20
1108.761762526238
 30
0.0
 11
271.3048394748498
 21
1108.761762526238
 31
0.0
  0
LINE
  5
A95
330
2
100
AcDbEntity
  8
4
100
AcDbLine
 10
271.3048394748498
 20
1104.469282526238
 30
0.0
 11
265.1998594748497
 21
1104.469282526238
 31
0.0
  0
ARC
  5
A96
330
2
100
AcDbEntity
  8
4
100
AcDbCircle
 10
268.0958554748499
 20
1106.915574526238
 30
0.0
 40
3.79102
100
AcDbArc
 50
139.8141239999973
 51
220.1882670000008
  0
ARC
  5
A97
330
2
100
AcDbEntity
  8
4
100
AcDbCircle
 10
283.6048394748495
 20
1157.135298526238
 30
0.0
 40
10.0
100
AcDbArc
 50
335.7951651985423
 51
294.7402089475321
  0
LINE
  5
A98
330
2
100
AcDbEntity
  8
4
100
AcDbLine
 10
290.6048394748495
 20
1127.135298526237
 30
0.0
 11
273.8048394748494
 21
1127.135298526238
 31
0.0
  0
LINE
  5
A99
330
2
100
AcDbEntity
  8
4
100
AcDbLine
 10
466.1048394748491
 20
1296.135298526238
 30
0.0
 11
487.6048394748491
 21
1296.135298526238
 31
0.0
  0
LINE
  5
A9A
330
2
100
AcDbEntity
  8
4
100
AcDbLine
 10
430.6048394748495
 20
1297.135298526238
 30
0.0
 11
486.6048394748491
 21
1297.135298526238
 31
0.0
  0
LINE
  5
A9B
330
2
100
AcDbEntity
  8
4
100
AcDbLine
 10
488.6048394748491
 20
1197.135298526238
 30
0.0
 11
428.6048394748491
 21
1197.135298526238
 31
0.0
  0
ARC
  5
A9C
330
2
100
AcDbEntity
  8
4
100
AcDbCircle
 10
478.6048394748495
 20
1057.135298526238
 30
0.0
 40
5.0
100
AcDbArc
 50
270.0
 51
90.0
  0
LINE
  5
A9D
330
2
100
AcDbEntity
  8
4
100
AcDbLine
 10
405.6048394748495
 20
1187.135298526238
 30
0.0
 11
511.6048394748491
 21
1187.135298526238
 31
0.0
  0
LINE
  5
A9E
330
2
100
AcDbEntity
  8
4
100
AcDbLine
 10
501.6048394748491
 20
1171.135298526238
 30
0.0
 11
415.6048394748495
 21
1171.135298526238
 31
0.0
  0
LINE
  5
A9F
330
2
100
AcDbEntity
  8
4
100
AcDbLine
 10
416.1048394748495
 20
1188.135298526238
 30
0.0
 11
501.1048394748495
 21
1188.135298526238
 31
0.0
  0
LINE
  5
AA0
330
2
100
AcDbEntity
  8
4
100
AcDbLine
 10
405.6048394748495
 20
1187.135298526238
 30
0.0
 11
401.0298799058951
 21
1168.835460250422
 31
0.0
  0
ARC
  5
AA1
330
2
100
AcDbEntity
  8
4
100
AcDbCircle
 10
315.6048394748495
 20
1174.135298526238
 30
0.0
 40
8.0
100
AcDbArc
 50
0.0
 51
90.0
  0
LINE
  5
AA2
330
2
100
AcDbEntity
  8
4
100
AcDbLine
 10
325.1293908457073
 20
1143.535298526238
 30
0.0
 11
401.0298799058951
 21
1168.835460250422
 31
0.0
  0
LINE
  5
AA3
330
2
100
AcDbEntity
  8
4
100
AcDbLine
 10
318.804835233821
 20
1143.535298526238
 30
0.0
 11
401.6048394748491
 21
1171.135298526238
 31
0.0
  0
CIRCLE
  5
AA4
330
2
100
AcDbEntity
  8
4
100
AcDbCircle
 10
360.6048394748495
 20
1057.135298526238
 30
0.0
 40
25.0
  0
CIRCLE
  5
AA5
330
2
100
AcDbEntity
  8
4
100
AcDbCircle
 10
360.6048394748495
 20
1057.135298526238
 30
0.0
 40
23.0
  0
LWPOLYLINE
  5
AA6
330
2
100
AcDbEntity
  8
4
100
AcDbPolyline
 90
        6
 70
     1
 43
0.0
 10
383.6048394748495
 20
1057.135298526238
 10
372.1048394748495
 20
1077.05388281328
 10
349.1048394748495
 20
1077.05388281328
 10
337.6048394748495
 20
1057.135298526238
 10
349.1048394748495
 20
1037.216714239196
 10
372.1048394748495
 20
1037.216714239196
  0
LINE
  5
AA7
330
2
100
AcDbEntity
  8
L-CENTER
 48
8.0
100
AcDbLine
 10
302.6048394748495
 20
1037.65324039919
 30
0.0
 11
302.6048394748495
 21
1076.617356653286
 31
0.0
  0
LINE
  5
AA8
330
2
100
AcDbEntity
  8
4
100
AcDbLine
 10
333.6048394748495
 20
1170.135298526238
 30
0.0
 11
383.6048394748495
 21
1170.135298526238
 31
0.0
  0
LINE
  5
AA9
330
2
100
AcDbEntity
  8
4
100
AcDbLine
 10
323.6048394748495
 20
1174.135298526238
 30
0.0
 11
323.6048394748495
 21
1145.135299857962
 31
0.0
  0
LINE
  5
AAA
330
2
100
AcDbEntity
  8
4
100
AcDbLine
 10
333.6048394748495
 20
1170.135298526238
 30
0.0
 11
333.6048394748495
 21
1148.468633020561
 31
0.0
  0
ARC
  5
AAB
330
2
100
AcDbEntity
  8
4
100
AcDbCircle
 10
304.9660554070165
 20
1149.251684597179
 30
0.0
 40
3.783613929059507
100
AcDbArc
 50
49.57010315516856
 51
130.4298968448315
  0
LINE
  5
AAC
330
2
100
AcDbEntity
  8
4
100
AcDbLine
 10
302.5123167629608
 20
1152.131771580386
 30
0.0
 11
302.5123167629608
 21
1146.035298526238
 31
0.0
  0
LINE
  5
AAD
330
2
100
AcDbEntity
  8
4
100
AcDbLine
 10
307.4197940510726
 20
1152.131771580386
 30
0.0
 11
307.4197940510726
 21
1143.535298526238
 31
0.0
  0
ARC
  5
AAE
330
2
100
AcDbEntity
  8
4
100
AcDbCircle
 10
378.1048394748486
 20
1139.256133228779
 30
0.0
 40
13.77916529745958
100
AcDbArc
 50
69.13593563608097
 51
110.864064363919
  0
LINE
  5
AAF
330
2
100
AcDbEntity
  8
4
100
AcDbLine
 10
373.1973621867369
 20
1152.131771580386
 30
0.0
 11
373.1973621867369
 21
1146.035298526238
 31
0.0
  0
ARC
  5
AB0
330
2
100
AcDbEntity
  8
4
100
AcDbCircle
 10
385.4660554070165
 20
1149.251684597179
 30
0.0
 40
3.783613929059507
100
AcDbArc
 50
49.57010315516856
 51
130.4298968448315
  0
LINE
  5
AB1
330
2
100
AcDbEntity
  8
4
100
AcDbLine
 10
383.0123167629608
 20
1152.131771580386
 30
0.0
 11
383.0123167629608
 21
1146.035298526238
 31
0.0
  0
LINE
  5
AB2
330
2
100
AcDbEntity
  8
4
100
AcDbLine
 10
387.9197940510726
 20
1152.131771580386
 30
0.0
 11
387.9197940510726
 21
1143.535298526238
 31
0.0
  0
LINE
  5
AB3
330
2
100
AcDbEntity
  8
4
100
AcDbLine
 10
383.6048394748495
 20
1170.135298526238
 30
0.0
 11
383.6048394748495
 21
1165.135298833559
 31
0.0
  0
LINE
  5
AB4
330
2
100
AcDbEntity
  8
4
100
AcDbLine
 10
368.2898848986251
 20
1143.535298526238
 30
0.0
 11
368.2898848986251
 21
1152.131771580386
 31
0.0
  0
LINE
  5
AB5
330
2
100
AcDbEntity
  8
4
100
AcDbLine
 10
370.7436235426812
 20
1153.035298526238
 30
0.0
 11
385.4660554070165
 21
1153.035298526238
 31
0.0
  0
LINE
  5
AB6
330
2
100
AcDbEntity
  8
4
100
AcDbLine
 10
387.9197940510726
 20
1143.535298526238
 30
0.0
 11
368.2898848986251
 21
1143.535298526238
 31
0.0
  0
LINE
  5
AB7
330
2
100
AcDbEntity
  8
4
100
AcDbLine
 10
387.9197940510726
 20
1146.035298526238
 30
0.0
 11
368.2898848986251
 21
1146.035298526238
 31
0.0
  0
ARC
  5
AB8
330
2
100
AcDbEntity
  8
4
100
AcDbCircle
 10
370.7436235426812
 20
1149.251684597179
 30
0.0
 40
3.783613929059507
100
AcDbArc
 50
49.57010315516856
 51
130.4298968448315
  0
LINE
  5
AB9
330
2
100
AcDbEntity
  8
L-CENTER
 48
8.0
100
AcDbLine
 10
378.1048394748486
 20
1120.622951805147
 30
0.0
 11
378.1048394748486
 21
1155.903276780818
 31
0.0
  0
ARC
  5
ABA
330
2
100
AcDbEntity
  8
4
100
AcDbCircle
 10
438.6048394748495
 20
1057.135298526238
 30
0.0
 40
5.0
100
AcDbArc
 50
90.0
 51
270.0
  0
LINE
  5
ABB
330
2
100
AcDbEntity
  8
4
100
AcDbLine
 10
438.6048394748495
 20
1052.135298526238
 30
0.0
 11
478.6048394748495
 21
1052.135298526238
 31
0.0
  0
ARC
  5
ABC
330
2
100
AcDbEntity
  8
4
100
AcDbCircle
 10
458.6048394748495
 20
1057.135298526238
 30
0.0
 40
11.0
100
AcDbArc
 50
207.0356917894123
 51
332.9643082105877
  0
ARC
  5
ABD
330
2
100
AcDbEntity
  8
4
100
AcDbCircle
 10
458.6048394748495
 20
1057.135298526238
 30
0.0
 40
12.5
100
AcDbArc
 50
203.5781784782018
 51
336.4218215217981
  0
LINE
  5
ABE
330
2
100
AcDbEntity
  8
4
100
AcDbLine
 10
438.6048394748495
 20
1062.135298526238
 30
0.0
 11
478.6048394748495
 21
1062.135298526238
 31
0.0
  0
ARC
  5
ABF
330
2
100
AcDbEntity
  8
4
100
AcDbCircle
 10
458.6048394748495
 20
1057.135298526238
 30
0.0
 40
20.0
100
AcDbArc
 50
14.47751218592992
 51
165.5224878140701
  0
ARC
  5
AC0
330
2
100
AcDbEntity
  8
4
100
AcDbCircle
 10
458.6048394748495
 20
1057.135298526238
 30
0.0
 40
12.5
100
AcDbArc
 50
23.57817847820185
 51
156.4218215217982
  0
ARC
  5
AC1
330
2
100
AcDbEntity
  8
4
100
AcDbCircle
 10
458.6048394748495
 20
1057.135298526238
 30
0.0
 40
11.0
100
AcDbArc
 50
27.03569178941235
 51
152.9643082105877
  0
ARC
  5
AC2
330
2
100
AcDbEntity
  8
4
100
AcDbCircle
 10
458.6048394748495
 20
1057.135298526238
 30
0.0
 40
20.0
100
AcDbArc
 50
194.4775121859299
 51
345.5224878140701
  0
LINE
  5
AC3
330
2
100
AcDbEntity
  8
4
100
AcDbLine
 10
415.6048394748495
 20
1168.835460247576
 30
0.0
 11
424.7715603886609
 21
1143.535442526238
 31
0.0
  0
LINE
  5
AC4
330
2
100
AcDbEntity
  8
4
100
AcDbLine
 10
415.6048394748495
 20
1171.135298526238
 30
0.0
 11
415.6048394748495
 21
1168.835460247576
 31
0.0
  0
LINE
  5
AC5
330
2
100
AcDbEntity
  8
4
100
AcDbLine
 10
415.6048394748495
 20
1168.835460247576
 30
0.0
 11
401.0298799058951
 21
1168.835460250422
 31
0.0
  0
LINE
  5
AC6
330
2
100
AcDbEntity
  8
4
100
AcDbLine
 10
415.6048394748495
 20
1171.135298526238
 30
0.0
 11
425.6048394748495
 21
1143.535442526238
 31
0.0
  0
LINE
  5
AC7
330
2
100
AcDbEntity
  8
4
100
AcDbLine
 10
478.6048394748495
 20
1157.135298526238
 30
0.0
 11
478.6048394748495
 21
1143.535298526238
 31
0.0
  0
LINE
  5
AC8
330
2
100
AcDbEntity
  8
4
100
AcDbLine
 10
438.6048394748495
 20
1157.135298526238
 30
0.0
 11
438.6048394748495
 21
1143.535298526238
 31
0.0
  0
LINE
  5
AC9
330
2
100
AcDbEntity
  8
4
100
AcDbLine
 10
438.6048394748495
 20
1157.135298526238
 30
0.0
 11
478.6048394748495
 21
1157.135298526238
 31
0.0
  0
LINE
  5
ACA
330
2
100
AcDbEntity
  8
4
100
AcDbLine
 10
429.6048394748495
 20
1198.135298526238
 30
0.0
 11
429.6048394748495
 21
1296.135298526238
 31
0.0
  0
LINE
  5
ACB
330
2
100
AcDbEntity
  8
4
100
AcDbLine
 10
451.1048394748491
 20
1297.135298526238
 30
0.0
 11
451.1048394748491
 21
1214.635298526238
 31
0.0
  0
LINE
  5
ACC
330
2
100
AcDbEntity
  8
4
100
AcDbLine
 10
466.1048394748491
 20
1297.135298526238
 30
0.0
 11
466.1048394748491
 21
1214.635298526238
 31
0.0
  0
LINE
  5
ACD
330
2
100
AcDbEntity
  8
4
100
AcDbLine
 10
428.6048394748491
 20
1197.135298526238
 30
0.0
 11
428.6048394748495
 21
1197.135298526238
 31
0.0
  0
ARC
  5
ACE
330
2
100
AcDbEntity
  8
4
100
AcDbCircle
 10
428.6048394748495
 20
1198.135298526238
 30
0.0
 40
1.0
100
AcDbArc
 50
270.0
 51
0.0
  0
LINE
  5
ACF
330
2
100
AcDbEntity
  8
4
100
AcDbLine
 10
428.6048394748491
 20
1188.135298526238
 30
0.0
 11
428.6048394748491
 21
1197.135298526238
 31
0.0
  0
LINE
  5
AD0
330
2
100
AcDbEntity
  8
4
100
AcDbLine
 10
416.1048394748495
 20
1188.135298526238
 30
0.0
 11
416.1048394748495
 21
1187.135298526238
 31
0.0
  0
ARC
  5
AD1
330
2
100
AcDbEntity
  8
4
100
AcDbCircle
 10
458.6048394748491
 20
1214.635298526238
 30
0.0
 40
7.5
100
AcDbArc
 50
180.0
 51
0.0
  0
LINE
  5
AD2
330
2
100
AcDbEntity
  8
4
100
AcDbLine
 10
429.6048394748495
 20
1296.135298526238
 30
0.0
 11
451.1048394748495
 21
1296.135298526238
 31
0.0
  0
LINE
  5
AD3
330
2
100
AcDbEntity
  8
4
100
AcDbLine
 10
429.6048394748495
 20
1296.135298526238
 30
0.0
 11
430.6048394748495
 21
1297.135298526238
 31
0.0
  0
ARC
  5
AD4
330
2
100
AcDbEntity
  8
4
100
AcDbCircle
 10
601.6048394748505
 20
1174.135298526238
 30
0.0
 40
8.0
100
AcDbArc
 50
90.0
 51
180.0
  0
LINE
  5
AD5
330
2
100
AcDbEntity
  8
L-CENTER
 48
8.0
100
AcDbLine
 10
633.6048394748495
 20
1178.762114577558
 30
0.0
 11
633.6048394748495
 21
1135.508482474918
 31
0.0
  0
LINE
  5
AD6
330
2
100
AcDbEntity
  8
4
100
AcDbLine
 10
511.6048394748491
 20
1187.135298526238
 30
0.0
 11
516.1797990494256
 21
1168.835460227934
 31
0.0
  0
LINE
  5
AD7
330
2
100
AcDbEntity
  8
4
100
AcDbLine
 10
592.0802841545114
 20
1143.535298526238
 30
0.0
 11
516.1797990494256
 21
1168.835460227934
 31
0.0
  0
LINE
  5
AD8
330
2
100
AcDbEntity
  8
4
100
AcDbLine
 10
598.4048394748484
 20
1143.535298526238
 30
0.0
 11
515.6048394748491
 21
1171.135298526238
 31
0.0
  0
LINE
  5
AD9
330
2
100
AcDbEntity
  8
4
100
AcDbLine
 10
501.6048394748491
 20
1171.135298526238
 30
0.0
 11
501.6048394748491
 21
1168.83546023078
 31
0.0
  0
LINE
  5
ADA
330
2
100
AcDbEntity
  8
4
100
AcDbLine
 10
516.1797990494256
 20
1168.835460227934
 30
0.0
 11
501.6048394748491
 21
1168.83546023078
 31
0.0
  0
LINE
  5
ADB
330
2
100
AcDbEntity
  8
4
100
AcDbLine
 10
501.60483947485
 20
1168.835460247576
 30
0.0
 11
492.4381185610387
 21
1143.535442526238
 31
0.0
  0
LINE
  5
ADC
330
2
100
AcDbEntity
  8
4
100
AcDbLine
 10
501.60483947485
 20
1171.135298526238
 30
0.0
 11
491.6048394748495
 21
1143.535442526238
 31
0.0
  0
ARC
  5
ADD
330
2
100
AcDbEntity
  8
4
100
AcDbCircle
 10
546.4660554070178
 20
1149.251684597179
 30
0.0
 40
3.783613929059507
100
AcDbArc
 50
49.57010315517471
 51
130.4298968448253
  0
ARC
  5
ADE
330
2
100
AcDbEntity
  8
4
100
AcDbCircle
 10
539.1048394748505
 20
1139.256133228779
 30
0.0
 40
13.77916529745958
100
AcDbArc
 50
69.13593563608075
 51
110.8640643639193
  0
LINE
  5
ADF
330
2
100
AcDbEntity
  8
4
100
AcDbLine
 10
534.1973621867382
 20
1152.131771580386
 30
0.0
 11
534.1973621867382
 21
1146.035298526238
 31
0.0
  0
LINE
  5
AE0
330
2
100
AcDbEntity
  8
4
100
AcDbLine
 10
544.0123167629622
 20
1152.131771580386
 30
0.0
 11
544.0123167629622
 21
1146.035298526238
 31
0.0
  0
LINE
  5
AE1
330
2
100
AcDbEntity
  8
4
100
AcDbLine
 10
548.919794051074
 20
1143.535298526238
 30
0.0
 11
548.919794051074
 21
1152.131771580386
 31
0.0
  0
LINE
  5
AE2
330
2
100
AcDbEntity
  8
4
100
AcDbLine
 10
546.4660554070178
 20
1153.035298526238
 30
0.0
 11
531.7436235426826
 21
1153.035298526238
 31
0.0
  0
LINE
  5
AE3
330
2
100
AcDbEntity
  8
L-CENTER
 48
8.0
100
AcDbLine
 10
539.1048394748505
 20
1120.622951805147
 30
0.0
 11
539.1048394748505
 21
1155.903276780818
 31
0.0
  0
LINE
  5
AE4
330
2
100
AcDbEntity
  8
4
100
AcDbLine
 10
529.2898848986265
 20
1152.131771580386
 30
0.0
 11
529.2898848986265
 21
1143.535298526238
 31
0.0
  0
ARC
  5
AE5
330
2
100
AcDbEntity
  8
4
100
AcDbCircle
 10
531.7436235426826
 20
1149.251684597179
 30
0.0
 40
3.783613929059507
100
AcDbArc
 50
49.57010315516856
 51
130.4298968448315
  0
LINE
  5
AE6
330
2
100
AcDbEntity
  8
4
100
AcDbLine
 10
529.2898848986265
 20
1146.035298526238
 30
0.0
 11
548.919794051074
 21
1146.035298526238
 31
0.0
  0
LINE
  5
AE7
330
2
100
AcDbEntity
  8
4
100
AcDbLine
 10
529.2898848986265
 20
1143.535298526238
 30
0.0
 11
548.919794051074
 21
1143.535298526238
 31
0.0
  0
LINE
  5
AE8
330
2
100
AcDbEntity
  8
4
100
AcDbLine
 10
652.9048394748497
 20
1106.915574526238
 30
0.0
 11
652.9048394748497
 21
1092.208054526238
 31
0.0
  0
ARC
  5
AE9
330
2
100
AcDbEntity
  8
4
100
AcDbCircle
 10
639.0012754748495
 20
1099.561814526238
 30
0.0
 40
13.90362
100
AcDbArc
 50
339.3323220000009
 51
20.6686150000007
  0
LINE
  5
AEA
330
2
100
AcDbEntity
  8
4
100
AcDbLine
 10
643.4048394748497
 20
1108.761762526238
 30
0.0
 11
643.4048394748497
 21
1090.361862526238
 31
0.0
  0
LINE
  5
AEB
330
2
100
AcDbEntity
  8
4
100
AcDbLine
 10
645.9048394748497
 20
1109.361862526238
 30
0.0
 11
645.9048394748497
 21
1089.761762526238
 31
0.0
  0
CIRCLE
  5
AEC
330
2
100
AcDbEntity
  8
4
100
AcDbCircle
 10
614.6048394748495
 20
1057.135298526238
 30
0.0
 40
11.0
  0
LINE
  5
AED
330
2
100
AcDbEntity
  8
4
100
AcDbLine
 10
645.9048394748497
 20
1094.654342526238
 30
0.0
 11
652.0098234748498
 21
1094.654342526238
 31
0.0
  0
LINE
  5
AEE
330
2
100
AcDbEntity
  8
4
100
AcDbLine
 10
652.0098234748498
 20
1089.761762526238
 30
0.0
 11
645.9048394748497
 21
1089.761762526238
 31
0.0
  0
LINE
  5
AEF
330
2
100
AcDbEntity
  8
4
100
AcDbLine
 10
643.4048394748497
 20
1090.361862526238
 30
0.0
 11
645.9048394748497
 21
1090.361862526238
 31
0.0
  0
ARC
  5
AF0
330
2
100
AcDbEntity
  8
4
100
AcDbCircle
 10
649.1138274748496
 20
1092.208054526238
 30
0.0
 40
3.79102
100
AcDbArc
 50
319.8141239999973
 51
40.18825599999911
  0
LINE
  5
AF1
330
2
100
AcDbEntity
  8
L-CENTER
 48
8.0
100
AcDbLine
 10
614.6048394748495
 20
1037.65324039919
 30
0.0
 11
614.6048394748495
 21
1076.617356653286
 31
0.0
  0
ARC
  5
AF2
330
2
100
AcDbEntity
  8
4
100
AcDbCircle
 10
612.2436235426826
 20
1149.251684597179
 30
0.0
 40
3.783613929059507
100
AcDbArc
 50
49.57010315516856
 51
130.4298968448315
  0
LINE
  5
AF3
330
2
100
AcDbEntity
  8
4
100
AcDbLine
 10
609.7898848986265
 20
1146.035298526238
 30
0.0
 11
629.419794051074
 21
1146.035298526238
 31
0.0
  0
LINE
  5
AF4
330
2
100
AcDbEntity
  8
4
100
AcDbLine
 10
609.7898848986265
 20
1143.535298526238
 30
0.0
 11
629.419794051074
 21
1143.535298526238
 31
0.0
  0
LINE
  5
AF5
330
2
100
AcDbEntity
  8
4
100
AcDbLine
 10
626.9660554070178
 20
1153.035298526238
 30
0.0
 11
612.2436235426826
 21
1153.035298526238
 31
0.0
  0
LINE
  5
AF6
330
2
100
AcDbEntity
  8
L-CENTER
 48
8.0
100
AcDbLine
 10
611.9780234235295
 20
1157.135298526238
 30
0.0
 11
655.2316555261696
 21
1157.135298526238
 31
0.0
  0
LINE
  5
AF7
330
2
100
AcDbEntity
  8
4
100
AcDbLine
 10
609.7898848986265
 20
1152.131771580386
 30
0.0
 11
609.7898848986265
 21
1143.535298526238
 31
0.0
  0
LINE
  5
AF8
330
2
100
AcDbEntity
  8
4
100
AcDbLine
 10
593.6048394748505
 20
1174.135298526238
 30
0.0
 11
593.6048394748505
 21
1145.135298526237
 31
0.0
  0
LINE
  5
AF9
330
2
100
AcDbEntity
  8
4
100
AcDbLine
 10
652.0098234748498
 20
1109.361862526238
 30
0.0
 11
645.9048394748497
 21
1109.361862526238
 31
0.0
  0
LINE
  5
AFA
330
2
100
AcDbEntity
  8
4
100
AcDbLine
 10
645.9048394748497
 20
1108.761762526238
 30
0.0
 11
643.4048394748497
 21
1108.761762526238
 31
0.0
  0
ARC
  5
AFB
330
2
100
AcDbEntity
  8
4
100
AcDbCircle
 10
626.9660554070178
 20
1149.251684597179
 30
0.0
 40
3.783613929059507
100
AcDbArc
 50
49.57010315517471
 51
130.4298968448253
  0
LINE
  5
AFC
330
2
100
AcDbEntity
  8
4
100
AcDbLine
 10
624.5123167629622
 20
1152.131771580386
 30
0.0
 11
624.5123167629622
 21
1146.035298526238
 31
0.0
  0
LINE
  5
AFD
330
2
100
AcDbEntity
  8
4
100
AcDbLine
 10
629.419794051074
 20
1143.535298526238
 30
0.0
 11
629.419794051074
 21
1152.131771580386
 31
0.0
  0
LINE
  5
AFE
330
2
100
AcDbEntity
  8
4
100
AcDbLine
 10
614.6973621867382
 20
1152.131771580386
 30
0.0
 11
614.6973621867382
 21
1146.035298526238
 31
0.0
  0
ARC
  5
AFF
330
2
100
AcDbEntity
  8
4
100
AcDbCircle
 10
619.6048394748505
 20
1139.256133228779
 30
0.0
 40
13.77916529745958
100
AcDbArc
 50
69.13593563608075
 51
110.8640643639193
  0
LINE
  5
B00
330
2
100
AcDbEntity
  8
4
100
AcDbLine
 10
630.6048394748495
 20
1129.135298526238
 30
0.0
 11
630.6048394748495
 21
1142.535298526238
 31
0.0
  0
LINE
  5
B01
330
2
100
AcDbEntity
  8
4
100
AcDbLine
 10
632.6048394748495
 20
1127.135298526238
 30
0.0
 11
632.6048394748495
 21
1129.135298526238
 31
0.0
  0
LINE
  5
B02
330
2
100
AcDbEntity
  8
L-CENTER
 48
8.0
100
AcDbLine
 10
619.6048394748505
 20
1120.622951805147
 30
0.0
 11
619.6048394748505
 21
1155.903276780818
 31
0.0
  0
ARC
  5
B03
330
2
100
AcDbEntity
  8
4
100
AcDbCircle
 10
629.6048394748491
 20
1142.535298526238
 30
0.0
 40
1.0
100
AcDbArc
 50
0.0
 51
90.0
  0
ARC
  5
B04
330
2
100
AcDbEntity
  8
4
100
AcDbCircle
 10
629.6048394748491
 20
1142.535298526238
 30
0.0
 40
1.0
100
AcDbArc
 50
0.0
 51
90.0
  0
ARC
  5
B05
330
2
100
AcDbEntity
  8
4
100
AcDbCircle
 10
633.6048394748495
 20
1157.135298526238
 30
0.0
 40
10.0
100
AcDbArc
 50
245.2597910524679
 51
204.2048348014577
  0
LINE
  5
B06
330
2
100
AcDbEntity
  8
4
100
AcDbLine
 10
643.4048394748497
 20
1127.135298526238
 30
0.0
 11
626.6048394748495
 21
1127.135298526238
 31
0.0
  0
LINE
  5
B07
330
2
100
AcDbEntity
  8
4
100
AcDbLine
 10
645.9048394748497
 20
1104.469282526238
 30
0.0
 11
652.0098234748498
 21
1104.469282526238
 31
0.0
  0
ARC
  5
B08
330
2
100
AcDbEntity
  8
4
100
AcDbCircle
 10
649.1138274748496
 20
1106.915574526238
 30
0.0
 40
3.79102
100
AcDbArc
 50
319.814112
 51
40.18825599999911
  0
LINE
  5
B09
330
2
100
AcDbEntity
  8
4
100
AcDbLine
 10
487.6048394748491
 20
1198.135298526238
 30
0.0
 11
487.6048394748491
 21
1296.135298526238
 31
0.0
  0
LINE
  5
B0A
330
2
100
AcDbEntity
  8
4
100
AcDbLine
 10
501.1048394748495
 20
1188.135298526238
 30
0.0
 11
501.1048394748495
 21
1187.135298526238
 31
0.0
  0
ARC
  5
B0B
330
2
100
AcDbEntity
  8
4
100
AcDbCircle
 10
488.6048394748491
 20
1198.135298526238
 30
0.0
 40
1.0
100
AcDbArc
 50
180.0
 51
270.0
  0
LINE
  5
B0C
330
2
100
AcDbEntity
  8
4
100
AcDbLine
 10
488.6048394748491
 20
1197.135298526238
 30
0.0
 11
488.6048394748491
 21
1197.135298526238
 31
0.0
  0
LINE
  5
B0D
330
2
100
AcDbEntity
  8
4
100
AcDbLine
 10
488.6048394748491
 20
1188.135298526238
 30
0.0
 11
488.6048394748491
 21
1197.135298526238
 31
0.0
  0
LINE
  5
B0E
330
2
100
AcDbEntity
  8
4
100
AcDbLine
 10
487.6048394748491
 20
1296.135298526238
 30
0.0
 11
486.6048394748491
 21
1297.135298526238
 31
0.0
  0
LINE
  5
B0F
330
2
100
AcDbEntity
  8
4
100
AcDbLine
 10
601.6048394748505
 20
1182.135298526238
 30
0.0
 11
650.6048394748495
 21
1182.135298526238
 31
0.0
  0
LINE
  5
B10
330
2
100
AcDbEntity
  8
4
100
AcDbLine
 10
658.6048394748495
 20
940.1352985262374
 30
0.0
 11
658.6048394748495
 21
1174.135298526238
 31
0.0
  0
CIRCLE
  5
B1D
330
2
100
AcDbEntity
  8
L-CENTER
 48
8.0
100
AcDbCircle
 10
1238.354940007335
 20
447.5420065451613
 30
0.0
 40
60.00000000000007
  0
LINE
  5
B20
330
2
100
AcDbEntity
  8
4
100
AcDbLine
 10
663.8351357047759
 20
465.5420065451613
 30
0.0
 11
742.835135704776
 21
465.5420065451611
 31
0.0
  0
LINE
  5
B21
330
2
100
AcDbEntity
  8
4
100
AcDbLine
 10
743.835135704776
 20
469.0420065451611
 30
0.0
 11
668.8351357047759
 21
469.0420065451611
 31
0.0
  0
LINE
  5
B22
330
2
100
AcDbEntity
  8
4
100
AcDbLine
 10
663.8351357047759
 20
429.5420065451613
 30
0.0
 11
742.8351357047759
 21
429.5420065451611
 31
0.0
  0
LINE
  5
B23
330
2
100
AcDbEntity
  8
4
100
AcDbLine
 10
743.835135704776
 20
464.5420065451611
 30
0.0
 11
742.835135704776
 21
465.5420065451611
 31
0.0
  0
LINE
  5
B24
330
2
100
AcDbEntity
  8
4
100
AcDbLine
 10
742.8351357047759
 20
429.5420065451611
 30
0.0
 11
743.8351357047759
 21
430.5420065451611
 31
0.0
  0
LINE
  5
B25
330
2
100
AcDbEntity
  8
4
100
AcDbLine
 10
742.835135704776
 20
465.5420065451611
 30
0.0
 11
742.8351357047759
 21
429.5420065451611
 31
0.0
  0
LINE
  5
B26
330
2
100
AcDbEntity
  8
4
100
AcDbLine
 10
743.835135704776
 20
469.0420065451611
 30
0.0
 11
743.8351357047759
 21
430.5420065451611
 31
0.0
  0
LINE
  5
B27
330
2
100
AcDbEntity
  8
4
100
AcDbLine
 10
649.635035704776
 20
478.5420065451613
 30
0.0
 11
649.6350357047759
 21
416.5420065451613
 31
0.0
  0
LINE
  5
B28
330
2
100
AcDbEntity
  8
4
100
AcDbLine
 10
648.6350357047759
 20
416.5420065451613
 30
0.0
 11
649.6350357047759
 21
416.5420065451613
 31
0.0
  0
LINE
  5
B29
330
2
100
AcDbEntity
  8
4
100
AcDbLine
 10
668.8351357047759
 20
469.0420065451611
 30
0.0
 11
668.8351357047759
 21
465.5420065451611
 31
0.0
  0
LINE
  5
B2A
330
2
100
AcDbEntity
  8
4
100
AcDbLine
 10
648.635035704776
 20
478.5420065451613
 30
0.0
 11
649.635035704776
 21
478.5420065451613
 31
0.0
  0
LINE
  5
B2B
330
2
100
AcDbEntity
  8
4
100
AcDbLine
 10
663.8351357047759
 20
467.5420065451613
 30
0.0
 11
649.6350357047759
 21
467.5420065451613
 31
0.0
  0
LINE
  5
B2C
330
2
100
AcDbEntity
  8
4
100
AcDbLine
 10
649.6350357047759
 20
427.5420065451613
 30
0.0
 11
663.8351357047759
 21
427.5420065451613
 31
0.0
  0
LINE
  5
B2D
330
2
100
AcDbEntity
  8
4
100
AcDbLine
 10
663.8351357047759
 20
467.5420065451613
 30
0.0
 11
663.8351357047759
 21
427.5420065451613
 31
0.0
  0
LINE
  5
B34
330
2
100
AcDbEntity
  8
4
100
AcDbLine
 10
1243.354940007335
 20
469.0420065451613
 30
0.0
 11
1233.354940007335
 21
469.0420065451613
 31
0.0
  0
LINE
  5
B35
330
2
100
AcDbEntity
  8
4
100
AcDbLine
 10
1233.354940007335
 20
461.0420065451613
 30
0.0
 11
1243.354940007335
 21
461.0420065451613
 31
0.0
  0
ARC
  5
B36
330
2
100
AcDbEntity
  8
4
100
AcDbCircle
 10
1238.354940007335
 20
447.5420065451613
 30
0.0
 40
17.999996
100
AcDbArc
 50
106.1276238948288
 51
73.87237499999982
  0
LINE
  5
B37
330
2
100
AcDbEntity
  8
4
100
AcDbLine
 10
1233.354940007335
 20
461.0420065451613
 30
0.0
 11
1233.354940007335
 21
469.0420065451613
 31
0.0
  0
LINE
  5
B38
330
2
100
AcDbEntity
  8
4
100
AcDbLine
 10
1243.354940007335
 20
461.0420065451613
 30
0.0
 11
1243.354940007335
 21
469.0420065451613
 31
0.0
  0
CIRCLE
  5
B3A
330
2
100
AcDbEntity
  8
4
100
AcDbCircle
 10
1238.354940007335
 20
447.5420065451613
 30
0.0
 40
31.0
  0
LINE
  5
B40
330
2
100
AcDbEntity
  8
4
100
AcDbLine
 10
1477.354940007335
 20
301.5420065451613
 30
0.0
 11
1478.354940007335
 21
300.5420065451613
 31
0.0
  0
LINE
  5
B48
330
2
100
AcDbEntity
  8
4
100
AcDbLine
 10
644.4048394748497
 20
1088.135298526238
 30
0.0
 11
644.4048394748497
 21
1026.135298526238
 31
0.0
  0
LINE
  5
B49
330
2
100
AcDbEntity
  8
4
100
AcDbLine
 10
643.4048394748497
 20
1026.135298526238
 30
0.0
 11
644.4048394748497
 21
1026.135298526238
 31
0.0
  0
LINE
  5
B4A
330
2
100
AcDbEntity
  8
4
100
AcDbLine
 10
668.6048394748491
 20
1052.135298526238
 30
0.0
 11
738.6048394748495
 21
1052.135298526238
 31
0.0
  0
LINE
  5
B4B
330
2
100
AcDbEntity
  8
4
100
AcDbLine
 10
660.6048394748491
 20
1075.135298526238
 30
0.0
 11
737.6048394748495
 21
1075.135298526238
 31
0.0
  0
LINE
  5
B4C
330
2
100
AcDbEntity
  8
4
100
AcDbLine
 10
668.6048394748491
 20
1062.135298526238
 30
0.0
 11
738.6048394748495
 21
1062.135298526238
 31
0.0
  0
LINE
  5
B4D
330
2
100
AcDbEntity
  8
4
100
AcDbLine
 10
660.6048394748491
 20
1039.135298526238
 30
0.0
 11
737.6048394748495
 21
1039.135298526238
 31
0.0
  0
LINE
  5
B4E
330
2
100
AcDbEntity
  8
4
100
AcDbLine
 10
737.6048394748495
 20
1075.135298526238
 30
0.0
 11
738.6048394748495
 21
1074.135298526238
 31
0.0
  0
LINE
  5
B4F
330
2
100
AcDbEntity
  8
4
100
AcDbLine
 10
738.6048394748495
 20
1040.135298526238
 30
0.0
 11
737.6048394748495
 21
1039.135298526238
 31
0.0
  0
LINE
  5
B50
330
2
100
AcDbEntity
  8
4
100
AcDbLine
 10
737.6048394748491
 20
1052.135298526238
 30
0.0
 11
737.6048394748491
 21
1039.135298526237
 31
0.0
  0
LINE
  5
B51
330
2
100
AcDbEntity
  8
4
100
AcDbLine
 10
738.6048394748495
 20
1074.135298526238
 30
0.0
 11
738.6048394748495
 21
1040.135298526238
 31
0.0
  0
LINE
  5
B52
330
2
100
AcDbEntity
  8
4
100
AcDbLine
 10
737.6048394748491
 20
1075.135298526238
 30
0.0
 11
737.6048394748491
 21
1062.135298526238
 31
0.0
  0
ARC
  5
B53
330
2
100
AcDbEntity
  8
4
100
AcDbCircle
 10
668.6048394748491
 20
1057.135298526238
 30
0.0
 40
5.0
100
AcDbArc
 50
90.0
 51
270.0
  0
LINE
  5
B54
330
2
100
AcDbEntity
  8
4
100
AcDbLine
 10
643.4048394748497
 20
1088.135298526238
 30
0.0
 11
644.4048394748497
 21
1088.135298526238
 31
0.0
  0
ARC
  5
B55
330
2
100
AcDbEntity
  8
4
100
AcDbCircle
 10
660.6048394748491
 20
1077.135298526238
 30
0.0
 40
2.0
100
AcDbArc
 50
180.0
 51
270.0
  0
LINE
  5
B56
330
2
100
AcDbEntity
  8
4
100
AcDbLine
 10
644.4048394748497
 20
1077.135298526238
 30
0.0
 11
658.6048394748491
 21
1077.135298526238
 31
0.0
  0
LINE
  5
B57
330
2
100
AcDbEntity
  8
4
100
AcDbLine
 10
644.4048394748497
 20
1037.135298526238
 30
0.0
 11
658.6048394748491
 21
1037.135298526238
 31
0.0
  0
LINE
  5
B58
330
2
100
AcDbEntity
  8
4
100
AcDbLine
 10
658.6048394748491
 20
1077.135298526238
 30
0.0
 11
658.6048394748491
 21
1037.135298526238
 31
0.0
  0
ARC
  5
B59
330
2
100
AcDbEntity
  8
4
100
AcDbCircle
 10
660.6048394748491
 20
1037.135298526238
 30
0.0
 40
2.0
100
AcDbArc
 50
90.0
 51
180.0
  0
LINE
  5
B6E
330
2
100
AcDbEntity
  8
4
100
AcDbLine
 10
1098.354940007335
 20
301.5420065451613
 30
0.0
 11
999.3549400073352
 21
301.5420065451613
 31
0.0
  0
LINE
  5
B6F
330
2
100
AcDbEntity
  8
4
100
AcDbLine
 10
998.3549400073352
 20
306.5420065451613
 30
0.0
 11
1088.354940007335
 21
306.5420065451613
 31
0.0
  0
LINE
  5
B70
330
2
100
AcDbEntity
  8
4
100
AcDbLine
 10
1098.354940007335
 20
243.5420065451613
 30
0.0
 11
999.3549400073352
 21
243.5420065451613
 31
0.0
  0
LINE
  5
B71
330
2
100
AcDbEntity
  8
4
100
AcDbLine
 10
1098.354940007335
 20
302.5420065451613
 30
0.0
 11
1098.354940007335
 21
242.5420065451613
 31
0.0
  0
LINE
  5
B72
330
2
100
AcDbEntity
  8
4
100
AcDbLine
 10
1107.354940007335
 20
315.0420065451613
 30
0.0
 11
1107.354940007335
 21
230.0420065451613
 31
0.0
  0
LINE
  5
B73
330
2
100
AcDbEntity
  8
4
100
AcDbLine
 10
1107.354940007335
 20
230.0420065451613
 30
0.0
 11
1108.354940007335
 21
230.0420065451613
 31
0.0
  0
LINE
  5
B74
330
2
100
AcDbEntity
  8
4
100
AcDbLine
 10
1107.354940007335
 20
242.5420065451613
 30
0.0
 11
1098.354940007335
 21
242.5420065451613
 31
0.0
  0
LINE
  5
B75
330
2
100
AcDbEntity
  8
4
100
AcDbLine
 10
1088.354940007335
 20
306.5420065451613
 30
0.0
 11
1088.354940007335
 21
301.5420065451613
 31
0.0
  0
LINE
  5
B76
330
2
100
AcDbEntity
  8
4
100
AcDbLine
 10
1107.354940007335
 20
315.0420065451613
 30
0.0
 11
1108.354940007335
 21
315.0420065451613
 31
0.0
  0
LINE
  5
B77
330
2
100
AcDbEntity
  8
4
100
AcDbLine
 10
1098.354940007335
 20
302.5420065451613
 30
0.0
 11
1107.354940007335
 21
302.5420065451613
 31
0.0
  0
LINE
  5
B78
330
2
100
AcDbEntity
  8
4
100
AcDbLine
 10
999.3549400073352
 20
301.5420065451613
 30
0.0
 11
999.3549400073352
 21
243.5420065451613
 31
0.0
  0
LINE
  5
B79
330
2
100
AcDbEntity
  8
4
100
AcDbLine
 10
998.3549400073352
 20
306.5420065451613
 30
0.0
 11
998.3549400073352
 21
244.5420065451613
 31
0.0
  0
LINE
  5
B7A
330
2
100
AcDbEntity
  8
4
100
AcDbLine
 10
999.3549400073352
 20
243.5420065451613
 30
0.0
 11
998.3549400073352
 21
244.5420065451613
 31
0.0
  0
LINE
  5
B7B
330
2
100
AcDbEntity
  8
4
100
AcDbLine
 10
998.3549400073352
 20
300.5420065451613
 30
0.0
 11
999.3549400073352
 21
301.5420065451613
 31
0.0
  0
LINE
  5
B7C
330
2
100
AcDbEntity
  8
4
100
AcDbLine
 10
999.3549400073352
 20
301.5420065451613
 30
0.0
 11
998.3549400073352
 21
300.5420065451613
 31
0.0
  0
LINE
  5
B95
330
2
100
AcDbEntity
  8
4
100
AcDbLine
 10
466.1048394748491
 20
818.1352985262379
 30
0.0
 11
487.6048394748491
 21
818.1352985262379
 31
0.0
  0
LINE
  5
B96
330
2
100
AcDbEntity
  8
4
100
AcDbLine
 10
430.6048394748495
 20
817.1352985262379
 30
0.0
 11
486.6048394748491
 21
817.1352985262379
 31
0.0
  0
LINE
  5
B97
330
2
100
AcDbEntity
  8
4
100
AcDbLine
 10
488.6048394748491
 20
917.1352985262379
 30
0.0
 11
428.6048394748491
 21
917.1352985262379
 31
0.0
  0
LINE
  5
B98
330
2
100
AcDbEntity
  8
4
100
AcDbLine
 10
416.1048394748495
 20
926.1352985262379
 30
0.0
 11
501.1048394748495
 21
926.1352985262379
 31
0.0
  0
LINE
  5
B99
330
2
100
AcDbEntity
  8
4
100
AcDbLine
 10
429.6048394748495
 20
916.1352985262379
 30
0.0
 11
429.6048394748495
 21
818.1352985262379
 31
0.0
  0
LINE
  5
B9A
330
2
100
AcDbEntity
  8
4
100
AcDbLine
 10
451.1048394748491
 20
817.1352985262379
 30
0.0
 11
451.1048394748491
 21
899.6352985262379
 31
0.0
  0
LINE
  5
B9B
330
2
100
AcDbEntity
  8
4
100
AcDbLine
 10
466.1048394748491
 20
817.1352985262379
 30
0.0
 11
466.1048394748491
 21
899.6352985262379
 31
0.0
  0
LINE
  5
B9C
330
2
100
AcDbEntity
  8
4
100
AcDbLine
 10
428.6048394748491
 20
917.1352985262379
 30
0.0
 11
428.6048394748495
 21
917.1352985262379
 31
0.0
  0
ARC
  5
B9D
330
2
100
AcDbEntity
  8
4
100
AcDbCircle
 10
428.6048394748495
 20
916.1352985262374
 30
0.0
 40
1.0
100
AcDbArc
 50
0.0
 51
90.0
  0
LINE
  5
B9E
330
2
100
AcDbEntity
  8
4
100
AcDbLine
 10
428.6048394748491
 20
926.1352985262379
 30
0.0
 11
428.6048394748491
 21
917.1352985262379
 31
0.0
  0
LINE
  5
B9F
330
2
100
AcDbEntity
  8
4
100
AcDbLine
 10
416.1048394748495
 20
926.1352985262379
 30
0.0
 11
416.1048394748495
 21
927.1352985262379
 31
0.0
  0
ARC
  5
BA0
330
2
100
AcDbEntity
  8
4
100
AcDbCircle
 10
458.6048394748491
 20
899.6352985262374
 30
0.0
 40
7.5
100
AcDbArc
 50
0.0
 51
180.0
  0
LINE
  5
BA1
330
2
100
AcDbEntity
  8
4
100
AcDbLine
 10
429.6048394748495
 20
818.1352985262379
 30
0.0
 11
451.1048394748495
 21
818.1352985262379
 31
0.0
  0
LINE
  5
BA2
330
2
100
AcDbEntity
  8
4
100
AcDbLine
 10
429.6048394748495
 20
818.1352985262379
 30
0.0
 11
430.6048394748495
 21
817.1352985262379
 31
0.0
  0
LINE
  5
BA3
330
2
100
AcDbEntity
  8
4
100
AcDbLine
 10
487.6048394748491
 20
916.1352985262379
 30
0.0
 11
487.6048394748491
 21
818.1352985262379
 31
0.0
  0
LINE
  5
BA4
330
2
100
AcDbEntity
  8
4
100
AcDbLine
 10
501.1048394748495
 20
926.1352985262379
 30
0.0
 11
501.1048394748495
 21
927.1352985262379
 31
0.0
  0
ARC
  5
BA5
330
2
100
AcDbEntity
  8
4
100
AcDbCircle
 10
488.6048394748491
 20
916.1352985262374
 30
0.0
 40
1.0
100
AcDbArc
 50
90.0
 51
180.0
  0
LINE
  5
BA6
330
2
100
AcDbEntity
  8
4
100
AcDbLine
 10
488.6048394748491
 20
917.1352985262379
 30
0.0
 11
488.6048394748491
 21
917.1352985262379
 31
0.0
  0
LINE
  5
BA7
330
2
100
AcDbEntity
  8
4
100
AcDbLine
 10
488.6048394748491
 20
926.1352985262379
 30
0.0
 11
488.6048394748491
 21
917.1352985262379
 31
0.0
  0
LINE
  5
BA8
330
2
100
AcDbEntity
  8
4
100
AcDbLine
 10
487.6048394748491
 20
818.1352985262379
 30
0.0
 11
486.6048394748491
 21
817.1352985262379
 31
0.0
  0
LINE
  5
BAA
330
2
100
AcDbEntity
  8
4
100
AcDbLine
 10
456.3351357047759
 20
306.5420065451613
 30
0.0
 11
471.3351357047759
 21
306.5420065451613
 31
0.0
  0
LINE
  5
BAB
330
2
100
AcDbEntity
  8
4
100
AcDbLine
 10
456.3351357047759
 20
296.5420065451613
 30
0.0
 11
471.3351357047759
 21
296.5420065451613
 31
0.0
  0
ARC
  5
BAC
330
2
100
AcDbEntity
  8
4
100
AcDbCircle
 10
463.8351357047759
 20
272.5420065451613
 30
0.0
 40
29.000004
100
AcDbArc
 50
104.9882323664781
 51
75.01176900000006
  0
LINE
  5
BAD
330
2
100
AcDbEntity
  8
4
100
AcDbLine
 10
456.3351357047759
 20
306.5420065451613
 30
0.0
 11
456.3351357047759
 21
296.5420065451613
 31
0.0
  0
LINE
  5
BAE
330
2
100
AcDbEntity
  8
4
100
AcDbLine
 10
471.3351357047759
 20
296.5420065451613
 30
0.0
 11
471.3351357047759
 21
306.5420065451613
 31
0.0
  0
CIRCLE
  5
BB0
330
2
100
AcDbEntity
  8
4
100
AcDbCircle
 10
463.8351357047758
 20
272.5420065451613
 30
0.0
 40
42.5
  0
ENDSEC
  0
SECTION
  2
OBJECTS
  0
DICTIONARY
  5
9
330
0
100
AcDbDictionary
281
     1
  3
ACAD_CIP_PREVIOUS_PRODUCT_INFO
350
9EA
  3
ACAD_COLOR
350
9CC
  3
ACAD_DETAILVIEWSTYLE
350
9E5
  3
ACAD_GROUP
350
23
  3
ACAD_LAYOUT
350
D
  3
ACAD_MATERIAL
350
99A
  3
ACAD_MLEADERSTYLE
350
9E1
  3
ACAD_MLINESTYLE
350
24
  3
ACAD_PLOTSETTINGS
350
25
  3
ACAD_PLOTSTYLENAME
350
8
  3
ACAD_SCALELIST
350
9CF
  3
ACAD_SECTIONVIEWSTYLE
350
9E3
  3
ACAD_TABLESTYLE
350
9CD
  3
ACAD_VISUALSTYLE
350
9B3
  3
ACDBHEADERROUNDTRIPXREC
350
BBF
  3
AcDbVariableDictionary
350
95F
  3
DWGPROPS
350
BC2
  0
DICTIONARY
  5
BC3
330
1D
100
AcDbDictionary
280
     1
281
     1
  3
ACAD_XREC_ROUNDTRIP
360
BC4
  0
DICTIONARY
  5
9FA
330
14
100
AcDbDictionary
280
     1
281
     1
  3
ACAD_LAYERSTATES
360
9FB
  0
DICTIONARY
  5
9EB
330
6
100
AcDbDictionary
280
     1
281
     1
  3
ADSK_XREC_LAYER_RECONCILED
360
9EC
  0
DICTIONARY
  5
9ED
330
2C
100
AcDbDictionary
280
     1
281
     1
  3
ADSK_XREC_LAYER_RECONCILED
360
9EE
  0
DICTIONARY
  5
9EF
330
26
100
AcDbDictionary
280
     1
281
     1
  3
ADSK_XREC_LAYER_RECONCILED
360
9F0
  0
DICTIONARY
  5
9F1
330
3E
100
AcDbDictionary
280
     1
281
     1
  3
ADSK_XREC_LAYER_RECONCILED
360
9F2
  0
DICTIONARY
  5
9F3
330
2E
100
AcDbDictionary
280
     1
281
     1
  3
ADSK_XREC_LAYER_RECONCILED
360
9F4
  0
DICTIONARY
  5
9F5
330
45
100
AcDbDictionary
280
     1
281
     1
  3
ADSK_XREC_LAYER_RECONCILED
360
9F6
  0
DICTIONARY
  5
32C
330
32B
100
AcDbDictionary
280
     1
281
     1
  3
ADSK_XREC_LAYER_RECONCILED
360
32E
  0
DICTIONARY
  5
B18
330
2
100
AcDbDictionary
280
     1
281
     1
  3
ACAD_SORTENTS
360
B19
  0
XRECORD
  5
9EA
102
{ACAD_REACTORS
330
9
102
}
330
9
100
AcDbXrecord
280
     1
300
ACD
300
2014
300
ACD_F_S
  0
DICTIONARY
  5
9CC
102
{ACAD_REACTORS
330
9
102
}
330
9
100
AcDbDictionary
281
     1
  0
DICTIONARY
  5
9E5
102
{ACAD_REACTORS
330
9
102
}
330
9
100
AcDbDictionary
281
     1
  3
Imperial24
350
9E6
  0
DICTIONARY
  5
23
102
{ACAD_REACTORS
330
9
102
}
330
9
100
AcDbDictionary
281
     1
  0
DICTIONARY
  5
D
102
{ACAD_REACTORS
330
9
102
}
330
9
100
AcDbDictionary
281
     1
  3
Model
350
C
  3
ﾚｲｱｳﾄ1
350
13
  0
DICTIONARY
  5
99A
102
{ACAD_REACTORS
330
9
102
}
330
9
100
AcDbDictionary
281
     1
  3
ByBlock
350
9A3
  3
ByLayer
350
99B
  3
Global
350
9AB
  0
DICTIONARY
  5
9E1
102
{ACAD_REACTORS
330
9
102
}
330
9
100
AcDbDictionary
281
     1
  3
Standard
350
9E2
  0
DICTIONARY
  5
24
102
{ACAD_REACTORS
330
9
102
}
330
9
100
AcDbDictionary
281
     1
  3
STANDARD
350
28
  0
DICTIONARY
  5
25
102
{ACAD_REACTORS
330
9
102
}
330
9
100
AcDbDictionary
281
     1
  0
ACDBDICTIONARYWDFLT
  5
8
102
{ACAD_REACTORS
330
9
102
}
330
9
100
AcDbDictionary
281
     1
  3
Normal
350
7
100
AcDbDictionaryWithDefault
340
7
  0
DICTIONARY
  5
9CF
102
{ACAD_REACTORS
330
9
102
}
330
9
100
AcDbDictionary
281
     1
  3
A0
350
9D0
  3
A1
350
9D1
  3
A2
350
9D2
  3
A3
350
9D3
  3
A4
350
9D4
  3
A5
350
9D5
  3
A6
350
9D6
  3
A7
350
9D7
  3
A8
350
9D8
  3
A9
350
9D9
  3
B0
350
9DA
  3
B1
350
9DB
  3
B2
350
9DC
  3
B3
350
9DD
  3
B4
350
9DE
  3
B5
350
9DF
  3
B6
350
9E0
  0
DICTIONARY
  5
9E3
102
{ACAD_REACTORS
330
9
102
}
330
9
100
AcDbDictionary
281
     1
  3
Imperial24
350
9E4
  0
DICTIONARY
  5
9CD
102
{ACAD_REACTORS
330
9
102
}
330
9
100
AcDbDictionary
281
     1
  3
Standard
350
9CE
  0
DICTIONARY
  5
9B3
102
{ACAD_REACTORS
330
9
102
}
330
9
100
AcDbDictionary
281
     1
  3
2dWireframe
350
9B9
  3
Basic
350
9B8
  3
Brighten
350
9BF
  3
ColorChange
350
9C3
  3
Conceptual
350
9BC
  3
Dim
350
9BE
  3
EdgeColorOff
350
9CB
  3
Facepattern
350
9C2
  3
Flat
350
9B4
  3
FlatWithEdges
350
9B5
  3
Gouraud
350
9B6
  3
GouraudWithEdges
350
9B7
  3
Hidden
350
9BB
  3
JitterOff
350
9C9
  3
Linepattern
350
9C1
  3
OverhangOff
350
9CA
  3
Realistic
350
9BD
  3
Shaded
350
9C8
  3
Shaded with edges
350
9C7
  3
Shades of Gray
350
9C4
  3
Sketchy
350
9C5
  3
Thicken
350
9C0
  3
Wireframe
350
9BA
  3
X-Ray
350
9C6
  0
DICTIONARY
  5
BBF
102
{ACAD_REACTORS
330
9
102
}
330
9
100
AcDbDictionary
281
     1
  3
COLORDICT
350
BC0
  3
MATERIALDICT
350
BC1
  0
DICTIONARY
  5
95F
102
{ACAD_REACTORS
330
9
102
}
330
9
100
AcDbDictionary
281
     1
  3
CANNOSCALE
350
A0B
  3
CMLEADERSTYLE
350
A07
  3
CTABLESTYLE
350
A06
  3
CVIEWDETAILSTYLE
350
A08
  3
CVIEWSECTIONSTYLE
350
A09
  3
DIMASSOC
350
961
  3
HIDETEXT
350
960
  3
LAYEREVAL
350
A0D
  3
LAYERNOTIFY
350
A0E
  3
LIGHTINGUNITS
350
A0C
  3
MSLTSCALE
350
A0A
  3
XCLIPFRAME
350
B11
  0
XRECORD
  5
BC2
102
{ACAD_REACTORS
330
9
102
}
330
9
100
AcDbXrecord
280
     1
  1
DWGPROPS COOKIE
  2

  3

  4

  6

  7

  8
sg-d04
  9

300
=
301
=
302
=
303
=
304
=
305
=
306
=
307
=
308
=
309
=
 40
0.0
 41
2457345.443211678
 42
2457871.45734485
  1

 90
        0
  0
XRECORD
  5
BC4
102
{ACAD_REACTORS
330
BC3
102
}
330
BC3
100
AcDbXrecord
280
     1
102
VTR_0.000_0.000_1.000_1.000_VISUALSTYLE
340
9B9
102
VTR_0.000_0.000_1.000_1.000_GRIDDISPLAY
 70
     3
102
VTR_0.000_0.000_1.000_1.000_GRIDMAJOR
 70
     5
102
VTR_0.000_0.000_1.000_1.000_DEFAULTLIGHTING
280
     1
102
VTR_0.000_0.000_1.000_1.000_DEFAULTLIGHTINGTYPE
 70
     1
102
VTR_0.000_0.000_1.000_1.000_BRIGHTNESS
141
0.0
102
VTR_0.000_0.000_1.000_1.000_CONTRAST
142
0.0
  0
DICTIONARY
  5
9FB
102
{ACAD_REACTORS
330
9FA
102
}
330
9FA
100
AcDbDictionary
281
     1
  0
XRECORD
  5
9EC
102
{ACAD_REACTORS
330
9EB
102
}
330
9EB
100
AcDbXrecord
280
     1
290
     1
  0
XRECORD
  5
9EE
102
{ACAD_REACTORS
330
9ED
102
}
330
9ED
100
AcDbXrecord
280
     1
290
     1
  0
XRECORD
  5
9F0
102
{ACAD_REACTORS
330
9EF
102
}
330
9EF
100
AcDbXrecord
280
     1
290
     1
  0
XRECORD
  5
9F2
102
{ACAD_REACTORS
330
9F1
102
}
330
9F1
100
AcDbXrecord
280
     1
290
     1
  0
XRECORD
  5
9F4
102
{ACAD_REACTORS
330
9F3
102
}
330
9F3
100
AcDbXrecord
280
     1
290
     1
  0
XRECORD
  5
9F6
102
{ACAD_REACTORS
330
9F5
102
}
330
9F5
100
AcDbXrecord
280
     1
290
     1
  0
XRECORD
  5
32E
102
{ACAD_REACTORS
330
32C
102
}
330
32C
100
AcDbXrecord
280
     1
290
     1
  0
SORTENTSTABLE
  5
B19
102
{ACAD_REACTORS
330
B18
102
}
330
B18
100
AcDbSortentsTable
330
2
331
0
  5
EC
331
D3
  5
D4
331
D4
  5
D6
331
D5
  5
D7
331
D6
  5
D8
331
D7
  5
D9
331
DB
  5
DD
331
DD
  5
DF
331
DE
  5
E0
331
DF
  5
E1
331
E0
  5
E2
331
E1
  5
E3
331
E2
  5
E4
331
E3
  5
E5
331
E8
  5
EA
331
E9
  5
EB
331
ED
  5
EF
331
EE
  5
F0
331
EF
  5
F1
331
F0
  5
F2
331
F1
  5
F3
331
100
  5
102
331
101
  5
103
331
102
  5
104
331
103
  5
105
331
104
  5
106
331
105
  5
107
331
106
  5
108
331
107
  5
109
331
108
  5
10A
331
109
  5
10B
331
10A
  5
10C
331
10B
  5
10D
331
111
  5
113
331
112
  5
114
331
113
  5
115
331
114
  5
116
331
11B
  5
11D
331
11C
  5
11E
331
11D
  5
11F
331
11E
  5
120
331
11F
  5
121
331
120
  5
122
331
121
  5
123
331
122
  5
124
331
123
  5
125
331
124
  5
126
331
125
  5
127
331
126
  5
128
331
127
  5
129
331
128
  5
12A
331
129
  5
12B
331
12A
  5
12C
331
12B
  5
12D
331
12C
  5
12E
331
12D
  5
12F
331
12E
  5
130
331
12F
  5
131
331
130
  5
132
331
131
  5
133
331
132
  5
134
331
133
  5
135
331
134
  5
136
331
135
  5
137
331
136
  5
138
331
137
  5
139
331
138
  5
13A
331
139
  5
13B
331
13A
  5
13C
331
13B
  5
13D
331
13C
  5
13E
331
13D
  5
13F
331
13E
  5
140
331
13F
  5
141
331
140
  5
142
331
141
  5
143
331
142
  5
144
331
143
  5
145
331
144
  5
146
331
145
  5
147
331
146
  5
148
331
147
  5
149
331
148
  5
14A
331
149
  5
14B
331
14A
  5
14C
331
14B
  5
14D
331
14C
  5
14E
331
14D
  5
14F
331
14E
  5
150
331
14F
  5
151
331
150
  5
152
331
151
  5
153
331
152
  5
154
331
153
  5
155
331
154
  5
156
331
155
  5
157
331
156
  5
158
331
158
  5
15A
331
159
  5
15B
331
15A
  5
15C
331
15B
  5
15D
331
15C
  5
15E
331
15D
  5
15F
331
15E
  5
160
331
15F
  5
161
331
160
  5
162
331
161
  5
163
331
162
  5
164
331
163
  5
165
331
164
  5
166
331
165
  5
167
331
166
  5
168
331
167
  5
169
331
168
  5
16A
331
169
  5
16B
331
16B
  5
16D
331
16C
  5
16E
331
16D
  5
16F
331
16E
  5
170
331
16F
  5
171
331
170
  5
172
331
171
  5
173
331
172
  5
174
331
173
  5
175
331
174
  5
176
331
175
  5
177
331
176
  5
178
331
177
  5
179
331
178
  5
17A
331
179
  5
17B
331
17A
  5
17C
331
17B
  5
17D
331
17C
  5
17E
331
17D
  5
17F
331
17E
  5
180
331
17F
  5
181
331
180
  5
182
331
181
  5
183
331
183
  5
185
331
184
  5
186
331
185
  5
187
331
186
  5
188
331
187
  5
189
331
188
  5
18A
331
189
  5
18B
331
18A
  5
18C
331
18B
  5
18D
331
18C
  5
18E
331
18D
  5
18F
331
18E
  5
190
331
18F
  5
191
331
190
  5
192
331
191
  5
193
331
192
  5
194
331
193
  5
195
331
194
  5
196
331
195
  5
197
331
196
  5
198
331
197
  5
199
331
198
  5
19A
331
199
  5
19B
331
19A
  5
19C
331
19C
  5
19E
331
19D
  5
19F
331
19E
  5
1A0
331
19F
  5
1A1
331
1A0
  5
1A2
331
1A1
  5
1A3
331
1A3
  5
1A5
331
1A4
  5
1A6
331
1A5
  5
1A7
331
1A6
  5
1A8
331
1A7
  5
1A9
331
1A8
  5
1AA
331
1A9
  5
1AB
331
1AA
  5
1AC
331
1B3
  5
1B5
331
1B4
  5
1B6
331
1B5
  5
1B7
331
1B6
  5
1B8
331
1B7
  5
1B9
331
1B8
  5
1BA
331
1B9
  5
1BB
331
1BA
  5
1BC
331
1BB
  5
1BD
331
1BC
  5
1BE
331
1BD
  5
1BF
331
1BE
  5
1C0
331
1BF
  5
1C1
331
1C0
  5
1C2
331
1C1
  5
1C3
331
1C2
  5
1C4
331
1C3
  5
1C5
331
1C4
  5
1C6
331
1C5
  5
1C7
331
1C6
  5
1C8
331
1C7
  5
1C9
331
1C8
  5
1CA
331
1C9
  5
1CB
331
1CA
  5
1CC
331
1CB
  5
1CD
331
1CC
  5
1CE
331
1CD
  5
1CF
331
1CE
  5
1D0
331
1CF
  5
1D1
331
1D0
  5
1D2
331
1D1
  5
1D3
331
1D2
  5
1D4
331
1D3
  5
1D5
331
1D4
  5
1D6
331
1D5
  5
1D7
331
1D6
  5
1D8
331
1D7
  5
1D9
331
1D8
  5
1DA
331
1D9
  5
1DB
331
1DA
  5
1DC
331
1DB
  5
1DD
331
1DC
  5
1DE
331
1DD
  5
1DF
331
1DE
  5
1E0
331
1DF
  5
1E1
331
1E1
  5
1E3
331
1E2
  5
1E4
331
1E3
  5
1E5
331
1E4
  5
1E6
331
1E5
  5
1E7
331
1E6
  5
1E8
331
1E7
  5
1E9
331
1E8
  5
1EA
331
1E9
  5
1EB
331
1EA
  5
1EC
331
1EB
  5
1ED
331
1EC
  5
1EE
331
1ED
  5
1EF
331
1EE
  5
1F0
331
1EF
  5
1F1
331
1F0
  5
1F2
331
1F1
  5
1F3
331
1F2
  5
1F4
331
1F3
  5
1F5
331
1F4
  5
1F6
331
1F5
  5
1F7
331
1F6
  5
1F8
331
1F7
  5
1F9
331
1F8
  5
1FA
331
1F9
  5
1FB
331
1FA
  5
1FC
331
1FB
  5
1FD
331
1FC
  5
1FE
331
1FD
  5
1FF
331
1FE
  5
200
331
1FF
  5
201
331
200
  5
202
331
201
  5
203
331
202
  5
204
331
203
  5
205
331
204
  5
206
331
205
  5
207
331
206
  5
208
331
207
  5
209
331
208
  5
20A
331
209
  5
20B
331
20A
  5
20C
331
20B
  5
20D
331
20C
  5
20E
331
20D
  5
20F
331
20E
  5
210
331
266
  5
268
331
36B
  5
36D
331
36C
  5
36E
331
36D
  5
36F
331
36E
  5
370
331
36F
  5
373
331
37A
  5
37E
331
37B
  5
37F
331
37C
  5
380
331
386
  5
38A
331
387
  5
38B
331
388
  5
38C
331
389
  5
38D
331
38A
  5
38E
331
38B
  5
38F
331
38C
  5
390
331
38D
  5
391
331
38E
  5
392
331
38F
  5
393
331
390
  5
394
331
391
  5
395
331
392
  5
396
331
393
  5
397
331
394
  5
398
331
395
  5
399
331
396
  5
39A
331
397
  5
39B
331
398
  5
39C
331
399
  5
39D
331
39A
  5
39E
331
39C
  5
3A0
331
39D
  5
3A1
331
39E
  5
3A2
331
39F
  5
3A3
331
3AB
  5
3AF
331
3AC
  5
3B0
331
3AD
  5
3B1
331
3AE
  5
3B2
331
3AF
  5
3B3
331
3B0
  5
3B4
331
3B1
  5
3B5
331
3B2
  5
3B6
331
3B3
  5
3B7
331
3B4
  5
3B8
331
3B5
  5
3B9
331
3B6
  5
3BA
331
3B7
  5
3BB
331
3B8
  5
3BC
331
3B9
  5
3BD
331
3BE
  5
3C2
331
3BF
  5
3C3
331
3C0
  5
3C4
331
3C1
  5
3C5
331
3C2
  5
3C6
331
3C7
  5
3CB
331
3C8
  5
3CC
331
3C9
  5
3CD
331
3CA
  5
3CE
331
3CB
  5
3CF
331
3CC
  5
3D0
331
3CD
  5
3D1
331
3CE
  5
3D2
331
3CF
  5
3D3
331
3D0
  5
3D4
331
3D1
  5
3D5
331
3D2
  5
3D6
331
3D3
  5
3D7
331
3D4
  5
3D8
331
3D5
  5
3D9
331
3D6
  5
3DA
331
3D7
  5
3DB
331
3D8
  5
3DC
331
3D9
  5
3DD
331
3DA
  5
3DE
331
3DB
  5
3DF
331
3DC
  5
3E0
331
3DD
  5
3E1
331
3DE
  5
3E2
331
3DF
  5
3E3
331
3E0
  5
3E4
331
3E1
  5
3E5
331
3E2
  5
3E6
331
3E3
  5
3E7
331
3E4
  5
3E8
331
3E5
  5
3E9
331
3E6
  5
3EA
331
3E7
  5
3EB
331
3E8
  5
3EC
331
3E9
  5
3ED
331
3EA
  5
3EE
331
3EB
  5
3EF
331
3EC
  5
3F0
331
3ED
  5
3F1
331
3EE
  5
3F2
331
3EF
  5
3F3
331
3F0
  5
3F4
331
3F1
  5
3F5
331
3F2
  5
3F6
331
3F3
  5
3F7
331
3F4
  5
3F8
331
3F7
  5
3FB
331
3F8
  5
3FC
331
3F9
  5
3FD
331
3FA
  5
3FE
331
3FB
  5
3FF
331
3FF
  5
403
331
400
  5
404
331
401
  5
405
331
402
  5
406
331
403
  5
407
331
404
  5
408
331
405
  5
409
331
40A
  5
40E
331
40B
  5
40F
331
40C
  5
410
331
40D
  5
411
331
40E
  5
412
331
40F
  5
413
331
410
  5
414
331
411
  5
416
331
412
  5
417
331
414
  5
418
331
415
  5
419
331
416
  5
41A
331
417
  5
41C
331
418
  5
41D
331
41A
  5
41E
331
41B
  5
41F
331
41C
  5
420
331
41D
  5
421
331
41E
  5
422
331
41F
  5
423
331
420
  5
424
331
421
  5
425
331
422
  5
426
331
423
  5
427
331
424
  5
428
331
425
  5
429
331
426
  5
42A
331
427
  5
42B
331
428
  5
42C
331
429
  5
42D
331
42A
  5
42E
331
42B
  5
42F
331
42C
  5
430
331
42D
  5
431
331
42E
  5
432
331
42F
  5
433
331
430
  5
434
331
431
  5
435
331
432
  5
436
331
433
  5
437
331
434
  5
438
331
435
  5
439
331
436
  5
43A
331
437
  5
43B
331
438
  5
43C
331
439
  5
43D
331
43A
  5
43E
331
43B
  5
43F
331
43C
  5
440
331
43D
  5
441
331
43E
  5
442
331
43F
  5
443
331
440
  5
444
331
441
  5
445
331
442
  5
446
331
443
  5
447
331
444
  5
448
331
445
  5
449
331
446
  5
44A
331
447
  5
44B
331
448
  5
44C
331
449
  5
44D
331
44A
  5
44E
331
44B
  5
44F
331
44C
  5
450
331
44D
  5
451
331
44E
  5
452
331
44F
  5
453
331
450
  5
454
331
451
  5
455
331
452
  5
456
331
453
  5
457
331
454
  5
458
331
455
  5
459
331
456
  5
45A
331
457
  5
45B
331
458
  5
45C
331
459
  5
45D
331
45A
  5
45E
331
45B
  5
45F
331
45C
  5
460
331
45D
  5
461
331
45E
  5
462
331
45F
  5
463
331
460
  5
464
331
461
  5
465
331
462
  5
466
331
463
  5
467
331
464
  5
468
331
465
  5
469
331
466
  5
46A
331
467
  5
46B
331
468
  5
46C
331
469
  5
46D
331
46A
  5
46E
331
46B
  5
46F
331
46C
  5
470
331
46D
  5
471
331
46E
  5
472
331
46F
  5
473
331
470
  5
474
331
471
  5
475
331
472
  5
476
331
473
  5
477
331
478
  5
47C
331
47B
  5
482
331
47C
  5
48F
331
543
  5
547
331
544
  5
548
331
545
  5
549
331
546
  5
54A
331
549
  5
54D
331
54A
  5
551
331
54B
  5
552
331
54C
  5
553
331
54D
  5
554
331
54E
  5
556
331
54F
  5
557
331
550
  5
559
331
551
  5
55A
331
552
  5
55B
331
554
  5
55C
331
555
  5
55D
331
A10
  5
A17
331
A11
  5
A18
331
A12
  5
A19
331
A13
  5
A1A
331
A14
  5
A1B
331
A15
  5
A1C
331
A16
  5
A1D
331
A17
  5
A1E
331
A18
  5
A1F
331
A19
  5
A20
331
A1A
  5
A21
331
A1C
  5
A23
331
A1D
  5
A24
331
A1E
  5
A25
331
A1F
  5
A26
331
A20
  5
A27
331
A21
  5
A28
331
A22
  5
A29
331
A23
  5
A2A
331
A24
  5
A2B
331
A25
  5
A2C
331
A26
  5
A2D
331
A27
  5
A2E
331
A28
  5
A2F
331
A29
  5
A30
331
A2A
  5
A31
331
A2B
  5
A32
331
A2C
  5
A33
331
A2D
  5
A34
331
A2E
  5
A35
331
A2F
  5
A36
331
A30
  5
A37
331
A32
  5
A39
331
A33
  5
A3A
331
A34
  5
A3B
331
A35
  5
A3C
331
A36
  5
A3D
331
A37
  5
A3E
331
A38
  5
A3F
331
A39
  5
A40
331
A3A
  5
A41
331
A3B
  5
A42
331
A3C
  5
A43
331
A3D
  5
A44
331
A3E
  5
A45
331
A3F
  5
A46
331
A40
  5
A47
331
A41
  5
A48
331
A42
  5
A49
331
A43
  5
A4A
331
A44
  5
A4B
331
A45
  5
A4C
331
A46
  5
A4D
331
A47
  5
A4E
331
A48
  5
A4F
331
A49
  5
A50
331
A4A
  5
A51
331
A4B
  5
A52
331
A4C
  5
A53
331
A4D
  5
A54
331
A4E
  5
A55
331
A4F
  5
A56
331
A50
  5
A57
331
A51
  5
A58
331
A52
  5
A59
331
A53
  5
A5A
331
A54
  5
A5B
331
A55
  5
A5C
331
A56
  5
A5D
331
A57
  5
A5E
331
A58
  5
A5F
331
A59
  5
A60
331
A5A
  5
A61
331
A5B
  5
A62
331
A5C
  5
A63
331
A5D
  5
A64
331
A5E
  5
A65
331
A5F
  5
A66
331
A60
  5
A67
331
A61
  5
A68
331
A62
  5
A69
331
A63
  5
A6A
331
A64
  5
A6B
331
A65
  5
A6C
331
A66
  5
A6D
331
A67
  5
A6E
331
A68
  5
A6F
331
A69
  5
A70
331
A6A
  5
A71
331
A6B
  5
A72
331
A6C
  5
A73
331
A6D
  5
A74
331
A6E
  5
A75
331
A6F
  5
A76
331
A70
  5
A77
331
A71
  5
A78
331
A7B
  5
A82
331
A7C
  5
A83
331
A7D
  5
A84
331
A7E
  5
A85
331
A80
  5
A87
331
A81
  5
A88
331
A82
  5
A89
331
A85
  5
A8C
331
A86
  5
A8D
331
A8B
  5
A92
331
A8C
  5
A93
331
A8D
  5
A94
331
A8E
  5
A95
331
A8F
  5
A96
331
A90
  5
A97
331
A91
  5
A98
331
A92
  5
A99
331
A93
  5
A9A
331
A94
  5
A9B
331
A95
  5
A9C
331
A96
  5
A9D
331
A97
  5
A9E
331
A98
  5
A9F
331
A99
  5
AA0
331
A9A
  5
AA1
331
A9B
  5
AA2
331
A9C
  5
AA3
331
A9D
  5
AA4
331
A9E
  5
AA5
331
A9F
  5
AA6
331
AA0
  5
AA7
331
AA1
  5
AA8
331
AA2
  5
AA9
331
AA3
  5
AAA
331
AA4
  5
AAB
331
AA5
  5
AAC
331
AA6
  5
AAD
331
AA7
  5
AAE
331
AA8
  5
AAF
331
AA9
  5
AB0
331
AAA
  5
AB1
331
AAB
  5
AB2
331
AAC
  5
AB3
331
AAD
  5
AB4
331
AAE
  5
AB5
331
AAF
  5
AB6
331
AB0
  5
AB7
331
AB1
  5
AB8
331
AB2
  5
AB9
331
AB3
  5
ABA
331
AB4
  5
ABB
331
AB5
  5
ABC
331
AB6
  5
ABD
331
AB7
  5
ABE
331
AB8
  5
ABF
331
AB9
  5
AC0
331
ABA
  5
AC1
331
ABB
  5
AC2
331
ABC
  5
AC3
331
ABD
  5
AC4
331
ABE
  5
AC5
331
ABF
  5
AC6
331
AC0
  5
AC7
331
AC1
  5
AC8
331
AC2
  5
AC9
331
AC3
  5
ACA
331
AC4
  5
ACB
331
AC5
  5
ACC
331
AC6
  5
ACD
331
AC7
  5
ACE
331
AC8
  5
ACF
331
AC9
  5
AD0
331
ACA
  5
AD1
331
ACB
  5
AD2
331
ACC
  5
AD3
331
ACD
  5
AD4
331
ACE
  5
AD5
331
ACF
  5
AD6
331
AD0
  5
AD7
331
AD1
  5
AD8
331
AD2
  5
AD9
331
AD3
  5
ADA
331
AD4
  5
ADB
331
AD5
  5
ADC
331
AD6
  5
ADD
331
AD7
  5
ADE
331
AD8
  5
ADF
331
AD9
  5
AE0
331
ADA
  5
AE1
331
ADB
  5
AE2
331
ADC
  5
AE3
331
ADD
  5
AE4
331
ADE
  5
AE5
331
ADF
  5
AE6
331
AE0
  5
AE7
331
AE1
  5
AE8
331
AE2
  5
AE9
331
AE3
  5
AEA
331
AE4
  5
AEB
331
AE5
  5
AEC
331
AE6
  5
AED
331
AE7
  5
AEE
331
AE8
  5
AEF
331
AE9
  5
AF0
331
AEA
  5
AF1
331
AEB
  5
AF2
331
AEC
  5
AF3
331
AED
  5
AF4
331
AEE
  5
AF5
331
AEF
  5
AF6
331
AF0
  5
AF7
331
AF1
  5
AF8
331
AF2
  5
AF9
331
AF3
  5
AFA
331
AF4
  5
AFB
331
AF5
  5
AFC
331
AF6
  5
AFD
331
AF7
  5
AFE
331
AF8
  5
AFF
331
AF9
  5
B00
331
AFA
  5
B01
331
AFB
  5
B02
331
AFC
  5
B03
331
AFD
  5
B04
331
AFE
  5
B05
331
AFF
  5
B06
331
B00
  5
B07
331
B01
  5
B08
331
B02
  5
B09
331
B03
  5
B0A
331
B04
  5
B0B
331
B05
  5
B0C
331
B06
  5
B0D
331
B07
  5
B0E
331
B08
  5
B0F
331
B09
  5
B10
331
B0A
  5
B12
331
B0B
  5
B13
331
B0C
  5
B16
331
B0D
  5
B17
331
B0E
  5
B1D
331
B0F
  5
B1F
331
B10
  5
B20
331
B1D
  5
B23
331
B20
  5
B25
331
B21
  5
B26
331
B22
  5
B27
331
B23
  5
B28
331
B24
  5
B29
331
B25
  5
B2A
331
B26
  5
B2B
331
B27
  5
B2C
331
B28
  5
B2D
331
B29
  5
B2E
331
B2A
  5
B2F
331
B2B
  5
B30
331
B2C
  5
B31
331
B2D
  5
B32
331
B34
  5
B39
331
B35
  5
B3A
331
B36
  5
B3B
331
B37
  5
B3C
331
B38
  5
B3D
331
B3A
  5
B3F
331
B40
  5
B45
  0
ACDBDETAILVIEWSTYLE
  5
9E6
102
{ACAD_REACTORS
330
9E5
102
}
102
{ACAD_XDICTIONARY
360
A03
102
}
330
9E5
100
AcDbModelDocViewStyle
 70
     0
  3
Imperial24
290
     0
100
AcDbDetailViewStyle
 70
     0
 71
     0
 90
        3
 71
     1
340
16
 40
0.24
340
0
 40
0.24
300

 40
0.36
280
     3
 71
     2
340
A
 90
       25
 71
     3
340
16
 40
0.24
 90
        1
 40
0.75
 90
        1
300
%<\AcVar ViewType \f "%tc1">% %<\AcVar ViewDetailId>%\PSCALE %<\AcVar ViewScale \f "%sn">%
 71
     4
340
A
 90
       25
340
A
 90
       25
280
     0
  0
LAYOUT
  5
C
102
{ACAD_REACTORS
330
D
102
}
330
D
100
AcDbPlotSettings
  1

  2
Bullzip PDF Printer.pc3
  4
A3
  6

 40
0.2
 41
0.0
 42
0.0
 43
0.0
 44
420.2
 45
297.1
 46
25.0
 47
12.0
 48
89.99999984133319
 49
20.0
140
1617.999996341333
141
1109.999997456667
142
1.0
143
4.0
 70
 11936
 72
     1
 73
     0
 74
     4
  7
monochrome.ctb
 75
     0
147
1.0
148
-89.99999984133319
149
-20.0
100
AcDbLayout
  1
Model
 70
     1
 71
     0
 10
0.0
 20
0.0
 11
12.0
 21
9.0
 12
0.0
 22
0.0
 32
0.0
 14
248.427400012672
 24
28.06865058182626
 34
0.0
 15
1486.694761026745
 25
1303.732737497244
 35
0.0
146
0.0
 13
0.0
 23
0.0
 33
0.0
 16
1.0
 26
0.0
 36
0.0
 17
0.0
 27
1.0
 37
0.0
 76
     0
330
2
331
998
1001
ACAD_PSEXT
1000
Bullzip PDF Printer.pc3
1000
Bullzip PDF Printer
1000
BULLZIP
1000
Bullzip PDF Printer 10.1.0.1871
1070
     0
  0
LAYOUT
  5
13
102
{ACAD_REACTORS
330
D
102
}
330
D
100
AcDbPlotSettings
  1

  2
SR-LP8300F
  4

  6

 40
0.0
 41
0.0
 42
0.0
 43
0.0
 44
0.0
 45
0.0
 46
0.0
 47
0.0
 48
0.0
 49
0.0
140
0.0
141
0.0
142
1.0
143
1.0
 70
   688
 72
     0
 73
     0
 74
     5
  7
monochrome.ctb
 75
    16
147
1.0
148
0.0
149
0.0
100
AcDbLayout
  1
ﾚｲｱｳﾄ1
 70
     1
 71
     1
 10
0.0
 20
0.0
 11
12.0
 21
9.0
 12
0.0
 22
0.0
 32
0.0
 14
1.000000000000000E+20
 24
1.000000000000000E+20
 34
1.000000000000000E+20
 15
-1.000000000000000E+20
 25
-1.000000000000000E+20
 35
-1.000000000000000E+20
146
0.0
 13
0.0
 23
0.0
 33
0.0
 16
1.0
 26
0.0
 36
0.0
 17
0.0
 27
1.0
 37
0.0
 76
     0
330
E
  0
MATERIAL
  5
9A3
102
{ACAD_REACTORS
330
99A
102
}
102
{ACAD_XDICTIONARY
360
BC6
102
}
330
99A
100
AcDbMaterial
  1
ByBlock
 72
     0
 73
     2
 43
0.0208333333333333
 43
0.0
 43
0.0
 43
0.0
 43
0.0
 43
0.0208333333333333
 43
0.0
 43
0.0
 43
0.0
 43
0.0
 43
1.0
 43
0.0
 43
0.0
 43
0.0
 43
0.0
 43
1.0
 77
     0
 78
     2
 47
0.0208333333333333
 47
0.0
 47
0.0
 47
0.0
 47
0.0
 47
0.0208333333333333
 47
0.0
 47
0.0
 47
0.0
 47
0.0
 47
1.0
 47
0.0
 47
0.0
 47
0.0
 47
0.0
 47
1.0
171
     0
172
     2
 49
0.0208333333333333
 49
0.0
 49
0.0
 49
0.0
 49
0.0
 49
0.0208333333333333
 49
0.0
 49
0.0
 49
0.0
 49
0.0
 49
1.0
 49
0.0
 49
0.0
 49
0.0
 49
0.0
 49
1.0
175
     0
176
     2
142
0.0208333333333333
142
0.0
142
0.0
142
0.0
142
0.0
142
0.0208333333333333
142
0.0
142
0.0
142
0.0
142
0.0
142
1.0
142
0.0
142
0.0
142
0.0
142
0.0
142
1.0
179
     0
270
     2
144
0.0208333333333333
144
0.0
144
0.0
144
0.0
144
0.0
144
0.0208333333333333
144
0.0
144
0.0
144
0.0
144
0.0
144
1.0
144
0.0
144
0.0
144
0.0
144
0.0
144
1.0
274
     2
147
0.0208333333333333
147
0.0
147
0.0
147
0.0
147
0.0
147
0.0208333333333333
147
0.0
147
0.0
147
0.0
147
0.0
147
1.0
147
0.0
147
0.0
147
0.0
147
0.0
147
1.0
  0
MATERIAL
  5
99B
102
{ACAD_REACTORS
330
99A
102
}
102
{ACAD_XDICTIONARY
360
BC8
102
}
330
99A
100
AcDbMaterial
  1
ByLayer
 72
     0
 73
     2
 43
0.0208333333333333
 43
0.0
 43
0.0
 43
0.0
 43
0.0
 43
0.0208333333333333
 43
0.0
 43
0.0
 43
0.0
 43
0.0
 43
1.0
 43
0.0
 43
0.0
 43
0.0
 43
0.0
 43
1.0
 77
     0
 78
     2
 47
0.0208333333333333
 47
0.0
 47
0.0
 47
0.0
 47
0.0
 47
0.0208333333333333
 47
0.0
 47
0.0
 47
0.0
 47
0.0
 47
1.0
 47
0.0
 47
0.0
 47
0.0
 47
0.0
 47
1.0
171
     0
172
     2
 49
0.0208333333333333
 49
0.0
 49
0.0
 49
0.0
 49
0.0
 49
0.0208333333333333
 49
0.0
 49
0.0
 49
0.0
 49
0.0
 49
1.0
 49
0.0
 49
0.0
 49
0.0
 49
0.0
 49
1.0
175
     0
176
     2
142
0.0208333333333333
142
0.0
142
0.0
142
0.0
142
0.0
142
0.0208333333333333
142
0.0
142
0.0
142
0.0
142
0.0
142
1.0
142
0.0
142
0.0
142
0.0
142
0.0
142
1.0
179
     0
270
     2
144
0.0208333333333333
144
0.0
144
0.0
144
0.0
144
0.0
144
0.0208333333333333
144
0.0
144
0.0
144
0.0
144
0.0
144
1.0
144
0.0
144
0.0
144
0.0
144
0.0
144
1.0
274
     2
147
0.0208333333333333
147
0.0
147
0.0
147
0.0
147
0.0
147
0.0208333333333333
147
0.0
147
0.0
147
0.0
147
0.0
147
1.0
147
0.0
147
0.0
147
0.0
147
0.0
147
1.0
  0
MATERIAL
  5
9AB
102
{ACAD_REACTORS
330
99A
102
}
102
{ACAD_XDICTIONARY
360
BCA
102
}
330
99A
100
AcDbMaterial
  1
Global
 72
     0
 73
     2
 43
0.0208333333333333
 43
0.0
 43
0.0
 43
0.0
 43
0.0
 43
0.0208333333333333
 43
0.0
 43
0.0
 43
0.0
 43
0.0
 43
1.0
 43
0.0
 43
0.0
 43
0.0
 43
0.0
 43
1.0
 77
     0
 78
     2
 47
0.0208333333333333
 47
0.0
 47
0.0
 47
0.0
 47
0.0
 47
0.0208333333333333
 47
0.0
 47
0.0
 47
0.0
 47
0.0
 47
1.0
 47
0.0
 47
0.0
 47
0.0
 47
0.0
 47
1.0
171
     0
172
     2
 49
0.0208333333333333
 49
0.0
 49
0.0
 49
0.0
 49
0.0
 49
0.0208333333333333
 49
0.0
 49
0.0
 49
0.0
 49
0.0
 49
1.0
 49
0.0
 49
0.0
 49
0.0
 49
0.0
 49
1.0
175
     0
176
     2
142
0.0208333333333333
142
0.0
142
0.0
142
0.0
142
0.0
142
0.0208333333333333
142
0.0
142
0.0
142
0.0
142
0.0
142
1.0
142
0.0
142
0.0
142
0.0
142
0.0
142
1.0
179
     0
270
     2
144
0.0208333333333333
144
0.0
144
0.0
144
0.0
144
0.0
144
0.0208333333333333
144
0.0
144
0.0
144
0.0
144
0.0
144
1.0
144
0.0
144
0.0
144
0.0
144
0.0
144
1.0
274
     2
147
0.0208333333333333
147
0.0
147
0.0
147
0.0
147
0.0
147
0.0208333333333333
147
0.0
147
0.0
147
0.0
147
0.0
147
1.0
147
0.0
147
0.0
147
0.0
147
0.0
147
1.0
1001
ACAD
1070
    -1
1070
     3
1070
     0
1000

1071
        0
  0
MLEADERSTYLE
  5
9E2
102
{ACAD_REACTORS
330
9E1
102
}
102
{ACAD_XDICTIONARY
360
BCC
102
}
330
9E1
100
AcDbMLeaderStyle
170
     2
171
     1
172
     0
 90
        2
 40
0.0
 41
0.0
173
     1
 91
-1056964608
340
19
 92
       -2
290
     1
 42
0.09
291
     1
 43
0.36
  3
Standard
341
0
 44
0.18
300

342
16
174
     1
178
     6
175
     1
176
     0
 93
-1056964608
 45
0.18
292
     0
297
     0
 46
0.18
343
0
 94
-1056964608
 47
1.0
 49
1.0
140
1.0
293
     1
141
0.0
294
     1
177
     0
142
1.0
295
     1
296
     0
143
0.125
1001
ACAD_MLEADERVER
1070
     2
  0
MLINESTYLE
  5
28
102
{ACAD_REACTORS
330
24
102
}
330
24
100
AcDbMlineStyle
  2
STANDARD
 70
     0
  3

 62
     0
 51
90.0
 52
90.0
 71
     2
 49
0.5
 62
   256
  6
BYLAYER
 49
-0.5
 62
   256
  6
BYLAYER
  0
ACDBPLACEHOLDER
  5
7
102
{ACAD_REACTORS
330
8
102
}
330
8
  0
SCALE
  5
9D0
102
{ACAD_REACTORS
330
9CF
102
}
330
9CF
100
AcDbScale
 70
     0
300
1:1
140
1.0
141
1.0
290
     1
  0
SCALE
  5
9D1
102
{ACAD_REACTORS
330
9CF
102
}
330
9CF
100
AcDbScale
 70
     0
300
1/128" = 1'-0"
140
0.0078125
141
12.0
290
     0
  0
SCALE
  5
9D2
102
{ACAD_REACTORS
330
9CF
102
}
330
9CF
100
AcDbScale
 70
     0
300
1/64" = 1'-0"
140
0.015625
141
12.0
290
     0
  0
SCALE
  5
9D3
102
{ACAD_REACTORS
330
9CF
102
}
330
9CF
100
AcDbScale
 70
     0
300
1/32" = 1'-0"
140
0.03125
141
12.0
290
     0
  0
SCALE
  5
9D4
102
{ACAD_REACTORS
330
9CF
102
}
330
9CF
100
AcDbScale
 70
     0
300
1/16" = 1'-0"
140
0.0625
141
12.0
290
     0
  0
SCALE
  5
9D5
102
{ACAD_REACTORS
330
9CF
102
}
330
9CF
100
AcDbScale
 70
     0
300
3/32" = 1'-0"
140
0.09375
141
12.0
290
     0
  0
SCALE
  5
9D6
102
{ACAD_REACTORS
330
9CF
102
}
330
9CF
100
AcDbScale
 70
     0
300
1/8" = 1'-0"
140
0.125
141
12.0
290
     0
  0
SCALE
  5
9D7
102
{ACAD_REACTORS
330
9CF
102
}
330
9CF
100
AcDbScale
 70
     0
300
3/16" = 1'-0"
140
0.1875
141
12.0
290
     0
  0
SCALE
  5
9D8
102
{ACAD_REACTORS
330
9CF
102
}
330
9CF
100
AcDbScale
 70
     0
300
1/4" = 1'-0"
140
0.25
141
12.0
290
     0
  0
SCALE
  5
9D9
102
{ACAD_REACTORS
330
9CF
102
}
330
9CF
100
AcDbScale
 70
     0
300
3/8" = 1'-0"
140
0.375
141
12.0
290
     0
  0
SCALE
  5
9DA
102
{ACAD_REACTORS
330
9CF
102
}
330
9CF
100
AcDbScale
 70
     0
300
1/2" = 1'-0"
140
0.5
141
12.0
290
     0
  0
SCALE
  5
9DB
102
{ACAD_REACTORS
330
9CF
102
}
330
9CF
100
AcDbScale
 70
     0
300
3/4" = 1'-0"
140
0.75
141
12.0
290
     0
  0
SCALE
  5
9DC
102
{ACAD_REACTORS
330
9CF
102
}
330
9CF
100
AcDbScale
 70
     0
300
1" = 1'-0"
140
1.0
141
12.0
290
     0
  0
SCALE
  5
9DD
102
{ACAD_REACTORS
330
9CF
102
}
330
9CF
100
AcDbScale
 70
     0
300
1-1/2" = 1'-0"
140
1.5
141
12.0
290
     0
  0
SCALE
  5
9DE
102
{ACAD_REACTORS
330
9CF
102
}
330
9CF
100
AcDbScale
 70
     0
300
3" = 1'-0"
140
3.0
141
12.0
290
     0
  0
SCALE
  5
9DF
102
{ACAD_REACTORS
330
9CF
102
}
330
9CF
100
AcDbScale
 70
     0
300
6" = 1'-0"
140
6.0
141
12.0
290
     0
  0
SCALE
  5
9E0
102
{ACAD_REACTORS
330
9CF
102
}
330
9CF
100
AcDbScale
 70
     0
300
1'-0" = 1'-0"
140
12.0
141
12.0
290
     0
  0
ACDBSECTIONVIEWSTYLE
  5
9E4
102
{ACAD_REACTORS
330
9E3
102
}
102
{ACAD_XDICTIONARY
360
A01
102
}
330
9E3
100
AcDbModelDocViewStyle
 70
     0
  3
Imperial24
290
     0
100
AcDbSectionViewStyle
 70
     0
 71
     0
 90
       78
 71
     1
340
16
 40
0.24
340
0
340
0
 40
0.24
300
I, O, Q, S, X, Z
 40
0.48
 90
        3
 40
0.18
 90
        1
 71
     2
340
A
 90
       25
340
A
 90
       50
 40
0.24
 40
0.0
 40
0.24
 71
     3
340
16
 40
0.24
 90
        1
 40
0.75
 90
        1
300
%<\AcVar ViewType \f "%tc1">% %<\AcVar ViewSectionStartId>%-%<\AcVar ViewSectionEndId>%\PSCALE %<\AcVar ViewScale \f "%sn">%
 71
     4
300
ANSI31
 40
1.0
 90
        0
290
     0
290
     0
 90
        6
 40
0.0
 40
1.570796326794897
 40
0.2617993877991494
 40
1.308996938995747
 40
-0.2617993877991494
 40
1.832595714594046
  0
TABLESTYLE
  5
9CE
102
{ACAD_REACTORS
330
9CD
102
}
330
9CD
100
AcDbTableStyle
  3
Standard
 70
     0
 71
     0
 40
0.06
 41
0.06
280
     0
281
     0
  7
STANDARD
140
0.18
170
     2
 62
     0
 63
   257
283
     0
274
    -2
284
     1
 64
     0
275
    -2
285
     1
 65
     0
276
    -2
286
     1
 66
     0
277
    -2
287
     1
 67
     0
278
    -2
288
     1
 68
     0
279
    -2
289
     1
 69
     0
  7
STANDARD
140
0.25
170
     5
 62
     0
 63
   257
283
     0
274
    -2
284
     1
 64
     0
275
    -2
285
     1
 65
     0
276
    -2
286
     1
 66
     0
277
    -2
287
     1
 67
     0
278
    -2
288
     1
 68
     0
279
    -2
289
     1
 69
     0
  7
STANDARD
140
0.18
170
     5
 62
     0
 63
   257
283
     0
274
    -2
284
     1
 64
     0
275
    -2
285
     1
 65
     0
276
    -2
286
     1
 66
     0
277
    -2
287
     1
 67
     0
278
    -2
288
     1
 68
     0
279
    -2
289
     1
 69
     0
  0
VISUALSTYLE
  5
9B9
102
{ACAD_REACTORS
330
9B3
102
}
102
{ACAD_XDICTIONARY
360
BCF
102
}
330
9B3
100
AcDbVisualStyle
  2
2dWireframe
 70
     4
 71
     0
 72
     2
 73
     0
 90
        0
 40
0.6
 41
30.0
 62
     5
 63
     7
 74
     1
 91
        4
 64
     7
 65
   257
 75
     1
175
     1
 42
1.0
 92
        0
 66
   257
 43
1.0
 76
     1
 77
     6
 78
     2
 67
     7
 79
     5
170
     0
171
     0
290
     0
174
     0
 93
        1
 44
0.0
173
     0
291
     0
 45
0.0
1001
ACAD
1000
AcDbSavedByObjectVersion
1070
     0
  0
VISUALSTYLE
  5
9B8
102
{ACAD_REACTORS
330
9B3
102
}
102
{ACAD_XDICTIONARY
360
BD1
102
}
330
9B3
100
AcDbVisualStyle
  2
Basic
 70
     7
 71
     1
 72
     0
 73
     1
 90
        0
 40
0.6
 41
30.0
 62
     5
 63
     7
 74
     0
 91
        4
 64
     7
 65
   257
 75
     1
175
     1
 42
1.0
 92
        8
 66
     7
 43
1.0
 76
     1
 77
     6
 78
     2
 67
     7
 79
     5
170
     0
171
     0
290
     0
174
     0
 93
        1
 44
0.0
173
     0
291
     1
 45
0.0
1001
ACAD
1000
AcDbSavedByObjectVersion
1070
     0
  0
VISUALSTYLE
  5
9BF
102
{ACAD_REACTORS
330
9B3
102
}
102
{ACAD_XDICTIONARY
360
BD3
102
}
330
9B3
100
AcDbVisualStyle
  2
Brighten
 70
    12
 71
     2
 72
     2
 73
     0
 90
        0
 40
0.6
 41
30.0
 62
     5
 63
     7
 74
     1
 91
        4
 64
     7
 65
   257
 75
     1
175
     1
 42
1.0
 92
        8
 66
     7
 43
1.0
 76
     1
 77
     6
 78
     2
 67
     7
 79
     5
170
     0
171
     0
290
     0
174
     0
 93
        1
 44
50.0
173
     0
291
     1
 45
0.0
1001
ACAD
1000
AcDbSavedByObjectVersion
1070
     0
  0
VISUALSTYLE
  5
9C3
102
{ACAD_REACTORS
330
9B3
102
}
102
{ACAD_XDICTIONARY
360
BD5
102
}
330
9B3
100
AcDbVisualStyle
  2
ColorChange
 70
    16
 71
     2
 72
     2
 73
     3
 90
        0
 40
0.6
 41
30.0
 62
     5
 63
     8
 74
     1
 91
        4
 64
     7
 65
   257
 75
     1
175
     1
 42
1.0
 92
        8
 66
     8
 43
1.0
 76
     1
 77
     6
 78
     2
 67
     7
 79
     5
170
     0
171
     0
290
     0
174
     0
 93
        1
 44
0.0
173
     0
291
     1
 45
0.0
1001
ACAD
1000
AcDbSavedByObjectVersion
1070
     0
  0
VISUALSTYLE
  5
9BC
102
{ACAD_REACTORS
330
9B3
102
}
102
{ACAD_XDICTIONARY
360
BD7
102
}
330
9B3
100
AcDbVisualStyle
  2
Conceptual
 70
     9
 71
     3
 72
     2
 73
     0
 90
        0
 40
0.6
 41
30.0
 62
     5
 63
     7
 74
     2
 91
        2
 64
     7
 65
   257
 75
     1
175
     1
 42
179.0
 92
        8
 66
     7
 43
1.0
 76
     1
 77
     6
 78
     2
 67
     7
 79
     3
170
     0
171
     0
290
     0
174
     0
 93
        1
 44
0.0
173
     0
291
     0
 45
0.0
1001
ACAD
1000
AcDbSavedByObjectVersion
1070
     0
  0
VISUALSTYLE
  5
9BE
102
{ACAD_REACTORS
330
9B3
102
}
102
{ACAD_XDICTIONARY
360
BD9
102
}
330
9B3
100
AcDbVisualStyle
  2
Dim
 70
    11
 71
     2
 72
     2
 73
     0
 90
        0
 40
0.6
 41
30.0
 62
     5
 63
     7
 74
     1
 91
        4
 64
     7
 65
   257
 75
     1
175
     1
 42
1.0
 92
        8
 66
     7
 43
1.0
 76
     1
 77
     6
 78
     2
 67
     7
 79
     5
170
     0
171
     0
290
     0
174
     0
 93
        1
 44
-50.0
173
     0
291
     1
 45
0.0
1001
ACAD
1000
AcDbSavedByObjectVersion
1070
     0
  0
VISUALSTYLE
  5
9CB
102
{ACAD_REACTORS
330
9B3
102
}
102
{ACAD_XDICTIONARY
360
BDB
102
}
330
9B3
100
AcDbVisualStyle
  2
EdgeColorOff
 70
    22
 71
     2
 72
     2
 73
     0
 90
        0
 40
0.6
 41
30.0
 62
     5
 63
     7
 74
     1
 91
        4
 64
     7
 65
   257
 75
     1
175
     1
 42
1.0
 92
        8
 66
     7
 43
1.0
 76
     1
 77
     6
 78
     2
 67
     7
 79
     5
170
     0
171
     0
290
     0
174
     0
 93
        1
 44
0.0
173
     0
291
     1
 45
0.0
1001
ACAD
1000
AcDbSavedByObjectVersion
1070
     0
  0
VISUALSTYLE
  5
9C2
102
{ACAD_REACTORS
330
9B3
102
}
102
{ACAD_XDICTIONARY
360
BDD
102
}
330
9B3
100
AcDbVisualStyle
  2
Facepattern
 70
    15
 71
     2
 72
     2
 73
     0
 90
        0
 40
0.6
 41
30.0
 62
     5
 63
     7
 74
     1
 91
        4
 64
     7
 65
   257
 75
     1
175
     1
 42
1.0
 92
        8
 66
     7
 43
1.0
 76
     1
 77
     6
 78
     2
 67
     7
 79
     5
170
     0
171
     0
290
     0
174
     0
 93
        1
 44
0.0
173
     0
291
     1
 45
0.0
1001
ACAD
1000
AcDbSavedByObjectVersion
1070
     0
  0
VISUALSTYLE
  5
9B4
102
{ACAD_REACTORS
330
9B3
102
}
102
{ACAD_XDICTIONARY
360
BDF
102
}
330
9B3
100
AcDbVisualStyle
  2
Flat
 70
     0
 71
     2
 72
     1
 73
     1
 90
        2
 40
0.6
 41
30.0
 62
     5
 63
     7
 74
     0
 91
        0
 64
     7
 65
   257
 75
     1
175
     1
 42
1.0
 92
        8
 66
     7
 43
1.0
 76
     1
 77
     6
 78
     2
 67
     7
 79
     5
170
     0
171
     0
290
     0
174
     0
 93
       13
 44
0.0
173
     0
291
     1
 45
0.0
1001
ACAD
1000
AcDbSavedByObjectVersion
1070
     0
  0
VISUALSTYLE
  5
9B5
102
{ACAD_REACTORS
330
9B3
102
}
102
{ACAD_XDICTIONARY
360
BE1
102
}
330
9B3
100
AcDbVisualStyle
  2
FlatWithEdges
 70
     1
 71
     2
 72
     1
 73
     1
 90
        2
 40
0.6
 41
30.0
 62
     5
 63
     7
 74
     1
 91
        0
 64
     7
 65
   257
 75
     1
175
     1
 42
1.0
 92
        0
 66
   257
 43
1.0
 76
     1
 77
     6
 78
     2
 67
     7
 79
     5
170
     0
171
     0
290
     0
174
     0
 93
       13
 44
0.0
173
     0
291
     1
 45
0.0
1001
ACAD
1000
AcDbSavedByObjectVersion
1070
     0
  0
VISUALSTYLE
  5
9B6
102
{ACAD_REACTORS
330
9B3
102
}
102
{ACAD_XDICTIONARY
360
BE3
102
}
330
9B3
100
AcDbVisualStyle
  2
Gouraud
 70
     2
 71
     2
 72
     2
 73
     1
 90
        2
 40
0.6
 41
30.0
 62
     5
 63
     7
 74
     0
 91
        0
 64
     7
 65
   257
 75
     1
175
     1
 42
1.0
 92
        0
 66
     7
 43
1.0
 76
     1
 77
     6
 78
     2
 67
     7
 79
     5
170
     0
171
     0
290
     0
174
     0
 93
       13
 44
0.0
173
     0
291
     1
 45
0.0
1001
ACAD
1000
AcDbSavedByObjectVersion
1070
     0
  0
VISUALSTYLE
  5
9B7
102
{ACAD_REACTORS
330
9B3
102
}
102
{ACAD_XDICTIONARY
360
BE5
102
}
330
9B3
100
AcDbVisualStyle
  2
GouraudWithEdges
 70
     3
 71
     2
 72
     2
 73
     1
 90
        2
 40
0.6
 41
30.0
 62
     5
 63
     7
 74
     1
 91
        0
 64
     7
 65
   257
 75
     1
175
     1
 42
1.0
 92
        0
 66
   257
 43
1.0
 76
     1
 77
     6
 78
     2
 67
     7
 79
     5
170
     0
171
     0
290
     0
174
     0
 93
       13
 44
0.0
173
     0
291
     1
 45
0.0
1001
ACAD
1000
AcDbSavedByObjectVersion
1070
     0
  0
VISUALSTYLE
  5
9BB
102
{ACAD_REACTORS
330
9B3
102
}
102
{ACAD_XDICTIONARY
360
BE7
102
}
330
9B3
100
AcDbVisualStyle
  2
Hidden
 70
     6
 71
     1
 72
     2
 73
     2
 90
        0
 40
0.6
 41
30.0
 62
     5
 63
     7
 74
     2
 91
        2
 64
     7
 65
   257
 75
     2
175
     1
 42
40.0
 92
        0
 66
   257
 43
1.0
 76
     1
 77
     6
 78
     2
 67
     7
 79
     3
170
     0
171
     0
290
     0
174
     0
 93
        1
 44
0.0
173
     0
291
     0
 45
0.0
1001
ACAD
1000
AcDbSavedByObjectVersion
1070
     0
  0
VISUALSTYLE
  5
9C9
102
{ACAD_REACTORS
330
9B3
102
}
102
{ACAD_XDICTIONARY
360
BE9
102
}
330
9B3
100
AcDbVisualStyle
  2
JitterOff
 70
    20
 71
     2
 72
     2
 73
     0
 90
        0
 40
0.6
 41
30.0
 62
     5
 63
     7
 74
     1
 91
        4
 64
     7
 65
   257
 75
     1
175
     1
 42
1.0
 92
       10
 66
     7
 43
1.0
 76
     1
 77
     6
 78
     2
 67
     7
 79
     5
170
     0
171
     0
290
     0
174
     0
 93
        1
 44
0.0
173
     0
291
     1
 45
0.0
1001
ACAD
1000
AcDbSavedByObjectVersion
1070
     0
  0
VISUALSTYLE
  5
9C1
102
{ACAD_REACTORS
330
9B3
102
}
102
{ACAD_XDICTIONARY
360
BEB
102
}
330
9B3
100
AcDbVisualStyle
  2
Linepattern
 70
    14
 71
     2
 72
     2
 73
     0
 90
        0
 40
0.6
 41
30.0
 62
     5
 63
     7
 74
     1
 91
        4
 64
     7
 65
   257
 75
     7
175
     7
 42
1.0
 92
        8
 66
     7
 43
1.0
 76
     1
 77
     6
 78
     2
 67
     7
 79
     5
170
     0
171
     0
290
     0
174
     0
 93
        1
 44
0.0
173
     0
291
     1
 45
0.0
1001
ACAD
1000
AcDbSavedByObjectVersion
1070
     0
  0
VISUALSTYLE
  5
9CA
102
{ACAD_REACTORS
330
9B3
102
}
102
{ACAD_XDICTIONARY
360
BED
102
}
330
9B3
100
AcDbVisualStyle
  2
OverhangOff
 70
    21
 71
     2
 72
     2
 73
     0
 90
        0
 40
0.6
 41
30.0
 62
     5
 63
     7
 74
     1
 91
        4
 64
     7
 65
   257
 75
     1
175
     1
 42
1.0
 92
        9
 66
     7
 43
1.0
 76
     1
 77
     6
 78
     2
 67
     7
 79
     5
170
     0
171
     0
290
     0
174
     0
 93
        1
 44
0.0
173
     0
291
     1
 45
0.0
1001
ACAD
1000
AcDbSavedByObjectVersion
1070
     0
  0
VISUALSTYLE
  5
9BD
102
{ACAD_REACTORS
330
9B3
102
}
102
{ACAD_XDICTIONARY
360
BEF
102
}
330
9B3
100
AcDbVisualStyle
  2
Realistic
 70
     8
 71
     2
 72
     3
 73
     0
 90
        2
 40
0.6
 41
30.0
 62
     5
 63
     7
 74
     0
 91
        0
 64
     7
 65
   257
 75
     1
175
     1
 42
1.0
 92
        8
 66
   257
 43
1.0
 76
     1
 77
     6
 78
     2
 67
     7
 79
     3
170
     0
171
     0
290
     0
174
     0
 93
       13
 44
0.0
173
     0
291
     0
 45
0.0
1001
ACAD
1000
AcDbSavedByObjectVersion
1070
     0
  0
VISUALSTYLE
  5
9C8
102
{ACAD_REACTORS
330
9B3
102
}
102
{ACAD_XDICTIONARY
360
BF1
102
}
330
9B3
100
AcDbVisualStyle
  2
Shaded
 70
    27
 71
     2
 72
     2
 73
     1
 90
        2
 40
0.6
 41
30.0
 62
     5
 63
     7
 74
     0
 91
        4
 64
     7
 65
   257
 75
     1
175
     1
 42
1.0
 92
        8
 66
   257
 43
1.0
 76
     1
 77
     6
 78
     2
 67
     8
 79
     3
170
     0
171
     0
290
     0
174
     0
 93
        5
 44
0.0
173
     0
291
     0
 45
0.0
1001
ACAD
1000
AcDbSavedByObjectVersion
1070
     0
  0
VISUALSTYLE
  5
9C7
102
{ACAD_REACTORS
330
9B3
102
}
102
{ACAD_XDICTIONARY
360
BF3
102
}
330
9B3
100
AcDbVisualStyle
  2
Shaded with edges
 70
    26
 71
     2
 72
     2
 73
     1
 90
        2
 40
0.6
 41
30.0
 62
     5
 63
     7
 74
     1
 91
       10
 64
     7
 65
   257
 75
     2
175
     1
 42
1.0
 92
        8
 66
   257
 43
1.0
 76
     1
 77
     6
 78
     2
 67
     7
 79
     3
170
     0
171
     0
290
     0
174
     0
 93
        5
 44
0.0
173
     0
291
     0
 45
0.0
1001
ACAD
1000
AcDbSavedByObjectVersion
1070
     0
  0
VISUALSTYLE
  5
9C4
102
{ACAD_REACTORS
330
9B3
102
}
102
{ACAD_XDICTIONARY
360
BF5
102
}
330
9B3
100
AcDbVisualStyle
  2
Shades of Gray
 70
    23
 71
     2
 72
     2
 73
     3
 90
        0
 40
0.6
 41
30.0
 62
     5
 63
     7
 74
     2
 91
        2
 64
     7
 65
     7
 75
     1
175
     1
 42
40.0
 92
        8
 66
     7
 43
1.0
 76
     1
 77
     6
 78
     2
 67
     7
 79
     3
170
     0
171
     0
290
     0
174
     0
 93
        1
 44
0.0
173
     0
291
     0
 45
0.0
1001
ACAD
1000
AcDbSavedByObjectVersion
1070
     0
  0
VISUALSTYLE
  5
9C5
102
{ACAD_REACTORS
330
9B3
102
}
102
{ACAD_XDICTIONARY
360
BF7
102
}
330
9B3
100
AcDbVisualStyle
  2
Sketchy
 70
    24
 71
     1
 72
     2
 73
     2
 90
        0
 40
0.6
 41
30.0
 62
     5
 63
     7
 74
     2
 91
        2
 64
     7
 65
     7
 75
     1
175
     1
 42
40.0
 92
       11
 66
     7
 43
1.0
 76
     1
 77
     6
 78
     2
 67
     7
 79
     6
170
     0
171
     0
290
     0
174
     0
 93
        1
 44
0.0
173
     0
291
     0
 45
0.0
1001
ACAD
1000
AcDbSavedByObjectVersion
1070
     0
  0
VISUALSTYLE
  5
9C0
102
{ACAD_REACTORS
330
9B3
102
}
102
{ACAD_XDICTIONARY
360
BF9
102
}
330
9B3
100
AcDbVisualStyle
  2
Thicken
 70
    13
 71
     2
 72
     2
 73
     0
 90
        0
 40
0.6
 41
30.0
 62
     5
 63
     7
 74
     1
 91
        4
 64
     7
 65
   257
 75
     1
175
     1
 42
1.0
 92
       12
 66
     7
 43
1.0
 76
     1
 77
     6
 78
     2
 67
     7
 79
     5
170
     0
171
     0
290
     0
174
     0
 93
        1
 44
0.0
173
     0
291
     1
 45
0.0
1001
ACAD
1000
AcDbSavedByObjectVersion
1070
     0
  0
VISUALSTYLE
  5
9BA
102
{ACAD_REACTORS
330
9B3
102
}
102
{ACAD_XDICTIONARY
360
BFB
102
}
330
9B3
100
AcDbVisualStyle
  2
Wireframe
 70
     5
 71
     0
 72
     2
 73
     0
 90
        0
 40
0.6
 41
30.0
 62
     5
 63
     7
 74
     1
 91
        4
 64
     7
 65
   257
 75
     1
175
     1
 42
1.0
 92
        0
 66
   257
 43
1.0
 76
     1
 77
     6
 78
     2
 67
     7
 79
     3
170
     0
171
     0
290
     0
174
     0
 93
        1
 44
0.0
173
     0
291
     0
 45
0.0
1001
ACAD
1000
AcDbSavedByObjectVersion
1070
     0
  0
VISUALSTYLE
  5
9C6
102
{ACAD_REACTORS
330
9B3
102
}
102
{ACAD_XDICTIONARY
360
BFD
102
}
330
9B3
100
AcDbVisualStyle
  2
X-Ray
 70
    25
 71
     2
 72
     2
 73
     1
 90
        1
 40
0.5
 41
30.0
 62
     5
 63
     7
 74
     1
 91
        0
 64
     7
 65
   257
 75
     1
175
     1
 42
1.0
 92
        8
 66
     7
 43
1.0
 76
     1
 77
     6
 78
     2
 67
     7
 79
     3
170
     0
171
     0
290
     0
174
     0
 93
       13
 44
0.0
173
     0
291
     0
 45
0.0
1001
ACAD
1000
AcDbSavedByObjectVersion
1070
     0
  0
XRECORD
  5
BC0
102
{ACAD_REACTORS
330
BBF
102
}
330
BBF
100
AcDbXrecord
280
     1
340
9CC
  0
XRECORD
  5
BC1
102
{ACAD_REACTORS
330
BBF
102
}
330
BBF
100
AcDbXrecord
280
     1
340
99A
  0
DICTIONARYVAR
  5
A0B
102
{ACAD_REACTORS
330
95F
102
}
330
95F
100
DictionaryVariables
280
     0
  1
1:1
  0
DICTIONARYVAR
  5
A07
102
{ACAD_REACTORS
330
95F
102
}
330
95F
100
DictionaryVariables
280
     0
  1
Standard
  0
DICTIONARYVAR
  5
A06
102
{ACAD_REACTORS
330
95F
102
}
330
95F
100
DictionaryVariables
280
     0
  1
Standard
  0
DICTIONARYVAR
  5
A08
102
{ACAD_REACTORS
330
95F
102
}
330
95F
100
DictionaryVariables
280
     0
  1
Imperial24
  0
DICTIONARYVAR
  5
A09
102
{ACAD_REACTORS
330
95F
102
}
330
95F
100
DictionaryVariables
280
     0
  1
Imperial24
  0
DICTIONARYVAR
  5
961
102
{ACAD_REACTORS
330
95F
102
}
330
95F
100
DictionaryVariables
280
     0
  1
0
  0
DICTIONARYVAR
  5
960
102
{ACAD_REACTORS
330
95F
102
}
330
95F
100
DictionaryVariables
280
     0
  1
1
  0
DICTIONARYVAR
  5
A0D
102
{ACAD_REACTORS
330
95F
102
}
330
95F
100
DictionaryVariables
280
     0
  1
1
  0
DICTIONARYVAR
  5
A0E
102
{ACAD_REACTORS
330
95F
102
}
330
95F
100
DictionaryVariables
280
     0
  1
15
  0
DICTIONARYVAR
  5
A0C
102
{ACAD_REACTORS
330
95F
102
}
330
95F
100
DictionaryVariables
280
     0
  1
0
  0
DICTIONARYVAR
  5
A0A
102
{ACAD_REACTORS
330
95F
102
}
330
95F
100
DictionaryVariables
280
     0
  1
0
  0
DICTIONARYVAR
  5
B11
102
{ACAD_REACTORS
330
95F
102
}
330
95F
100
DictionaryVariables
280
     0
  1
0
  0
DICTIONARY
  5
A03
330
9E6
100
AcDbDictionary
280
     1
281
     1
  3
ACAD_XREC_ROUNDTRIP
360
BC5
  0
DICTIONARY
  5
BC6
330
9A3
100
AcDbDictionary
280
     1
281
     1
  3
ACAD_XREC_ROUNDTRIP
360
BC7
  0
DICTIONARY
  5
BC8
330
99B
100
AcDbDictionary
280
     1
281
     1
  3
ACAD_XREC_ROUNDTRIP
360
BC9
  0
DICTIONARY
  5
BCA
330
9AB
100
AcDbDictionary
280
     1
281
     1
  3
ACAD_XREC_ROUNDTRIP
360
BCB
  0
DICTIONARY
  5
BCC
330
9E2
100
AcDbDictionary
280
     1
281
     1
  3
ACAD_XREC_ROUNDTRIP
360
BCD
  0
DICTIONARY
  5
A01
330
9E4
100
AcDbDictionary
280
     1
281
     1
  3
ACAD_XREC_ROUNDTRIP
360
BCE
  0
DICTIONARY
  5
BCF
330
9B9
100
AcDbDictionary
280
     1
281
     1
  3
ACAD_XREC_ROUNDTRIP
360
BD0
  0
DICTIONARY
  5
BD1
330
9B8
100
AcDbDictionary
280
     1
281
     1
  3
ACAD_XREC_ROUNDTRIP
360
BD2
  0
DICTIONARY
  5
BD3
330
9BF
100
AcDbDictionary
280
     1
281
     1
  3
ACAD_XREC_ROUNDTRIP
360
BD4
  0
DICTIONARY
  5
BD5
330
9C3
100
AcDbDictionary
280
     1
281
     1
  3
ACAD_XREC_ROUNDTRIP
360
BD6
  0
DICTIONARY
  5
BD7
330
9BC
100
AcDbDictionary
280
     1
281
     1
  3
ACAD_XREC_ROUNDTRIP
360
BD8
  0
DICTIONARY
  5
BD9
330
9BE
100
AcDbDictionary
280
     1
281
     1
  3
ACAD_XREC_ROUNDTRIP
360
BDA
  0
DICTIONARY
  5
BDB
330
9CB
100
AcDbDictionary
280
     1
281
     1
  3
ACAD_XREC_ROUNDTRIP
360
BDC
  0
DICTIONARY
  5
BDD
330
9C2
100
AcDbDictionary
280
     1
281
     1
  3
ACAD_XREC_ROUNDTRIP
360
BDE
  0
DICTIONARY
  5
BDF
330
9B4
100
AcDbDictionary
280
     1
281
     1
  3
ACAD_XREC_ROUNDTRIP
360
BE0
  0
DICTIONARY
  5
BE1
330
9B5
100
AcDbDictionary
280
     1
281
     1
  3
ACAD_XREC_ROUNDTRIP
360
BE2
  0
DICTIONARY
  5
BE3
330
9B6
100
AcDbDictionary
280
     1
281
     1
  3
ACAD_XREC_ROUNDTRIP
360
BE4
  0
DICTIONARY
  5
BE5
330
9B7
100
AcDbDictionary
280
     1
281
     1
  3
ACAD_XREC_ROUNDTRIP
360
BE6
  0
DICTIONARY
  5
BE7
330
9BB
100
AcDbDictionary
280
     1
281
     1
  3
ACAD_XREC_ROUNDTRIP
360
BE8
  0
DICTIONARY
  5
BE9
330
9C9
100
AcDbDictionary
280
     1
281
     1
  3
ACAD_XREC_ROUNDTRIP
360
BEA
  0
DICTIONARY
  5
BEB
330
9C1
100
AcDbDictionary
280
     1
281
     1
  3
ACAD_XREC_ROUNDTRIP
360
BEC
  0
DICTIONARY
  5
BED
330
9CA
100
AcDbDictionary
280
     1
281
     1
  3
ACAD_XREC_ROUNDTRIP
360
BEE
  0
DICTIONARY
  5
BEF
330
9BD
100
AcDbDictionary
280
     1
281
     1
  3
ACAD_XREC_ROUNDTRIP
360
BF0
  0
DICTIONARY
  5
BF1
330
9C8
100
AcDbDictionary
280
     1
281
     1
  3
ACAD_XREC_ROUNDTRIP
360
BF2
  0
DICTIONARY
  5
BF3
330
9C7
100
AcDbDictionary
280
     1
281
     1
  3
ACAD_XREC_ROUNDTRIP
360
BF4
  0
DICTIONARY
  5
BF5
330
9C4
100
AcDbDictionary
280
     1
281
     1
  3
ACAD_XREC_ROUNDTRIP
360
BF6
  0
DICTIONARY
  5
BF7
330
9C5
100
AcDbDictionary
280
     1
281
     1
  3
ACAD_XREC_ROUNDTRIP
360
BF8
  0
DICTIONARY
  5
BF9
330
9C0
100
AcDbDictionary
280
     1
281
     1
  3
ACAD_XREC_ROUNDTRIP
360
BFA
  0
DICTIONARY
  5
BFB
330
9BA
100
AcDbDictionary
280
     1
281
     1
  3
ACAD_XREC_ROUNDTRIP
360
BFC
  0
DICTIONARY
  5
BFD
330
9C6
100
AcDbDictionary
280
     1
281
     1
  3
ACAD_XREC_ROUNDTRIP
360
BFE
  0
XRECORD
  5
BC5
102
{ACAD_REACTORS
330
A03
102
}
330
A03
100
AcDbXrecord
280
     1
102
DISPLAYNAME
  1
Imperial24
102
FLAGS
 90
        0
  0
XRECORD
  5
BC7
102
{ACAD_REACTORS
330
BC6
102
}
330
BC6
100
AcDbXrecord
280
     1
102
MATERIAL
148
0.0
149
0.0
149
0.0
 93
        0
 94
      127
282
     0
 72
     0
 77
     0
171
     0
175
     0
179
     0
273
     0
  0
XRECORD
  5
BC9
102
{ACAD_REACTORS
330
BC8
102
}
330
BC8
100
AcDbXrecord
280
     1
102
MATERIAL
148
0.0
149
0.0
149
0.0
 93
        0
 94
      127
282
     0
 72
     0
 77
     0
171
     0
175
     0
179
     0
273
     0
  0
XRECORD
  5
BCB
102
{ACAD_REACTORS
330
BCA
102
}
330
BCA
100
AcDbXrecord
280
     1
102
MATERIAL
148
0.0
149
0.0
149
0.0
 93
        0
 94
      127
282
     0
 72
     0
 77
     0
171
     0
175
     0
179
     0
273
     0
  0
XRECORD
  5
BCD
102
{ACAD_REACTORS
330
BCC
102
}
330
BCC
100
AcDbXrecord
280
     1
102
ACAD_ROUNDTRIP_2012_MLEADER_STYLE
298
     1
  0
XRECORD
  5
BCE
102
{ACAD_REACTORS
330
A01
102
}
330
A01
100
AcDbXrecord
280
     1
102
DISPLAYNAME
  1
Imperial24
102
FLAGS
 90
        0
  0
XRECORD
  5
BD0
102
{ACAD_REACTORS
330
BCF
102
}
330
BCF
100
AcDbXrecord
280
     1
102
RTVSPropertyOp0
 70
     1
102
RTVSPropertyOp1
 70
     1
102
RTVSPropertyOp2
 70
     1
102
RTVSPropertyOp3
 70
     1
102
RTVSPropertyOp4
 70
     1
102
RTVSPropertyOp5
 70
     1
102
RTVSPropertyOp6
 70
     1
102
RTVSPropertyOp7
 70
     1
102
RTVSPropertyOp8
 70
     1
102
RTVSPropertyOp9
 70
     1
102
RTVSPropertyOp10
 70
     1
102
RTVSPropertyOp11
 70
     1
102
RTVSPropertyOp12
 70
     1
102
RTVSPropertyOp13
 70
     1
102
RTVSPropertyOp14
 70
     1
102
RTVSPropertyOp15
 70
     1
102
RTVSPropertyOp16
 70
     1
102
RTVSPropertyOp17
 70
     1
102
RTVSPropertyOp18
 70
     1
102
RTVSPropertyOp19
 70
     1
102
RTVSPropertyOp20
 70
     1
102
RTVSPropertyOp21
 70
     1
102
RTVSPropertyOp22
 70
     1
102
RTVSPropertyOp23
 70
     1
102
RTVSPropertyOp24
 70
     1
102
RTVSPropertyOp25
 70
     1
102
RTVSPropertyOp26
 70
     1
102
RTVSPropertyOp27
 70
     1
102
RTVSPropertyOp28
 70
     1
102
RTVSPropertyOp29
 70
     1
102
RTVSPropertyOp30
 70
     1
102
RTVSPropertyOp31
 70
     1
102
RTVSPropertyOp32
 70
     1
102
RTVSPropertyOp33
 70
     1
102
RTVSPropertyOp34
 70
     1
102
RTVSPropertyOp35
 70
     1
102
RTVSPropertyOp36
 70
     1
102
RTVSPropertyOp37
 70
     1
102
RTVSPropertyOp38
 70
     1
102
RTVSPropertyOp39
 70
     1
102
RTVSPropertyOp40
 70
     1
102
RTVSPropertyOp41
 70
     1
102
RTVSPropertyOp42
 70
     1
102
RTVSPropertyOp43
 70
     1
102
RTVSPropertyOp44
 70
     1
102
RTVSPropertyOp45
 70
     1
102
RTVSPropertyOp46
 70
     1
102
RTVSPropertyOp47
 70
     1
102
RTVSPropertyOp48
 70
     1
102
RTVSPropertyOp49
 70
     1
102
RTVSPropertyOp50
 70
     1
102
RTVSPropertyOp51
 70
     0
102
RTVSPropertyOp52
 70
     0
102
RTVSPropertyOp53
 70
     1
102
RTVSPropertyOp54
 70
     1
102
RTVSPropertyOp55
 70
     1
102
RTVSPropertyOp56
 70
     1
102
RTVSPropertyOp57
 70
     1
102
RTVSPost2010Prop28
280
     1
102
RTVSPost2010PropOp28
 70
     1
102
RTVSPost2010Prop29
280
     1
102
RTVSPost2010PropOp29
 70
     1
102
RTVSPost2010Prop30
280
     0
102
RTVSPost2010PropOp30
 70
     1
102
RTVSPost2010Prop31
280
     0
102
RTVSPost2010PropOp31
 70
     1
102
RTVSPost2010Prop32
280
     0
102
RTVSPost2010PropOp32
 70
     1
102
RTVSPost2010Prop33
280
     0
102
RTVSPost2010PropOp33
 70
     1
102
RTVSPost2010Prop34
280
     0
102
RTVSPost2010PropOp34
 70
     1
102
RTVSPost2010Prop35
280
     0
102
RTVSPost2010PropOp35
 70
     1
102
RTVSPost2010Prop36
280
     0
102
RTVSPost2010PropOp36
 70
     1
102
RTVSPost2010Prop37
 90
       50
102
RTVSPost2010PropOp37
 70
     1
102
RTVSPost2010Prop38
140
0.0
102
RTVSPost2010PropOp38
 70
     1
102
RTVSPost2010Prop39
140
1.0
102
RTVSPost2010PropOp39
 70
     1
102
RTVSPost2010Prop40
 90
        0
102
RTVSPost2010PropOp40
 70
     1
102
RTVSPost2010Prop41ColorIndex
 90
       18
102
RTVSPost2010Prop41ColorRGB
 90
        0
102
RTVSPost2010PropOp41
 70
     1
102
RTVSPost2010Prop42
 90
       50
102
RTVSPost2010PropOp42
 70
     1
102
RTVSPost2010Prop43
 90
        3
102
RTVSPost2010PropOp43
 70
     1
102
RTVSPost2010Prop44ColorIndex
 90
        5
102
RTVSPost2010Prop44ColorRGB
 90
      255
102
RTVSPost2010PropOp44
 70
     1
102
RTVSPost2010Prop45
280
     0
102
RTVSPost2010PropOp45
 70
     1
102
RTVSPost2010Prop46
 90
       50
102
RTVSPost2010PropOp46
 70
     1
102
RTVSPost2010Prop47
 90
       50
102
RTVSPost2010PropOp47
 70
     1
102
RTVSPost2010Prop48
 90
       50
102
RTVSPost2010PropOp48
 70
     1
102
RTVSPost2010Prop49
280
     0
102
RTVSPost2010PropOp49
 70
     1
102
RTVSPost2010Prop50
 90
       50
102
RTVSPost2010PropOp50
 70
     1
102
RTVSPost2010Prop51ColorIndex
 90
      256
102
RTVSPost2010Prop51ColorRGB
 90
-16777216
102
RTVSPost2010PropOp51
 70
     0
102
RTVSPost2010Prop52
140
1.0
102
RTVSPost2010PropOp52
 70
     0
102
RTVSPost2010Prop53
 90
        2
102
RTVSPost2010PropOp53
 70
     1
102
RTVSPost2010Prop54
  1
strokes_ogs.tif
102
RTVSPost2010PropOp54
 70
     1
102
RTVSPost2010Prop55
280
     0
102
RTVSPost2010PropOp55
 70
     1
102
RTVSPost2010Prop56
140
1.0
102
RTVSPost2010PropOp56
 70
     1
102
RTVSPost2010Prop57
140
1.0
102
RTVSPost2010PropOp57
 70
     1
  0
XRECORD
  5
BD2
102
{ACAD_REACTORS
330
BD1
102
}
330
BD1
100
AcDbXrecord
280
     1
102
RTVSPropertyOp0
 70
     1
102
RTVSPropertyOp1
 70
     1
102
RTVSPropertyOp2
 70
     1
102
RTVSPropertyOp3
 70
     1
102
RTVSPropertyOp4
 70
     1
102
RTVSPropertyOp5
 70
     1
102
RTVSPropertyOp6
 70
     1
102
RTVSPropertyOp7
 70
     1
102
RTVSPropertyOp8
 70
     1
102
RTVSPropertyOp9
 70
     1
102
RTVSPropertyOp10
 70
     1
102
RTVSPropertyOp11
 70
     1
102
RTVSPropertyOp12
 70
     1
102
RTVSPropertyOp13
 70
     1
102
RTVSPropertyOp14
 70
     1
102
RTVSPropertyOp15
 70
     1
102
RTVSPropertyOp16
 70
     1
102
RTVSPropertyOp17
 70
     1
102
RTVSPropertyOp18
 70
     1
102
RTVSPropertyOp19
 70
     1
102
RTVSPropertyOp20
 70
     1
102
RTVSPropertyOp21
 70
     1
102
RTVSPropertyOp22
 70
     1
102
RTVSPropertyOp23
 70
     1
102
RTVSPropertyOp24
 70
     1
102
RTVSPropertyOp25
 70
     1
102
RTVSPropertyOp26
 70
     1
102
RTVSPropertyOp27
 70
     1
102
RTVSPropertyOp28
 70
     1
102
RTVSPropertyOp29
 70
     1
102
RTVSPropertyOp30
 70
     1
102
RTVSPropertyOp31
 70
     1
102
RTVSPropertyOp32
 70
     1
102
RTVSPropertyOp33
 70
     1
102
RTVSPropertyOp34
 70
     1
102
RTVSPropertyOp35
 70
     1
102
RTVSPropertyOp36
 70
     1
102
RTVSPropertyOp37
 70
     1
102
RTVSPropertyOp38
 70
     1
102
RTVSPropertyOp39
 70
     1
102
RTVSPropertyOp40
 70
     1
102
RTVSPropertyOp41
 70
     1
102
RTVSPropertyOp42
 70
     1
102
RTVSPropertyOp43
 70
     1
102
RTVSPropertyOp44
 70
     1
102
RTVSPropertyOp45
 70
     1
102
RTVSPropertyOp46
 70
     1
102
RTVSPropertyOp47
 70
     1
102
RTVSPropertyOp48
 70
     1
102
RTVSPropertyOp49
 70
     1
102
RTVSPropertyOp50
 70
     1
102
RTVSPropertyOp51
 70
     0
102
RTVSPropertyOp52
 70
     0
102
RTVSPropertyOp53
 70
     1
102
RTVSPropertyOp54
 70
     1
102
RTVSPropertyOp55
 70
     1
102
RTVSPropertyOp56
 70
     1
102
RTVSPropertyOp57
 70
     1
102
RTVSPost2010Prop28
280
     0
102
RTVSPost2010PropOp28
 70
     1
102
RTVSPost2010Prop29
280
     1
102
RTVSPost2010PropOp29
 70
     1
102
RTVSPost2010Prop30
280
     1
102
RTVSPost2010PropOp30
 70
     1
102
RTVSPost2010Prop31
280
     0
102
RTVSPost2010PropOp31
 70
     1
102
RTVSPost2010Prop32
280
     0
102
RTVSPost2010PropOp32
 70
     1
102
RTVSPost2010Prop33
280
     0
102
RTVSPost2010PropOp33
 70
     1
102
RTVSPost2010Prop34
280
     0
102
RTVSPost2010PropOp34
 70
     1
102
RTVSPost2010Prop35
280
     0
102
RTVSPost2010PropOp35
 70
     1
102
RTVSPost2010Prop36
280
     0
102
RTVSPost2010PropOp36
 70
     1
102
RTVSPost2010Prop37
 90
       50
102
RTVSPost2010PropOp37
 70
     1
102
RTVSPost2010Prop38
140
0.0
102
RTVSPost2010PropOp38
 70
     1
102
RTVSPost2010Prop39
140
1.0
102
RTVSPost2010PropOp39
 70
     1
102
RTVSPost2010Prop40
 90
        0
102
RTVSPost2010PropOp40
 70
     1
102
RTVSPost2010Prop41ColorIndex
 90
       18
102
RTVSPost2010Prop41ColorRGB
 90
        0
102
RTVSPost2010PropOp41
 70
     1
102
RTVSPost2010Prop42
 90
       50
102
RTVSPost2010PropOp42
 70
     1
102
RTVSPost2010Prop43
 90
        3
102
RTVSPost2010PropOp43
 70
     1
102
RTVSPost2010Prop44ColorIndex
 90
        5
102
RTVSPost2010Prop44ColorRGB
 90
      255
102
RTVSPost2010PropOp44
 70
     1
102
RTVSPost2010Prop45
280
     0
102
RTVSPost2010PropOp45
 70
     1
102
RTVSPost2010Prop46
 90
       50
102
RTVSPost2010PropOp46
 70
     1
102
RTVSPost2010Prop47
 90
       50
102
RTVSPost2010PropOp47
 70
     1
102
RTVSPost2010Prop48
 90
       50
102
RTVSPost2010PropOp48
 70
     1
102
RTVSPost2010Prop49
280
     0
102
RTVSPost2010PropOp49
 70
     1
102
RTVSPost2010Prop50
 90
       50
102
RTVSPost2010PropOp50
 70
     1
102
RTVSPost2010Prop51ColorIndex
 90
      256
102
RTVSPost2010Prop51ColorRGB
 90
-16777216
102
RTVSPost2010PropOp51
 70
     0
102
RTVSPost2010Prop52
140
1.0
102
RTVSPost2010PropOp52
 70
     0
102
RTVSPost2010Prop53
 90
        2
102
RTVSPost2010PropOp53
 70
     1
102
RTVSPost2010Prop54
  1
strokes_ogs.tif
102
RTVSPost2010PropOp54
 70
     1
102
RTVSPost2010Prop55
280
     0
102
RTVSPost2010PropOp55
 70
     1
102
RTVSPost2010Prop56
140
1.0
102
RTVSPost2010PropOp56
 70
     1
102
RTVSPost2010Prop57
140
1.0
102
RTVSPost2010PropOp57
 70
     1
  0
XRECORD
  5
BD4
102
{ACAD_REACTORS
330
BD3
102
}
330
BD3
100
AcDbXrecord
280
     1
102
RTVSPropertyOp0
 70
     1
102
RTVSPropertyOp1
 70
     1
102
RTVSPropertyOp2
 70
     1
102
RTVSPropertyOp3
 70
     1
102
RTVSPropertyOp4
 70
     1
102
RTVSPropertyOp5
 70
     1
102
RTVSPropertyOp6
 70
     1
102
RTVSPropertyOp7
 70
     1
102
RTVSPropertyOp8
 70
     1
102
RTVSPropertyOp9
 70
     1
102
RTVSPropertyOp10
 70
     1
102
RTVSPropertyOp11
 70
     1
102
RTVSPropertyOp12
 70
     1
102
RTVSPropertyOp13
 70
     1
102
RTVSPropertyOp14
 70
     1
102
RTVSPropertyOp15
 70
     1
102
RTVSPropertyOp16
 70
     1
102
RTVSPropertyOp17
 70
     1
102
RTVSPropertyOp18
 70
     1
102
RTVSPropertyOp19
 70
     1
102
RTVSPropertyOp20
 70
     1
102
RTVSPropertyOp21
 70
     1
102
RTVSPropertyOp22
 70
     1
102
RTVSPropertyOp23
 70
     1
102
RTVSPropertyOp24
 70
     1
102
RTVSPropertyOp25
 70
     1
102
RTVSPropertyOp26
 70
     1
102
RTVSPropertyOp27
 70
     1
102
RTVSPropertyOp28
 70
     1
102
RTVSPropertyOp29
 70
     1
102
RTVSPropertyOp30
 70
     1
102
RTVSPropertyOp31
 70
     1
102
RTVSPropertyOp32
 70
     1
102
RTVSPropertyOp33
 70
     1
102
RTVSPropertyOp34
 70
     1
102
RTVSPropertyOp35
 70
     1
102
RTVSPropertyOp36
 70
     1
102
RTVSPropertyOp37
 70
     1
102
RTVSPropertyOp38
 70
     1
102
RTVSPropertyOp39
 70
     1
102
RTVSPropertyOp40
 70
     1
102
RTVSPropertyOp41
 70
     1
102
RTVSPropertyOp42
 70
     1
102
RTVSPropertyOp43
 70
     1
102
RTVSPropertyOp44
 70
     1
102
RTVSPropertyOp45
 70
     1
102
RTVSPropertyOp46
 70
     1
102
RTVSPropertyOp47
 70
     1
102
RTVSPropertyOp48
 70
     1
102
RTVSPropertyOp49
 70
     1
102
RTVSPropertyOp50
 70
     1
102
RTVSPropertyOp51
 70
     0
102
RTVSPropertyOp52
 70
     0
102
RTVSPropertyOp53
 70
     1
102
RTVSPropertyOp54
 70
     1
102
RTVSPropertyOp55
 70
     1
102
RTVSPropertyOp56
 70
     1
102
RTVSPropertyOp57
 70
     1
102
RTVSPost2010Prop28
280
     0
102
RTVSPost2010PropOp28
 70
     1
102
RTVSPost2010Prop29
280
     1
102
RTVSPost2010PropOp29
 70
     1
102
RTVSPost2010Prop30
280
     1
102
RTVSPost2010PropOp30
 70
     1
102
RTVSPost2010Prop31
280
     0
102
RTVSPost2010PropOp31
 70
     1
102
RTVSPost2010Prop32
280
     0
102
RTVSPost2010PropOp32
 70
     1
102
RTVSPost2010Prop33
280
     0
102
RTVSPost2010PropOp33
 70
     1
102
RTVSPost2010Prop34
280
     0
102
RTVSPost2010PropOp34
 70
     1
102
RTVSPost2010Prop35
280
     0
102
RTVSPost2010PropOp35
 70
     1
102
RTVSPost2010Prop36
280
     0
102
RTVSPost2010PropOp36
 70
     1
102
RTVSPost2010Prop37
 90
       50
102
RTVSPost2010PropOp37
 70
     1
102
RTVSPost2010Prop38
140
0.0
102
RTVSPost2010PropOp38
 70
     1
102
RTVSPost2010Prop39
140
1.0
102
RTVSPost2010PropOp39
 70
     1
102
RTVSPost2010Prop40
 90
        0
102
RTVSPost2010PropOp40
 70
     1
102
RTVSPost2010Prop41ColorIndex
 90
       18
102
RTVSPost2010Prop41ColorRGB
 90
        0
102
RTVSPost2010PropOp41
 70
     1
102
RTVSPost2010Prop42
 90
       50
102
RTVSPost2010PropOp42
 70
     1
102
RTVSPost2010Prop43
 90
        3
102
RTVSPost2010PropOp43
 70
     1
102
RTVSPost2010Prop44ColorIndex
 90
        5
102
RTVSPost2010Prop44ColorRGB
 90
      255
102
RTVSPost2010PropOp44
 70
     1
102
RTVSPost2010Prop45
280
     0
102
RTVSPost2010PropOp45
 70
     1
102
RTVSPost2010Prop46
 90
       50
102
RTVSPost2010PropOp46
 70
     1
102
RTVSPost2010Prop47
 90
       50
102
RTVSPost2010PropOp47
 70
     1
102
RTVSPost2010Prop48
 90
       50
102
RTVSPost2010PropOp48
 70
     1
102
RTVSPost2010Prop49
280
     0
102
RTVSPost2010PropOp49
 70
     1
102
RTVSPost2010Prop50
 90
       50
102
RTVSPost2010PropOp50
 70
     1
102
RTVSPost2010Prop51ColorIndex
 90
      256
102
RTVSPost2010Prop51ColorRGB
 90
-16777216
102
RTVSPost2010PropOp51
 70
     0
102
RTVSPost2010Prop52
140
1.0
102
RTVSPost2010PropOp52
 70
     0
102
RTVSPost2010Prop53
 90
        2
102
RTVSPost2010PropOp53
 70
     1
102
RTVSPost2010Prop54
  1
strokes_ogs.tif
102
RTVSPost2010PropOp54
 70
     1
102
RTVSPost2010Prop55
280
     0
102
RTVSPost2010PropOp55
 70
     1
102
RTVSPost2010Prop56
140
1.0
102
RTVSPost2010PropOp56
 70
     1
102
RTVSPost2010Prop57
140
1.0
102
RTVSPost2010PropOp57
 70
     1
  0
XRECORD
  5
BD6
102
{ACAD_REACTORS
330
BD5
102
}
330
BD5
100
AcDbXrecord
280
     1
102
RTVSPropertyOp0
 70
     1
102
RTVSPropertyOp1
 70
     1
102
RTVSPropertyOp2
 70
     1
102
RTVSPropertyOp3
 70
     1
102
RTVSPropertyOp4
 70
     1
102
RTVSPropertyOp5
 70
     1
102
RTVSPropertyOp6
 70
     1
102
RTVSPropertyOp7
 70
     1
102
RTVSPropertyOp8
 70
     1
102
RTVSPropertyOp9
 70
     1
102
RTVSPropertyOp10
 70
     1
102
RTVSPropertyOp11
 70
     1
102
RTVSPropertyOp12
 70
     1
102
RTVSPropertyOp13
 70
     1
102
RTVSPropertyOp14
 70
     1
102
RTVSPropertyOp15
 70
     1
102
RTVSPropertyOp16
 70
     1
102
RTVSPropertyOp17
 70
     1
102
RTVSPropertyOp18
 70
     1
102
RTVSPropertyOp19
 70
     1
102
RTVSPropertyOp20
 70
     1
102
RTVSPropertyOp21
 70
     1
102
RTVSPropertyOp22
 70
     1
102
RTVSPropertyOp23
 70
     1
102
RTVSPropertyOp24
 70
     1
102
RTVSPropertyOp25
 70
     1
102
RTVSPropertyOp26
 70
     1
102
RTVSPropertyOp27
 70
     1
102
RTVSPropertyOp28
 70
     1
102
RTVSPropertyOp29
 70
     1
102
RTVSPropertyOp30
 70
     1
102
RTVSPropertyOp31
 70
     1
102
RTVSPropertyOp32
 70
     1
102
RTVSPropertyOp33
 70
     1
102
RTVSPropertyOp34
 70
     1
102
RTVSPropertyOp35
 70
     1
102
RTVSPropertyOp36
 70
     1
102
RTVSPropertyOp37
 70
     1
102
RTVSPropertyOp38
 70
     1
102
RTVSPropertyOp39
 70
     1
102
RTVSPropertyOp40
 70
     1
102
RTVSPropertyOp41
 70
     1
102
RTVSPropertyOp42
 70
     1
102
RTVSPropertyOp43
 70
     1
102
RTVSPropertyOp44
 70
     1
102
RTVSPropertyOp45
 70
     1
102
RTVSPropertyOp46
 70
     1
102
RTVSPropertyOp47
 70
     1
102
RTVSPropertyOp48
 70
     1
102
RTVSPropertyOp49
 70
     1
102
RTVSPropertyOp50
 70
     1
102
RTVSPropertyOp51
 70
     0
102
RTVSPropertyOp52
 70
     0
102
RTVSPropertyOp53
 70
     1
102
RTVSPropertyOp54
 70
     1
102
RTVSPropertyOp55
 70
     1
102
RTVSPropertyOp56
 70
     1
102
RTVSPropertyOp57
 70
     1
102
RTVSPost2010Prop28
280
     0
102
RTVSPost2010PropOp28
 70
     1
102
RTVSPost2010Prop29
280
     1
102
RTVSPost2010PropOp29
 70
     1
102
RTVSPost2010Prop30
280
     1
102
RTVSPost2010PropOp30
 70
     1
102
RTVSPost2010Prop31
280
     0
102
RTVSPost2010PropOp31
 70
     1
102
RTVSPost2010Prop32
280
     0
102
RTVSPost2010PropOp32
 70
     1
102
RTVSPost2010Prop33
280
     0
102
RTVSPost2010PropOp33
 70
     1
102
RTVSPost2010Prop34
280
     0
102
RTVSPost2010PropOp34
 70
     1
102
RTVSPost2010Prop35
280
     0
102
RTVSPost2010PropOp35
 70
     1
102
RTVSPost2010Prop36
280
     0
102
RTVSPost2010PropOp36
 70
     1
102
RTVSPost2010Prop37
 90
       50
102
RTVSPost2010PropOp37
 70
     1
102
RTVSPost2010Prop38
140
0.0
102
RTVSPost2010PropOp38
 70
     1
102
RTVSPost2010Prop39
140
1.0
102
RTVSPost2010PropOp39
 70
     1
102
RTVSPost2010Prop40
 90
        0
102
RTVSPost2010PropOp40
 70
     1
102
RTVSPost2010Prop41ColorIndex
 90
       18
102
RTVSPost2010Prop41ColorRGB
 90
        0
102
RTVSPost2010PropOp41
 70
     1
102
RTVSPost2010Prop42
 90
       50
102
RTVSPost2010PropOp42
 70
     1
102
RTVSPost2010Prop43
 90
        3
102
RTVSPost2010PropOp43
 70
     1
102
RTVSPost2010Prop44ColorIndex
 90
        5
102
RTVSPost2010Prop44ColorRGB
 90
      255
102
RTVSPost2010PropOp44
 70
     1
102
RTVSPost2010Prop45
280
     0
102
RTVSPost2010PropOp45
 70
     1
102
RTVSPost2010Prop46
 90
       50
102
RTVSPost2010PropOp46
 70
     1
102
RTVSPost2010Prop47
 90
       50
102
RTVSPost2010PropOp47
 70
     1
102
RTVSPost2010Prop48
 90
       50
102
RTVSPost2010PropOp48
 70
     1
102
RTVSPost2010Prop49
280
     0
102
RTVSPost2010PropOp49
 70
     1
102
RTVSPost2010Prop50
 90
       50
102
RTVSPost2010PropOp50
 70
     1
102
RTVSPost2010Prop51ColorIndex
 90
      256
102
RTVSPost2010Prop51ColorRGB
 90
-16777216
102
RTVSPost2010PropOp51
 70
     0
102
RTVSPost2010Prop52
140
1.0
102
RTVSPost2010PropOp52
 70
     0
102
RTVSPost2010Prop53
 90
        2
102
RTVSPost2010PropOp53
 70
     1
102
RTVSPost2010Prop54
  1
strokes_ogs.tif
102
RTVSPost2010PropOp54
 70
     1
102
RTVSPost2010Prop55
280
     0
102
RTVSPost2010PropOp55
 70
     1
102
RTVSPost2010Prop56
140
1.0
102
RTVSPost2010PropOp56
 70
     1
102
RTVSPost2010Prop57
140
1.0
102
RTVSPost2010PropOp57
 70
     1
  0
XRECORD
  5
BD8
102
{ACAD_REACTORS
330
BD7
102
}
330
BD7
100
AcDbXrecord
280
     1
102
RTVSPropertyOp0
 70
     1
102
RTVSPropertyOp1
 70
     1
102
RTVSPropertyOp2
 70
     1
102
RTVSPropertyOp3
 70
     1
102
RTVSPropertyOp4
 70
     1
102
RTVSPropertyOp5
 70
     1
102
RTVSPropertyOp6
 70
     1
102
RTVSPropertyOp7
 70
     1
102
RTVSPropertyOp8
 70
     1
102
RTVSPropertyOp9
 70
     1
102
RTVSPropertyOp10
 70
     1
102
RTVSPropertyOp11
 70
     1
102
RTVSPropertyOp12
 70
     1
102
RTVSPropertyOp13
 70
     1
102
RTVSPropertyOp14
 70
     1
102
RTVSPropertyOp15
 70
     1
102
RTVSPropertyOp16
 70
     1
102
RTVSPropertyOp17
 70
     1
102
RTVSPropertyOp18
 70
     1
102
RTVSPropertyOp19
 70
     1
102
RTVSPropertyOp20
 70
     1
102
RTVSPropertyOp21
 70
     1
102
RTVSPropertyOp22
 70
     1
102
RTVSPropertyOp23
 70
     1
102
RTVSPropertyOp24
 70
     1
102
RTVSPropertyOp25
 70
     1
102
RTVSPropertyOp26
 70
     1
102
RTVSPropertyOp27
 70
     1
102
RTVSPropertyOp28
 70
     1
102
RTVSPropertyOp29
 70
     1
102
RTVSPropertyOp30
 70
     1
102
RTVSPropertyOp31
 70
     1
102
RTVSPropertyOp32
 70
     1
102
RTVSPropertyOp33
 70
     1
102
RTVSPropertyOp34
 70
     1
102
RTVSPropertyOp35
 70
     1
102
RTVSPropertyOp36
 70
     1
102
RTVSPropertyOp37
 70
     1
102
RTVSPropertyOp38
 70
     1
102
RTVSPropertyOp39
 70
     1
102
RTVSPropertyOp40
 70
     1
102
RTVSPropertyOp41
 70
     1
102
RTVSPropertyOp42
 70
     1
102
RTVSPropertyOp43
 70
     1
102
RTVSPropertyOp44
 70
     1
102
RTVSPropertyOp45
 70
     1
102
RTVSPropertyOp46
 70
     1
102
RTVSPropertyOp47
 70
     1
102
RTVSPropertyOp48
 70
     1
102
RTVSPropertyOp49
 70
     1
102
RTVSPropertyOp50
 70
     1
102
RTVSPropertyOp51
 70
     0
102
RTVSPropertyOp52
 70
     0
102
RTVSPropertyOp53
 70
     1
102
RTVSPropertyOp54
 70
     1
102
RTVSPropertyOp55
 70
     1
102
RTVSPropertyOp56
 70
     1
102
RTVSPropertyOp57
 70
     1
102
RTVSPost2010Prop28
280
     0
102
RTVSPost2010PropOp28
 70
     1
102
RTVSPost2010Prop29
280
     1
102
RTVSPost2010PropOp29
 70
     1
102
RTVSPost2010Prop30
280
     1
102
RTVSPost2010PropOp30
 70
     1
102
RTVSPost2010Prop31
280
     0
102
RTVSPost2010PropOp31
 70
     1
102
RTVSPost2010Prop32
280
     0
102
RTVSPost2010PropOp32
 70
     1
102
RTVSPost2010Prop33
280
     0
102
RTVSPost2010PropOp33
 70
     1
102
RTVSPost2010Prop34
280
     0
102
RTVSPost2010PropOp34
 70
     1
102
RTVSPost2010Prop35
280
     0
102
RTVSPost2010PropOp35
 70
     1
102
RTVSPost2010Prop36
280
     0
102
RTVSPost2010PropOp36
 70
     1
102
RTVSPost2010Prop37
 90
       50
102
RTVSPost2010PropOp37
 70
     1
102
RTVSPost2010Prop38
140
0.0
102
RTVSPost2010PropOp38
 70
     1
102
RTVSPost2010Prop39
140
1.0
102
RTVSPost2010PropOp39
 70
     1
102
RTVSPost2010Prop40
 90
        0
102
RTVSPost2010PropOp40
 70
     1
102
RTVSPost2010Prop41ColorIndex
 90
       18
102
RTVSPost2010Prop41ColorRGB
 90
        0
102
RTVSPost2010PropOp41
 70
     1
102
RTVSPost2010Prop42
 90
       50
102
RTVSPost2010PropOp42
 70
     1
102
RTVSPost2010Prop43
 90
        3
102
RTVSPost2010PropOp43
 70
     1
102
RTVSPost2010Prop44ColorIndex
 90
        5
102
RTVSPost2010Prop44ColorRGB
 90
      255
102
RTVSPost2010PropOp44
 70
     1
102
RTVSPost2010Prop45
280
     0
102
RTVSPost2010PropOp45
 70
     1
102
RTVSPost2010Prop46
 90
       50
102
RTVSPost2010PropOp46
 70
     1
102
RTVSPost2010Prop47
 90
       50
102
RTVSPost2010PropOp47
 70
     1
102
RTVSPost2010Prop48
 90
       50
102
RTVSPost2010PropOp48
 70
     1
102
RTVSPost2010Prop49
280
     0
102
RTVSPost2010PropOp49
 70
     1
102
RTVSPost2010Prop50
 90
       50
102
RTVSPost2010PropOp50
 70
     1
102
RTVSPost2010Prop51ColorIndex
 90
      256
102
RTVSPost2010Prop51ColorRGB
 90
-16777216
102
RTVSPost2010PropOp51
 70
     0
102
RTVSPost2010Prop52
140
1.0
102
RTVSPost2010PropOp52
 70
     0
102
RTVSPost2010Prop53
 90
        2
102
RTVSPost2010PropOp53
 70
     1
102
RTVSPost2010Prop54
  1
strokes_ogs.tif
102
RTVSPost2010PropOp54
 70
     1
102
RTVSPost2010Prop55
280
     0
102
RTVSPost2010PropOp55
 70
     1
102
RTVSPost2010Prop56
140
1.0
102
RTVSPost2010PropOp56
 70
     1
102
RTVSPost2010Prop57
140
1.0
102
RTVSPost2010PropOp57
 70
     1
  0
XRECORD
  5
BDA
102
{ACAD_REACTORS
330
BD9
102
}
330
BD9
100
AcDbXrecord
280
     1
102
RTVSPropertyOp0
 70
     1
102
RTVSPropertyOp1
 70
     1
102
RTVSPropertyOp2
 70
     1
102
RTVSPropertyOp3
 70
     1
102
RTVSPropertyOp4
 70
     1
102
RTVSPropertyOp5
 70
     1
102
RTVSPropertyOp6
 70
     1
102
RTVSPropertyOp7
 70
     1
102
RTVSPropertyOp8
 70
     1
102
RTVSPropertyOp9
 70
     1
102
RTVSPropertyOp10
 70
     1
102
RTVSPropertyOp11
 70
     1
102
RTVSPropertyOp12
 70
     1
102
RTVSPropertyOp13
 70
     1
102
RTVSPropertyOp14
 70
     1
102
RTVSPropertyOp15
 70
     1
102
RTVSPropertyOp16
 70
     1
102
RTVSPropertyOp17
 70
     1
102
RTVSPropertyOp18
 70
     1
102
RTVSPropertyOp19
 70
     1
102
RTVSPropertyOp20
 70
     1
102
RTVSPropertyOp21
 70
     1
102
RTVSPropertyOp22
 70
     1
102
RTVSPropertyOp23
 70
     1
102
RTVSPropertyOp24
 70
     1
102
RTVSPropertyOp25
 70
     1
102
RTVSPropertyOp26
 70
     1
102
RTVSPropertyOp27
 70
     1
102
RTVSPropertyOp28
 70
     1
102
RTVSPropertyOp29
 70
     1
102
RTVSPropertyOp30
 70
     1
102
RTVSPropertyOp31
 70
     1
102
RTVSPropertyOp32
 70
     1
102
RTVSPropertyOp33
 70
     1
102
RTVSPropertyOp34
 70
     1
102
RTVSPropertyOp35
 70
     1
102
RTVSPropertyOp36
 70
     1
102
RTVSPropertyOp37
 70
     1
102
RTVSPropertyOp38
 70
     1
102
RTVSPropertyOp39
 70
     1
102
RTVSPropertyOp40
 70
     1
102
RTVSPropertyOp41
 70
     1
102
RTVSPropertyOp42
 70
     1
102
RTVSPropertyOp43
 70
     1
102
RTVSPropertyOp44
 70
     1
102
RTVSPropertyOp45
 70
     1
102
RTVSPropertyOp46
 70
     1
102
RTVSPropertyOp47
 70
     1
102
RTVSPropertyOp48
 70
     1
102
RTVSPropertyOp49
 70
     1
102
RTVSPropertyOp50
 70
     1
102
RTVSPropertyOp51
 70
     0
102
RTVSPropertyOp52
 70
     0
102
RTVSPropertyOp53
 70
     1
102
RTVSPropertyOp54
 70
     1
102
RTVSPropertyOp55
 70
     1
102
RTVSPropertyOp56
 70
     1
102
RTVSPropertyOp57
 70
     1
102
RTVSPost2010Prop28
280
     0
102
RTVSPost2010PropOp28
 70
     1
102
RTVSPost2010Prop29
280
     1
102
RTVSPost2010PropOp29
 70
     1
102
RTVSPost2010Prop30
280
     1
102
RTVSPost2010PropOp30
 70
     1
102
RTVSPost2010Prop31
280
     0
102
RTVSPost2010PropOp31
 70
     1
102
RTVSPost2010Prop32
280
     0
102
RTVSPost2010PropOp32
 70
     1
102
RTVSPost2010Prop33
280
     0
102
RTVSPost2010PropOp33
 70
     1
102
RTVSPost2010Prop34
280
     0
102
RTVSPost2010PropOp34
 70
     1
102
RTVSPost2010Prop35
280
     0
102
RTVSPost2010PropOp35
 70
     1
102
RTVSPost2010Prop36
280
     0
102
RTVSPost2010PropOp36
 70
     1
102
RTVSPost2010Prop37
 90
       50
102
RTVSPost2010PropOp37
 70
     1
102
RTVSPost2010Prop38
140
0.0
102
RTVSPost2010PropOp38
 70
     1
102
RTVSPost2010Prop39
140
1.0
102
RTVSPost2010PropOp39
 70
     1
102
RTVSPost2010Prop40
 90
        0
102
RTVSPost2010PropOp40
 70
     1
102
RTVSPost2010Prop41ColorIndex
 90
       18
102
RTVSPost2010Prop41ColorRGB
 90
        0
102
RTVSPost2010PropOp41
 70
     1
102
RTVSPost2010Prop42
 90
       50
102
RTVSPost2010PropOp42
 70
     1
102
RTVSPost2010Prop43
 90
        3
102
RTVSPost2010PropOp43
 70
     1
102
RTVSPost2010Prop44ColorIndex
 90
        5
102
RTVSPost2010Prop44ColorRGB
 90
      255
102
RTVSPost2010PropOp44
 70
     1
102
RTVSPost2010Prop45
280
     0
102
RTVSPost2010PropOp45
 70
     1
102
RTVSPost2010Prop46
 90
       50
102
RTVSPost2010PropOp46
 70
     1
102
RTVSPost2010Prop47
 90
       50
102
RTVSPost2010PropOp47
 70
     1
102
RTVSPost2010Prop48
 90
       50
102
RTVSPost2010PropOp48
 70
     1
102
RTVSPost2010Prop49
280
     0
102
RTVSPost2010PropOp49
 70
     1
102
RTVSPost2010Prop50
 90
       50
102
RTVSPost2010PropOp50
 70
     1
102
RTVSPost2010Prop51ColorIndex
 90
      256
102
RTVSPost2010Prop51ColorRGB
 90
-16777216
102
RTVSPost2010PropOp51
 70
     0
102
RTVSPost2010Prop52
140
1.0
102
RTVSPost2010PropOp52
 70
     0
102
RTVSPost2010Prop53
 90
        2
102
RTVSPost2010PropOp53
 70
     1
102
RTVSPost2010Prop54
  1
strokes_ogs.tif
102
RTVSPost2010PropOp54
 70
     1
102
RTVSPost2010Prop55
280
     0
102
RTVSPost2010PropOp55
 70
     1
102
RTVSPost2010Prop56
140
1.0
102
RTVSPost2010PropOp56
 70
     1
102
RTVSPost2010Prop57
140
1.0
102
RTVSPost2010PropOp57
 70
     1
  0
XRECORD
  5
BDC
102
{ACAD_REACTORS
330
BDB
102
}
330
BDB
100
AcDbXrecord
280
     1
102
RTVSPropertyOp0
 70
     0
102
RTVSPropertyOp1
 70
     0
102
RTVSPropertyOp2
 70
     0
102
RTVSPropertyOp3
 70
     0
102
RTVSPropertyOp4
 70
     0
102
RTVSPropertyOp5
 70
     0
102
RTVSPropertyOp6
 70
     0
102
RTVSPropertyOp7
 70
     0
102
RTVSPropertyOp8
 70
     0
102
RTVSPropertyOp9
 70
     0
102
RTVSPropertyOp10
 70
     0
102
RTVSPropertyOp11
 70
     0
102
RTVSPropertyOp12
 70
     0
102
RTVSPropertyOp13
 70
     0
102
RTVSPropertyOp14
 70
     2
102
RTVSPropertyOp15
 70
     0
102
RTVSPropertyOp16
 70
     0
102
RTVSPropertyOp17
 70
     0
102
RTVSPropertyOp18
 70
     0
102
RTVSPropertyOp19
 70
     0
102
RTVSPropertyOp20
 70
     0
102
RTVSPropertyOp21
 70
     0
102
RTVSPropertyOp22
 70
     0
102
RTVSPropertyOp23
 70
     0
102
RTVSPropertyOp24
 70
     0
102
RTVSPropertyOp25
 70
     0
102
RTVSPropertyOp26
 70
     0
102
RTVSPropertyOp27
 70
     0
102
RTVSPropertyOp28
 70
     0
102
RTVSPropertyOp29
 70
     0
102
RTVSPropertyOp30
 70
     0
102
RTVSPropertyOp31
 70
     0
102
RTVSPropertyOp32
 70
     0
102
RTVSPropertyOp33
 70
     0
102
RTVSPropertyOp34
 70
     0
102
RTVSPropertyOp35
 70
     0
102
RTVSPropertyOp36
 70
     0
102
RTVSPropertyOp37
 70
     0
102
RTVSPropertyOp38
 70
     0
102
RTVSPropertyOp39
 70
     0
102
RTVSPropertyOp40
 70
     0
102
RTVSPropertyOp41
 70
     0
102
RTVSPropertyOp42
 70
     0
102
RTVSPropertyOp43
 70
     0
102
RTVSPropertyOp44
 70
     0
102
RTVSPropertyOp45
 70
     0
102
RTVSPropertyOp46
 70
     0
102
RTVSPropertyOp47
 70
     0
102
RTVSPropertyOp48
 70
     0
102
RTVSPropertyOp49
 70
     0
102
RTVSPropertyOp50
 70
     0
102
RTVSPropertyOp51
 70
     0
102
RTVSPropertyOp52
 70
     0
102
RTVSPropertyOp53
 70
     0
102
RTVSPropertyOp54
 70
     0
102
RTVSPropertyOp55
 70
     0
102
RTVSPropertyOp56
 70
     0
102
RTVSPropertyOp57
 70
     0
102
RTVSPost2010Prop28
280
     0
102
RTVSPost2010PropOp28
 70
     0
102
RTVSPost2010Prop29
280
     1
102
RTVSPost2010PropOp29
 70
     0
102
RTVSPost2010Prop30
280
     1
102
RTVSPost2010PropOp30
 70
     0
102
RTVSPost2010Prop31
280
     0
102
RTVSPost2010PropOp31
 70
     0
102
RTVSPost2010Prop32
280
     0
102
RTVSPost2010PropOp32
 70
     0
102
RTVSPost2010Prop33
280
     0
102
RTVSPost2010PropOp33
 70
     0
102
RTVSPost2010Prop34
280
     0
102
RTVSPost2010PropOp34
 70
     0
102
RTVSPost2010Prop35
280
     0
102
RTVSPost2010PropOp35
 70
     0
102
RTVSPost2010Prop36
280
     0
102
RTVSPost2010PropOp36
 70
     0
102
RTVSPost2010Prop37
 90
       50
102
RTVSPost2010PropOp37
 70
     0
102
RTVSPost2010Prop38
140
0.0
102
RTVSPost2010PropOp38
 70
     0
102
RTVSPost2010Prop39
140
1.0
102
RTVSPost2010PropOp39
 70
     0
102
RTVSPost2010Prop40
 90
        0
102
RTVSPost2010PropOp40
 70
     0
102
RTVSPost2010Prop41ColorIndex
 90
       18
102
RTVSPost2010Prop41ColorRGB
 90
        0
102
RTVSPost2010PropOp41
 70
     0
102
RTVSPost2010Prop42
 90
       50
102
RTVSPost2010PropOp42
 70
     0
102
RTVSPost2010Prop43
 90
        3
102
RTVSPost2010PropOp43
 70
     0
102
RTVSPost2010Prop44ColorIndex
 90
        5
102
RTVSPost2010Prop44ColorRGB
 90
      255
102
RTVSPost2010PropOp44
 70
     0
102
RTVSPost2010Prop45
280
     0
102
RTVSPost2010PropOp45
 70
     0
102
RTVSPost2010Prop46
 90
       50
102
RTVSPost2010PropOp46
 70
     0
102
RTVSPost2010Prop47
 90
       50
102
RTVSPost2010PropOp47
 70
     0
102
RTVSPost2010Prop48
 90
       50
102
RTVSPost2010PropOp48
 70
     0
102
RTVSPost2010Prop49
280
     0
102
RTVSPost2010PropOp49
 70
     0
102
RTVSPost2010Prop50
 90
       50
102
RTVSPost2010PropOp50
 70
     0
102
RTVSPost2010Prop51ColorIndex
 90
      256
102
RTVSPost2010Prop51ColorRGB
 90
-16777216
102
RTVSPost2010PropOp51
 70
     0
102
RTVSPost2010Prop52
140
1.0
102
RTVSPost2010PropOp52
 70
     0
102
RTVSPost2010Prop53
 90
        2
102
RTVSPost2010PropOp53
 70
     0
102
RTVSPost2010Prop54
  1
strokes_ogs.tif
102
RTVSPost2010PropOp54
 70
     0
102
RTVSPost2010Prop55
280
     0
102
RTVSPost2010PropOp55
 70
     0
102
RTVSPost2010Prop56
140
1.0
102
RTVSPost2010PropOp56
 70
     0
102
RTVSPost2010Prop57
140
1.0
102
RTVSPost2010PropOp57
 70
     0
  0
XRECORD
  5
BDE
102
{ACAD_REACTORS
330
BDD
102
}
330
BDD
100
AcDbXrecord
280
     1
102
RTVSPropertyOp0
 70
     1
102
RTVSPropertyOp1
 70
     1
102
RTVSPropertyOp2
 70
     1
102
RTVSPropertyOp3
 70
     1
102
RTVSPropertyOp4
 70
     1
102
RTVSPropertyOp5
 70
     1
102
RTVSPropertyOp6
 70
     1
102
RTVSPropertyOp7
 70
     1
102
RTVSPropertyOp8
 70
     1
102
RTVSPropertyOp9
 70
     1
102
RTVSPropertyOp10
 70
     1
102
RTVSPropertyOp11
 70
     1
102
RTVSPropertyOp12
 70
     1
102
RTVSPropertyOp13
 70
     1
102
RTVSPropertyOp14
 70
     1
102
RTVSPropertyOp15
 70
     1
102
RTVSPropertyOp16
 70
     1
102
RTVSPropertyOp17
 70
     1
102
RTVSPropertyOp18
 70
     1
102
RTVSPropertyOp19
 70
     1
102
RTVSPropertyOp20
 70
     1
102
RTVSPropertyOp21
 70
     1
102
RTVSPropertyOp22
 70
     1
102
RTVSPropertyOp23
 70
     1
102
RTVSPropertyOp24
 70
     1
102
RTVSPropertyOp25
 70
     1
102
RTVSPropertyOp26
 70
     1
102
RTVSPropertyOp27
 70
     1
102
RTVSPropertyOp28
 70
     1
102
RTVSPropertyOp29
 70
     1
102
RTVSPropertyOp30
 70
     1
102
RTVSPropertyOp31
 70
     1
102
RTVSPropertyOp32
 70
     1
102
RTVSPropertyOp33
 70
     1
102
RTVSPropertyOp34
 70
     1
102
RTVSPropertyOp35
 70
     1
102
RTVSPropertyOp36
 70
     1
102
RTVSPropertyOp37
 70
     1
102
RTVSPropertyOp38
 70
     1
102
RTVSPropertyOp39
 70
     1
102
RTVSPropertyOp40
 70
     1
102
RTVSPropertyOp41
 70
     1
102
RTVSPropertyOp42
 70
     1
102
RTVSPropertyOp43
 70
     1
102
RTVSPropertyOp44
 70
     1
102
RTVSPropertyOp45
 70
     1
102
RTVSPropertyOp46
 70
     1
102
RTVSPropertyOp47
 70
     1
102
RTVSPropertyOp48
 70
     1
102
RTVSPropertyOp49
 70
     1
102
RTVSPropertyOp50
 70
     1
102
RTVSPropertyOp51
 70
     0
102
RTVSPropertyOp52
 70
     0
102
RTVSPropertyOp53
 70
     1
102
RTVSPropertyOp54
 70
     1
102
RTVSPropertyOp55
 70
     1
102
RTVSPropertyOp56
 70
     1
102
RTVSPropertyOp57
 70
     1
102
RTVSPost2010Prop28
280
     0
102
RTVSPost2010PropOp28
 70
     1
102
RTVSPost2010Prop29
280
     1
102
RTVSPost2010PropOp29
 70
     1
102
RTVSPost2010Prop30
280
     1
102
RTVSPost2010PropOp30
 70
     1
102
RTVSPost2010Prop31
280
     0
102
RTVSPost2010PropOp31
 70
     1
102
RTVSPost2010Prop32
280
     0
102
RTVSPost2010PropOp32
 70
     1
102
RTVSPost2010Prop33
280
     0
102
RTVSPost2010PropOp33
 70
     1
102
RTVSPost2010Prop34
280
     0
102
RTVSPost2010PropOp34
 70
     1
102
RTVSPost2010Prop35
280
     0
102
RTVSPost2010PropOp35
 70
     1
102
RTVSPost2010Prop36
280
     0
102
RTVSPost2010PropOp36
 70
     1
102
RTVSPost2010Prop37
 90
       50
102
RTVSPost2010PropOp37
 70
     1
102
RTVSPost2010Prop38
140
0.0
102
RTVSPost2010PropOp38
 70
     1
102
RTVSPost2010Prop39
140
1.0
102
RTVSPost2010PropOp39
 70
     1
102
RTVSPost2010Prop40
 90
        0
102
RTVSPost2010PropOp40
 70
     1
102
RTVSPost2010Prop41ColorIndex
 90
       18
102
RTVSPost2010Prop41ColorRGB
 90
        0
102
RTVSPost2010PropOp41
 70
     1
102
RTVSPost2010Prop42
 90
       50
102
RTVSPost2010PropOp42
 70
     1
102
RTVSPost2010Prop43
 90
        3
102
RTVSPost2010PropOp43
 70
     1
102
RTVSPost2010Prop44ColorIndex
 90
        5
102
RTVSPost2010Prop44ColorRGB
 90
      255
102
RTVSPost2010PropOp44
 70
     1
102
RTVSPost2010Prop45
280
     0
102
RTVSPost2010PropOp45
 70
     1
102
RTVSPost2010Prop46
 90
       50
102
RTVSPost2010PropOp46
 70
     1
102
RTVSPost2010Prop47
 90
       50
102
RTVSPost2010PropOp47
 70
     1
102
RTVSPost2010Prop48
 90
       50
102
RTVSPost2010PropOp48
 70
     1
102
RTVSPost2010Prop49
280
     0
102
RTVSPost2010PropOp49
 70
     1
102
RTVSPost2010Prop50
 90
       50
102
RTVSPost2010PropOp50
 70
     1
102
RTVSPost2010Prop51ColorIndex
 90
      256
102
RTVSPost2010Prop51ColorRGB
 90
-16777216
102
RTVSPost2010PropOp51
 70
     0
102
RTVSPost2010Prop52
140
1.0
102
RTVSPost2010PropOp52
 70
     0
102
RTVSPost2010Prop53
 90
        2
102
RTVSPost2010PropOp53
 70
     1
102
RTVSPost2010Prop54
  1
strokes_ogs.tif
102
RTVSPost2010PropOp54
 70
     1
102
RTVSPost2010Prop55
280
     0
102
RTVSPost2010PropOp55
 70
     1
102
RTVSPost2010Prop56
140
1.0
102
RTVSPost2010PropOp56
 70
     1
102
RTVSPost2010Prop57
140
1.0
102
RTVSPost2010PropOp57
 70
     1
  0
XRECORD
  5
BE0
102
{ACAD_REACTORS
330
BDF
102
}
330
BDF
100
AcDbXrecord
280
     1
102
RTVSPropertyOp0
 70
     1
102
RTVSPropertyOp1
 70
     1
102
RTVSPropertyOp2
 70
     1
102
RTVSPropertyOp3
 70
     1
102
RTVSPropertyOp4
 70
     1
102
RTVSPropertyOp5
 70
     1
102
RTVSPropertyOp6
 70
     1
102
RTVSPropertyOp7
 70
     1
102
RTVSPropertyOp8
 70
     1
102
RTVSPropertyOp9
 70
     1
102
RTVSPropertyOp10
 70
     1
102
RTVSPropertyOp11
 70
     1
102
RTVSPropertyOp12
 70
     1
102
RTVSPropertyOp13
 70
     1
102
RTVSPropertyOp14
 70
     1
102
RTVSPropertyOp15
 70
     1
102
RTVSPropertyOp16
 70
     1
102
RTVSPropertyOp17
 70
     1
102
RTVSPropertyOp18
 70
     1
102
RTVSPropertyOp19
 70
     1
102
RTVSPropertyOp20
 70
     1
102
RTVSPropertyOp21
 70
     1
102
RTVSPropertyOp22
 70
     1
102
RTVSPropertyOp23
 70
     1
102
RTVSPropertyOp24
 70
     1
102
RTVSPropertyOp25
 70
     1
102
RTVSPropertyOp26
 70
     1
102
RTVSPropertyOp27
 70
     1
102
RTVSPropertyOp28
 70
     1
102
RTVSPropertyOp29
 70
     1
102
RTVSPropertyOp30
 70
     1
102
RTVSPropertyOp31
 70
     1
102
RTVSPropertyOp32
 70
     1
102
RTVSPropertyOp33
 70
     1
102
RTVSPropertyOp34
 70
     1
102
RTVSPropertyOp35
 70
     1
102
RTVSPropertyOp36
 70
     1
102
RTVSPropertyOp37
 70
     1
102
RTVSPropertyOp38
 70
     1
102
RTVSPropertyOp39
 70
     1
102
RTVSPropertyOp40
 70
     1
102
RTVSPropertyOp41
 70
     1
102
RTVSPropertyOp42
 70
     1
102
RTVSPropertyOp43
 70
     1
102
RTVSPropertyOp44
 70
     1
102
RTVSPropertyOp45
 70
     1
102
RTVSPropertyOp46
 70
     1
102
RTVSPropertyOp47
 70
     1
102
RTVSPropertyOp48
 70
     1
102
RTVSPropertyOp49
 70
     1
102
RTVSPropertyOp50
 70
     1
102
RTVSPropertyOp51
 70
     0
102
RTVSPropertyOp52
 70
     0
102
RTVSPropertyOp53
 70
     1
102
RTVSPropertyOp54
 70
     1
102
RTVSPropertyOp55
 70
     1
102
RTVSPropertyOp56
 70
     1
102
RTVSPropertyOp57
 70
     1
102
RTVSPost2010Prop28
280
     0
102
RTVSPost2010PropOp28
 70
     1
102
RTVSPost2010Prop29
280
     1
102
RTVSPost2010PropOp29
 70
     1
102
RTVSPost2010Prop30
280
     1
102
RTVSPost2010PropOp30
 70
     1
102
RTVSPost2010Prop31
280
     0
102
RTVSPost2010PropOp31
 70
     1
102
RTVSPost2010Prop32
280
     0
102
RTVSPost2010PropOp32
 70
     1
102
RTVSPost2010Prop33
280
     0
102
RTVSPost2010PropOp33
 70
     1
102
RTVSPost2010Prop34
280
     0
102
RTVSPost2010PropOp34
 70
     1
102
RTVSPost2010Prop35
280
     0
102
RTVSPost2010PropOp35
 70
     1
102
RTVSPost2010Prop36
280
     0
102
RTVSPost2010PropOp36
 70
     1
102
RTVSPost2010Prop37
 90
       50
102
RTVSPost2010PropOp37
 70
     1
102
RTVSPost2010Prop38
140
0.0
102
RTVSPost2010PropOp38
 70
     1
102
RTVSPost2010Prop39
140
1.0
102
RTVSPost2010PropOp39
 70
     1
102
RTVSPost2010Prop40
 90
        0
102
RTVSPost2010PropOp40
 70
     1
102
RTVSPost2010Prop41ColorIndex
 90
       18
102
RTVSPost2010Prop41ColorRGB
 90
        0
102
RTVSPost2010PropOp41
 70
     1
102
RTVSPost2010Prop42
 90
       50
102
RTVSPost2010PropOp42
 70
     1
102
RTVSPost2010Prop43
 90
        3
102
RTVSPost2010PropOp43
 70
     1
102
RTVSPost2010Prop44ColorIndex
 90
        5
102
RTVSPost2010Prop44ColorRGB
 90
      255
102
RTVSPost2010PropOp44
 70
     1
102
RTVSPost2010Prop45
280
     0
102
RTVSPost2010PropOp45
 70
     1
102
RTVSPost2010Prop46
 90
       50
102
RTVSPost2010PropOp46
 70
     1
102
RTVSPost2010Prop47
 90
       50
102
RTVSPost2010PropOp47
 70
     1
102
RTVSPost2010Prop48
 90
       50
102
RTVSPost2010PropOp48
 70
     1
102
RTVSPost2010Prop49
280
     0
102
RTVSPost2010PropOp49
 70
     1
102
RTVSPost2010Prop50
 90
       50
102
RTVSPost2010PropOp50
 70
     1
102
RTVSPost2010Prop51ColorIndex
 90
      256
102
RTVSPost2010Prop51ColorRGB
 90
-16777216
102
RTVSPost2010PropOp51
 70
     0
102
RTVSPost2010Prop52
140
1.0
102
RTVSPost2010PropOp52
 70
     0
102
RTVSPost2010Prop53
 90
        2
102
RTVSPost2010PropOp53
 70
     1
102
RTVSPost2010Prop54
  1
strokes_ogs.tif
102
RTVSPost2010PropOp54
 70
     1
102
RTVSPost2010Prop55
280
     0
102
RTVSPost2010PropOp55
 70
     1
102
RTVSPost2010Prop56
140
1.0
102
RTVSPost2010PropOp56
 70
     1
102
RTVSPost2010Prop57
140
1.0
102
RTVSPost2010PropOp57
 70
     1
  0
XRECORD
  5
BE2
102
{ACAD_REACTORS
330
BE1
102
}
330
BE1
100
AcDbXrecord
280
     1
102
RTVSPropertyOp0
 70
     1
102
RTVSPropertyOp1
 70
     1
102
RTVSPropertyOp2
 70
     1
102
RTVSPropertyOp3
 70
     1
102
RTVSPropertyOp4
 70
     1
102
RTVSPropertyOp5
 70
     1
102
RTVSPropertyOp6
 70
     1
102
RTVSPropertyOp7
 70
     1
102
RTVSPropertyOp8
 70
     1
102
RTVSPropertyOp9
 70
     1
102
RTVSPropertyOp10
 70
     1
102
RTVSPropertyOp11
 70
     1
102
RTVSPropertyOp12
 70
     1
102
RTVSPropertyOp13
 70
     1
102
RTVSPropertyOp14
 70
     1
102
RTVSPropertyOp15
 70
     1
102
RTVSPropertyOp16
 70
     1
102
RTVSPropertyOp17
 70
     1
102
RTVSPropertyOp18
 70
     1
102
RTVSPropertyOp19
 70
     1
102
RTVSPropertyOp20
 70
     1
102
RTVSPropertyOp21
 70
     1
102
RTVSPropertyOp22
 70
     1
102
RTVSPropertyOp23
 70
     1
102
RTVSPropertyOp24
 70
     1
102
RTVSPropertyOp25
 70
     1
102
RTVSPropertyOp26
 70
     1
102
RTVSPropertyOp27
 70
     1
102
RTVSPropertyOp28
 70
     1
102
RTVSPropertyOp29
 70
     1
102
RTVSPropertyOp30
 70
     1
102
RTVSPropertyOp31
 70
     1
102
RTVSPropertyOp32
 70
     1
102
RTVSPropertyOp33
 70
     1
102
RTVSPropertyOp34
 70
     1
102
RTVSPropertyOp35
 70
     1
102
RTVSPropertyOp36
 70
     1
102
RTVSPropertyOp37
 70
     1
102
RTVSPropertyOp38
 70
     1
102
RTVSPropertyOp39
 70
     1
102
RTVSPropertyOp40
 70
     1
102
RTVSPropertyOp41
 70
     1
102
RTVSPropertyOp42
 70
     1
102
RTVSPropertyOp43
 70
     1
102
RTVSPropertyOp44
 70
     1
102
RTVSPropertyOp45
 70
     1
102
RTVSPropertyOp46
 70
     1
102
RTVSPropertyOp47
 70
     1
102
RTVSPropertyOp48
 70
     1
102
RTVSPropertyOp49
 70
     1
102
RTVSPropertyOp50
 70
     1
102
RTVSPropertyOp51
 70
     0
102
RTVSPropertyOp52
 70
     0
102
RTVSPropertyOp53
 70
     1
102
RTVSPropertyOp54
 70
     1
102
RTVSPropertyOp55
 70
     1
102
RTVSPropertyOp56
 70
     1
102
RTVSPropertyOp57
 70
     1
102
RTVSPost2010Prop28
280
     0
102
RTVSPost2010PropOp28
 70
     1
102
RTVSPost2010Prop29
280
     1
102
RTVSPost2010PropOp29
 70
     1
102
RTVSPost2010Prop30
280
     1
102
RTVSPost2010PropOp30
 70
     1
102
RTVSPost2010Prop31
280
     0
102
RTVSPost2010PropOp31
 70
     1
102
RTVSPost2010Prop32
280
     0
102
RTVSPost2010PropOp32
 70
     1
102
RTVSPost2010Prop33
280
     0
102
RTVSPost2010PropOp33
 70
     1
102
RTVSPost2010Prop34
280
     0
102
RTVSPost2010PropOp34
 70
     1
102
RTVSPost2010Prop35
280
     0
102
RTVSPost2010PropOp35
 70
     1
102
RTVSPost2010Prop36
280
     0
102
RTVSPost2010PropOp36
 70
     1
102
RTVSPost2010Prop37
 90
       50
102
RTVSPost2010PropOp37
 70
     1
102
RTVSPost2010Prop38
140
0.0
102
RTVSPost2010PropOp38
 70
     1
102
RTVSPost2010Prop39
140
1.0
102
RTVSPost2010PropOp39
 70
     1
102
RTVSPost2010Prop40
 90
        0
102
RTVSPost2010PropOp40
 70
     1
102
RTVSPost2010Prop41ColorIndex
 90
       18
102
RTVSPost2010Prop41ColorRGB
 90
        0
102
RTVSPost2010PropOp41
 70
     1
102
RTVSPost2010Prop42
 90
       50
102
RTVSPost2010PropOp42
 70
     1
102
RTVSPost2010Prop43
 90
        3
102
RTVSPost2010PropOp43
 70
     1
102
RTVSPost2010Prop44ColorIndex
 90
        5
102
RTVSPost2010Prop44ColorRGB
 90
      255
102
RTVSPost2010PropOp44
 70
     1
102
RTVSPost2010Prop45
280
     0
102
RTVSPost2010PropOp45
 70
     1
102
RTVSPost2010Prop46
 90
       50
102
RTVSPost2010PropOp46
 70
     1
102
RTVSPost2010Prop47
 90
       50
102
RTVSPost2010PropOp47
 70
     1
102
RTVSPost2010Prop48
 90
       50
102
RTVSPost2010PropOp48
 70
     1
102
RTVSPost2010Prop49
280
     0
102
RTVSPost2010PropOp49
 70
     1
102
RTVSPost2010Prop50
 90
       50
102
RTVSPost2010PropOp50
 70
     1
102
RTVSPost2010Prop51ColorIndex
 90
      256
102
RTVSPost2010Prop51ColorRGB
 90
-16777216
102
RTVSPost2010PropOp51
 70
     0
102
RTVSPost2010Prop52
140
1.0
102
RTVSPost2010PropOp52
 70
     0
102
RTVSPost2010Prop53
 90
        2
102
RTVSPost2010PropOp53
 70
     1
102
RTVSPost2010Prop54
  1
strokes_ogs.tif
102
RTVSPost2010PropOp54
 70
     1
102
RTVSPost2010Prop55
280
     0
102
RTVSPost2010PropOp55
 70
     1
102
RTVSPost2010Prop56
140
1.0
102
RTVSPost2010PropOp56
 70
     1
102
RTVSPost2010Prop57
140
1.0
102
RTVSPost2010PropOp57
 70
     1
  0
XRECORD
  5
BE4
102
{ACAD_REACTORS
330
BE3
102
}
330
BE3
100
AcDbXrecord
280
     1
102
RTVSPropertyOp0
 70
     1
102
RTVSPropertyOp1
 70
     1
102
RTVSPropertyOp2
 70
     1
102
RTVSPropertyOp3
 70
     1
102
RTVSPropertyOp4
 70
     1
102
RTVSPropertyOp5
 70
     1
102
RTVSPropertyOp6
 70
     1
102
RTVSPropertyOp7
 70
     1
102
RTVSPropertyOp8
 70
     1
102
RTVSPropertyOp9
 70
     1
102
RTVSPropertyOp10
 70
     1
102
RTVSPropertyOp11
 70
     1
102
RTVSPropertyOp12
 70
     1
102
RTVSPropertyOp13
 70
     1
102
RTVSPropertyOp14
 70
     1
102
RTVSPropertyOp15
 70
     1
102
RTVSPropertyOp16
 70
     1
102
RTVSPropertyOp17
 70
     1
102
RTVSPropertyOp18
 70
     1
102
RTVSPropertyOp19
 70
     1
102
RTVSPropertyOp20
 70
     1
102
RTVSPropertyOp21
 70
     1
102
RTVSPropertyOp22
 70
     1
102
RTVSPropertyOp23
 70
     1
102
RTVSPropertyOp24
 70
     1
102
RTVSPropertyOp25
 70
     1
102
RTVSPropertyOp26
 70
     1
102
RTVSPropertyOp27
 70
     1
102
RTVSPropertyOp28
 70
     1
102
RTVSPropertyOp29
 70
     1
102
RTVSPropertyOp30
 70
     1
102
RTVSPropertyOp31
 70
     1
102
RTVSPropertyOp32
 70
     1
102
RTVSPropertyOp33
 70
     1
102
RTVSPropertyOp34
 70
     1
102
RTVSPropertyOp35
 70
     1
102
RTVSPropertyOp36
 70
     1
102
RTVSPropertyOp37
 70
     1
102
RTVSPropertyOp38
 70
     1
102
RTVSPropertyOp39
 70
     1
102
RTVSPropertyOp40
 70
     1
102
RTVSPropertyOp41
 70
     1
102
RTVSPropertyOp42
 70
     1
102
RTVSPropertyOp43
 70
     1
102
RTVSPropertyOp44
 70
     1
102
RTVSPropertyOp45
 70
     1
102
RTVSPropertyOp46
 70
     1
102
RTVSPropertyOp47
 70
     1
102
RTVSPropertyOp48
 70
     1
102
RTVSPropertyOp49
 70
     1
102
RTVSPropertyOp50
 70
     1
102
RTVSPropertyOp51
 70
     0
102
RTVSPropertyOp52
 70
     0
102
RTVSPropertyOp53
 70
     1
102
RTVSPropertyOp54
 70
     1
102
RTVSPropertyOp55
 70
     1
102
RTVSPropertyOp56
 70
     1
102
RTVSPropertyOp57
 70
     1
102
RTVSPost2010Prop28
280
     0
102
RTVSPost2010PropOp28
 70
     1
102
RTVSPost2010Prop29
280
     1
102
RTVSPost2010PropOp29
 70
     1
102
RTVSPost2010Prop30
280
     1
102
RTVSPost2010PropOp30
 70
     1
102
RTVSPost2010Prop31
280
     0
102
RTVSPost2010PropOp31
 70
     1
102
RTVSPost2010Prop32
280
     0
102
RTVSPost2010PropOp32
 70
     1
102
RTVSPost2010Prop33
280
     0
102
RTVSPost2010PropOp33
 70
     1
102
RTVSPost2010Prop34
280
     0
102
RTVSPost2010PropOp34
 70
     1
102
RTVSPost2010Prop35
280
     0
102
RTVSPost2010PropOp35
 70
     1
102
RTVSPost2010Prop36
280
     0
102
RTVSPost2010PropOp36
 70
     1
102
RTVSPost2010Prop37
 90
       50
102
RTVSPost2010PropOp37
 70
     1
102
RTVSPost2010Prop38
140
0.0
102
RTVSPost2010PropOp38
 70
     1
102
RTVSPost2010Prop39
140
1.0
102
RTVSPost2010PropOp39
 70
     1
102
RTVSPost2010Prop40
 90
        0
102
RTVSPost2010PropOp40
 70
     1
102
RTVSPost2010Prop41ColorIndex
 90
       18
102
RTVSPost2010Prop41ColorRGB
 90
        0
102
RTVSPost2010PropOp41
 70
     1
102
RTVSPost2010Prop42
 90
       50
102
RTVSPost2010PropOp42
 70
     1
102
RTVSPost2010Prop43
 90
        3
102
RTVSPost2010PropOp43
 70
     1
102
RTVSPost2010Prop44ColorIndex
 90
        5
102
RTVSPost2010Prop44ColorRGB
 90
      255
102
RTVSPost2010PropOp44
 70
     1
102
RTVSPost2010Prop45
280
     0
102
RTVSPost2010PropOp45
 70
     1
102
RTVSPost2010Prop46
 90
       50
102
RTVSPost2010PropOp46
 70
     1
102
RTVSPost2010Prop47
 90
       50
102
RTVSPost2010PropOp47
 70
     1
102
RTVSPost2010Prop48
 90
       50
102
RTVSPost2010PropOp48
 70
     1
102
RTVSPost2010Prop49
280
     0
102
RTVSPost2010PropOp49
 70
     1
102
RTVSPost2010Prop50
 90
       50
102
RTVSPost2010PropOp50
 70
     1
102
RTVSPost2010Prop51ColorIndex
 90
      256
102
RTVSPost2010Prop51ColorRGB
 90
-16777216
102
RTVSPost2010PropOp51
 70
     0
102
RTVSPost2010Prop52
140
1.0
102
RTVSPost2010PropOp52
 70
     0
102
RTVSPost2010Prop53
 90
        2
102
RTVSPost2010PropOp53
 70
     1
102
RTVSPost2010Prop54
  1
strokes_ogs.tif
102
RTVSPost2010PropOp54
 70
     1
102
RTVSPost2010Prop55
280
     0
102
RTVSPost2010PropOp55
 70
     1
102
RTVSPost2010Prop56
140
1.0
102
RTVSPost2010PropOp56
 70
     1
102
RTVSPost2010Prop57
140
1.0
102
RTVSPost2010PropOp57
 70
     1
  0
XRECORD
  5
BE6
102
{ACAD_REACTORS
330
BE5
102
}
330
BE5
100
AcDbXrecord
280
     1
102
RTVSPropertyOp0
 70
     1
102
RTVSPropertyOp1
 70
     1
102
RTVSPropertyOp2
 70
     1
102
RTVSPropertyOp3
 70
     1
102
RTVSPropertyOp4
 70
     1
102
RTVSPropertyOp5
 70
     1
102
RTVSPropertyOp6
 70
     1
102
RTVSPropertyOp7
 70
     1
102
RTVSPropertyOp8
 70
     1
102
RTVSPropertyOp9
 70
     1
102
RTVSPropertyOp10
 70
     1
102
RTVSPropertyOp11
 70
     1
102
RTVSPropertyOp12
 70
     1
102
RTVSPropertyOp13
 70
     1
102
RTVSPropertyOp14
 70
     1
102
RTVSPropertyOp15
 70
     1
102
RTVSPropertyOp16
 70
     1
102
RTVSPropertyOp17
 70
     1
102
RTVSPropertyOp18
 70
     1
102
RTVSPropertyOp19
 70
     1
102
RTVSPropertyOp20
 70
     1
102
RTVSPropertyOp21
 70
     1
102
RTVSPropertyOp22
 70
     1
102
RTVSPropertyOp23
 70
     1
102
RTVSPropertyOp24
 70
     1
102
RTVSPropertyOp25
 70
     1
102
RTVSPropertyOp26
 70
     1
102
RTVSPropertyOp27
 70
     1
102
RTVSPropertyOp28
 70
     1
102
RTVSPropertyOp29
 70
     1
102
RTVSPropertyOp30
 70
     1
102
RTVSPropertyOp31
 70
     1
102
RTVSPropertyOp32
 70
     1
102
RTVSPropertyOp33
 70
     1
102
RTVSPropertyOp34
 70
     1
102
RTVSPropertyOp35
 70
     1
102
RTVSPropertyOp36
 70
     1
102
RTVSPropertyOp37
 70
     1
102
RTVSPropertyOp38
 70
     1
102
RTVSPropertyOp39
 70
     1
102
RTVSPropertyOp40
 70
     1
102
RTVSPropertyOp41
 70
     1
102
RTVSPropertyOp42
 70
     1
102
RTVSPropertyOp43
 70
     1
102
RTVSPropertyOp44
 70
     1
102
RTVSPropertyOp45
 70
     1
102
RTVSPropertyOp46
 70
     1
102
RTVSPropertyOp47
 70
     1
102
RTVSPropertyOp48
 70
     1
102
RTVSPropertyOp49
 70
     1
102
RTVSPropertyOp50
 70
     1
102
RTVSPropertyOp51
 70
     0
102
RTVSPropertyOp52
 70
     0
102
RTVSPropertyOp53
 70
     1
102
RTVSPropertyOp54
 70
     1
102
RTVSPropertyOp55
 70
     1
102
RTVSPropertyOp56
 70
     1
102
RTVSPropertyOp57
 70
     1
102
RTVSPost2010Prop28
280
     0
102
RTVSPost2010PropOp28
 70
     1
102
RTVSPost2010Prop29
280
     1
102
RTVSPost2010PropOp29
 70
     1
102
RTVSPost2010Prop30
280
     1
102
RTVSPost2010PropOp30
 70
     1
102
RTVSPost2010Prop31
280
     0
102
RTVSPost2010PropOp31
 70
     1
102
RTVSPost2010Prop32
280
     0
102
RTVSPost2010PropOp32
 70
     1
102
RTVSPost2010Prop33
280
     0
102
RTVSPost2010PropOp33
 70
     1
102
RTVSPost2010Prop34
280
     0
102
RTVSPost2010PropOp34
 70
     1
102
RTVSPost2010Prop35
280
     0
102
RTVSPost2010PropOp35
 70
     1
102
RTVSPost2010Prop36
280
     0
102
RTVSPost2010PropOp36
 70
     1
102
RTVSPost2010Prop37
 90
       50
102
RTVSPost2010PropOp37
 70
     1
102
RTVSPost2010Prop38
140
0.0
102
RTVSPost2010PropOp38
 70
     1
102
RTVSPost2010Prop39
140
1.0
102
RTVSPost2010PropOp39
 70
     1
102
RTVSPost2010Prop40
 90
        0
102
RTVSPost2010PropOp40
 70
     1
102
RTVSPost2010Prop41ColorIndex
 90
       18
102
RTVSPost2010Prop41ColorRGB
 90
        0
102
RTVSPost2010PropOp41
 70
     1
102
RTVSPost2010Prop42
 90
       50
102
RTVSPost2010PropOp42
 70
     1
102
RTVSPost2010Prop43
 90
        3
102
RTVSPost2010PropOp43
 70
     1
102
RTVSPost2010Prop44ColorIndex
 90
        5
102
RTVSPost2010Prop44ColorRGB
 90
      255
102
RTVSPost2010PropOp44
 70
     1
102
RTVSPost2010Prop45
280
     0
102
RTVSPost2010PropOp45
 70
     1
102
RTVSPost2010Prop46
 90
       50
102
RTVSPost2010PropOp46
 70
     1
102
RTVSPost2010Prop47
 90
       50
102
RTVSPost2010PropOp47
 70
     1
102
RTVSPost2010Prop48
 90
       50
102
RTVSPost2010PropOp48
 70
     1
102
RTVSPost2010Prop49
280
     0
102
RTVSPost2010PropOp49
 70
     1
102
RTVSPost2010Prop50
 90
       50
102
RTVSPost2010PropOp50
 70
     1
102
RTVSPost2010Prop51ColorIndex
 90
      256
102
RTVSPost2010Prop51ColorRGB
 90
-16777216
102
RTVSPost2010PropOp51
 70
     0
102
RTVSPost2010Prop52
140
1.0
102
RTVSPost2010PropOp52
 70
     0
102
RTVSPost2010Prop53
 90
        2
102
RTVSPost2010PropOp53
 70
     1
102
RTVSPost2010Prop54
  1
strokes_ogs.tif
102
RTVSPost2010PropOp54
 70
     1
102
RTVSPost2010Prop55
280
     0
102
RTVSPost2010PropOp55
 70
     1
102
RTVSPost2010Prop56
140
1.0
102
RTVSPost2010PropOp56
 70
     1
102
RTVSPost2010Prop57
140
1.0
102
RTVSPost2010PropOp57
 70
     1
  0
XRECORD
  5
BE8
102
{ACAD_REACTORS
330
BE7
102
}
330
BE7
100
AcDbXrecord
280
     1
102
RTVSPropertyOp0
 70
     1
102
RTVSPropertyOp1
 70
     1
102
RTVSPropertyOp2
 70
     1
102
RTVSPropertyOp3
 70
     1
102
RTVSPropertyOp4
 70
     1
102
RTVSPropertyOp5
 70
     1
102
RTVSPropertyOp6
 70
     1
102
RTVSPropertyOp7
 70
     1
102
RTVSPropertyOp8
 70
     1
102
RTVSPropertyOp9
 70
     1
102
RTVSPropertyOp10
 70
     1
102
RTVSPropertyOp11
 70
     1
102
RTVSPropertyOp12
 70
     1
102
RTVSPropertyOp13
 70
     1
102
RTVSPropertyOp14
 70
     1
102
RTVSPropertyOp15
 70
     1
102
RTVSPropertyOp16
 70
     1
102
RTVSPropertyOp17
 70
     1
102
RTVSPropertyOp18
 70
     1
102
RTVSPropertyOp19
 70
     1
102
RTVSPropertyOp20
 70
     1
102
RTVSPropertyOp21
 70
     1
102
RTVSPropertyOp22
 70
     1
102
RTVSPropertyOp23
 70
     1
102
RTVSPropertyOp24
 70
     1
102
RTVSPropertyOp25
 70
     1
102
RTVSPropertyOp26
 70
     1
102
RTVSPropertyOp27
 70
     1
102
RTVSPropertyOp28
 70
     1
102
RTVSPropertyOp29
 70
     1
102
RTVSPropertyOp30
 70
     1
102
RTVSPropertyOp31
 70
     1
102
RTVSPropertyOp32
 70
     1
102
RTVSPropertyOp33
 70
     1
102
RTVSPropertyOp34
 70
     1
102
RTVSPropertyOp35
 70
     1
102
RTVSPropertyOp36
 70
     1
102
RTVSPropertyOp37
 70
     1
102
RTVSPropertyOp38
 70
     1
102
RTVSPropertyOp39
 70
     1
102
RTVSPropertyOp40
 70
     1
102
RTVSPropertyOp41
 70
     1
102
RTVSPropertyOp42
 70
     1
102
RTVSPropertyOp43
 70
     1
102
RTVSPropertyOp44
 70
     1
102
RTVSPropertyOp45
 70
     1
102
RTVSPropertyOp46
 70
     1
102
RTVSPropertyOp47
 70
     1
102
RTVSPropertyOp48
 70
     1
102
RTVSPropertyOp49
 70
     1
102
RTVSPropertyOp50
 70
     1
102
RTVSPropertyOp51
 70
     0
102
RTVSPropertyOp52
 70
     0
102
RTVSPropertyOp53
 70
     1
102
RTVSPropertyOp54
 70
     1
102
RTVSPropertyOp55
 70
     1
102
RTVSPropertyOp56
 70
     1
102
RTVSPropertyOp57
 70
     1
102
RTVSPost2010Prop28
280
     0
102
RTVSPost2010PropOp28
 70
     1
102
RTVSPost2010Prop29
280
     1
102
RTVSPost2010PropOp29
 70
     1
102
RTVSPost2010Prop30
280
     1
102
RTVSPost2010PropOp30
 70
     1
102
RTVSPost2010Prop31
280
     0
102
RTVSPost2010PropOp31
 70
     1
102
RTVSPost2010Prop32
280
     0
102
RTVSPost2010PropOp32
 70
     1
102
RTVSPost2010Prop33
280
     0
102
RTVSPost2010PropOp33
 70
     1
102
RTVSPost2010Prop34
280
     0
102
RTVSPost2010PropOp34
 70
     1
102
RTVSPost2010Prop35
280
     0
102
RTVSPost2010PropOp35
 70
     1
102
RTVSPost2010Prop36
280
     0
102
RTVSPost2010PropOp36
 70
     1
102
RTVSPost2010Prop37
 90
       50
102
RTVSPost2010PropOp37
 70
     1
102
RTVSPost2010Prop38
140
0.0
102
RTVSPost2010PropOp38
 70
     1
102
RTVSPost2010Prop39
140
1.0
102
RTVSPost2010PropOp39
 70
     1
102
RTVSPost2010Prop40
 90
        0
102
RTVSPost2010PropOp40
 70
     1
102
RTVSPost2010Prop41ColorIndex
 90
       18
102
RTVSPost2010Prop41ColorRGB
 90
        0
102
RTVSPost2010PropOp41
 70
     1
102
RTVSPost2010Prop42
 90
       50
102
RTVSPost2010PropOp42
 70
     1
102
RTVSPost2010Prop43
 90
        3
102
RTVSPost2010PropOp43
 70
     1
102
RTVSPost2010Prop44ColorIndex
 90
        5
102
RTVSPost2010Prop44ColorRGB
 90
      255
102
RTVSPost2010PropOp44
 70
     1
102
RTVSPost2010Prop45
280
     0
102
RTVSPost2010PropOp45
 70
     1
102
RTVSPost2010Prop46
 90
       50
102
RTVSPost2010PropOp46
 70
     1
102
RTVSPost2010Prop47
 90
       50
102
RTVSPost2010PropOp47
 70
     1
102
RTVSPost2010Prop48
 90
       50
102
RTVSPost2010PropOp48
 70
     1
102
RTVSPost2010Prop49
280
     0
102
RTVSPost2010PropOp49
 70
     1
102
RTVSPost2010Prop50
 90
       50
102
RTVSPost2010PropOp50
 70
     1
102
RTVSPost2010Prop51ColorIndex
 90
      256
102
RTVSPost2010Prop51ColorRGB
 90
-16777216
102
RTVSPost2010PropOp51
 70
     0
102
RTVSPost2010Prop52
140
1.0
102
RTVSPost2010PropOp52
 70
     0
102
RTVSPost2010Prop53
 90
        2
102
RTVSPost2010PropOp53
 70
     1
102
RTVSPost2010Prop54
  1
strokes_ogs.tif
102
RTVSPost2010PropOp54
 70
     1
102
RTVSPost2010Prop55
280
     0
102
RTVSPost2010PropOp55
 70
     1
102
RTVSPost2010Prop56
140
1.0
102
RTVSPost2010PropOp56
 70
     1
102
RTVSPost2010Prop57
140
1.0
102
RTVSPost2010PropOp57
 70
     1
  0
XRECORD
  5
BEA
102
{ACAD_REACTORS
330
BE9
102
}
330
BE9
100
AcDbXrecord
280
     1
102
RTVSPropertyOp0
 70
     0
102
RTVSPropertyOp1
 70
     0
102
RTVSPropertyOp2
 70
     0
102
RTVSPropertyOp3
 70
     0
102
RTVSPropertyOp4
 70
     0
102
RTVSPropertyOp5
 70
     0
102
RTVSPropertyOp6
 70
     0
102
RTVSPropertyOp7
 70
     0
102
RTVSPropertyOp8
 70
     0
102
RTVSPropertyOp9
 70
     0
102
RTVSPropertyOp10
 70
     0
102
RTVSPropertyOp11
 70
     0
102
RTVSPropertyOp12
 70
     0
102
RTVSPropertyOp13
 70
     0
102
RTVSPropertyOp14
 70
     2
102
RTVSPropertyOp15
 70
     0
102
RTVSPropertyOp16
 70
     0
102
RTVSPropertyOp17
 70
     0
102
RTVSPropertyOp18
 70
     0
102
RTVSPropertyOp19
 70
     0
102
RTVSPropertyOp20
 70
     0
102
RTVSPropertyOp21
 70
     0
102
RTVSPropertyOp22
 70
     0
102
RTVSPropertyOp23
 70
     0
102
RTVSPropertyOp24
 70
     0
102
RTVSPropertyOp25
 70
     0
102
RTVSPropertyOp26
 70
     0
102
RTVSPropertyOp27
 70
     0
102
RTVSPropertyOp28
 70
     0
102
RTVSPropertyOp29
 70
     0
102
RTVSPropertyOp30
 70
     0
102
RTVSPropertyOp31
 70
     0
102
RTVSPropertyOp32
 70
     0
102
RTVSPropertyOp33
 70
     0
102
RTVSPropertyOp34
 70
     0
102
RTVSPropertyOp35
 70
     0
102
RTVSPropertyOp36
 70
     0
102
RTVSPropertyOp37
 70
     0
102
RTVSPropertyOp38
 70
     0
102
RTVSPropertyOp39
 70
     0
102
RTVSPropertyOp40
 70
     0
102
RTVSPropertyOp41
 70
     0
102
RTVSPropertyOp42
 70
     0
102
RTVSPropertyOp43
 70
     0
102
RTVSPropertyOp44
 70
     0
102
RTVSPropertyOp45
 70
     0
102
RTVSPropertyOp46
 70
     0
102
RTVSPropertyOp47
 70
     0
102
RTVSPropertyOp48
 70
     0
102
RTVSPropertyOp49
 70
     0
102
RTVSPropertyOp50
 70
     0
102
RTVSPropertyOp51
 70
     0
102
RTVSPropertyOp52
 70
     0
102
RTVSPropertyOp53
 70
     0
102
RTVSPropertyOp54
 70
     0
102
RTVSPropertyOp55
 70
     0
102
RTVSPropertyOp56
 70
     0
102
RTVSPropertyOp57
 70
     0
102
RTVSPost2010Prop28
280
     0
102
RTVSPost2010PropOp28
 70
     0
102
RTVSPost2010Prop29
280
     1
102
RTVSPost2010PropOp29
 70
     0
102
RTVSPost2010Prop30
280
     1
102
RTVSPost2010PropOp30
 70
     0
102
RTVSPost2010Prop31
280
     0
102
RTVSPost2010PropOp31
 70
     0
102
RTVSPost2010Prop32
280
     0
102
RTVSPost2010PropOp32
 70
     0
102
RTVSPost2010Prop33
280
     0
102
RTVSPost2010PropOp33
 70
     0
102
RTVSPost2010Prop34
280
     0
102
RTVSPost2010PropOp34
 70
     0
102
RTVSPost2010Prop35
280
     0
102
RTVSPost2010PropOp35
 70
     0
102
RTVSPost2010Prop36
280
     0
102
RTVSPost2010PropOp36
 70
     0
102
RTVSPost2010Prop37
 90
       50
102
RTVSPost2010PropOp37
 70
     0
102
RTVSPost2010Prop38
140
0.0
102
RTVSPost2010PropOp38
 70
     0
102
RTVSPost2010Prop39
140
1.0
102
RTVSPost2010PropOp39
 70
     0
102
RTVSPost2010Prop40
 90
        0
102
RTVSPost2010PropOp40
 70
     0
102
RTVSPost2010Prop41ColorIndex
 90
       18
102
RTVSPost2010Prop41ColorRGB
 90
        0
102
RTVSPost2010PropOp41
 70
     0
102
RTVSPost2010Prop42
 90
       50
102
RTVSPost2010PropOp42
 70
     0
102
RTVSPost2010Prop43
 90
        3
102
RTVSPost2010PropOp43
 70
     0
102
RTVSPost2010Prop44ColorIndex
 90
        5
102
RTVSPost2010Prop44ColorRGB
 90
      255
102
RTVSPost2010PropOp44
 70
     0
102
RTVSPost2010Prop45
280
     0
102
RTVSPost2010PropOp45
 70
     0
102
RTVSPost2010Prop46
 90
       50
102
RTVSPost2010PropOp46
 70
     0
102
RTVSPost2010Prop47
 90
       50
102
RTVSPost2010PropOp47
 70
     0
102
RTVSPost2010Prop48
 90
       50
102
RTVSPost2010PropOp48
 70
     0
102
RTVSPost2010Prop49
280
     0
102
RTVSPost2010PropOp49
 70
     0
102
RTVSPost2010Prop50
 90
       50
102
RTVSPost2010PropOp50
 70
     0
102
RTVSPost2010Prop51ColorIndex
 90
      256
102
RTVSPost2010Prop51ColorRGB
 90
-16777216
102
RTVSPost2010PropOp51
 70
     0
102
RTVSPost2010Prop52
140
1.0
102
RTVSPost2010PropOp52
 70
     0
102
RTVSPost2010Prop53
 90
        2
102
RTVSPost2010PropOp53
 70
     0
102
RTVSPost2010Prop54
  1
strokes_ogs.tif
102
RTVSPost2010PropOp54
 70
     0
102
RTVSPost2010Prop55
280
     0
102
RTVSPost2010PropOp55
 70
     0
102
RTVSPost2010Prop56
140
1.0
102
RTVSPost2010PropOp56
 70
     0
102
RTVSPost2010Prop57
140
1.0
102
RTVSPost2010PropOp57
 70
     0
  0
XRECORD
  5
BEC
102
{ACAD_REACTORS
330
BEB
102
}
330
BEB
100
AcDbXrecord
280
     1
102
RTVSPropertyOp0
 70
     1
102
RTVSPropertyOp1
 70
     1
102
RTVSPropertyOp2
 70
     1
102
RTVSPropertyOp3
 70
     1
102
RTVSPropertyOp4
 70
     1
102
RTVSPropertyOp5
 70
     1
102
RTVSPropertyOp6
 70
     1
102
RTVSPropertyOp7
 70
     1
102
RTVSPropertyOp8
 70
     1
102
RTVSPropertyOp9
 70
     1
102
RTVSPropertyOp10
 70
     1
102
RTVSPropertyOp11
 70
     1
102
RTVSPropertyOp12
 70
     1
102
RTVSPropertyOp13
 70
     1
102
RTVSPropertyOp14
 70
     1
102
RTVSPropertyOp15
 70
     1
102
RTVSPropertyOp16
 70
     1
102
RTVSPropertyOp17
 70
     1
102
RTVSPropertyOp18
 70
     1
102
RTVSPropertyOp19
 70
     1
102
RTVSPropertyOp20
 70
     1
102
RTVSPropertyOp21
 70
     1
102
RTVSPropertyOp22
 70
     1
102
RTVSPropertyOp23
 70
     1
102
RTVSPropertyOp24
 70
     1
102
RTVSPropertyOp25
 70
     1
102
RTVSPropertyOp26
 70
     1
102
RTVSPropertyOp27
 70
     1
102
RTVSPropertyOp28
 70
     1
102
RTVSPropertyOp29
 70
     1
102
RTVSPropertyOp30
 70
     1
102
RTVSPropertyOp31
 70
     1
102
RTVSPropertyOp32
 70
     1
102
RTVSPropertyOp33
 70
     1
102
RTVSPropertyOp34
 70
     1
102
RTVSPropertyOp35
 70
     1
102
RTVSPropertyOp36
 70
     1
102
RTVSPropertyOp37
 70
     1
102
RTVSPropertyOp38
 70
     1
102
RTVSPropertyOp39
 70
     1
102
RTVSPropertyOp40
 70
     1
102
RTVSPropertyOp41
 70
     1
102
RTVSPropertyOp42
 70
     1
102
RTVSPropertyOp43
 70
     1
102
RTVSPropertyOp44
 70
     1
102
RTVSPropertyOp45
 70
     1
102
RTVSPropertyOp46
 70
     1
102
RTVSPropertyOp47
 70
     1
102
RTVSPropertyOp48
 70
     1
102
RTVSPropertyOp49
 70
     1
102
RTVSPropertyOp50
 70
     1
102
RTVSPropertyOp51
 70
     0
102
RTVSPropertyOp52
 70
     0
102
RTVSPropertyOp53
 70
     1
102
RTVSPropertyOp54
 70
     1
102
RTVSPropertyOp55
 70
     1
102
RTVSPropertyOp56
 70
     1
102
RTVSPropertyOp57
 70
     1
102
RTVSPost2010Prop28
280
     0
102
RTVSPost2010PropOp28
 70
     1
102
RTVSPost2010Prop29
280
     1
102
RTVSPost2010PropOp29
 70
     1
102
RTVSPost2010Prop30
280
     1
102
RTVSPost2010PropOp30
 70
     1
102
RTVSPost2010Prop31
280
     0
102
RTVSPost2010PropOp31
 70
     1
102
RTVSPost2010Prop32
280
     0
102
RTVSPost2010PropOp32
 70
     1
102
RTVSPost2010Prop33
280
     0
102
RTVSPost2010PropOp33
 70
     1
102
RTVSPost2010Prop34
280
     0
102
RTVSPost2010PropOp34
 70
     1
102
RTVSPost2010Prop35
280
     0
102
RTVSPost2010PropOp35
 70
     1
102
RTVSPost2010Prop36
280
     0
102
RTVSPost2010PropOp36
 70
     1
102
RTVSPost2010Prop37
 90
       50
102
RTVSPost2010PropOp37
 70
     1
102
RTVSPost2010Prop38
140
0.0
102
RTVSPost2010PropOp38
 70
     1
102
RTVSPost2010Prop39
140
1.0
102
RTVSPost2010PropOp39
 70
     1
102
RTVSPost2010Prop40
 90
        0
102
RTVSPost2010PropOp40
 70
     1
102
RTVSPost2010Prop41ColorIndex
 90
       18
102
RTVSPost2010Prop41ColorRGB
 90
        0
102
RTVSPost2010PropOp41
 70
     1
102
RTVSPost2010Prop42
 90
       50
102
RTVSPost2010PropOp42
 70
     1
102
RTVSPost2010Prop43
 90
        3
102
RTVSPost2010PropOp43
 70
     1
102
RTVSPost2010Prop44ColorIndex
 90
        5
102
RTVSPost2010Prop44ColorRGB
 90
      255
102
RTVSPost2010PropOp44
 70
     1
102
RTVSPost2010Prop45
280
     0
102
RTVSPost2010PropOp45
 70
     1
102
RTVSPost2010Prop46
 90
       50
102
RTVSPost2010PropOp46
 70
     1
102
RTVSPost2010Prop47
 90
       50
102
RTVSPost2010PropOp47
 70
     1
102
RTVSPost2010Prop48
 90
       50
102
RTVSPost2010PropOp48
 70
     1
102
RTVSPost2010Prop49
280
     0
102
RTVSPost2010PropOp49
 70
     1
102
RTVSPost2010Prop50
 90
       50
102
RTVSPost2010PropOp50
 70
     1
102
RTVSPost2010Prop51ColorIndex
 90
      256
102
RTVSPost2010Prop51ColorRGB
 90
-16777216
102
RTVSPost2010PropOp51
 70
     0
102
RTVSPost2010Prop52
140
1.0
102
RTVSPost2010PropOp52
 70
     0
102
RTVSPost2010Prop53
 90
        2
102
RTVSPost2010PropOp53
 70
     1
102
RTVSPost2010Prop54
  1
strokes_ogs.tif
102
RTVSPost2010PropOp54
 70
     1
102
RTVSPost2010Prop55
280
     0
102
RTVSPost2010PropOp55
 70
     1
102
RTVSPost2010Prop56
140
1.0
102
RTVSPost2010PropOp56
 70
     1
102
RTVSPost2010Prop57
140
1.0
102
RTVSPost2010PropOp57
 70
     1
  0
XRECORD
  5
BEE
102
{ACAD_REACTORS
330
BED
102
}
330
BED
100
AcDbXrecord
280
     1
102
RTVSPropertyOp0
 70
     0
102
RTVSPropertyOp1
 70
     0
102
RTVSPropertyOp2
 70
     0
102
RTVSPropertyOp3
 70
     0
102
RTVSPropertyOp4
 70
     0
102
RTVSPropertyOp5
 70
     0
102
RTVSPropertyOp6
 70
     0
102
RTVSPropertyOp7
 70
     0
102
RTVSPropertyOp8
 70
     0
102
RTVSPropertyOp9
 70
     0
102
RTVSPropertyOp10
 70
     0
102
RTVSPropertyOp11
 70
     0
102
RTVSPropertyOp12
 70
     0
102
RTVSPropertyOp13
 70
     0
102
RTVSPropertyOp14
 70
     2
102
RTVSPropertyOp15
 70
     0
102
RTVSPropertyOp16
 70
     0
102
RTVSPropertyOp17
 70
     0
102
RTVSPropertyOp18
 70
     0
102
RTVSPropertyOp19
 70
     0
102
RTVSPropertyOp20
 70
     0
102
RTVSPropertyOp21
 70
     0
102
RTVSPropertyOp22
 70
     0
102
RTVSPropertyOp23
 70
     0
102
RTVSPropertyOp24
 70
     0
102
RTVSPropertyOp25
 70
     0
102
RTVSPropertyOp26
 70
     0
102
RTVSPropertyOp27
 70
     0
102
RTVSPropertyOp28
 70
     0
102
RTVSPropertyOp29
 70
     0
102
RTVSPropertyOp30
 70
     0
102
RTVSPropertyOp31
 70
     0
102
RTVSPropertyOp32
 70
     0
102
RTVSPropertyOp33
 70
     0
102
RTVSPropertyOp34
 70
     0
102
RTVSPropertyOp35
 70
     0
102
RTVSPropertyOp36
 70
     0
102
RTVSPropertyOp37
 70
     0
102
RTVSPropertyOp38
 70
     0
102
RTVSPropertyOp39
 70
     0
102
RTVSPropertyOp40
 70
     0
102
RTVSPropertyOp41
 70
     0
102
RTVSPropertyOp42
 70
     0
102
RTVSPropertyOp43
 70
     0
102
RTVSPropertyOp44
 70
     0
102
RTVSPropertyOp45
 70
     0
102
RTVSPropertyOp46
 70
     0
102
RTVSPropertyOp47
 70
     0
102
RTVSPropertyOp48
 70
     0
102
RTVSPropertyOp49
 70
     0
102
RTVSPropertyOp50
 70
     0
102
RTVSPropertyOp51
 70
     0
102
RTVSPropertyOp52
 70
     0
102
RTVSPropertyOp53
 70
     0
102
RTVSPropertyOp54
 70
     0
102
RTVSPropertyOp55
 70
     0
102
RTVSPropertyOp56
 70
     0
102
RTVSPropertyOp57
 70
     0
102
RTVSPost2010Prop28
280
     0
102
RTVSPost2010PropOp28
 70
     0
102
RTVSPost2010Prop29
280
     1
102
RTVSPost2010PropOp29
 70
     0
102
RTVSPost2010Prop30
280
     1
102
RTVSPost2010PropOp30
 70
     0
102
RTVSPost2010Prop31
280
     0
102
RTVSPost2010PropOp31
 70
     0
102
RTVSPost2010Prop32
280
     0
102
RTVSPost2010PropOp32
 70
     0
102
RTVSPost2010Prop33
280
     0
102
RTVSPost2010PropOp33
 70
     0
102
RTVSPost2010Prop34
280
     0
102
RTVSPost2010PropOp34
 70
     0
102
RTVSPost2010Prop35
280
     0
102
RTVSPost2010PropOp35
 70
     0
102
RTVSPost2010Prop36
280
     0
102
RTVSPost2010PropOp36
 70
     0
102
RTVSPost2010Prop37
 90
       50
102
RTVSPost2010PropOp37
 70
     0
102
RTVSPost2010Prop38
140
0.0
102
RTVSPost2010PropOp38
 70
     0
102
RTVSPost2010Prop39
140
1.0
102
RTVSPost2010PropOp39
 70
     0
102
RTVSPost2010Prop40
 90
        0
102
RTVSPost2010PropOp40
 70
     0
102
RTVSPost2010Prop41ColorIndex
 90
       18
102
RTVSPost2010Prop41ColorRGB
 90
        0
102
RTVSPost2010PropOp41
 70
     0
102
RTVSPost2010Prop42
 90
       50
102
RTVSPost2010PropOp42
 70
     0
102
RTVSPost2010Prop43
 90
        3
102
RTVSPost2010PropOp43
 70
     0
102
RTVSPost2010Prop44ColorIndex
 90
        5
102
RTVSPost2010Prop44ColorRGB
 90
      255
102
RTVSPost2010PropOp44
 70
     0
102
RTVSPost2010Prop45
280
     0
102
RTVSPost2010PropOp45
 70
     0
102
RTVSPost2010Prop46
 90
       50
102
RTVSPost2010PropOp46
 70
     0
102
RTVSPost2010Prop47
 90
       50
102
RTVSPost2010PropOp47
 70
     0
102
RTVSPost2010Prop48
 90
       50
102
RTVSPost2010PropOp48
 70
     0
102
RTVSPost2010Prop49
280
     0
102
RTVSPost2010PropOp49
 70
     0
102
RTVSPost2010Prop50
 90
       50
102
RTVSPost2010PropOp50
 70
     0
102
RTVSPost2010Prop51ColorIndex
 90
      256
102
RTVSPost2010Prop51ColorRGB
 90
-16777216
102
RTVSPost2010PropOp51
 70
     0
102
RTVSPost2010Prop52
140
1.0
102
RTVSPost2010PropOp52
 70
     0
102
RTVSPost2010Prop53
 90
        2
102
RTVSPost2010PropOp53
 70
     0
102
RTVSPost2010Prop54
  1
strokes_ogs.tif
102
RTVSPost2010PropOp54
 70
     0
102
RTVSPost2010Prop55
280
     0
102
RTVSPost2010PropOp55
 70
     0
102
RTVSPost2010Prop56
140
1.0
102
RTVSPost2010PropOp56
 70
     0
102
RTVSPost2010Prop57
140
1.0
102
RTVSPost2010PropOp57
 70
     0
  0
XRECORD
  5
BF0
102
{ACAD_REACTORS
330
BEF
102
}
330
BEF
100
AcDbXrecord
280
     1
102
RTVSPropertyOp0
 70
     1
102
RTVSPropertyOp1
 70
     1
102
RTVSPropertyOp2
 70
     1
102
RTVSPropertyOp3
 70
     1
102
RTVSPropertyOp4
 70
     1
102
RTVSPropertyOp5
 70
     1
102
RTVSPropertyOp6
 70
     1
102
RTVSPropertyOp7
 70
     1
102
RTVSPropertyOp8
 70
     1
102
RTVSPropertyOp9
 70
     1
102
RTVSPropertyOp10
 70
     1
102
RTVSPropertyOp11
 70
     1
102
RTVSPropertyOp12
 70
     1
102
RTVSPropertyOp13
 70
     1
102
RTVSPropertyOp14
 70
     1
102
RTVSPropertyOp15
 70
     1
102
RTVSPropertyOp16
 70
     1
102
RTVSPropertyOp17
 70
     1
102
RTVSPropertyOp18
 70
     1
102
RTVSPropertyOp19
 70
     1
102
RTVSPropertyOp20
 70
     1
102
RTVSPropertyOp21
 70
     1
102
RTVSPropertyOp22
 70
     1
102
RTVSPropertyOp23
 70
     1
102
RTVSPropertyOp24
 70
     1
102
RTVSPropertyOp25
 70
     1
102
RTVSPropertyOp26
 70
     1
102
RTVSPropertyOp27
 70
     1
102
RTVSPropertyOp28
 70
     1
102
RTVSPropertyOp29
 70
     1
102
RTVSPropertyOp30
 70
     1
102
RTVSPropertyOp31
 70
     1
102
RTVSPropertyOp32
 70
     1
102
RTVSPropertyOp33
 70
     1
102
RTVSPropertyOp34
 70
     1
102
RTVSPropertyOp35
 70
     1
102
RTVSPropertyOp36
 70
     1
102
RTVSPropertyOp37
 70
     1
102
RTVSPropertyOp38
 70
     1
102
RTVSPropertyOp39
 70
     1
102
RTVSPropertyOp40
 70
     1
102
RTVSPropertyOp41
 70
     1
102
RTVSPropertyOp42
 70
     1
102
RTVSPropertyOp43
 70
     1
102
RTVSPropertyOp44
 70
     1
102
RTVSPropertyOp45
 70
     1
102
RTVSPropertyOp46
 70
     1
102
RTVSPropertyOp47
 70
     1
102
RTVSPropertyOp48
 70
     1
102
RTVSPropertyOp49
 70
     1
102
RTVSPropertyOp50
 70
     1
102
RTVSPropertyOp51
 70
     0
102
RTVSPropertyOp52
 70
     0
102
RTVSPropertyOp53
 70
     1
102
RTVSPropertyOp54
 70
     1
102
RTVSPropertyOp55
 70
     1
102
RTVSPropertyOp56
 70
     1
102
RTVSPropertyOp57
 70
     1
102
RTVSPost2010Prop28
280
     0
102
RTVSPost2010PropOp28
 70
     1
102
RTVSPost2010Prop29
280
     1
102
RTVSPost2010PropOp29
 70
     1
102
RTVSPost2010Prop30
280
     1
102
RTVSPost2010PropOp30
 70
     1
102
RTVSPost2010Prop31
280
     0
102
RTVSPost2010PropOp31
 70
     1
102
RTVSPost2010Prop32
280
     0
102
RTVSPost2010PropOp32
 70
     1
102
RTVSPost2010Prop33
280
     0
102
RTVSPost2010PropOp33
 70
     1
102
RTVSPost2010Prop34
280
     0
102
RTVSPost2010PropOp34
 70
     1
102
RTVSPost2010Prop35
280
     0
102
RTVSPost2010PropOp35
 70
     1
102
RTVSPost2010Prop36
280
     0
102
RTVSPost2010PropOp36
 70
     1
102
RTVSPost2010Prop37
 90
       50
102
RTVSPost2010PropOp37
 70
     1
102
RTVSPost2010Prop38
140
0.0
102
RTVSPost2010PropOp38
 70
     1
102
RTVSPost2010Prop39
140
1.0
102
RTVSPost2010PropOp39
 70
     1
102
RTVSPost2010Prop40
 90
        0
102
RTVSPost2010PropOp40
 70
     1
102
RTVSPost2010Prop41ColorIndex
 90
       18
102
RTVSPost2010Prop41ColorRGB
 90
        0
102
RTVSPost2010PropOp41
 70
     1
102
RTVSPost2010Prop42
 90
       50
102
RTVSPost2010PropOp42
 70
     1
102
RTVSPost2010Prop43
 90
        3
102
RTVSPost2010PropOp43
 70
     1
102
RTVSPost2010Prop44ColorIndex
 90
        5
102
RTVSPost2010Prop44ColorRGB
 90
      255
102
RTVSPost2010PropOp44
 70
     1
102
RTVSPost2010Prop45
280
     0
102
RTVSPost2010PropOp45
 70
     1
102
RTVSPost2010Prop46
 90
       50
102
RTVSPost2010PropOp46
 70
     1
102
RTVSPost2010Prop47
 90
       50
102
RTVSPost2010PropOp47
 70
     1
102
RTVSPost2010Prop48
 90
       50
102
RTVSPost2010PropOp48
 70
     1
102
RTVSPost2010Prop49
280
     0
102
RTVSPost2010PropOp49
 70
     1
102
RTVSPost2010Prop50
 90
       50
102
RTVSPost2010PropOp50
 70
     1
102
RTVSPost2010Prop51ColorIndex
 90
      256
102
RTVSPost2010Prop51ColorRGB
 90
-16777216
102
RTVSPost2010PropOp51
 70
     0
102
RTVSPost2010Prop52
140
1.0
102
RTVSPost2010PropOp52
 70
     0
102
RTVSPost2010Prop53
 90
        2
102
RTVSPost2010PropOp53
 70
     1
102
RTVSPost2010Prop54
  1
strokes_ogs.tif
102
RTVSPost2010PropOp54
 70
     1
102
RTVSPost2010Prop55
280
     0
102
RTVSPost2010PropOp55
 70
     1
102
RTVSPost2010Prop56
140
1.0
102
RTVSPost2010PropOp56
 70
     1
102
RTVSPost2010Prop57
140
1.0
102
RTVSPost2010PropOp57
 70
     1
  0
XRECORD
  5
BF2
102
{ACAD_REACTORS
330
BF1
102
}
330
BF1
100
AcDbXrecord
280
     1
102
RTVSPropertyOp0
 70
     1
102
RTVSPropertyOp1
 70
     1
102
RTVSPropertyOp2
 70
     1
102
RTVSPropertyOp3
 70
     1
102
RTVSPropertyOp4
 70
     1
102
RTVSPropertyOp5
 70
     1
102
RTVSPropertyOp6
 70
     1
102
RTVSPropertyOp7
 70
     1
102
RTVSPropertyOp8
 70
     1
102
RTVSPropertyOp9
 70
     1
102
RTVSPropertyOp10
 70
     1
102
RTVSPropertyOp11
 70
     1
102
RTVSPropertyOp12
 70
     1
102
RTVSPropertyOp13
 70
     1
102
RTVSPropertyOp14
 70
     1
102
RTVSPropertyOp15
 70
     1
102
RTVSPropertyOp16
 70
     1
102
RTVSPropertyOp17
 70
     1
102
RTVSPropertyOp18
 70
     1
102
RTVSPropertyOp19
 70
     1
102
RTVSPropertyOp20
 70
     1
102
RTVSPropertyOp21
 70
     1
102
RTVSPropertyOp22
 70
     1
102
RTVSPropertyOp23
 70
     1
102
RTVSPropertyOp24
 70
     1
102
RTVSPropertyOp25
 70
     1
102
RTVSPropertyOp26
 70
     1
102
RTVSPropertyOp27
 70
     1
102
RTVSPropertyOp28
 70
     1
102
RTVSPropertyOp29
 70
     1
102
RTVSPropertyOp30
 70
     1
102
RTVSPropertyOp31
 70
     1
102
RTVSPropertyOp32
 70
     1
102
RTVSPropertyOp33
 70
     1
102
RTVSPropertyOp34
 70
     1
102
RTVSPropertyOp35
 70
     1
102
RTVSPropertyOp36
 70
     1
102
RTVSPropertyOp37
 70
     1
102
RTVSPropertyOp38
 70
     1
102
RTVSPropertyOp39
 70
     1
102
RTVSPropertyOp40
 70
     1
102
RTVSPropertyOp41
 70
     1
102
RTVSPropertyOp42
 70
     1
102
RTVSPropertyOp43
 70
     1
102
RTVSPropertyOp44
 70
     1
102
RTVSPropertyOp45
 70
     1
102
RTVSPropertyOp46
 70
     1
102
RTVSPropertyOp47
 70
     1
102
RTVSPropertyOp48
 70
     1
102
RTVSPropertyOp49
 70
     1
102
RTVSPropertyOp50
 70
     1
102
RTVSPropertyOp51
 70
     0
102
RTVSPropertyOp52
 70
     0
102
RTVSPropertyOp53
 70
     1
102
RTVSPropertyOp54
 70
     1
102
RTVSPropertyOp55
 70
     1
102
RTVSPropertyOp56
 70
     1
102
RTVSPropertyOp57
 70
     1
102
RTVSPost2010Prop28
280
     0
102
RTVSPost2010PropOp28
 70
     1
102
RTVSPost2010Prop29
280
     1
102
RTVSPost2010PropOp29
 70
     1
102
RTVSPost2010Prop30
280
     1
102
RTVSPost2010PropOp30
 70
     1
102
RTVSPost2010Prop31
280
     0
102
RTVSPost2010PropOp31
 70
     1
102
RTVSPost2010Prop32
280
     0
102
RTVSPost2010PropOp32
 70
     1
102
RTVSPost2010Prop33
280
     0
102
RTVSPost2010PropOp33
 70
     1
102
RTVSPost2010Prop34
280
     0
102
RTVSPost2010PropOp34
 70
     1
102
RTVSPost2010Prop35
280
     0
102
RTVSPost2010PropOp35
 70
     1
102
RTVSPost2010Prop36
280
     0
102
RTVSPost2010PropOp36
 70
     1
102
RTVSPost2010Prop37
 90
       50
102
RTVSPost2010PropOp37
 70
     1
102
RTVSPost2010Prop38
140
0.0
102
RTVSPost2010PropOp38
 70
     1
102
RTVSPost2010Prop39
140
1.0
102
RTVSPost2010PropOp39
 70
     1
102
RTVSPost2010Prop40
 90
        0
102
RTVSPost2010PropOp40
 70
     1
102
RTVSPost2010Prop41ColorIndex
 90
       18
102
RTVSPost2010Prop41ColorRGB
 90
        0
102
RTVSPost2010PropOp41
 70
     1
102
RTVSPost2010Prop42
 90
       50
102
RTVSPost2010PropOp42
 70
     1
102
RTVSPost2010Prop43
 90
        3
102
RTVSPost2010PropOp43
 70
     1
102
RTVSPost2010Prop44ColorIndex
 90
        5
102
RTVSPost2010Prop44ColorRGB
 90
      255
102
RTVSPost2010PropOp44
 70
     1
102
RTVSPost2010Prop45
280
     0
102
RTVSPost2010PropOp45
 70
     1
102
RTVSPost2010Prop46
 90
       50
102
RTVSPost2010PropOp46
 70
     1
102
RTVSPost2010Prop47
 90
       50
102
RTVSPost2010PropOp47
 70
     1
102
RTVSPost2010Prop48
 90
       50
102
RTVSPost2010PropOp48
 70
     1
102
RTVSPost2010Prop49
280
     0
102
RTVSPost2010PropOp49
 70
     1
102
RTVSPost2010Prop50
 90
       50
102
RTVSPost2010PropOp50
 70
     1
102
RTVSPost2010Prop51ColorIndex
 90
      256
102
RTVSPost2010Prop51ColorRGB
 90
-16777216
102
RTVSPost2010PropOp51
 70
     0
102
RTVSPost2010Prop52
140
1.0
102
RTVSPost2010PropOp52
 70
     0
102
RTVSPost2010Prop53
 90
        2
102
RTVSPost2010PropOp53
 70
     1
102
RTVSPost2010Prop54
  1
strokes_ogs.tif
102
RTVSPost2010PropOp54
 70
     1
102
RTVSPost2010Prop55
280
     0
102
RTVSPost2010PropOp55
 70
     1
102
RTVSPost2010Prop56
140
1.0
102
RTVSPost2010PropOp56
 70
     1
102
RTVSPost2010Prop57
140
1.0
102
RTVSPost2010PropOp57
 70
     1
  0
XRECORD
  5
BF4
102
{ACAD_REACTORS
330
BF3
102
}
330
BF3
100
AcDbXrecord
280
     1
102
RTVSPropertyOp0
 70
     1
102
RTVSPropertyOp1
 70
     1
102
RTVSPropertyOp2
 70
     1
102
RTVSPropertyOp3
 70
     1
102
RTVSPropertyOp4
 70
     1
102
RTVSPropertyOp5
 70
     1
102
RTVSPropertyOp6
 70
     1
102
RTVSPropertyOp7
 70
     1
102
RTVSPropertyOp8
 70
     1
102
RTVSPropertyOp9
 70
     1
102
RTVSPropertyOp10
 70
     1
102
RTVSPropertyOp11
 70
     1
102
RTVSPropertyOp12
 70
     1
102
RTVSPropertyOp13
 70
     1
102
RTVSPropertyOp14
 70
     1
102
RTVSPropertyOp15
 70
     1
102
RTVSPropertyOp16
 70
     1
102
RTVSPropertyOp17
 70
     1
102
RTVSPropertyOp18
 70
     1
102
RTVSPropertyOp19
 70
     1
102
RTVSPropertyOp20
 70
     1
102
RTVSPropertyOp21
 70
     1
102
RTVSPropertyOp22
 70
     1
102
RTVSPropertyOp23
 70
     1
102
RTVSPropertyOp24
 70
     1
102
RTVSPropertyOp25
 70
     1
102
RTVSPropertyOp26
 70
     1
102
RTVSPropertyOp27
 70
     1
102
RTVSPropertyOp28
 70
     1
102
RTVSPropertyOp29
 70
     1
102
RTVSPropertyOp30
 70
     1
102
RTVSPropertyOp31
 70
     1
102
RTVSPropertyOp32
 70
     1
102
RTVSPropertyOp33
 70
     1
102
RTVSPropertyOp34
 70
     1
102
RTVSPropertyOp35
 70
     1
102
RTVSPropertyOp36
 70
     1
102
RTVSPropertyOp37
 70
     1
102
RTVSPropertyOp38
 70
     1
102
RTVSPropertyOp39
 70
     1
102
RTVSPropertyOp40
 70
     1
102
RTVSPropertyOp41
 70
     1
102
RTVSPropertyOp42
 70
     1
102
RTVSPropertyOp43
 70
     1
102
RTVSPropertyOp44
 70
     1
102
RTVSPropertyOp45
 70
     1
102
RTVSPropertyOp46
 70
     1
102
RTVSPropertyOp47
 70
     1
102
RTVSPropertyOp48
 70
     1
102
RTVSPropertyOp49
 70
     1
102
RTVSPropertyOp50
 70
     1
102
RTVSPropertyOp51
 70
     0
102
RTVSPropertyOp52
 70
     0
102
RTVSPropertyOp53
 70
     1
102
RTVSPropertyOp54
 70
     1
102
RTVSPropertyOp55
 70
     1
102
RTVSPropertyOp56
 70
     1
102
RTVSPropertyOp57
 70
     1
102
RTVSPost2010Prop28
280
     0
102
RTVSPost2010PropOp28
 70
     1
102
RTVSPost2010Prop29
280
     1
102
RTVSPost2010PropOp29
 70
     1
102
RTVSPost2010Prop30
280
     1
102
RTVSPost2010PropOp30
 70
     1
102
RTVSPost2010Prop31
280
     0
102
RTVSPost2010PropOp31
 70
     1
102
RTVSPost2010Prop32
280
     0
102
RTVSPost2010PropOp32
 70
     1
102
RTVSPost2010Prop33
280
     0
102
RTVSPost2010PropOp33
 70
     1
102
RTVSPost2010Prop34
280
     0
102
RTVSPost2010PropOp34
 70
     1
102
RTVSPost2010Prop35
280
     0
102
RTVSPost2010PropOp35
 70
     1
102
RTVSPost2010Prop36
280
     0
102
RTVSPost2010PropOp36
 70
     1
102
RTVSPost2010Prop37
 90
       50
102
RTVSPost2010PropOp37
 70
     1
102
RTVSPost2010Prop38
140
0.0
102
RTVSPost2010PropOp38
 70
     1
102
RTVSPost2010Prop39
140
1.0
102
RTVSPost2010PropOp39
 70
     1
102
RTVSPost2010Prop40
 90
        0
102
RTVSPost2010PropOp40
 70
     1
102
RTVSPost2010Prop41ColorIndex
 90
       18
102
RTVSPost2010Prop41ColorRGB
 90
        0
102
RTVSPost2010PropOp41
 70
     1
102
RTVSPost2010Prop42
 90
       50
102
RTVSPost2010PropOp42
 70
     1
102
RTVSPost2010Prop43
 90
        3
102
RTVSPost2010PropOp43
 70
     1
102
RTVSPost2010Prop44ColorIndex
 90
        5
102
RTVSPost2010Prop44ColorRGB
 90
      255
102
RTVSPost2010PropOp44
 70
     1
102
RTVSPost2010Prop45
280
     0
102
RTVSPost2010PropOp45
 70
     1
102
RTVSPost2010Prop46
 90
       50
102
RTVSPost2010PropOp46
 70
     1
102
RTVSPost2010Prop47
 90
       50
102
RTVSPost2010PropOp47
 70
     1
102
RTVSPost2010Prop48
 90
       50
102
RTVSPost2010PropOp48
 70
     1
102
RTVSPost2010Prop49
280
     0
102
RTVSPost2010PropOp49
 70
     1
102
RTVSPost2010Prop50
 90
       50
102
RTVSPost2010PropOp50
 70
     1
102
RTVSPost2010Prop51ColorIndex
 90
      256
102
RTVSPost2010Prop51ColorRGB
 90
-16777216
102
RTVSPost2010PropOp51
 70
     0
102
RTVSPost2010Prop52
140
1.0
102
RTVSPost2010PropOp52
 70
     0
102
RTVSPost2010Prop53
 90
        2
102
RTVSPost2010PropOp53
 70
     1
102
RTVSPost2010Prop54
  1
strokes_ogs.tif
102
RTVSPost2010PropOp54
 70
     1
102
RTVSPost2010Prop55
280
     0
102
RTVSPost2010PropOp55
 70
     1
102
RTVSPost2010Prop56
140
1.0
102
RTVSPost2010PropOp56
 70
     1
102
RTVSPost2010Prop57
140
1.0
102
RTVSPost2010PropOp57
 70
     1
  0
XRECORD
  5
BF6
102
{ACAD_REACTORS
330
BF5
102
}
330
BF5
100
AcDbXrecord
280
     1
102
RTVSPropertyOp0
 70
     1
102
RTVSPropertyOp1
 70
     1
102
RTVSPropertyOp2
 70
     1
102
RTVSPropertyOp3
 70
     1
102
RTVSPropertyOp4
 70
     1
102
RTVSPropertyOp5
 70
     1
102
RTVSPropertyOp6
 70
     1
102
RTVSPropertyOp7
 70
     1
102
RTVSPropertyOp8
 70
     1
102
RTVSPropertyOp9
 70
     1
102
RTVSPropertyOp10
 70
     1
102
RTVSPropertyOp11
 70
     1
102
RTVSPropertyOp12
 70
     1
102
RTVSPropertyOp13
 70
     1
102
RTVSPropertyOp14
 70
     1
102
RTVSPropertyOp15
 70
     1
102
RTVSPropertyOp16
 70
     1
102
RTVSPropertyOp17
 70
     1
102
RTVSPropertyOp18
 70
     1
102
RTVSPropertyOp19
 70
     1
102
RTVSPropertyOp20
 70
     1
102
RTVSPropertyOp21
 70
     1
102
RTVSPropertyOp22
 70
     1
102
RTVSPropertyOp23
 70
     1
102
RTVSPropertyOp24
 70
     1
102
RTVSPropertyOp25
 70
     1
102
RTVSPropertyOp26
 70
     1
102
RTVSPropertyOp27
 70
     1
102
RTVSPropertyOp28
 70
     1
102
RTVSPropertyOp29
 70
     1
102
RTVSPropertyOp30
 70
     1
102
RTVSPropertyOp31
 70
     1
102
RTVSPropertyOp32
 70
     1
102
RTVSPropertyOp33
 70
     1
102
RTVSPropertyOp34
 70
     1
102
RTVSPropertyOp35
 70
     1
102
RTVSPropertyOp36
 70
     1
102
RTVSPropertyOp37
 70
     1
102
RTVSPropertyOp38
 70
     1
102
RTVSPropertyOp39
 70
     1
102
RTVSPropertyOp40
 70
     1
102
RTVSPropertyOp41
 70
     1
102
RTVSPropertyOp42
 70
     1
102
RTVSPropertyOp43
 70
     1
102
RTVSPropertyOp44
 70
     1
102
RTVSPropertyOp45
 70
     1
102
RTVSPropertyOp46
 70
     1
102
RTVSPropertyOp47
 70
     1
102
RTVSPropertyOp48
 70
     1
102
RTVSPropertyOp49
 70
     1
102
RTVSPropertyOp50
 70
     1
102
RTVSPropertyOp51
 70
     0
102
RTVSPropertyOp52
 70
     0
102
RTVSPropertyOp53
 70
     1
102
RTVSPropertyOp54
 70
     1
102
RTVSPropertyOp55
 70
     1
102
RTVSPropertyOp56
 70
     1
102
RTVSPropertyOp57
 70
     1
102
RTVSPost2010Prop28
280
     0
102
RTVSPost2010PropOp28
 70
     1
102
RTVSPost2010Prop29
280
     1
102
RTVSPost2010PropOp29
 70
     1
102
RTVSPost2010Prop30
280
     1
102
RTVSPost2010PropOp30
 70
     1
102
RTVSPost2010Prop31
280
     0
102
RTVSPost2010PropOp31
 70
     1
102
RTVSPost2010Prop32
280
     0
102
RTVSPost2010PropOp32
 70
     1
102
RTVSPost2010Prop33
280
     0
102
RTVSPost2010PropOp33
 70
     1
102
RTVSPost2010Prop34
280
     0
102
RTVSPost2010PropOp34
 70
     1
102
RTVSPost2010Prop35
280
     0
102
RTVSPost2010PropOp35
 70
     1
102
RTVSPost2010Prop36
280
     0
102
RTVSPost2010PropOp36
 70
     1
102
RTVSPost2010Prop37
 90
       50
102
RTVSPost2010PropOp37
 70
     1
102
RTVSPost2010Prop38
140
0.0
102
RTVSPost2010PropOp38
 70
     1
102
RTVSPost2010Prop39
140
1.0
102
RTVSPost2010PropOp39
 70
     1
102
RTVSPost2010Prop40
 90
        0
102
RTVSPost2010PropOp40
 70
     1
102
RTVSPost2010Prop41ColorIndex
 90
       18
102
RTVSPost2010Prop41ColorRGB
 90
        0
102
RTVSPost2010PropOp41
 70
     1
102
RTVSPost2010Prop42
 90
       50
102
RTVSPost2010PropOp42
 70
     1
102
RTVSPost2010Prop43
 90
        3
102
RTVSPost2010PropOp43
 70
     1
102
RTVSPost2010Prop44ColorIndex
 90
        5
102
RTVSPost2010Prop44ColorRGB
 90
      255
102
RTVSPost2010PropOp44
 70
     1
102
RTVSPost2010Prop45
280
     0
102
RTVSPost2010PropOp45
 70
     1
102
RTVSPost2010Prop46
 90
       50
102
RTVSPost2010PropOp46
 70
     1
102
RTVSPost2010Prop47
 90
       50
102
RTVSPost2010PropOp47
 70
     1
102
RTVSPost2010Prop48
 90
       50
102
RTVSPost2010PropOp48
 70
     1
102
RTVSPost2010Prop49
280
     0
102
RTVSPost2010PropOp49
 70
     1
102
RTVSPost2010Prop50
 90
       50
102
RTVSPost2010PropOp50
 70
     1
102
RTVSPost2010Prop51ColorIndex
 90
      256
102
RTVSPost2010Prop51ColorRGB
 90
-16777216
102
RTVSPost2010PropOp51
 70
     0
102
RTVSPost2010Prop52
140
1.0
102
RTVSPost2010PropOp52
 70
     0
102
RTVSPost2010Prop53
 90
        2
102
RTVSPost2010PropOp53
 70
     1
102
RTVSPost2010Prop54
  1
strokes_ogs.tif
102
RTVSPost2010PropOp54
 70
     1
102
RTVSPost2010Prop55
280
     0
102
RTVSPost2010PropOp55
 70
     1
102
RTVSPost2010Prop56
140
1.0
102
RTVSPost2010PropOp56
 70
     1
102
RTVSPost2010Prop57
140
1.0
102
RTVSPost2010PropOp57
 70
     1
  0
XRECORD
  5
BF8
102
{ACAD_REACTORS
330
BF7
102
}
330
BF7
100
AcDbXrecord
280
     1
102
RTVSPropertyOp0
 70
     1
102
RTVSPropertyOp1
 70
     1
102
RTVSPropertyOp2
 70
     1
102
RTVSPropertyOp3
 70
     1
102
RTVSPropertyOp4
 70
     1
102
RTVSPropertyOp5
 70
     1
102
RTVSPropertyOp6
 70
     1
102
RTVSPropertyOp7
 70
     1
102
RTVSPropertyOp8
 70
     1
102
RTVSPropertyOp9
 70
     1
102
RTVSPropertyOp10
 70
     1
102
RTVSPropertyOp11
 70
     1
102
RTVSPropertyOp12
 70
     1
102
RTVSPropertyOp13
 70
     1
102
RTVSPropertyOp14
 70
     1
102
RTVSPropertyOp15
 70
     1
102
RTVSPropertyOp16
 70
     1
102
RTVSPropertyOp17
 70
     1
102
RTVSPropertyOp18
 70
     1
102
RTVSPropertyOp19
 70
     1
102
RTVSPropertyOp20
 70
     1
102
RTVSPropertyOp21
 70
     1
102
RTVSPropertyOp22
 70
     1
102
RTVSPropertyOp23
 70
     1
102
RTVSPropertyOp24
 70
     1
102
RTVSPropertyOp25
 70
     1
102
RTVSPropertyOp26
 70
     1
102
RTVSPropertyOp27
 70
     1
102
RTVSPropertyOp28
 70
     1
102
RTVSPropertyOp29
 70
     1
102
RTVSPropertyOp30
 70
     1
102
RTVSPropertyOp31
 70
     1
102
RTVSPropertyOp32
 70
     1
102
RTVSPropertyOp33
 70
     1
102
RTVSPropertyOp34
 70
     1
102
RTVSPropertyOp35
 70
     1
102
RTVSPropertyOp36
 70
     1
102
RTVSPropertyOp37
 70
     1
102
RTVSPropertyOp38
 70
     1
102
RTVSPropertyOp39
 70
     1
102
RTVSPropertyOp40
 70
     1
102
RTVSPropertyOp41
 70
     1
102
RTVSPropertyOp42
 70
     1
102
RTVSPropertyOp43
 70
     1
102
RTVSPropertyOp44
 70
     1
102
RTVSPropertyOp45
 70
     1
102
RTVSPropertyOp46
 70
     1
102
RTVSPropertyOp47
 70
     1
102
RTVSPropertyOp48
 70
     1
102
RTVSPropertyOp49
 70
     1
102
RTVSPropertyOp50
 70
     1
102
RTVSPropertyOp51
 70
     0
102
RTVSPropertyOp52
 70
     0
102
RTVSPropertyOp53
 70
     1
102
RTVSPropertyOp54
 70
     1
102
RTVSPropertyOp55
 70
     1
102
RTVSPropertyOp56
 70
     1
102
RTVSPropertyOp57
 70
     1
102
RTVSPost2010Prop28
280
     0
102
RTVSPost2010PropOp28
 70
     1
102
RTVSPost2010Prop29
280
     1
102
RTVSPost2010PropOp29
 70
     1
102
RTVSPost2010Prop30
280
     1
102
RTVSPost2010PropOp30
 70
     1
102
RTVSPost2010Prop31
280
     0
102
RTVSPost2010PropOp31
 70
     1
102
RTVSPost2010Prop32
280
     0
102
RTVSPost2010PropOp32
 70
     1
102
RTVSPost2010Prop33
280
     0
102
RTVSPost2010PropOp33
 70
     1
102
RTVSPost2010Prop34
280
     0
102
RTVSPost2010PropOp34
 70
     1
102
RTVSPost2010Prop35
280
     0
102
RTVSPost2010PropOp35
 70
     1
102
RTVSPost2010Prop36
280
     0
102
RTVSPost2010PropOp36
 70
     1
102
RTVSPost2010Prop37
 90
       50
102
RTVSPost2010PropOp37
 70
     1
102
RTVSPost2010Prop38
140
0.0
102
RTVSPost2010PropOp38
 70
     1
102
RTVSPost2010Prop39
140
1.0
102
RTVSPost2010PropOp39
 70
     1
102
RTVSPost2010Prop40
 90
        0
102
RTVSPost2010PropOp40
 70
     1
102
RTVSPost2010Prop41ColorIndex
 90
       18
102
RTVSPost2010Prop41ColorRGB
 90
        0
102
RTVSPost2010PropOp41
 70
     1
102
RTVSPost2010Prop42
 90
       50
102
RTVSPost2010PropOp42
 70
     1
102
RTVSPost2010Prop43
 90
        3
102
RTVSPost2010PropOp43
 70
     1
102
RTVSPost2010Prop44ColorIndex
 90
        5
102
RTVSPost2010Prop44ColorRGB
 90
      255
102
RTVSPost2010PropOp44
 70
     1
102
RTVSPost2010Prop45
280
     0
102
RTVSPost2010PropOp45
 70
     1
102
RTVSPost2010Prop46
 90
       50
102
RTVSPost2010PropOp46
 70
     1
102
RTVSPost2010Prop47
 90
       50
102
RTVSPost2010PropOp47
 70
     1
102
RTVSPost2010Prop48
 90
       50
102
RTVSPost2010PropOp48
 70
     1
102
RTVSPost2010Prop49
280
     0
102
RTVSPost2010PropOp49
 70
     1
102
RTVSPost2010Prop50
 90
       50
102
RTVSPost2010PropOp50
 70
     1
102
RTVSPost2010Prop51ColorIndex
 90
      256
102
RTVSPost2010Prop51ColorRGB
 90
-16777216
102
RTVSPost2010PropOp51
 70
     0
102
RTVSPost2010Prop52
140
1.0
102
RTVSPost2010PropOp52
 70
     0
102
RTVSPost2010Prop53
 90
        2
102
RTVSPost2010PropOp53
 70
     1
102
RTVSPost2010Prop54
  1
strokes_ogs.tif
102
RTVSPost2010PropOp54
 70
     1
102
RTVSPost2010Prop55
280
     0
102
RTVSPost2010PropOp55
 70
     1
102
RTVSPost2010Prop56
140
1.0
102
RTVSPost2010PropOp56
 70
     1
102
RTVSPost2010Prop57
140
1.0
102
RTVSPost2010PropOp57
 70
     1
  0
XRECORD
  5
BFA
102
{ACAD_REACTORS
330
BF9
102
}
330
BF9
100
AcDbXrecord
280
     1
102
RTVSPropertyOp0
 70
     1
102
RTVSPropertyOp1
 70
     1
102
RTVSPropertyOp2
 70
     1
102
RTVSPropertyOp3
 70
     1
102
RTVSPropertyOp4
 70
     1
102
RTVSPropertyOp5
 70
     1
102
RTVSPropertyOp6
 70
     1
102
RTVSPropertyOp7
 70
     1
102
RTVSPropertyOp8
 70
     1
102
RTVSPropertyOp9
 70
     1
102
RTVSPropertyOp10
 70
     1
102
RTVSPropertyOp11
 70
     1
102
RTVSPropertyOp12
 70
     1
102
RTVSPropertyOp13
 70
     1
102
RTVSPropertyOp14
 70
     1
102
RTVSPropertyOp15
 70
     1
102
RTVSPropertyOp16
 70
     1
102
RTVSPropertyOp17
 70
     1
102
RTVSPropertyOp18
 70
     1
102
RTVSPropertyOp19
 70
     1
102
RTVSPropertyOp20
 70
     1
102
RTVSPropertyOp21
 70
     1
102
RTVSPropertyOp22
 70
     1
102
RTVSPropertyOp23
 70
     1
102
RTVSPropertyOp24
 70
     1
102
RTVSPropertyOp25
 70
     1
102
RTVSPropertyOp26
 70
     1
102
RTVSPropertyOp27
 70
     1
102
RTVSPropertyOp28
 70
     1
102
RTVSPropertyOp29
 70
     1
102
RTVSPropertyOp30
 70
     1
102
RTVSPropertyOp31
 70
     1
102
RTVSPropertyOp32
 70
     1
102
RTVSPropertyOp33
 70
     1
102
RTVSPropertyOp34
 70
     1
102
RTVSPropertyOp35
 70
     1
102
RTVSPropertyOp36
 70
     1
102
RTVSPropertyOp37
 70
     1
102
RTVSPropertyOp38
 70
     1
102
RTVSPropertyOp39
 70
     1
102
RTVSPropertyOp40
 70
     1
102
RTVSPropertyOp41
 70
     1
102
RTVSPropertyOp42
 70
     1
102
RTVSPropertyOp43
 70
     1
102
RTVSPropertyOp44
 70
     1
102
RTVSPropertyOp45
 70
     1
102
RTVSPropertyOp46
 70
     1
102
RTVSPropertyOp47
 70
     1
102
RTVSPropertyOp48
 70
     1
102
RTVSPropertyOp49
 70
     1
102
RTVSPropertyOp50
 70
     1
102
RTVSPropertyOp51
 70
     0
102
RTVSPropertyOp52
 70
     0
102
RTVSPropertyOp53
 70
     1
102
RTVSPropertyOp54
 70
     1
102
RTVSPropertyOp55
 70
     1
102
RTVSPropertyOp56
 70
     1
102
RTVSPropertyOp57
 70
     1
102
RTVSPost2010Prop28
280
     0
102
RTVSPost2010PropOp28
 70
     1
102
RTVSPost2010Prop29
280
     1
102
RTVSPost2010PropOp29
 70
     1
102
RTVSPost2010Prop30
280
     1
102
RTVSPost2010PropOp30
 70
     1
102
RTVSPost2010Prop31
280
     0
102
RTVSPost2010PropOp31
 70
     1
102
RTVSPost2010Prop32
280
     0
102
RTVSPost2010PropOp32
 70
     1
102
RTVSPost2010Prop33
280
     0
102
RTVSPost2010PropOp33
 70
     1
102
RTVSPost2010Prop34
280
     0
102
RTVSPost2010PropOp34
 70
     1
102
RTVSPost2010Prop35
280
     0
102
RTVSPost2010PropOp35
 70
     1
102
RTVSPost2010Prop36
280
     0
102
RTVSPost2010PropOp36
 70
     1
102
RTVSPost2010Prop37
 90
       50
102
RTVSPost2010PropOp37
 70
     1
102
RTVSPost2010Prop38
140
0.0
102
RTVSPost2010PropOp38
 70
     1
102
RTVSPost2010Prop39
140
1.0
102
RTVSPost2010PropOp39
 70
     1
102
RTVSPost2010Prop40
 90
        0
102
RTVSPost2010PropOp40
 70
     1
102
RTVSPost2010Prop41ColorIndex
 90
       18
102
RTVSPost2010Prop41ColorRGB
 90
        0
102
RTVSPost2010PropOp41
 70
     1
102
RTVSPost2010Prop42
 90
       50
102
RTVSPost2010PropOp42
 70
     1
102
RTVSPost2010Prop43
 90
        3
102
RTVSPost2010PropOp43
 70
     1
102
RTVSPost2010Prop44ColorIndex
 90
        5
102
RTVSPost2010Prop44ColorRGB
 90
      255
102
RTVSPost2010PropOp44
 70
     1
102
RTVSPost2010Prop45
280
     0
102
RTVSPost2010PropOp45
 70
     1
102
RTVSPost2010Prop46
 90
       50
102
RTVSPost2010PropOp46
 70
     1
102
RTVSPost2010Prop47
 90
       50
102
RTVSPost2010PropOp47
 70
     1
102
RTVSPost2010Prop48
 90
       50
102
RTVSPost2010PropOp48
 70
     1
102
RTVSPost2010Prop49
280
     0
102
RTVSPost2010PropOp49
 70
     1
102
RTVSPost2010Prop50
 90
       50
102
RTVSPost2010PropOp50
 70
     1
102
RTVSPost2010Prop51ColorIndex
 90
      256
102
RTVSPost2010Prop51ColorRGB
 90
-16777216
102
RTVSPost2010PropOp51
 70
     0
102
RTVSPost2010Prop52
140
1.0
102
RTVSPost2010PropOp52
 70
     0
102
RTVSPost2010Prop53
 90
        2
102
RTVSPost2010PropOp53
 70
     1
102
RTVSPost2010Prop54
  1
strokes_ogs.tif
102
RTVSPost2010PropOp54
 70
     1
102
RTVSPost2010Prop55
280
     0
102
RTVSPost2010PropOp55
 70
     1
102
RTVSPost2010Prop56
140
1.0
102
RTVSPost2010PropOp56
 70
     1
102
RTVSPost2010Prop57
140
1.0
102
RTVSPost2010PropOp57
 70
     1
  0
XRECORD
  5
BFC
102
{ACAD_REACTORS
330
BFB
102
}
330
BFB
100
AcDbXrecord
280
     1
102
RTVSPropertyOp0
 70
     1
102
RTVSPropertyOp1
 70
     1
102
RTVSPropertyOp2
 70
     1
102
RTVSPropertyOp3
 70
     1
102
RTVSPropertyOp4
 70
     1
102
RTVSPropertyOp5
 70
     1
102
RTVSPropertyOp6
 70
     1
102
RTVSPropertyOp7
 70
     1
102
RTVSPropertyOp8
 70
     1
102
RTVSPropertyOp9
 70
     1
102
RTVSPropertyOp10
 70
     1
102
RTVSPropertyOp11
 70
     1
102
RTVSPropertyOp12
 70
     1
102
RTVSPropertyOp13
 70
     1
102
RTVSPropertyOp14
 70
     1
102
RTVSPropertyOp15
 70
     1
102
RTVSPropertyOp16
 70
     1
102
RTVSPropertyOp17
 70
     1
102
RTVSPropertyOp18
 70
     1
102
RTVSPropertyOp19
 70
     1
102
RTVSPropertyOp20
 70
     1
102
RTVSPropertyOp21
 70
     1
102
RTVSPropertyOp22
 70
     1
102
RTVSPropertyOp23
 70
     1
102
RTVSPropertyOp24
 70
     1
102
RTVSPropertyOp25
 70
     1
102
RTVSPropertyOp26
 70
     1
102
RTVSPropertyOp27
 70
     1
102
RTVSPropertyOp28
 70
     1
102
RTVSPropertyOp29
 70
     1
102
RTVSPropertyOp30
 70
     1
102
RTVSPropertyOp31
 70
     1
102
RTVSPropertyOp32
 70
     1
102
RTVSPropertyOp33
 70
     1
102
RTVSPropertyOp34
 70
     1
102
RTVSPropertyOp35
 70
     1
102
RTVSPropertyOp36
 70
     1
102
RTVSPropertyOp37
 70
     1
102
RTVSPropertyOp38
 70
     1
102
RTVSPropertyOp39
 70
     1
102
RTVSPropertyOp40
 70
     1
102
RTVSPropertyOp41
 70
     1
102
RTVSPropertyOp42
 70
     1
102
RTVSPropertyOp43
 70
     1
102
RTVSPropertyOp44
 70
     1
102
RTVSPropertyOp45
 70
     1
102
RTVSPropertyOp46
 70
     1
102
RTVSPropertyOp47
 70
     1
102
RTVSPropertyOp48
 70
     1
102
RTVSPropertyOp49
 70
     1
102
RTVSPropertyOp50
 70
     1
102
RTVSPropertyOp51
 70
     0
102
RTVSPropertyOp52
 70
     0
102
RTVSPropertyOp53
 70
     1
102
RTVSPropertyOp54
 70
     1
102
RTVSPropertyOp55
 70
     1
102
RTVSPropertyOp56
 70
     1
102
RTVSPropertyOp57
 70
     1
102
RTVSPost2010Prop28
280
     0
102
RTVSPost2010PropOp28
 70
     1
102
RTVSPost2010Prop29
280
     1
102
RTVSPost2010PropOp29
 70
     1
102
RTVSPost2010Prop30
280
     1
102
RTVSPost2010PropOp30
 70
     1
102
RTVSPost2010Prop31
280
     0
102
RTVSPost2010PropOp31
 70
     1
102
RTVSPost2010Prop32
280
     0
102
RTVSPost2010PropOp32
 70
     1
102
RTVSPost2010Prop33
280
     0
102
RTVSPost2010PropOp33
 70
     1
102
RTVSPost2010Prop34
280
     0
102
RTVSPost2010PropOp34
 70
     1
102
RTVSPost2010Prop35
280
     0
102
RTVSPost2010PropOp35
 70
     1
102
RTVSPost2010Prop36
280
     0
102
RTVSPost2010PropOp36
 70
     1
102
RTVSPost2010Prop37
 90
       50
102
RTVSPost2010PropOp37
 70
     1
102
RTVSPost2010Prop38
140
0.0
102
RTVSPost2010PropOp38
 70
     1
102
RTVSPost2010Prop39
140
1.0
102
RTVSPost2010PropOp39
 70
     1
102
RTVSPost2010Prop40
 90
        0
102
RTVSPost2010PropOp40
 70
     1
102
RTVSPost2010Prop41ColorIndex
 90
       18
102
RTVSPost2010Prop41ColorRGB
 90
        0
102
RTVSPost2010PropOp41
 70
     1
102
RTVSPost2010Prop42
 90
       50
102
RTVSPost2010PropOp42
 70
     1
102
RTVSPost2010Prop43
 90
        3
102
RTVSPost2010PropOp43
 70
     1
102
RTVSPost2010Prop44ColorIndex
 90
        5
102
RTVSPost2010Prop44ColorRGB
 90
      255
102
RTVSPost2010PropOp44
 70
     1
102
RTVSPost2010Prop45
280
     0
102
RTVSPost2010PropOp45
 70
     1
102
RTVSPost2010Prop46
 90
       50
102
RTVSPost2010PropOp46
 70
     1
102
RTVSPost2010Prop47
 90
       50
102
RTVSPost2010PropOp47
 70
     1
102
RTVSPost2010Prop48
 90
       50
102
RTVSPost2010PropOp48
 70
     1
102
RTVSPost2010Prop49
280
     0
102
RTVSPost2010PropOp49
 70
     1
102
RTVSPost2010Prop50
 90
       50
102
RTVSPost2010PropOp50
 70
     1
102
RTVSPost2010Prop51ColorIndex
 90
      256
102
RTVSPost2010Prop51ColorRGB
 90
-16777216
102
RTVSPost2010PropOp51
 70
     0
102
RTVSPost2010Prop52
140
1.0
102
RTVSPost2010PropOp52
 70
     0
102
RTVSPost2010Prop53
 90
        2
102
RTVSPost2010PropOp53
 70
     1
102
RTVSPost2010Prop54
  1
strokes_ogs.tif
102
RTVSPost2010PropOp54
 70
     1
102
RTVSPost2010Prop55
280
     0
102
RTVSPost2010PropOp55
 70
     1
102
RTVSPost2010Prop56
140
1.0
102
RTVSPost2010PropOp56
 70
     1
102
RTVSPost2010Prop57
140
1.0
102
RTVSPost2010PropOp57
 70
     1
  0
XRECORD
  5
BFE
102
{ACAD_REACTORS
330
BFD
102
}
330
BFD
100
AcDbXrecord
280
     1
102
RTVSPropertyOp0
 70
     1
102
RTVSPropertyOp1
 70
     1
102
RTVSPropertyOp2
 70
     1
102
RTVSPropertyOp3
 70
     1
102
RTVSPropertyOp4
 70
     1
102
RTVSPropertyOp5
 70
     1
102
RTVSPropertyOp6
 70
     1
102
RTVSPropertyOp7
 70
     1
102
RTVSPropertyOp8
 70
     1
102
RTVSPropertyOp9
 70
     1
102
RTVSPropertyOp10
 70
     1
102
RTVSPropertyOp11
 70
     1
102
RTVSPropertyOp12
 70
     1
102
RTVSPropertyOp13
 70
     1
102
RTVSPropertyOp14
 70
     1
102
RTVSPropertyOp15
 70
     1
102
RTVSPropertyOp16
 70
     1
102
RTVSPropertyOp17
 70
     1
102
RTVSPropertyOp18
 70
     1
102
RTVSPropertyOp19
 70
     1
102
RTVSPropertyOp20
 70
     1
102
RTVSPropertyOp21
 70
     1
102
RTVSPropertyOp22
 70
     1
102
RTVSPropertyOp23
 70
     1
102
RTVSPropertyOp24
 70
     1
102
RTVSPropertyOp25
 70
     1
102
RTVSPropertyOp26
 70
     1
102
RTVSPropertyOp27
 70
     1
102
RTVSPropertyOp28
 70
     1
102
RTVSPropertyOp29
 70
     1
102
RTVSPropertyOp30
 70
     1
102
RTVSPropertyOp31
 70
     1
102
RTVSPropertyOp32
 70
     1
102
RTVSPropertyOp33
 70
     1
102
RTVSPropertyOp34
 70
     1
102
RTVSPropertyOp35
 70
     1
102
RTVSPropertyOp36
 70
     1
102
RTVSPropertyOp37
 70
     1
102
RTVSPropertyOp38
 70
     1
102
RTVSPropertyOp39
 70
     1
102
RTVSPropertyOp40
 70
     1
102
RTVSPropertyOp41
 70
     1
102
RTVSPropertyOp42
 70
     1
102
RTVSPropertyOp43
 70
     1
102
RTVSPropertyOp44
 70
     1
102
RTVSPropertyOp45
 70
     1
102
RTVSPropertyOp46
 70
     1
102
RTVSPropertyOp47
 70
     1
102
RTVSPropertyOp48
 70
     1
102
RTVSPropertyOp49
 70
     1
102
RTVSPropertyOp50
 70
     1
102
RTVSPropertyOp51
 70
     0
102
RTVSPropertyOp52
 70
     0
102
RTVSPropertyOp53
 70
     1
102
RTVSPropertyOp54
 70
     1
102
RTVSPropertyOp55
 70
     1
102
RTVSPropertyOp56
 70
     1
102
RTVSPropertyOp57
 70
     1
102
RTVSPost2010Prop28
280
     0
102
RTVSPost2010PropOp28
 70
     1
102
RTVSPost2010Prop29
280
     1
102
RTVSPost2010PropOp29
 70
     1
102
RTVSPost2010Prop30
280
     1
102
RTVSPost2010PropOp30
 70
     1
102
RTVSPost2010Prop31
280
     0
102
RTVSPost2010PropOp31
 70
     1
102
RTVSPost2010Prop32
280
     0
102
RTVSPost2010PropOp32
 70
     1
102
RTVSPost2010Prop33
280
     0
102
RTVSPost2010PropOp33
 70
     1
102
RTVSPost2010Prop34
280
     0
102
RTVSPost2010PropOp34
 70
     1
102
RTVSPost2010Prop35
280
     0
102
RTVSPost2010PropOp35
 70
     1
102
RTVSPost2010Prop36
280
     0
102
RTVSPost2010PropOp36
 70
     1
102
RTVSPost2010Prop37
 90
       50
102
RTVSPost2010PropOp37
 70
     1
102
RTVSPost2010Prop38
140
0.0
102
RTVSPost2010PropOp38
 70
     1
102
RTVSPost2010Prop39
140
1.0
102
RTVSPost2010PropOp39
 70
     1
102
RTVSPost2010Prop40
 90
        0
102
RTVSPost2010PropOp40
 70
     1
102
RTVSPost2010Prop41ColorIndex
 90
       18
102
RTVSPost2010Prop41ColorRGB
 90
        0
102
RTVSPost2010PropOp41
 70
     1
102
RTVSPost2010Prop42
 90
       50
102
RTVSPost2010PropOp42
 70
     1
102
RTVSPost2010Prop43
 90
        3
102
RTVSPost2010PropOp43
 70
     1
102
RTVSPost2010Prop44ColorIndex
 90
        5
102
RTVSPost2010Prop44ColorRGB
 90
      255
102
RTVSPost2010PropOp44
 70
     1
102
RTVSPost2010Prop45
280
     0
102
RTVSPost2010PropOp45
 70
     1
102
RTVSPost2010Prop46
 90
       50
102
RTVSPost2010PropOp46
 70
     1
102
RTVSPost2010Prop47
 90
       50
102
RTVSPost2010PropOp47
 70
     1
102
RTVSPost2010Prop48
 90
       50
102
RTVSPost2010PropOp48
 70
     1
102
RTVSPost2010Prop49
280
     0
102
RTVSPost2010PropOp49
 70
     1
102
RTVSPost2010Prop50
 90
       50
102
RTVSPost2010PropOp50
 70
     1
102
RTVSPost2010Prop51ColorIndex
 90
      256
102
RTVSPost2010Prop51ColorRGB
 90
-16777216
102
RTVSPost2010PropOp51
 70
     0
102
RTVSPost2010Prop52
140
1.0
102
RTVSPost2010PropOp52
 70
     0
102
RTVSPost2010Prop53
 90
        2
102
RTVSPost2010PropOp53
 70
     1
102
RTVSPost2010Prop54
  1
strokes_ogs.tif
102
RTVSPost2010PropOp54
 70
     1
102
RTVSPost2010Prop55
280
     0
102
RTVSPost2010PropOp55
 70
     1
102
RTVSPost2010Prop56
140
1.0
102
RTVSPost2010PropOp56
 70
     1
102
RTVSPost2010Prop57
140
1.0
102
RTVSPost2010PropOp57
 70
     1
  0
ENDSEC
  0
EOF
